  0
SECTION
  2
HEADER
  9
$ACADVER
  1
AC1015
  9
$ACADMAINTVER
 70
     6
  9
$DWGCODEPAGE
  3
ANSI_1252
  9
$INSBASE
 10
0.0
 20
0.0
 30
0.0
  9
$EXTMIN
 10
0.0
 20
0.0
 30
0.0
  9
$EXTMAX
 10
840.0
 20
594.0
 30
0.0
  9
$LIMMIN
 10
0.0
 20
0.0
  9
$LIMMAX
 10
840.0
 20
594.0
  9
$ORTHOMODE
 70
     0
  9
$REGENMODE
 70
     1
  9
$FILLMODE
 70
     1
  9
$QTEXTMODE
 70
     0
  9
$MIRRTEXT
 70
     1
  9
$LTSCALE
 40
1.0
  9
$ATTMODE
 70
     1
  9
$TEXTSIZE
 40
2.8
  9
$TRACEWID
 40
1.0
  9
$TEXTSTYLE
  7
Standard
  9
$CLAYER
  8
0
  9
$CELTYPE
  6
ByLayer
  9
$CECOLOR
 62
   256
  9
$CELTSCALE
 40
1.0
  9
$DISPSILH
 70
     0
  9
$DIMSCALE
 40
1.0
  9
$DIMASZ
 40
3.2
  9
$DIMEXO
 40
0.1
  9
$DIMDLI
 40
3.75
  9
$DIMRND
 40
0.0
  9
$DIMDLE
 40
0.0
  9
$DIMEXE
 40
1.0
  9
$DIMTP
 40
0.0
  9
$DIMTM
 40
0.0
  9
$DIMTXT
 40
3.2
  9
$DIMCEN
 40
2.5
  9
$DIMTSZ
 40
0.0
  9
$DIMTOL
 70
     0
  9
$DIMLIM
 70
     0
  9
$DIMTIH
 70
     1
  9
$DIMTOH
 70
     1
  9
$DIMSE1
 70
     0
  9
$DIMSE2
 70
     0
  9
$DIMTAD
 70
     1
  9
$DIMZIN
 70
     0
  9
$DIMBLK
  1

  9
$DIMASO
 70
     1
  9
$DIMSHO
 70
     1
  9
$DIMPOST
  1

  9
$DIMAPOST
  1

  9
$DIMALT
 70
     0
  9
$DIMALTD
 70
     3
  9
$DIMALTF
 40
0.0393700787
  9
$DIMLFAC
 40
1.0
  9
$DIMTOFL
 70
     1
  9
$DIMTVP
 40
0.0
  9
$DIMTIX
 70
     0
  9
$DIMSOXD
 70
     0
  9
$DIMSAH
 70
     0
  9
$DIMBLK1
  1

  9
$DIMBLK2
  1

  9
$DIMSTYLE
  2
ISO-25
  9
$DIMCLRD
 70
     0
  9
$DIMCLRE
 70
     0
  9
$DIMCLRT
 70
     0
  9
$DIMTFAC
 40
1.0
  9
$DIMGAP
 40
2.0
  9
$DIMJUST
 70
     0
  9
$DIMSD1
 70
     0
  9
$DIMSD2
 70
     0
  9
$DIMTOLJ
 70
     0
  9
$DIMTZIN
 70
     0
  9
$DIMALTZ
 70
     0
  9
$DIMALTTZ
 70
     0
  9
$DIMUPT
 70
     0
  9
$DIMDEC
 70
     2
  9
$DIMTDEC
 70
     2
  9
$DIMALTU
 70
     2
  9
$DIMALTTD
 70
     3
  9
$DIMTXSTY
  7
Standard
  9
$DIMAUNIT
 70
     0
  9
$DIMADEC
 70
     2
  9
$DIMALTRND
 40
0.0
  9
$DIMAZIN
 70
     0
  9
$DIMDSEP
 70
    44
  9
$DIMATFIT
 70
     3
  9
$DIMFRAC
 70
     0
  9
$DIMLDRBLK
  1

  9
$DIMLUNIT
 70
     2
  9
$DIMLWD
 70
    -2
  9
$DIMLWE
 70
    -2
  9
$DIMTMOVE
 70
     0
  9
$LUNITS
 70
     2
  9
$LUPREC
 70
     2
  9
$SKETCHINC
 40
1.0
  9
$FILLETRAD
 40
10.0
  9
$AUNITS
 70
     0
  9
$AUPREC
 70
     2
  9
$MENU
  1
.
  9
$ELEVATION
 40
0.0
  9
$PELEVATION
 40
0.0
  9
$THICKNESS
 40
0.0
  9
$LIMCHECK
 70
     0
  9
$CHAMFERA
 40
0.0
  9
$CHAMFERB
 40
0.0
  9
$CHAMFERC
 40
0.0
  9
$CHAMFERD
 40
0.0
  9
$SKPOLY
 70
     0
  9
$TDCREATE
 40
2458999.39831735
  9
$TDUCREATE
 40
2458999.314984016
  9
$TDUPDATE
 40
2458999.398318437
  9
$TDUUPDATE
 40
2458999.314985104
  9
$TDINDWG
 40
0.0000000116
  9
$TDUSRTIMER
 40
0.0000000116
  9
$USRTIMER
 70
     1
  9
$ANGBASE
 50
0.0
  9
$ANGDIR
 70
     0
  9
$PDMODE
 70
     0
  9
$PDSIZE
 40
-1.0
  9
$PLINEWID
 40
0.0
  9
$SPLFRAME
 70
     0
  9
$SPLINETYPE
 70
     6
  9
$SPLINESEGS
 70
     8
  9
$HANDSEED
  5
2F7
  9
$SURFTAB1
 70
     6
  9
$SURFTAB2
 70
     6
  9
$SURFTYPE
 70
     6
  9
$SURFU
 70
     6
  9
$SURFV
 70
     6
  9
$UCSBASE
  2

  9
$UCSNAME
  2

  9
$UCSORG
 10
0.0
 20
0.0
 30
0.0
  9
$UCSXDIR
 10
1.0
 20
0.0
 30
0.0
  9
$UCSYDIR
 10
0.0
 20
1.0
 30
0.0
  9
$UCSORTHOREF
  2

  9
$UCSORTHOVIEW
 70
     0
  9
$UCSORGTOP
 10
0.0
 20
0.0
 30
0.0
  9
$UCSORGBOTTOM
 10
0.0
 20
0.0
 30
0.0
  9
$UCSORGLEFT
 10
0.0
 20
0.0
 30
0.0
  9
$UCSORGRIGHT
 10
0.0
 20
0.0
 30
0.0
  9
$UCSORGFRONT
 10
0.0
 20
0.0
 30
0.0
  9
$UCSORGBACK
 10
0.0
 20
0.0
 30
0.0
  9
$PUCSBASE
  2

  9
$PUCSNAME
  2

  9
$PUCSORG
 10
0.0
 20
0.0
 30
0.0
  9
$PUCSXDIR
 10
1.0
 20
0.0
 30
0.0
  9
$PUCSYDIR
 10
0.0
 20
1.0
 30
0.0
  9
$PUCSORTHOREF
  2

  9
$PUCSORTHOVIEW
 70
     0
  9
$PUCSORGTOP
 10
0.0
 20
0.0
 30
0.0
  9
$PUCSORGBOTTOM
 10
0.0
 20
0.0
 30
0.0
  9
$PUCSORGLEFT
 10
0.0
 20
0.0
 30
0.0
  9
$PUCSORGRIGHT
 10
0.0
 20
0.0
 30
0.0
  9
$PUCSORGFRONT
 10
0.0
 20
0.0
 30
0.0
  9
$PUCSORGBACK
 10
0.0
 20
0.0
 30
0.0
  9
$USERI1
 70
     0
  9
$USERI2
 70
     0
  9
$USERI3
 70
     0
  9
$USERI4
 70
     0
  9
$USERI5
 70
     0
  9
$USERR1
 40
0.0
  9
$USERR2
 40
0.0
  9
$USERR3
 40
0.0
  9
$USERR4
 40
0.0
  9
$USERR5
 40
0.0
  9
$WORLDVIEW
 70
     1
  9
$SHADEDGE
 70
     3
  9
$SHADEDIF
 70
    70
  9
$TILEMODE
 70
     1
  9
$MAXACTVP
 70
    64
  9
$PINSBASE
 10
0.0
 20
0.0
 30
0.0
  9
$PLIMCHECK
 70
     0
  9
$PEXTMIN
 10
1.0000000000E+20
 20
1.0000000000E+20
 30
1.0000000000E+20
  9
$PEXTMAX
 10
-1.0000000000E+20
 20
-1.0000000000E+20
 30
-1.0000000000E+20
  9
$PLIMMIN
 10
0.0
 20
0.0
  9
$PLIMMAX
 10
420.0
 20
297.0
  9
$UNITMODE
 70
     0
  9
$VISRETAIN
 70
     1
  9
$PLINEGEN
 70
     0
  9
$PSLTSCALE
 70
     1
  9
$TREEDEPTH
 70
  3020
  9
$CMLSTYLE
  2
Standard
  9
$CMLJUST
 70
     0
  9
$CMLSCALE
 40
20.0
  9
$PROXYGRAPHICS
 70
     1
  9
$MEASUREMENT
 70
     1
  9
$CELWEIGHT
370
    -1
  9
$ENDCAPS
280
     0
  9
$JOINSTYLE
280
     0
  9
$LWDISPLAY
290
     1
  9
$INSUNITS
 70
     4
  9
$HYPERLINKBASE
  1

  9
$STYLESHEET
  1

  9
$XEDIT
290
     1
  9
$CEPSNTYPE
380
     0
  9
$PSTYLEMODE
290
     1
  9
$FINGERPRINTGUID
  2
{d7197232-b235-44ac-b6eb-5c3598b9b9f7}
  9
$VERSIONGUID
  2
{FAEB1C32-E019-11D5-929B-00C0DF256EC4}
  9
$EXTNAMES
290
     1
  9
$PSVPSCALE
 40
0.0
  9
$OLESTARTUP
290
     0
  0
ENDSEC
  0
SECTION
  2
CLASSES
  0
CLASS
  1
ACDBDICTIONARYWDFLT
  2
AcDbDictionaryWithDefault
  3
ObjectDBX Classes
 90
        0
280
     0
281
     0
  0
CLASS
  1
VISUALSTYLE
  2
AcDbVisualStyle
  3
ObjectDBX Classes
 90
     4095
280
     0
281
     0
  0
CLASS
  1
MATERIAL
  2
AcDbMaterial
  3
ObjectDBX Classes
 90
     1153
280
     0
281
     0
  0
CLASS
  1
SCALE
  2
AcDbScale
  3
ObjectDBX Classes
 90
     1153
280
     0
281
     0
  0
CLASS
  1
TABLESTYLE
  2
AcDbTableStyle
  3
ObjectDBX Classes
 90
     4095
280
     0
281
     0
  0
CLASS
  1
MLEADERSTYLE
  2
AcDbMLeaderStyle
  3
ACDB_MLEADERSTYLE_CLASS
 90
     4095
280
     0
281
     0
  0
CLASS
  1
SUN
  2
AcDbSun
  3
SCENEOE
 90
     1153
280
     0
281
     0
  0
CLASS
  1
ACDBPLACEHOLDER
  2
AcDbPlaceHolder
  3
ObjectDBX Classes
 90
        0
280
     0
281
     0
  0
CLASS
  1
LAYOUT
  2
AcDbLayout
  3
ObjectDBX Classes
 90
        0
280
     0
281
     0
  0
ENDSEC
  0
SECTION
  2
TABLES
  0
TABLE
  2
VPORT
  5
8
330
0
100
AcDbSymbolTable
 70
     1
  0
VPORT
  5
29
330
8
100
AcDbSymbolTableRecord
100
AcDbViewportTableRecord
  2
*Active
 70
     0
 10
0.0
 20
0.0
 11
1.0
 21
1.0
 12
420.0
 22
297.0
 13
0.0
 23
0.0
 14
10.0
 24
10.0
 15
10.0
 25
10.0
 16
0.0
 26
0.0
 36
1.0
 17
0.0
 27
0.0
 37
0.0
 40
594.0
 41
1.4141414141
 42
50.0
 43
0.0
 44
0.0
 50
0.0
 51
0.0
 71
     0
 72
  2000
 73
     1
 74
     3
 75
     0
 76
     0
 77
     0
 78
     0
281
     0
 65
     1
110
0.0
120
0.0
130
0.0
111
1.0
121
0.0
131
0.0
112
0.0
122
1.0
132
0.0
 79
     0
146
0.0
  0
ENDTAB
  0
TABLE
  2
LTYPE
  5
5
330
0
100
AcDbSymbolTable
 70
     6
  0
LTYPE
  5
14
330
5
100
AcDbSymbolTableRecord
100
AcDbLinetypeTableRecord
  2
ByBlock
 70
     0
  3

 72
    65
 73
     0
 40
0.0
  0
LTYPE
  5
15
330
5
100
AcDbSymbolTableRecord
100
AcDbLinetypeTableRecord
  2
ByLayer
 70
     0
  3

 72
    65
 73
     0
 40
0.0
  0
LTYPE
  5
16
330
5
100
AcDbSymbolTableRecord
100
AcDbLinetypeTableRecord
  2
Continuous
 70
     0
  3
Solid line
 72
    65
 73
     0
 40
0.0
  0
LTYPE
  5
6E
330
5
100
AcDbSymbolTableRecord
100
AcDbLinetypeTableRecord
  2
HIDDEN
 70
     0
  3
Hidden __ __ __ __ __ __ __ __ __ __ __ __ __ __
 72
    65
 73
     2
 40
1.905
 49
1.27
 74
     0
 49
-0.635
 74
     0
  0
LTYPE
  5
6F
330
5
100
AcDbSymbolTableRecord
100
AcDbLinetypeTableRecord
  2
PHANTOM
 70
     0
  3
Phantom ______  __  __  ______  __  __  ______
 72
    65
 73
     6
 40
12.7
 49
6.35
 74
     0
 49
-1.27
 74
     0
 49
1.27
 74
     0
 49
-1.27
 74
     0
 49
1.27
 74
     0
 49
-1.27
 74
     0
  0
LTYPE
  5
70
330
5
100
AcDbSymbolTableRecord
100
AcDbLinetypeTableRecord
  2
CENTER
 70
     0
  3
Center ____ _ ____ _ ____ _ ____ _ ____ _ ____
 72
    65
 73
     4
 40
10.16
 49
6.35
 74
     0
 49
-1.27
 74
     0
 49
1.27
 74
     0
 49
-1.27
 74
     0
  0
LTYPE
  5
71
330
5
100
AcDbSymbolTableRecord
100
AcDbLinetypeTableRecord
  2
CENTERX2
 70
     0
  3
Center (2x) ________  __  ________  __  _____
 72
    65
 73
     4
 40
20.32
 49
12.7
 74
     0
 49
-2.54
 74
     0
 49
2.54
 74
     0
 49
-2.54
 74
     0
  0
LTYPE
  5
72
330
5
100
AcDbSymbolTableRecord
100
AcDbLinetypeTableRecord
  2
DOT2
 70
     0
  3
Dot (.5x) ........................................
 72
    65
 73
     2
 40
0.635
 49
0.0
 74
     0
 49
-0.635
 74
     0
  0
ENDTAB
  0
TABLE
  2
LAYER
  5
2
330
0
100
AcDbSymbolTable
 70
     2
  0
LAYER
  5
10
330
2
100
AcDbSymbolTableRecord
100
AcDbLayerTableRecord
  2
0
 70
     0
 62
     7
  6
Continuous
370
    -3
390
F
  0
LAYER
  5
73
330
2
100
AcDbSymbolTableRecord
100
AcDbLayerTableRecord
  2
FORMAT
 70
     0
 62
     7
  6
Continuous
370
    -3
390
F
  0
ENDTAB
  0
TABLE
  2
STYLE
  5
3
330
0
100
AcDbSymbolTable
 70
     5
  0
STYLE
  5
11
330
3
100
AcDbSymbolTableRecord
100
AcDbTextStyleTableRecord
  2
Standard
 70
     0
 40
0.0
 41
1.0
 50
0.0
 71
     0
 42
2.8
  3
txt
  4

  0
STYLE
  5
8F
330
3
100
AcDbSymbolTableRecord
100
AcDbTextStyleTableRecord
  2
SLDTEXTSTYLE0
 70
     0
 40
0.0
 41
0.605
 50
0.0
 71
     0
 42
2.8
  3
TXT
  4

  0
STYLE
  5
95
330
3
100
AcDbSymbolTableRecord
100
AcDbTextStyleTableRecord
  2
SLDTEXTSTYLE1
 70
     0
 40
0.0
 41
0.75
 50
0.0
 71
     0
 42
2.8
  3
TXT
  4

  0
STYLE
  5
DC
330
3
100
AcDbSymbolTableRecord
100
AcDbTextStyleTableRecord
  2
SLDTEXTSTYLE2
 70
     0
 40
0.0
 41
0.7
 50
0.0
 71
     0
 42
2.8
  3
TXT
  4

  0
STYLE
  5
F6
330
3
100
AcDbSymbolTableRecord
100
AcDbTextStyleTableRecord
  2
SLDTEXTSTYLE3
 70
     0
 40
0.0
 41
0.57
 50
0.0
 71
     0
 42
2.8
  3
TXT
  4

  0
ENDTAB
  0
TABLE
  2
VIEW
  5
6
330
0
100
AcDbSymbolTable
 70
     0
  0
ENDTAB
  0
TABLE
  2
UCS
  5
7
330
0
100
AcDbSymbolTable
 70
     0
  0
ENDTAB
  0
TABLE
  2
APPID
  5
9
330
0
100
AcDbSymbolTable
 70
     1
  0
APPID
  5
12
330
9
100
AcDbSymbolTableRecord
100
AcDbRegAppTableRecord
  2
ACAD
 70
     0
  0
ENDTAB
  0
TABLE
  2
DIMSTYLE
  5
A
330
0
100
AcDbSymbolTable
 70
     1
100
AcDbDimStyleTable
  0
DIMSTYLE
105
27
330
A
100
AcDbSymbolTableRecord
100
AcDbDimStyleTableRecord
  2
ISO-25
 70
     0
 41
2.5
 42
0.625
 43
3.75
 44
1.25
 73
     0
 74
     0
 77
     1
 78
     8
140
2.5
141
2.5
143
0.0393700787
147
0.625
171
     3
172
     1
178
     0
271
     2
272
     2
274
     3
278
    44
283
     0
284
     8
340
11
  0
ENDTAB
  0
TABLE
  2
BLOCK_RECORD
  5
1
330
0
100
AcDbSymbolTable
 70
    36
  0
BLOCK_RECORD
  5
1F
330
1
100
AcDbSymbolTableRecord
100
AcDbBlockTableRecord
  2
*Model_Space
340
22
  0
BLOCK_RECORD
  5
1B
330
1
100
AcDbSymbolTableRecord
100
AcDbBlockTableRecord
  2
*Paper_Space
340
1E
  0
BLOCK_RECORD
  5
23
330
1
100
AcDbSymbolTableRecord
100
AcDbBlockTableRecord
  2
*Paper_Space0
340
26
  0
BLOCK_RECORD
  5
74
330
1
100
AcDbSymbolTableRecord
100
AcDbBlockTableRecord
  2
Blocco6
340
0
  0
BLOCK_RECORD
  5
8C
330
1
100
AcDbSymbolTableRecord
100
AcDbBlockTableRecord
  2
SW_NOTE_0
340
0
102
{BLKREFS
331
91
102
}
  0
BLOCK_RECORD
  5
92
330
1
100
AcDbSymbolTableRecord
100
AcDbBlockTableRecord
  2
SW_NOTE_0_1
340
0
102
{BLKREFS
331
97
102
}
  0
BLOCK_RECORD
  5
98
330
1
100
AcDbSymbolTableRecord
100
AcDbBlockTableRecord
  2
SW_NOTE_0_2
340
0
102
{BLKREFS
331
9C
102
}
  0
BLOCK_RECORD
  5
9D
330
1
100
AcDbSymbolTableRecord
100
AcDbBlockTableRecord
  2
SW_NOTE_0_3
340
0
102
{BLKREFS
331
A1
102
}
  0
BLOCK_RECORD
  5
A2
330
1
100
AcDbSymbolTableRecord
100
AcDbBlockTableRecord
  2
SW_NOTE_0_4
340
0
102
{BLKREFS
331
A6
102
}
  0
BLOCK_RECORD
  5
A7
330
1
100
AcDbSymbolTableRecord
100
AcDbBlockTableRecord
  2
SW_NOTE_0_5
340
0
102
{BLKREFS
331
AB
102
}
  0
BLOCK_RECORD
  5
AC
330
1
100
AcDbSymbolTableRecord
100
AcDbBlockTableRecord
  2
SW_NOTE_0_6
340
0
102
{BLKREFS
331
B0
102
}
  0
BLOCK_RECORD
  5
B1
330
1
100
AcDbSymbolTableRecord
100
AcDbBlockTableRecord
  2
SW_NOTE_0_7
340
0
102
{BLKREFS
331
B5
102
}
  0
BLOCK_RECORD
  5
B6
330
1
100
AcDbSymbolTableRecord
100
AcDbBlockTableRecord
  2
SW_NOTE_0_8
340
0
102
{BLKREFS
331
BA
102
}
  0
BLOCK_RECORD
  5
BB
330
1
100
AcDbSymbolTableRecord
100
AcDbBlockTableRecord
  2
SW_NOTE_0_9
340
0
102
{BLKREFS
331
BF
102
}
  0
BLOCK_RECORD
  5
C0
330
1
100
AcDbSymbolTableRecord
100
AcDbBlockTableRecord
  2
SW_NOTE_0_10
340
0
102
{BLKREFS
331
C4
102
}
  0
BLOCK_RECORD
  5
C5
330
1
100
AcDbSymbolTableRecord
100
AcDbBlockTableRecord
  2
SW_NOTE_0_11
340
0
102
{BLKREFS
331
C9
102
}
  0
BLOCK_RECORD
  5
CA
330
1
100
AcDbSymbolTableRecord
100
AcDbBlockTableRecord
  2
SW_NOTE_0_12
340
0
102
{BLKREFS
331
CE
102
}
  0
BLOCK_RECORD
  5
CF
330
1
100
AcDbSymbolTableRecord
100
AcDbBlockTableRecord
  2
SW_NOTE_0_13
340
0
102
{BLKREFS
331
D3
102
}
  0
BLOCK_RECORD
  5
D4
330
1
100
AcDbSymbolTableRecord
100
AcDbBlockTableRecord
  2
SW_NOTE_0_14
340
0
102
{BLKREFS
331
D8
102
}
  0
BLOCK_RECORD
  5
D9
330
1
100
AcDbSymbolTableRecord
100
AcDbBlockTableRecord
  2
SW_NOTE_0_15
340
0
102
{BLKREFS
331
DE
102
}
  0
BLOCK_RECORD
  5
DF
330
1
100
AcDbSymbolTableRecord
100
AcDbBlockTableRecord
  2
SW_NOTE_0_16
340
0
102
{BLKREFS
331
E3
102
}
  0
BLOCK_RECORD
  5
E4
330
1
100
AcDbSymbolTableRecord
100
AcDbBlockTableRecord
  2
SW_NOTE_0_17
340
0
102
{BLKREFS
331
E8
102
}
  0
BLOCK_RECORD
  5
E9
330
1
100
AcDbSymbolTableRecord
100
AcDbBlockTableRecord
  2
SW_NOTE_0_18
340
0
102
{BLKREFS
331
ED
102
}
  0
BLOCK_RECORD
  5
EE
330
1
100
AcDbSymbolTableRecord
100
AcDbBlockTableRecord
  2
SW_NOTE_0_19
340
0
102
{BLKREFS
331
F2
102
}
  0
BLOCK_RECORD
  5
F3
330
1
100
AcDbSymbolTableRecord
100
AcDbBlockTableRecord
  2
SW_NOTE_0_20
340
0
102
{BLKREFS
331
F8
102
}
  0
BLOCK_RECORD
  5
F9
330
1
100
AcDbSymbolTableRecord
100
AcDbBlockTableRecord
  2
SW_NOTE_0_21
340
0
102
{BLKREFS
331
FD
102
}
  0
BLOCK_RECORD
  5
FE
330
1
100
AcDbSymbolTableRecord
100
AcDbBlockTableRecord
  2
SW_NOTE_0_22
340
0
102
{BLKREFS
331
102
102
}
  0
BLOCK_RECORD
  5
103
330
1
100
AcDbSymbolTableRecord
100
AcDbBlockTableRecord
  2
SW_NOTE_0_23
340
0
102
{BLKREFS
331
107
102
}
  0
BLOCK_RECORD
  5
108
330
1
100
AcDbSymbolTableRecord
100
AcDbBlockTableRecord
  2
SW_NOTE_0_24
340
0
102
{BLKREFS
331
10C
102
}
  0
BLOCK_RECORD
  5
10D
330
1
100
AcDbSymbolTableRecord
100
AcDbBlockTableRecord
  2
SW_NOTE_0_25
340
0
102
{BLKREFS
331
111
102
}
  0
BLOCK_RECORD
  5
112
330
1
100
AcDbSymbolTableRecord
100
AcDbBlockTableRecord
  2
SW_NOTE_0_26
340
0
102
{BLKREFS
331
116
102
}
  0
BLOCK_RECORD
  5
117
330
1
100
AcDbSymbolTableRecord
100
AcDbBlockTableRecord
  2
SW_NOTE_0_27
340
0
102
{BLKREFS
331
11B
102
}
  0
BLOCK_RECORD
  5
11C
330
1
100
AcDbSymbolTableRecord
100
AcDbBlockTableRecord
  2
SW_NOTE_0_28
340
0
102
{BLKREFS
331
120
102
}
  0
BLOCK_RECORD
  5
121
330
1
100
AcDbSymbolTableRecord
100
AcDbBlockTableRecord
  2
SW_NOTE_0_29
340
0
102
{BLKREFS
331
125
102
}
  0
BLOCK_RECORD
  5
126
330
1
100
AcDbSymbolTableRecord
100
AcDbBlockTableRecord
  2
SW_NOTE_0_30
340
0
102
{BLKREFS
331
12A
102
}
  0
BLOCK_RECORD
  5
12B
330
1
100
AcDbSymbolTableRecord
100
AcDbBlockTableRecord
  2
SW_NOTE_0_31
340
0
102
{BLKREFS
331
12F
102
}
  0
BLOCK_RECORD
  5
130
330
1
100
AcDbSymbolTableRecord
100
AcDbBlockTableRecord
  2
SW_NOTE_0_32
340
0
102
{BLKREFS
331
134
102
}
  0
BLOCK_RECORD
  5
135
330
1
100
AcDbSymbolTableRecord
100
AcDbBlockTableRecord
  2
Blocco2
340
0
  0
ENDTAB
  0
ENDSEC
  0
SECTION
  2
BLOCKS
  0
BLOCK
  5
20
330
1F
100
AcDbEntity
  8
0
100
AcDbBlockBegin
  2
*Model_Space
 70
     0
 10
0.0
 20
0.0
 30
0.0
  3
*Model_Space
  1

  0
ENDBLK
  5
21
330
1F
100
AcDbEntity
  8
0
100
AcDbBlockEnd
  0
BLOCK
  5
1C
330
1B
100
AcDbEntity
 67
     1
  8
0
100
AcDbBlockBegin
  2
*Paper_Space
 70
     0
 10
0.0
 20
0.0
 30
0.0
  3
*Paper_Space
  1

  0
ENDBLK
  5
1D
330
1B
100
AcDbEntity
 67
     1
  8
0
100
AcDbBlockEnd
  0
BLOCK
  5
24
330
23
100
AcDbEntity
  8
0
100
AcDbBlockBegin
  2
*Paper_Space0
 70
     0
 10
0.0
 20
0.0
 30
0.0
  3
*Paper_Space0
  1

  0
ENDBLK
  5
25
330
23
100
AcDbEntity
  8
0
100
AcDbBlockEnd
  0
BLOCK
  5
75
330
74
100
AcDbEntity
  8
0
100
AcDbBlockBegin
  2
Blocco6
 70
     0
 10
0.0
 20
0.0
 30
0.0
  3
Blocco6
  1

  0
LINE
  5
77
330
74
100
AcDbEntity
  8
0
  6
Continuous
 62
     7
370
    18
100
AcDbLine
 10
261.7483897306
 20
45.3393712312
 30
0.0
 11
261.7483897306
 21
34.621197788
 31
0.0
  0
LINE
  5
78
330
74
100
AcDbEntity
  8
0
  6
Continuous
 62
     7
370
    18
100
AcDbLine
 10
217.7886799447
 20
45.3393712312
 30
0.0
 11
275.7483897306
 21
45.3393712312
 31
0.0
  0
LINE
  5
79
330
74
100
AcDbEntity
  8
0
  6
Continuous
 62
     7
370
    18
100
AcDbLine
 10
254.7483897306
 20
45.3393712312
 30
0.0
 11
254.7483897306
 21
34.621197788
 31
0.0
  0
LINE
  5
7A
330
74
100
AcDbEntity
  8
0
  6
Continuous
 62
     7
370
    18
100
AcDbLine
 10
247.7483897306
 20
45.3393712312
 30
0.0
 11
247.7483897306
 21
34.621197788
 31
0.0
  0
LINE
  5
7B
330
74
100
AcDbEntity
  8
0
  6
Continuous
 62
     7
370
    18
100
AcDbLine
 10
240.7483897306
 20
45.3393712312
 30
0.0
 11
240.7483897306
 21
34.6231715189
 31
0.0
  0
LINE
  5
7C
330
74
100
AcDbEntity
  8
0
  6
Continuous
 62
     7
370
    18
100
AcDbLine
 10
225.3934785013
 20
41.2930718328
 30
0.0
 11
225.3934785013
 21
34.621197788
 31
0.0
  0
LINE
  5
7D
330
74
100
AcDbEntity
  8
0
  6
Continuous
 62
     7
370
    18
100
AcDbLine
 10
217.7886799447
 20
37.7200141529
 30
0.0
 11
275.7483897306
 21
37.7200141529
 31
0.0
  0
LINE
  5
7E
330
74
100
AcDbEntity
  8
0
  6
Continuous
 62
     7
370
    18
100
AcDbLine
 10
268.7483897306
 20
45.3391156419
 30
0.0
 11
268.7483897306
 21
34.621197788
 31
0.0
  0
LINE
  5
7F
330
74
100
AcDbEntity
  8
0
  6
Continuous
 62
     7
370
    18
100
AcDbLine
 10
217.7886799447
 20
47.6283816013
 30
0.0
 11
275.7483897306
 21
47.6283816013
 31
0.0
  0
LINE
  5
80
330
74
100
AcDbEntity
  8
0
  6
Continuous
 62
     7
370
    18
100
AcDbLine
 10
217.7886799447
 20
47.6283816013
 30
0.0
 11
217.7886799447
 21
34.621197788
 31
0.0
  0
LINE
  5
81
330
74
100
AcDbEntity
  8
0
  6
Continuous
 62
     7
370
    18
100
AcDbLine
 10
217.7886799447
 20
34.621197788
 30
0.0
 11
275.7483897306
 21
34.621197788
 31
0.0
  0
LINE
  5
82
330
74
100
AcDbEntity
  8
0
  6
Continuous
 62
     7
370
    18
100
AcDbLine
 10
275.7483897306
 20
47.6283816013
 30
0.0
 11
275.7483897306
 21
34.621197788
 31
0.0
  0
LINE
  5
83
330
74
100
AcDbEntity
  8
0
  6
Continuous
 62
     7
370
    18
100
AcDbLine
 10
297.327828823
 20
45.3393191679
 30
0.0
 11
297.327828823
 21
34.6211457247
 31
0.0
  0
LINE
  5
84
330
74
100
AcDbEntity
  8
0
  6
Continuous
 62
     7
370
    18
100
AcDbLine
 10
276.327828823
 20
45.3393191679
 30
0.0
 11
304.327828823
 21
45.3393191679
 31
0.0
  0
LINE
  5
85
330
74
100
AcDbEntity
  8
0
  6
Continuous
 62
     7
370
    18
100
AcDbLine
 10
290.327828823
 20
45.3393191679
 30
0.0
 11
290.327828823
 21
34.6211457247
 31
0.0
  0
LINE
  5
86
330
74
100
AcDbEntity
  8
0
  6
Continuous
 62
     7
370
    18
100
AcDbLine
 10
283.327828823
 20
45.3393191679
 30
0.0
 11
283.327828823
 21
34.6211457247
 31
0.0
  0
LINE
  5
87
330
74
100
AcDbEntity
  8
0
  6
Continuous
 62
     7
370
    18
100
AcDbLine
 10
276.327828823
 20
37.7199620895
 30
0.0
 11
304.327828823
 21
37.7199620895
 31
0.0
  0
LINE
  5
88
330
74
100
AcDbEntity
  8
0
  6
Continuous
 62
     7
370
    18
100
AcDbLine
 10
276.327828823
 20
47.628329538
 30
0.0
 11
304.327828823
 21
47.628329538
 31
0.0
  0
LINE
  5
89
330
74
100
AcDbEntity
  8
0
  6
Continuous
 62
     7
370
    18
100
AcDbLine
 10
276.327828823
 20
47.628329538
 30
0.0
 11
276.327828823
 21
34.6211457247
 31
0.0
  0
LINE
  5
8A
330
74
100
AcDbEntity
  8
0
  6
Continuous
 62
     7
370
    18
100
AcDbLine
 10
276.327828823
 20
34.6211457247
 30
0.0
 11
304.327828823
 21
34.6211457247
 31
0.0
  0
LINE
  5
8B
330
74
100
AcDbEntity
  8
0
  6
Continuous
 62
     7
370
    18
100
AcDbLine
 10
304.327828823
 20
47.628329538
 30
0.0
 11
304.327828823
 21
34.6211457247
 31
0.0
  0
INSERT
  5
91
330
74
100
AcDbEntity
  8
0
  6
Continuous
 62
     7
370
     0
100
AcDbBlockReference
  2
SW_NOTE_0
 10
276.7575986504
 20
42.3724324694
 30
0.0
  0
INSERT
  5
97
330
74
100
AcDbEntity
  8
0
  6
Continuous
 62
     7
370
     0
100
AcDbBlockReference
  2
SW_NOTE_0_1
 10
283.9875463317
 20
35.1333333589
 30
0.0
  0
INSERT
  5
9C
330
74
100
AcDbEntity
  8
0
  6
Continuous
 62
     7
370
     0
100
AcDbBlockReference
  2
SW_NOTE_0_2
 10
276.7575986504
 20
38.6318341497
 30
0.0
  0
INSERT
  5
A1
330
74
100
AcDbEntity
  8
0
  6
Continuous
 62
     7
370
     0
100
AcDbBlockReference
  2
SW_NOTE_0_3
 10
278.8536055826
 20
35.1333333589
 30
0.0
  0
INSERT
  5
A6
330
74
100
AcDbEntity
  8
0
  6
Continuous
 62
     7
370
     0
100
AcDbBlockReference
  2
SW_NOTE_0_4
 10
290.9462692632
 20
38.5992630516
 30
0.0
  0
INSERT
  5
AB
330
74
100
AcDbEntity
  8
0
  6
Continuous
 62
     7
370
     0
100
AcDbBlockReference
  2
SW_NOTE_0_5
 10
290.9462692632
 20
42.3724324694
 30
0.0
  0
INSERT
  5
B0
330
74
100
AcDbEntity
  8
0
  6
Continuous
 62
     7
370
     0
100
AcDbBlockReference
  2
SW_NOTE_0_6
 10
290.9462692632
 20
35.1333333589
 30
0.0
  0
INSERT
  5
B5
330
74
100
AcDbEntity
  8
0
  6
Continuous
 62
     7
370
     0
100
AcDbBlockReference
  2
SW_NOTE_0_7
 10
297.9758587209
 20
35.1333333589
 30
0.0
  0
INSERT
  5
BA
330
74
100
AcDbEntity
  8
0
  6
Continuous
 62
     7
370
     0
100
AcDbBlockReference
  2
SW_NOTE_0_8
 10
277.2836998764
 20
45.6658939202
 30
0.0
  0
INSERT
  5
BF
330
74
100
AcDbEntity
  8
0
  6
Continuous
 62
     7
370
     0
100
AcDbBlockReference
  2
SW_NOTE_0_9
 10
297.6720780609
 20
42.3724324694
 30
0.0
  0
INSERT
  5
C4
330
74
100
AcDbEntity
  8
0
  6
Continuous
 62
     7
370
     0
100
AcDbBlockReference
  2
SW_NOTE_0_10
 10
283.731633204
 20
42.3724324694
 30
0.0
  0
INSERT
  5
C9
330
74
100
AcDbEntity
  8
0
  6
Continuous
 62
     7
370
     0
100
AcDbBlockReference
  2
SW_NOTE_0_11
 10
283.800228837
 20
38.6318341497
 30
0.0
  0
INSERT
  5
CE
330
74
100
AcDbEntity
  8
0
  6
Continuous
 62
     7
370
     0
100
AcDbBlockReference
  2
SW_NOTE_0_12
 10
262.4580279424
 20
42.368473324
 30
0.0
  0
INSERT
  5
D3
330
74
100
AcDbEntity
  8
0
  6
Continuous
 62
     7
370
     0
100
AcDbBlockReference
  2
SW_NOTE_0_13
 10
262.4580279424
 20
38.6772231693
 30
0.0
  0
INSERT
  5
D8
330
74
100
AcDbEntity
  8
0
  6
Continuous
 62
     7
370
     0
100
AcDbBlockReference
  2
SW_NOTE_0_14
 10
226.6372296524
 20
45.4202007067
 30
0.0
  0
INSERT
  5
DE
330
74
100
AcDbEntity
  8
0
  6
Continuous
 62
     7
370
     0
100
AcDbBlockReference
  2
SW_NOTE_0_15
 10
262.6510757453
 20
35.1333333589
 30
0.0
  0
INSERT
  5
E3
330
74
100
AcDbEntity
  8
0
  6
Continuous
 62
     7
370
     0
100
AcDbBlockReference
  2
SW_NOTE_0_16
 10
270.0197742617
 20
35.1333333589
 30
0.0
  0
INSERT
  5
E8
330
74
100
AcDbEntity
  8
0
  6
Continuous
 62
     7
370
     0
100
AcDbBlockReference
  2
SW_NOTE_0_17
 10
269.271591382
 20
38.5029609426
 30
0.0
  0
INSERT
  5
ED
330
74
100
AcDbEntity
  8
0
  6
Continuous
 62
     7
370
     0
100
AcDbBlockReference
  2
SW_NOTE_0_18
 10
269.2372935655
 20
42.1942110973
 30
0.0
  0
INSERT
  5
F2
330
74
100
AcDbEntity
  8
0
  6
Continuous
 62
     7
370
     0
100
AcDbBlockReference
  2
SW_NOTE_0_19
 10
255.7986785478
 20
35.1333333589
 30
0.0
  0
INSERT
  5
F8
330
74
100
AcDbEntity
  8
0
  6
Continuous
 62
     7
370
     0
100
AcDbBlockReference
  2
SW_NOTE_0_20
 10
255.7021546464
 20
42.1361236885
 30
0.0
  0
INSERT
  5
FD
330
74
100
AcDbEntity
  8
0
  6
Continuous
 62
     7
370
     0
100
AcDbBlockReference
  2
SW_NOTE_0_21
 10
255.7364524628
 20
38.4448735338
 30
0.0
  0
INSERT
  5
102
330
74
100
AcDbEntity
  8
0
  6
Continuous
 62
     7
370
     0
100
AcDbBlockReference
  2
SW_NOTE_0_22
 10
242.2617924305
 20
35.1333333589
 30
0.0
  0
INSERT
  5
107
330
74
100
AcDbEntity
  8
0
  6
Continuous
 62
     7
370
     0
100
AcDbBlockReference
  2
SW_NOTE_0_23
 10
242.2617924305
 20
38.5737988042
 30
0.0
  0
INSERT
  5
10C
330
74
100
AcDbEntity
  8
0
  6
Continuous
 62
     7
370
     0
100
AcDbBlockReference
  2
SW_NOTE_0_24
 10
242.2617924305
 20
42.3143971239
 30
0.0
  0
INSERT
  5
111
330
74
100
AcDbEntity
  8
0
  6
Continuous
 62
     7
370
     0
100
AcDbBlockReference
  2
SW_NOTE_0_25
 10
218.9375325504
 20
35.1333333589
 30
0.0
  0
INSERT
  5
116
330
74
100
AcDbEntity
  8
0
  6
Continuous
 62
     7
370
     0
100
AcDbBlockReference
  2
SW_NOTE_0_26
 10
218.9818635148
 20
38.5066690491
 30
0.0
  0
INSERT
  5
11B
330
74
100
AcDbEntity
  8
0
  6
Continuous
 62
     7
370
     0
100
AcDbBlockReference
  2
SW_NOTE_0_27
 10
218.9475656984
 20
42.2472673688
 30
0.0
  0
INSERT
  5
120
330
74
100
AcDbEntity
  8
0
  6
Continuous
 62
     7
370
     0
100
AcDbBlockReference
  2
SW_NOTE_0_28
 10
226.377456033
 20
35.1333333589
 30
0.0
  0
INSERT
  5
125
330
74
100
AcDbEntity
  8
0
  6
Continuous
 62
     7
370
     0
100
AcDbBlockReference
  2
SW_NOTE_0_29
 10
226.6372296524
 20
38.418502895
 30
0.0
  0
INSERT
  5
12A
330
74
100
AcDbEntity
  8
0
  6
Continuous
 62
     7
370
     0
100
AcDbBlockReference
  2
SW_NOTE_0_30
 10
248.1321662153
 20
42.3724845328
 30
0.0
  0
INSERT
  5
12F
330
74
100
AcDbEntity
  8
0
  6
Continuous
 62
     7
370
     0
100
AcDbBlockReference
  2
SW_NOTE_0_31
 10
248.2007618482
 20
38.6318862131
 30
0.0
  0
INSERT
  5
134
330
74
100
AcDbEntity
  8
0
  6
Continuous
 62
     7
370
     0
100
AcDbBlockReference
  2
SW_NOTE_0_32
 10
248.8812171991
 20
35.1333333589
 30
0.0
  0
ENDBLK
  5
76
330
74
100
AcDbEntity
  8
0
100
AcDbBlockEnd
  0
BLOCK
  5
8D
330
8C
100
AcDbEntity
  8
0
100
AcDbBlockBegin
  2
SW_NOTE_0
 70
     0
 10
0.0
 20
0.0
 30
0.0
  3
SW_NOTE_0
  1

  0
MTEXT
  5
90
330
8C
100
AcDbEntity
  8
0
  6
Continuous
 62
     0
370
     0
100
AcDbMText
 10
0.0
 20
2.3874608764
 30
0.0
 40
1.8520833333
 41
0.0
 71
     1
 72
     1
  1
fino
  7
SLDTEXTSTYLE0
 73
     1
 44
1.0
  0
ENDBLK
  5
8E
330
8C
100
AcDbEntity
  8
0
100
AcDbBlockEnd
  0
BLOCK
  5
93
330
92
100
AcDbEntity
  8
0
100
AcDbBlockBegin
  2
SW_NOTE_0_1
 70
     0
 10
0.0
 20
0.0
 30
0.0
  3
SW_NOTE_0_1
  1

  0
MTEXT
  5
96
330
92
100
AcDbEntity
  8
0
  6
Continuous
 62
     0
370
     0
100
AcDbMText
 10
0.0
 20
2.0463950369
 30
0.0
 40
1.5875
 41
0.0
 71
     1
 72
     1
  1
±0°30'
  7
SLDTEXTSTYLE1
 73
     1
 44
1.0
  0
ENDBLK
  5
94
330
92
100
AcDbEntity
  8
0
100
AcDbBlockEnd
  0
BLOCK
  5
99
330
98
100
AcDbEntity
  8
0
100
AcDbBlockBegin
  2
SW_NOTE_0_2
 70
     0
 10
0.0
 20
0.0
 30
0.0
  3
SW_NOTE_0_2
  1

  0
MTEXT
  5
9B
330
98
100
AcDbEntity
  8
0
  6
Continuous
 62
     0
370
     0
100
AcDbMText
 10
0.0
 20
2.3874608764
 30
0.0
 40
1.8520833333
 41
0.0
 71
     1
 72
     1
  1
a 10
  7
SLDTEXTSTYLE0
 73
     1
 44
1.0
  0
ENDBLK
  5
9A
330
98
100
AcDbEntity
  8
0
100
AcDbBlockEnd
  0
BLOCK
  5
9E
330
9D
100
AcDbEntity
  8
0
100
AcDbBlockBegin
  2
SW_NOTE_0_3
 70
     0
 10
0.0
 20
0.0
 30
0.0
  3
SW_NOTE_0_3
  1

  0
MTEXT
  5
A0
330
9D
100
AcDbEntity
  8
0
  6
Continuous
 62
     0
370
     0
100
AcDbMText
 10
0.0
 20
2.0463950369
 30
0.0
 40
1.5875
 41
0.0
 71
     1
 72
     1
  1
±1°
  7
SLDTEXTSTYLE1
 73
     1
 44
1.0
  0
ENDBLK
  5
9F
330
9D
100
AcDbEntity
  8
0
100
AcDbBlockEnd
  0
BLOCK
  5
A3
330
A2
100
AcDbEntity
  8
0
100
AcDbBlockBegin
  2
SW_NOTE_0_4
 70
     0
 10
0.0
 20
0.0
 30
0.0
  3
SW_NOTE_0_4
  1

  0
MTEXT
  5
A5
330
A2
100
AcDbEntity
  8
0
  6
Continuous
 62
     0
370
     0
100
AcDbMText
 10
0.0
 20
2.3874608764
 30
0.0
 40
1.8520833333
 41
0.0
 71
     1
 72
     1
  1
a 120
  7
SLDTEXTSTYLE0
 73
     1
 44
1.0
  0
ENDBLK
  5
A4
330
A2
100
AcDbEntity
  8
0
100
AcDbBlockEnd
  0
BLOCK
  5
A8
330
A7
100
AcDbEntity
  8
0
100
AcDbBlockBegin
  2
SW_NOTE_0_5
 70
     0
 10
0.0
 20
0.0
 30
0.0
  3
SW_NOTE_0_5
  1

  0
MTEXT
  5
AA
330
A7
100
AcDbEntity
  8
0
  6
Continuous
 62
     0
370
     0
100
AcDbMText
 10
0.0
 20
2.3874608764
 30
0.0
 40
1.8520833333
 41
0.0
 71
     1
 72
     1
  1
> 50
  7
SLDTEXTSTYLE0
 73
     1
 44
1.0
  0
ENDBLK
  5
A9
330
A7
100
AcDbEntity
  8
0
100
AcDbBlockEnd
  0
BLOCK
  5
AD
330
AC
100
AcDbEntity
  8
0
100
AcDbBlockBegin
  2
SW_NOTE_0_6
 70
     0
 10
0.0
 20
0.0
 30
0.0
  3
SW_NOTE_0_6
  1

  0
MTEXT
  5
AF
330
AC
100
AcDbEntity
  8
0
  6
Continuous
 62
     0
370
     0
100
AcDbMText
 10
0.0
 20
2.0463950369
 30
0.0
 40
1.5875
 41
0.0
 71
     1
 72
     1
  1
±0°20'
  7
SLDTEXTSTYLE1
 73
     1
 44
1.0
  0
ENDBLK
  5
AE
330
AC
100
AcDbEntity
  8
0
100
AcDbBlockEnd
  0
BLOCK
  5
B2
330
B1
100
AcDbEntity
  8
0
100
AcDbBlockBegin
  2
SW_NOTE_0_7
 70
     0
 10
0.0
 20
0.0
 30
0.0
  3
SW_NOTE_0_7
  1

  0
MTEXT
  5
B4
330
B1
100
AcDbEntity
  8
0
  6
Continuous
 62
     0
370
     0
100
AcDbMText
 10
0.0
 20
2.0463950369
 30
0.0
 40
1.5875
 41
0.0
 71
     1
 72
     1
  1
±0°10'
  7
SLDTEXTSTYLE1
 73
     1
 44
1.0
  0
ENDBLK
  5
B3
330
B1
100
AcDbEntity
  8
0
100
AcDbBlockEnd
  0
BLOCK
  5
B7
330
B6
100
AcDbEntity
  8
0
100
AcDbBlockBegin
  2
SW_NOTE_0_8
 70
     0
 10
0.0
 20
0.0
 30
0.0
  3
SW_NOTE_0_8
  1

  0
MTEXT
  5
B9
330
B6
100
AcDbEntity
  8
0
  6
Continuous
 62
     0
370
     0
100
AcDbMText
 10
0.0
 20
1.7053291974
 30
0.0
 40
1.3229166667
 41
0.0
 71
     1
 72
     1
  1
Dim. Angolari UNI EN 22768-mK
  7
SLDTEXTSTYLE0
 73
     1
 44
1.0
  0
ENDBLK
  5
B8
330
B6
100
AcDbEntity
  8
0
100
AcDbBlockEnd
  0
BLOCK
  5
BC
330
BB
100
AcDbEntity
  8
0
100
AcDbBlockBegin
  2
SW_NOTE_0_9
 70
     0
 10
0.0
 20
0.0
 30
0.0
  3
SW_NOTE_0_9
  1

  0
MTEXT
  5
BE
330
BB
100
AcDbEntity
  8
0
  6
Continuous
 62
     0
370
     0
100
AcDbMText
 10
0.0
 20
2.3874608764
 30
0.0
 40
1.8520833333
 41
0.0
 71
     1
 72
     1
  1
> 120
  7
SLDTEXTSTYLE0
 73
     1
 44
1.0
  0
ENDBLK
  5
BD
330
BB
100
AcDbEntity
  8
0
100
AcDbBlockEnd
  0
BLOCK
  5
C1
330
C0
100
AcDbEntity
  8
0
100
AcDbBlockBegin
  2
SW_NOTE_0_10
 70
     0
 10
0.0
 20
0.0
 30
0.0
  3
SW_NOTE_0_10
  1

  0
MTEXT
  5
C3
330
C0
100
AcDbEntity
  8
0
  6
Continuous
 62
     0
370
     0
100
AcDbMText
 10
0.0
 20
2.3874608764
 30
0.0
 40
1.8520833333
 41
0.0
 71
     1
 72
     1
  1
> 10
  7
SLDTEXTSTYLE0
 73
     1
 44
1.0
  0
ENDBLK
  5
C2
330
C0
100
AcDbEntity
  8
0
100
AcDbBlockEnd
  0
BLOCK
  5
C6
330
C5
100
AcDbEntity
  8
0
100
AcDbBlockBegin
  2
SW_NOTE_0_11
 70
     0
 10
0.0
 20
0.0
 30
0.0
  3
SW_NOTE_0_11
  1

  0
MTEXT
  5
C8
330
C5
100
AcDbEntity
  8
0
  6
Continuous
 62
     0
370
     0
100
AcDbMText
 10
0.0
 20
2.3874608764
 30
0.0
 40
1.8520833333
 41
0.0
 71
     1
 72
     1
  1
a 50
  7
SLDTEXTSTYLE0
 73
     1
 44
1.0
  0
ENDBLK
  5
C7
330
C5
100
AcDbEntity
  8
0
100
AcDbBlockEnd
  0
BLOCK
  5
CB
330
CA
100
AcDbEntity
  8
0
100
AcDbBlockBegin
  2
SW_NOTE_0_12
 70
     0
 10
0.0
 20
0.0
 30
0.0
  3
SW_NOTE_0_12
  1

  0
MTEXT
  5
CD
330
CA
100
AcDbEntity
  8
0
  6
Continuous
 62
     0
370
     0
100
AcDbMText
 10
0.0
 20
2.3874608764
 30
0.0
 40
1.8520833333
 41
0.0
 71
     1
 72
     1
  1
> 30
  7
SLDTEXTSTYLE0
 73
     1
 44
1.0
  0
ENDBLK
  5
CC
330
CA
100
AcDbEntity
  8
0
100
AcDbBlockEnd
  0
BLOCK
  5
D0
330
CF
100
AcDbEntity
  8
0
100
AcDbBlockBegin
  2
SW_NOTE_0_13
 70
     0
 10
0.0
 20
0.0
 30
0.0
  3
SW_NOTE_0_13
  1

  0
MTEXT
  5
D2
330
CF
100
AcDbEntity
  8
0
  6
Continuous
 62
     0
370
     0
100
AcDbMText
 10
0.0
 20
2.3874608764
 30
0.0
 40
1.8520833333
 41
0.0
 71
     1
 72
     1
  1
a 120
  7
SLDTEXTSTYLE0
 73
     1
 44
1.0
  0
ENDBLK
  5
D1
330
CF
100
AcDbEntity
  8
0
100
AcDbBlockEnd
  0
BLOCK
  5
D5
330
D4
100
AcDbEntity
  8
0
100
AcDbBlockBegin
  2
SW_NOTE_0_14
 70
     0
 10
0.0
 20
0.0
 30
0.0
  3
SW_NOTE_0_14
  1

  0
MTEXT
  5
D7
330
D4
100
AcDbEntity
  8
0
  6
Continuous
 62
     0
370
     0
100
AcDbMText
 10
0.0
 20
1.7053291974
 30
0.0
 40
1.3229166667
 41
0.0
 71
     1
 72
     1
  1
Tolleranze generali Norma UNI EN 22768-mK
  7
SLDTEXTSTYLE0
 73
     1
 44
1.0
  0
ENDBLK
  5
D6
330
D4
100
AcDbEntity
  8
0
100
AcDbBlockEnd
  0
BLOCK
  5
DA
330
D9
100
AcDbEntity
  8
0
100
AcDbBlockBegin
  2
SW_NOTE_0_15
 70
     0
 10
0.0
 20
0.0
 30
0.0
  3
SW_NOTE_0_15
  1

  0
MTEXT
  5
DD
330
D9
100
AcDbEntity
  8
0
  6
Continuous
 62
     0
370
     0
100
AcDbMText
 10
0.0
 20
2.0463950369
 30
0.0
 40
1.5875
 41
0.0
 71
     1
 72
     1
  1
± 0.3
  7
SLDTEXTSTYLE2
 73
     1
 44
1.0
  0
ENDBLK
  5
DB
330
D9
100
AcDbEntity
  8
0
100
AcDbBlockEnd
  0
BLOCK
  5
E0
330
DF
100
AcDbEntity
  8
0
100
AcDbBlockBegin
  2
SW_NOTE_0_16
 70
     0
 10
0.0
 20
0.0
 30
0.0
  3
SW_NOTE_0_16
  1

  0
MTEXT
  5
E2
330
DF
100
AcDbEntity
  8
0
  6
Continuous
 62
     0
370
     0
100
AcDbMText
 10
0.0
 20
2.0463950369
 30
0.0
 40
1.5875
 41
0.0
 71
     1
 72
     1
  1
± 0.5
  7
SLDTEXTSTYLE2
 73
     1
 44
1.0
  0
ENDBLK
  5
E1
330
DF
100
AcDbEntity
  8
0
100
AcDbBlockEnd
  0
BLOCK
  5
E5
330
E4
100
AcDbEntity
  8
0
100
AcDbBlockBegin
  2
SW_NOTE_0_17
 70
     0
 10
0.0
 20
0.0
 30
0.0
  3
SW_NOTE_0_17
  1

  0
MTEXT
  5
E7
330
E4
100
AcDbEntity
  8
0
  6
Continuous
 62
     0
370
     0
100
AcDbMText
 10
0.0
 20
2.3874608764
 30
0.0
 40
1.8520833333
 41
0.0
 71
     1
 72
     1
  1
a 400
  7
SLDTEXTSTYLE0
 73
     1
 44
1.0
  0
ENDBLK
  5
E6
330
E4
100
AcDbEntity
  8
0
100
AcDbBlockEnd
  0
BLOCK
  5
EA
330
E9
100
AcDbEntity
  8
0
100
AcDbBlockBegin
  2
SW_NOTE_0_18
 70
     0
 10
0.0
 20
0.0
 30
0.0
  3
SW_NOTE_0_18
  1

  0
MTEXT
  5
EC
330
E9
100
AcDbEntity
  8
0
  6
Continuous
 62
     0
370
     0
100
AcDbMText
 10
0.0
 20
2.3874608764
 30
0.0
 40
1.8520833333
 41
0.0
 71
     1
 72
     1
  1
> 120
  7
SLDTEXTSTYLE0
 73
     1
 44
1.0
  0
ENDBLK
  5
EB
330
E9
100
AcDbEntity
  8
0
100
AcDbBlockEnd
  0
BLOCK
  5
EF
330
EE
100
AcDbEntity
  8
0
100
AcDbBlockBegin
  2
SW_NOTE_0_19
 70
     0
 10
0.0
 20
0.0
 30
0.0
  3
SW_NOTE_0_19
  1

  0
MTEXT
  5
F1
330
EE
100
AcDbEntity
  8
0
  6
Continuous
 62
     0
370
     0
100
AcDbMText
 10
0.0
 20
2.0463950369
 30
0.0
 40
1.5875
 41
0.0
 71
     1
 72
     1
  1
± 0.2
  7
SLDTEXTSTYLE2
 73
     1
 44
1.0
  0
ENDBLK
  5
F0
330
EE
100
AcDbEntity
  8
0
100
AcDbBlockEnd
  0
BLOCK
  5
F4
330
F3
100
AcDbEntity
  8
0
100
AcDbBlockBegin
  2
SW_NOTE_0_20
 70
     0
 10
0.0
 20
0.0
 30
0.0
  3
SW_NOTE_0_20
  1

  0
MTEXT
  5
F7
330
F3
100
AcDbEntity
  8
0
  6
Continuous
 62
     0
370
     0
100
AcDbMText
 10
0.0
 20
2.3874608764
 30
0.0
 40
1.8520833333
 41
0.0
 71
     1
 72
     1
  1
> 6
  7
SLDTEXTSTYLE3
 73
     1
 44
1.0
  0
ENDBLK
  5
F5
330
F3
100
AcDbEntity
  8
0
100
AcDbBlockEnd
  0
BLOCK
  5
FA
330
F9
100
AcDbEntity
  8
0
100
AcDbBlockBegin
  2
SW_NOTE_0_21
 70
     0
 10
0.0
 20
0.0
 30
0.0
  3
SW_NOTE_0_21
  1

  0
MTEXT
  5
FC
330
F9
100
AcDbEntity
  8
0
  6
Continuous
 62
     0
370
     0
100
AcDbMText
 10
0.0
 20
2.3874608764
 30
0.0
 40
1.8520833333
 41
0.0
 71
     1
 72
     1
  1
a 30
  7
SLDTEXTSTYLE0
 73
     1
 44
1.0
  0
ENDBLK
  5
FB
330
F9
100
AcDbEntity
  8
0
100
AcDbBlockEnd
  0
BLOCK
  5
FF
330
FE
100
AcDbEntity
  8
0
100
AcDbBlockBegin
  2
SW_NOTE_0_22
 70
     0
 10
0.0
 20
0.0
 30
0.0
  3
SW_NOTE_0_22
  1

  0
MTEXT
  5
101
330
FE
100
AcDbEntity
  8
0
  6
Continuous
 62
     0
370
     0
100
AcDbMText
 10
0.0
 20
2.0463950369
 30
0.0
 40
1.5875
 41
0.0
 71
     1
 72
     1
  1
± 0.1
  7
SLDTEXTSTYLE2
 73
     1
 44
1.0
  0
ENDBLK
  5
100
330
FE
100
AcDbEntity
  8
0
100
AcDbBlockEnd
  0
BLOCK
  5
104
330
103
100
AcDbEntity
  8
0
100
AcDbBlockBegin
  2
SW_NOTE_0_23
 70
     0
 10
0.0
 20
0.0
 30
0.0
  3
SW_NOTE_0_23
  1

  0
MTEXT
  5
106
330
103
100
AcDbEntity
  8
0
  6
Continuous
 62
     0
370
     0
100
AcDbMText
 10
0.0
 20
2.3874608764
 30
0.0
 40
1.8520833333
 41
0.0
 71
     1
 72
     1
  1
a 3
  7
SLDTEXTSTYLE3
 73
     1
 44
1.0
  0
ENDBLK
  5
105
330
103
100
AcDbEntity
  8
0
100
AcDbBlockEnd
  0
BLOCK
  5
109
330
108
100
AcDbEntity
  8
0
100
AcDbBlockBegin
  2
SW_NOTE_0_24
 70
     0
 10
0.0
 20
0.0
 30
0.0
  3
SW_NOTE_0_24
  1

  0
MTEXT
  5
10B
330
108
100
AcDbEntity
  8
0
  6
Continuous
 62
     0
370
     0
100
AcDbMText
 10
0.0
 20
2.3874608764
 30
0.0
 40
1.8520833333
 41
0.0
 71
     1
 72
     1
  1
fino
  7
SLDTEXTSTYLE0
 73
     1
 44
1.0
  0
ENDBLK
  5
10A
330
108
100
AcDbEntity
  8
0
100
AcDbBlockEnd
  0
BLOCK
  5
10E
330
10D
100
AcDbEntity
  8
0
100
AcDbBlockBegin
  2
SW_NOTE_0_25
 70
     0
 10
0.0
 20
0.0
 30
0.0
  3
SW_NOTE_0_25
  1

  0
MTEXT
  5
110
330
10D
100
AcDbEntity
  8
0
  6
Continuous
 62
     0
370
     0
100
AcDbMText
 10
0.0
 20
2.0463950369
 30
0.0
 40
1.5875
 41
0.0
 71
     1
 72
     1
  1
m
  7
SLDTEXTSTYLE1
 73
     1
 44
1.0
  0
ENDBLK
  5
10F
330
10D
100
AcDbEntity
  8
0
100
AcDbBlockEnd
  0
BLOCK
  5
113
330
112
100
AcDbEntity
  8
0
100
AcDbBlockBegin
  2
SW_NOTE_0_26
 70
     0
 10
0.0
 20
0.0
 30
0.0
  3
SW_NOTE_0_26
  1

  0
MTEXT
  5
115
330
112
100
AcDbEntity
  8
0
  6
Continuous
 62
     0
370
     0
100
AcDbMText
 10
0.0
 20
2.3874608764
 30
0.0
 40
1.8520833333
 41
0.0
 71
     1
 72
     1
  1
Des.
  7
SLDTEXTSTYLE0
 73
     1
 44
1.0
  0
ENDBLK
  5
114
330
112
100
AcDbEntity
  8
0
100
AcDbBlockEnd
  0
BLOCK
  5
118
330
117
100
AcDbEntity
  8
0
100
AcDbBlockBegin
  2
SW_NOTE_0_27
 70
     0
 10
0.0
 20
0.0
 30
0.0
  3
SW_NOTE_0_27
  1

  0
MTEXT
  5
11A
330
117
100
AcDbEntity
  8
0
  6
Continuous
 62
     0
370
     0
100
AcDbMText
 10
0.0
 20
2.3874608764
 30
0.0
 40
1.8520833333
 41
0.0
 71
     1
 72
     1
  1
Classe di tolleranza
  7
SLDTEXTSTYLE0
 73
     1
 44
1.0
  0
ENDBLK
  5
119
330
117
100
AcDbEntity
  8
0
100
AcDbBlockEnd
  0
BLOCK
  5
11D
330
11C
100
AcDbEntity
  8
0
100
AcDbBlockBegin
  2
SW_NOTE_0_28
 70
     0
 10
0.0
 20
0.0
 30
0.0
  3
SW_NOTE_0_28
  1

  0
MTEXT
  5
11F
330
11C
100
AcDbEntity
  8
0
  6
Continuous
 62
     0
370
     0
100
AcDbMText
 10
0.0
 20
2.0463950369
 30
0.0
 40
1.5875
 41
0.0
 71
     1
 72
     1
  1
media
  7
SLDTEXTSTYLE1
 73
     1
 44
1.0
  0
ENDBLK
  5
11E
330
11C
100
AcDbEntity
  8
0
100
AcDbBlockEnd
  0
BLOCK
  5
122
330
121
100
AcDbEntity
  8
0
100
AcDbBlockBegin
  2
SW_NOTE_0_29
 70
     0
 10
0.0
 20
0.0
 30
0.0
  3
SW_NOTE_0_29
  1

  0
MTEXT
  5
124
330
121
100
AcDbEntity
  8
0
  6
Continuous
 62
     0
370
     0
100
AcDbMText
 10
0.0
 20
2.3874608764
 30
0.0
 40
1.8520833333
 41
0.0
 71
     1
 72
     1
  1
Denom.
  7
SLDTEXTSTYLE0
 73
     1
 44
1.0
  0
ENDBLK
  5
123
330
121
100
AcDbEntity
  8
0
100
AcDbBlockEnd
  0
BLOCK
  5
127
330
126
100
AcDbEntity
  8
0
100
AcDbBlockBegin
  2
SW_NOTE_0_30
 70
     0
 10
0.0
 20
0.0
 30
0.0
  3
SW_NOTE_0_30
  1

  0
MTEXT
  5
129
330
126
100
AcDbEntity
  8
0
  6
Continuous
 62
     0
370
     0
100
AcDbMText
 10
0.0
 20
2.3874608764
 30
0.0
 40
1.8520833333
 41
0.0
 71
     1
 72
     1
  1
> 3
  7
SLDTEXTSTYLE3
 73
     1
 44
1.0
  0
ENDBLK
  5
128
330
126
100
AcDbEntity
  8
0
100
AcDbBlockEnd
  0
BLOCK
  5
12C
330
12B
100
AcDbEntity
  8
0
100
AcDbBlockBegin
  2
SW_NOTE_0_31
 70
     0
 10
0.0
 20
0.0
 30
0.0
  3
SW_NOTE_0_31
  1

  0
MTEXT
  5
12E
330
12B
100
AcDbEntity
  8
0
  6
Continuous
 62
     0
370
     0
100
AcDbMText
 10
0.0
 20
2.3874608764
 30
0.0
 40
1.8520833333
 41
0.0
 71
     1
 72
     1
  1
a 6
  7
SLDTEXTSTYLE3
 73
     1
 44
1.0
  0
ENDBLK
  5
12D
330
12B
100
AcDbEntity
  8
0
100
AcDbBlockEnd
  0
BLOCK
  5
131
330
130
100
AcDbEntity
  8
0
100
AcDbBlockBegin
  2
SW_NOTE_0_32
 70
     0
 10
0.0
 20
0.0
 30
0.0
  3
SW_NOTE_0_32
  1

  0
MTEXT
  5
133
330
130
100
AcDbEntity
  8
0
  6
Continuous
 62
     0
370
     0
100
AcDbMText
 10
0.0
 20
2.0463950369
 30
0.0
 40
1.5875
 41
0.0
 71
     1
 72
     1
  1
± 0.1
  7
SLDTEXTSTYLE2
 73
     1
 44
1.0
  0
ENDBLK
  5
132
330
130
100
AcDbEntity
  8
0
100
AcDbBlockEnd
  0
BLOCK
  5
136
330
135
100
AcDbEntity
  8
0
100
AcDbBlockBegin
  2
Blocco2
 70
     0
 10
0.0
 20
0.0
 30
0.0
  3
Blocco2
  1

  0
ARC
  5
138
330
135
100
AcDbEntity
  8
0
  6
Continuous
 62
     7
370
    18
100
AcDbCircle
 10
11.3524413081
 20
-35.7276460737
 30
0.0
 40
45.03700271094024
100
AcDbArc
 50
87.2552811745
 51
90.419145116
  0
ARC
  5
139
330
135
100
AcDbEntity
  8
0
  6
Continuous
 62
     7
370
    18
100
AcDbCircle
 10
10.4347115851
 20
-19.2097711598
 30
0.0
 40
28.63299050090509
100
AcDbArc
 50
83.8361693523
 51
88.82277263
  0
ARC
  5
13A
330
135
100
AcDbEntity
  8
0
  6
Continuous
 62
     7
370
    18
100
AcDbCircle
 10
18.9257055051
 20
4.4740823861
 30
0.0
 40
3.039520156586148
100
AcDbArc
 50
5.4668529803
 51
51.9385129077
  0
ARC
  5
13B
330
135
100
AcDbEntity
  8
0
  6
Continuous
 62
     7
370
    18
100
AcDbCircle
 10
19.0336324459
 20
4.4009796263
 30
0.0
 40
3.033328806475756
100
AcDbArc
 50
6.8669507428
 51
54.3956451454
  0
ARC
  5
13C
330
135
100
AcDbEntity
  8
0
  6
Continuous
 62
     7
370
    18
100
AcDbCircle
 10
4.4336709389
 20
4.7774371901
 30
0.0
 40
1.278491932774483
100
AcDbArc
 50
87.5206960647
 51
180.6175688017
  0
ARC
  5
13D
330
135
100
AcDbEntity
  8
0
  6
Continuous
 62
     7
370
    18
100
AcDbCircle
 10
4.5421591382
 20
4.7864300438
 30
0.0
 40
1.052925839423084
100
AcDbArc
 50
137.9952467217
 51
181.2393045225
  0
ARC
  5
13E
330
135
100
AcDbEntity
  8
0
  6
Continuous
 62
     7
370
    18
100
AcDbCircle
 10
4.450459014
 20
4.7349059722
 30
0.0
 40
1.024123798923566
100
AcDbArc
 50
87.8453134185
 51
132.4112659359
  0
ARC
  5
13F
330
135
100
AcDbEntity
  8
0
  6
Continuous
 62
     7
370
    18
100
AcDbCircle
 10
4.4093379267
 20
4.590434379
 30
0.0
 40
1.230414064591743
100
AcDbArc
 50
219.6881491102
 51
269.4792649485
  0
ARC
  5
140
330
135
100
AcDbEntity
  8
0
  6
Continuous
 62
     7
370
    18
100
AcDbCircle
 10
4.7415027104
 20
4.7431627677
 30
0.0
 40
1.586381826113275
100
AcDbArc
 50
179.259780368
 51
216.2696450905
  0
ARC
  5
141
330
135
100
AcDbEntity
  8
0
  6
Continuous
 62
     7
370
    18
100
AcDbCircle
 10
4.4473096097
 20
4.6391672705
 30
0.0
 40
0.9845699341548244
100
AcDbArc
 50
216.6836460146
 51
272.6640485799
  0
ARC
  5
142
330
135
100
AcDbEntity
  8
0
  6
Continuous
 62
     7
370
    18
100
AcDbCircle
 10
4.8490698161
 20
4.7084538956
 30
0.0
 40
1.360710460064298
100
AcDbArc
 50
177.6749069314
 51
208.8931530518
  0
ARC
  5
143
330
135
100
AcDbEntity
  8
0
  6
Continuous
 62
     7
370
    18
100
AcDbCircle
 10
11.3760465249
 20
4.7864300438
 30
0.0
 40
1.052925839423081
100
AcDbArc
 50
137.9952467217
 51
181.2393045225
  0
ARC
  5
144
330
135
100
AcDbEntity
  8
0
  6
Continuous
 62
     7
370
    18
100
AcDbCircle
 10
11.2843464007
 20
4.7349059722
 30
0.0
 40
1.024123798923566
100
AcDbArc
 50
87.8453134185
 51
132.4112659359
  0
ARC
  5
145
330
135
100
AcDbEntity
  8
0
  6
Continuous
 62
     7
370
    18
100
AcDbCircle
 10
11.2432253134
 20
4.590434379
 30
0.0
 40
1.230414064591707
100
AcDbArc
 50
219.6881491102
 51
269.4792649485
  0
ARC
  5
146
330
135
100
AcDbEntity
  8
0
  6
Continuous
 62
     7
370
    18
100
AcDbCircle
 10
11.2811969964
 20
4.6391672705
 30
0.0
 40
0.9845699341548168
100
AcDbArc
 50
216.6836460146
 51
272.6640485799
  0
ARC
  5
147
330
135
100
AcDbEntity
  8
0
  6
Continuous
 62
     7
370
    18
100
AcDbCircle
 10
11.6829572028
 20
4.7084538956
 30
0.0
 40
1.360710460064293
100
AcDbArc
 50
177.6749069314
 51
208.8931530518
  0
ARC
  5
148
330
135
100
AcDbEntity
  8
0
  6
Continuous
 62
     7
370
    18
100
AcDbCircle
 10
11.2675583256
 20
4.7774371901
 30
0.0
 40
1.278491932774481
100
AcDbArc
 50
87.5206960647
 51
180.6175688017
  0
ARC
  5
149
330
135
100
AcDbEntity
  8
0
  6
Continuous
 62
     7
370
    18
100
AcDbCircle
 10
11.5753900971
 20
4.7431627677
 30
0.0
 40
1.586381826113274
100
AcDbArc
 50
179.259780368
 51
216.2696450905
  0
ARC
  5
14A
330
135
100
AcDbEntity
  8
0
  6
Continuous
 62
     7
370
    18
100
AcDbCircle
 10
6.7952630952
 20
4.7864300438
 30
0.0
 40
1.052925839423083
100
AcDbArc
 50
137.9952467217
 51
181.2393045225
  0
ARC
  5
14B
330
135
100
AcDbEntity
  8
0
  6
Continuous
 62
     7
370
    18
100
AcDbCircle
 10
6.7040760647
 20
4.7340610777
 30
0.0
 40
1.025093676329177
100
AcDbArc
 50
89.1052832126
 51
132.4005898678
  0
ARC
  5
14C
330
135
100
AcDbEntity
  8
0
  6
Continuous
 62
     7
370
    18
100
AcDbCircle
 10
6.6624418837
 20
4.590434379
 30
0.0
 40
1.230414064591694
100
AcDbArc
 50
219.6881491102
 51
269.4792649485
  0
ARC
  5
14D
330
135
100
AcDbEntity
  8
0
  6
Continuous
 62
     7
370
    18
100
AcDbCircle
 10
6.9946066674
 20
4.7431627677
 30
0.0
 40
1.586381826113264
100
AcDbArc
 50
179.259780368
 51
216.2696450905
  0
ARC
  5
14E
330
135
100
AcDbEntity
  8
0
  6
Continuous
 62
     7
370
    18
100
AcDbCircle
 10
6.7010082073
 20
4.6398932297
 30
0.0
 40
0.985480515391083
100
AcDbArc
 50
216.6968405364
 51
271.1090780217
  0
ARC
  5
14F
330
135
100
AcDbEntity
  8
0
  6
Continuous
 62
     7
370
    18
100
AcDbCircle
 10
7.1021737731
 20
4.7084538956
 30
0.0
 40
1.360710460064326
100
AcDbArc
 50
177.6749069314
 51
208.8931530518
  0
ARC
  5
150
330
135
100
AcDbEntity
  8
0
  6
Continuous
 62
     7
370
    18
100
AcDbCircle
 10
6.6867748959
 20
4.7774371901
 30
0.0
 40
1.278491932774489
100
AcDbArc
 50
90.0
 51
180.6175688017
  0
ARC
  5
151
330
135
100
AcDbEntity
  8
0
  6
Continuous
 62
     7
370
    18
100
AcDbCircle
 10
6.644902954
 20
4.7864300438
 30
0.0
 40
1.052925839423077
100
AcDbArc
 50
358.7606954775
 51
42.0047532783
  0
ARC
  5
152
330
135
100
AcDbEntity
  8
0
  6
Continuous
 62
     7
370
    18
100
AcDbCircle
 10
6.7360899846
 20
4.7340610777
 30
0.0
 40
1.025093676329159
100
AcDbArc
 50
47.5994101322
 51
90.8947167874
  0
ARC
  5
153
330
135
100
AcDbEntity
  8
0
  6
Continuous
 62
     7
370
    18
100
AcDbCircle
 10
6.7777241656
 20
4.590434379
 30
0.0
 40
1.230414064591705
100
AcDbArc
 50
270.5207350515
 51
320.3118508898
  0
ARC
  5
154
330
135
100
AcDbEntity
  8
0
  6
Continuous
 62
     7
370
    18
100
AcDbCircle
 10
6.4455593819
 20
4.7431627677
 30
0.0
 40
1.586381826113264
100
AcDbArc
 50
323.7303549095
 51
0.740219632
  0
ARC
  5
155
330
135
100
AcDbEntity
  8
0
  6
Continuous
 62
     7
370
    18
100
AcDbCircle
 10
6.7391578419
 20
4.6398932297
 30
0.0
 40
0.9854805153910923
100
AcDbArc
 50
268.8909219783
 51
323.3031594636
  0
ARC
  5
156
330
135
100
AcDbEntity
  8
0
  6
Continuous
 62
     7
370
    18
100
AcDbCircle
 10
6.3379922762
 20
4.7084538956
 30
0.0
 40
1.360710460064302
100
AcDbArc
 50
331.1068469482
 51
2.3250930686
  0
ARC
  5
157
330
135
100
AcDbEntity
  8
0
  6
Continuous
 62
     7
370
    18
100
AcDbCircle
 10
6.7533911534
 20
4.7774371901
 30
0.0
 40
1.278491932774497
100
AcDbArc
 50
359.3824311983
 51
90.0
  0
ARC
  5
158
330
135
100
AcDbEntity
  8
0
  6
Continuous
 62
     7
370
    18
100
AcDbCircle
 10
13.6289707726
 20
4.7864300438
 30
0.0
 40
1.052925839423084
100
AcDbArc
 50
137.9952467217
 51
181.2393045225
  0
ARC
  5
159
330
135
100
AcDbEntity
  8
0
  6
Continuous
 62
     7
370
    18
100
AcDbCircle
 10
13.5377837421
 20
4.7340610777
 30
0.0
 40
1.025093676329182
100
AcDbArc
 50
89.1052832126
 51
132.4005898678
  0
ARC
  5
15A
330
135
100
AcDbEntity
  8
0
  6
Continuous
 62
     7
370
    18
100
AcDbCircle
 10
13.4961495611
 20
4.590434379
 30
0.0
 40
1.230414064591706
100
AcDbArc
 50
219.6881491102
 51
269.4792649484
  0
ARC
  5
15B
330
135
100
AcDbEntity
  8
0
  6
Continuous
 62
     7
370
    18
100
AcDbCircle
 10
13.8283143447
 20
4.7431627677
 30
0.0
 40
1.586381826113258
100
AcDbArc
 50
179.259780368
 51
216.2696450905
  0
ARC
  5
15C
330
135
100
AcDbEntity
  8
0
  6
Continuous
 62
     7
370
    18
100
AcDbCircle
 10
13.5347158847
 20
4.6398932297
 30
0.0
 40
0.9854805153910695
100
AcDbArc
 50
216.6968405364
 51
271.1090780217
  0
ARC
  5
15D
330
135
100
AcDbEntity
  8
0
  6
Continuous
 62
     7
370
    18
100
AcDbCircle
 10
13.9358814504
 20
4.7084538956
 30
0.0
 40
1.36071046006428
100
AcDbArc
 50
177.6749069313
 51
208.8931530518
  0
ARC
  5
15E
330
135
100
AcDbEntity
  8
0
  6
Continuous
 62
     7
370
    18
100
AcDbCircle
 10
13.5204825732
 20
4.7774371901
 30
0.0
 40
1.278491932774489
100
AcDbArc
 50
90.0
 51
180.6175688017
  0
ARC
  5
15F
330
135
100
AcDbEntity
  8
0
  6
Continuous
 62
     7
370
    18
100
AcDbCircle
 10
13.4786106314
 20
4.7864300438
 30
0.0
 40
1.05292583942309
100
AcDbArc
 50
358.7606954775
 51
42.0047532783
  0
ARC
  5
160
330
135
100
AcDbEntity
  8
0
  6
Continuous
 62
     7
370
    18
100
AcDbCircle
 10
13.5697976619
 20
4.7340610777
 30
0.0
 40
1.02509367632917
100
AcDbArc
 50
47.5994101321
 51
90.8947167874
  0
ARC
  5
161
330
135
100
AcDbEntity
  8
0
  6
Continuous
 62
     7
370
    18
100
AcDbCircle
 10
13.6114318429
 20
4.590434379
 30
0.0
 40
1.230414064591706
100
AcDbArc
 50
270.5207350515
 51
320.3118508898
  0
ARC
  5
162
330
135
100
AcDbEntity
  8
0
  6
Continuous
 62
     7
370
    18
100
AcDbCircle
 10
13.2792670592
 20
4.7431627677
 30
0.0
 40
1.586381826113269
100
AcDbArc
 50
323.7303549095
 51
0.740219632
  0
ARC
  5
163
330
135
100
AcDbEntity
  8
0
  6
Continuous
 62
     7
370
    18
100
AcDbCircle
 10
13.5728655193
 20
4.6398932297
 30
0.0
 40
0.9854805153910822
100
AcDbArc
 50
268.8909219783
 51
323.3031594636
  0
ARC
  5
164
330
135
100
AcDbEntity
  8
0
  6
Continuous
 62
     7
370
    18
100
AcDbCircle
 10
13.1716999535
 20
4.7084538956
 30
0.0
 40
1.360710460064319
100
AcDbArc
 50
331.1068469482
 51
2.3250930686
  0
ARC
  5
165
330
135
100
AcDbEntity
  8
0
  6
Continuous
 62
     7
370
    18
100
AcDbCircle
 10
13.5870988307
 20
4.7774371901
 30
0.0
 40
1.278491932774489
100
AcDbArc
 50
359.3824311983
 51
90.0
  0
ELLIPSE
  5
166
330
135
100
AcDbEntity
  8
0
  6
Continuous
 62
     7
370
    18
100
AcDbEllipse
 10
11.0229777503
 20
4.7085878625
 30
0.0
 11
11.02297775031299
 21
0.0
 31
0.0
210
0.0
220
0.0
230
1.0
 40
0.4271611509
 41
1.570796326794897
 42
6.294881061196233
  0
ELLIPSE
  5
167
330
135
100
AcDbEntity
  8
0
  6
Continuous
 62
     7
370
    18
100
AcDbEllipse
 10
11.1194542455
 20
4.7636570924
 30
0.0
 11
10.83194610074352
 21
0.0
 31
0.0
210
0.0
220
0.0
230
1.0
 40
0.4195621611
 41
1.579703107693041
 42
6.283185307179586
  0
LINE
  5
168
330
135
100
AcDbEntity
  8
0
  6
Continuous
 62
     7
370
    18
100
AcDbLine
 10
5.0719208813
 20
6.0560191968
 30
0.0
 11
5.0719208813
 21
5.7583056783
 31
0.0
  0
LINE
  5
169
330
135
100
AcDbEntity
  8
0
  6
Continuous
 62
     7
370
    18
100
AcDbLine
 10
5.0719208813
 20
5.7583056783
 30
0.0
 11
4.4889635206
 21
5.7583056783
 31
0.0
  0
LINE
  5
16A
330
135
100
AcDbEntity
  8
0
  6
Continuous
 62
     7
370
    18
100
AcDbLine
 10
5.0719208813
 20
6.0560191968
 30
0.0
 11
4.4889765998
 21
6.0547323424
 31
0.0
  0
LINE
  5
16B
330
135
100
AcDbEntity
  8
0
  6
Continuous
 62
     7
370
    18
100
AcDbLine
 10
5.212963293
 20
3.6556614239
 30
0.0
 11
5.212963293
 21
3.3600711311
 31
0.0
  0
LINE
  5
16C
330
135
100
AcDbEntity
  8
0
  6
Continuous
 62
     7
370
    18
100
AcDbLine
 10
5.212963293
 20
3.3600711311
 30
0.0
 11
4.3981554117
 21
3.3600711311
 31
0.0
  0
LINE
  5
16D
330
135
100
AcDbEntity
  8
0
  6
Continuous
 62
     7
370
    18
100
AcDbLine
 10
5.212963293
 20
3.6556614239
 30
0.0
 11
4.4930720928
 21
3.6556614239
 31
0.0
  0
LINE
  5
16E
330
135
100
AcDbEntity
  8
0
  6
Continuous
 62
     7
370
    18
100
AcDbLine
 10
11.905808268
 20
6.0560191968
 30
0.0
 11
11.905808268
 21
5.7583056783
 31
0.0
  0
LINE
  5
16F
330
135
100
AcDbEntity
  8
0
  6
Continuous
 62
     7
370
    18
100
AcDbLine
 10
11.905808268
 20
5.7583056783
 30
0.0
 11
11.3228509073
 21
5.7583056783
 31
0.0
  0
LINE
  5
170
330
135
100
AcDbEntity
  8
0
  6
Continuous
 62
     7
370
    18
100
AcDbLine
 10
11.905808268
 20
6.0560191968
 30
0.0
 11
11.3228639865
 21
6.0547323424
 31
0.0
  0
LINE
  5
171
330
135
100
AcDbEntity
  8
0
  6
Continuous
 62
     7
370
    18
100
AcDbLine
 10
12.0468506797
 20
3.6556614239
 30
0.0
 11
12.0468506797
 21
3.3600711311
 31
0.0
  0
LINE
  5
172
330
135
100
AcDbEntity
  8
0
  6
Continuous
 62
     7
370
    18
100
AcDbLine
 10
12.0468506797
 20
3.3600711311
 30
0.0
 11
11.2320427984
 21
3.3600711311
 31
0.0
  0
LINE
  5
173
330
135
100
AcDbEntity
  8
0
  6
Continuous
 62
     7
370
    18
100
AcDbLine
 10
12.0468506797
 20
3.6556614239
 30
0.0
 11
11.3269594795
 21
3.6556614239
 31
0.0
  0
LINE
  5
174
330
135
100
AcDbEntity
  8
0
  6
Continuous
 62
     7
370
    18
100
AcDbLine
 10
6.6867748959
 20
6.0559291229
 30
0.0
 11
6.7200830246
 21
6.0559291229
 31
0.0
  0
LINE
  5
175
330
135
100
AcDbEntity
  8
0
  6
Continuous
 62
     7
370
    18
100
AcDbLine
 10
6.6512593688
 20
3.3600711311
 30
0.0
 11
6.7200830246
 21
3.3600711311
 31
0.0
  0
LINE
  5
176
330
135
100
AcDbEntity
  8
0
  6
Continuous
 62
     7
370
    18
100
AcDbLine
 10
6.7533911534
 20
6.0559291229
 30
0.0
 11
6.7200830246
 21
6.0559291229
 31
0.0
  0
LINE
  5
177
330
135
100
AcDbEntity
  8
0
  6
Continuous
 62
     7
370
    18
100
AcDbLine
 10
6.7889066805
 20
3.3600711311
 30
0.0
 11
6.7200830246
 21
3.3600711311
 31
0.0
  0
LINE
  5
178
330
135
100
AcDbEntity
  8
0
  6
Continuous
 62
     7
370
    18
100
AcDbLine
 10
13.5204825732
 20
6.0559291229
 30
0.0
 11
13.553790702
 21
6.0559291229
 31
0.0
  0
LINE
  5
179
330
135
100
AcDbEntity
  8
0
  6
Continuous
 62
     7
370
    18
100
AcDbLine
 10
13.4849670461
 20
3.3600711311
 30
0.0
 11
13.553790702
 21
3.3600711311
 31
0.0
  0
LINE
  5
17A
330
135
100
AcDbEntity
  8
0
  6
Continuous
 62
     7
370
    18
100
AcDbLine
 10
13.5870988307
 20
6.0559291229
 30
0.0
 11
13.553790702
 21
6.0559291229
 31
0.0
  0
LINE
  5
17B
330
135
100
AcDbEntity
  8
0
  6
Continuous
 62
     7
370
    18
100
AcDbLine
 10
13.6226143578
 20
3.3600711311
 30
0.0
 11
13.553790702
 21
3.3600711311
 31
0.0
  0
LINE
  5
17C
330
135
100
AcDbEntity
  8
0
  6
Continuous
 62
     7
370
    18
100
AcDbLine
 10
8.6640321741
 20
6.0547603044
 30
0.0
 11
8.6640321741
 21
3.656644754
 31
0.0
  0
LINE
  5
17D
330
135
100
AcDbEntity
  8
0
  6
Continuous
 62
     7
370
    18
100
AcDbLine
 10
8.6640321741
 20
3.656644754
 30
0.0
 11
9.7937655882
 21
3.656644754
 31
0.0
  0
LINE
  5
17E
330
135
100
AcDbEntity
  8
0
  6
Continuous
 62
     7
370
    18
100
AcDbLine
 10
9.7937655882
 20
3.656644754
 30
0.0
 11
9.7937655882
 21
3.3597898205
 31
0.0
  0
LINE
  5
17F
330
135
100
AcDbEntity
  8
0
  6
Continuous
 62
     7
370
    18
100
AcDbLine
 10
9.7937655882
 20
3.3597898205
 30
0.0
 11
8.3684585854
 21
3.3597898205
 31
0.0
  0
LINE
  5
180
330
135
100
AcDbEntity
  8
0
  6
Continuous
 62
     7
370
    18
100
AcDbLine
 10
8.3684585854
 20
3.3597898205
 30
0.0
 11
8.3684585854
 21
6.0547603044
 31
0.0
  0
LINE
  5
181
330
135
100
AcDbEntity
  8
0
  6
Continuous
 62
     7
370
    18
100
AcDbLine
 10
8.3684585854
 20
6.0547603044
 30
0.0
 11
8.6640321741
 21
6.0547603044
 31
0.0
  0
LINE
  5
182
330
135
100
AcDbEntity
  8
0
  6
Continuous
 62
     7
370
    18
100
AcDbLine
 10
15.9455124972
 20
6.0540605676
 30
0.0
 11
16.166651415
 21
6.0540605676
 31
0.0
  0
LINE
  5
183
330
135
100
AcDbEntity
  8
0
  6
Continuous
 62
     7
370
    18
100
AcDbLine
 10
16.166651415
 20
6.0540605676
 30
0.0
 11
16.8443180552
 21
4.4818105659
 31
0.0
  0
LINE
  5
184
330
135
100
AcDbEntity
  8
0
  6
Continuous
 62
     7
370
    18
100
AcDbLine
 10
16.0504080522
 20
5.5491087439
 30
0.0
 11
16.6982555549
 21
4.0531230646
 31
0.0
  0
LINE
  5
185
330
135
100
AcDbEntity
  8
0
  6
Continuous
 62
     7
370
    18
100
AcDbLine
 10
17.7431236131
 20
6.0540605676
 30
0.0
 11
17.5219846953
 21
6.0540605676
 31
0.0
  0
LINE
  5
186
330
135
100
AcDbEntity
  8
0
  6
Continuous
 62
     7
370
    18
100
AcDbLine
 10
17.5219846953
 20
6.0540605676
 30
0.0
 11
16.8443180552
 21
4.4818105659
 31
0.0
  0
LINE
  5
187
330
135
100
AcDbEntity
  8
0
  6
Continuous
 62
     7
370
    18
100
AcDbLine
 10
18.5488444404
 20
3.3605126922
 30
0.0
 11
17.6382280581
 21
5.5491087439
 31
0.0
  0
LINE
  5
188
330
135
100
AcDbEntity
  8
0
  6
Continuous
 62
     7
370
    18
100
AcDbLine
 10
17.6382280581
 20
5.5491087439
 30
0.0
 11
16.9903805554
 21
4.0531230646
 31
0.0
  0
LINE
  5
189
330
135
100
AcDbEntity
  8
0
  6
Continuous
 62
     7
370
    18
100
AcDbLine
 10
18.8743513718
 20
3.3605126922
 30
0.0
 11
17.7431236131
 21
6.0540605676
 31
0.0
  0
LINE
  5
18A
330
135
100
AcDbEntity
  8
0
  6
Continuous
 62
     7
370
    18
100
AcDbLine
 10
18.5488444404
 20
3.3605126922
 30
0.0
 11
18.8743513718
 21
3.3605126922
 31
0.0
  0
LINE
  5
18B
330
135
100
AcDbEntity
  8
0
  6
Continuous
 62
     7
370
    18
100
AcDbLine
 10
16.6982555549
 20
4.0531230646
 30
0.0
 11
16.9903805554
 21
4.0531230646
 31
0.0
  0
LINE
  5
18C
330
135
100
AcDbEntity
  8
0
  6
Continuous
 62
     7
370
    18
100
AcDbLine
 10
15.1397916699
 20
3.3605126922
 30
0.0
 11
14.8142847385
 21
3.3605126922
 31
0.0
  0
LINE
  5
18D
330
135
100
AcDbEntity
  8
0
  6
Continuous
 62
     7
370
    18
100
AcDbLine
 10
14.8142847385
 20
3.3605126922
 30
0.0
 11
15.9455124972
 21
6.0540605676
 31
0.0
  0
LINE
  5
18E
330
135
100
AcDbEntity
  8
0
  6
Continuous
 62
     7
370
    18
100
AcDbLine
 10
15.1397916699
 20
3.3605126922
 30
0.0
 11
16.0504080522
 21
5.5491087439
 31
0.0
  0
HATCH
  5
18F
330
135
100
AcDbEntity
  8
0
  6
Continuous
 62
     7
100
AcDbHatch
 10
0.0
 20
0.0
 30
0.0
210
0.0
220
0.0
230
1.0
  2
SOLID
 70
     1
 71
     0
 91
        1
 92
        0
 93
        6
 72
     3
 10
11.11945424547252
 20
4.763657092365897
 11
10.83194610074352
 21
0.0
 40
0.4195621611426649
 50
0.0
 51
268.7838326447011
 73
     0
 72
     2
 10
11.35244130809684
 20
-35.7276460736966
 40
45.03700271094024
 50
269.5808548839851
 51
272.7447188255457
 73
     0
 72
     2
 10
10.43471158507635
 20
-19.20977115982869
 40
28.63299050090508
 50
83.83616935229334
 51
88.8227726300255
 73
     1
 72
     3
 10
11.02297775031299
 20
4.708587862473411
 11
11.02297775031299
 21
0.0
 40
0.4271611509276351
 50
90.0
 51
360.2862587665418
 73
     1
 72
     2
 10
19.03363244588236
 20
4.400979626332637
 40
3.033328806475749
 50
6.866950742808937
 51
54.39564514541159
 73
     1
 72
     2
 10
18.92570550506284
 20
4.474082386094188
 40
3.039520156586144
 50
308.0614870922973
 51
354.5331470197357
 73
     0
 97
        0
 75
     0
 76
     1
 98
        1
 10
0.0
 20
0.0
  0
HATCH
  5
190
330
135
100
AcDbEntity
  8
0
  6
Continuous
 62
     7
100
AcDbHatch
 10
0.0
 20
0.0
 30
0.0
210
0.0
220
0.0
230
1.0
  2
SOLID
 70
     1
 71
     0
 91
        2
 92
        0
 93
       10
 72
     2
 10
6.753391153375309
 20
4.777437190123967
 40
1.278491932774493
 50
359.3824311982546
 51
450.0000000000008
 73
     1
 72
     1
 10
6.753391153375309
 20
6.055929122898457
 11
6.720083024639653
 21
6.055929122898457
 72
     1
 10
6.720083024639653
 20
6.055929122898457
 11
6.68677489590401
 21
6.055929122898453
 72
     2
 10
6.68677489590401
 20
4.777437190123967
 40
1.278491932774486
 50
90.0
 51
180.6175688017436
 73
     1
 72
     2
 10
6.994606667408545
 20
4.743162767722506
 40
1.586381826113261
 50
179.2597803679926
 51
216.2696450904569
 73
     1
 72
     2
 10
6.662441883722753
 20
4.590434378979241
 40
1.230414064591694
 50
219.688149110216
 51
269.4792649485132
 73
     1
 72
     1
 10
6.651259368779875
 20
3.360071131111114
 11
6.720083024639653
 21
3.360071131111114
 72
     1
 10
6.720083024639653
 20
3.360071131111114
 11
6.788906680500487
 21
3.360071131111114
 72
     2
 10
6.777724165556553
 20
4.590434378979241
 40
1.230414064591705
 50
270.5207350515375
 51
320.3118508897865
 73
     1
 72
     2
 10
6.445559381870789
 20
4.743162767722533
 40
1.586381826113264
 50
323.730354909544
 51
360.7402196320045
 73
     1
 97
        0
 92
        0
 93
        8
 72
     2
 10
6.337992276176097
 20
4.708453895610268
 40
1.360710460064296
 50
357.6749069313887
 51
388.8931530518201
 73
     0
 72
     2
 10
6.739157841937418
 20
4.63989322974813
 40
0.9854805153910855
 50
36.6968405364094
 51
91.10907802165805
 73
     0
 72
     2
 10
6.701008207341888
 20
4.63989322974813
 40
0.9854805153910808
 50
88.89092197834036
 51
143.3031594635947
 73
     0
 72
     2
 10
7.102173773103422
 20
4.708453895609933
 40
1.360710460064311
 50
151.1068469482003
 51
182.3250930686284
 73
     0
 72
     2
 10
6.795263095235807
 20
4.786430043844462
 40
1.052925839423083
 50
178.7606954775337
 51
222.0047532782973
 73
     0
 72
     2
 10
6.704076064728134
 20
4.734061077673188
 40
1.02509367632917
 50
227.5994101321587
 51
270.8947167873762
 73
     0
 72
     2
 10
6.736089984551274
 20
4.734061077673241
 40
1.025093676329141
 50
269.1052832126313
 51
312.4005898678502
 73
     0
 72
     2
 10
6.644902954043727
 20
4.786430043844422
 40
1.052925839423068
 50
317.9952467217032
 51
361.2393045224668
 73
     0
 97
        0
 75
     0
 76
     1
 98
        1
 10
0.0
 20
0.0
  0
HATCH
  5
191
330
135
100
AcDbEntity
  8
0
  6
Continuous
 62
     7
100
AcDbHatch
 10
0.0
 20
0.0
 30
0.0
210
0.0
220
0.0
230
1.0
  2
SOLID
 70
     1
 71
     0
 91
        1
 92
        0
 93
       13
 72
     2
 10
4.84906981605844
 20
4.708453895610226
 40
1.360710460064296
 50
177.6749069313867
 51
208.8931530518081
 73
     1
 72
     2
 10
4.447309609708183
 20
4.639167270498082
 40
0.984569934154821
 50
216.6836460145909
 51
272.6640485798765
 73
     1
 72
     1
 10
4.493072092776148
 20
3.655661423852985
 11
5.212963293010094
 21
3.655661423852989
 72
     1
 10
5.212963293010094
 20
3.655661423852989
 11
5.212963293010094
 21
3.360071131111074
 72
     1
 10
5.212963293010094
 20
3.360071131111074
 11
4.398155411734124
 21
3.360071131111087
 72
     2
 10
4.409337926677984
 20
4.590434378979241
 40
1.23041406459173
 50
90.52073505153331
 51
140.3118508897912
 73
     0
 72
     2
 10
4.741502710363749
 20
4.74316276772252
 40
1.586381826113268
 50
143.7303549095478
 51
180.740219632004
 73
     0
 72
     2
 10
4.433670938859214
 20
4.777437190123967
 40
1.278491932774482
 50
179.3824311982526
 51
272.4793039352954
 73
     0
 72
     1
 10
4.488976599843278
 20
6.054732342401836
 11
5.07192088133332
 21
6.056019196759688
 72
     1
 10
5.07192088133332
 20
6.056019196759688
 11
5.07192088133332
 21
5.75830567829097
 72
     1
 10
5.07192088133332
 20
5.75830567829097
 11
4.488963520562065
 21
5.75830567829097
 72
     2
 10
4.450459013996391
 20
4.734905972166442
 40
1.024123798923566
 50
87.84531341852427
 51
132.4112659358824
 73
     1
 72
     2
 10
4.54215913819081
 20
4.786430043844464
 40
1.052925839423083
 50
137.9952467217038
 51
181.2393045224698
 73
     1
 97
        0
 75
     0
 76
     1
 98
        1
 10
0.0
 20
0.0
  0
HATCH
  5
192
330
135
100
AcDbEntity
  8
0
  6
Continuous
 62
     7
100
AcDbHatch
 10
0.0
 20
0.0
 30
0.0
210
0.0
220
0.0
230
1.0
  2
SOLID
 70
     1
 71
     0
 91
        1
 92
        0
 93
        6
 72
     1
 10
8.36845858540783
 20
6.054760304382095
 11
8.664032174086497
 21
6.054760304382095
 72
     1
 10
8.664032174086497
 20
6.054760304382095
 11
8.664032174086497
 21
3.656644753951499
 72
     1
 10
8.664032174086497
 20
3.656644753951499
 11
9.793765588229004
 21
3.656644753951499
 72
     1
 10
9.793765588229004
 20
3.656644753951499
 11
9.793765588229004
 21
3.359789820517809
 72
     1
 10
9.793765588229004
 20
3.359789820517809
 11
8.36845858540783
 21
3.359789820517809
 72
     1
 10
8.36845858540783
 20
3.359789820517809
 11
8.36845858540783
 21
6.054760304382095
 97
        0
 75
     0
 76
     1
 98
        1
 10
0.0
 20
0.0
  0
HATCH
  5
193
330
135
100
AcDbEntity
  8
0
  6
Continuous
 62
     7
100
AcDbHatch
 10
0.0
 20
0.0
 30
0.0
210
0.0
220
0.0
230
1.0
  2
SOLID
 70
     1
 71
     0
 91
        1
 92
        0
 93
       13
 72
     2
 10
11.57539009707022
 20
4.743162767722548
 40
1.586381826113269
 50
179.259780367954
 51
216.2696450904577
 73
     1
 72
     2
 10
11.24322531338445
 20
4.590434378979241
 40
1.230414064591705
 50
219.6881491102147
 51
269.479264948464
 73
     1
 72
     1
 10
11.23204279844052
 20
3.360071131111114
 11
12.04685067971649
 21
3.360071131111114
 72
     1
 10
12.04685067971649
 20
3.360071131111114
 11
12.04685067971649
 21
3.655661423852985
 72
     1
 10
12.04685067971649
 20
3.655661423852985
 11
11.32695947948246
 21
3.655661423853029
 72
     2
 10
11.28119699641464
 20
4.639167270498096
 40
0.9845699341547881
 50
87.33595142013252
 51
143.3163539853954
 73
     0
 72
     2
 10
11.68295720276491
 20
4.70845389561024
 40
1.36071046006428
 50
151.1068469481826
 51
182.3250930686136
 73
     0
 72
     2
 10
11.37604652489728
 20
4.786430043844464
 40
1.052925839423079
 50
178.760695477531
 51
222.0047532782974
 73
     0
 72
     2
 10
11.28434640070286
 20
4.734905972166442
 40
1.024123798923566
 50
227.588734064119
 51
272.1546865814765
 73
     0
 72
     1
 10
11.32285090726853
 20
5.75830567829097
 11
11.90580826803979
 21
5.75830567829097
 72
     1
 10
11.90580826803979
 20
5.75830567829097
 11
11.90580826803979
 21
6.056019196759688
 72
     1
 10
11.90580826803979
 20
6.056019196759688
 11
11.32286398654975
 21
6.054732342401845
 72
     2
 10
11.2675583255657
 20
4.777437190123981
 40
1.278491932774475
 50
87.52069606470603
 51
180.6175688016945
 73
     1
 97
        0
 75
     0
 76
     1
 98
        1
 10
0.0
 20
0.0
  0
HATCH
  5
194
330
135
100
AcDbEntity
  8
0
  6
Continuous
 62
     7
100
AcDbHatch
 10
0.0
 20
0.0
 30
0.0
210
0.0
220
0.0
230
1.0
  2
SOLID
 70
     1
 71
     0
 91
        2
 92
        0
 93
       10
 72
     2
 10
13.58709883070869
 20
4.777437190123967
 40
1.278491932774489
 50
359.3824311982546
 51
450.0000000000008
 73
     1
 72
     1
 10
13.58709883070869
 20
6.055929122898457
 11
13.55379070197305
 21
6.055929122898457
 72
     1
 10
13.55379070197305
 20
6.055929122898457
 11
13.52048257323738
 21
6.05592912289845
 72
     2
 10
13.52048257323738
 20
4.777437190123967
 40
1.278491932774482
 50
90.0
 51
180.6175688017483
 73
     1
 72
     2
 10
13.82831434474191
 20
4.74316276772252
 40
1.586381826113257
 50
179.2597803679969
 51
216.2696450904569
 73
     1
 72
     2
 10
13.49614956105614
 20
4.590434378979241
 40
1.230414064591707
 50
219.6881491102147
 51
269.4792649484489
 73
     1
 72
     1
 10
13.48496704611189
 20
3.360071131111114
 11
13.55379070197303
 21
3.360071131111114
 72
     1
 10
13.55379070197303
 20
3.360071131111114
 11
13.62261435783386
 21
3.360071131111114
 72
     2
 10
13.61143184288993
 20
4.590434378979241
 40
1.230414064591705
 50
270.5207350515375
 51
320.3118508897865
 73
     1
 72
     2
 10
13.27926705920415
 20
4.74316276772252
 40
1.586381826113269
 50
323.7303549095446
 51
360.7402196320049
 73
     1
 97
        0
 92
        0
 93
        8
 72
     2
 10
13.17169995350949
 20
4.708453895610268
 40
1.360710460064312
 50
357.6749069313887
 51
388.8931530518118
 73
     0
 72
     2
 10
13.57286551927081
 20
4.63989322974813
 40
0.9854805153910735
 50
36.69684053639779
 51
91.10907802165963
 73
     0
 72
     2
 10
13.53471588467527
 20
4.63989322974813
 40
0.9854805153910671
 50
88.89092197834113
 51
143.3031594635951
 73
     0
 72
     2
 10
13.93588145043703
 20
4.708453895609445
 40
1.360710460064278
 50
151.1068469482233
 51
182.3250930686561
 73
     0
 72
     2
 10
13.62897077256946
 20
4.786430043844573
 40
1.052925839423083
 50
178.7606954775368
 51
222.0047532782968
 73
     0
 72
     2
 10
13.53778374206174
 20
4.734061077673234
 40
1.025093676329182
 50
227.5994101321623
 51
270.8947167873769
 73
     0
 72
     2
 10
13.56979766188467
 20
4.734061077673241
 40
1.02509367632917
 50
269.1052832126441
 51
312.4005898678537
 73
     0
 72
     2
 10
13.47861063137712
 20
4.786430043844422
 40
1.052925839423084
 50
317.9952467217066
 51
361.2393045224668
 73
     0
 97
        0
 75
     0
 76
     1
 98
        1
 10
0.0
 20
0.0
  0
HATCH
  5
195
330
135
100
AcDbEntity
  8
0
  6
Continuous
 62
     7
100
AcDbHatch
 10
0.0
 20
0.0
 30
0.0
210
0.0
220
0.0
230
1.0
  2
SOLID
 70
     1
 71
     0
 91
        1
 92
        0
 93
       13
 72
     1
 10
15.13979166991031
 20
3.360512692167569
 11
16.05040805223391
 21
5.549108743910444
 72
     1
 10
16.05040805223391
 20
5.549108743910444
 11
16.69825555488172
 21
4.053123064563263
 72
     1
 10
16.69825555488172
 20
4.053123064563263
 11
16.9903805554222
 21
4.053123064563263
 72
     1
 10
16.9903805554222
 20
4.053123064563263
 11
17.63822805807
 21
5.549108743910444
 72
     1
 10
17.63822805807
 20
5.549108743910444
 11
18.54884444039362
 21
3.360512692167569
 72
     1
 10
18.54884444039362
 20
3.360512692167569
 11
18.87435137179303
 21
3.360512692167569
 72
     1
 10
18.87435137179303
 20
3.360512692167569
 11
17.74312361306835
 21
6.054060567612665
 72
     1
 10
17.74312361306835
 20
6.054060567612665
 11
17.52198469529627
 21
6.054060567612665
 72
     1
 10
17.52198469529627
 20
6.054060567612665
 11
16.84431805515196
 21
4.481810565908906
 72
     1
 10
16.84431805515196
 20
4.481810565908906
 11
16.16665141500766
 21
6.054060567612665
 72
     1
 10
16.16665141500766
 20
6.054060567612665
 11
15.94551249723557
 21
6.054060567612665
 72
     1
 10
15.94551249723557
 20
6.054060567612665
 11
14.81428473851088
 21
3.360512692167569
 72
     1
 10
14.81428473851088
 20
3.360512692167569
 11
15.13979166991031
 21
3.360512692167569
 97
        0
 75
     0
 76
     1
 98
        1
 10
0.0
 20
0.0
  0
ENDBLK
  5
137
330
135
100
AcDbEntity
  8
0
100
AcDbBlockEnd
  0
ENDSEC
  0
SECTION
  2
ENTITIES
  0
MTEXT
  5
196
330
1F
100
AcDbEntity
  8
0
  6
Continuous
 62
     7
370
     0
100
AcDbMText
 10
316.7284757228
 20
521.1487926899
 30
0.0
 40
12.7
 41
0.0
 71
     1
 72
     1
  1
107E42/47
  7
SLDTEXTSTYLE1
 73
     1
 44
1.0
  0
CIRCLE
  5
197
330
1F
100
AcDbEntity
  8
0
  6
Continuous
 62
     7
370
    25
100
AcDbCircle
 10
489.5187203791
 20
365.1973933649
 30
0.0
 40
3.750000000000015
  0
ARC
  5
198
330
1F
100
AcDbEntity
  8
0
  6
Continuous
 62
     7
370
    25
100
AcDbCircle
 10
489.5187203791
 20
365.1973933649
 30
0.0
 40
5.750000000000026
100
AcDbArc
 50
225.9207901521
 51
134.0792098479
  0
SPLINE
  5
199
330
1F
100
AcDbEntity
  8
0
  6
Continuous
 62
     7
370
    25
100
AcDbSpline
210
0.0
220
0.0
230
1.0
 70
    24
 71
     3
 72
    16
 73
    12
 74
     0
 42
0.00000001
 43
0.00000001
 40
0.0
 40
0.0
 40
0.0
 40
0.0
 40
0.1850620622504398
 40
0.2792957700025838
 40
0.3747791458885059
 40
0.4621354029233936
 40
0.5527403536242975
 40
0.6401208214639312
 40
0.7297839688202379
 40
0.8641216096200811
 40
1.0
 40
1.0
 40
1.0
 40
1.0
 10
485.5187203791471
 20
361.0667154544645
 30
0.0
 10
485.5187203791471
 20
361.5300989217228
 30
0.0
 10
485.518720379147
 20
362.2294375150603
 30
0.0
 10
485.5187203791471
 20
363.2463494131896
 30
0.0
 10
485.5187203791471
 20
364.0386536864604
 30
0.0
 10
485.5187203791471
 20
364.8596005802783
 30
0.0
 10
485.518720379147
 20
365.6713990645145
 30
0.0
 10
485.5187203791471
 20
366.4696224716249
 30
0.0
 10
485.5187203791471
 20
367.3535003099132
 30
0.0
 10
485.5187203791471
 20
368.3149939153689
 30
0.0
 10
485.518720379147
 20
368.9890975941453
 30
0.0
 10
485.5187203791471
 20
369.3280712753938
 30
0.0
  0
LINE
  5
19A
330
1F
100
AcDbEntity
  8
0
  6
Continuous
 62
     7
370
    25
100
AcDbLine
 10
485.4187203791
 20
361.0949550656
 30
0.0
 11
485.4187203791
 21
369.2998316643
 31
0.0
  0
ARC
  5
19B
330
1F
100
AcDbEntity
  8
0
  6
Continuous
 62
     7
370
    25
100
AcDbCircle
 10
489.5187203791
 20
365.1973933649
 30
0.0
 40
5.800000000000011
100
AcDbArc
 50
225.0170320401
 51
134.9829679599
  0
ARC
  5
19C
330
1F
100
AcDbEntity
  8
0
  6
Continuous
 62
     7
370
    25
100
AcDbCircle
 10
531.5187203791
 20
360.6973933649
 30
0.0
 40
8.0
100
AcDbArc
 50
270.0
 51
0.0
  0
ARC
  5
19D
330
1F
100
AcDbEntity
  8
0
  6
Continuous
 62
     7
370
    25
100
AcDbCircle
 10
443.5187203791
 20
356.6973933649
 30
0.0
 40
4.0
100
AcDbArc
 50
180.0
 51
270.0
  0
LINE
  5
19E
330
1F
100
AcDbEntity
  8
0
  6
Continuous
 62
     7
370
    25
100
AcDbLine
 10
439.5187203791
 20
356.6973933649
 30
0.0
 11
439.5187203791
 21
373.6973933649
 31
0.0
  0
LINE
  5
19F
330
1F
100
AcDbEntity
  8
0
  6
Continuous
 62
     7
370
    25
100
AcDbLine
 10
443.5187203791
 20
377.6973933649
 30
0.0
 11
531.5187203791
 21
377.6973933649
 31
0.0
  0
ARC
  5
1A0
330
1F
100
AcDbEntity
  8
0
  6
Continuous
 62
     7
370
    25
100
AcDbCircle
 10
531.5187203791
 20
369.6973933649
 30
0.0
 40
8.0
100
AcDbArc
 50
0.0
 51
90.0
  0
CIRCLE
  5
1A1
330
1F
100
AcDbEntity
  8
0
  6
Continuous
 62
     7
370
    25
100
AcDbCircle
 10
529.5187203791
 20
365.1973933649
 30
0.0
 40
3.250000000000057
  0
ARC
  5
1A2
330
1F
100
AcDbEntity
  8
0
  6
Continuous
 62
     7
370
    25
100
AcDbCircle
 10
443.5187203791
 20
373.6973933649
 30
0.0
 40
4.0
100
AcDbArc
 50
90.0
 51
180.0
  0
CIRCLE
  5
1A3
330
1F
100
AcDbEntity
  8
0
  6
Continuous
 62
     7
370
    25
100
AcDbCircle
 10
449.5187203791
 20
365.1973933649
 30
0.0
 40
3.250000000000057
  0
LINE
  5
1A4
330
1F
100
AcDbEntity
  8
0
  6
Continuous
 62
     7
370
    25
100
AcDbLine
 10
531.5187203791
 20
352.6973933649
 30
0.0
 11
443.5187203791
 21
352.6973933649
 31
0.0
  0
LINE
  5
1A5
330
1F
100
AcDbEntity
  8
0
  6
Continuous
 62
     7
370
    25
100
AcDbLine
 10
539.5187203791
 20
369.6973933649
 30
0.0
 11
539.5187203791
 21
360.6973933649
 31
0.0
  0
LWPOLYLINE
  5
1A6
330
1F
100
AcDbEntity
  8
0
  6
Continuous
 62
     7
370
    25
100
AcDbPolyline
 90
        3
 70
   128
 43
0.0
 10
529.5187203791
 20
368.1973933649
 10
530.1591371514
 20
368.2431968765
 10
530.4813466335
 20
368.3015600316
  0
LWPOLYLINE
  5
1A7
330
1F
100
AcDbEntity
  8
0
  6
Continuous
 62
     7
370
    25
100
AcDbPolyline
 90
        3
 70
   128
 43
0.0
 10
528.5560941248
 20
368.3015600316
 10
528.8783036069
 20
368.2431968765
 10
529.5187203791
 20
368.1973933649
  0
ARC
  5
1A8
330
1F
100
AcDbEntity
  8
0
  6
Continuous
 62
     7
370
    25
100
AcDbCircle
 10
534.5187203791
 20
357.6973933649
 30
0.0
 40
5.0
100
AcDbArc
 50
270.0
 51
0.0
  0
LINE
  5
1A9
330
1F
100
AcDbEntity
  8
0
  6
Continuous
 62
     7
370
    25
100
AcDbLine
 10
534.5187203791
 20
377.6973933649
 30
0.0
 11
531.5187203791
 21
377.6973933649
 31
0.0
  0
LINE
  5
1AA
330
1F
100
AcDbEntity
  8
0
  6
Continuous
 62
     7
370
    25
100
AcDbLine
 10
539.5187203791
 20
372.6973933649
 30
0.0
 11
539.5187203791
 21
369.6973933649
 31
0.0
  0
LINE
  5
1AB
330
1F
100
AcDbEntity
  8
0
  6
Continuous
 62
     7
370
    25
100
AcDbLine
 10
539.5187203791
 20
360.6973933649
 30
0.0
 11
539.5187203791
 21
357.6973933649
 31
0.0
  0
ARC
  5
1AC
330
1F
100
AcDbEntity
  8
0
  6
Continuous
 62
     7
370
    25
100
AcDbCircle
 10
534.5187203791
 20
372.6973933649
 30
0.0
 40
5.0
100
AcDbArc
 50
0.0
 51
90.0
  0
LINE
  5
1AD
330
1F
100
AcDbEntity
  8
0
  6
Continuous
 62
     7
370
    25
100
AcDbLine
 10
534.5187203791
 20
352.6973933649
 30
0.0
 11
531.5187203791
 21
352.6973933649
 31
0.0
  0
ARC
  5
1AE
330
1F
100
AcDbEntity
  8
0
  6
Continuous
 62
     7
370
    25
100
AcDbCircle
 10
449.5187203791
 20
357.6973933649
 30
0.0
 40
4.500000000000094
100
AcDbArc
 50
77.6480053634
 51
102.3519946366
  0
LINE
  5
1AF
330
1F
100
AcDbEntity
  8
0
  6
Continuous
 62
     7
370
    25
100
AcDbLine
 10
496.5187203791
 20
435.6411848341
 30
0.0
 11
496.5187203791
 21
446.6411848341
 31
0.0
  0
LINE
  5
1B0
330
1F
100
AcDbEntity
  8
0
  6
Continuous
 62
     7
370
    25
100
AcDbLine
 10
482.5187203791
 20
446.6411848341
 30
0.0
 11
482.5187203791
 21
435.6411848341
 31
0.0
  0
LINE
  5
1B1
330
1F
100
AcDbEntity
  8
0
  6
Continuous
 62
     7
370
    25
100
AcDbLine
 10
480.1937203791
 20
410.6411848341
 30
0.0
 11
480.9937203791
 21
409.8411848341
 31
0.0
  0
LINE
  5
1B2
330
1F
100
AcDbEntity
  8
0
  6
Continuous
 62
     7
370
    25
100
AcDbLine
 10
498.0437203791
 20
409.8411848341
 30
0.0
 11
498.8437203791
 21
410.6411848341
 31
0.0
  0
SPLINE
  5
1B3
330
1F
100
AcDbEntity
  8
0
  6
Continuous
 62
     7
370
    25
100
AcDbSpline
210
0.0
220
0.0
230
1.0
 70
     8
 71
     3
 72
    11
 73
     7
 74
     0
 42
0.00000001
 43
0.00000001
 40
0.0
 40
0.0
 40
0.0
 40
0.0
 40
0.2676467907364525
 40
0.5353351266224851
 40
0.7997872900634849
 40
1.0
 40
1.0
 40
1.0
 40
1.0
 10
489.5187203791471
 20
419.8804687613295
 30
0.0
 10
489.3222008468862
 20
419.8907875118749
 30
0.0
 10
488.9291312778576
 20
419.9114266146813
 30
0.0
 10
488.3678099307061
 20
420.0796530416638
 30
0.0
 10
487.8867851247011
 20
420.307794207856
 30
0.0
 10
487.6295546770521
 20
420.5190244393708
 30
0.0
 10
487.5187203791468
 20
420.6100383711205
 30
0.0
  0
SPLINE
  5
1B4
330
1F
100
AcDbEntity
  8
0
  6
Continuous
 62
     7
370
    25
100
AcDbSpline
210
0.0
220
0.0
230
1.0
 70
     8
 71
     3
 72
    15
 73
    11
 74
     0
 42
0.00000001
 43
0.00000001
 40
0.0
 40
0.0
 40
0.0
 40
0.0
 40
0.0997770361556495
 40
0.231829602224212
 40
0.3654381988348498
 40
0.4991242994193429
 40
0.6340155359686935
 40
0.7670890874184384
 40
0.8997298544825976
 40
1.0
 40
1.0
 40
1.0
 40
1.0
 10
487.5187203791468
 20
424.6722597359495
 30
0.0
 10
487.6291530220957
 20
424.7629483690095
 30
0.0
 10
487.8857406766684
 20
424.9736612799014
 30
0.0
 10
488.3656537556183
 20
425.2030913361325
 30
0.0
 10
488.9260282863738
 20
425.3655178277174
 30
0.0
 10
489.5165493873563
 20
425.4199014118805
 30
0.0
 10
490.1064877954188
 20
425.3665317516321
 30
0.0
 10
490.6688176593975
 20
425.2042690988403
 30
0.0
 10
491.1497591922761
 20
424.9749842364396
 30
0.0
 10
491.407682278395
 20
424.7634490441105
 30
0.0
 10
491.5187203791468
 20
424.6723813294988
 30
0.0
  0
SPLINE
  5
1B5
330
1F
100
AcDbEntity
  8
0
  6
Continuous
 62
     7
370
    25
100
AcDbSpline
210
0.0
220
0.0
230
1.0
 70
     8
 71
     3
 72
    11
 73
     7
 74
     0
 42
0.00000001
 43
0.00000001
 40
0.0
 40
0.0
 40
0.0
 40
0.0
 40
0.200494700320538
 40
0.4644053995090265
 40
0.7314522751577643
 40
1.0
 40
1.0
 40
1.0
 40
1.0
 10
491.5187203791468
 20
420.6101498953607
 30
0.0
 10
491.407742035888
 20
420.5189831990835
 30
0.0
 10
491.1506831622342
 20
420.3078139964122
 30
0.0
 10
490.6702319101215
 20
420.0799691748375
 30
0.0
 10
490.1091915898781
 20
419.9115666229052
 30
0.0
 10
489.71591146738
 20
419.8908540621779
 30
0.0
 10
489.5187203791471
 20
419.8804687613295
 30
0.0
  0
LINE
  5
1B6
330
1F
100
AcDbEntity
  8
0
  6
Continuous
 62
     7
370
    25
100
AcDbLine
 10
531.5187203791
 20
446.6411848341
 30
0.0
 11
531.5187203791
 21
450.6411848341
 31
0.0
  0
LINE
  5
1B7
330
1F
100
AcDbEntity
  8
0
  6
Continuous
 62
     7
370
    25
100
AcDbLine
 10
531.5187203791
 20
450.6411848341
 30
0.0
 11
539.5187203791
 21
450.6411848341
 31
0.0
  0
LINE
  5
1B8
330
1F
100
AcDbEntity
  8
0
  6
Continuous
 62
     7
370
    25
100
AcDbLine
 10
539.5187203791
 20
450.6411848341
 30
0.0
 11
539.5187203791
 21
446.6411848341
 31
0.0
  0
LINE
  5
1B9
330
1F
100
AcDbEntity
  8
0
  6
Continuous
 62
     7
370
    25
100
AcDbLine
 10
539.5187203791
 20
446.6411848341
 30
0.0
 11
531.5187203791
 21
446.6411848341
 31
0.0
  0
LINE
  5
1BA
330
1F
100
AcDbEntity
  8
0
  6
Continuous
 62
     7
370
    25
100
AcDbLine
 10
443.5187203791
 20
450.6411848341
 30
0.0
 11
443.5187203791
 21
446.6411848341
 31
0.0
  0
LINE
  5
1BB
330
1F
100
AcDbEntity
  8
0
  6
Continuous
 62
     7
370
    25
100
AcDbLine
 10
531.5187203791
 20
450.6411848341
 30
0.0
 11
443.5187203791
 21
450.6411848341
 31
0.0
  0
LINE
  5
1BC
330
1F
100
AcDbEntity
  8
0
  6
Continuous
 62
     7
370
    25
100
AcDbLine
 10
531.5187203791
 20
446.6411848341
 30
0.0
 11
443.5187203791
 21
446.6411848341
 31
0.0
  0
LINE
  5
1BD
330
1F
100
AcDbEntity
  8
0
  6
Continuous
 62
     7
370
    25
100
AcDbLine
 10
439.5187203791
 20
446.6411848341
 30
0.0
 11
439.5187203791
 21
450.6411848341
 31
0.0
  0
LINE
  5
1BE
330
1F
100
AcDbEntity
  8
0
  6
Continuous
 62
     7
370
    25
100
AcDbLine
 10
439.5187203791
 20
450.6411848341
 30
0.0
 11
443.5187203791
 21
450.6411848341
 31
0.0
  0
LINE
  5
1BF
330
1F
100
AcDbEntity
  8
0
  6
Continuous
 62
     7
370
    25
100
AcDbLine
 10
443.5187203791
 20
446.6411848341
 30
0.0
 11
439.5187203791
 21
446.6411848341
 31
0.0
  0
LINE
  5
1C0
330
1F
100
AcDbEntity
  8
0
  6
Continuous
 62
     7
370
    25
100
AcDbLine
 10
500.0187203791
 20
435.6411848341
 30
0.0
 11
478.5187203791
 21
435.6411848341
 31
0.0
  0
LINE
  5
1C1
330
1F
100
AcDbEntity
  8
0
  6
Continuous
 62
     7
370
    25
100
AcDbLine
 10
491.5187203791
 20
426.1661848341
 30
0.0
 11
491.5187203791
 21
426.8411848341
 31
0.0
  0
SPLINE
  5
1C2
330
1F
100
AcDbEntity
  8
0
  6
Continuous
 62
     7
370
    25
100
AcDbSpline
210
0.0
220
0.0
230
1.0
 70
     8
 71
     3
 72
    10
 73
     6
 74
     0
 42
0.00000001
 43
0.00000001
 40
0.0
 40
0.0
 40
0.0
 40
0.0
 40
0.4563009809292424
 40
0.9123716699474885
 40
1.0
 40
1.0
 40
1.0
 40
1.0
 10
491.5187203791469
 20
426.841184834123
 30
0.0
 10
491.4945591824844
 20
427.0607842808733
 30
0.0
 10
491.4462489831462
 20
427.4998723440705
 30
0.0
 10
491.2287595993246
 20
427.9611375620214
 30
0.0
 10
491.0302968271766
 20
428.1333138509123
 30
0.0
 10
490.9983104510919
 20
428.1610636171267
 30
0.0
  0
SPLINE
  5
1C3
330
1F
100
AcDbEntity
  8
0
  6
Continuous
 62
     7
370
    25
100
AcDbSpline
210
0.0
220
0.0
230
1.0
 70
     8
 71
     3
 72
    10
 73
     6
 74
     0
 42
0.00000001
 43
0.00000001
 40
0.0
 40
0.0
 40
0.0
 40
0.0
 40
0.3353507007759281
 40
0.8205814598573355
 40
1.0
 40
1.0
 40
1.0
 40
1.0
 10
488.0062532702649
 20
428.1125003177265
 30
0.0
 10
487.9066989946181
 20
427.9923483432269
 30
0.0
 10
487.6630961255731
 20
427.6983442382361
 30
0.0
 10
487.534994744623
 20
427.2325966124308
 30
0.0
 10
487.5221797253739
 20
426.9243849355641
 30
0.0
 10
487.5187203791468
 20
426.8411848341229
 30
0.0
  0
LINE
  5
1C4
330
1F
100
AcDbEntity
  8
0
  6
Continuous
 62
     7
370
    25
100
AcDbLine
 10
487.5187203791
 20
426.8411848341
 30
0.0
 11
487.5187203791
 21
426.1661848341
 31
0.0
  0
LINE
  5
1C5
330
1F
100
AcDbEntity
  8
0
  6
Continuous
 62
     7
370
    25
100
AcDbLine
 10
487.5187203791
 20
426.1661848341
 30
0.0
 11
486.8745049946
 21
426.1661848341
 31
0.0
  0
LINE
  5
1C6
330
1F
100
AcDbEntity
  8
0
  6
Continuous
 62
     7
370
    25
100
AcDbLine
 10
492.1629357637
 20
426.1661848341
 30
0.0
 11
491.5187203791
 21
426.1661848341
 31
0.0
  0
LINE
  5
1C7
330
1F
100
AcDbEntity
  8
0
  6
Continuous
 62
     7
370
    25
100
AcDbLine
 10
492.1687203791
 20
425.8411848341
 30
0.0
 11
491.5187203791
 21
425.8411848341
 31
0.0
  0
LINE
  5
1C8
330
1F
100
AcDbEntity
  8
0
  6
Continuous
 62
     7
370
    25
100
AcDbLine
 10
491.5187203791
 20
425.8411848341
 30
0.0
 11
491.5187203791
 21
426.1661848341
 31
0.0
  0
LINE
  5
1C9
330
1F
100
AcDbEntity
  8
0
  6
Continuous
 62
     7
370
    25
100
AcDbLine
 10
487.5187203791
 20
425.8411848341
 30
0.0
 11
486.8687203791
 21
425.8411848341
 31
0.0
  0
LINE
  5
1CA
330
1F
100
AcDbEntity
  8
0
  6
Continuous
 62
     7
370
    25
100
AcDbLine
 10
487.5187203791
 20
426.1661848341
 30
0.0
 11
487.5187203791
 21
425.8411848341
 31
0.0
  0
LINE
  5
1CB
330
1F
100
AcDbEntity
  8
0
  6
Continuous
 62
     7
370
    25
100
AcDbLine
 10
487.5187203791
 20
409.8411848341
 30
0.0
 11
480.9937203791
 21
409.8411848341
 31
0.0
  0
LINE
  5
1CC
330
1F
100
AcDbEntity
  8
0
  6
Continuous
 62
     7
370
    25
100
AcDbLine
 10
498.0437203791
 20
409.8411848341
 30
0.0
 11
491.5187203791
 21
409.8411848341
 31
0.0
  0
SPLINE
  5
1CD
330
1F
100
AcDbEntity
  8
0
  6
Continuous
 62
     7
370
    25
100
AcDbSpline
210
0.0
220
0.0
230
1.0
 70
    24
 71
     3
 72
     9
 73
     5
 74
     0
 42
0.00000001
 43
0.00000001
 40
0.0
 40
0.0
 40
0.0
 40
0.0
 40
0.6662605863389306
 40
1.0
 40
1.0
 40
1.0
 40
1.0
 10
487.5187203791468
 20
410.6411848341229
 30
0.0
 10
487.5187203791468
 20
410.4633361477722
 30
0.0
 10
487.5187203791468
 20
410.1964005222864
 30
0.0
 10
487.5187203791468
 20
409.9300698698926
 30
0.0
 10
487.5187203791468
 20
409.8411848341228
 30
0.0
  0
SPLINE
  5
1CE
330
1F
100
AcDbEntity
  8
0
  6
Continuous
 62
     7
370
    25
100
AcDbSpline
210
0.0
220
0.0
230
1.0
 70
    24
 71
     3
 72
     9
 73
     5
 74
     0
 42
0.00000001
 43
0.00000001
 40
0.0
 40
0.0
 40
0.0
 40
0.0
 40
0.3337394136610693
 40
1.0
 40
1.0
 40
1.0
 40
1.0
 10
491.5187203791468
 20
409.8411848341228
 30
0.0
 10
491.5187203791468
 20
409.9300698698928
 30
0.0
 10
491.5187203791468
 20
410.1964005222865
 30
0.0
 10
491.5187203791468
 20
410.4633361477722
 30
0.0
 10
491.5187203791468
 20
410.6411848341229
 30
0.0
  0
LINE
  5
1CF
330
1F
100
AcDbEntity
  8
0
  6
Continuous
 62
     7
370
    25
100
AcDbLine
 10
487.5187203791
 20
425.8411848341
 30
0.0
 11
487.5187203791
 21
417.5526509691
 31
0.0
  0
LINE
  5
1D0
330
1F
100
AcDbEntity
  8
0
  6
Continuous
 62
     7
370
    25
100
AcDbLine
 10
491.5187203791
 20
417.5526509691
 30
0.0
 11
491.5187203791
 21
425.8411848341
 31
0.0
  0
LINE
  5
1D1
330
1F
100
AcDbEntity
  8
0
  6
Continuous
 62
     7
370
    25
100
AcDbLine
 10
487.5066524383
 20
409.8411848341
 30
0.0
 11
491.5187203791
 21
409.8411848341
 31
0.0
  0
ARC
  5
1D2
330
1F
100
AcDbEntity
  8
0
  6
Continuous
 62
     7
370
    25
100
AcDbCircle
 10
489.5187203791
 20
419.2911848341
 30
0.0
 40
2.650000000000034
100
AcDbArc
 50
180.0
 51
0.0
  0
LINE
  5
1D3
330
1F
100
AcDbEntity
  8
0
  6
Continuous
 62
     7
370
    25
100
AcDbLine
 10
492.1687203791
 20
425.9911848341
 30
0.0
 11
492.1687203791
 21
419.2911848341
 31
0.0
  0
ARC
  5
1D4
330
1F
100
AcDbEntity
  8
0
  6
Continuous
 62
     7
370
    25
100
AcDbCircle
 10
489.5187203791
 20
425.9911848341
 30
0.0
 40
2.650000000000034
100
AcDbArc
 50
0.0
 51
180.0
  0
LINE
  5
1D5
330
1F
100
AcDbEntity
  8
0
  6
Continuous
 62
     7
370
    25
100
AcDbLine
 10
486.8687203791
 20
419.2911848341
 30
0.0
 11
486.8687203791
 21
425.9911848341
 31
0.0
  0
LINE
  5
1D6
330
1F
100
AcDbEntity
  8
0
  6
Continuous
 62
     7
370
    25
100
AcDbLine
 10
504.5187203791
 20
430.6411848341
 30
0.0
 11
506.5187203791
 21
432.6411848341
 31
0.0
  0
LINE
  5
1D7
330
1F
100
AcDbEntity
  8
0
  6
Continuous
 62
     7
370
    25
100
AcDbLine
 10
504.5187203791
 20
410.6411848341
 30
0.0
 11
504.5187203791
 21
430.6411848341
 31
0.0
  0
LINE
  5
1D8
330
1F
100
AcDbEntity
  8
0
  6
Continuous
 62
     7
370
    25
100
AcDbLine
 10
504.5187203791
 20
410.6411848341
 30
0.0
 11
474.5187203791
 21
410.6411848341
 31
0.0
  0
LINE
  5
1D9
330
1F
100
AcDbEntity
  8
0
  6
Continuous
 62
     7
370
    25
100
AcDbLine
 10
474.5187203791
 20
410.6411848341
 30
0.0
 11
474.5187203791
 21
430.6411848341
 31
0.0
  0
LINE
  5
1DA
330
1F
100
AcDbEntity
  8
0
  6
Continuous
 62
     7
370
    25
100
AcDbLine
 10
472.5187203791
 20
432.6411848341
 30
0.0
 11
474.5187203791
 21
430.6411848341
 31
0.0
  0
LINE
  5
1DB
330
1F
100
AcDbEntity
  8
0
  6
Continuous
 62
     7
370
    25
100
AcDbLine
 10
472.5187203791
 20
432.6411848341
 30
0.0
 11
444.5187203791
 21
432.6411848341
 31
0.0
  0
LINE
  5
1DC
330
1F
100
AcDbEntity
  8
0
  6
Continuous
 62
     7
370
    25
100
AcDbLine
 10
444.5187203791
 20
435.6411848341
 30
0.0
 11
444.5187203791
 21
432.6411848341
 31
0.0
  0
LINE
  5
1DD
330
1F
100
AcDbEntity
  8
0
  6
Continuous
 62
     7
370
    25
100
AcDbLine
 10
478.5187203791
 20
435.6411848341
 30
0.0
 11
444.5187203791
 21
435.6411848341
 31
0.0
  0
LINE
  5
1DE
330
1F
100
AcDbEntity
  8
0
  6
Continuous
 62
     7
370
    25
100
AcDbLine
 10
478.5187203791
 20
431.8411848341
 30
0.0
 11
478.5187203791
 21
435.6411848341
 31
0.0
  0
LINE
  5
1DF
330
1F
100
AcDbEntity
  8
0
  6
Continuous
 62
     7
370
    25
100
AcDbLine
 10
478.5187203791
 20
431.8411848341
 30
0.0
 11
500.0187203791
 21
431.8411848341
 31
0.0
  0
LINE
  5
1E0
330
1F
100
AcDbEntity
  8
0
  6
Continuous
 62
     7
370
    25
100
AcDbLine
 10
500.0187203791
 20
431.8411848341
 30
0.0
 11
500.0187203791
 21
435.6411848341
 31
0.0
  0
LINE
  5
1E1
330
1F
100
AcDbEntity
  8
0
  6
Continuous
 62
     7
370
    25
100
AcDbLine
 10
534.5187203791
 20
435.6411848341
 30
0.0
 11
500.0187203791
 21
435.6411848341
 31
0.0
  0
LINE
  5
1E2
330
1F
100
AcDbEntity
  8
0
  6
Continuous
 62
     7
370
    25
100
AcDbLine
 10
534.5187203791
 20
432.6411848341
 30
0.0
 11
534.5187203791
 21
435.6411848341
 31
0.0
  0
LINE
  5
1E3
330
1F
100
AcDbEntity
  8
0
  6
Continuous
 62
     7
370
    25
100
AcDbLine
 10
534.5187203791
 20
432.6411848341
 30
0.0
 11
506.5187203791
 21
432.6411848341
 31
0.0
  0
LINE
  5
1E4
330
1F
100
AcDbEntity
  8
0
  6
Continuous
 62
     7
370
    25
100
AcDbLine
 10
539.5187203791
 20
435.6411848341
 30
0.0
 11
539.5187203791
 21
432.6411848341
 31
0.0
  0
LINE
  5
1E5
330
1F
100
AcDbEntity
  8
0
  6
Continuous
 62
     7
370
    25
100
AcDbLine
 10
539.5187203791
 20
432.6411848341
 30
0.0
 11
534.5187203791
 21
432.6411848341
 31
0.0
  0
LINE
  5
1E6
330
1F
100
AcDbEntity
  8
0
  6
Continuous
 62
     7
370
    25
100
AcDbLine
 10
534.5187203791
 20
435.6411848341
 30
0.0
 11
539.5187203791
 21
435.6411848341
 31
0.0
  0
LINE
  5
1E7
330
1F
100
AcDbEntity
  8
0
  6
Continuous
 62
     7
370
    25
100
AcDbLine
 10
439.5187203791
 20
432.6411848341
 30
0.0
 11
439.5187203791
 21
435.6411848341
 31
0.0
  0
LINE
  5
1E8
330
1F
100
AcDbEntity
  8
0
  6
Continuous
 62
     7
370
    25
100
AcDbLine
 10
444.5187203791
 20
432.6411848341
 30
0.0
 11
439.5187203791
 21
432.6411848341
 31
0.0
  0
LINE
  5
1E9
330
1F
100
AcDbEntity
  8
0
  6
Continuous
 62
     7
370
    25
100
AcDbLine
 10
439.5187203791
 20
435.6411848341
 30
0.0
 11
444.5187203791
 21
435.6411848341
 31
0.0
  0
CIRCLE
  5
1EA
330
1F
100
AcDbEntity
  8
0
  6
Continuous
 62
     7
370
    25
100
AcDbCircle
 10
489.5187203791
 20
422.6411848341
 30
0.0
 40
1.750000000015496
  0
ARC
  5
1EB
330
1F
100
AcDbEntity
  8
0
  6
Continuous
 62
     7
370
    25
100
AcDbCircle
 10
489.5187203791
 20
422.6411848341
 30
0.0
 40
2.500000000000012
100
AcDbArc
 50
113.1022855798
 51
143.1301023542
  0
ARC
  5
1EC
330
1F
100
AcDbEntity
  8
0
  6
Continuous
 62
     7
370
    25
100
AcDbCircle
 10
489.5187203791
 20
422.6411848341
 30
0.0
 40
2.500000000000012
100
AcDbArc
 50
216.8698976458
 51
246.8977136798
  0
ARC
  5
1ED
330
1F
100
AcDbEntity
  8
0
  6
Continuous
 62
     7
370
    25
100
AcDbCircle
 10
489.5187203791
 20
422.6411848341
 30
0.0
 40
2.499999999999988
100
AcDbArc
 50
293.1022954023
 51
323.1301023541
  0
ARC
  5
1EE
330
1F
100
AcDbEntity
  8
0
  6
Continuous
 62
     7
370
    25
100
AcDbCircle
 10
489.5187203791
 20
422.6411848341
 30
0.0
 40
2.499999999999966
100
AcDbArc
 50
36.8698976458
 51
76.5664223901
  0
LINE
  5
1EF
330
1F
100
AcDbEntity
  8
0
  6
Continuous
 62
     7
370
    25
100
AcDbLine
 10
488.5263805594
 20
421.5930460001
 30
0.0
 11
489.9302653262
 21
421.257723924
 31
0.0
  0
LINE
  5
1F0
330
1F
100
AcDbEntity
  8
0
  6
Continuous
 62
     7
370
    25
100
AcDbLine
 10
489.9302653262
 20
421.257723924
 30
0.0
 11
490.922605146
 21
422.305862758
 31
0.0
  0
LINE
  5
1F1
330
1F
100
AcDbEntity
  8
0
  6
Continuous
 62
     7
370
    25
100
AcDbLine
 10
490.922605146
 20
422.305862758
 30
0.0
 11
490.5110601989
 21
423.6893236681
 31
0.0
  0
LINE
  5
1F2
330
1F
100
AcDbEntity
  8
0
  6
Continuous
 62
     7
370
    25
100
AcDbLine
 10
490.5110601989
 20
423.6893236681
 30
0.0
 11
489.1071754321
 21
424.0246457443
 31
0.0
  0
LINE
  5
1F3
330
1F
100
AcDbEntity
  8
0
  6
Continuous
 62
     7
370
    25
100
AcDbLine
 10
489.1071754321
 20
424.0246457443
 30
0.0
 11
488.1148356123
 21
422.9765069102
 31
0.0
  0
LINE
  5
1F4
330
1F
100
AcDbEntity
  8
0
  6
Continuous
 62
     7
370
    25
100
AcDbLine
 10
488.1148356123
 20
422.9765069102
 30
0.0
 11
488.5263805594
 21
421.5930460001
 31
0.0
  0
LINE
  5
1F5
330
1F
100
AcDbEntity
  8
0
  6
Continuous
 62
     7
370
    25
100
AcDbLine
 10
627.2849763033
 20
435.6411848341
 30
0.0
 11
627.2849763033
 21
446.6411848341
 31
0.0
  0
LINE
  5
1F6
330
1F
100
AcDbEntity
  8
0
  6
Continuous
 62
     7
370
    25
100
AcDbLine
 10
613.2849763033
 20
446.6411848341
 30
0.0
 11
613.2849763033
 21
435.6411848341
 31
0.0
  0
LINE
  5
1F7
330
1F
100
AcDbEntity
  8
0
  6
Continuous
 62
     7
370
    25
100
AcDbLine
 10
610.9599763033
 20
410.6411848341
 30
0.0
 11
611.7599763033
 21
409.8411848341
 31
0.0
  0
LINE
  5
1F8
330
1F
100
AcDbEntity
  8
0
  6
Continuous
 62
     7
370
    25
100
AcDbLine
 10
628.7849763033
 20
446.6411848341
 30
0.0
 11
628.7849763033
 21
450.6411848341
 31
0.0
  0
LINE
  5
1F9
330
1F
100
AcDbEntity
  8
0
  6
Continuous
 62
     7
370
    25
100
AcDbLine
 10
628.7849763033
 20
450.6411848341
 30
0.0
 11
632.7849763033
 21
450.6411848341
 31
0.0
  0
LINE
  5
1FA
330
1F
100
AcDbEntity
  8
0
  6
Continuous
 62
     7
370
    25
100
AcDbLine
 10
632.7849763033
 20
450.6411848341
 30
0.0
 11
632.7849763033
 21
446.6411848341
 31
0.0
  0
LINE
  5
1FB
330
1F
100
AcDbEntity
  8
0
  6
Continuous
 62
     7
370
    25
100
AcDbLine
 10
632.7849763033
 20
446.6411848341
 30
0.0
 11
628.7849763033
 21
446.6411848341
 31
0.0
  0
LINE
  5
1FC
330
1F
100
AcDbEntity
  8
0
  6
Continuous
 62
     7
370
    25
100
AcDbLine
 10
628.7849763033
 20
446.6411848341
 30
0.0
 11
611.7849763033
 21
446.6411848341
 31
0.0
  0
LINE
  5
1FD
330
1F
100
AcDbEntity
  8
0
  6
Continuous
 62
     7
370
    25
100
AcDbLine
 10
611.7849763033
 20
450.6411848341
 30
0.0
 11
611.7849763033
 21
446.6411848341
 31
0.0
  0
LINE
  5
1FE
330
1F
100
AcDbEntity
  8
0
  6
Continuous
 62
     7
370
    25
100
AcDbLine
 10
628.7849763033
 20
450.6411848341
 30
0.0
 11
611.7849763033
 21
450.6411848341
 31
0.0
  0
LINE
  5
1FF
330
1F
100
AcDbEntity
  8
0
  6
Continuous
 62
     7
370
    25
100
AcDbLine
 10
607.7849763033
 20
446.6411848341
 30
0.0
 11
607.7849763033
 21
450.6411848341
 31
0.0
  0
LINE
  5
200
330
1F
100
AcDbEntity
  8
0
  6
Continuous
 62
     7
370
    25
100
AcDbLine
 10
611.7849763033
 20
446.6411848341
 30
0.0
 11
607.7849763033
 21
446.6411848341
 31
0.0
  0
LINE
  5
201
330
1F
100
AcDbEntity
  8
0
  6
Continuous
 62
     7
370
    25
100
AcDbLine
 10
607.7849763033
 20
450.6411848341
 30
0.0
 11
611.7849763033
 21
450.6411848341
 31
0.0
  0
LINE
  5
202
330
1F
100
AcDbEntity
  8
0
  6
Continuous
 62
     7
370
    25
100
AcDbLine
 10
622.9291916879
 20
426.1661848341
 30
0.0
 11
622.2849763033
 21
426.1661848341
 31
0.0
  0
LINE
  5
203
330
1F
100
AcDbEntity
  8
0
  6
Continuous
 62
     7
370
    25
100
AcDbLine
 10
622.2849763033
 20
426.8911848341
 30
0.0
 11
622.2849763033
 21
426.1661848341
 31
0.0
  0
SPLINE
  5
204
330
1F
100
AcDbEntity
  8
0
  6
Continuous
 62
     7
370
    25
100
AcDbSpline
210
0.0
220
0.0
230
1.0
 70
     8
 71
     3
 72
    14
 73
    10
 74
     0
 42
0.00000001
 43
0.00000001
 40
0.0
 40
0.0
 40
0.0
 40
0.0
 40
0.139374562854444
 40
0.2797335574451666
 40
0.423185120331918
 40
0.5676980281985503
 40
0.7070692562684159
 40
0.9904498812146757
 40
1.0
 40
1.0
 40
1.0
 40
1.0
 10
618.2849763033203
 20
426.891184834123
 30
0.0
 10
618.2862688553521
 20
426.9457672995058
 30
0.0
 10
618.2888630889815
 20
427.0553177576593
 30
0.0
 10
618.3099817364899
 20
427.2198982443168
 30
0.0
 10
618.3442021492615
 20
427.3840520315732
 30
0.0
 10
618.3920461691336
 20
427.5444168456461
 30
0.0
 10
618.4739647300468
 20
427.7501506863213
 30
0.0
 10
618.5506239830296
 20
427.9022358736734
 30
0.0
 10
618.6173963749441
 20
427.9948163956755
 30
0.0
 10
618.6195732863404
 20
427.9978347029076
 30
0.0
  0
SPLINE
  5
205
330
1F
100
AcDbEntity
  8
0
  6
Continuous
 62
     7
370
    25
100
AcDbSpline
210
0.0
220
0.0
230
1.0
 70
     8
 71
     3
 72
    15
 73
    11
 74
     0
 42
0.00000001
 43
0.00000001
 40
0.0
 40
0.0
 40
0.0
 40
0.0
 40
0.165079053665606
 40
0.2957716064297411
 40
0.4220891287682192
 40
0.5493053372177684
 40
0.6793851046170577
 40
0.8104669894338842
 40
0.905040033843313
 40
1.0
 40
1.0
 40
1.0
 40
1.0
 10
621.8606690448894
 20
428.112296594844
 30
0.0
 10
621.9055201665244
 20
428.0553741680123
 30
0.0
 10
621.9858797760667
 20
427.9533864399995
 30
0.0
 10
622.0738351146617
 20
427.7898254361721
 30
0.0
 10
622.1436695057931
 20
427.6362359353951
 30
0.0
 10
622.1997134248168
 20
427.4770279367045
 30
0.0
 10
622.2428773535772
 20
427.3115849446152
 30
0.0
 10
622.2689749239211
 20
427.1570565990166
 30
0.0
 10
622.2827040783321
 20
427.0164612988647
 30
0.0
 10
622.2842178648854
 20
426.9330004493594
 30
0.0
 10
622.2849763033203
 20
426.8911848341228
 30
0.0
  0
LINE
  5
206
330
1F
100
AcDbEntity
  8
0
  6
Continuous
 62
     7
370
    25
100
AcDbLine
 10
618.2849763033
 20
426.1661848341
 30
0.0
 11
618.2849763033
 21
426.8911848341
 31
0.0
  0
LINE
  5
207
330
1F
100
AcDbEntity
  8
0
  6
Continuous
 62
     7
370
    25
100
AcDbLine
 10
618.2849763033
 20
426.1661848341
 30
0.0
 11
617.6407609187
 21
426.1661848341
 31
0.0
  0
LINE
  5
208
330
1F
100
AcDbEntity
  8
0
  6
Continuous
 62
     7
370
    25
100
AcDbLine
 10
622.9349763033
 20
425.8411848341
 30
0.0
 11
622.2849763033
 21
425.8411848341
 31
0.0
  0
LINE
  5
209
330
1F
100
AcDbEntity
  8
0
  6
Continuous
 62
     7
370
    25
100
AcDbLine
 10
622.2849763033
 20
426.1661848341
 30
0.0
 11
622.2849763033
 21
425.8411848341
 31
0.0
  0
LINE
  5
20A
330
1F
100
AcDbEntity
  8
0
  6
Continuous
 62
     7
370
    25
100
AcDbLine
 10
618.2849763033
 20
425.8411848341
 30
0.0
 11
617.6349763033
 21
425.8411848341
 31
0.0
  0
LINE
  5
20B
330
1F
100
AcDbEntity
  8
0
  6
Continuous
 62
     7
370
    25
100
AcDbLine
 10
618.2849763033
 20
425.8411848341
 30
0.0
 11
618.2849763033
 21
426.1661848341
 31
0.0
  0
SPLINE
  5
20C
330
1F
100
AcDbEntity
  8
0
  6
Continuous
 62
     7
370
    25
100
AcDbSpline
210
0.0
220
0.0
230
1.0
 70
     8
 71
     3
 72
    10
 73
     6
 74
     0
 42
0.00000001
 43
0.00000001
 40
0.0
 40
0.0
 40
0.0
 40
0.0
 40
0.4327942488177738
 40
0.8686491885624518
 40
1.0
 40
1.0
 40
1.0
 40
1.0
 10
622.2849763033203
 20
417.8911848341228
 30
0.0
 10
622.2835024133518
 20
417.8366870323125
 30
0.0
 10
622.2805442101674
 20
417.7273060240154
 30
0.0
 10
622.2666288533088
 20
417.6017115364878
 30
0.0
 10
622.2514484883932
 20
417.5319491391214
 30
0.0
 10
622.2479330916516
 20
417.5157938947806
 30
0.0
  0
SPLINE
  5
20D
330
1F
100
AcDbEntity
  8
0
  6
Continuous
 62
     7
370
    25
100
AcDbSpline
210
0.0
220
0.0
230
1.0
 70
     8
 71
     3
 72
    10
 73
     6
 74
     0
 42
0.00000001
 43
0.00000001
 40
0.0
 40
0.0
 40
0.0
 40
0.0
 40
0.1524874925602853
 40
0.5753571042214237
 40
0.9999999999999999
 40
0.9999999999999999
 40
0.9999999999999999
 40
0.9999999999999999
 10
618.3086600817865
 20
417.5939202595816
 30
0.0
 10
618.3059669820174
 20
417.6088499179398
 30
0.0
 10
618.2958055316678
 20
417.6651816527972
 30
0.0
 10
618.2877370119107
 20
417.7646114142431
 30
0.0
 10
618.2858978222537
 20
417.8489348830475
 30
0.0
 10
618.2849763033203
 20
417.8911848341228
 30
0.0
  0
LINE
  5
20E
330
1F
100
AcDbEntity
  8
0
  6
Continuous
 62
     7
370
    25
100
AcDbLine
 10
618.2849763033
 20
417.8911848341
 30
0.0
 11
618.2849763033
 21
425.8411848341
 31
0.0
  0
LINE
  5
20F
330
1F
100
AcDbEntity
  8
0
  6
Continuous
 62
     7
370
    25
100
AcDbLine
 10
622.2849763033
 20
425.8411848341
 30
0.0
 11
622.2849763033
 21
417.8911848341
 31
0.0
  0
SPLINE
  5
210
330
1F
100
AcDbEntity
  8
0
  6
Continuous
 62
     7
370
    25
100
AcDbSpline
210
0.0
220
0.0
230
1.0
 70
     8
 71
     3
 72
     9
 73
     5
 74
     0
 42
0.00000001
 43
0.00000001
 40
0.0
 40
0.0
 40
0.0
 40
0.0
 40
0.6662605863389293
 40
1.0
 40
1.0
 40
1.0
 40
1.0
 10
629.3926804301569
 20
410.6411848341229
 30
0.0
 10
629.2106042623827
 20
410.4633361477719
 30
0.0
 10
628.9373235498393
 20
410.1964005222864
 30
0.0
 10
628.6634533606706
 20
409.9300698698927
 30
0.0
 10
628.5720520843181
 20
409.8411848341228
 30
0.0
  0
LINE
  5
211
330
1F
100
AcDbEntity
  8
0
  6
Continuous
 62
     7
370
    25
100
AcDbLine
 10
628.5720520843
 20
409.8411848341
 30
0.0
 11
611.7599763033
 21
409.8411848341
 31
0.0
  0
LINE
  5
212
330
1F
100
AcDbEntity
  8
0
  6
Continuous
 62
     7
370
    25
100
AcDbLine
 10
612.7849763033
 20
435.6411848341
 30
0.0
 11
612.7849763033
 21
432.6411848341
 31
0.0
  0
LINE
  5
213
330
1F
100
AcDbEntity
  8
0
  6
Continuous
 62
     7
370
    25
100
AcDbLine
 10
612.7849763033
 20
435.6411848341
 30
0.0
 11
627.7849763033
 21
435.6411848341
 31
0.0
  0
LINE
  5
214
330
1F
100
AcDbEntity
  8
0
  6
Continuous
 62
     7
370
    25
100
AcDbLine
 10
627.7849763033
 20
432.6411848341
 30
0.0
 11
627.7849763033
 21
435.6411848341
 31
0.0
  0
LINE
  5
215
330
1F
100
AcDbEntity
  8
0
  6
Continuous
 62
     7
370
    25
100
AcDbLine
 10
612.7849763033
 20
432.6411848341
 30
0.0
 11
627.7849763033
 21
432.6411848341
 31
0.0
  0
LINE
  5
216
330
1F
100
AcDbEntity
  8
0
  6
Continuous
 62
     7
370
    25
100
AcDbLine
 10
632.7849763033
 20
435.6411848341
 30
0.0
 11
632.7849763033
 21
432.6411848341
 31
0.0
  0
LINE
  5
217
330
1F
100
AcDbEntity
  8
0
  6
Continuous
 62
     7
370
    25
100
AcDbLine
 10
632.7849763033
 20
432.6411848341
 30
0.0
 11
627.7849763033
 21
432.6411848341
 31
0.0
  0
LINE
  5
218
330
1F
100
AcDbEntity
  8
0
  6
Continuous
 62
     7
370
    25
100
AcDbLine
 10
627.7849763033
 20
435.6411848341
 30
0.0
 11
632.7849763033
 21
435.6411848341
 31
0.0
  0
LINE
  5
219
330
1F
100
AcDbEntity
  8
0
  6
Continuous
 62
     7
370
    25
100
AcDbLine
 10
612.7849763033
 20
432.6411848341
 30
0.0
 11
607.7849763033
 21
432.6411848341
 31
0.0
  0
LINE
  5
21A
330
1F
100
AcDbEntity
  8
0
  6
Continuous
 62
     7
370
    25
100
AcDbLine
 10
607.7849763033
 20
432.6411848341
 30
0.0
 11
607.7849763033
 21
435.6411848341
 31
0.0
  0
LINE
  5
21B
330
1F
100
AcDbEntity
  8
0
  6
Continuous
 62
     7
370
    25
100
AcDbLine
 10
607.7849763033
 20
435.6411848341
 30
0.0
 11
612.7849763033
 21
435.6411848341
 31
0.0
  0
LINE
  5
21C
330
1F
100
AcDbEntity
  8
0
  6
Continuous
 62
     7
370
    25
100
AcDbLine
 10
632.7849763033
 20
430.6411848341
 30
0.0
 11
607.7849763033
 21
430.6411848341
 31
0.0
  0
LINE
  5
21D
330
1F
100
AcDbEntity
  8
0
  6
Continuous
 62
     7
370
    25
100
AcDbLine
 10
607.7849763033
 20
430.6411848341
 30
0.0
 11
607.7849763033
 21
432.6411848341
 31
0.0
  0
LINE
  5
21E
330
1F
100
AcDbEntity
  8
0
  6
Continuous
 62
     7
370
    25
100
AcDbLine
 10
632.7849763033
 20
432.6411848341
 30
0.0
 11
632.7849763033
 21
430.6411848341
 31
0.0
  0
LINE
  5
21F
330
1F
100
AcDbEntity
  8
0
  6
Continuous
 62
     7
370
    25
100
AcDbLine
 10
617.6349763033
 20
419.2911848341
 30
0.0
 11
617.6349763033
 21
425.9911848341
 31
0.0
  0
ARC
  5
220
330
1F
100
AcDbEntity
  8
0
  6
Continuous
 62
     7
370
    25
100
AcDbCircle
 10
620.2849763033
 20
419.2911848341
 30
0.0
 40
2.650000000000091
100
AcDbArc
 50
180.0
 51
0.0
  0
LINE
  5
221
330
1F
100
AcDbEntity
  8
0
  6
Continuous
 62
     7
370
    25
100
AcDbLine
 10
622.9349763033
 20
425.9911848341
 30
0.0
 11
622.9349763033
 21
419.2911848341
 31
0.0
  0
ARC
  5
222
330
1F
100
AcDbEntity
  8
0
  6
Continuous
 62
     7
370
    25
100
AcDbCircle
 10
620.2849763033
 20
425.9911848341
 30
0.0
 40
2.650000000000091
100
AcDbArc
 50
0.0
 51
180.0
  0
LINE
  5
223
330
1F
100
AcDbEntity
  8
0
  6
Continuous
 62
     7
370
    25
100
AcDbLine
 10
632.7849763033
 20
410.6411848341
 30
0.0
 11
607.7849763033
 21
410.6411848341
 31
0.0
  0
LINE
  5
224
330
1F
100
AcDbEntity
  8
0
  6
Continuous
 62
     7
370
    25
100
AcDbLine
 10
607.7849763033
 20
410.6411848341
 30
0.0
 11
607.7849763033
 21
430.6411848341
 31
0.0
  0
LINE
  5
225
330
1F
100
AcDbEntity
  8
0
  6
Continuous
 62
     7
370
    25
100
AcDbLine
 10
632.7849763033
 20
410.6411848341
 30
0.0
 11
632.7849763033
 21
430.6411848341
 31
0.0
  0
LINE
  5
226
330
1F
100
AcDbEntity
  8
0
  6
Continuous
 62
     7
370
    25
100
AcDbLine
 10
378.1850236967
 20
435.6411848341
 30
0.0
 11
378.1850236967
 21
446.6411848341
 31
0.0
  0
LINE
  5
227
330
1F
100
AcDbEntity
  8
0
  6
Continuous
 62
     7
370
    25
100
AcDbLine
 10
364.1850236967
 20
446.6411848341
 30
0.0
 11
364.1850236967
 21
435.6411848341
 31
0.0
  0
LINE
  5
228
330
1F
100
AcDbEntity
  8
0
  6
Continuous
 62
     7
370
    25
100
AcDbLine
 10
379.7100236967
 20
409.8411848341
 30
0.0
 11
380.5100236967
 21
410.6411848341
 31
0.0
  0
LINE
  5
229
330
1F
100
AcDbEntity
  8
0
  6
Continuous
 62
     7
370
    25
100
AcDbLine
 10
375.6850236967
 20
446.6411848341
 30
0.0
 11
375.6850236967
 21
450.6411848341
 31
0.0
  0
LINE
  5
22A
330
1F
100
AcDbEntity
  8
0
  6
Continuous
 62
     7
370
    25
100
AcDbLine
 10
383.6850236967
 20
450.6411848341
 30
0.0
 11
383.6850236967
 21
446.6411848341
 31
0.0
  0
LINE
  5
22B
330
1F
100
AcDbEntity
  8
0
  6
Continuous
 62
     7
370
    25
100
AcDbLine
 10
375.6850236967
 20
450.6411848341
 30
0.0
 11
383.6850236967
 21
450.6411848341
 31
0.0
  0
LINE
  5
22C
330
1F
100
AcDbEntity
  8
0
  6
Continuous
 62
     7
370
    25
100
AcDbLine
 10
383.6850236967
 20
446.6411848341
 30
0.0
 11
375.6850236967
 21
446.6411848341
 31
0.0
  0
LINE
  5
22D
330
1F
100
AcDbEntity
  8
0
  6
Continuous
 62
     7
370
    25
100
AcDbLine
 10
366.6850236967
 20
450.6411848341
 30
0.0
 11
366.6850236967
 21
446.6411848341
 31
0.0
  0
LINE
  5
22E
330
1F
100
AcDbEntity
  8
0
  6
Continuous
 62
     7
370
    25
100
AcDbLine
 10
375.6850236967
 20
450.6411848341
 30
0.0
 11
366.6850236967
 21
450.6411848341
 31
0.0
  0
LINE
  5
22F
330
1F
100
AcDbEntity
  8
0
  6
Continuous
 62
     7
370
    25
100
AcDbLine
 10
375.6850236967
 20
446.6411848341
 30
0.0
 11
366.6850236967
 21
446.6411848341
 31
0.0
  0
LINE
  5
230
330
1F
100
AcDbEntity
  8
0
  6
Continuous
 62
     7
370
    25
100
AcDbLine
 10
358.6850236967
 20
446.6411848341
 30
0.0
 11
358.6850236967
 21
450.6411848341
 31
0.0
  0
LINE
  5
231
330
1F
100
AcDbEntity
  8
0
  6
Continuous
 62
     7
370
    25
100
AcDbLine
 10
358.6850236967
 20
450.6411848341
 30
0.0
 11
366.6850236967
 21
450.6411848341
 31
0.0
  0
LINE
  5
232
330
1F
100
AcDbEntity
  8
0
  6
Continuous
 62
     7
370
    25
100
AcDbLine
 10
366.6850236967
 20
446.6411848341
 30
0.0
 11
358.6850236967
 21
446.6411848341
 31
0.0
  0
LINE
  5
233
330
1F
100
AcDbEntity
  8
0
  6
Continuous
 62
     7
370
    25
100
AcDbLine
 10
373.8292390813
 20
426.1661848341
 30
0.0
 11
373.1850236967
 21
426.1661848341
 31
0.0
  0
LINE
  5
234
330
1F
100
AcDbEntity
  8
0
  6
Continuous
 62
     7
370
    25
100
AcDbLine
 10
373.1850236967
 20
426.8911848341
 30
0.0
 11
373.1850236967
 21
426.1661848341
 31
0.0
  0
SPLINE
  5
235
330
1F
100
AcDbEntity
  8
0
  6
Continuous
 62
     7
370
    25
100
AcDbSpline
210
0.0
220
0.0
230
1.0
 70
     8
 71
     3
 72
     9
 73
     5
 74
     0
 42
0.00000001
 43
0.00000001
 40
0.0
 40
0.0
 40
0.0
 40
0.0
 40
0.5075889095533419
 40
1.0
 40
1.0
 40
1.0
 40
1.0
 10
369.1850236966798
 20
426.8911848341228
 30
0.0
 10
369.2042208827326
 20
427.1154888814532
 30
0.0
 10
369.2420412245318
 20
427.5573898826544
 30
0.0
 10
369.4834009828157
 20
427.9268008994017
 30
0.0
 10
369.6022492045823
 20
428.1087029809812
 30
0.0
  0
SPLINE
  5
236
330
1F
100
AcDbEntity
  8
0
  6
Continuous
 62
     7
370
    25
100
AcDbSpline
210
0.0
220
0.0
230
1.0
 70
     8
 71
     3
 72
    10
 73
     6
 74
     0
 42
0.00000001
 43
0.00000001
 40
0.0
 40
0.0
 40
0.0
 40
0.0
 40
0.2619497354224947
 40
0.8007672600016383
 40
1.0
 40
1.0
 40
1.0
 40
1.0
 10
372.7792038505692
 20
428.0512349376007
 30
0.0
 10
372.8482254771449
 20
427.9660733698227
 30
0.0
 10
373.059221142801
 20
427.7057387099039
 30
0.0
 10
373.1681535069216
 20
427.2822172244248
 30
0.0
 10
373.1814376995867
 20
426.9743042912853
 30
0.0
 10
373.1850236966798
 20
426.8911848341228
 30
0.0
  0
LINE
  5
237
330
1F
100
AcDbEntity
  8
0
  6
Continuous
 62
     7
370
    25
100
AcDbLine
 10
369.1850236967
 20
426.1661848341
 30
0.0
 11
369.1850236967
 21
426.8911848341
 31
0.0
  0
LINE
  5
238
330
1F
100
AcDbEntity
  8
0
  6
Continuous
 62
     7
370
    25
100
AcDbLine
 10
369.1850236967
 20
426.1661848341
 30
0.0
 11
368.5408083121
 21
426.1661848341
 31
0.0
  0
LINE
  5
239
330
1F
100
AcDbEntity
  8
0
  6
Continuous
 62
     7
370
    25
100
AcDbLine
 10
373.8350236967
 20
425.8411848341
 30
0.0
 11
373.1850236967
 21
425.8411848341
 31
0.0
  0
LINE
  5
23A
330
1F
100
AcDbEntity
  8
0
  6
Continuous
 62
     7
370
    25
100
AcDbLine
 10
373.1850236967
 20
426.1661848341
 30
0.0
 11
373.1850236967
 21
425.8411848341
 31
0.0
  0
LINE
  5
23B
330
1F
100
AcDbEntity
  8
0
  6
Continuous
 62
     7
370
    25
100
AcDbLine
 10
369.1850236967
 20
425.8411848341
 30
0.0
 11
369.1850236967
 21
426.1661848341
 31
0.0
  0
LINE
  5
23C
330
1F
100
AcDbEntity
  8
0
  6
Continuous
 62
     7
370
    25
100
AcDbLine
 10
369.1850236967
 20
425.8411848341
 30
0.0
 11
368.5350236967
 21
425.8411848341
 31
0.0
  0
LINE
  5
23D
330
1F
100
AcDbEntity
  8
0
  6
Continuous
 62
     7
370
    25
100
AcDbLine
 10
379.7100236967
 20
409.8411848341
 30
0.0
 11
362.8979479157
 21
409.8411848341
 31
0.0
  0
SPLINE
  5
23E
330
1F
100
AcDbEntity
  8
0
  6
Continuous
 62
     7
370
    25
100
AcDbSpline
210
0.0
220
0.0
230
1.0
 70
     8
 71
     3
 72
     9
 73
     5
 74
     0
 42
0.00000001
 43
0.00000001
 40
0.0
 40
0.0
 40
0.0
 40
0.0
 40
0.3337394136610708
 40
1.0
 40
1.0
 40
1.0
 40
1.0
 10
362.897947915682
 20
409.8411848341228
 30
0.0
 10
362.8065466393296
 20
409.9300698698928
 30
0.0
 10
362.5326764501609
 20
410.1964005222863
 30
0.0
 10
362.2593957376175
 20
410.4633361477721
 30
0.0
 10
362.0773195698432
 20
410.6411848341229
 30
0.0
  0
LINE
  5
23F
330
1F
100
AcDbEntity
  8
0
  6
Continuous
 62
     7
370
    25
100
AcDbLine
 10
373.1850236967
 20
417.8911848341
 30
0.0
 11
373.1604914137
 21
417.592972561
 31
0.0
  0
SPLINE
  5
240
330
1F
100
AcDbEntity
  8
0
  6
Continuous
 62
     7
370
    25
100
AcDbSpline
210
0.0
220
0.0
230
1.0
 70
     8
 71
     3
 72
     9
 73
     5
 74
     0
 42
0.00000001
 43
0.00000001
 40
0.0
 40
0.0
 40
0.0
 40
0.0
 40
0.3560466587267939
 40
1.0
 40
1.0
 40
1.0
 40
1.0
 10
369.2305208361103
 20
417.5022032566284
 30
0.0
 10
369.2194596871814
 20
417.5475480812371
 30
0.0
 10
369.188393115827
 20
417.6749044922501
 30
0.0
 10
369.1863435326286
 20
417.8064656116828
 30
0.0
 10
369.1850236966798
 20
417.8911848341228
 30
0.0
  0
LINE
  5
241
330
1F
100
AcDbEntity
  8
0
  6
Continuous
 62
     7
370
    25
100
AcDbLine
 10
369.1850236967
 20
417.8911848341
 30
0.0
 11
369.1850236967
 21
425.8411848341
 31
0.0
  0
LINE
  5
242
330
1F
100
AcDbEntity
  8
0
  6
Continuous
 62
     7
370
    25
100
AcDbLine
 10
373.1850236967
 20
425.8411848341
 30
0.0
 11
373.1850236967
 21
417.8911848341
 31
0.0
  0
LINE
  5
243
330
1F
100
AcDbEntity
  8
0
  6
Continuous
 62
     7
370
    25
100
AcDbLine
 10
383.6850236967
 20
435.6411848341
 30
0.0
 11
383.6850236967
 21
432.6411848341
 31
0.0
  0
LINE
  5
244
330
1F
100
AcDbEntity
  8
0
  6
Continuous
 62
     7
370
    25
100
AcDbLine
 10
383.6850236967
 20
432.6411848341
 30
0.0
 11
378.6850236967
 21
432.6411848341
 31
0.0
  0
LINE
  5
245
330
1F
100
AcDbEntity
  8
0
  6
Continuous
 62
     7
370
    25
100
AcDbLine
 10
378.6850236967
 20
432.6411848341
 30
0.0
 11
378.6850236967
 21
435.6411848341
 31
0.0
  0
LINE
  5
246
330
1F
100
AcDbEntity
  8
0
  6
Continuous
 62
     7
370
    25
100
AcDbLine
 10
378.6850236967
 20
435.6411848341
 30
0.0
 11
383.6850236967
 21
435.6411848341
 31
0.0
  0
LINE
  5
247
330
1F
100
AcDbEntity
  8
0
  6
Continuous
 62
     7
370
    25
100
AcDbLine
 10
363.6850236967
 20
435.6411848341
 30
0.0
 11
363.6850236967
 21
432.6411848341
 31
0.0
  0
LINE
  5
248
330
1F
100
AcDbEntity
  8
0
  6
Continuous
 62
     7
370
    25
100
AcDbLine
 10
378.6850236967
 20
432.6411848341
 30
0.0
 11
363.6850236967
 21
432.6411848341
 31
0.0
  0
LINE
  5
249
330
1F
100
AcDbEntity
  8
0
  6
Continuous
 62
     7
370
    25
100
AcDbLine
 10
378.6850236967
 20
435.6411848341
 30
0.0
 11
363.6850236967
 21
435.6411848341
 31
0.0
  0
LINE
  5
24A
330
1F
100
AcDbEntity
  8
0
  6
Continuous
 62
     7
370
    25
100
AcDbLine
 10
358.6850236967
 20
432.6411848341
 30
0.0
 11
358.6850236967
 21
435.6411848341
 31
0.0
  0
LINE
  5
24B
330
1F
100
AcDbEntity
  8
0
  6
Continuous
 62
     7
370
    25
100
AcDbLine
 10
363.6850236967
 20
432.6411848341
 30
0.0
 11
358.6850236967
 21
432.6411848341
 31
0.0
  0
LINE
  5
24C
330
1F
100
AcDbEntity
  8
0
  6
Continuous
 62
     7
370
    25
100
AcDbLine
 10
358.6850236967
 20
435.6411848341
 30
0.0
 11
363.6850236967
 21
435.6411848341
 31
0.0
  0
LINE
  5
24D
330
1F
100
AcDbEntity
  8
0
  6
Continuous
 62
     7
370
    25
100
AcDbLine
 10
383.6850236967
 20
430.6411848341
 30
0.0
 11
358.6850236967
 21
430.6411848341
 31
0.0
  0
LINE
  5
24E
330
1F
100
AcDbEntity
  8
0
  6
Continuous
 62
     7
370
    25
100
AcDbLine
 10
358.6850236967
 20
430.6411848341
 30
0.0
 11
358.6850236967
 21
432.6411848341
 31
0.0
  0
LINE
  5
24F
330
1F
100
AcDbEntity
  8
0
  6
Continuous
 62
     7
370
    25
100
AcDbLine
 10
383.6850236967
 20
432.6411848341
 30
0.0
 11
383.6850236967
 21
430.6411848341
 31
0.0
  0
LINE
  5
250
330
1F
100
AcDbEntity
  8
0
  6
Continuous
 62
     7
370
    25
100
AcDbLine
 10
368.5350236967
 20
425.9911848341
 30
0.0
 11
368.5350236967
 21
419.2911848341
 31
0.0
  0
ARC
  5
251
330
1F
100
AcDbEntity
  8
0
  6
Continuous
 62
     7
370
    25
100
AcDbCircle
 10
371.1850236967
 20
419.2911848341
 30
0.0
 40
2.649999999999977
100
AcDbArc
 50
180.0
 51
0.0
  0
LINE
  5
252
330
1F
100
AcDbEntity
  8
0
  6
Continuous
 62
     7
370
    25
100
AcDbLine
 10
373.8350236967
 20
419.2911848341
 30
0.0
 11
373.8350236967
 21
425.9911848341
 31
0.0
  0
ARC
  5
253
330
1F
100
AcDbEntity
  8
0
  6
Continuous
 62
     7
370
    25
100
AcDbCircle
 10
371.1850236967
 20
425.9911848341
 30
0.0
 40
2.649999999999977
100
AcDbArc
 50
0.0
 51
180.0
  0
LINE
  5
254
330
1F
100
AcDbEntity
  8
0
  6
Continuous
 62
     7
370
    25
100
AcDbLine
 10
383.6850236967
 20
410.6411848341
 30
0.0
 11
358.6850236967
 21
410.6411848341
 31
0.0
  0
LINE
  5
255
330
1F
100
AcDbEntity
  8
0
  6
Continuous
 62
     7
370
    25
100
AcDbLine
 10
358.6850236967
 20
410.6411848341
 30
0.0
 11
358.6850236967
 21
430.6411848341
 31
0.0
  0
LINE
  5
256
330
1F
100
AcDbEntity
  8
0
  6
Continuous
 62
     7
370
    25
100
AcDbLine
 10
383.6850236967
 20
410.6411848341
 30
0.0
 11
383.6850236967
 21
430.6411848341
 31
0.0
  0
LINE
  5
257
330
1F
100
AcDbEntity
  8
0
  6
Continuous
 62
     7
370
    25
100
AcDbLine
 10
491.5187203791
 20
520.6959241706
 30
0.0
 11
491.2687203792
 21
520.7959241706
 31
0.0
  0
LINE
  5
258
330
1F
100
AcDbEntity
  8
0
  6
Continuous
 62
     7
370
    25
100
AcDbLine
 10
487.7687203791
 20
520.7959241706
 30
0.0
 11
487.5187203791
 21
520.6959241706
 31
0.0
  0
LINE
  5
259
330
1F
100
AcDbEntity
  8
0
  6
Continuous
 62
     7
370
    25
100
AcDbLine
 10
487.0187203791
 20
520.4946180732
 30
0.0
 11
487.0187203791
 21
520.3342725859
 31
0.0
  0
LINE
  5
25A
330
1F
100
AcDbEntity
  8
0
  6
Continuous
 62
     7
370
    25
100
AcDbLine
 10
492.0187203791
 20
520.3342725859
 30
0.0
 11
492.0187203791
 21
520.4946180732
 31
0.0
  0
SPLINE
  5
25B
330
1F
100
AcDbEntity
  8
0
  6
Continuous
 62
     7
370
    25
100
AcDbSpline
210
0.0
220
0.0
230
1.0
 70
     8
 71
     3
 72
    11
 73
     7
 74
     0
 42
0.00000001
 43
0.00000001
 40
0.0
 40
0.0
 40
0.0
 40
0.0
 40
0.3191748702579767
 40
0.6493261365722685
 40
0.9726357937672455
 40
1.0
 40
1.0
 40
1.0
 40
1.0
 10
492.2762961367228
 20
507.3619692483961
 30
0.0
 10
492.2698522555813
 20
507.3591194201399
 30
0.0
 10
492.2567428887857
 20
507.3533217582818
 30
0.0
 10
492.1420583964666
 20
507.3062204024499
 30
0.0
 10
492.0358123356717
 20
507.2622137640038
 30
0.0
 10
491.9530863870148
 20
507.2330898543841
 30
0.0
 10
491.9466310159253
 20
507.2308172223112
 30
0.0
  0
LINE
  5
25C
330
1F
100
AcDbEntity
  8
0
  6
Continuous
 62
     7
370
    25
100
AcDbLine
 10
489.582127253
 20
506.7999163485
 30
0.0
 11
489.4854388815
 21
506.7997356754
 31
0.0
  0
SPLINE
  5
25D
330
1F
100
AcDbEntity
  8
0
  6
Continuous
 62
     7
370
    25
100
AcDbSpline
210
0.0
220
0.0
230
1.0
 70
     8
 71
     3
 72
    16
 73
    12
 74
     0
 42
0.00000001
 43
0.00000001
 40
0.0
 40
0.0
 40
0.0
 40
0.0
 40
0.0951392942503708
 40
0.272090311134127
 40
0.4539200594147358
 40
0.5425638298083689
 40
0.6319073955100707
 40
0.7236106205498746
 40
0.8162011951524724
 40
0.9076171376103882
 40
1.0
 40
1.0
 40
1.0
 40
1.0
 10
487.91628117797
 20
506.9842404403061
 30
0.0
 10
487.8500714214242
 20
506.9994944649495
 30
0.0
 10
487.6607171341067
 20
507.0431196814698
 30
0.0
 10
487.3930729379392
 20
507.124790984886
 30
0.0
 10
487.1690659569492
 20
507.201060679255
 30
0.0
 10
487.0232508435017
 20
507.2555737276835
 30
0.0
 10
486.9310279827962
 20
507.2915702148363
 30
0.0
 10
486.8563617110337
 20
507.3218647576382
 30
0.0
 10
486.8021000155748
 20
507.344510564481
 30
0.0
 10
486.7675970379975
 20
507.3591971600475
 30
0.0
 10
486.7633029570783
 20
507.3610419838928
 30
0.0
 10
486.7611446215712
 20
507.3619692483961
 30
0.0
  0
CIRCLE
  5
25E
330
1F
100
AcDbEntity
  8
0
  6
Continuous
 62
     7
370
    25
100
AcDbCircle
 10
489.5187203791
 20
513.7959241706
 30
0.0
 40
6.0
  0
CIRCLE
  5
25F
330
1F
100
AcDbEntity
  8
0
  6
Continuous
 62
     7
370
    25
100
AcDbCircle
 10
489.5187203791
 20
513.7959241706
 30
0.0
 40
7.0
  0
ARC
  5
260
330
1F
100
AcDbEntity
  8
0
  6
Continuous
 62
     7
370
    25
100
AcDbCircle
 10
443.5187203791
 20
505.2959241706
 30
0.0
 40
4.0
100
AcDbArc
 50
180.0
 51
270.0
  0
ARC
  5
261
330
1F
100
AcDbEntity
  8
0
  6
Continuous
 62
     7
370
    25
100
AcDbCircle
 10
443.5187203791
 20
522.2959241706
 30
0.0
 40
4.0
100
AcDbArc
 50
90.0
 51
180.0
  0
ARC
  5
262
330
1F
100
AcDbEntity
  8
0
  6
Continuous
 62
     7
370
    25
100
AcDbCircle
 10
449.5187203791
 20
513.7959241706
 30
0.0
 40
6.00000000000005
100
AcDbArc
 50
73.9456919258
 51
106.0543080743
  0
ARC
  5
263
330
1F
100
AcDbEntity
  8
0
  6
Continuous
 62
     7
370
    25
100
AcDbCircle
 10
529.5187203791
 20
513.7959241706
 30
0.0
 40
5.999999999999925
100
AcDbArc
 50
270.0
 51
286.0543080743
  0
ARC
  5
264
330
1F
100
AcDbEntity
  8
0
  6
Continuous
 62
     7
370
    25
100
AcDbCircle
 10
529.5187203791
 20
513.7959241706
 30
0.0
 40
5.999999999999893
100
AcDbArc
 50
253.9456919257
 51
270.0
  0
ARC
  5
265
330
1F
100
AcDbEntity
  8
0
  6
Continuous
 62
     7
370
    25
100
AcDbCircle
 10
489.5187203791
 20
513.7959241706
 30
0.0
 40
9.52500000000012
100
AcDbArc
 50
102.120814125
 51
77.8791858751
  0
SPLINE
  5
266
330
1F
100
AcDbEntity
  8
0
  6
Continuous
 62
     7
370
    25
100
AcDbSpline
210
0.0
220
0.0
230
1.0
 70
    24
 71
     3
 72
     9
 73
     5
 74
     0
 42
0.00000001
 43
0.00000001
 40
0.0
 40
0.0
 40
0.0
 40
0.0
 40
0.7329815267063808
 40
1.0
 40
1.0
 40
1.0
 40
1.0
 10
487.5187203791468
 20
523.1085835652307
 30
0.0
 10
487.5187203791467
 20
522.858233697763
 30
0.0
 10
487.5187203791468
 20
522.5166836608981
 30
0.0
 10
487.5187203791467
 20
522.1743968525998
 30
0.0
 10
487.5187203791468
 20
522.0829999516194
 30
0.0
  0
ARC
  5
267
330
1F
100
AcDbEntity
  8
0
  6
Continuous
 62
     7
370
    25
100
AcDbCircle
 10
489.5187203791
 20
513.7959241706
 30
0.0
 40
8.525000000000109
100
AcDbArc
 50
103.5682873091
 51
76.4317126909
  0
SPLINE
  5
268
330
1F
100
AcDbEntity
  8
0
  6
Continuous
 62
     7
370
    25
100
AcDbSpline
210
0.0
220
0.0
230
1.0
 70
    24
 71
     3
 72
     9
 73
     5
 74
     0
 42
0.00000001
 43
0.00000001
 40
0.0
 40
0.0
 40
0.0
 40
0.0
 40
0.2670184732936192
 40
1.0
 40
1.0
 40
1.0
 40
1.0
 10
491.5187203791468
 20
522.0829999516194
 30
0.0
 10
491.5187203791467
 20
522.1743968525998
 30
0.0
 10
491.5187203791468
 20
522.5166836608981
 30
0.0
 10
491.5187203791467
 20
522.858233697763
 30
0.0
 10
491.5187203791468
 20
523.1085835652307
 30
0.0
  0
LINE
  5
269
330
1F
100
AcDbEntity
  8
0
  6
Continuous
 62
     7
370
    25
100
AcDbLine
 10
487.5187203791
 20
522.0829999516
 30
0.0
 11
487.5187203791
 21
520.6605071878
 31
0.0
  0
ARC
  5
26A
330
1F
100
AcDbEntity
  8
0
  6
Continuous
 62
     7
370
    25
100
AcDbCircle
 10
489.5187203791
 20
513.7959241706
 30
0.0
 40
7.150000000000129
100
AcDbArc
 50
106.243510843
 51
124.810390391
  0
ARC
  5
26B
330
1F
100
AcDbEntity
  8
0
  6
Continuous
 62
     7
370
    25
100
AcDbCircle
 10
488.7687203791
 20
513.7959241706
 30
0.0
 40
6.750000000000041
100
AcDbArc
 50
119.5761737144
 51
240.4238262856
  0
ARC
  5
26C
330
1F
100
AcDbEntity
  8
0
  6
Continuous
 62
     7
370
    25
100
AcDbCircle
 10
489.5187203791
 20
513.7959241706
 30
0.0
 40
7.150000000000194
100
AcDbArc
 50
55.189609609
 51
73.756489157
  0
LINE
  5
26D
330
1F
100
AcDbEntity
  8
0
  6
Continuous
 62
     7
370
    25
100
AcDbLine
 10
491.5187203791
 20
520.6605071878
 30
0.0
 11
491.5187203791
 21
522.0829999516
 31
0.0
  0
ARC
  5
26E
330
1F
100
AcDbEntity
  8
0
  6
Continuous
 62
     7
370
    25
100
AcDbCircle
 10
490.2687203791
 20
513.7959241706
 30
0.0
 40
6.750000000000211
100
AcDbArc
 50
299.5761737144
 51
60.4238262856
  0
ARC
  5
26F
330
1F
100
AcDbEntity
  8
0
  6
Continuous
 62
     7
370
    25
100
AcDbCircle
 10
489.5187203791
 20
513.7959241706
 30
0.0
 40
7.15000000000004
100
AcDbArc
 50
235.189609609
 51
304.810390391
  0
LINE
  5
270
330
1F
100
AcDbEntity
  8
0
  6
Continuous
 62
     7
370
    25
100
AcDbLine
 10
499.0200195659
 20
511.7959241706
 30
0.0
 11
498.8313797738
 21
511.7959241706
 31
0.0
  0
LINE
  5
271
330
1F
100
AcDbEntity
  8
0
  6
Continuous
 62
     7
370
    25
100
AcDbLine
 10
480.2060609845
 20
511.7959241706
 30
0.0
 11
480.0219768744
 21
511.7959241706
 31
0.0
  0
LINE
  5
272
330
1F
100
AcDbEntity
  8
0
  6
Continuous
 62
     7
370
    25
100
AcDbLine
 10
479.9882854551
 20
515.7959241706
 30
0.0
 11
480.2060609845
 21
515.7959241706
 31
0.0
  0
LINE
  5
273
330
1F
100
AcDbEntity
  8
0
  6
Continuous
 62
     7
370
    25
100
AcDbLine
 10
487.5187203791
 20
523.3281143137
 30
0.0
 11
487.5187203791
 21
523.1085835652
 31
0.0
  0
LINE
  5
274
330
1F
100
AcDbEntity
  8
0
  6
Continuous
 62
     7
370
    25
100
AcDbLine
 10
498.8313797738
 20
515.7959241706
 30
0.0
 11
499.032971789
 21
515.7959241706
 31
0.0
  0
LINE
  5
275
330
1F
100
AcDbEntity
  8
0
  6
Continuous
 62
     7
370
    25
100
AcDbLine
 10
491.5187203791
 20
523.1085835652
 30
0.0
 11
491.5187203791
 21
523.3085073437
 31
0.0
  0
SPLINE
  5
276
330
1F
100
AcDbEntity
  8
0
  6
Continuous
 62
     7
370
    25
100
AcDbSpline
210
0.0
220
0.0
230
1.0
 70
     8
 71
     3
 72
    13
 73
     9
 74
     0
 42
0.00000001
 43
0.00000001
 40
0.0
 40
0.0
 40
0.0
 40
0.0
 40
0.1446919096978619
 40
0.3539398260760519
 40
0.557899212388403
 40
0.7562494690885192
 40
0.9567657572334984
 40
1.0
 40
1.0
 40
1.0
 40
1.0
 10
488.07967301887
 20
520.7959241706216
 30
0.0
 10
488.1886174783788
 20
520.81854488726
 30
0.0
 10
488.455113256415
 20
520.8738788207841
 30
0.0
 10
489.0356885249954
 20
520.9399913047165
 30
0.0
 10
489.7127338087187
 20
520.9536498626372
 30
0.0
 10
490.3476325370415
 20
520.9058926982852
 30
0.0
 10
490.7832661235152
 20
520.838104992436
 30
0.0
 10
490.9381808416193
 20
520.8022787094602
 30
0.0
 10
490.9656581993324
 20
520.7959241706216
 30
0.0
  0
LINE
  5
277
330
1F
100
AcDbEntity
  8
0
  6
Continuous
 62
     7
370
    25
100
AcDbLine
 10
504.5187203791
 20
501.2959241706
 30
0.0
 11
504.5187203791
 21
526.2959241706
 31
0.0
  0
LINE
  5
278
330
1F
100
AcDbEntity
  8
0
  6
Continuous
 62
     7
370
    25
100
AcDbLine
 10
474.5187203791
 20
501.2959241706
 30
0.0
 11
504.5187203791
 21
501.2959241706
 31
0.0
  0
LINE
  5
279
330
1F
100
AcDbEntity
  8
0
  6
Continuous
 62
     7
370
    25
100
AcDbLine
 10
474.5187203791
 20
526.2959241706
 30
0.0
 11
474.5187203791
 21
501.2959241706
 31
0.0
  0
LINE
  5
27A
330
1F
100
AcDbEntity
  8
0
  6
Continuous
 62
     7
370
    25
100
AcDbLine
 10
504.5187203791
 20
526.2959241706
 30
0.0
 11
474.5187203791
 21
526.2959241706
 31
0.0
  0
CIRCLE
  5
27B
330
1F
100
AcDbEntity
  8
0
  6
Continuous
 62
     7
370
    25
100
AcDbCircle
 10
489.5187203791
 20
513.7959241706
 30
0.0
 40
9.749999999999943
  0
LINE
  5
27C
330
1F
100
AcDbEntity
  8
0
  6
Continuous
 62
     7
370
    25
100
AcDbLine
 10
472.5187203791
 20
501.2959241706
 30
0.0
 11
472.5187203791
 21
526.2959241706
 31
0.0
  0
LINE
  5
27D
330
1F
100
AcDbEntity
  8
0
  6
Continuous
 62
     7
370
    25
100
AcDbLine
 10
472.5187203791
 20
526.2959241706
 30
0.0
 11
474.5187203791
 21
526.2959241706
 31
0.0
  0
LINE
  5
27E
330
1F
100
AcDbEntity
  8
0
  6
Continuous
 62
     7
370
    25
100
AcDbLine
 10
474.5187203791
 20
501.2959241706
 30
0.0
 11
472.5187203791
 21
501.2959241706
 31
0.0
  0
LINE
  5
27F
330
1F
100
AcDbEntity
  8
0
  6
Continuous
 62
     7
370
    25
100
AcDbLine
 10
506.5187203791
 20
526.2959241706
 30
0.0
 11
506.5187203791
 21
501.2959241706
 31
0.0
  0
LINE
  5
280
330
1F
100
AcDbEntity
  8
0
  6
Continuous
 62
     7
370
    25
100
AcDbLine
 10
504.5187203791
 20
526.2959241706
 30
0.0
 11
506.5187203791
 21
526.2959241706
 31
0.0
  0
LINE
  5
281
330
1F
100
AcDbEntity
  8
0
  6
Continuous
 62
     7
370
    25
100
AcDbLine
 10
506.5187203791
 20
501.2959241706
 30
0.0
 11
504.5187203791
 21
501.2959241706
 31
0.0
  0
ARC
  5
282
330
1F
100
AcDbEntity
  8
0
  6
Continuous
 62
     7
370
    25
100
AcDbCircle
 10
444.5187203791
 20
521.2959241706
 30
0.0
 40
5.0
100
AcDbArc
 50
90.0
 51
180.0
  0
CIRCLE
  5
283
330
1F
100
AcDbEntity
  8
0
  6
Continuous
 62
     7
370
    25
100
AcDbCircle
 10
449.5187203791
 20
521.2959241706
 30
0.0
 40
2.400000000000091
  0
ARC
  5
284
330
1F
100
AcDbEntity
  8
0
  6
Continuous
 62
     7
370
    25
100
AcDbCircle
 10
444.5187203791
 20
506.2959241706
 30
0.0
 40
5.0
100
AcDbArc
 50
180.0
 51
270.0
  0
LINE
  5
285
330
1F
100
AcDbEntity
  8
0
  6
Continuous
 62
     7
370
    25
100
AcDbLine
 10
439.5187203791
 20
506.2959241706
 30
0.0
 11
439.5187203791
 21
521.2959241706
 31
0.0
  0
LINE
  5
286
330
1F
100
AcDbEntity
  8
0
  6
Continuous
 62
     7
370
    25
100
AcDbLine
 10
472.5187203791
 20
526.2959241706
 30
0.0
 11
444.5187203791
 21
526.2959241706
 31
0.0
  0
LINE
  5
287
330
1F
100
AcDbEntity
  8
0
  6
Continuous
 62
     7
370
    25
100
AcDbLine
 10
472.5187203791
 20
501.2959241706
 30
0.0
 11
444.5187203791
 21
501.2959241706
 31
0.0
  0
ARC
  5
288
330
1F
100
AcDbEntity
  8
0
  6
Continuous
 62
     7
370
    25
100
AcDbCircle
 10
534.5187203791
 20
521.2959241706
 30
0.0
 40
5.0
100
AcDbArc
 50
0.0
 51
90.0
  0
ARC
  5
289
330
1F
100
AcDbEntity
  8
0
  6
Continuous
 62
     7
370
    25
100
AcDbCircle
 10
534.5187203791
 20
506.2959241706
 30
0.0
 40
5.0
100
AcDbArc
 50
270.0
 51
0.0
  0
CIRCLE
  5
28A
330
1F
100
AcDbEntity
  8
0
  6
Continuous
 62
     7
370
    25
100
AcDbCircle
 10
529.5187203791
 20
506.2959241706
 30
0.0
 40
2.400000000000091
  0
LINE
  5
28B
330
1F
100
AcDbEntity
  8
0
  6
Continuous
 62
     7
370
    25
100
AcDbLine
 10
539.5187203791
 20
506.2959241706
 30
0.0
 11
539.5187203791
 21
521.2959241706
 31
0.0
  0
LINE
  5
28C
330
1F
100
AcDbEntity
  8
0
  6
Continuous
 62
     7
370
    25
100
AcDbLine
 10
534.5187203791
 20
526.2959241706
 30
0.0
 11
506.5187203791
 21
526.2959241706
 31
0.0
  0
LINE
  5
28D
330
1F
100
AcDbEntity
  8
0
  6
Continuous
 62
     7
370
    25
100
AcDbLine
 10
534.5187203791
 20
501.2959241706
 30
0.0
 11
506.5187203791
 21
501.2959241706
 31
0.0
  0
LINE
  5
28E
330
1F
100
AcDbEntity
  8
0
  6
Continuous
 62
     7
370
    25
100
AcDbLine
 10
487.7687203791
 20
520.7959241706
 30
0.0
 11
491.2687203792
 21
520.7959241706
 31
0.0
  0
LINE
  5
28F
330
1F
100
AcDbEntity
  8
0
  6
Continuous
 62
     7
370
    25
100
AcDbLine
 10
487.0222228326
 20
520.4959241706
 30
0.0
 11
487.4914068859
 21
520.4959241706
 31
0.0
  0
LINE
  5
290
330
1F
100
AcDbEntity
  8
0
  6
Continuous
 62
     7
370
    25
100
AcDbLine
 10
491.5460338724
 20
520.4959241706
 30
0.0
 11
492.0152179257
 21
520.4959241706
 31
0.0
  0
LINE
  5
291
330
1F
100
AcDbEntity
  8
0
  6
Continuous
 62
     7
370
    25
100
AcDbLine
 10
380.9868848947
 20
349.8426400342
 30
0.0
 11
379.5724415389
 21
350.6594462247
 31
0.0
  0
LINE
  5
292
330
1F
100
AcDbEntity
  8
0
  6
Continuous
 62
     7
370
    25
100
AcDbLine
 10
374.2682789545
 20
350.6594462247
 30
0.0
 11
374.0914734977
 21
350.5573454293
 31
0.0
  0
LINE
  5
293
330
1F
100
AcDbEntity
  8
0
  6
Continuous
 62
     7
370
    25
100
AcDbLine
 10
369.9203602467
 20
339.6986791265
 30
0.0
 11
369.9203602467
 21
335.7857488249
 31
0.0
  0
LINE
  5
294
330
1F
100
AcDbEntity
  8
0
  6
Continuous
 62
     7
370
    25
100
AcDbLine
 10
417.8008255719
 20
330.555114443
 30
0.0
 11
417.8008255719
 21
333.8212776905
 31
0.0
  0
LINE
  5
295
330
1F
100
AcDbEntity
  8
0
  6
Continuous
 62
     7
370
    25
100
AcDbLine
 10
334.3830406721
 20
364.4365818839
 30
0.0
 11
334.3830406721
 21
361.1704186363
 31
0.0
  0
LINE
  5
296
330
1F
100
AcDbEntity
  8
0
  6
Continuous
 62
     7
370
    25
100
AcDbLine
 10
365.1703602467
 20
336.8808176089
 30
0.0
 11
365.1703602467
 21
333.7779625237
 31
0.0
  0
LINE
  5
297
330
1F
100
AcDbEntity
  8
0
  6
Continuous
 62
     7
370
    25
100
AcDbLine
 10
419.043466259
 20
319.1235430766
 30
0.0
 11
419.043466259
 21
321.5731655122
 31
0.0
  0
LINE
  5
298
330
1F
100
AcDbEntity
  8
0
  6
Continuous
 62
     7
370
    25
100
AcDbLine
 10
334.7972542344
 20
352.1884697056
 30
0.0
 11
334.7972542344
 21
349.7388472699
 31
0.0
  0
ARC
  5
299
330
1F
100
AcDbEntity
  8
0
  6
Continuous
 62
     7
370
    25
100
AcDbCircle
 10
379.4215787235
 20
346.8011963613
 30
0.0
 40
3.420608575298353
100
AcDbArc
 50
25.1230778897
 51
62.7669797204
  0
SPLINE
  5
29A
330
1F
100
AcDbEntity
  8
0
  6
Continuous
 62
     7
370
    25
100
AcDbSpline
210
0.0
220
0.0
230
1.0
 70
     8
 71
     3
 72
    12
 73
     8
 74
     0
 42
0.00000001
 43
0.00000001
 40
0.0
 40
0.0
 40
0.0
 40
0.0
 40
0.2700140300579756
 40
0.4885209911937409
 40
0.7099256541482466
 40
0.9124853402331212
 40
1.0
 40
1.0
 40
1.0
 40
1.0
 10
371.5422960506158
 20
347.9340187436183
 30
0.0
 10
371.7490516298544
 20
348.2162474973464
 30
0.0
 10
372.1231227123192
 20
348.7268678917202
 30
0.0
 10
372.7127921715449
 20
349.4092550807972
 30
0.0
 10
373.2724323054954
 20
349.9649072441068
 30
0.0
 10
373.7409588631909
 20
350.355616485583
 30
0.0
 10
374.0098986760368
 20
350.4974503300779
 30
0.0
 10
374.0910371033247
 20
350.5402412242814
 30
0.0
  0
LWPOLYLINE
  5
29B
330
1F
100
AcDbEntity
  8
0
  6
Continuous
 62
     7
370
    25
100
AcDbPolyline
 90
       35
 70
   128
 43
0.0
 10
376.9806232271
 20
351.293479157
 10
376.2906254239
 20
351.263016067
 10
375.6220724848
 20
351.1598792282
 10
374.9977311783
 20
350.9875808421
 10
374.4388626988
 20
350.7519883236
 10
373.9644986421
 20
350.4611244932
 10
373.5907929071
 20
350.1248943699
 10
373.3304715945
 20
349.7547478673
 10
373.1923996344
 20
349.3632898805
 10
373.1812789017
 20
348.9638510419
 10
373.2974880997
 20
348.5700337619
 10
373.5370698635
 20
348.1952490157
 10
373.8918655235
 20
347.8522596484
 10
374.349792939
 20
347.5527457515
 10
374.8952579411
 20
347.3069069115
 10
375.5096853734
 20
347.1231148752
 10
376.1721516466
 20
347.0076284601
 10
376.8600972663
 20
346.9643804174
 10
377.5500950695
 20
346.9948435074
 10
378.2186480086
 20
347.0979803461
 10
378.8429893151
 20
347.2702787322
 10
379.4018577946
 20
347.5058712508
 10
379.8762218513
 20
347.7967350812
 10
380.2499275863
 20
348.1329652044
 10
380.5102488989
 20
348.5031117071
 10
380.648320859
 20
348.8945696938
 10
380.6594415917
 20
349.2940085325
 10
380.5432323937
 20
349.6878258125
 10
380.3036506299
 20
350.0626105586
 10
379.9488549699
 20
350.4055999259
 10
379.4909275544
 20
350.7051138229
 10
378.9454625523
 20
350.9509526629
 10
378.33103512
 20
351.1347446992
 10
377.6685688468
 20
351.2502311143
 10
376.9806232271
 20
351.293479157
  0
LINE
  5
29C
330
1F
100
AcDbEntity
  8
0
  6
Continuous
 62
     7
370
    25
100
AcDbLine
 10
371.120360503
 20
349.1279344635
 30
0.0
 11
376.9220843847
 21
352.4771983693
 31
0.0
  0
LWPOLYLINE
  5
29D
330
1F
100
AcDbEntity
  8
0
  6
Continuous
 62
     7
370
    25
100
AcDbPolyline
 90
       33
 70
   128
 43
0.0
 10
376.9220843847
 20
352.4771983693
 10
377.77299585
 20
352.4408215189
 10
378.6054549779
 20
352.3327702702
 10
379.4014460807
 20
352.1553830174
 10
380.1437426944
 20
351.9124986917
 10
380.8162803861
 20
351.6093736812
 10
381.4045044123
 20
351.2525680742
 10
381.8956847062
 20
350.8498036894
 10
382.2791913756
 20
350.4097969635
 10
382.5467247501
 20
349.9420703146
 10
382.6924949987
 20
349.456746062
 10
382.7133474304
 20
348.9643273643
 10
382.6088307667
 20
348.4754709145
 10
382.3812069079
 20
348.0007563134
 10
382.0354019823
 20
347.5504571102
 10
381.5788997368
 20
347.134318468
 10
381.0215795776
 20
346.7613462629
 10
380.3755027647
 20
346.4396121833
 10
379.6546513877
 20
346.1760790464
 10
378.8746257718
 20
345.9764501121
 10
378.0523068636
 20
345.8450456554
 10
377.2054909007
 20
345.7847094698
 10
376.3525042748
 20
345.7967473224
 10
375.5118069199
 20
345.8808986956
 10
374.7015928114
 20
346.0353424253
 10
373.939396221
 20
346.2567361131
 10
373.2417122475
 20
346.5402884612
 10
372.6236398384
 20
346.8798629634
 10
372.098555025
 20
347.2681107088
 10
371.6778214453
 20
347.6966294226
 10
371.3705444167
 20
348.1561453052
 10
371.1833738838
 20
348.6367137305
 10
371.120360503
 20
349.1279344635
  0
ARC
  5
29E
330
1F
100
AcDbEntity
  8
0
  6
Continuous
 62
     7
370
    25
100
AcDbCircle
 10
403.4368645412
 20
337.7994974197
 30
0.0
 40
12.2961752632944
100
AcDbArc
 50
242.6096722366
 51
297.3903277634
  0
LINE
  5
29F
330
1F
100
AcDbEntity
  8
0
  6
Continuous
 62
     7
370
    25
100
AcDbLine
 10
397.7800102917
 20
326.88180874
 30
0.0
 11
335.5546135473
 21
362.8037656602
 31
0.0
  0
ARC
  5
2A0
330
1F
100
AcDbEntity
  8
0
  6
Continuous
 62
     7
370
    25
100
AcDbCircle
 10
336.1743216545
 20
364.4365818839
 30
0.0
 40
1.746461267337102
100
AcDbArc
 50
110.7834207995
 51
249.2165792005
  0
LINE
  5
2A1
330
1F
100
AcDbEntity
  8
0
  6
Continuous
 62
     7
370
    25
100
AcDbLine
 10
335.5546135473
 20
366.0693981075
 30
0.0
 11
347.5754288275
 21
373.008867058
 31
0.0
  0
ARC
  5
2A2
330
1F
100
AcDbEntity
  8
0
  6
Continuous
 62
     7
370
    25
100
AcDbCircle
 10
350.4038559522
 20
367.5500227182
 30
0.0
 40
6.148087631646225
100
AcDbArc
 50
62.6096722366
 51
117.3903277634
  0
LINE
  5
2A3
330
1F
100
AcDbEntity
  8
0
  6
Continuous
 62
     7
370
    25
100
AcDbLine
 10
353.232283077
 20
373.008867058
 30
0.0
 11
415.4576798214
 21
337.0869101378
 31
0.0
  0
ARC
  5
2A4
330
1F
100
AcDbEntity
  8
0
  6
Continuous
 62
     7
370
    25
100
AcDbCircle
 10
414.218263607
 20
333.8212776905
 30
0.0
 40
3.492922534674225
100
AcDbArc
 50
290.7834207995
 51
69.2165792005
  0
LINE
  5
2A5
330
1F
100
AcDbEntity
  8
0
  6
Continuous
 62
     7
370
    25
100
AcDbLine
 10
415.4576798214
 20
330.5556452432
 30
0.0
 11
409.0937187907
 21
326.88180874
 31
0.0
  0
LWPOLYLINE
  5
2A6
330
1F
100
AcDbEntity
  8
0
  6
Continuous
 62
     7
370
    25
100
AcDbPolyline
 90
       33
 70
   128
 43
0.0
 10
407.502728533
 20
334.1274307324
 10
407.9069077342
 20
333.8431201241
 10
408.2072399748
 20
333.5187524909
 10
408.3921836555
 20
333.1667930991
 10
408.4546314942
 20
332.8007675507
 10
408.3921836555
 20
332.4347420024
 10
408.2072399748
 20
332.0827826106
 10
407.9069077342
 20
331.7584149774
 10
407.502728533
 20
331.474104369
 10
407.0102347515
 20
331.2407766827
 10
406.4483526494
 20
331.0673985706
 10
405.8386750407
 20
330.9606328564
 10
405.2046314942
 20
330.9245824865
 10
404.5705879476
 20
330.9606328564
 10
403.960910339
 20
331.0673985706
 10
403.3990282369
 20
331.2407766827
 10
402.9065344553
 20
331.474104369
 10
402.5023552542
 20
331.7584149774
 10
402.2020230135
 20
332.0827826106
 10
402.0170793329
 20
332.4347420024
 10
401.9546314942
 20
332.8007675507
 10
402.0170793329
 20
333.1667930991
 10
402.2020230135
 20
333.5187524909
 10
402.5023552542
 20
333.8431201241
 10
402.9065344553
 20
334.1274307324
 10
403.3990282369
 20
334.3607584187
 10
403.960910339
 20
334.5341365308
 10
404.5705879476
 20
334.6409022451
 10
405.2046314942
 20
334.676952615
 10
405.8386750407
 20
334.6409022451
 10
406.4483526494
 20
334.5341365308
 10
407.0102347515
 20
334.3607584187
 10
407.502728533
 20
334.1274307324
  0
LWPOLYLINE
  5
2A7
330
1F
100
AcDbEntity
  8
0
  6
Continuous
 62
     7
370
    25
100
AcDbPolyline
 90
       33
 70
   128
 43
0.0
 10
350.9341860381
 20
366.7837552054
 10
351.3383652392
 20
366.499444597
 10
351.6386974799
 20
366.1750769638
 10
351.8236411606
 20
365.823117572
 10
351.8860889993
 20
365.4570920236
 10
351.8236411606
 20
365.0910664753
 10
351.6386974799
 20
364.7391070835
 10
351.3383652392
 20
364.4147394503
 10
350.9341860381
 20
364.1304288419
 10
350.4416922566
 20
363.8971011556
 10
349.8798101544
 20
363.7237230435
 10
349.2701325458
 20
363.6169573293
 10
348.6360889993
 20
363.5809069594
 10
348.0020454527
 20
363.6169573293
 10
347.3923678441
 20
363.7237230435
 10
346.8304857419
 20
363.8971011556
 10
346.3379919604
 20
364.1304288419
 10
345.9338127593
 20
364.4147394503
 10
345.6334805186
 20
364.7391070835
 10
345.4485368379
 20
365.0910664753
 10
345.3860889993
 20
365.4570920236
 10
345.4485368379
 20
365.823117572
 10
345.6334805186
 20
366.1750769638
 10
345.9338127593
 20
366.499444597
 10
346.3379919604
 20
366.7837552054
 10
346.8304857419
 20
367.0170828916
 10
347.3923678441
 20
367.1904610037
 10
348.0020454527
 20
367.297226718
 10
348.6360889993
 20
367.3332770879
 10
349.2701325458
 20
367.297226718
 10
349.8798101544
 20
367.1904610037
 10
350.4416922566
 20
367.0170828916
 10
350.9341860381
 20
366.7837552054
  0
LINE
  5
2A8
330
1F
100
AcDbEntity
  8
0
  6
Continuous
 62
     7
370
    25
100
AcDbLine
 10
397.7800102917
 20
323.6156454925
 30
0.0
 11
397.7800102917
 21
326.88180874
 31
0.0
  0
LINE
  5
2A9
330
1F
100
AcDbEntity
  8
0
  6
Continuous
 62
     7
370
    25
100
AcDbLine
 10
409.0937187907
 20
326.88180874
 30
0.0
 11
409.0937187907
 21
323.6156454925
 31
0.0
  0
ARC
  5
2AA
330
1F
100
AcDbEntity
  8
0
  6
Continuous
 62
     7
370
    25
100
AcDbCircle
 10
403.4368645412
 20
334.5333341721
 30
0.0
 40
12.29617526329364
100
AcDbArc
 50
242.6096722366
 51
297.3903277634
  0
LINE
  5
2AB
330
1F
100
AcDbEntity
  8
0
  6
Continuous
 62
     7
370
    25
100
AcDbLine
 10
415.4576798214
 20
327.2894819957
 30
0.0
 11
415.4576798214
 21
330.5556452432
 31
0.0
  0
LINE
  5
2AC
330
1F
100
AcDbEntity
  8
0
  6
Continuous
 62
     7
370
    25
100
AcDbLine
 10
415.4576798214
 20
327.2894819957
 30
0.0
 11
409.0937187907
 21
323.6156454925
 31
0.0
  0
LINE
  5
2AD
330
1F
100
AcDbEntity
  8
0
  6
Continuous
 62
     7
370
    25
100
AcDbLine
 10
335.5546135473
 20
362.8037656602
 30
0.0
 11
335.5546135473
 21
359.5376024127
 31
0.0
  0
LINE
  5
2AE
330
1F
100
AcDbEntity
  8
0
  6
Continuous
 62
     7
370
    25
100
AcDbLine
 10
397.7800102917
 20
323.6156454925
 30
0.0
 11
335.5546135473
 21
359.5376024127
 31
0.0
  0
ARC
  5
2AF
330
1F
100
AcDbEntity
  8
0
  6
Continuous
 62
     7
370
    25
100
AcDbCircle
 10
405.2046314942
 20
323.569654873
 30
0.0
 40
9.841691445676064
100
AcDbArc
 50
72.4499733659
 51
107.5500266341
  0
ARC
  5
2B0
330
1F
100
AcDbEntity
  8
0
  6
Continuous
 62
     7
370
    25
100
AcDbCircle
 10
406.7375027504
 20
331.9193974683
 30
0.0
 40
1.769632196976666
100
AcDbArc
 50
18.9668353428
 51
64.3787109832
  0
LWPOLYLINE
  5
2B1
330
1F
100
AcDbEntity
  8
0
  6
Continuous
 62
     7
370
    25
100
AcDbPolyline
 90
       13
 70
   128
 43
0.0
 10
401.9982069179
 20
332.4945647462
 10
402.0170793329
 20
332.5543874902
 10
402.2020230135
 20
332.906346882
 10
402.5023552542
 20
333.2307145152
 10
402.9065344553
 20
333.5150251235
 10
403.3990282369
 20
333.7483528098
 10
403.960910339
 20
333.9217309219
 10
404.5705879476
 20
334.0284966362
 10
405.2046314942
 20
334.0645470061
 10
405.8386750407
 20
334.0284966362
 10
406.4483526494
 20
333.9217309219
 10
407.0102347515
 20
333.7483528098
 10
407.502728533
 20
333.5150251235
  0
ARC
  5
2B2
330
1F
100
AcDbEntity
  8
0
  6
Continuous
 62
     7
370
    25
100
AcDbCircle
 10
405.2050318001
 20
323.2958063711
 30
0.0
 40
9.711057579385386
100
AcDbArc
 50
70.7773475271
 51
109.3427503391
  0
ARC
  5
2B3
330
1F
100
AcDbEntity
  8
0
  6
Continuous
 62
     7
370
    25
100
AcDbCircle
 10
413.7799095911
 20
330.9667494235
 30
0.0
 40
4.041931305898498
100
AcDbArc
 50
294.5250616912
 51
354.1547973512
  0
LINE
  5
2B4
330
1F
100
AcDbEntity
  8
0
  6
Continuous
 62
     7
370
    25
100
AcDbLine
 10
376.9220843847
 20
351.2937584787
 30
0.0
 11
376.9220843847
 21
352.4771983693
 31
0.0
  0
ARC
  5
2B5
330
1F
100
AcDbEntity
  8
0
  6
Continuous
 62
     7
370
    25
100
AcDbCircle
 10
348.6360889993
 20
356.2259793459
 30
0.0
 40
9.841691445681757
100
AcDbArc
 50
72.449973366
 51
107.550026634
  0
ARC
  5
2B6
330
1F
100
AcDbEntity
  8
0
  6
Continuous
 62
     7
370
    25
100
AcDbCircle
 10
350.1689602554
 20
364.5757219412
 30
0.0
 40
1.769632197022858
100
AcDbArc
 50
18.9668353469
 51
64.3787109829
  0
LWPOLYLINE
  5
2B7
330
1F
100
AcDbEntity
  8
0
  6
Continuous
 62
     7
370
    25
100
AcDbPolyline
 90
       13
 70
   128
 43
0.0
 10
345.429664423
 20
365.1508892191
 10
345.4485368379
 20
365.2107119631
 10
345.6334805186
 20
365.5626713549
 10
345.9338127593
 20
365.8870389881
 10
346.3379919604
 20
366.1713495964
 10
346.8304857419
 20
366.4046772827
 10
347.3923678441
 20
366.5780553948
 10
348.0020454527
 20
366.6848211091
 10
348.6360889993
 20
366.720871479
 10
349.2701325458
 20
366.6848211091
 10
349.8798101544
 20
366.5780553948
 10
350.4416922566
 20
366.4046772827
 10
350.9341860381
 20
366.1713495964
  0
ARC
  5
2B8
330
1F
100
AcDbEntity
  8
0
  6
Continuous
 62
     7
370
    25
100
AcDbCircle
 10
348.6364893052
 20
355.952130844
 30
0.0
 40
9.71105757936003
100
AcDbArc
 50
70.7773475267
 51
109.3427503397
  0
ARC
  5
2B9
330
1F
100
AcDbEntity
  8
0
  6
Continuous
 62
     7
370
    25
100
AcDbCircle
 10
336.384868922
 20
361.3700441439
 30
0.0
 40
2.011757113975193
100
AcDbArc
 50
185.6947992512
 51
245.6253417064
  0
LINE
  5
2BA
330
1F
100
AcDbEntity
  8
0
  6
Continuous
 62
     7
370
    25
100
AcDbLine
 10
368.0827897568
 20
340.7594859904
 30
0.0
 11
366.2213552923
 21
339.6849027472
 31
0.0
  0
LINE
  5
2BB
330
1F
100
AcDbEntity
  8
0
  6
Continuous
 62
     7
370
    25
100
AcDbLine
 10
383.2855855523
 20
331.9830987883
 30
0.0
 11
380.6158729766
 21
330.4419065236
 31
0.0
  0
LWPOLYLINE
  5
2BC
330
1F
100
AcDbEntity
  8
0
  6
Continuous
 62
     7
370
    25
100
AcDbPolyline
 90
       23
 70
   128
 43
0.0
 10
380.6158729766
 20
330.4419065236
 10
379.4229217027
 20
330.2533211946
 10
378.2022399335
 20
330.1381741252
 10
376.9673538544
 20
330.0977412424
 10
375.7319470464
 20
330.1324705765
 10
374.5097088606
 20
330.2419772973
 10
373.314182729
 20
330.4250479777
 10
372.158616091
 20
330.6796540399
 10
371.0558136013
 20
331.0029742337
 10
370.0179952433
 20
331.3914258982
 10
369.0566609212
 20
331.8407046606
 10
368.1824630314
 20
332.3458321328
 10
367.4050884252
 20
332.9012110755
 10
366.7331510699
 20
333.5006874209
 10
366.1740965993
 20
334.1376184645
 10
365.7341198092
 20
334.8049464724
 10
365.418096014
 20
335.4952768863
 10
365.2295270245
 20
336.200960262
 10
365.1705023445
 20
336.9141770315
 10
365.2416760171
 20
337.6270241504
 10
365.442259378
 20
338.3316026703
 10
365.7700297941
 20
339.0201052661
 10
366.2213552923
 20
339.6849027472
  0
LWPOLYLINE
  5
2BD
330
1F
100
AcDbEntity
  8
0
  6
Continuous
 62
     7
370
    25
100
AcDbPolyline
 90
       11
 70
   128
 43
0.0
 10
371.5109933706
 20
333.7580565812
 10
370.8636697153
 20
334.1830242229
 10
370.315796751
 20
334.6522895574
 10
369.8763705368
 20
335.1581472609
 10
369.5526064388
 20
335.692291164
 10
369.3498206547
 20
336.2459506383
 10
369.2713429214
 20
336.8100346108
 10
369.318461841
 20
337.3752808382
 10
369.4904037224
 20
337.932407993
 10
369.7843452844
 20
338.4722680627
 10
369.9203602467
 20
338.6622436806
  0
ARC
  5
2BE
330
1F
100
AcDbEntity
  8
0
  6
Continuous
 62
     7
370
    25
100
AcDbCircle
 10
376.9580317538
 20
344.3396064206
 30
0.0
 40
11.90123624473656
100
AcDbArc
 50
242.7620605199
 51
290.7039064275
  0
LWPOLYLINE
  5
2BF
330
1F
100
AcDbEntity
  8
0
  6
Continuous
 62
     7
370
    25
100
AcDbPolyline
 90
       15
 70
   128
 43
0.0
 10
375.5061466843
 20
327.0441420062
 10
374.5097088606
 20
327.1391222121
 10
373.314182729
 20
327.3221928925
 10
372.158616091
 20
327.5767989548
 10
371.0558136013
 20
327.9001191486
 10
370.0179952433
 20
328.288570813
 10
369.0566609212
 20
328.7378495754
 10
368.1824630314
 20
329.2429770476
 10
367.4050884252
 20
329.7983559903
 10
366.7331510699
 20
330.3978323357
 10
366.1740965993
 20
331.0347633794
 10
365.7341198092
 20
331.7020913872
 10
365.418096014
 20
332.3924218011
 10
365.2295270245
 20
333.0981051768
 10
365.1703602467
 20
333.7779625237
  0
SPLINE
  5
2C0
330
1F
100
AcDbEntity
  8
0
  6
Continuous
 62
     7
370
    25
100
AcDbSpline
210
0.0
220
0.0
230
1.0
 70
     8
 71
     3
 72
    14
 73
    10
 74
     0
 42
0.00000001
 43
0.00000001
 40
0.0
 40
0.0
 40
0.0
 40
0.0
 40
0.1388249103425275
 40
0.2784840403647603
 40
0.4207619560640105
 40
0.5639429025152918
 40
0.7128320743402236
 40
0.8627624201366261
 40
1.0
 40
1.0
 40
1.0
 40
1.0
 10
369.8831321524701
 20
335.7423476734245
 30
0.0
 10
369.8406468213234
 20
335.8524249075125
 30
0.0
 10
369.7554208583116
 20
336.073240846276
 30
0.0
 10
369.6771946492048
 20
336.4105250233881
 30
0.0
 10
369.6369165021193
 20
336.751462474083
 30
0.0
 10
369.6395457493819
 20
337.098317724928
 30
0.0
 10
369.688224293989
 20
337.4470454909776
 30
0.0
 10
369.7774746001473
 20
337.7857329823
 30
0.0
 10
369.8741561327832
 20
338.0009633491647
 30
0.0
 10
369.9203602467209
 20
338.1038219626178
 30
0.0
  0
ARC
  5
2C1
330
1F
100
AcDbEntity
  8
0
  6
Continuous
 62
     7
370
    25
100
AcDbCircle
 10
373.6656837342
 20
337.1961436617
 30
0.0
 40
4.052310358781491
100
AcDbArc
 50
201.023898151
 51
240.8675751725
  0
LINE
  5
2C2
330
1F
100
AcDbEntity
  8
0
  6
Continuous
 62
     7
370
    25
100
AcDbLine
 10
368.9211020755
 20
325.3484527368
 30
0.0
 11
368.9211020755
 21
318.6847246422
 31
0.0
  0
LWPOLYLINE
  5
2C3
330
1F
100
AcDbEntity
  8
0
  6
Continuous
 62
     7
370
    25
100
AcDbPolyline
 90
       21
 70
   128
 43
0.0
 10
407.3259518377
 20
321.7772675402
 10
407.9094790481
 20
321.4932492456
 10
408.567759029
 20
321.2702464339
 10
409.281854264
 20
321.1146744899
 10
410.0312215333
 20
321.0310089352
 10
410.794302905
 20
321.0216566755
 10
411.5491459173
 20
321.0868867583
 10
412.274035111
 20
321.2248226328
 10
412.948116744
 20
321.4314961351
 10
413.5519987148
 20
321.7009616448
 10
414.0683084388
 20
322.0254671299
 10
414.4821926251
 20
322.3956771582
 10
414.7817445793
 20
322.8009414614
 10
414.9583467371
 20
323.2296013233
 10
415.0069185759
 20
323.6693249802
 10
414.9260627723
 20
324.107462383
 10
414.7181054007
 20
324.5314091164
 10
414.3890290159
 20
324.9289690047
 10
413.9483005464
 20
325.2887049738
 10
413.4085989479
 20
325.6002680748
 10
412.9016912825
 20
325.81394122
  0
ARC
  5
2C4
330
1F
100
AcDbEntity
  8
0
  6
Continuous
 62
     7
370
    25
100
AcDbCircle
 10
408.7575115894
 20
324.4228604435
 30
0.0
 40
3.008076650029575
100
AcDbArc
 50
217.6398010242
 51
241.5816867621
  0
ARC
  5
2C5
330
1F
100
AcDbEntity
  8
0
  6
Continuous
 62
     7
370
    25
100
AcDbCircle
 10
403.4368645412
 20
320.195153203
 30
0.0
 40
7.651844867748046
100
AcDbArc
 50
242.4805390039
 51
297.5194609961
  0
LINE
  5
2C6
330
1F
100
AcDbEntity
  8
0
  6
Continuous
 62
     7
370
    25
100
AcDbLine
 10
399.9013306353
 20
313.409084394
 30
0.0
 11
375.5061466843
 21
327.4921243229
 31
0.0
  0
LINE
  5
2C7
330
1F
100
AcDbEntity
  8
0
  6
Continuous
 62
     7
370
    25
100
AcDbLine
 10
375.5061466843
 20
327.4921243229
 30
0.0
 11
383.2855855523
 21
331.9830987883
 31
0.0
  0
LINE
  5
2C8
330
1F
100
AcDbEntity
  8
0
  6
Continuous
 62
     7
370
    25
100
AcDbLine
 10
417.5790001649
 20
323.6141857918
 30
0.0
 11
413.335095203
 21
326.0641399776
 31
0.0
  0
LINE
  5
2C9
330
1F
100
AcDbEntity
  8
0
  6
Continuous
 62
     7
370
    25
100
AcDbLine
 10
404.9014800977
 20
330.9327623463
 30
0.0
 11
402.1557819829
 21
332.5178201291
 31
0.0
  0
ARC
  5
2CA
330
1F
100
AcDbEntity
  8
0
  6
Continuous
 62
     7
370
    25
100
AcDbCircle
 10
416.7827244683
 20
321.5731655122
 30
0.0
 40
2.190848868964157
100
AcDbArc
 50
291.3125518932
 51
68.6874481068
  0
LINE
  5
2CB
330
1F
100
AcDbEntity
  8
0
  6
Continuous
 62
     7
370
    25
100
AcDbLine
 10
417.5790001649
 20
319.5321452327
 30
0.0
 11
406.9723984471
 21
313.409084394
 31
0.0
  0
LINE
  5
2CC
330
1F
100
AcDbEntity
  8
0
  6
Continuous
 62
     7
370
    25
100
AcDbLine
 10
406.9723984471
 20
313.409084394
 30
0.0
 11
406.9723984471
 21
310.9594619583
 31
0.0
  0
ARC
  5
2CD
330
1F
100
AcDbEntity
  8
0
  6
Continuous
 62
     7
370
    25
100
AcDbCircle
 10
403.4368645412
 20
317.7455307673
 30
0.0
 40
7.651844867747845
100
AcDbArc
 50
242.4805390039
 51
297.5194609961
  0
LINE
  5
2CE
330
1F
100
AcDbEntity
  8
0
  6
Continuous
 62
     7
370
    25
100
AcDbLine
 10
399.9013306353
 20
310.9594619583
 30
0.0
 11
399.9013306353
 21
313.409084394
 31
0.0
  0
LWPOLYLINE
  5
2CF
330
1F
100
AcDbEntity
  8
0
  6
Continuous
 62
     7
370
    25
100
AcDbPolyline
 90
       15
 70
   128
 43
0.0
 10
369.955358452
 20
317.3460838875
 10
369.9083775472
 20
316.8917072127
 10
369.7697906516
 20
316.5143578798
 10
369.5465470908
 20
316.23295776
 10
369.2498412292
 20
316.0616174303
 10
368.8945511375
 20
316.0089286103
 10
368.4984925445
 20
316.0775333374
 10
368.0815254819
 20
316.2639914842
 10
367.6645584193
 20
316.5589532606
 10
367.2684998263
 20
316.9476280514
 10
366.9132097346
 20
317.4105260798
 10
366.6165038729
 20
317.9244357056
 10
366.3932603121
 20
318.4635873543
 10
366.2546734165
 20
319.000945711
 10
366.2076925117
 20
319.5095653838
  0
LINE
  5
2D0
330
1F
100
AcDbEntity
  8
0
  6
Continuous
 62
     7
370
    25
100
AcDbLine
 10
369.955358452
 20
322.8169073271
 30
0.0
 11
369.955358452
 21
317.3460838875
 31
0.0
  0
LWPOLYLINE
  5
2D1
330
1F
100
AcDbEntity
  8
0
  6
Continuous
 62
     7
370
    25
100
AcDbPolyline
 90
       15
 70
   128
 43
0.0
 10
366.2076925117
 20
324.9803888235
 10
366.2546734165
 20
325.4347654982
 10
366.3932603121
 20
325.8121148311
 10
366.6165038729
 20
326.093514951
 10
366.9132097346
 20
326.2648552807
 10
367.2684998263
 20
326.3175441007
 10
367.6645584193
 20
326.2489393736
 10
368.0815254819
 20
326.0624812268
 10
368.4984925445
 20
325.7675194504
 10
368.8945511375
 20
325.3788446596
 10
369.2498412292
 20
324.9159466312
 10
369.5465470908
 20
324.4020370054
 10
369.7697906516
 20
323.8628853567
 10
369.9083775472
 20
323.325527
 10
369.955358452
 20
322.8169073271
  0
LINE
  5
2D2
330
1F
100
AcDbEntity
  8
0
  6
Continuous
 62
     7
370
    25
100
AcDbLine
 10
366.2076925117
 20
319.5095653838
 30
0.0
 11
366.2076925117
 21
324.9803888235
 31
0.0
  0
LINE
  5
2D3
330
1F
100
AcDbEntity
  8
0
  6
Continuous
 62
     7
370
    25
100
AcDbLine
 10
378.6881271997
 20
321.5725020119
 30
0.0
 11
380.1023407621
 21
322.3891755239
 31
0.0
  0
LINE
  5
2D4
330
1F
100
AcDbEntity
  8
0
  6
Continuous
 62
     7
370
    25
100
AcDbLine
 10
378.6881271997
 20
305.2416857742
 30
0.0
 11
378.6881271997
 21
321.5725020119
 31
0.0
  0
LINE
  5
2D5
330
1F
100
AcDbEntity
  8
0
  6
Continuous
 62
     7
370
    25
100
AcDbLine
 10
378.6881271997
 20
305.2416857742
 30
0.0
 11
357.4749237641
 21
317.4878074515
 31
0.0
  0
LINE
  5
2D6
330
1F
100
AcDbEntity
  8
0
  6
Continuous
 62
     7
370
    25
100
AcDbLine
 10
357.4749237641
 20
317.4878074515
 30
0.0
 11
357.4749237641
 21
333.8186236892
 31
0.0
  0
LINE
  5
2D7
330
1F
100
AcDbEntity
  8
0
  6
Continuous
 62
     7
370
    25
100
AcDbLine
 10
356.0607102017
 20
336.2681134248
 30
0.0
 11
357.4749237641
 21
333.8186236892
 31
0.0
  0
LINE
  5
2D8
330
1F
100
AcDbEntity
  8
0
  6
Continuous
 62
     7
370
    25
100
AcDbLine
 10
356.0607102017
 20
336.2681134248
 30
0.0
 11
336.2617203285
 21
347.6978269904
 31
0.0
  0
LINE
  5
2D9
330
1F
100
AcDbEntity
  8
0
  6
Continuous
 62
     7
370
    25
100
AcDbLine
 10
336.2617203285
 20
350.147449426
 30
0.0
 11
336.2617203285
 21
347.6978269904
 31
0.0
  0
LINE
  5
2DA
330
1F
100
AcDbEntity
  8
0
  6
Continuous
 62
     7
370
    25
100
AcDbLine
 10
360.3033508888
 20
336.268511525
 30
0.0
 11
336.2617203285
 21
350.147449426
 31
0.0
  0
LINE
  5
2DB
330
1F
100
AcDbEntity
  8
0
  6
Continuous
 62
     7
370
    25
100
AcDbLine
 10
360.3033508888
 20
333.1656564399
 30
0.0
 11
360.3033508888
 21
336.268511525
 31
0.0
  0
LINE
  5
2DC
330
1F
100
AcDbEntity
  8
0
  6
Continuous
 62
     7
370
    25
100
AcDbLine
 10
360.3033508888
 20
333.1656564399
 30
0.0
 11
375.5061466843
 21
324.3892692378
 31
0.0
  0
LINE
  5
2DD
330
1F
100
AcDbEntity
  8
0
  6
Continuous
 62
     7
370
    25
100
AcDbLine
 10
375.5061466843
 20
324.3892692378
 30
0.0
 11
375.5061466843
 21
327.4921243229
 31
0.0
  0
LINE
  5
2DE
330
1F
100
AcDbEntity
  8
0
  6
Continuous
 62
     7
370
    25
100
AcDbLine
 10
399.9013306353
 20
310.9594619583
 30
0.0
 11
380.1023407621
 21
322.3891755239
 31
0.0
  0
LINE
  5
2DF
330
1F
100
AcDbEntity
  8
0
  6
Continuous
 62
     7
370
    25
100
AcDbLine
 10
417.5790001649
 20
317.082522797
 30
0.0
 11
417.5790001649
 21
319.5321452327
 31
0.0
  0
LINE
  5
2E0
330
1F
100
AcDbEntity
  8
0
  6
Continuous
 62
     7
370
    25
100
AcDbLine
 10
417.5790001649
 20
317.082522797
 30
0.0
 11
406.9723984471
 21
310.9594619583
 31
0.0
  0
ARC
  5
2E1
330
1F
100
AcDbEntity
  8
0
  6
Continuous
 62
     7
370
    25
100
AcDbCircle
 10
416.5441346131
 20
319.3709556561
 30
0.0
 40
2.511547662484489
100
AcDbArc
 50
294.333235592
 51
354.3466234504
  0
ARC
  5
2E2
330
1F
100
AcDbEntity
  8
0
  6
Continuous
 62
     7
370
    25
100
AcDbCircle
 10
411.8937208385
 20
322.3062239759
 30
0.0
 40
3.290937886647402
100
AcDbArc
 50
19.5977144808
 51
80.3481470653
  0
LWPOLYLINE
  5
2E3
330
1F
100
AcDbEntity
  8
0
  6
Continuous
 62
     7
370
    25
100
AcDbPolyline
 90
       16
 70
   128
 43
0.0
 10
412.9043389599
 20
321.4153912912
 10
412.9069170333
 20
321.4508830791
 10
412.8583498453
 20
321.7713502081
 10
412.683071042
 20
322.0767132715
 10
412.3905299489
 20
322.3505100674
 10
411.9964975321
 20
322.5779801397
 10
411.5222161813
 20
322.7468605181
 10
410.9932545267
 20
322.8480468174
 10
410.4381290281
 20
322.8760840582
 10
409.8867666448
 20
322.8294607456
 10
409.3688914657
 20
322.7106903544
 10
408.9124222756
 20
322.5261758271
 10
408.5419674468
 20
322.2858643896
 10
408.2774982949
 20
322.0027112938
 10
408.1332724205
 20
321.6919813964
 10
408.1115257463
 20
321.4153912912
  0
LWPOLYLINE
  5
2E4
330
1F
100
AcDbEntity
  8
0
  6
Continuous
 62
     7
370
    25
100
AcDbPolyline
 90
       14
 70
   128
 43
0.0
 10
412.8719061803
 20
321.4037219882
 10
412.8583498453
 20
321.4447338833
 10
412.683071042
 20
321.7500969467
 10
412.3905299489
 20
322.0238937426
 10
411.9964975321
 20
322.251363815
 10
411.5222161813
 20
322.4202441933
 10
410.9932545267
 20
322.5214304927
 10
410.4381290281
 20
322.5494677335
 10
409.8867666448
 20
322.5028444208
 10
409.3688914657
 20
322.3840740296
 10
408.9124222756
 20
322.1995595023
 10
408.5419674468
 20
321.9592480649
 10
408.2774982949
 20
321.6760949691
 10
408.1439585259
 20
321.4037219882
  0
LINE
  5
2E5
330
1F
100
AcDbEntity
  8
0
  6
Continuous
 62
     7
370
    25
100
AcDbLine
 10
380.1025706302
 20
322.3890428238
 30
0.0
 11
378.6881271997
 21
321.5725020119
 31
0.0
  0
LINE
  5
2E6
330
1F
100
AcDbEntity
  8
0
  6
Continuous
 62
     7
370
    25
100
AcDbLine
 10
385.6531289944
 20
319.184773685
 30
0.0
 11
385.6531289944
 21
316.3255737477
 31
0.0
  0
LWPOLYLINE
  5
2E7
330
1F
100
AcDbEntity
  8
0
  6
Continuous
 62
     7
370
    25
100
AcDbPolyline
 90
       13
 70
   128
 43
0.0
 10
385.6531289944
 20
316.3255737477
 10
385.7001098992
 20
315.871197073
 10
385.8386967948
 20
315.4938477401
 10
386.0619403556
 20
315.2124476202
 10
386.3586462172
 20
315.0411072905
 10
386.713936309
 20
314.9884184705
 10
387.1099949019
 20
315.0570231976
 10
387.5269619645
 20
315.2434813444
 10
387.9439290271
 20
315.5384431208
 10
388.3399876201
 20
315.9271179116
 10
388.6952777118
 20
316.39001594
 10
388.9919835735
 20
316.9039255658
 10
389.118602107
 20
317.1841986404
  0
LINE
  5
2E8
330
1F
100
AcDbEntity
  8
0
  6
Continuous
 62
     7
370
    25
100
AcDbLine
 10
394.2470049355
 20
314.2236347049
 30
0.0
 11
378.6881271997
 21
305.2416857742
 31
0.0
  0
LINE
  5
2E9
330
1F
100
AcDbEntity
  8
0
  6
Continuous
 62
     7
370
    25
100
AcDbLine
 10
365.1703602467
 20
335.9753211368
 30
0.0
 11
360.3033508888
 21
333.1656564399
 31
0.0
  0
SPLINE
  5
2EA
330
1F
100
AcDbEntity
  8
0
  6
Continuous
 62
     7
370
    25
100
AcDbSpline
210
0.0
220
0.0
230
1.0
 70
     8
 71
     3
 72
    13
 73
     9
 74
     0
 42
0.00000001
 43
0.00000001
 40
0.0
 40
0.0
 40
0.0
 40
0.0
 40
0.0381006885609289
 40
0.2502011782572792
 40
0.4645264779058963
 40
0.6856695670471298
 40
0.9081914473120443
 40
1.0
 40
1.0
 40
1.0
 40
1.0
 10
369.9553584520332
 20
317.4517440797063
 30
0.0
 10
369.9180766900294
 20
317.4683794792256
 30
0.0
 10
369.6732532725746
 20
317.5776215091664
 30
0.0
 10
369.2786850009725
 20
318.035765577914
 30
0.0
 10
368.8372364943579
 20
318.7649919413714
 30
0.0
 10
368.5435655589235
 20
319.6256008945527
 30
0.0
 10
368.4237228524834
 20
320.3206682993506
 30
0.0
 10
368.4144722071245
 20
320.6776781911349
 30
0.0
 10
368.4117703104171
 20
320.781952413494
 30
0.0
  0
LINE
  5
2EB
330
1F
100
AcDbEntity
  8
0
  6
Continuous
 62
     7
370
    25
100
AcDbLine
 10
368.4117703104
 20
320.7819524135
 30
0.0
 11
368.4117703104
 21
325.8379648506
 31
0.0
  0
LINE
  5
2EC
330
1F
100
AcDbEntity
  8
0
  6
Continuous
 62
     7
370
    25
100
AcDbLine
 10
368.0827897568
 20
340.7594859904
 30
0.0
 11
360.3033508888
 21
336.268511525
 31
0.0
  0
LWPOLYLINE
  5
2ED
330
1F
100
AcDbEntity
  8
0
  6
Continuous
 62
     7
370
    25
100
AcDbPolyline
 90
       38
 70
   128
 43
0.0
 10
340.150807625
 20
348.3105311744
 10
340.7343348354
 20
348.0265128798
 10
341.3926148163
 20
347.8035100681
 10
342.1067100513
 20
347.6479381241
 10
342.8560773206
 20
347.5642725695
 10
343.6191586923
 20
347.5549203098
 10
344.3740017045
 20
347.6201503925
 10
345.0988908983
 20
347.7580862671
 10
345.7729725312
 20
347.9647597694
 10
346.3768545021
 20
348.2342252791
 10
346.893164226
 20
348.5587307641
 10
347.3070484124
 20
348.9289407924
 10
347.6066003666
 20
349.3342050957
 10
347.7832025244
 20
349.7628649576
 10
347.8317743631
 20
350.2025886144
 10
347.7509185596
 20
350.6407260172
 10
347.542961188
 20
351.0646727506
 10
347.2138848032
 20
351.462232639
 10
346.7731563337
 20
351.8219686081
 10
346.2334547352
 20
352.1335317091
 10
345.6103062399
 20
352.3879588389
 10
344.9216376956
 20
352.5779305921
 10
344.1872608425
 20
352.6979818274
 10
343.4283023654
 20
352.7446588893
 10
342.6665961179
 20
352.7166189636
 10
341.924055002
 20
352.614668708
 10
341.2220405737
 20
352.4417410457
 10
340.5807485097
 20
352.2028107907
 10
340.0186276154
 20
351.9047515314
 10
339.5518490852
 20
351.5561378901
 10
339.1938412878
 20
351.1669988465
 10
338.9549034555
 20
350.7485292223
 10
338.8419093948
 20
350.3127676267
 10
338.8581097391
 20
349.8722501276
 10
339.003038434
 20
349.4396496112
 10
339.2725261448
 20
349.0274112067
 10
339.6588202007
 20
348.6473942626
 10
340.150807625
 20
348.3105311744
  0
ARC
  5
2EE
330
1F
100
AcDbEntity
  8
0
  6
Continuous
 62
     7
370
    25
100
AcDbCircle
 10
337.0579960251
 20
352.1884697056
 30
0.0
 40
2.190848868964062
100
AcDbArc
 50
111.3125518932
 51
248.6874481068
  0
LINE
  5
2EF
330
1F
100
AcDbEntity
  8
0
  6
Continuous
 62
     7
370
    25
100
AcDbLine
 10
340.5056252905
 20
356.6794441709
 30
0.0
 11
336.2617203285
 21
354.2294899851
 31
0.0
  0
LINE
  5
2F0
330
1F
100
AcDbEntity
  8
0
  6
Continuous
 62
     7
370
    25
100
AcDbLine
 10
368.4117703104
 20
320.7819524135
 30
0.0
 11
366.2076925117
 21
319.5095653838
 31
0.0
  0
LWPOLYLINE
  5
2F1
330
1F
100
AcDbEntity
  8
0
  6
Continuous
 62
     7
370
    25
100
AcDbPolyline
 90
       19
 70
   128
 43
0.0
 10
347.8188732222
 20
349.9433142231
 10
347.7509185596
 20
350.2324556113
 10
347.542961188
 20
350.6564023447
 10
347.2138848032
 20
351.053962233
 10
346.7731563337
 20
351.4136982021
 10
346.2334547352
 20
351.7252613031
 10
345.6103062399
 20
351.9796884329
 10
344.9216376956
 20
352.1696601862
 10
344.1872608425
 20
352.2897114215
 10
343.4283023654
 20
352.3363884833
 10
342.6665961179
 20
352.3083485576
 10
341.924055002
 20
352.206398302
 10
341.2220405737
 20
352.0334706397
 10
340.5807485097
 20
351.7945403847
 10
340.0186276154
 20
351.4964811255
 10
339.5518490852
 20
351.1478674842
 10
339.1938412878
 20
350.7587284405
 10
338.9549034555
 20
350.3402588163
 10
338.8467030585
 20
349.9433142231
  0
LWPOLYLINE
  5
2F2
330
1F
100
AcDbEntity
  8
0
  6
Continuous
 62
     7
370
    25
100
AcDbPolyline
 90
       16
 70
   128
 43
0.0
 10
345.7291947472
 20
347.9486549255
 10
345.7317728206
 20
347.9841467133
 10
345.6832056326
 20
348.3046138423
 10
345.5079268292
 20
348.6099769057
 10
345.2153857362
 20
348.8837737016
 10
344.8213533194
 20
349.111243774
 10
344.3470719685
 20
349.2801241523
 10
343.818110314
 20
349.3813104517
 10
343.2629848154
 20
349.4093476925
 10
342.7116224321
 20
349.3627243798
 10
342.193747253
 20
349.2439539886
 10
341.7372780629
 20
349.0594394613
 10
341.3668232341
 20
348.8191280239
 10
341.1023540822
 20
348.5359749281
 10
340.9581282078
 20
348.2252450306
 10
340.9363815335
 20
347.9486549255
  0
LWPOLYLINE
  5
2F3
330
1F
100
AcDbEntity
  8
0
  6
Continuous
 62
     7
370
    25
100
AcDbPolyline
 90
       14
 70
   128
 43
0.0
 10
345.6967619676
 20
347.9369856224
 10
345.6832056326
 20
347.9779975176
 10
345.5079268292
 20
348.2833605809
 10
345.2153857362
 20
348.5571573769
 10
344.8213533194
 20
348.7846274492
 10
344.3470719685
 20
348.9535078275
 10
343.818110314
 20
349.0546941269
 10
343.2629848154
 20
349.0827313677
 10
342.7116224321
 20
349.0361080551
 10
342.193747253
 20
348.9173376639
 10
341.7372780629
 20
348.7328231366
 10
341.3668232341
 20
348.4925116991
 10
341.1023540822
 20
348.2093586033
 10
340.9688143132
 20
347.9369856224
  0
ARC
  5
2F4
330
1F
100
AcDbEntity
  8
0
  6
Continuous
 62
     7
370
    25
100
AcDbCircle
 10
337.2361354715
 20
349.9428856728
 30
0.0
 40
2.447401348071702
100
AcDbArc
 50
184.7822660226
 51
246.537874935
  0
LINE
  5
2F5
330
1F
100
AcDbEntity
  8
0
  6
Continuous
 62
     8
370
    25
100
AcDbLine
 10
368.0818300324
 20
326.0623053849
 30
0.0
 11
366.2076925117
 21
324.9803888235
 31
0.0
  0
ENDSEC
  0
SECTION
  2
OBJECTS
  0
DICTIONARY
  5
C
330
0
100
AcDbDictionary
281
     1
  3
ACAD_GROUP
350
D
  3
ACAD_LAYOUT
350
1A
  3
ACAD_MLINESTYLE
350
17
  3
ACAD_PLOTSETTINGS
350
19
  3
ACAD_PLOTSTYLENAME
350
E
  3
ACAD_SCALELIST
350
47
  3
DWGPROPS
350
2F6
  0
DICTIONARY
  5
D
102
{ACAD_REACTORS
330
C
102
}
330
C
100
AcDbDictionary
281
     1
  0
DICTIONARY
  5
1A
102
{ACAD_REACTORS
330
C
102
}
330
C
100
AcDbDictionary
281
     1
  3
Layout1
350
1E
  3
Layout2
350
26
  3
Model
350
22
  0
DICTIONARY
  5
17
102
{ACAD_REACTORS
330
C
102
}
330
C
100
AcDbDictionary
281
     1
  3
Standard
350
18
  0
DICTIONARY
  5
19
102
{ACAD_REACTORS
330
C
102
}
330
C
100
AcDbDictionary
281
     1
  0
ACDBDICTIONARYWDFLT
  5
E
102
{ACAD_REACTORS
330
C
102
}
330
C
100
AcDbDictionary
281
     1
  3
Normal
350
F
100
AcDbDictionaryWithDefault
340
F
  0
DICTIONARY
  5
47
102
{ACAD_REACTORS
330
C
102
}
330
C
100
AcDbDictionary
281
     1
  3
A0
350
48
  3
A1
350
49
  3
A2
350
4A
  3
A3
350
4B
  3
A4
350
4C
  3
A5
350
4D
  3
A6
350
4E
  3
A7
350
4F
  3
A8
350
50
  3
A9
350
51
  3
B0
350
52
  3
B1
350
53
  3
B2
350
54
  3
B3
350
55
  3
B4
350
56
  3
B5
350
57
  3
B6
350
58
  3
B7
350
59
  3
B8
350
5A
  3
B9
350
5B
  3
C0
350
5C
  3
C1
350
5D
  3
C2
350
5E
  3
C3
350
5F
  3
C4
350
60
  3
C5
350
61
  3
C6
350
62
  3
C7
350
63
  3
C8
350
64
  3
C9
350
65
  3
D0
350
66
  3
D1
350
67
  3
D2
350
68
  0
XRECORD
  5
2F6
102
{ACAD_REACTORS
330
C
102
}
330
C
100
AcDbXrecord
280
     1
  1
DWGPROPS COOKIE
  2

  3

  4

  6

  7

  8
raffaele
  9

300
=
301
=
302
=
303
=
304
=
305
=
306
=
307
=
308
=
309
=
 40
0.0
 41
2458999.314984016
 42
2458999.314985104
  1

 90
        0
  0
LAYOUT
  5
1E
102
{ACAD_REACTORS
330
1A
102
}
330
1A
100
AcDbPlotSettings
  1

  2
none_device
  4

  6

 40
0.0
 41
0.0
 42
0.0
 43
0.0
 44
0.0
 45
0.0
 46
0.0
 47
0.0
 48
0.0
 49
0.0
140
0.0
141
0.0
142
1.0
143
1.0
 70
   688
 72
     1
 73
     0
 74
     5
  7

 75
    16
147
1.0
148
0.0
149
0.0
100
AcDbLayout
  1
Layout1
 70
     1
 71
     1
 10
0.0
 20
0.0
 11
420.0
 21
297.0
 12
0.0
 22
0.0
 32
0.0
 14
1.0000000000E+20
 24
1.0000000000E+20
 34
1.0000000000E+20
 15
-1.0000000000E+20
 25
-1.0000000000E+20
 35
-1.0000000000E+20
146
0.0
 13
0.0
 23
0.0
 33
0.0
 16
1.0
 26
0.0
 36
0.0
 17
0.0
 27
1.0
 37
0.0
 76
     0
330
1B
  0
LAYOUT
  5
26
102
{ACAD_REACTORS
330
1A
102
}
330
1A
100
AcDbPlotSettings
  1

  2
none_device
  4

  6

 40
0.0
 41
0.0
 42
0.0
 43
0.0
 44
0.0
 45
0.0
 46
0.0
 47
0.0
 48
0.0
 49
0.0
140
0.0
141
0.0
142
1.0
143
1.0
 70
   688
 72
     1
 73
     0
 74
     5
  7

 75
    16
147
1.0
148
0.0
149
0.0
100
AcDbLayout
  1
Layout2
 70
     1
 71
     2
 10
0.0
 20
0.0
 11
0.0
 21
0.0
 12
0.0
 22
0.0
 32
0.0
 14
0.0
 24
0.0
 34
0.0
 15
0.0
 25
0.0
 35
0.0
146
0.0
 13
0.0
 23
0.0
 33
0.0
 16
1.0
 26
0.0
 36
0.0
 17
0.0
 27
1.0
 37
0.0
 76
     0
330
23
  0
LAYOUT
  5
22
102
{ACAD_REACTORS
330
1A
102
}
330
1A
100
AcDbPlotSettings
  1

  2
none_device
  4
Letter_(8.50_x_11.00_Inches)
  6

 40
6.35
 41
6.35
 42
6.35000508
 43
6.35000508
 44
215.9
 45
279.4
 46
0.0
 47
0.0
 48
0.0
 49
0.0
140
0.0
141
0.0
142
1.0
143
1.0
 70
  1712
 72
     1
 73
     0
 74
     0
  7

 75
     0
147
1.0
148
0.0
149
0.0
100
AcDbLayout
  1
Model
 70
     1
 71
     0
 10
0.0
 20
0.0
 11
840.0
 21
594.0
 12
0.0
 22
0.0
 32
0.0
 14
0.0
 24
0.0
 34
0.0
 15
840.0
 25
594.0
 35
0.0
146
0.0
 13
0.0
 23
0.0
 33
0.0
 16
1.0
 26
0.0
 36
0.0
 17
0.0
 27
1.0
 37
0.0
 76
     0
330
1F
331
29
  0
MLINESTYLE
  5
18
102
{ACAD_REACTORS
330
17
102
}
330
17
100
AcDbMlineStyle
  2
Standard
 70
     0
  3

 62
   256
 51
90.0
 52
90.0
 71
     2
 49
0.5
 62
   256
  6
BYLAYER
 49
-0.5
 62
   256
  6
BYLAYER
  0
ACDBPLACEHOLDER
  5
F
102
{ACAD_REACTORS
330
E
102
}
330
E
  0
SCALE
  5
48
102
{ACAD_REACTORS
330
47
102
}
330
47
100
AcDbScale
 70
     0
300
1:1
140
1.0
141
1.0
290
     1
  0
SCALE
  5
49
102
{ACAD_REACTORS
330
47
102
}
330
47
100
AcDbScale
 70
     0
300
1:2
140
1.0
141
2.0
290
     0
  0
SCALE
  5
4A
102
{ACAD_REACTORS
330
47
102
}
330
47
100
AcDbScale
 70
     0
300
1:4
140
1.0
141
4.0
290
     0
  0
SCALE
  5
4B
102
{ACAD_REACTORS
330
47
102
}
330
47
100
AcDbScale
 70
     0
300
1:5
140
1.0
141
5.0
290
     0
  0
SCALE
  5
4C
102
{ACAD_REACTORS
330
47
102
}
330
47
100
AcDbScale
 70
     0
300
1:8
140
1.0
141
8.0
290
     0
  0
SCALE
  5
4D
102
{ACAD_REACTORS
330
47
102
}
330
47
100
AcDbScale
 70
     0
300
1:10
140
1.0
141
10.0
290
     0
  0
SCALE
  5
4E
102
{ACAD_REACTORS
330
47
102
}
330
47
100
AcDbScale
 70
     0
300
1:16
140
1.0
141
16.0
290
     0
  0
SCALE
  5
4F
102
{ACAD_REACTORS
330
47
102
}
330
47
100
AcDbScale
 70
     0
300
1:20
140
1.0
141
20.0
290
     0
  0
SCALE
  5
50
102
{ACAD_REACTORS
330
47
102
}
330
47
100
AcDbScale
 70
     0
300
1:30
140
1.0
141
30.0
290
     0
  0
SCALE
  5
51
102
{ACAD_REACTORS
330
47
102
}
330
47
100
AcDbScale
 70
     0
300
1:40
140
1.0
141
40.0
290
     0
  0
SCALE
  5
52
102
{ACAD_REACTORS
330
47
102
}
330
47
100
AcDbScale
 70
     0
300
1:50
140
1.0
141
50.0
290
     0
  0
SCALE
  5
53
102
{ACAD_REACTORS
330
47
102
}
330
47
100
AcDbScale
 70
     0
300
1:100
140
1.0
141
100.0
290
     0
  0
SCALE
  5
54
102
{ACAD_REACTORS
330
47
102
}
330
47
100
AcDbScale
 70
     0
300
2:1
140
2.0
141
1.0
290
     0
  0
SCALE
  5
55
102
{ACAD_REACTORS
330
47
102
}
330
47
100
AcDbScale
 70
     0
300
4:1
140
4.0
141
1.0
290
     0
  0
SCALE
  5
56
102
{ACAD_REACTORS
330
47
102
}
330
47
100
AcDbScale
 70
     0
300
8:1
140
8.0
141
1.0
290
     0
  0
SCALE
  5
57
102
{ACAD_REACTORS
330
47
102
}
330
47
100
AcDbScale
 70
     0
300
10:1
140
10.0
141
1.0
290
     0
  0
SCALE
  5
58
102
{ACAD_REACTORS
330
47
102
}
330
47
100
AcDbScale
 70
     0
300
100:1
140
100.0
141
1.0
290
     0
  0
SCALE
  5
59
102
{ACAD_REACTORS
330
47
102
}
330
47
100
AcDbScale
 70
     0
300
1/128" = 1'-0"
140
0.0078125
141
12.0
290
     0
  0
SCALE
  5
5A
102
{ACAD_REACTORS
330
47
102
}
330
47
100
AcDbScale
 70
     0
300
1/64" = 1'-0"
140
0.015625
141
12.0
290
     0
  0
SCALE
  5
5B
102
{ACAD_REACTORS
330
47
102
}
330
47
100
AcDbScale
 70
     0
300
1/32" = 1'-0"
140
0.03125
141
12.0
290
     0
  0
SCALE
  5
5C
102
{ACAD_REACTORS
330
47
102
}
330
47
100
AcDbScale
 70
     0
300
1/16" = 1'-0"
140
0.0625
141
12.0
290
     0
  0
SCALE
  5
5D
102
{ACAD_REACTORS
330
47
102
}
330
47
100
AcDbScale
 70
     0
300
3/32" = 1'-0"
140
0.09375
141
12.0
290
     0
  0
SCALE
  5
5E
102
{ACAD_REACTORS
330
47
102
}
330
47
100
AcDbScale
 70
     0
300
1/8" = 1'-0"
140
0.125
141
12.0
290
     0
  0
SCALE
  5
5F
102
{ACAD_REACTORS
330
47
102
}
330
47
100
AcDbScale
 70
     0
300
3/16" = 1'-0"
140
0.1875
141
12.0
290
     0
  0
SCALE
  5
60
102
{ACAD_REACTORS
330
47
102
}
330
47
100
AcDbScale
 70
     0
300
1/4" = 1'-0"
140
0.25
141
12.0
290
     0
  0
SCALE
  5
61
102
{ACAD_REACTORS
330
47
102
}
330
47
100
AcDbScale
 70
     0
300
3/8" = 1'-0"
140
0.375
141
12.0
290
     0
  0
SCALE
  5
62
102
{ACAD_REACTORS
330
47
102
}
330
47
100
AcDbScale
 70
     0
300
1/2" = 1'-0"
140
0.5
141
12.0
290
     0
  0
SCALE
  5
63
102
{ACAD_REACTORS
330
47
102
}
330
47
100
AcDbScale
 70
     0
300
3/4" = 1'-0"
140
0.75
141
12.0
290
     0
  0
SCALE
  5
64
102
{ACAD_REACTORS
330
47
102
}
330
47
100
AcDbScale
 70
     0
300
1" = 1'-0"
140
1.0
141
12.0
290
     0
  0
SCALE
  5
65
102
{ACAD_REACTORS
330
47
102
}
330
47
100
AcDbScale
 70
     0
300
1-1/2" = 1'-0"
140
1.5
141
12.0
290
     0
  0
SCALE
  5
66
102
{ACAD_REACTORS
330
47
102
}
330
47
100
AcDbScale
 70
     0
300
3" = 1'-0"
140
3.0
141
12.0
290
     0
  0
SCALE
  5
67
102
{ACAD_REACTORS
330
47
102
}
330
47
100
AcDbScale
 70
     0
300
6" = 1'-0"
140
6.0
141
12.0
290
     0
  0
SCALE
  5
68
102
{ACAD_REACTORS
330
47
102
}
330
47
100
AcDbScale
 70
     0
300
1'-0" = 1'-0"
140
12.0
141
12.0
290
     0
  0
ENDSEC
  0
EOF
