  0
SECTION
  2
HEADER
  9
$ACADVER
  1
AC1015
  9
$ACADMAINTVER
 70
    20
  9
$DWGCODEPAGE
  3
ANSI_1252
  9
$INSBASE
 10
0.0
 20
0.0
 30
0.0
  9
$EXTMIN
 10
-6.087867965644024
 20
-149.3365249667762
 30
-0.0000000000000002
  9
$EXTMAX
 10
373.0881046628831
 20
89.9121320343559
 30
0.0000000000000002
  9
$LIMMIN
 10
-20.0
 20
-0.010989010989011
  9
$LIMMAX
 10
384.5090307004148
 20
275.25
  9
$ORTHOMODE
 70
     0
  9
$REGENMODE
 70
     1
  9
$FILLMODE
 70
     1
  9
$QTEXTMODE
 70
     0
  9
$MIRRTEXT
 70
     1
  9
$LTSCALE
 40
10.0
  9
$ATTMODE
 70
     1
  9
$TEXTSIZE
 40
0.0
  9
$TRACEWID
 40
0.05
  9
$TEXTSTYLE
  7
Standard
  9
$CLAYER
  8
0
  9
$CELTYPE
  6
Continuous
  9
$CECOLOR
 62
   256
  9
$CELTSCALE
 40
1.0
  9
$DISPSILH
 70
     0
  9
$DIMSCALE
 40
1.0
  9
$DIMASZ
 40
1.25
  9
$DIMEXO
 40
0.0
  9
$DIMDLI
 40
0.38
  9
$DIMRND
 40
0.0
  9
$DIMDLE
 40
0.0
  9
$DIMEXE
 40
0.75
  9
$DIMTP
 40
0.0
  9
$DIMTM
 40
0.0
  9
$DIMTXT
 40
2.5
  9
$DIMCEN
 40
0.09
  9
$DIMTSZ
 40
0.0
  9
$DIMTOL
 70
     0
  9
$DIMLIM
 70
     0
  9
$DIMTIH
 70
     0
  9
$DIMTOH
 70
     0
  9
$DIMSE1
 70
     0
  9
$DIMSE2
 70
     0
  9
$DIMTAD
 70
     1
  9
$DIMZIN
 70
     0
  9
$DIMBLK
  1

  9
$DIMASO
 70
     1
  9
$DIMSHO
 70
     1
  9
$DIMPOST
  1

  9
$DIMAPOST
  1

  9
$DIMALT
 70
     0
  9
$DIMALTD
 70
     2
  9
$DIMALTF
 40
25.4
  9
$DIMLFAC
 40
2.0
  9
$DIMTOFL
 70
     0
  9
$DIMTVP
 40
0.0
  9
$DIMTIX
 70
     0
  9
$DIMSOXD
 70
     0
  9
$DIMSAH
 70
     0
  9
$DIMBLK1
  1

  9
$DIMBLK2
  1

  9
$DIMSTYLE
  2
Standard
  9
$DIMCLRD
 70
     7
  9
$DIMCLRE
 70
     7
  9
$DIMCLRT
 70
     7
  9
$DIMTFAC
 40
0.8
  9
$DIMGAP
 40
1.25
  9
$DIMJUST
 70
     0
  9
$DIMSD1
 70
     0
  9
$DIMSD2
 70
     0
  9
$DIMTOLJ
 70
     1
  9
$DIMTZIN
 70
     0
  9
$DIMALTZ
 70
     0
  9
$DIMALTTZ
 70
     0
  9
$DIMUPT
 70
     0
  9
$DIMDEC
 70
     2
  9
$DIMTDEC
 70
     4
  9
$DIMALTU
 70
     2
  9
$DIMALTTD
 70
     2
  9
$DIMTXSTY
  7
Standard
  9
$DIMAUNIT
 70
     0
  9
$DIMADEC
 70
     0
  9
$DIMALTRND
 40
0.0
  9
$DIMAZIN
 70
     0
  9
$DIMDSEP
 70
     0
  9
$DIMATFIT
 70
     3
  9
$DIMFRAC
 70
     0
  9
$DIMLDRBLK
  1

  9
$DIMLUNIT
 70
     2
  9
$DIMLWD
 70
     0
  9
$DIMLWE
 70
     0
  9
$DIMTMOVE
 70
     0
  9
$LUNITS
 70
     2
  9
$LUPREC
 70
     4
  9
$SKETCHINC
 40
0.1
  9
$FILLETRAD
 40
0.0
  9
$AUNITS
 70
     0
  9
$AUPREC
 70
     0
  9
$MENU
  1
acad
  9
$ELEVATION
 40
0.0
  9
$PELEVATION
 40
0.0
  9
$THICKNESS
 40
0.0
  9
$LIMCHECK
 70
     0
  9
$CHAMFERA
 40
0.0
  9
$CHAMFERB
 40
0.0
  9
$CHAMFERC
 40
0.0
  9
$CHAMFERD
 40
0.0
  9
$SKPOLY
 70
     0
  9
$TDCREATE
 40
2455498.742800926
  9
$TDUCREATE
 40
2455498.659467592
  9
$TDUPDATE
 40
2455498.697282720
  9
$TDUUPDATE
 40
2455498.613949387
  9
$TDINDWG
 40
0.0051329630
  9
$TDUSRTIMER
 40
0.0051329630
  9
$USRTIMER
 70
     1
  9
$ANGBASE
 50
0.0
  9
$ANGDIR
 70
     0
  9
$PDMODE
 70
     0
  9
$PDSIZE
 40
0.0
  9
$PLINEWID
 40
0.0
  9
$SPLFRAME
 70
     0
  9
$SPLINETYPE
 70
     6
  9
$SPLINESEGS
 70
     8
  9
$HANDSEED
  5
3FA
  9
$SURFTAB1
 70
     6
  9
$SURFTAB2
 70
     6
  9
$SURFTYPE
 70
     6
  9
$SURFU
 70
     6
  9
$SURFV
 70
     6
  9
$UCSBASE
  2

  9
$UCSNAME
  2

  9
$UCSORG
 10
0.0
 20
0.0
 30
0.0
  9
$UCSXDIR
 10
1.0
 20
0.0
 30
0.0
  9
$UCSYDIR
 10
0.0
 20
1.0
 30
0.0
  9
$UCSORTHOREF
  2

  9
$UCSORTHOVIEW
 70
     0
  9
$UCSORGTOP
 10
0.0
 20
0.0
 30
0.0
  9
$UCSORGBOTTOM
 10
0.0
 20
0.0
 30
0.0
  9
$UCSORGLEFT
 10
0.0
 20
0.0
 30
0.0
  9
$UCSORGRIGHT
 10
0.0
 20
0.0
 30
0.0
  9
$UCSORGFRONT
 10
0.0
 20
0.0
 30
0.0
  9
$UCSORGBACK
 10
0.0
 20
0.0
 30
0.0
  9
$PUCSBASE
  2

  9
$PUCSNAME
  2

  9
$PUCSORG
 10
0.0
 20
0.0
 30
0.0
  9
$PUCSXDIR
 10
1.0
 20
0.0
 30
0.0
  9
$PUCSYDIR
 10
0.0
 20
1.0
 30
0.0
  9
$PUCSORTHOREF
  2

  9
$PUCSORTHOVIEW
 70
     0
  9
$PUCSORGTOP
 10
0.0
 20
0.0
 30
0.0
  9
$PUCSORGBOTTOM
 10
0.0
 20
0.0
 30
0.0
  9
$PUCSORGLEFT
 10
0.0
 20
0.0
 30
0.0
  9
$PUCSORGRIGHT
 10
0.0
 20
0.0
 30
0.0
  9
$PUCSORGFRONT
 10
0.0
 20
0.0
 30
0.0
  9
$PUCSORGBACK
 10
0.0
 20
0.0
 30
0.0
  9
$USERI1
 70
     0
  9
$USERI2
 70
     0
  9
$USERI3
 70
     0
  9
$USERI4
 70
     0
  9
$USERI5
 70
     0
  9
$USERR1
 40
0.0
  9
$USERR2
 40
0.0
  9
$USERR3
 40
0.0
  9
$USERR4
 40
0.0
  9
$USERR5
 40
0.0
  9
$WORLDVIEW
 70
     1
  9
$SHADEDGE
 70
     3
  9
$SHADEDIF
 70
    70
  9
$TILEMODE
 70
     1
  9
$MAXACTVP
 70
    16
  9
$PINSBASE
 10
0.0
 20
0.0
 30
0.0
  9
$PLIMCHECK
 70
     0
  9
$PEXTMIN
 10
1.000000000000000E+20
 20
1.000000000000000E+20
 30
1.000000000000000E+20
  9
$PEXTMAX
 10
-1.000000000000000E+20
 20
-1.000000000000000E+20
 30
-1.000000000000000E+20
  9
$PLIMMIN
 10
0.0
 20
0.0
  9
$PLIMMAX
 10
12.0
 20
9.0
  9
$UNITMODE
 70
     0
  9
$VISRETAIN
 70
     0
  9
$PLINEGEN
 70
     1
  9
$PSLTSCALE
 70
     0
  9
$TREEDEPTH
 70
  3020
  9
$CMLSTYLE
  2
Standard
  9
$CMLJUST
 70
     0
  9
$CMLSCALE
 40
1.0
  9
$PROXYGRAPHICS
 70
     0
  9
$MEASUREMENT
 70
     1
  9
$CELWEIGHT
370
     0
  9
$ENDCAPS
280
     0
  9
$JOINSTYLE
280
     0
  9
$LWDISPLAY
290
     0
  9
$INSUNITS
 70
     0
  9
$HYPERLINKBASE
  1

  9
$STYLESHEET
  1

  9
$XEDIT
290
     1
  9
$CEPSNTYPE
380
     0
  9
$PSTYLEMODE
290
     1
  9
$FINGERPRINTGUID
  2

  9
$VERSIONGUID
  2
{FE140167-B35E-4390-9D2E-99A93FE52F92}
  9
$EXTNAMES
290
     1
  9
$PSVPSCALE
 40
0.0
  9
$OLESTARTUP
290
     0
  0
ENDSEC
  0
SECTION
  2
CLASSES
  0
CLASS
  1
IMAGE
  2
AcDbRasterImage
  3
ISM
 90
    34943
280
     0
281
     1
  0
CLASS
  1
DICTIONARYVAR
  2
AcDbDictionaryVar
  3
ObjectDBX Classes
 90
        0
280
     0
281
     0
  0
CLASS
  1
RASTERVARIABLES
  2
AcDbRasterVariables
  3
ISM
 90
    32768
280
     0
281
     0
  0
CLASS
  1
IMAGEDEF
  2
AcDbRasterImageDef
  3
ISM
 90
    32768
280
     0
281
     0
  0
CLASS
  1
IMAGEDEF_REACTOR
  2
AcDbRasterImageDefReactor
  3
ISM
 90
    32769
280
     0
281
     0
  0
CLASS
  1
IDBUFFER
  2
AcDbIdBuffer
  3
ObjectDBX Classes
 90
    32768
280
     0
281
     0
  0
CLASS
  1
SPATIAL_FILTER
  2
AcDbSpatialFilter
  3
ObjectDBX Classes
 90
    32768
280
     0
281
     0
  0
CLASS
  1
SORTENTSTABLE
  2
AcDbSortentsTable
  3
ObjectDBX Classes
 90
        0
280
     0
281
     0
  0
CLASS
  1
LAYER_INDEX
  2
AcDbLayerIndex
  3
ObjectDBX Classes
 90
    32768
280
     0
281
     0
  0
CLASS
  1
SPATIAL_INDEX
  2
AcDbSpatialIndex
  3
ObjectDBX Classes
 90
    32768
280
     0
281
     0
  0
CLASS
  1
OBJECT_PTR
  2
CAseDLPNTableRecord
  3
ASE-LPNTableRecord
 90
    32769
280
     0
281
     0
  0
CLASS
  1
LAYOUT
  2
AcDbLayout
  3
ObjectDBX Classes
 90
        0
280
     0
281
     0
  0
CLASS
  1
PLOTSETTINGS
  2
AcDbPlotSettings
  3
ObjectDBX Classes
 90
    32768
280
     0
281
     0
  0
CLASS
  1
ACDBDICTIONARYWDFLT
  2
AcDbDictionaryWithDefault
  3
ObjectDBX Classes
 90
        0
280
     0
281
     0
  0
CLASS
  1
ACDBPLACEHOLDER
  2
AcDbPlaceHolder
  3
ObjectDBX Classes
 90
        0
280
     0
281
     0
  0
CLASS
  1
VBA_PROJECT
  2
AcDbVbaProject
  3
acad
 90
    32768
280
     0
281
     0
  0
CLASS
  1
WIPEOUT
  2
AcDbWipeout
  3
"WipeOut|Product Desc: Object Enabler for WipeOut entity                        |Company: Autodesk, Inc.                        |WEB Address: www.autodesk.com"
 90
    34943
280
     0
281
     1
  0
CLASS
  1
WIPEOUTVARIABLES
  2
AcDbWipeoutVariables
  3
"WipeOut|Product Desc:     WipeOut Dbx Application|Company:          Autodesk, Inc.|WEB Address:      www.autodesk.com"
 90
        0
280
     0
281
     0
  0
CLASS
  1
RTEXT
  2
RText
  3
RText|AutoCAD Express Tool|expresstools@autodesk.com
 90
    35839
280
     0
281
     1
  0
CLASS
  1
ARCALIGNEDTEXT
  2
AcDbArcAlignedText
  3
ATEXT|AutoCAD Express Tool|expresstools@autodesk.com
 90
    32768
280
     0
281
     1
  0
CLASS
  1
MATERIAL
  2
AcDbMaterial
  3
ObjectDBX Classes
 90
     1153
280
     0
281
     0
  0
CLASS
  1
VISUALSTYLE
  2
AcDbVisualStyle
  3
ObjectDBX Classes
 90
     4095
280
     0
281
     0
  0
CLASS
  1
TABLESTYLE
  2
AcDbTableStyle
  3
ObjectDBX Classes
 90
     4095
280
     0
281
     0
  0
CLASS
  1
SCALE
  2
AcDbScale
  3
ObjectDBX Classes
 90
     1153
280
     0
281
     0
  0
CLASS
  1
MLEADERSTYLE
  2
AcDbMLeaderStyle
  3
ACDB_MLEADERSTYLE_CLASS
 90
     4095
280
     0
281
     0
  0
CLASS
  1
CELLSTYLEMAP
  2
AcDbCellStyleMap
  3
ObjectDBX Classes
 90
     1152
280
     0
281
     0
  0
ENDSEC
  0
SECTION
  2
TABLES
  0
TABLE
  2
VPORT
  5
7
330
0
100
AcDbSymbolTable
 70
     1
  0
VPORT
  5
15
330
7
100
AcDbSymbolTableRecord
100
AcDbViewportTableRecord
  2
*ACTIVE
 70
     0
 10
0.0
 20
0.0
 11
1.0
 21
1.0
 12
182.9509813617206
 22
-34.51705572117632
 13
0.0
 23
0.0
 14
1.0
 24
1.0
 15
0.0
 25
0.0
 16
0.0
 26
0.0
 36
1.0
 17
0.0
 27
0.0
 37
0.0
 40
270.7832841861933
 41
1.611330698287219
 42
50.0
 43
0.0
 44
0.0
 50
0.0
 51
0.0
 71
     0
 72
   100
 73
     1
 74
     1
 75
     0
 76
     0
 77
     0
 78
     0
281
     0
 65
     0
110
0.0
120
0.0
130
0.0
111
1.0
121
0.0
131
0.0
112
0.0
122
1.0
132
0.0
 79
     0
146
0.0
  0
ENDTAB
  0
TABLE
  2
LTYPE
  5
4
330
0
100
AcDbSymbolTable
 70
     2
  0
LTYPE
  5
11
330
4
100
AcDbSymbolTableRecord
100
AcDbLinetypeTableRecord
  2
ByBlock
 70
     0
  3

 72
    65
 73
     0
 40
0.0
  0
LTYPE
  5
12
330
4
100
AcDbSymbolTableRecord
100
AcDbLinetypeTableRecord
  2
ByLayer
 70
     0
  3

 72
    65
 73
     0
 40
0.0
  0
LTYPE
  5
13
330
4
100
AcDbSymbolTableRecord
100
AcDbLinetypeTableRecord
  2
Continuous
 70
     0
  3
Solid line
 72
    65
 73
     0
 40
0.0
  0
LTYPE
  5
D9
330
4
100
AcDbSymbolTableRecord
100
AcDbLinetypeTableRecord
  2
CENTER
 70
     0
  3
____ _ ____ _ ____ _ ____ _ ____ _ ____ _ ____
 72
    65
 73
     4
 40
2.0
 49
1.25
 74
     0
 49
-0.25
 74
     0
 49
0.25
 74
     0
 49
-0.25
 74
     0
  0
ENDTAB
  0
TABLE
  2
LAYER
  5
2
330
0
100
AcDbSymbolTable
 70
     2
  0
LAYER
  5
14
102
{ACAD_XDICTIONARY
360
3BA
102
}
330
2
100
AcDbSymbolTableRecord
100
AcDbLayerTableRecord
  2
0
 70
     0
 62
     7
  6
Continuous
370
    -3
390
1D
  0
LAYER
  5
378
330
2
100
AcDbSymbolTableRecord
100
AcDbLayerTableRecord
  2
Defpoints
 70
     0
 62
     7
  6
Continuous
290
     0
370
    -3
390
1D
  0
ENDTAB
  0
TABLE
  2
STYLE
  5
3
330
0
100
AcDbSymbolTable
 70
     1
  0
STYLE
  5
17
330
3
100
AcDbSymbolTableRecord
100
AcDbTextStyleTableRecord
  2
Standard
 70
     0
 40
0.0
 41
1.0
 50
0.0
 71
     0
 42
0.0
  3
I011000D.TTF
  4

1001
ACAD
1000
IsonormD
1071
        0
  0
ENDTAB
  0
TABLE
  2
VIEW
  5
5
330
0
100
AcDbSymbolTable
 70
     0
  0
ENDTAB
  0
TABLE
  2
UCS
  5
6
330
0
100
AcDbSymbolTable
 70
     0
  0
ENDTAB
  0
TABLE
  2
APPID
  5
8
330
0
100
AcDbSymbolTable
 70
     6
  0
APPID
  5
16
330
8
100
AcDbSymbolTableRecord
100
AcDbRegAppTableRecord
  2
ACAD
 70
     0
  0
APPID
  5
26
330
8
100
AcDbSymbolTableRecord
100
AcDbRegAppTableRecord
  2
TopSolid'Draft
 70
     0
  0
APPID
  5
2EF
330
8
100
AcDbSymbolTableRecord
100
AcDbRegAppTableRecord
  2
ACAD_MLEADERVER
 70
     0
  0
APPID
  5
39C
330
8
100
AcDbSymbolTableRecord
100
AcDbRegAppTableRecord
  2
ACAD_EXEMPT_FROM_CAD_STANDARDS
 70
     0
  0
APPID
  5
3B8
330
8
100
AcDbSymbolTableRecord
100
AcDbRegAppTableRecord
  2
DCO15
 70
     0
  0
APPID
  5
3C5
330
8
100
AcDbSymbolTableRecord
100
AcDbRegAppTableRecord
  2
ACAD_PSEXT
 70
     0
  0
ENDTAB
  0
TABLE
  2
DIMSTYLE
  5
9
330
0
100
AcDbSymbolTable
 70
     1
100
AcDbDimStyleTable
 71
     1
340
18
  0
DIMSTYLE
105
18
330
9
100
AcDbSymbolTableRecord
100
AcDbDimStyleTableRecord
  2
Standard
 70
     0
 41
1.25
 42
0.0
 44
0.75
 73
     0
 74
     0
 77
     1
140
2.5
144
2.0
146
0.8
147
1.25
176
     7
177
     7
178
     7
271
     2
340
17
  0
ENDTAB
  0
TABLE
  2
BLOCK_RECORD
  5
1
330
0
100
AcDbSymbolTable
 70
     2
  0
BLOCK_RECORD
  5
A
102
{ACAD_XDICTIONARY
360
2FE
102
}
330
1
100
AcDbSymbolTableRecord
100
AcDbBlockTableRecord
  2
*MODEL_SPACE
340
20
  0
BLOCK_RECORD
  5
B
330
1
100
AcDbSymbolTableRecord
100
AcDbBlockTableRecord
  2
*PAPER_SPACE
340
21
  0
BLOCK_RECORD
  5
91
330
1
100
AcDbSymbolTableRecord
100
AcDbBlockTableRecord
  2
AID329
340
0
102
{BLKREFS
331
D8
102
}
  0
BLOCK_RECORD
  5
1D7
330
1
100
AcDbSymbolTableRecord
100
AcDbBlockTableRecord
  2
AID843
340
0
102
{BLKREFS
331
29C
102
}
  0
ENDTAB
  0
ENDSEC
  0
SECTION
  2
BLOCKS
  0
BLOCK
  5
D
330
A
100
AcDbEntity
  8
0
100
AcDbBlockBegin
  2
*MODEL_SPACE
 70
     0
 10
0.0
 20
0.0
 30
0.0
  3
*MODEL_SPACE
  1

  0
ENDBLK
  5
E
330
A
100
AcDbEntity
  8
0
100
AcDbBlockEnd
  0
BLOCK
  5
F
330
B
100
AcDbEntity
 67
     1
  8
0
100
AcDbBlockBegin
  2
*PAPER_SPACE
 70
     0
 10
0.0
 20
0.0
 30
0.0
  3
*PAPER_SPACE
  1

  0
ENDBLK
  5
10
330
B
100
AcDbEntity
 67
     1
  8
0
100
AcDbBlockEnd
  0
BLOCK
  5
92
330
91
100
AcDbEntity
  8
0
100
AcDbBlockBegin
  2
AID329
 70
     0
 10
0.0
 20
0.0
 30
0.0
  3
AID329
  1

  0
ARC
  5
93
330
91
100
AcDbEntity
  8
0
  6
Continuous
 62
     9
100
AcDbCircle
 10
149.75
 20
255.75
 30
0.0
 40
2.000000000000001
100
AcDbArc
 50
0.0
 51
270.0000000000002
  0
ARC
  5
94
330
91
100
AcDbEntity
  8
0
  6
Continuous
 62
     9
100
AcDbCircle
 10
49.74999999999998
 20
255.75
 30
0.0
 40
2.000000000000001
100
AcDbArc
 50
0.0
 51
269.9999999999998
  0
ARC
  5
95
330
91
100
AcDbEntity
  8
0
  6
Continuous
 62
     9
100
AcDbCircle
 10
149.75
 20
227.75
 30
0.0
 40
2.000000000000001
100
AcDbArc
 50
0.0
 51
270.0
  0
ARC
  5
96
330
91
100
AcDbEntity
  8
0
  6
Continuous
 62
     9
100
AcDbCircle
 10
49.74999999999999
 20
227.75
 30
0.0
 40
2.000000000000001
100
AcDbArc
 50
270.0
 51
180.0
  0
LINE
  5
97
330
91
100
AcDbEntity
  8
0
  6
Continuous
 62
     7
100
AcDbLine
 10
174.75
 20
258.7
 30
0.0
 11
24.75
 21
258.7
 31
0.0
  0
LINE
  5
98
330
91
100
AcDbEntity
  8
0
  6
Continuous
 62
     9
100
AcDbLine
 10
24.75
 20
258.95
 30
0.0
 11
174.75
 21
258.95
 31
0.0
  0
LINE
  5
99
330
91
100
AcDbEntity
  8
0
  6
Continuous
 62
     7
100
AcDbLine
 10
174.75
 20
258.95
 30
0.0
 11
174.75
 21
258.7
 31
0.0
  0
LINE
  5
9A
330
91
100
AcDbEntity
  8
0
  6
Continuous
 62
     7
100
AcDbLine
 10
24.75
 20
258.7
 30
0.0
 11
24.75
 21
258.95
 31
0.0
  0
LINE
  5
9B
330
91
100
AcDbEntity
  8
0
  6
Continuous
 62
     9
100
AcDbLine
 10
174.75
 20
262.2050252531694
 30
0.0
 11
24.75
 21
262.2050252531694
 31
0.0
  0
LINE
  5
9C
330
91
100
AcDbEntity
  8
0
  6
Continuous
 62
     7
100
AcDbLine
 10
174.75
 20
262.2050252531694
 30
0.0
 11
174.75
 21
258.95
 31
0.0
  0
LINE
  5
9D
330
91
100
AcDbEntity
  8
0
  6
Continuous
 62
     7
100
AcDbLine
 10
24.75
 20
262.2050252531694
 30
0.0
 11
24.75
 21
258.95
 31
0.0
  0
LINE
  5
9E
330
91
100
AcDbEntity
  8
0
  6
Continuous
 62
     9
100
AcDbLine
 10
24.75
 20
262.5585786437627
 30
0.0
 11
174.75
 21
262.5585786437627
 31
0.0
  0
LINE
  5
9F
330
91
100
AcDbEntity
  8
0
  6
Continuous
 62
     7
100
AcDbLine
 10
174.75
 20
262.5585786437627
 30
0.0
 11
174.75
 21
262.2050252531694
 31
0.0
  0
LINE
  5
A0
330
91
100
AcDbEntity
  8
0
  6
Continuous
 62
     7
100
AcDbLine
 10
24.75
 20
262.2050252531694
 30
0.0
 11
24.75
 21
262.5585786437627
 31
0.0
  0
LINE
  5
A1
330
91
100
AcDbEntity
  8
0
  6
Continuous
 62
     9
100
AcDbLine
 10
174.75
 20
252.55
 30
0.0
 11
24.75
 21
252.55
 31
0.0
  0
LINE
  5
A2
330
91
100
AcDbEntity
  8
0
  6
Continuous
 62
     7
100
AcDbLine
 10
174.75
 20
252.55
 30
0.0
 11
174.75
 21
249.2949747468306
 31
0.0
  0
LINE
  5
A3
330
91
100
AcDbEntity
  8
0
  6
Continuous
 62
     9
100
AcDbLine
 10
24.75
 20
249.2949747468306
 30
0.0
 11
174.75
 21
249.2949747468306
 31
0.0
  0
LINE
  5
A4
330
91
100
AcDbEntity
  8
0
  6
Continuous
 62
     7
100
AcDbLine
 10
24.75
 20
252.55
 30
0.0
 11
24.75
 21
249.2949747468306
 31
0.0
  0
LINE
  5
A5
330
91
100
AcDbEntity
  8
0
  6
Continuous
 62
     7
100
AcDbLine
 10
24.75
 20
252.8
 30
0.0
 11
174.75
 21
252.8
 31
0.0
  0
LINE
  5
A6
330
91
100
AcDbEntity
  8
0
  6
Continuous
 62
     7
100
AcDbLine
 10
174.75
 20
252.8
 30
0.0
 11
174.75
 21
252.55
 31
0.0
  0
LINE
  5
A7
330
91
100
AcDbEntity
  8
0
  6
Continuous
 62
     7
100
AcDbLine
 10
24.75
 20
252.55
 30
0.0
 11
24.75
 21
252.8
 31
0.0
  0
LINE
  5
A8
330
91
100
AcDbEntity
  8
0
  6
Continuous
 62
     7
100
AcDbLine
 10
174.75
 20
249.2949747468306
 30
0.0
 11
174.75
 21
248.9414213562373
 31
0.0
  0
LINE
  5
A9
330
91
100
AcDbEntity
  8
0
  6
Continuous
 62
     9
100
AcDbLine
 10
174.75
 20
248.9414213562373
 30
0.0
 11
24.75
 21
248.9414213562373
 31
0.0
  0
LINE
  5
AA
330
91
100
AcDbEntity
  8
0
  6
Continuous
 62
     7
100
AcDbLine
 10
24.75
 20
248.9414213562373
 30
0.0
 11
24.75
 21
249.2949747468306
 31
0.0
  0
LINE
  5
AB
330
91
100
AcDbEntity
  8
0
  6
Continuous
 62
     9
100
AcDbLine
 10
24.75
 20
247.843933982822
 30
0.0
 11
174.75
 21
247.843933982822
 31
0.0
  0
LINE
  5
AC
330
91
100
AcDbEntity
  8
0
  6
Continuous
 62
     7
100
AcDbLine
 10
174.75
 20
248.9414213562373
 30
0.0
 11
174.75
 21
247.843933982822
 31
0.0
  0
LINE
  5
AD
330
91
100
AcDbEntity
  8
0
  6
Continuous
 62
     7
100
AcDbLine
 10
24.75
 20
248.9414213562373
 30
0.0
 11
24.75
 21
247.843933982822
 31
0.0
  0
LINE
  5
AE
330
91
100
AcDbEntity
  8
0
  6
Continuous
 62
     9
100
AcDbLine
 10
174.75
 20
263.656066017178
 30
0.0
 11
24.75
 21
263.656066017178
 31
0.0
  0
LINE
  5
AF
330
91
100
AcDbEntity
  8
0
  6
Continuous
 62
     7
100
AcDbLine
 10
174.75
 20
263.656066017178
 30
0.0
 11
174.75
 21
262.5585786437627
 31
0.0
  0
LINE
  5
B0
330
91
100
AcDbEntity
  8
0
  6
Continuous
 62
     7
100
AcDbLine
 10
24.75
 20
263.656066017178
 30
0.0
 11
24.75
 21
262.5585786437627
 31
0.0
  0
LINE
  5
B1
330
91
100
AcDbEntity
  8
0
  6
Continuous
 62
     9
100
AcDbLine
 10
24.75
 20
220.4
 30
0.0
 11
174.75
 21
220.4
 31
0.0
  0
LINE
  5
B2
330
91
100
AcDbEntity
  8
0
  6
Continuous
 62
     9
100
AcDbLine
 10
174.75
 20
233.5
 30
0.0
 11
24.75
 21
233.5
 31
0.0
  0
CIRCLE
  5
B3
330
91
100
AcDbEntity
  8
0
  6
Continuous
 62
     7
100
AcDbCircle
 10
149.75
 20
227.75
 30
0.0
 40
1.997499999999985
  0
CIRCLE
  5
B4
330
91
100
AcDbEntity
  8
0
  6
Continuous
 62
     7
100
AcDbCircle
 10
49.74999999999999
 20
227.75
 30
0.0
 40
1.997499999999985
  0
LINE
  5
B5
330
91
100
AcDbEntity
  8
0
  6
Continuous
 62
     7
100
AcDbLine
 10
174.75
 20
233.5
 30
0.0
 11
174.75
 21
220.4
 31
0.0
  0
LINE
  5
B6
330
91
100
AcDbEntity
  8
0
  6
Continuous
 62
     7
100
AcDbLine
 10
24.75
 20
233.5
 30
0.0
 11
24.75
 21
220.4
 31
0.0
  0
LINE
  5
B7
330
91
100
AcDbEntity
  8
0
  6
Continuous
 62
     7
100
AcDbLine
 10
24.75
 20
234.0
 30
0.0
 11
174.75
 21
234.0
 31
0.0
  0
LINE
  5
B8
330
91
100
AcDbEntity
  8
0
  6
Continuous
 62
     7
100
AcDbLine
 10
174.75
 20
234.0
 30
0.0
 11
174.75
 21
233.5
 31
0.0
  0
LINE
  5
B9
330
91
100
AcDbEntity
  8
0
  6
Continuous
 62
     7
100
AcDbLine
 10
24.75
 20
233.5
 30
0.0
 11
24.75
 21
234.0
 31
0.0
  0
LINE
  5
BA
330
91
100
AcDbEntity
  8
0
  6
Continuous
 62
     7
100
AcDbLine
 10
24.75
 20
220.25
 30
0.0
 11
174.75
 21
220.25
 31
0.0
  0
LINE
  5
BB
330
91
100
AcDbEntity
  8
0
  6
Continuous
 62
     7
100
AcDbLine
 10
174.75
 20
220.4
 30
0.0
 11
174.75
 21
220.25
 31
0.0
  0
LINE
  5
BC
330
91
100
AcDbEntity
  8
0
  6
Continuous
 62
     7
100
AcDbLine
 10
24.75
 20
220.4
 30
0.0
 11
24.75
 21
220.25
 31
0.0
  0
CIRCLE
  5
BD
330
91
100
AcDbEntity
  8
0
  6
Continuous
 62
     7
100
AcDbCircle
 10
49.74999999999999
 20
227.75
 30
0.0
 40
1.68749999999998
  0
CIRCLE
  5
BE
330
91
100
AcDbEntity
  8
0
  6
Continuous
 62
     7
100
AcDbCircle
 10
149.75
 20
227.75
 30
0.0
 40
1.68749999999998
  0
LINE
  5
BF
330
91
100
AcDbEntity
  8
0
  6
Continuous
 62
     7
100
AcDbLine
 10
174.75
 20
247.843933982822
 30
0.0
 11
174.75
 21
247.8
 31
0.0
  0
LINE
  5
C0
330
91
100
AcDbEntity
  8
0
  6
Continuous
 62
     7
100
AcDbLine
 10
24.75
 20
247.843933982822
 30
0.0
 11
24.75
 21
247.8
 31
0.0
  0
LINE
  5
C1
330
91
100
AcDbEntity
  8
0
  6
Continuous
 62
     7
100
AcDbLine
 10
174.75
 20
263.7
 30
0.0
 11
174.75
 21
263.656066017178
 31
0.0
  0
LINE
  5
C2
330
91
100
AcDbEntity
  8
0
  6
Continuous
 62
     7
100
AcDbLine
 10
24.74999999999998
 20
263.7
 30
0.0
 11
24.74999999999998
 21
263.656066017178
 31
0.0
  0
LINE
  5
C3
330
91
100
AcDbEntity
  8
0
  6
Continuous
 62
     7
100
AcDbLine
 10
24.75
 20
265.25
 30
0.0
 11
174.75
 21
265.25
 31
0.0
  0
LINE
  5
C4
330
91
100
AcDbEntity
  8
0
  6
Continuous
 62
     9
100
AcDbLine
 10
174.75
 20
264.25
 30
0.0
 11
24.75
 21
264.25
 31
0.0
  0
LINE
  5
C5
330
91
100
AcDbEntity
  8
0
  6
Continuous
 62
     7
100
AcDbLine
 10
174.75
 20
265.25
 30
0.0
 11
174.75
 21
264.25
 31
0.0
  0
LINE
  5
C6
330
91
100
AcDbEntity
  8
0
  6
Continuous
 62
     7
100
AcDbLine
 10
24.75
 20
264.25
 30
0.0
 11
24.75
 21
265.25
 31
0.0
  0
LINE
  5
C7
330
91
100
AcDbEntity
  8
0
  6
Continuous
 62
     7
100
AcDbLine
 10
174.75
 20
264.25
 30
0.0
 11
174.75
 21
263.7
 31
0.0
  0
LINE
  5
C8
330
91
100
AcDbEntity
  8
0
  6
Continuous
 62
     7
100
AcDbLine
 10
24.75
 20
264.25
 30
0.0
 11
24.74999999999998
 21
263.7
 31
0.0
  0
LINE
  5
C9
330
91
100
AcDbEntity
  8
0
  6
Continuous
 62
     9
100
AcDbLine
 10
174.75
 20
247.8
 30
0.0
 11
24.75
 21
247.8
 31
0.0
  0
LINE
  5
CA
330
91
100
AcDbEntity
  8
0
  6
Continuous
 62
     9
100
AcDbLine
 10
24.75
 20
234.5
 30
0.0
 11
174.75
 21
234.5
 31
0.0
  0
LINE
  5
CB
330
91
100
AcDbEntity
  8
0
  6
Continuous
 62
     7
100
AcDbLine
 10
174.75
 20
234.0
 30
0.0
 11
174.75
 21
234.5
 31
0.0
  0
LINE
  5
CC
330
91
100
AcDbEntity
  8
0
  6
Continuous
 62
     7
100
AcDbLine
 10
24.75
 20
234.5
 30
0.0
 11
24.75
 21
234.0
 31
0.0
  0
LINE
  5
CD
330
91
100
AcDbEntity
  8
0
  6
Continuous
 62
     7
100
AcDbLine
 10
174.75
 20
247.8
 30
0.0
 11
174.75
 21
234.5
 31
0.0
  0
LINE
  5
CE
330
91
100
AcDbEntity
  8
0
  6
Continuous
 62
     7
100
AcDbLine
 10
24.75
 20
247.8
 30
0.0
 11
24.75
 21
234.5
 31
0.0
  0
CIRCLE
  5
CF
330
91
100
AcDbEntity
  8
0
  6
Continuous
 62
     7
100
AcDbCircle
 10
149.75
 20
255.75
 30
0.0
 40
1.93749999999998
  0
CIRCLE
  5
D0
330
91
100
AcDbEntity
  8
0
  6
Continuous
 62
     7
100
AcDbCircle
 10
49.74999999999998
 20
255.75
 30
0.0
 40
1.93749999999998
  0
LINE
  5
D1
330
91
100
AcDbEntity
  8
0
  6
Continuous
 62
     7
100
AcDbLine
 10
174.75
 20
258.7000000000001
 30
0.0
 11
174.75
 21
252.8
 31
0.0
  0
LINE
  5
D2
330
91
100
AcDbEntity
  8
0
  6
Continuous
 62
     7
100
AcDbLine
 10
24.74999999999998
 20
258.7000000000001
 30
0.0
 11
24.75
 21
252.8
 31
0.0
  0
CIRCLE
  5
D3
330
91
100
AcDbEntity
  8
0
  6
Continuous
 62
     7
100
AcDbCircle
 10
49.74999999999998
 20
255.75
 30
0.0
 40
1.687500000000008
  0
CIRCLE
  5
D4
330
91
100
AcDbEntity
  8
0
  6
Continuous
 62
     7
100
AcDbCircle
 10
149.75
 20
255.75
 30
0.0
 40
1.687500000000008
  0
LINE
  5
D5
330
91
100
AcDbEntity
  8
0
  6
Continuous
 62
     7
100
AcDbLine
 10
24.75
 20
247.8
 30
0.0
 11
174.75
 21
247.8
 31
0.0
  0
LINE
  5
D6
330
91
100
AcDbEntity
  8
0
  6
Continuous
 62
     7
100
AcDbLine
 10
174.75
 20
263.7
 30
0.0
 11
24.74999999999997
 21
263.7
 31
0.0
  0
ENDBLK
  5
D7
330
91
100
AcDbEntity
  8
0
100
AcDbBlockEnd
  0
BLOCK
  5
1D8
330
1D7
100
AcDbEntity
  8
0
100
AcDbBlockBegin
  2
AID843
 70
     0
 10
0.0
 20
0.0
 30
0.0
  3
AID843
  1

  0
ELLIPSE
  5
1D9
330
1D7
100
AcDbEntity
  8
0
  6
Continuous
 62
     7
100
AcDbEllipse
 10
275.621464468085
 20
92.42756907557902
 30
0.0
 11
-0.0399999999999845
 21
0.1959591794226528
 31
0.0
210
-0.0000000000000001
220
0.0
230
1.0
 40
0.4082482904638633
 41
0.3217505543966355
 42
1.107148717794084
  0
LINE
  5
1DA
330
1D7
100
AcDbEntity
  8
0
  6
Continuous
 62
     7
100
AcDbLine
 10
275.532021748985
 20
92.50059874991304
 30
0.0
 11
275.532021748985
 21
86.03738035981514
 31
0.0
  0
ELLIPSE
  5
1DB
330
1D7
100
AcDbEntity
  8
0
  6
Continuous
 62
     7
100
AcDbEllipse
 10
275.8897926253849
 20
85.74526166247906
 30
0.0
 11
-0.1599999999999935
 21
0.7838367176906253
 31
0.0
210
-0.0000000000000001
220
0.0
230
0.9999999999999998
 40
0.4082482904638633
 41
1.107148717794091
 42
2.67794504458899
  0
LINE
  5
1DC
330
1D7
100
AcDbEntity
  8
0
  6
Continuous
 62
     7
100
AcDbLine
 10
275.8897926253849
 20
85.01496491913883
 30
0.0
 11
276.4622260276249
 21
84.54757500340109
 31
0.0
  0
ELLIPSE
  5
1DD
330
1D7
100
AcDbEntity
  8
0
  6
Continuous
 62
     7
100
AcDbEllipse
 10
276.4622260276249
 20
84.91272337507121
 30
0.0
 11
-0.0800000000000245
 21
0.3919183588453057
 31
0.0
210
-0.0000000000000001
220
0.0
230
1.0
 40
0.4082482904638633
 41
3.141592653589827
 42
4.248741371383903
  0
LINE
  5
1DE
330
1D7
100
AcDbEntity
  8
0
  6
Continuous
 62
     7
100
AcDbLine
 10
276.6411114658248
 20
84.76666402640317
 30
0.0
 11
276.6411114658248
 21
86.2272575130836
 31
0.0
  0
ELLIPSE
  5
1DF
330
1D7
100
AcDbEntity
  8
0
  6
Continuous
 62
     7
100
AcDbEllipse
 10
276.7305541849249
 20
86.15422783874958
 30
0.0
 11
0.0399999999999845
 21
-0.1959591794226528
 31
0.0
210
-0.0000000000000001
220
0.0
230
1.0
 40
0.4082482904638633
 41
2.677945044589023
 42
3.141592653589754
  0
LINE
  5
1E0
330
1D7
100
AcDbEntity
  8
0
  6
Continuous
 62
     7
100
AcDbLine
 10
276.7305541849249
 20
86.33680202458464
 30
0.0
 11
277.0883250613248
 21
86.04468332724856
 31
0.0
  0
ELLIPSE
  5
1E1
330
1D7
100
AcDbEntity
  8
0
  6
Continuous
 62
     7
100
AcDbEllipse
 10
277.0883250613248
 20
85.8621091414135
 30
0.0
 11
0.0399999999999845
 21
-0.1959591794226528
 31
0.0
210
-0.0000000000000001
220
0.0
230
1.0
 40
0.4082482904638633
 41
1.107148717794078
 42
2.677945044589026
  0
LINE
  5
1E2
330
1D7
100
AcDbEntity
  8
0
  6
Continuous
 62
     7
100
AcDbLine
 10
277.1777677804248
 20
85.78907946707948
 30
0.0
 11
277.1777677804248
 21
83.41194512519967
 31
0.0
  0
ELLIPSE
  5
1E3
330
1D7
100
AcDbEntity
  8
0
  6
Continuous
 62
     7
100
AcDbEllipse
 10
276.9988823422249
 20
83.55800447386771
 30
0.0
 11
0.0800000000000245
 21
-0.3919183588453057
 31
0.0
210
-0.0000000000000001
220
0.0
230
1.0
 40
0.4082482904638633
 41
0.3217505543966717
 42
1.107148717794087
  0
LINE
  5
1E4
330
1D7
100
AcDbEntity
  8
0
  6
Continuous
 62
     7
100
AcDbLine
 10
277.1253734486316
 20
83.19652602822168
 30
0.0
 11
276.7327244292069
 21
82.71563115542436
 31
0.0
  0
ELLIPSE
  5
1E5
330
1D7
100
AcDbEntity
  8
0
  6
Continuous
 62
     7
100
AcDbEllipse
 10
276.6947770972849
 20
82.82407468911817
 30
0.0
 11
-0.024000000000024
 21
0.1175755076535945
 31
0.0
210
-0.0000000000000001
220
0.0
230
1.0
 40
0.4082482904638633
 41
3.141592653589909
 42
3.463343207986639
  0
LINE
  5
1E6
330
1D7
100
AcDbEntity
  8
0
  6
Continuous
 62
     7
100
AcDbLine
 10
276.6411114658248
 20
82.86789249371858
 30
0.0
 11
276.6411114658248
 21
83.30607053972272
 31
0.0
  0
ELLIPSE
  5
1E7
330
1D7
100
AcDbEntity
  8
0
  6
Continuous
 62
     7
100
AcDbEllipse
 10
276.5516687467249
 20
83.37910021405674
 30
0.0
 11
-0.0399999999999845
 21
0.1959591794226528
 31
0.0
210
-0.0000000000000001
220
0.0
230
1.0
 40
0.4082482904638633
 41
4.24874137138385
 42
5.819537698178782
  0
LINE
  5
1E8
330
1D7
100
AcDbEntity
  8
0
  6
Continuous
 62
     7
100
AcDbLine
 10
276.5516687467249
 20
83.5616743998918
 30
0.0
 11
275.8897926253849
 21
84.10209398996357
 31
0.0
  0
ELLIPSE
  5
1E9
330
1D7
100
AcDbEntity
  8
0
  6
Continuous
 62
     7
100
AcDbEllipse
 10
275.8897926253849
 20
83.37179724662334
 30
0.0
 11
-0.1599999999999935
 21
0.7838367176906253
 31
0.0
210
-0.0000000000000001
220
0.0
230
0.9999999999999998
 40
0.4082482904638633
 41
0.0
 42
1.107148717794089
  0
LINE
  5
1EA
330
1D7
100
AcDbEntity
  8
0
  6
Continuous
 62
     7
100
AcDbLine
 10
275.532021748985
 20
83.66391594395942
 30
0.0
 11
275.532021748985
 21
73.95096925753446
 31
0.0
  0
ELLIPSE
  5
1EB
330
1D7
100
AcDbEntity
  8
0
  6
Continuous
 62
     7
100
AcDbEllipse
 10
275.710907187185
 20
73.80490990886643
 30
0.0
 11
-0.0800000000000245
 21
0.3919183588453196
 31
0.0
210
-0.0000000000000001
220
0.0
230
1.0
 40
0.4082482904638633
 41
1.107148717794082
 42
2.677945044588975
  0
LINE
  5
1EC
330
1D7
100
AcDbEntity
  8
0
  6
Continuous
 62
     7
100
AcDbLine
 10
275.710907187185
 20
73.4397615371963
 30
0.0
 11
276.8736625354849
 21
72.49037577085402
 31
0.0
  0
ELLIPSE
  5
1ED
330
1D7
100
AcDbEntity
  8
0
  6
Continuous
 62
     7
100
AcDbEllipse
 10
276.8736625354849
 20
72.12522739918393
 30
0.0
 11
0.0800000000000245
 21
-0.3919183588453057
 31
0.0
210
-0.0000000000000001
220
0.0
230
1.0
 40
0.4082482904638633
 41
1.107148717794083
 42
2.677945044589006
  0
LINE
  5
1EE
330
1D7
100
AcDbEntity
  8
0
  6
Continuous
 62
     7
100
AcDbLine
 10
277.0525479736849
 20
71.97916805051587
 30
0.0
 11
277.0525479736849
 21
62.41228071275896
 31
0.0
  0
ELLIPSE
  5
1EF
330
1D7
100
AcDbEntity
  8
0
  6
Continuous
 62
     7
100
AcDbEllipse
 10
276.9988823422249
 20
62.45609851735938
 30
0.0
 11
-0.024000000000024
 21
0.1175755076535945
 31
0.0
210
-0.0000000000000001
220
0.0
230
1.0
 40
0.4082482904638633
 41
3.14159265358973
 42
4.248741371383832
  0
LINE
  5
1F0
330
1D7
100
AcDbEntity
  8
0
  6
Continuous
 62
     7
100
AcDbLine
 10
276.9988823422249
 20
62.34655400585834
 30
0.0
 11
276.6590000096449
 21
62.62406676832763
 31
0.0
  0
ELLIPSE
  5
1F1
330
1D7
100
AcDbEntity
  8
0
  6
Continuous
 62
     7
100
AcDbEllipse
 10
276.6590000096449
 20
62.73361127982866
 30
0.0
 11
-0.024000000000024
 21
0.1175755076535945
 31
0.0
210
-0.0000000000000001
220
0.0
230
1.0
 40
0.4082482904638633
 41
1.107148717794068
 42
2.677945044588958
  0
LINE
  5
1F2
330
1D7
100
AcDbEntity
  8
0
  6
Continuous
 62
     7
100
AcDbLine
 10
276.6053343781849
 20
62.77742908442907
 30
0.0
 11
276.6053343781849
 21
71.61401967884576
 31
0.0
  0
ELLIPSE
  5
1F3
330
1D7
100
AcDbEntity
  8
0
  6
Continuous
 62
     7
100
AcDbEllipse
 10
276.5158916590849
 20
71.68704935317977
 30
0.0
 11
-0.0399999999999845
 21
0.1959591794226528
 31
0.0
210
-0.0000000000000001
220
0.0
230
1.0
 40
0.4082482904638633
 41
4.248741371383896
 42
5.819537698178823
  0
LINE
  5
1F4
330
1D7
100
AcDbEntity
  8
0
  6
Continuous
 62
     7
100
AcDbLine
 10
276.5158916590849
 20
71.86962353901484
 30
0.0
 11
274.1009382433851
 21
73.84142474603343
 31
0.0
  0
ELLIPSE
  5
1F5
330
1D7
100
AcDbEntity
  8
0
  6
Continuous
 62
     7
100
AcDbEllipse
 10
274.1009382433851
 20
73.65885056019839
 30
0.0
 11
-0.0399999999999845
 21
0.1959591794226528
 31
0.0
210
-0.0000000000000001
220
0.0
230
1.0
 40
0.4082482904638633
 41
6.283185307179552
 42
7.390334024973689
  0
LINE
  5
1F6
330
1D7
100
AcDbEntity
  8
0
  6
Continuous
 62
     7
100
AcDbLine
 10
274.0114955242852
 20
73.73188023453241
 30
0.0
 11
274.0114955242852
 21
64.89528964011572
 31
0.0
  0
ELLIPSE
  5
1F7
330
1D7
100
AcDbEntity
  8
0
  6
Continuous
 62
     7
100
AcDbEllipse
 10
273.9578298928251
 20
64.93910744471612
 30
0.0
 11
-0.024000000000024
 21
0.1175755076535945
 31
0.0
210
-0.0000000000000001
220
0.0
230
1.0
 40
0.4082482904638633
 41
3.1415926535899
 42
4.248741371383912
  0
LINE
  5
1F8
330
1D7
100
AcDbEntity
  8
0
  6
Continuous
 62
     7
100
AcDbLine
 10
273.9578298928251
 20
64.8295629332151
 30
0.0
 11
273.6179475602452
 21
65.10707569568438
 31
0.0
  0
ELLIPSE
  5
1F9
330
1D7
100
AcDbEntity
  8
0
  6
Continuous
 62
     7
100
AcDbEllipse
 10
273.6179475602452
 20
65.21662020718541
 30
0.0
 11
-0.024000000000024
 21
0.1175755076535945
 31
0.0
210
-0.0000000000000001
220
0.0
230
1.0
 40
0.4082482904638633
 41
1.107148717794096
 42
2.677945044588958
  0
LINE
  5
1FA
330
1D7
100
AcDbEntity
  8
0
  6
Continuous
 62
     7
100
AcDbLine
 10
273.5642819287852
 20
65.26043801178582
 30
0.0
 11
273.5642819287852
 21
74.82732534954273
 31
0.0
  0
ELLIPSE
  5
1FB
330
1D7
100
AcDbEntity
  8
0
  6
Continuous
 62
     7
100
AcDbEllipse
 10
273.7431673669852
 20
74.68126600087469
 30
0.0
 11
0.0800000000000245
 21
-0.3919183588453057
 31
0.0
210
-0.0000000000000001
220
0.0
230
1.0
 40
0.4082482904638633
 41
2.677945044588939
 42
3.141592653589758
  0
LINE
  5
1FC
330
1D7
100
AcDbEntity
  8
0
  6
Continuous
 62
     7
100
AcDbLine
 10
273.7431673669852
 20
75.0464143725448
 30
0.0
 11
274.9059227152851
 21
74.09702860620251
 31
0.0
  0
ELLIPSE
  5
1FD
330
1D7
100
AcDbEntity
  8
0
  6
Continuous
 62
     7
100
AcDbEllipse
 10
274.9059227152851
 20
74.46217697787261
 30
0.0
 11
-0.0800000000000245
 21
0.3919183588453196
 31
0.0
210
-0.0000000000000001
220
0.0
230
1.0
 40
0.4082482904638633
 41
3.141592653589762
 42
4.248741371383871
  0
LINE
  5
1FE
330
1D7
100
AcDbEntity
  8
0
  6
Continuous
 62
     7
100
AcDbLine
 10
275.084808153485
 20
74.31611762920458
 30
0.0
 11
275.084808153485
 21
81.98423343427691
 31
0.0
  0
ELLIPSE
  5
1FF
330
1D7
100
AcDbEntity
  8
0
  6
Continuous
 62
     7
100
AcDbEllipse
 10
274.727037277085
 20
82.27635213161299
 30
0.0
 11
-0.1599999999999935
 21
0.7838367176906253
 31
0.0
210
-0.0000000000000001
220
0.0
230
0.9999999999999998
 40
0.4082482904638633
 41
4.248741371383885
 42
5.819537698178775
  0
LINE
  5
200
330
1D7
100
AcDbEntity
  8
0
  6
Continuous
 62
     7
100
AcDbLine
 10
274.727037277085
 20
83.00664887495322
 30
0.0
 11
272.8487401759853
 21
84.54027203596769
 31
0.0
  0
ELLIPSE
  5
201
330
1D7
100
AcDbEntity
  8
0
  6
Continuous
 62
     7
100
AcDbEllipse
 10
272.8487401759853
 20
85.27056877930791
 30
0.0
 11
0.1599999999999935
 21
-0.7838367176906253
 31
0.0
210
-0.0000000000000001
220
0.0
230
0.9999999999999998
 40
0.4082482904638633
 41
4.248741371383883
 42
5.819537698178781
  0
LINE
  5
202
330
1D7
100
AcDbEntity
  8
0
  6
Continuous
 62
     7
100
AcDbLine
 10
272.4909692995853
 20
85.562687476644
 30
0.0
 11
272.4909692995853
 21
86.29298421998424
 31
0.0
  0
ELLIPSE
  5
203
330
1D7
100
AcDbEntity
  8
0
  6
Continuous
 62
     7
100
AcDbEllipse
 10
272.6698547377853
 20
86.14692487131618
 30
0.0
 11
0.0800000000000245
 21
-0.3919183588453057
 31
0.0
210
-0.0000000000000001
220
0.0
230
1.0
 40
0.4082482904638633
 41
2.677945044588989
 42
3.141592653589812
  0
LINE
  5
204
330
1D7
100
AcDbEntity
  8
0
  6
Continuous
 62
     7
100
AcDbLine
 10
272.6698547377853
 20
86.51207324298628
 30
0.0
 11
272.8845172636253
 21
86.33680202458462
 31
0.0
  0
ELLIPSE
  5
205
330
1D7
100
AcDbEntity
  8
0
  6
Continuous
 62
     7
100
AcDbEllipse
 10
272.8845172636253
 20
86.22725751308358
 30
0.0
 11
0.024000000000024
 21
-0.1175755076535945
 31
0.0
210
-0.0000000000000001
220
0.0
230
1.0
 40
0.4082482904638633
 41
1.107148717794047
 42
2.677945044589014
  0
LINE
  5
206
330
1D7
100
AcDbEntity
  8
0
  6
Continuous
 62
     7
100
AcDbLine
 10
272.9381828950853
 20
86.18343970848318
 30
0.0
 11
272.9381828950853
 21
85.562687476644
 31
0.0
  0
ELLIPSE
  5
207
330
1D7
100
AcDbEntity
  8
0
  6
Continuous
 62
     7
100
AcDbEllipse
 10
273.0276256141852
 20
85.48965780230998
 30
0.0
 11
-0.0399999999999845
 21
0.1959591794226528
 31
0.0
210
-0.0000000000000001
220
0.0
230
1.0
 40
0.4082482904638633
 41
1.10714871779407
 42
2.677945044588955
  0
LINE
  5
208
330
1D7
100
AcDbEntity
  8
0
  6
Continuous
 62
     7
100
AcDbLine
 10
273.0276256141852
 20
85.30708361647491
 30
0.0
 11
274.1009382433851
 21
84.43072752446665
 31
0.0
  0
ELLIPSE
  5
209
330
1D7
100
AcDbEntity
  8
0
  6
Continuous
 62
     7
100
AcDbEllipse
 10
274.1009382433851
 20
84.61330171030171
 30
0.0
 11
-0.0399999999999845
 21
0.1959591794226528
 31
0.0
210
-0.0000000000000001
220
0.0
230
1.0
 40
0.4082482904638633
 41
3.141592653589858
 42
4.248741371383894
  0
LINE
  5
20A
330
1D7
100
AcDbEntity
  8
0
  6
Continuous
 62
     7
100
AcDbLine
 10
274.1903809624851
 20
84.54027203596769
 30
0.0
 11
274.1903809624851
 21
96.40759411524628
 31
0.0
  0
ELLIPSE
  5
20B
330
1D7
100
AcDbEntity
  8
0
  6
Continuous
 62
     7
100
AcDbEllipse
 10
274.1009382433851
 20
96.48062378958032
 30
0.0
 11
-0.0399999999999845
 21
0.1959591794226528
 31
0.0
210
-0.0000000000000001
220
0.0
230
1.0
 40
0.4082482904638633
 41
4.248741371383866
 42
5.819537698178772
  0
LINE
  5
20C
330
1D7
100
AcDbEntity
  8
0
  6
Continuous
 62
     7
100
AcDbLine
 10
274.1009382433851
 20
96.66319797541538
 30
0.0
 11
273.0276256141852
 21
97.53955406742363
 31
0.0
  0
ELLIPSE
  5
20D
330
1D7
100
AcDbEntity
  8
0
  6
Continuous
 62
     7
100
AcDbEllipse
 10
273.0276256141852
 20
97.35697988158857
 30
0.0
 11
-0.0399999999999845
 21
0.1959591794226528
 31
0.0
210
-0.0000000000000001
220
0.0
230
1.0
 40
0.4082482904638633
 41
0.0000000000000367
 42
1.107148717794084
  0
LINE
  5
20E
330
1D7
100
AcDbEntity
  8
0
  6
Continuous
 62
     7
100
AcDbLine
 10
272.9381828950853
 20
97.43000955592259
 30
0.0
 11
272.9381828950853
 21
96.8092573240834
 31
0.0
  0
ELLIPSE
  5
20F
330
1D7
100
AcDbEntity
  8
0
  6
Continuous
 62
     7
100
AcDbEllipse
 10
272.8845172636253
 20
96.85307512868384
 30
0.0
 11
0.024000000000024
 21
-0.1175755076535945
 31
0.0
210
-0.0000000000000001
220
0.0
230
1.0
 40
0.4082482904638633
 41
5.819537698178804
 42
6.283185307179583
  0
LINE
  5
210
330
1D7
100
AcDbEntity
  8
0
  6
Continuous
 62
     7
100
AcDbLine
 10
272.8845172636253
 20
96.7435306171828
 30
0.0
 11
272.6698547377853
 21
96.91880183558446
 31
0.0
  0
ELLIPSE
  5
211
330
1D7
100
AcDbEntity
  8
0
  6
Continuous
 62
     7
100
AcDbEllipse
 10
272.6698547377853
 20
97.28395020725455
 30
0.0
 11
0.0800000000000245
 21
-0.3919183588453057
 31
0.0
210
-0.0000000000000001
220
0.0
230
1.0
 40
0.4082482904638633
 41
4.248741371383883
 42
5.819537698178796
  0
LINE
  5
212
330
1D7
100
AcDbEntity
  8
0
  6
Continuous
 62
     7
100
AcDbLine
 10
272.4909692995853
 20
97.43000955592261
 30
0.0
 11
272.4909692995853
 21
98.16030629926283
 31
0.0
  0
ELLIPSE
  5
213
330
1D7
100
AcDbEntity
  8
0
  6
Continuous
 62
     7
100
AcDbEllipse
 10
272.8487401759853
 20
97.86818760192673
 30
0.0
 11
0.1599999999999935
 21
-0.7838367176906253
 31
0.0
210
-0.0000000000000001
220
0.0
230
0.9999999999999998
 40
0.4082482904638633
 41
2.677945044588987
 42
3.141592653589803
  0
LINE
  5
214
330
1D7
100
AcDbEntity
  8
0
  6
Continuous
 62
     7
100
AcDbLine
 10
272.8487401759853
 20
98.59848434526696
 30
0.0
 11
275.710907187185
 21
96.26153476657826
 31
0.0
  0
ELLIPSE
  5
215
330
1D7
100
AcDbEntity
  8
0
  6
Continuous
 62
     7
100
AcDbEllipse
 10
275.710907187185
 20
95.53123802323803
 30
0.0
 11
0.1599999999999935
 21
-0.7838367176906253
 31
0.0
210
-0.0000000000000001
220
0.0
230
0.9999999999999998
 40
0.4082482904638633
 41
1.107148717794095
 42
2.677945044588989
  0
LINE
  5
216
330
1D7
100
AcDbEntity
  8
0
  6
Continuous
 62
     7
100
AcDbLine
 10
276.0686780635849
 20
95.23911932590193
 30
0.0
 11
276.0686780635849
 21
94.32624839672666
 31
0.0
  0
ELLIPSE
  5
217
330
1D7
100
AcDbEntity
  8
0
  6
Continuous
 62
     7
100
AcDbEllipse
 10
276.158120782685
 20
94.25321872239264
 30
0.0
 11
-0.0399999999999845
 21
0.1959591794226528
 31
0.0
210
-0.0000000000000001
220
0.0
230
1.0
 40
0.4082482904638633
 41
1.107148717794089
 42
2.677945044588985
  0
LINE
  5
218
330
1D7
100
AcDbEntity
  8
0
  6
Continuous
 62
     7
100
AcDbLine
 10
276.158120782685
 20
94.07064453655758
 30
0.0
 11
276.5516687467249
 21
93.74931396948788
 31
0.0
  0
ELLIPSE
  5
219
330
1D7
100
AcDbEntity
  8
0
  6
Continuous
 62
     7
100
AcDbEllipse
 10
276.5516687467249
 20
93.93188815532294
 30
0.0
 11
-0.0399999999999845
 21
0.1959591794226528
 31
0.0
210
-0.0000000000000001
220
0.0
230
1.0
 40
0.4082482904638633
 41
3.141592653589758
 42
4.248741371383848
  0
LINE
  5
21A
330
1D7
100
AcDbEntity
  8
0
  6
Continuous
 62
     7
100
AcDbLine
 10
276.6411114658248
 20
93.85885848098892
 30
0.0
 11
276.6411114658248
 21
94.26052168982606
 31
0.0
  0
ELLIPSE
  5
21B
330
1D7
100
AcDbEntity
  8
0
  6
Continuous
 62
     7
100
AcDbEllipse
 10
276.6947770972848
 20
94.21670388522562
 30
0.0
 11
-0.0239999999999685
 21
0.1175755076535945
 31
0.0
210
0.0000000000000001
220
0.0
230
1.0
 40
0.4082482904637876
 41
0.0
 42
1.10714871779402
  0
LINE
  5
21C
330
1D7
100
AcDbEntity
  8
0
  6
Continuous
 62
     7
100
AcDbLine
 10
276.7327244292069
 20
94.26317968538013
 30
0.0
 11
277.1253734486316
 21
93.14109164885303
 31
0.0
  0
ELLIPSE
  5
21D
330
1D7
100
AcDbEntity
  8
0
  6
Continuous
 62
     7
100
AcDbEllipse
 10
276.9988823422249
 20
92.98617231500474
 30
0.0
 11
0.0800000000000245
 21
-0.3919183588453057
 31
0.0
210
-0.0000000000000001
220
0.0
230
1.0
 40
0.4082482904638633
 41
1.107148717794087
 42
1.892546881191549
  0
LINE
  5
21E
330
1D7
100
AcDbEntity
  8
0
  6
Continuous
 62
     7
100
AcDbLine
 10
277.1777677804248
 20
92.8401129663367
 30
0.0
 11
277.1777677804248
 21
90.46297862445689
 31
0.0
  0
ELLIPSE
  5
21F
330
1D7
100
AcDbEntity
  8
0
  6
Continuous
 62
     7
100
AcDbEllipse
 10
277.0883250613248
 20
90.53600829879091
 30
0.0
 11
0.0399999999999845
 21
-0.1959591794226528
 31
0.0
210
-0.0000000000000001
220
0.0
230
1.0
 40
0.4082482904638633
 41
5.819537698178778
 42
6.283185307179585
  0
LINE
  5
220
330
1D7
100
AcDbEntity
  8
0
  6
Continuous
 62
     7
100
AcDbLine
 10
277.0883250613248
 20
90.35343411295585
 30
0.0
 11
276.7305541849249
 21
90.64555281029193
 31
0.0
  0
ELLIPSE
  5
221
330
1D7
100
AcDbEntity
  8
0
  6
Continuous
 62
     7
100
AcDbEllipse
 10
276.7305541849249
 20
90.828126996127
 30
0.0
 11
0.0399999999999845
 21
-0.1959591794226528
 31
0.0
210
-0.0000000000000001
220
0.0
230
1.0
 40
0.4082482904638633
 41
4.248741371383863
 42
5.819537698178775
  0
LINE
  5
222
330
1D7
100
AcDbEntity
  8
0
  6
Continuous
 62
     7
100
AcDbLine
 10
276.6411114658248
 20
90.90115667046102
 30
0.0
 11
276.6411114658248
 21
92.39826499430847
 31
0.0
  0
ELLIPSE
  5
223
330
1D7
100
AcDbEntity
  8
0
  6
Continuous
 62
     7
100
AcDbEllipse
 10
276.4622260276249
 20
92.54432434297653
 30
0.0
 11
-0.0800000000000245
 21
0.3919183588453057
 31
0.0
210
-0.0000000000000001
220
0.0
230
1.0
 40
0.4082482904638633
 41
4.248741371383903
 42
5.819537698178781
  0
LINE
  5
224
330
1D7
100
AcDbEntity
  8
0
  6
Continuous
 62
     7
100
AcDbLine
 10
276.4622260276249
 20
92.90947271464663
 30
0.0
 11
276.1044099769822
 21
93.20162829659748
 31
0.0
  0
ELLIPSE
  5
225
330
1D7
100
AcDbEntity
  8
0
  6
Continuous
 62
     7
100
AcDbEllipse
 10
276.1044099769821
 20
93.01905411076242
 30
0.0
 11
-0.0399999999999845
 21
0.1959591794226528
 31
0.0
210
-0.0000000000000001
220
0.0
230
1.0
 40
0.4082482904638633
 41
0.0
 42
0.3217505543966692
  0
LINE
  5
226
330
1D7
100
AcDbEntity
  8
0
  6
Continuous
 62
     7
100
AcDbLine
 10
276.0411644237788
 20
93.19979333358544
 30
0.0
 11
275.5582189148817
 21
92.60830829840202
 31
0.0
  0
LINE
  5
227
330
1D7
100
AcDbEntity
  8
0
  6
Continuous
 62
     9
100
AcDbLine
 10
384.0639873491968
 20
116.1720819855867
 30
0.0
 11
276.7327244292069
 21
94.26317968538013
 31
0.0
  0
LINE
  5
228
330
1D7
100
AcDbEntity
  8
0
  6
Continuous
 62
     7
100
AcDbLine
 10
384.0639873491968
 20
116.1720819855867
 30
0.0
 11
384.4566363686215
 21
115.0499939490597
 31
0.0
  0
LINE
  5
229
330
1D7
100
AcDbEntity
  8
0
  6
Continuous
 62
     9
100
AcDbLine
 10
277.1253734486316
 20
93.14109164885303
 30
0.0
 11
384.4566363686215
 21
115.0499939490597
 31
0.0
  0
LINE
  5
22A
330
1D7
100
AcDbEntity
  8
0
  6
Continuous
 62
     9
100
AcDbLine
 10
384.5090307004148
 20
114.7490152665433
 30
0.0
 11
277.1777677804248
 21
92.8401129663367
 31
0.0
  0
ELLIPSE
  5
22B
330
1D7
100
AcDbEntity
  8
0
  6
Continuous
 62
     7
100
AcDbEllipse
 10
384.3301452622148
 20
114.8950746152114
 30
0.0
 11
-0.0800000000000245
 21
0.3919183588453057
 31
0.0
210
-0.0000000000000001
220
0.0
230
1.0
 40
0.4082482904638633
 41
4.248741371383867
 42
5.034139534781324
  0
LINE
  5
22C
330
1D7
100
AcDbEntity
  8
0
  6
Continuous
 62
     9
100
AcDbLine
 10
277.1777677804248
 20
90.46297862445689
 30
0.0
 11
384.5090307004148
 21
112.3718809246635
 31
0.0
  0
LINE
  5
22D
330
1D7
100
AcDbEntity
  8
0
  6
Continuous
 62
     7
100
AcDbLine
 10
384.5090307004148
 20
114.7490152665433
 30
0.0
 11
384.5090307004148
 21
112.3718809246635
 31
0.0
  0
ELLIPSE
  5
22E
330
1D7
100
AcDbEntity
  8
0
  6
Continuous
 62
     7
100
AcDbEllipse
 10
384.0260400172748
 20
116.1256061854323
 30
0.0
 11
-0.024000000000024
 21
0.1175755076535945
 31
0.0
210
-0.0000000000000001
220
0.0
230
1.0
 40
0.408248290463863
 41
5.034139534781381
 42
6.28318530717958
  0
ELLIPSE
  5
22F
330
1D7
100
AcDbEntity
  8
0
  6
Continuous
 62
     7
100
AcDbEllipse
 10
276.6947770972848
 20
94.21670388522562
 30
0.0
 11
-0.024000000000024
 21
0.1175755076535945
 31
0.0
210
-0.0000000000000001
220
0.0
230
1.0
 40
0.408248290463863
 41
5.034139534781374
 42
6.283185307179583
  0
ELLIPSE
  5
230
330
1D7
100
AcDbEntity
  8
0
  6
Continuous
 62
     7
100
AcDbEllipse
 10
276.5516687467249
 20
93.93188815532294
 30
0.0
 11
-0.0399999999999845
 21
0.1959591794226528
 31
0.0
210
-0.0000000000000001
220
0.0
230
1.0
 40
0.4082482904638633
 41
2.677945044588951
 42
3.141592653589758
  0
LINE
  5
231
330
1D7
100
AcDbEntity
  8
0
  6
Continuous
 62
     9
100
AcDbLine
 10
276.5516687467249
 20
93.74931396948788
 30
0.0
 11
276.6232229220049
 21
93.76391990435468
 31
0.0
  0
LINE
  5
232
330
1D7
100
AcDbEntity
  8
0
  6
Continuous
 62
     9
100
AcDbLine
 10
276.6411114658248
 20
94.16923459690851
 30
0.0
 11
276.158120782685
 21
94.07064453655758
 31
0.0
  0
LINE
  5
233
330
1D7
100
AcDbEntity
  8
0
  6
Continuous
 62
     9
100
AcDbLine
 10
275.710907187185
 20
96.26153476657824
 30
0.0
 11
383.0421701071749
 21
118.1704370667849
 31
0.0
  0
ELLIPSE
  5
234
330
1D7
100
AcDbEntity
  8
0
  6
Continuous
 62
     7
100
AcDbEllipse
 10
383.0421701071749
 20
117.4401403234446
 30
0.0
 11
-0.1599999999999935
 21
0.7838367176906114
 31
0.0
210
-0.0000000000000001
220
0.0
230
1.0
 40
0.4082482904638633
 41
4.248741371383874
 42
5.81953769817878
  0
LINE
  5
235
330
1D7
100
AcDbEntity
  8
0
  6
Continuous
 62
     9
100
AcDbLine
 10
383.3999409835748
 20
117.1480216261086
 30
0.0
 11
276.0686780635849
 21
95.23911932590193
 31
0.0
  0
ELLIPSE
  5
236
330
1D7
100
AcDbEntity
  8
0
  6
Continuous
 62
     7
100
AcDbEllipse
 10
277.0883250613248
 20
90.53600829879091
 30
0.0
 11
0.0399999999999845
 21
-0.1959591794226528
 31
0.0
210
-0.0000000000000001
220
0.0
230
1.0
 40
0.4082482904638631
 41
6.283185307179586
 42
7.390334024973658
  0
ELLIPSE
  5
237
330
1D7
100
AcDbEntity
  8
0
  6
Continuous
 62
     7
100
AcDbEllipse
 10
384.4195879813148
 20
112.4449105989975
 30
0.0
 11
-0.0399999999999845
 21
0.1959591794226528
 31
0.0
210
-0.0000000000000001
220
0.0
230
1.0
 40
0.4082482904638633
 41
3.141592653589793
 42
4.248741371383859
  0
LINE
  5
238
330
1D7
100
AcDbEntity
  8
0
  6
Continuous
 62
     7
100
AcDbLine
 10
383.3999409835748
 20
117.1480216261086
 30
0.0
 11
383.3999409835748
 21
116.2351506969333
 31
0.0
  0
LINE
  5
239
330
1D7
100
AcDbEntity
  8
0
  6
Continuous
 62
     9
100
AcDbLine
 10
276.0686780635849
 20
94.32624839672666
 30
0.0
 11
383.3999409835748
 21
116.2351506969333
 31
0.0
  0
ELLIPSE
  5
23A
330
1D7
100
AcDbEntity
  8
0
  6
Continuous
 62
     7
100
AcDbEllipse
 10
383.4893837026748
 20
116.1621210225993
 30
0.0
 11
0.0399999999999845
 21
-0.1959591794226528
 31
0.0
210
-0.0000000000000001
220
0.0
230
1.0
 40
0.4082482904638633
 41
4.248741371383899
 42
4.828189368365681
  0
LINE
  5
23B
330
1D7
100
AcDbEntity
  8
0
  6
Continuous
 62
     9
100
AcDbLine
 10
380.1800030959752
 20
120.5073866454736
 30
0.0
 11
272.8487401759853
 21
98.59848434526696
 31
0.0
  0
LINE
  5
23C
330
1D7
100
AcDbEntity
  8
0
  6
Continuous
 62
     7
100
AcDbLine
 10
380.1800030959752
 20
120.5073866454736
 30
0.0
 11
383.0421701071749
 21
118.1704370667849
 31
0.0
  0
ELLIPSE
  5
23D
330
1D7
100
AcDbEntity
  8
0
  6
Continuous
 62
     7
100
AcDbEllipse
 10
276.1044099769821
 20
93.01905411076242
 30
0.0
 11
-0.0399999999999845
 21
0.1959591794226528
 31
0.0
210
-0.0000000000000001
220
0.0
230
1.0
 40
0.4082482904638633
 41
5.819537698178778
 42
6.283185307179586
  0
LINE
  5
23E
330
1D7
100
AcDbEntity
  8
0
  6
Continuous
 62
     9
100
AcDbLine
 10
276.0917608663415
 20
93.21012128917534
 30
0.0
 11
276.0411644237788
 21
93.19979333358544
 31
0.0
  0
LINE
  5
23F
330
1D7
100
AcDbEntity
  8
0
  6
Continuous
 62
     9
100
AcDbLine
 10
275.5582189148817
 20
92.60830829840202
 30
0.0
 11
276.5404676963308
 21
92.80880899132043
 31
0.0
  0
LINE
  5
240
330
1D7
100
AcDbEntity
  8
0
  6
Continuous
 62
     9
100
AcDbLine
 10
384.5090307004147
 20
107.6979817672861
 30
0.0
 11
277.1777677804248
 21
85.78907946707948
 31
0.0
  0
LINE
  5
241
330
1D7
100
AcDbEntity
  8
0
  6
Continuous
 62
     9
100
AcDbLine
 10
277.0883250613248
 20
86.04468332724856
 30
0.0
 11
384.4195879813147
 21
107.9535856274552
 31
0.0
  0
ELLIPSE
  5
242
330
1D7
100
AcDbEntity
  8
0
  6
Continuous
 62
     7
100
AcDbEllipse
 10
384.4195879813148
 20
107.7710114416201
 30
0.0
 11
-0.04000000000004
 21
0.1959591794226528
 31
0.0
210
-0.0000000000000001
220
0.0
230
1.0
 40
0.408248290463818
 41
4.248741371383776
 42
5.819537698178715
  0
LINE
  5
243
330
1D7
100
AcDbEntity
  8
0
  6
Continuous
 62
     7
100
AcDbLine
 10
384.5090307004147
 20
107.6979817672861
 30
0.0
 11
384.5090307004147
 21
105.3208474254063
 31
0.0
  0
LINE
  5
244
330
1D7
100
AcDbEntity
  8
0
  6
Continuous
 62
     9
100
AcDbLine
 10
277.1777677804248
 20
83.41194512519967
 30
0.0
 11
384.5090307004147
 21
105.3208474254063
 31
0.0
  0
LINE
  5
245
330
1D7
100
AcDbEntity
  8
0
  6
Continuous
 62
     9
100
AcDbLine
 10
384.0618171049148
 20
108.2457043247913
 30
0.0
 11
276.7305541849249
 21
86.33680202458464
 31
0.0
  0
LINE
  5
246
330
1D7
100
AcDbEntity
  8
0
  6
Continuous
 62
     7
100
AcDbLine
 10
384.0618171049148
 20
108.2457043247913
 30
0.0
 11
384.4195879813148
 21
107.9535856274552
 31
0.0
  0
LINE
  5
247
330
1D7
100
AcDbEntity
  8
0
  6
Continuous
 62
     9
100
AcDbLine
 10
276.5829819410814
 20
92.7151251007975
 30
0.0
 11
275.532021748985
 21
92.50059874991304
 31
0.0
  0
LINE
  5
248
330
1D7
100
AcDbEntity
  8
0
  6
Continuous
 62
     9
100
AcDbLine
 10
275.532021748985
 20
86.03738035981514
 30
0.0
 11
276.6431307397701
 21
86.26418453281868
 31
0.0
  0
LINE
  5
249
330
1D7
100
AcDbEntity
  8
0
  6
Continuous
 62
     7
100
AcDbLine
 10
382.8632846689749
 20
111.9231073704126
 30
0.0
 11
382.8632846689749
 21
108.0226048751692
 31
0.0
  0
ELLIPSE
  5
24A
330
1D7
100
AcDbEntity
  8
0
  6
Continuous
 62
     7
100
AcDbEllipse
 10
364.9747408489766
 20
107.7271936370197
 30
0.0
 11
-0.9803060746522149
 21
-1.200624837324304
 31
-0.0000000000000001
210
0.0
220
0.0
230
0.9999999999999998
 40
0.8164965809277262
 41
5.102828726355483
 42
8.639379797371933
  0
ELLIPSE
  5
24B
330
1D7
100
AcDbEntity
  8
0
  6
Continuous
 62
     7
100
AcDbEllipse
 10
364.9747408489766
 20
107.7271936370197
 30
0.0
 11
-0.9803060746522149
 21
-1.200624837324304
 31
-0.0000000000000001
210
0.0
220
0.0
230
0.9999999999999998
 40
0.8164965809277262
 41
2.356194490192348
 42
2.751152907619007
  0
ELLIPSE
  5
24C
330
1D7
100
AcDbEntity
  8
0
  6
Continuous
 62
     7
100
AcDbEllipse
 10
293.4205655689833
 20
93.1212587702153
 30
0.0
 11
-0.9803060746522149
 21
-1.200624837324304
 31
-0.0000000000000001
210
0.0
220
0.0
230
0.9999999999999998
 40
0.8164965809277262
 41
5.102828726355481
 42
8.63937979737193
  0
ELLIPSE
  5
24D
330
1D7
100
AcDbEntity
  8
0
  6
Continuous
 62
     7
100
AcDbEllipse
 10
293.4205655689833
 20
93.1212587702153
 30
0.0
 11
-0.9803060746522149
 21
-1.200624837324304
 31
-0.0000000000000001
210
0.0
220
0.0
230
0.9999999999999998
 40
0.8164965809277262
 41
2.356194490192343
 42
2.751152907618999
  0
ELLIPSE
  5
24E
330
1D7
100
AcDbEntity
  8
0
  6
Continuous
 62
     7
100
AcDbEllipse
 10
276.7305541849249
 20
86.15422783874958
 30
0.0
 11
0.0399999999999845
 21
-0.1959591794226528
 31
0.0
210
-0.0000000000000001
220
0.0
230
1.0
 40
0.4082482904638631
 41
3.141592653589755
 42
4.248741371383868
  0
ELLIPSE
  5
24F
330
1D7
100
AcDbEntity
  8
0
  6
Continuous
 62
     7
100
AcDbEllipse
 10
384.0618171049148
 20
108.0631301389562
 30
0.0
 11
-0.0399999999999845
 21
0.1959591794226528
 31
0.0
210
-0.0000000000000001
220
0.0
230
1.0
 40
0.4082482904638633
 41
5.819537698178776
 42
6.283185307179586
  0
ELLIPSE
  5
250
330
1D7
100
AcDbEntity
  8
0
  6
Continuous
 62
     7
100
AcDbEllipse
 10
384.3301452622148
 20
105.4669067740743
 30
0.0
 11
-0.079999999999969
 21
0.3919183588453057
 31
0.0
210
-0.0000000000000001
220
-0.0000000000000001
230
1.0
 40
0.408248290463818
 41
3.463343207986515
 42
4.248741371383895
  0
LINE
  5
251
330
1D7
100
AcDbEntity
  8
0
  6
Continuous
 62
     9
100
AcDbLine
 10
384.4566363686215
 20
105.1054283284283
 30
0.0
 11
277.1253734486316
 21
83.19652602822168
 31
0.0
  0
LINE
  5
252
330
1D7
100
AcDbEntity
  8
0
  6
Continuous
 62
     9
100
AcDbLine
 10
276.7327244292069
 20
82.71563115542436
 30
0.0
 11
384.0639873491968
 21
104.624533455631
 31
0.0
  0
LINE
  5
253
330
1D7
100
AcDbEntity
  8
0
  6
Continuous
 62
     7
100
AcDbLine
 10
384.4566363686215
 20
105.1054283284283
 30
0.0
 11
384.0639873491968
 21
104.624533455631
 31
0.0
  0
ELLIPSE
  5
254
330
1D7
100
AcDbEntity
  8
0
  6
Continuous
 62
     7
100
AcDbEllipse
 10
276.4622260276249
 20
84.91272337507121
 30
0.0
 11
-0.0800000000000245
 21
0.3919183588453057
 31
0.0
210
-0.0000000000000001
220
0.0
230
1.0
 40
0.4082482904638633
 41
2.677945044588989
 42
3.141592653589827
  0
LINE
  5
255
330
1D7
100
AcDbEntity
  8
0
  6
Continuous
 62
     9
100
AcDbLine
 10
276.4622260276249
 20
84.54757500340109
 30
0.0
 11
276.6053343781849
 21
84.57678687313471
 31
0.0
  0
LINE
  5
256
330
1D7
100
AcDbEntity
  8
0
  6
Continuous
 62
     9
100
AcDbLine
 10
276.6411114658249
 20
85.16832723524029
 30
0.0
 11
275.889792625385
 21
85.01496491913883
 31
0.0
  0
ELLIPSE
  5
257
330
1D7
100
AcDbEntity
  8
0
  6
Continuous
 62
     7
100
AcDbEllipse
 10
276.6947770972849
 20
82.82407468911817
 30
0.0
 11
-0.024000000000024
 21
0.1175755076535945
 31
0.0
210
-0.0000000000000001
220
0.0
230
1.0
 40
0.4082482904638633
 41
1.107148717794053
 42
3.141592653589909
  0
ELLIPSE
  5
258
330
1D7
100
AcDbEntity
  8
0
  6
Continuous
 62
     7
100
AcDbEllipse
 10
384.0260400172748
 20
104.7329769893248
 30
0.0
 11
-0.024000000000024
 21
0.1175755076535945
 31
0.0
210
-0.0000000000000001
220
0.0
230
1.0
 40
0.40824829046389
 41
3.141592653589733
 42
3.46334320798654
  0
ELLIPSE
  5
259
330
1D7
100
AcDbEntity
  8
0
  6
Continuous
 62
     7
100
AcDbEllipse
 10
275.8897926253849
 20
83.37179724662334
 30
0.0
 11
-0.1599999999999935
 21
0.7838367176906253
 31
0.0
210
-0.0000000000000001
220
0.0
230
0.9999999999999998
 40
0.4082482904638633
 41
5.819537698178781
 42
6.283185307179586
  0
LINE
  5
25A
330
1D7
100
AcDbEntity
  8
0
  6
Continuous
 62
     9
100
AcDbLine
 10
276.2475635017849
 20
83.80997529262748
 30
0.0
 11
275.532021748985
 21
83.66391594395942
 31
0.0
  0
ELLIPSE
  5
25B
330
1D7
100
AcDbEntity
  8
0
  6
Continuous
 62
     7
100
AcDbEllipse
 10
380.1800030959752
 20
119.7770899021334
 30
0.0
 11
-0.1599999999999935
 21
0.7838367176906253
 31
0.0
210
-0.0000000000000001
220
0.0
230
0.9999999999999998
 40
0.408248290463863
 41
5.819537698178781
 42
6.283185307179586
  0
ELLIPSE
  5
25C
330
1D7
100
AcDbEntity
  8
0
  6
Continuous
 62
     7
100
AcDbEllipse
 10
272.8487401759853
 20
97.86818760192673
 30
0.0
 11
0.1599999999999935
 21
-0.7838367176906253
 31
0.0
210
-0.0000000000000001
220
0.0
230
0.9999999999999998
 40
0.4082482904638632
 41
3.141592653589803
 42
4.248741371383887
  0
ELLIPSE
  5
25D
330
1D7
100
AcDbEntity
  8
0
  6
Continuous
 62
     7
100
AcDbEllipse
 10
273.0276256141852
 20
97.35697988158857
 30
0.0
 11
-0.0399999999999845
 21
0.1959591794226528
 31
0.0
210
-0.0000000000000001
220
0.0
230
1.0
 40
0.408248290463863
 41
5.819537698178745
 42
6.283185307179621
  0
LINE
  5
25E
330
1D7
100
AcDbEntity
  8
0
  6
Continuous
 62
     9
100
AcDbLine
 10
273.1170683332852
 20
97.46652439308961
 30
0.0
 11
272.9381828950852
 21
97.43000955592259
 31
0.0
  0
LINE
  5
25F
330
1D7
100
AcDbEntity
  8
0
  6
Continuous
 62
     9
100
AcDbLine
 10
272.9381828950853
 20
96.8092573240834
 30
0.0
 11
273.7252788231652
 21
96.96992260761826
 31
0.0
  0
ELLIPSE
  5
260
330
1D7
100
AcDbEntity
  8
0
  6
Continuous
 62
     7
100
AcDbEllipse
 10
272.8845172636253
 20
96.85307512868384
 30
0.0
 11
0.024000000000024
 21
-0.1175755076535945
 31
0.0
210
-0.0000000000000001
220
0.0
230
1.0
 40
0.4082482904638633
 41
6.283185307179585
 42
7.390334024973639
  0
LINE
  5
261
330
1D7
100
AcDbEntity
  8
0
  6
Continuous
 62
     7
100
AcDbLine
 10
382.8632846689749
 20
104.3731560606001
 30
0.0
 11
382.8632846689749
 21
95.85987155774112
 31
0.0
  0
LINE
  5
262
330
1D7
100
AcDbEntity
  8
0
  6
Continuous
 62
     9
100
AcDbLine
 10
275.532021748985
 20
73.95096925753446
 30
0.0
 11
382.8632846689749
 21
95.85987155774112
 31
0.0
  0
LINE
  5
263
330
1D7
100
AcDbEntity
  8
0
  6
Continuous
 62
     9
100
AcDbLine
 10
276.8736625354849
 20
72.49037577085402
 30
0.0
 11
384.2049254554747
 21
94.39927807106068
 31
0.0
  0
ELLIPSE
  5
264
330
1D7
100
AcDbEntity
  8
0
  6
Continuous
 62
     7
100
AcDbEllipse
 10
384.2049254554748
 20
94.03412969939056
 30
0.0
 11
-0.0800000000000245
 21
0.3919183588453057
 31
0.0
210
-0.0000000000000001
220
0.0
230
1.0
 40
0.4082482904638633
 41
4.248741371383863
 42
5.819537698178778
  0
LINE
  5
265
330
1D7
100
AcDbEntity
  8
0
  6
Continuous
 62
     9
100
AcDbLine
 10
384.3838108936748
 20
93.88807035072252
 30
0.0
 11
277.0525479736849
 21
71.97916805051587
 31
0.0
  0
LINE
  5
266
330
1D7
100
AcDbEntity
  8
0
  6
Continuous
 62
     9
100
AcDbLine
 10
277.0525479736849
 20
62.41228071275896
 30
0.0
 11
384.3838108936748
 21
84.32118301296561
 31
0.0
  0
LINE
  5
267
330
1D7
100
AcDbEntity
  8
0
  6
Continuous
 62
     7
100
AcDbLine
 10
384.3838108936748
 20
93.88807035072252
 30
0.0
 11
384.3838108936748
 21
84.32118301296561
 31
0.0
  0
ELLIPSE
  5
268
330
1D7
100
AcDbEntity
  8
0
  6
Continuous
 62
     7
100
AcDbEllipse
 10
366.4952670736764
 20
86.03738035981514
 30
0.0
 11
-1.010663940189837
 21
-1.237805477447895
 31
-0.0000000000000001
210
0.0
220
0.0
230
0.9999999999999996
 40
0.816496580927726
 41
0.0
 42
6.283185307179586
  0
ELLIPSE
  5
269
330
1D7
100
AcDbEntity
  8
0
  6
Continuous
 62
     7
100
AcDbEllipse
 10
294.9410917936831
 20
71.43144549301069
 30
0.0
 11
-1.010663940189837
 21
-1.237805477447895
 31
-0.0000000000000001
210
0.0
220
0.0
230
0.9999999999999996
 40
0.816496580927726
 41
0.0
 42
6.283185307179586
  0
LINE
  5
26A
330
1D7
100
AcDbEntity
  8
0
  6
Continuous
 62
     9
100
AcDbLine
 10
383.0421701071749
 20
95.34866383740297
 30
0.0
 11
275.710907187185
 21
73.4397615371963
 31
0.0
  0
LINE
  5
26B
330
1D7
100
AcDbEntity
  8
0
  6
Continuous
 62
     7
100
AcDbLine
 10
383.0421701071749
 20
95.34866383740297
 30
0.0
 11
384.2049254554748
 21
94.39927807106068
 31
0.0
  0
ELLIPSE
  5
26C
330
1D7
100
AcDbEntity
  8
0
  6
Continuous
 62
     7
100
AcDbEllipse
 10
274.1009382433851
 20
84.61330171030171
 30
0.0
 11
-0.0399999999999845
 21
0.1959591794226528
 31
0.0
210
-0.0000000000000001
220
0.0
230
1.0
 40
0.408248290463863
 41
2.677945044588985
 42
3.141592653589859
  0
LINE
  5
26D
330
1D7
100
AcDbEntity
  8
0
  6
Continuous
 62
     9
100
AcDbLine
 10
274.1009382433851
 20
84.43072752446665
 30
0.0
 11
274.1724924186651
 21
84.44533345933347
 31
0.0
  0
LINE
  5
26E
330
1D7
100
AcDbEntity
  8
0
  6
Continuous
 62
     9
100
AcDbLine
 10
274.1903809624852
 20
85.54443005806048
 30
0.0
 11
273.0276256141852
 21
85.30708361647491
 31
0.0
  0
ELLIPSE
  5
26F
330
1D7
100
AcDbEntity
  8
0
  6
Continuous
 62
     7
100
AcDbEllipse
 10
383.0421701071749
 20
95.71381220907307
 30
0.0
 11
0.0800000000000245
 21
-0.3919183588453057
 31
0.0
210
-0.0000000000000001
220
0.0
230
1.0
 40
0.4082482904638633
 41
4.248741371383894
 42
5.819537698178781
  0
ELLIPSE
  5
270
330
1D7
100
AcDbEntity
  8
0
  6
Continuous
 62
     7
100
AcDbEllipse
 10
293.3311228498833
 20
93.19428844454932
 30
0.0
 11
0.8538149682454363
 21
1.045705503476004
 31
0.0
210
0.0
220
0.0
230
1.0
 40
0.8164965809277262
 41
5.497787143782138
 42
5.87432025347471
  0
LINE
  5
271
330
1D7
100
AcDbEntity
  8
0
  6
Continuous
 62
     9
100
AcDbLine
 10
272.8845172636253
 20
86.33680202458462
 30
0.0
 11
274.1903809624851
 21
86.60336033590381
 31
0.0
  0
LINE
  5
272
330
1D7
100
AcDbEntity
  8
0
  6
Continuous
 62
     9
100
AcDbLine
 10
274.1903809624851
 20
86.43904356865226
 30
0.0
 11
272.9381828950852
 21
86.18343970848318
 31
0.0
  0
LINE
  5
273
330
1D7
100
AcDbEntity
  8
0
  6
Continuous
 62
     9
100
AcDbLine
 10
272.9381828950853
 20
85.562687476644
 30
0.0
 11
274.1903809624852
 21
85.81829133681308
 31
0.0
  0
LINE
  5
274
330
1D7
100
AcDbEntity
  8
0
  6
Continuous
 62
     9
100
AcDbLine
 10
274.1903809624851
 20
86.82244935890587
 30
0.0
 11
272.6698547377853
 21
86.51207324298628
 31
0.0
  0
ELLIPSE
  5
275
330
1D7
100
AcDbEntity
  8
0
  6
Continuous
 62
     7
100
AcDbEllipse
 10
292.1683675015834
 20
94.1436742108916
 30
0.0
 11
-0.8538149682454363
 21
-1.045705503476004
 31
0.0
210
0.0
220
0.0
230
1.0
 40
0.816496580927726
 41
0.7490148978781664
 42
1.718599964597645
  0
ELLIPSE
  5
276
330
1D7
100
AcDbEntity
  8
0
  6
Continuous
 62
     7
100
AcDbEllipse
 10
293.3311228498833
 20
93.19428844454932
 30
0.0
 11
0.8538149682454363
 21
1.045705503476004
 31
0.0
210
0.0
220
0.0
230
1.0
 40
0.8164965809277259
 41
3.141592653589793
 42
5.497787143782139
  0
ELLIPSE
  5
277
330
1D7
100
AcDbEntity
  8
0
  6
Continuous
 62
     7
100
AcDbEllipse
 10
293.3311228498833
 20
93.19428844454932
 30
0.0
 11
0.8538149682454363
 21
1.045705503476004
 31
0.0
210
0.0
220
0.0
230
1.0
 40
0.8164965809277259
 41
1.979661380499774
 42
3.141592653589793
  0
ELLIPSE
  5
278
330
1D7
100
AcDbEntity
  8
0
  6
Continuous
 62
     7
100
AcDbEllipse
 10
272.6698547377853
 20
86.14692487131618
 30
0.0
 11
0.0800000000000245
 21
-0.3919183588453057
 31
0.0
210
-0.0000000000000001
220
0.0
230
1.0
 40
0.4082482904638631
 41
3.141592653589812
 42
4.248741371383895
  0
ELLIPSE
  5
279
330
1D7
100
AcDbEntity
  8
0
  6
Continuous
 62
     7
100
AcDbEllipse
 10
274.9059227152851
 20
74.46217697787261
 30
0.0
 11
-0.0800000000000245
 21
0.3919183588453196
 31
0.0
210
-0.0000000000000001
220
0.0
230
1.0
 40
0.4082482904638633
 41
2.677945044588975
 42
3.141592653589762
  0
LINE
  5
27A
330
1D7
100
AcDbEntity
  8
0
  6
Continuous
 62
     9
100
AcDbLine
 10
274.9059227152851
 20
74.09702860620251
 30
0.0
 11
275.0490310658451
 21
74.12624047593611
 31
0.0
  0
LINE
  5
27B
330
1D7
100
AcDbEntity
  8
0
  6
Continuous
 62
     9
100
AcDbLine
 10
275.0848081534851
 20
75.32027565129739
 30
0.0
 11
273.7431673669852
 21
75.0464143725448
 31
0.0
  0
ELLIPSE
  5
27C
330
1D7
100
AcDbEntity
  8
0
  6
Continuous
 62
     7
100
AcDbEllipse
 10
276.9988823422249
 20
62.45609851735938
 30
0.0
 11
-0.024000000000024
 21
0.1175755076535945
 31
0.0
210
-0.0000000000000001
220
0.0
230
1.0
 40
0.4082482904638633
 41
2.677945044588958
 42
3.14159265358973
  0
ELLIPSE
  5
27D
330
1D7
100
AcDbEntity
  8
0
  6
Continuous
 62
     7
100
AcDbEllipse
 10
384.3301452622148
 20
84.36500081756603
 30
0.0
 11
-0.024000000000024
 21
0.1175755076535945
 31
0.0
210
-0.0000000000000001
220
0.0
230
1.0
 40
0.4082482904638633
 41
3.141592653589733
 42
4.248741371383814
  0
ELLIPSE
  5
27E
330
1D7
100
AcDbEntity
  8
0
  6
Continuous
 62
     7
100
AcDbEllipse
 10
274.1009382433851
 20
73.65885056019839
 30
0.0
 11
-0.0399999999999845
 21
0.1959591794226528
 31
0.0
210
-0.0000000000000001
220
0.0
230
1.0
 40
0.408248290463863
 41
5.819537698178823
 42
6.283185307179552
  0
LINE
  5
27F
330
1D7
100
AcDbEntity
  8
0
  6
Continuous
 62
     9
100
AcDbLine
 10
274.1903809624852
 20
73.76839507169943
 30
0.0
 11
274.0114955242852
 21
73.73188023453241
 31
0.0
  0
ELLIPSE
  5
280
330
1D7
100
AcDbEntity
  8
0
  6
Continuous
 62
     7
100
AcDbEllipse
 10
273.7431673669852
 20
74.68126600087469
 30
0.0
 11
0.0800000000000245
 21
-0.3919183588453057
 31
0.0
210
-0.0000000000000001
220
0.0
230
1.0
 40
0.4082482904638631
 41
3.141592653589758
 42
4.24874137138387
  0
LINE
  5
281
330
1D7
100
AcDbEntity
  8
0
  6
Continuous
 62
     9
100
AcDbLine
 10
274.0114955242852
 20
64.89528964011572
 30
0.0
 11
276.6053343781849
 21
65.42475477903737
 31
0.0
  0
ELLIPSE
  5
282
330
1D7
100
AcDbEntity
  8
0
  6
Continuous
 62
     7
100
AcDbEllipse
 10
294.8301828219992
 20
71.5220022891849
 30
0.0
 11
0.8538149682454363
 21
1.045705503476004
 31
0.0
210
0.0
220
0.0
230
1.0
 40
0.8164965809277262
 41
5.497787143782137
 42
6.283185307179586
  0
ELLIPSE
  5
283
330
1D7
100
AcDbEntity
  8
0
  6
Continuous
 62
     7
100
AcDbEllipse
 10
294.4938781981926
 20
71.7965938646731
 30
0.0
 11
0.8538149682454363
 21
1.045705503476004
 31
0.0
210
0.0
220
0.0
230
1.0
 40
0.8164965809277262
 41
3.339830844473203
 42
3.92699081698724
  0
ELLIPSE
  5
284
330
1D7
100
AcDbEntity
  8
0
  6
Continuous
 62
     7
100
AcDbEllipse
 10
294.8301828219992
 20
71.5220022891849
 30
0.0
 11
0.8538149682454363
 21
1.045705503476004
 31
0.0
210
-0.0000000000000001
220
0.0
230
1.0
 40
0.8164965809277255
 41
3.141592653589791
 42
5.497787143782137
  0
ELLIPSE
  5
285
330
1D7
100
AcDbEntity
  8
0
  6
Continuous
 62
     7
100
AcDbEllipse
 10
294.8301828219992
 20
71.5220022891849
 30
0.0
 11
0.8538149682454363
 21
1.045705503476004
 31
0.0
210
-0.0000000000000001
220
0.0
230
1.0
 40
0.8164965809277255
 41
6.283185307179586
 42
9.424777960769377
  0
ELLIPSE
  5
286
330
1D7
100
AcDbEntity
  8
0
  6
Continuous
 62
     7
100
AcDbEllipse
 10
294.4938781981926
 20
71.7965938646731
 30
0.0
 11
0.8538149682454363
 21
1.045705503476004
 31
0.0
210
0.0
220
0.0
230
1.0
 40
0.8164965809277262
 41
3.92699081698724
 42
6.084947116296189
  0
ELLIPSE
  5
287
330
1D7
100
AcDbEntity
  8
0
  6
Continuous
 62
     7
100
AcDbEllipse
 10
273.9578298928251
 20
64.93910744471612
 30
0.0
 11
-0.024000000000024
 21
0.1175755076535945
 31
0.0
210
-0.0000000000000001
220
0.0
230
1.0
 40
0.4082482904638633
 41
2.677945044589016
 42
3.1415926535899
  0
ELLIPSE
  5
288
330
1D7
100
AcDbEntity
  8
0
  6
Continuous
 62
     7
100
AcDbEllipse
 10
364.8852981298766
 20
107.8002233113537
 30
0.0
 11
0.8538149682454363
 21
1.045705503476004
 31
0.0
210
0.0
220
0.0
230
1.0
 40
0.8164965809277262
 41
5.497787143782137
 42
5.874320253474712
  0
ELLIPSE
  5
289
330
1D7
100
AcDbEntity
  8
0
  6
Continuous
 62
     7
100
AcDbEllipse
 10
363.7225427815767
 20
108.749609077696
 30
0.0
 11
-0.8538149682454363
 21
-1.045705503476004
 31
0.0
210
0.0
220
0.0
230
1.0
 40
0.816496580927726
 41
0.7490148978781802
 42
1.718599964597643
  0
ELLIPSE
  5
28A
330
1D7
100
AcDbEntity
  8
0
  6
Continuous
 62
     7
100
AcDbEllipse
 10
364.8852981298766
 20
107.8002233113537
 30
0.0
 11
0.8538149682454363
 21
1.045705503476004
 31
0.0
210
0.0
220
0.0
230
1.0
 40
0.8164965809277259
 41
3.141592653589791
 42
5.497787143782137
  0
ELLIPSE
  5
28B
330
1D7
100
AcDbEntity
  8
0
  6
Continuous
 62
     7
100
AcDbEllipse
 10
364.8852981298766
 20
107.8002233113537
 30
0.0
 11
0.8538149682454363
 21
1.045705503476004
 31
0.0
210
0.0
220
0.0
230
1.0
 40
0.8164965809277259
 41
1.979661380499771
 42
3.141592653589791
  0
ELLIPSE
  5
28C
330
1D7
100
AcDbEntity
  8
0
  6
Continuous
 62
     7
100
AcDbEllipse
 10
366.3843581019925
 20
86.12793715598932
 30
0.0
 11
0.8538149682454363
 21
1.045705503476004
 31
0.0
210
0.0
220
0.0
230
1.0
 40
0.8164965809277262
 41
5.497787143782137
 42
6.283185307179586
  0
ELLIPSE
  5
28D
330
1D7
100
AcDbEntity
  8
0
  6
Continuous
 62
     7
100
AcDbEllipse
 10
366.0480534781859
 20
86.40252873147755
 30
0.0
 11
0.8538149682454363
 21
1.045705503476004
 31
0.0
210
0.0
220
0.0
230
1.0
 40
0.8164965809277262
 41
3.339830844473123
 42
5.497787143782137
  0
ELLIPSE
  5
28E
330
1D7
100
AcDbEntity
  8
0
  6
Continuous
 62
     7
100
AcDbEllipse
 10
366.3843581019925
 20
86.12793715598932
 30
0.0
 11
0.8538149682454363
 21
1.045705503476004
 31
0.0
210
-0.0000000000000001
220
0.0
230
1.0
 40
0.8164965809277255
 41
3.141592653589793
 42
5.497787143782137
  0
ELLIPSE
  5
28F
330
1D7
100
AcDbEntity
  8
0
  6
Continuous
 62
     7
100
AcDbEllipse
 10
366.3843581019925
 20
86.12793715598932
 30
0.0
 11
0.8538149682454363
 21
1.045705503476004
 31
0.0
210
-0.0000000000000001
220
0.0
230
1.0
 40
0.8164965809277255
 41
6.283185307179585
 42
9.424777960769379
  0
ELLIPSE
  5
290
330
1D7
100
AcDbEntity
  8
0
  6
Continuous
 62
     7
100
AcDbEllipse
 10
366.0480534781859
 20
86.40252873147755
 30
0.0
 11
0.8538149682454363
 21
1.045705503476004
 31
0.0
210
0.0
220
0.0
230
1.0
 40
0.8164965809277262
 41
5.497787143782138
 42
6.084947116296307
  0
LINE
  5
291
330
1D7
100
AcDbEntity
  8
0
  6
Continuous
 62
     7
100
AcDbLine
 10
384.0020400172748
 20
116.2431816930859
 30
0.0
 11
276.6707770972848
 21
94.33427939287922
 31
0.0
  0
LINE
  5
292
330
1D7
100
AcDbEntity
  8
0
  6
Continuous
 62
     7
100
AcDbLine
 10
277.1283250613249
 20
90.34004911936825
 30
0.0
 11
384.4595879813148
 21
112.2489514195749
 31
0.0
  0
LINE
  5
293
330
1D7
100
AcDbEntity
  8
0
  6
Continuous
 62
     7
100
AcDbLine
 10
384.0218171049148
 20
108.2590893183789
 30
0.0
 11
276.6905541849249
 21
86.35018701817223
 31
0.0
  0
LINE
  5
294
330
1D7
100
AcDbEntity
  8
0
  6
Continuous
 62
     7
100
AcDbLine
 10
276.7187770972849
 20
82.70649918146457
 30
0.0
 11
384.0500400172747
 21
104.6154014816712
 31
0.0
  0
LINE
  5
295
330
1D7
100
AcDbEntity
  8
0
  6
Continuous
 62
     7
100
AcDbLine
 10
380.0200030959751
 20
120.560926619824
 30
0.0
 11
272.6887401759853
 21
98.65202431961735
 31
0.0
  0
LINE
  5
296
330
1D7
100
AcDbEntity
  8
0
  6
Continuous
 62
     7
100
AcDbLine
 10
272.9085172636252
 20
96.73549962103024
 30
0.0
 11
273.7916131917052
 21
96.91576082250735
 31
0.0
  0
LINE
  5
297
330
1D7
100
AcDbEntity
  8
0
  6
Continuous
 62
     7
100
AcDbLine
 10
274.1903809624851
 20
86.86554927769963
 30
0.0
 11
272.5898547377852
 21
86.53884323016148
 31
0.0
  0
LINE
  5
298
330
1D7
100
AcDbEntity
  8
0
  6
Continuous
 62
     7
100
AcDbLine
 10
277.0228823422248
 20
62.33852300970578
 30
0.0
 11
384.3541452622147
 21
84.24742530991244
 31
0.0
  0
LINE
  5
299
330
1D7
100
AcDbEntity
  8
0
  6
Continuous
 62
     7
100
AcDbLine
 10
275.084808153485
 20
75.36337557009114
 30
0.0
 11
273.6631673669851
 21
75.07318435972
 31
0.0
  0
LINE
  5
29A
330
1D7
100
AcDbEntity
  8
0
  6
Continuous
 62
     7
100
AcDbLine
 10
273.9818298928252
 20
64.82153193706254
 30
0.0
 11
276.6053343781849
 21
65.35705254764875
 31
0.0
  0
ENDBLK
  5
29B
330
1D7
100
AcDbEntity
  8
0
100
AcDbBlockEnd
  0
ENDSEC
  0
SECTION
  2
ENTITIES
  0
INSERT
  5
D8
330
A
100
AcDbEntity
  8
0
100
AcDbBlockReference
  2
AID329
 10
23.58810466288298
 20
-440.5878679656441
 30
0.0
 41
2.0
 42
2.0
 43
2.0
  0
LINE
  5
DA
330
A
100
AcDbEntity
  8
0
  6
CENTER
 62
     1
100
AcDbLine
 10
315.088104662883
 20
14.91213203435589
 30
0.0
 11
331.088104662883
 21
14.91213203435589
 31
0.0
  0
LINE
  5
DB
330
A
100
AcDbEntity
  8
0
  6
CENTER
 62
     1
100
AcDbLine
 10
315.7131046628829
 20
70.91213203435595
 30
0.0
 11
330.463104662883
 21
70.91213203435595
 31
0.0
  0
LINE
  5
DC
330
A
100
AcDbEntity
  8
0
  6
CENTER
 62
     1
100
AcDbLine
 10
323.088104662883
 20
63.53713203435595
 30
0.0
 11
323.088104662883
 21
78.28713203435601
 31
0.0
  0
LINE
  5
16D
330
A
100
AcDbEntity
  8
0
  6
CENTER
 62
     1
100
AcDbLine
 10
1.41213203435592
 20
70.912132034356
 30
0.0
 11
12.91213203435598
 21
70.912132034356
 31
0.0
  0
LINE
  5
16E
330
A
100
AcDbEntity
  8
0
  6
CENTER
 62
     1
100
AcDbLine
 10
14.91213203440873
 20
14.91213203435595
 30
0.0
 11
21.41213203435598
 21
14.91213203435595
 31
0.0
  0
LINE
  5
1D3
330
A
100
AcDbEntity
  8
0
  6
CENTER
 62
     1
100
AcDbLine
 10
115.213104662883
 20
70.91213203435595
 30
0.0
 11
130.9631046628829
 21
70.91213203435595
 31
0.0
  0
LINE
  5
1D4
330
A
100
AcDbEntity
  8
0
  6
CENTER
 62
     1
100
AcDbLine
 10
123.0881046628829
 20
63.037132034356
 30
0.0
 11
123.0881046628829
 21
78.78713203435589
 31
0.0
  0
LINE
  5
1D5
330
A
100
AcDbEntity
  8
0
  6
CENTER
 62
     1
100
AcDbLine
 10
115.0881046628829
 20
14.91213203435589
 30
0.0
 11
131.088104662883
 21
14.91213203435589
 31
0.0
  0
LINE
  5
1D6
330
A
100
AcDbEntity
  8
0
  6
CENTER
 62
     1
100
AcDbLine
 10
123.088104662883
 20
6.912132034355892
 30
0.0
 11
123.088104662883
 21
22.91213203435589
 31
0.0
  0
INSERT
  5
29C
330
A
100
AcDbEntity
  8
0
100
AcDbBlockReference
  2
AID843
 10
-420.053102854923
 20
-274.0133572538129
 30
0.0
 41
2.0
 42
2.0
 43
2.0
  0
LINE
  5
301
330
A
100
AcDbEntity
  8
0
  6
Continuous
 62
     9
370
     0
100
AcDbLine
 10
3.41213203435592
 20
74.91212702435607
 30
0.0
 11
10.91213203435597
 21
74.91212702435607
 31
0.0
  0
LINE
  5
302
330
A
100
AcDbEntity
  8
0
  6
Continuous
 62
     9
370
     0
100
AcDbLine
 10
10.91213203435597
 20
66.912137044356
 30
0.0
 11
3.41213203435592
 21
66.912137044356
 31
0.0
  0
LINE
  5
303
330
A
100
AcDbEntity
  8
0
  6
Continuous
 62
     9
370
     0
100
AcDbLine
 10
16.91213203440873
 20
18.91212702435595
 30
0.0
 11
19.41213203435592
 21
18.91212702435595
 31
0.0
  0
LINE
  5
304
330
A
100
AcDbEntity
  8
0
  6
Continuous
 62
     9
370
     0
100
AcDbLine
 10
19.41213203435592
 20
10.91213704435594
 30
0.0
 11
16.91213203440873
 21
10.91213704435594
 31
0.0
  0
LINE
  5
305
330
A
100
AcDbEntity
  8
0
  6
Continuous
 62
     7
370
     0
100
AcDbLine
 10
10.91213203435597
 20
74.787132034356
 30
0.0
 11
10.41213203435592
 21
74.287132034356
 31
0.0
  0
LINE
  5
306
330
A
100
AcDbEntity
  8
0
  6
Continuous
 62
     7
370
     0
100
AcDbLine
 10
10.41213203435592
 20
67.53713203435601
 30
0.0
 11
10.91213203435597
 21
67.03713203435595
 31
0.0
  0
LINE
  5
307
330
A
100
AcDbEntity
  8
0
  6
Continuous
 62
     7
370
     0
100
AcDbLine
 10
10.41213203435592
 20
74.287132034356
 30
0.0
 11
10.41213203435592
 21
67.53713203435601
 31
0.0
  0
LINE
  5
308
330
A
100
AcDbEntity
  8
0
  6
Continuous
 62
     7
370
     0
100
AcDbLine
 10
10.91213203435597
 20
67.03713203435595
 30
0.0
 11
10.91213203435597
 21
74.787132034356
 31
0.0
  0
LINE
  5
309
330
A
100
AcDbEntity
  8
0
  6
Continuous
 62
     7
370
     0
100
AcDbLine
 10
3.41213203435592
 20
67.03713203435595
 30
0.0
 11
3.912132034355977
 21
67.53713203435601
 31
0.0
  0
LINE
  5
30A
330
A
100
AcDbEntity
  8
0
  6
Continuous
 62
     7
370
     0
100
AcDbLine
 10
10.41213203435592
 20
67.53713203435601
 30
0.0
 11
3.912132034355977
 21
67.53713203435601
 31
0.0
  0
ARC
  5
30B
330
A
100
AcDbEntity
  8
0
  6
Continuous
 62
     7
370
     0
100
AcDbCircle
 10
12.91213203435598
 20
61.51213203435592
 30
0.0
 40
2.000000000000001
100
AcDbArc
 50
180.0
 51
270.0
  0
LINE
  5
30C
330
A
100
AcDbEntity
  8
0
  6
Continuous
 62
     7
370
     0
100
AcDbLine
 10
16.11213203435596
 20
59.51213203435592
 30
0.0
 11
12.91213203435598
 21
59.51213203435592
 31
0.0
  0
ARC
  5
30D
330
A
100
AcDbEntity
  8
0
  6
Continuous
 62
     7
370
     0
100
AcDbCircle
 10
16.11213203435596
 20
60.51213203435591
 30
0.0
 40
1.0
100
AcDbArc
 50
270.0
 51
0.0
  0
LINE
  5
30E
330
A
100
AcDbEntity
  8
0
  6
Continuous
 62
     7
370
     0
100
AcDbLine
 10
17.11213203435596
 20
64.51213203435592
 30
0.0
 11
17.11213203435596
 21
60.51213203435591
 31
0.0
  0
ARC
  5
30F
330
A
100
AcDbEntity
  8
0
  6
Continuous
 62
     7
370
     0
100
AcDbCircle
 10
17.61213203435602
 20
64.51213203435592
 30
0.0
 40
0.500000000000056
100
AcDbArc
 50
90.0
 51
180.0
  0
LINE
  5
310
330
A
100
AcDbEntity
  8
0
  6
Continuous
 62
     7
370
     0
100
AcDbLine
 10
19.61213203435602
 20
65.01213203435603
 30
0.0
 11
17.61213203435602
 21
65.01213203435603
 31
0.0
  0
ARC
  5
311
330
A
100
AcDbEntity
  8
0
  6
Continuous
 62
     7
370
     0
100
AcDbCircle
 10
19.61213203435602
 20
64.51213203435592
 30
0.0
 40
0.500000000000056
100
AcDbArc
 50
0.0
 51
90.0
  0
LINE
  5
312
330
A
100
AcDbEntity
  8
0
  6
Continuous
 62
     7
370
     0
100
AcDbLine
 10
20.11213203435596
 20
58.00208152801715
 30
0.0
 11
20.11213203435596
 21
64.51213203435592
 31
0.0
  0
ARC
  5
313
330
A
100
AcDbEntity
  8
0
  6
Continuous
 62
     7
370
     0
100
AcDbCircle
 10
19.11213203435596
 20
58.00208152801715
 30
0.0
 40
1.0
100
AcDbArc
 50
315.0
 51
0.0
  0
LINE
  5
314
330
A
100
AcDbEntity
  8
0
  6
Continuous
 62
     7
370
     0
100
AcDbLine
 10
19.81923881554257
 20
57.29497474683061
 30
0.0
 11
17.62426406871191
 21
55.10000000000005
 31
0.0
  0
ARC
  5
315
330
A
100
AcDbEntity
  8
0
  6
Continuous
 62
     7
370
     0
100
AcDbCircle
 10
17.41213203435592
 20
55.31213203435598
 30
0.0
 40
0.3000000000000028
100
AcDbArc
 50
179.9999999999984
 51
315.0000000000092
  0
LINE
  5
316
330
A
100
AcDbEntity
  8
0
  6
Continuous
 62
     7
370
     0
100
AcDbLine
 10
17.11213203435596
 20
56.51213203435602
 30
0.0
 11
17.11213203435596
 21
55.31213203435598
 31
0.0
  0
ARC
  5
317
330
A
100
AcDbEntity
  8
0
  6
Continuous
 62
     7
370
     0
100
AcDbCircle
 10
16.61213203435602
 20
56.51213203435602
 30
0.0
 40
0.5000000000000005
100
AcDbArc
 50
0.0
 51
90.0
  0
ARC
  5
318
330
A
100
AcDbEntity
  8
0
  6
Continuous
 62
     7
370
     0
100
AcDbCircle
 10
18.41213203435592
 20
26.41213203435595
 30
0.0
 40
1.0
100
AcDbArc
 50
0.0
 51
90.0
  0
LINE
  5
319
330
A
100
AcDbEntity
  8
0
  6
Continuous
 62
     7
370
     0
100
AcDbLine
 10
19.41213203435592
 20
18.90713203435595
 30
0.0
 11
18.79213203435597
 21
18.28713203435595
 31
0.0
  0
LINE
  5
31A
330
A
100
AcDbEntity
  8
0
  6
Continuous
 62
     7
370
     0
100
AcDbLine
 10
16.91213203440873
 20
18.28713203435595
 30
0.0
 11
18.79213203435597
 21
18.28713203435595
 31
0.0
  0
ARC
  5
31B
330
A
100
AcDbEntity
  8
0
  6
Continuous
 62
     7
370
     0
100
AcDbCircle
 10
0.9121320343559773
 20
26.41213203435598
 30
0.0
 40
1.0
100
AcDbArc
 50
90.0
 51
180.0
  0
ARC
  5
31C
330
A
100
AcDbEntity
  8
0
  6
Continuous
 62
     7
370
     0
100
AcDbCircle
 10
7.41213203435592
 20
28.41213203435595
 30
0.0
 40
1.0
100
AcDbArc
 50
270.0
 51
0.0
  0
ARC
  5
31D
330
A
100
AcDbEntity
  8
0
  6
Continuous
 62
     7
370
     0
100
AcDbCircle
 10
-5.087867965644022
 20
55.41213203435595
 30
0.0
 40
1.0
100
AcDbArc
 50
90.0
 51
180.0
  0
ARC
  5
31E
330
A
100
AcDbEntity
  8
0
  6
Continuous
 62
     7
370
     0
100
AcDbCircle
 10
2.912132034355977
 20
54.41213203435594
 30
0.0
 40
0.499999999999945
100
AcDbArc
 50
270.0
 51
0.0
  0
ARC
  5
31F
330
A
100
AcDbEntity
  8
0
  6
Continuous
 62
     7
370
     0
100
AcDbCircle
 10
-3.887867965644034
 20
56.112132034356
 30
0.0
 40
0.2999999999999669
100
AcDbArc
 50
0.0
 51
90.0
  0
ARC
  5
320
330
A
100
AcDbEntity
  8
0
  6
Continuous
 62
     7
370
     0
100
AcDbCircle
 10
11.91213203435598
 20
28.41213203435595
 30
0.0
 40
1.0
100
AcDbArc
 50
180.0
 51
270.0
  0
LINE
  5
321
330
A
100
AcDbEntity
  8
0
  6
Continuous
 62
     7
370
     0
100
AcDbLine
 10
2.112132034355965
 20
-0.0878679656440511
 30
0.0
 11
0.2121320343559319
 21
-0.0878679656440511
 31
0.0
  0
ARC
  5
322
330
A
100
AcDbEntity
  8
0
  6
Continuous
 62
     7
370
     0
100
AcDbCircle
 10
2.112132034355965
 20
0.2121320343559319
 30
0.0
 40
0.2999999999999669
100
AcDbArc
 50
270.0
 51
0.0
  0
LINE
  5
323
330
A
100
AcDbEntity
  8
0
  6
Continuous
 62
     7
370
     0
100
AcDbLine
 10
2.41213203435592
 20
24.41213203435598
 30
0.0
 11
2.41213203435592
 21
0.2121320343559319
 31
0.0
  0
LINE
  5
324
330
A
100
AcDbEntity
  8
0
  6
Continuous
 62
     7
370
     0
100
AcDbLine
 10
16.41213203435592
 20
24.91213203435598
 30
0.0
 11
2.912132034355977
 21
24.91213203435598
 31
0.0
  0
LINE
  5
325
330
A
100
AcDbEntity
  8
0
  6
Continuous
 62
     7
370
     0
100
AcDbLine
 10
16.91213203440873
 20
18.28713203435595
 30
0.0
 11
16.91213203440338
 21
18.91212702435595
 31
0.0
  0
LINE
  5
326
330
A
100
AcDbEntity
  8
0
  6
Continuous
 62
     7
370
     0
100
AcDbLine
 10
16.91213203435598
 20
18.91214702435596
 30
0.0
 11
16.91213203435598
 21
24.41213203435598
 31
0.0
  0
LINE
  5
327
330
A
100
AcDbEntity
  8
0
  6
Continuous
 62
     7
370
     0
100
AcDbLine
 10
19.41213203435592
 20
26.41213203435595
 30
0.0
 11
19.41213203435592
 21
18.91214702435596
 31
0.0
  0
LINE
  5
328
330
A
100
AcDbEntity
  8
0
  6
Continuous
 62
     7
370
     0
100
AcDbLine
 10
19.41213203435592
 20
18.91212702435595
 30
0.0
 11
19.41213203435592
 21
18.90713203435595
 31
0.0
  0
LINE
  5
329
330
A
100
AcDbEntity
  8
0
  6
Continuous
 62
     7
370
     0
100
AcDbLine
 10
11.91213203435598
 20
27.41213203435595
 30
0.0
 11
18.41213203435592
 21
27.41213203435595
 31
0.0
  0
LINE
  5
32A
330
A
100
AcDbEntity
  8
0
  6
Continuous
 62
     7
370
     0
100
AcDbLine
 10
3.41213203435592
 20
54.41213203435594
 30
0.0
 11
3.41213203435592
 21
66.91211704435599
 31
0.0
  0
LINE
  5
32B
330
A
100
AcDbEntity
  8
0
  6
Continuous
 62
     7
370
     0
100
AcDbLine
 10
3.41213203435592
 20
66.912137044356
 30
0.0
 11
3.41213203435592
 21
67.03713203435595
 31
0.0
  0
LINE
  5
32C
330
A
100
AcDbEntity
  8
0
  6
Continuous
 62
     7
370
     0
100
AcDbLine
 10
-3.587867965643965
 20
56.112132034356
 30
0.0
 11
-3.587867965643965
 21
54.41213203435594
 31
0.0
  0
LINE
  5
32D
330
A
100
AcDbEntity
  8
0
  6
Continuous
 62
     7
370
     0
100
AcDbLine
 10
-5.087867965644022
 20
56.41213203435595
 30
0.0
 11
-3.887867965644034
 21
56.41213203435595
 31
0.0
  0
LINE
  5
32E
330
A
100
AcDbEntity
  8
0
  6
Continuous
 62
     7
370
     0
100
AcDbLine
 10
-6.087867965644022
 20
53.41213203435595
 30
0.0
 11
-6.087867965644022
 21
55.41213203435595
 31
0.0
  0
LINE
  5
32F
330
A
100
AcDbEntity
  8
0
  6
Continuous
 62
     7
370
     0
100
AcDbLine
 10
6.41213203435592
 20
51.41213203435595
 30
0.0
 11
-4.087867965644022
 21
51.41213203435595
 31
0.0
  0
LINE
  5
330
330
A
100
AcDbEntity
  8
0
  6
Continuous
 62
     7
370
     0
100
AcDbLine
 10
8.41213203435592
 20
28.41213203435595
 30
0.0
 11
8.41213203435592
 21
49.41213203435594
 31
0.0
  0
LINE
  5
331
330
A
100
AcDbEntity
  8
0
  6
Continuous
 62
     7
370
     0
100
AcDbLine
 10
0.9121320343559773
 20
27.41213203435598
 30
0.0
 11
7.41213203435592
 21
27.41213203435595
 31
0.0
  0
LINE
  5
332
330
A
100
AcDbEntity
  8
0
  6
Continuous
 62
     7
370
     0
100
AcDbLine
 10
-0.0878679656440227
 20
0.2121320343559319
 30
0.0
 11
-0.0878679656440227
 21
26.41213203435598
 31
0.0
  0
ARC
  5
333
330
A
100
AcDbEntity
  8
0
  6
Continuous
 62
     7
370
     0
100
AcDbCircle
 10
0.2121320343559319
 20
0.2121320343559319
 30
0.0
 40
0.2999999999999669
100
AcDbArc
 50
180.0
 51
270.0
  0
LINE
  5
334
330
A
100
AcDbEntity
  8
0
  6
Continuous
 62
     7
370
     0
100
AcDbLine
 10
10.91213203435597
 20
55.01213203435603
 30
0.0
 11
10.91213203435597
 21
28.41213203435595
 31
0.0
  0
LINE
  5
335
330
A
100
AcDbEntity
  8
0
  6
Continuous
 62
     7
370
     0
100
AcDbLine
 10
10.91213203435597
 20
67.03713203435595
 30
0.0
 11
10.91213203435597
 21
66.912137044356
 31
0.0
  0
LINE
  5
336
330
A
100
AcDbEntity
  8
0
  6
Continuous
 62
     7
370
     0
100
AcDbLine
 10
10.91213203435597
 20
66.91211704435599
 30
0.0
 11
10.91213203435597
 21
61.51213203435592
 31
0.0
  0
ARC
  5
337
330
A
100
AcDbEntity
  8
0
  6
Continuous
 62
     7
370
     0
100
AcDbCircle
 10
-3.087867965644022
 20
54.41213203435594
 30
0.0
 40
0.5000000000000005
100
AcDbArc
 50
180.0
 51
270.0
  0
LINE
  5
338
330
A
100
AcDbEntity
  8
0
  6
Continuous
 62
     7
370
     0
100
AcDbLine
 10
-3.087867965644022
 20
53.91213203435595
 30
0.0
 11
2.912132034355977
 21
53.91213203435595
 31
0.0
  0
ARC
  5
339
330
A
100
AcDbEntity
  8
0
  6
Continuous
 62
     7
370
     0
100
AcDbCircle
 10
16.41213203435592
 20
24.41213203435598
 30
0.0
 40
0.5000000000000005
100
AcDbArc
 50
0.0
 51
90.0
  0
ARC
  5
33A
330
A
100
AcDbEntity
  8
0
  6
Continuous
 62
     7
370
     0
100
AcDbCircle
 10
2.912132034355977
 20
24.41213203435598
 30
0.0
 40
0.500000000000056
100
AcDbArc
 50
90.0
 51
180.0
  0
ARC
  5
33B
330
A
100
AcDbEntity
  8
0
  6
Continuous
 62
     7
370
     0
100
AcDbCircle
 10
6.41213203435592
 20
49.41213203435594
 30
0.0
 40
2.000000000000001
100
AcDbArc
 50
0.0
 51
90.0
  0
ARC
  5
33C
330
A
100
AcDbEntity
  8
0
  6
Continuous
 62
     7
370
     0
100
AcDbCircle
 10
-4.087867965644022
 20
53.41213203435595
 30
0.0
 40
2.000000000000001
100
AcDbArc
 50
180.0
 51
270.0
  0
ARC
  5
33D
330
A
100
AcDbEntity
  8
0
  6
Continuous
 62
     7
370
     0
100
AcDbCircle
 10
12.91213203435598
 20
55.01213203435603
 30
0.0
 40
2.000000000000001
100
AcDbArc
 50
90.0
 51
180.0
  0
LINE
  5
33E
330
A
100
AcDbEntity
  8
0
  6
Continuous
 62
     7
370
     0
100
AcDbLine
 10
12.91213203435598
 20
57.01213203435603
 30
0.0
 11
16.61213203435602
 21
57.01213203435603
 31
0.0
  0
LINE
  5
33F
330
A
100
AcDbEntity
  8
0
  6
Continuous
 62
     7
370
     0
100
AcDbLine
 10
18.79213203435597
 20
11.53713203435595
 30
0.0
 11
16.91213203440873
 21
11.53713203435595
 31
0.0
  0
LINE
  5
340
330
A
100
AcDbEntity
  8
0
  6
Continuous
 62
     7
370
     0
100
AcDbLine
 10
18.79213203435597
 20
11.53713203435595
 30
0.0
 11
19.41213203435592
 21
10.91713203435594
 31
0.0
  0
LINE
  5
341
330
A
100
AcDbEntity
  8
0
  6
Continuous
 62
     7
370
     0
100
AcDbLine
 10
16.91213203435598
 20
0.2121320343559319
 30
0.0
 11
16.91213203435598
 21
10.91211704435594
 31
0.0
  0
LINE
  5
342
330
A
100
AcDbEntity
  8
0
  6
Continuous
 62
     7
370
     0
100
AcDbLine
 10
16.91213203440583
 20
10.91213704435594
 30
0.0
 11
16.91213203440873
 21
11.53713203435595
 31
0.0
  0
ARC
  5
343
330
A
100
AcDbEntity
  8
0
  6
Continuous
 62
     7
370
     0
100
AcDbCircle
 10
17.21213203435593
 20
0.2121320343559319
 30
0.0
 40
0.2999999999999669
100
AcDbArc
 50
180.0
 51
270.0
  0
LINE
  5
344
330
A
100
AcDbEntity
  8
0
  6
Continuous
 62
     7
370
     0
100
AcDbLine
 10
19.11213203435596
 20
-0.0878679656440511
 30
0.0
 11
17.21213203435593
 21
-0.0878679656440511
 31
0.0
  0
ARC
  5
345
330
A
100
AcDbEntity
  8
0
  6
Continuous
 62
     7
370
     0
100
AcDbCircle
 10
19.11213203435596
 20
0.2121320343559319
 30
0.0
 40
0.2999999999999669
100
AcDbArc
 50
270.0
 51
0.0
  0
LINE
  5
346
330
A
100
AcDbEntity
  8
0
  6
Continuous
 62
     7
370
     0
100
AcDbLine
 10
19.41213203435592
 20
10.91713203435594
 30
0.0
 11
19.41213203435592
 21
10.91213704435594
 31
0.0
  0
LINE
  5
347
330
A
100
AcDbEntity
  8
0
  6
Continuous
 62
     7
370
     0
100
AcDbLine
 10
19.41213203435592
 20
10.91211704435594
 30
0.0
 11
19.41213203435592
 21
0.2121320343559319
 31
0.0
  0
LINE
  5
348
330
A
100
AcDbEntity
  8
0
  6
Continuous
 62
     7
370
     0
100
AcDbLine
 10
17.11213203435596
 20
86.51213203435597
 30
0.0
 11
17.11213203435596
 21
85.41213203435601
 31
0.0
  0
ARC
  5
349
330
A
100
AcDbEntity
  8
0
  6
Continuous
 62
     7
370
     0
100
AcDbCircle
 10
17.41213203435592
 20
86.51213203435597
 30
0.0
 40
0.2999999999999669
100
AcDbArc
 50
45.0
 51
180.0
  0
LINE
  5
34A
330
A
100
AcDbEntity
  8
0
  6
Continuous
 62
     7
370
     0
100
AcDbLine
 10
17.62426406871191
 20
86.72426406871196
 30
0.0
 11
19.81923881554257
 21
84.52928932188134
 31
0.0
  0
ARC
  5
34B
330
A
100
AcDbEntity
  8
0
  6
Continuous
 62
     7
370
     0
100
AcDbCircle
 10
19.11213203435596
 20
83.82218254069474
 30
0.0
 40
1.000000000000035
100
AcDbArc
 50
0.0
 51
45.0
  0
LINE
  5
34C
330
A
100
AcDbEntity
  8
0
  6
Continuous
 62
     7
370
     0
100
AcDbLine
 10
20.11213203435596
 20
77.31213203435598
 30
0.0
 11
20.11213203435596
 21
83.82218254069474
 31
0.0
  0
ARC
  5
34D
330
A
100
AcDbEntity
  8
0
  6
Continuous
 62
     7
370
     0
100
AcDbCircle
 10
19.61213203435602
 20
77.31213203435598
 30
0.0
 40
0.499999999999945
100
AcDbArc
 50
270.0
 51
0.0
  0
LINE
  5
34E
330
A
100
AcDbEntity
  8
0
  6
Continuous
 62
     7
370
     0
100
AcDbLine
 10
17.61213203435602
 20
76.81213203435593
 30
0.0
 11
19.61213203435602
 21
76.81213203435593
 31
0.0
  0
ARC
  5
34F
330
A
100
AcDbEntity
  8
0
  6
Continuous
 62
     7
370
     0
100
AcDbCircle
 10
17.61213203435602
 20
77.31213203435598
 30
0.0
 40
0.500000000000056
100
AcDbArc
 50
180.0
 51
270.0
  0
LINE
  5
350
330
A
100
AcDbEntity
  8
0
  6
Continuous
 62
     7
370
     0
100
AcDbLine
 10
17.11213203435596
 20
81.41213203435601
 30
0.0
 11
17.11213203435596
 21
77.31213203435598
 31
0.0
  0
ARC
  5
351
330
A
100
AcDbEntity
  8
0
  6
Continuous
 62
     7
370
     0
100
AcDbCircle
 10
16.11213203435596
 20
81.41213203435601
 30
0.0
 40
1.0
100
AcDbArc
 50
0.0
 51
90.0
  0
LINE
  5
352
330
A
100
AcDbEntity
  8
0
  6
Continuous
 62
     7
370
     0
100
AcDbLine
 10
14.11187950266185
 20
82.412132034356
 30
0.0
 11
16.11213203435596
 21
82.412132034356
 31
0.0
  0
ARC
  5
353
330
A
100
AcDbEntity
  8
0
  6
Continuous
 62
     7
370
     0
100
AcDbCircle
 10
14.11187950266185
 20
81.91213203435589
 30
0.0
 40
0.5000000000000178
100
AcDbArc
 50
90.0
 51
135.0
  0
LINE
  5
354
330
A
100
AcDbEntity
  8
0
  6
Continuous
 62
     7
370
     0
100
AcDbLine
 10
13.75832611206857
 20
82.26568542494922
 30
0.0
 11
11.05857864376275
 21
79.56593795664335
 31
0.0
  0
ARC
  5
355
330
A
100
AcDbEntity
  8
0
  6
Continuous
 62
     7
370
     0
100
AcDbCircle
 10
11.41213203435592
 20
79.21238456605024
 30
0.0
 40
0.499999999999945
100
AcDbArc
 50
135.0
 51
180.0
  0
LINE
  5
356
330
A
100
AcDbEntity
  8
0
  6
Continuous
 62
     7
370
     0
100
AcDbLine
 10
3.912132034355977
 20
74.287132034356
 30
0.0
 11
10.41213203435592
 21
74.287132034356
 31
0.0
  0
LINE
  5
357
330
A
100
AcDbEntity
  8
0
  6
Continuous
 62
     7
370
     0
100
AcDbLine
 10
3.912132034355977
 20
74.287132034356
 30
0.0
 11
3.41213203435592
 21
74.787132034356
 31
0.0
  0
ARC
  5
358
330
A
100
AcDbEntity
  8
0
  6
Continuous
 62
     7
370
     0
100
AcDbCircle
 10
2.912132034355977
 20
86.91213203435589
 30
0.0
 40
0.500000000000056
100
AcDbArc
 50
0.0
 51
90.0
  0
ARC
  5
359
330
A
100
AcDbEntity
  8
0
  6
Continuous
 62
     7
370
     0
100
AcDbCircle
 10
16.61213203435602
 20
85.41213203435601
 30
0.0
 40
0.499999999999945
100
AcDbArc
 50
270.0
 51
0.0
  0
ARC
  5
35A
330
A
100
AcDbEntity
  8
0
  6
Continuous
 62
     7
370
     0
100
AcDbCircle
 10
14.41213203435592
 20
85.41213203435601
 30
0.0
 40
0.500000000000056
100
AcDbArc
 50
180.0
 51
270.0
  0
LINE
  5
35B
330
A
100
AcDbEntity
  8
0
  6
Continuous
 62
     7
370
     0
100
AcDbLine
 10
16.61213203435602
 20
84.9121320343559
 30
0.0
 11
14.41213203435592
 21
84.9121320343559
 31
0.0
  0
LINE
  5
35C
330
A
100
AcDbEntity
  8
0
  6
Continuous
 62
     7
370
     0
100
AcDbLine
 10
-4.087867965644022
 20
89.9121320343559
 30
0.0
 11
11.91213203435598
 21
89.9121320343559
 31
0.0
  0
LINE
  5
35D
330
A
100
AcDbEntity
  8
0
  6
Continuous
 62
     7
370
     0
100
AcDbLine
 10
-6.087867965644022
 20
85.91213203435589
 30
0.0
 11
-6.087867965644022
 21
87.91213203435589
 31
0.0
  0
LINE
  5
35E
330
A
100
AcDbEntity
  8
0
  6
Continuous
 62
     7
370
     0
100
AcDbLine
 10
-3.887867965644034
 20
84.912132034356
 30
0.0
 11
-5.087867965644022
 21
84.912132034356
 31
0.0
  0
LINE
  5
35F
330
A
100
AcDbEntity
  8
0
  6
Continuous
 62
     7
370
     0
100
AcDbLine
 10
-3.587867965643965
 20
86.91213203435589
 30
0.0
 11
-3.587867965643965
 21
85.21213203435596
 31
0.0
  0
LINE
  5
360
330
A
100
AcDbEntity
  8
0
  6
Continuous
 62
     7
370
     0
100
AcDbLine
 10
2.912132034355977
 20
87.412132034356
 30
0.0
 11
-3.087867965644022
 21
87.412132034356
 31
0.0
  0
LINE
  5
361
330
A
100
AcDbEntity
  8
0
  6
Continuous
 62
     7
370
     0
100
AcDbLine
 10
3.41213203435592
 20
74.787132034356
 30
0.0
 11
3.41213203435592
 21
74.91212702435607
 31
0.0
  0
LINE
  5
362
330
A
100
AcDbEntity
  8
0
  6
Continuous
 62
     7
370
     0
100
AcDbLine
 10
3.41213203435592
 20
74.91214702435607
 30
0.0
 11
3.41213203435592
 21
86.91213203435589
 31
0.0
  0
LINE
  5
363
330
A
100
AcDbEntity
  8
0
  6
Continuous
 62
     7
370
     0
100
AcDbLine
 10
13.91213203435597
 20
87.91213203435589
 30
0.0
 11
13.91213203435597
 21
85.41213203435601
 31
0.0
  0
LINE
  5
364
330
A
100
AcDbEntity
  8
0
  6
Continuous
 62
     7
370
     0
100
AcDbLine
 10
10.91213203435597
 20
79.21238456605024
 30
0.0
 11
10.91213203435597
 21
74.91214702435607
 31
0.0
  0
LINE
  5
365
330
A
100
AcDbEntity
  8
0
  6
Continuous
 62
     7
370
     0
100
AcDbLine
 10
10.91213203435597
 20
74.91212702435607
 30
0.0
 11
10.91213203435597
 21
74.787132034356
 31
0.0
  0
ARC
  5
366
330
A
100
AcDbEntity
  8
0
  6
Continuous
 62
     7
370
     0
100
AcDbCircle
 10
-3.887867965644034
 20
85.21213203435596
 30
0.0
 40
0.300000000000078
100
AcDbArc
 50
270.0
 51
0.0
  0
ARC
  5
367
330
A
100
AcDbEntity
  8
0
  6
Continuous
 62
     7
370
     0
100
AcDbCircle
 10
-3.087867965644022
 20
86.91213203435589
 30
0.0
 40
0.499999999999945
100
AcDbArc
 50
90.0
 51
180.0
  0
ARC
  5
368
330
A
100
AcDbEntity
  8
0
  6
Continuous
 62
     7
370
     0
100
AcDbCircle
 10
-5.087867965644022
 20
85.91213203435589
 30
0.0
 40
0.9999999999998898
100
AcDbArc
 50
180.0
 51
270.0
  0
ARC
  5
369
330
A
100
AcDbEntity
  8
0
  6
Continuous
 62
     7
370
     0
100
AcDbCircle
 10
-4.087867965644022
 20
87.91213203435589
 30
0.0
 40
2.000000000000001
100
AcDbArc
 50
90.0
 51
180.0
  0
ARC
  5
36A
330
A
100
AcDbEntity
  8
0
  6
Continuous
 62
     7
370
     0
100
AcDbCircle
 10
11.91213203435598
 20
87.91213203435589
 30
0.0
 40
2.000000000000001
100
AcDbArc
 50
0.0
 51
90.0
  0
LINE
  5
36B
330
A
100
AcDbEntity
  8
0
  6
Continuous
 62
     7
370
     0
100
AcDbLine
 10
18.79213203435597
 20
18.28713203435595
 30
0.0
 11
18.79213203435597
 21
11.53713203435595
 31
0.0
  0
LINE
  5
36C
330
A
100
AcDbEntity
  8
0
  6
Continuous
 62
     7
370
     0
100
AcDbLine
 10
16.91213203440873
 20
18.28713203435595
 30
0.0
 11
16.91213203440873
 21
11.53713203435595
 31
0.0
  0
LINE
  5
36D
330
A
100
AcDbEntity
  8
0
  6
Continuous
 62
     7
370
     0
100
AcDbLine
 10
3.912132034355977
 20
67.53713203435601
 30
0.0
 11
3.912132034355977
 21
74.287132034356
 31
0.0
  0
LINE
  5
36E
330
A
100
AcDbEntity
  8
0
  6
Continuous
 62
     7
370
     0
100
AcDbLine
 10
3.41213203435592
 20
74.787132034356
 30
0.0
 11
3.41213203435592
 21
67.03713203435595
 31
0.0
  0
LINE
  5
36F
330
A
100
AcDbEntity
  8
0
  6
Continuous
 62
     7
370
     0
100
AcDbLine
 10
19.41213203435592
 20
10.91713203435594
 30
0.0
 11
19.41213203435592
 21
18.90713203435595
 31
0.0
  0
HATCH
  5
370
330
A
100
AcDbEntity
  8
0
 62
     9
370
     0
100
AcDbHatch
 10
0.0
 20
0.0
 30
0.0
210
0.0
220
0.0
230
1.0
  2
ANSI31
 70
     0
 71
     0
 91
        3
 92
        1
 93
      469
 72
     1
 10
3.41213203435592
 20
54.41213203435594
 11
3.410590701222488
 21
54.37290248649202
 72
     1
 10
3.410590701222474
 20
54.37290248649199
 11
3.405976204653484
 21
54.33391480183582
 72
     1
 10
3.405976204653484
 20
54.33391480183584
 11
3.398316994554747
 21
54.29540935242801
 72
     1
 10
3.398316994554761
 20
54.29540935242804
 11
3.387660292503497
 21
54.25762353716852
 72
     1
 10
3.387660292503483
 20
54.25762353716848
 11
3.374071800611559
 21
54.22079031817344
 72
     1
 10
3.374071800611545
 20
54.22079031817341
 11
3.357635296450098
 21
54.18513678448618
 72
     1
 10
3.357635296450098
 20
54.18513678448622
 11
3.338452116532948
 21
54.15088275199801
 72
     1
 10
3.338452116532948
 20
54.15088275199801
 11
3.316640531543384
 21
54.11823940820974
 72
     1
 10
3.316640531543384
 20
54.11823940820974
 11
3.292335017155934
 21
54.0874080101909
 72
     1
 10
3.292335017155949
 20
54.0874080101909
 11
3.265685424949197
 21
54.05857864376272
 72
     1
 10
3.265685424949197
 20
54.05857864376272
 11
3.236856058521027
 21
54.03192905155598
 72
     1
 10
3.236856058521027
 20
54.03192905155598
 11
3.20602466050218
 21
54.00762353716851
 72
     1
 10
3.20602466050218
 20
54.00762353716848
 11
3.173381316713914
 21
53.98581195217892
 72
     1
 10
3.173381316713914
 20
53.98581195217892
 11
3.139127284225708
 21
53.9666287722618
 72
     1
 10
3.139127284225708
 20
53.96662877226183
 11
3.103473750538498
 21
53.95019226810038
 72
     1
 10
3.103473750538512
 20
53.95019226810038
 11
3.066640531543441
 21
53.93660377620841
 72
     1
 10
3.066640531543441
 20
53.93660377620839
 11
3.02885471628393
 21
53.92594707415714
 72
     1
 10
3.028854716283944
 20
53.92594707415717
 11
2.990349266876094
 21
53.91828786405844
 72
     1
 10
2.99034926687608
 20
53.91828786405844
 11
2.951361582219902
 21
53.91367336748945
 72
     1
 10
2.951361582219874
 20
53.91367336748945
 11
2.912132034355948
 21
53.91213203435595
 72
     1
 10
2.912132034355977
 20
53.91213203435595
 11
-3.087867965644022
 21
53.91213203435589
 72
     1
 10
-3.087867965644022
 20
53.91213203435589
 11
-3.127097513507948
 21
53.91367336748934
 72
     1
 10
-3.127097513507919
 20
53.91367336748934
 11
-3.166085198164111
 21
53.91828786405833
 72
     1
 10
-3.166085198164125
 20
53.91828786405833
 11
-3.204590647571976
 21
53.92594707415705
 72
     1
 10
-3.20459064757199
 20
53.92594707415705
 11
-3.242376462831515
 21
53.93660377620832
 72
     1
 10
-3.242376462831543
 20
53.93660377620832
 11
-3.279209681826614
 21
53.95019226810027
 72
     1
 10
-3.279209681826614
 20
53.95019226810027
 11
-3.314863215513852
 21
53.96662877226174
 72
     1
 10
-3.31486321551381
 20
53.96662877226177
 11
-3.349117248002016
 21
53.98581195217886
 72
     1
 10
-3.349117248002016
 20
53.98581195217881
 11
-3.381760591790268
 21
54.0076235371684
 72
     1
 10
-3.381760591790282
 20
54.00762353716842
 11
-3.412591989809143
 21
54.03192905155589
 72
     1
 10
-3.412591989809129
 20
54.03192905155586
 11
-3.441421356237327
 21
54.05857864376262
 72
     1
 10
-3.441421356237356
 20
54.05857864376267
 11
-3.468070948444093
 21
54.08740801019084
 72
     1
 10
-3.468070948444051
 20
54.08740801019078
 11
-3.492376462831515
 21
54.11823940820966
 72
     1
 10
-3.492376462831543
 20
54.11823940820969
 11
-3.514188047821122
 21
54.15088275199792
 72
     1
 10
-3.514188047821107
 20
54.15088275199789
 11
-3.533371227738243
 21
54.18513678448613
 72
     1
 10
-3.533371227738257
 20
54.18513678448616
 11
-3.549807731899718
 21
54.22079031817339
 72
     1
 10
-3.549807731899704
 20
54.22079031817341
 11
-3.563396223791642
 21
54.25762353716848
 72
     1
 10
-3.563396223791642
 20
54.25762353716848
 11
-3.574052925842906
 21
54.29540935242801
 72
     1
 10
-3.57405292584292
 20
54.29540935242798
 11
-3.581712135941657
 21
54.33391480183582
 72
     1
 10
-3.581712135941643
 20
54.33391480183584
 11
-3.586326632510633
 21
54.37290248649205
 72
     1
 10
-3.586326632510633
 20
54.37290248649199
 11
-3.587867965643951
 21
54.41213203435592
 72
     1
 10
-3.587867965643965
 20
54.41213203435594
 11
-3.587867965643965
 21
56.112132034356
 72
     1
 10
-3.587867965643965
 20
56.112132034356
 11
-3.588792765524033
 21
56.13566976307433
 72
     1
 10
-3.588792765524033
 20
56.13566976307433
 11
-3.591561463465438
 21
56.15906237386806
 72
     1
 10
-3.591561463465438
 20
56.15906237386806
 11
-3.596156989524672
 21
56.18216564351278
 72
     1
 10
-3.596156989524672
 20
56.18216564351278
 11
-3.602551010755419
 21
56.20483713266847
 72
     1
 10
-3.602551010755405
 20
56.20483713266847
 11
-3.610704105890576
 21
56.22693706406554
 72
     1
 10
-3.61070410589059
 20
56.22693706406554
 11
-3.62056600838747
 21
56.24832918427791
 72
     1
 10
-3.62056600838747
 20
56.24832918427788
 11
-3.63207591633774
 21
56.26888160377077
 72
     1
 10
-3.632075916337726
 20
56.26888160377077
 11
-3.645162867331478
 21
56.28846761004374
 72
     1
 10
-3.645162867331464
 20
56.28846761004379
 11
-3.659746175963945
 21
56.30696644885512
 72
     1
 10
-3.65974617596396
 20
56.30696644885509
 11
-3.675735931288016
 21
56.32426406871201
 72
     1
 10
-3.675735931288045
 20
56.32426406871198
 11
-3.693033551144949
 21
56.34025382403604
 72
     1
 10
-3.693033551144935
 20
56.34025382403606
 11
-3.711532389956261
 21
56.35483713266854
 72
     1
 10
-3.711532389956232
 20
56.35483713266856
 11
-3.731118396229206
 21
56.3679240836623
 72
     1
 10
-3.731118396229248
 20
56.3679240836623
 11
-3.751670815722164
 21
56.37943399161258
 72
     1
 10
-3.75167081572215
 20
56.37943399161255
 11
-3.77306293593449
 21
56.38929589410944
 72
     1
 10
-3.77306293593449
 20
56.38929589410944
 11
-3.795162867331541
 21
56.39744898924459
 72
     1
 10
-3.795162867331555
 20
56.39744898924462
 11
-3.817834356487267
 21
56.40384301047538
 72
     1
 10
-3.817834356487253
 20
56.40384301047536
 11
-3.84093762613196
 21
56.40843853653461
 72
     1
 10
-3.84093762613196
 20
56.40843853653464
 11
-3.864330236925695
 21
56.41120723447603
 72
     1
 10
-3.864330236925695
 20
56.41120723447599
 11
-3.887867965644048
 21
56.41213203435595
 72
     1
 10
-3.887867965644034
 20
56.41213203435595
 11
-5.087867965644008
 21
56.41213203435595
 72
     1
 10
-5.087867965644022
 20
56.41213203435595
 11
-5.166327061371873
 21
56.40904936808908
 72
     1
 10
-5.166327061371873
 20
56.40904936808912
 11
-5.244302430684257
 21
56.39982037495113
 72
     1
 10
-5.244302430684228
 20
56.39982037495113
 11
-5.321313329499901
 21
56.38450195475366
 72
     1
 10
-5.321313329499957
 20
56.38450195475363
 11
-5.396884960019008
 21
56.3631885506511
 72
     1
 10
-5.396884960018951
 20
56.36318855065113
 11
-5.470551398009092
 21
56.33601156686726
 72
     1
 10
-5.470551398009092
 20
56.33601156686726
 11
-5.54185846538354
 21
56.30313855854433
 72
     1
 10
-5.541858465383597
 20
56.30313855854431
 11
-5.61036653036001
 21
56.26477219871006
 72
     1
 10
-5.61036653036001
 20
56.26477219871006
 11
-5.675653217936527
 21
56.2211490287309
 72
     1
 10
-5.675653217936485
 20
56.22114902873093
 11
-5.737316013974194
 21
56.17253799995601
 72
     1
 10
-5.737316013974236
 20
56.17253799995594
 11
-5.794974746830604
 21
56.11923881554247
 72
     1
 10
-5.794974746830575
 20
56.1192388155425
 11
-5.848273931244065
 21
56.06158008268616
 72
     1
 10
-5.848273931244079
 20
56.06158008268616
 11
-5.896884960018994
 21
55.99991728664841
 72
     1
 10
-5.896884960018951
 20
55.99991728664841
 11
-5.940508129998079
 21
55.93463059907191
 72
     1
 10
-5.940508129998079
 20
55.93463059907188
 11
-5.978874489832364
 21
55.86612253409547
 72
     1
 10
-5.978874489832378
 20
55.86612253409547
 11
-6.011747498155301
 21
55.79481546672102
 72
     1
 10
-6.01174749815533
 20
55.79481546672107
 11
-6.03892448193919
 21
55.72114902873093
 72
     1
 10
-6.038924481939147
 20
55.72114902873093
 11
-6.060237886041676
 21
55.64557739821191
 72
     1
 10
-6.060237886041704
 20
55.64557739821188
 11
-6.075556306239164
 21
55.56856649939618
 72
     1
 10
-6.07555630623915
 20
55.56856649939621
 11
-6.084785299377131
 21
55.49059113008382
 72
     1
 10
-6.084785299377131
 20
55.4905911300838
 11
-6.087867965644008
 21
55.41213203435595
 72
     1
 10
-6.087867965644022
 20
55.41213203435595
 11
-6.087867965644022
 21
53.41213203435595
 72
     1
 10
-6.087867965644022
 20
53.41213203435595
 11
-6.081702633110282
 21
53.25521384290027
 72
     1
 10
-6.081702633110296
 20
53.25521384290031
 11
-6.063244646834306
 21
53.09926310427553
 72
     1
 10
-6.063244646834277
 20
53.09926310427548
 11
-6.032607806439358
 21
52.9452413066441
 72
     1
 10
-6.032607806439386
 20
52.94524130664413
 11
-5.989980998234344
 21
52.79409804560604
 72
     1
 10
-5.989980998234329
 20
52.79409804560604
 11
-5.935627030666594
 21
52.64676516962575
 72
     1
 10
-5.93562703066658
 20
52.64676516962575
 11
-5.869881014020748
 21
52.50415103487686
 72
     1
 10
-5.869881014020734
 20
52.50415103487686
 11
-5.793148294352178
 21
52.36713490492405
 72
     1
 10
-5.793148294352192
 20
52.36713490492403
 11
-5.705901954393908
 21
52.23656152977096
 72
     1
 10
-5.705901954393937
 20
52.23656152977096
 11
-5.608679896844094
 21
52.11323593769555
 72
     1
 10
-5.60867989684408
 20
52.11323593769558
 11
-5.502081528017114
 21
51.99791847198287
 72
     1
 10
-5.502081528017129
 20
51.9979184719829
 11
-5.386764062304408
 21
51.89132010315592
 72
     1
 10
-5.386764062304393
 20
51.89132010315589
 11
-5.263438470228962
 21
51.79409804560603
 72
     1
 10
-5.263438470228948
 20
51.79409804560603
 11
-5.132865095075914
 21
51.70685170564778
 72
     1
 10
-5.132865095075942
 20
51.70685170564778
 11
-4.995848965123144
 21
51.63011898597921
 72
     1
 10
-4.995848965123116
 20
51.63011898597918
 11
-4.853234830374191
 21
51.56437296933336
 72
     1
 10
-4.853234830374219
 20
51.56437296933339
 11
-4.705901954393937
 21
51.51001900176564
 72
     1
 10
-4.705901954393937
 20
51.51001900176564
 11
-4.55475869335585
 21
51.46739219356061
 72
     1
 10
-4.554758693355836
 20
51.46739219356064
 11
-4.400736895724492
 21
51.43675535316572
 72
     1
 10
-4.400736895724492
 20
51.43675535316569
 11
-4.24478615709971
 21
51.4182973668897
 72
     1
 10
-4.244786157099724
 20
51.41829736688968
 11
-4.087867965644036
 21
51.41213203435592
 72
     1
 10
-4.087867965644022
 20
51.41213203435595
 11
6.412132034355934
 21
51.41213203435595
 72
     1
 10
6.41213203435592
 20
51.41213203435595
 11
6.569050225811608
 21
51.40596670182219
 72
     1
 10
6.569050225811622
 20
51.40596670182222
 11
6.725000964436389
 21
51.38750871554624
 72
     1
 10
6.725000964436389
 20
51.3875087155462
 11
6.879022762067734
 21
51.35687187515128
 72
     1
 10
6.879022762067734
 20
51.35687187515131
 11
7.03016602310582
 21
51.31424506694627
 72
     1
 10
7.030166023105834
 20
51.31424506694625
 11
7.177498899086117
 21
51.25989109937852
 72
     1
 10
7.177498899086117
 20
51.25989109937851
 11
7.320113033835042
 21
51.19414508273267
 72
     1
 10
7.320113033835013
 20
51.19414508273272
 11
7.457129163787811
 21
51.11741236306414
 72
     1
 10
7.45712916378784
 20
51.11741236306412
 11
7.587702538940888
 21
51.03016602310585
 72
     1
 10
7.587702538940902
 20
51.03016602310586
 11
7.71102813101632
 21
50.93294396555603
 72
     1
 10
7.711028131016291
 20
50.93294396555601
 11
7.826345596729012
 21
50.82634559672903
 72
     1
 10
7.826345596729026
 20
50.82634559672905
 11
7.932943965556006
 21
50.71102813101633
 72
     1
 10
7.932943965555978
 20
50.71102813101632
 11
8.030166023105806
 21
50.58770253894088
 72
     1
 10
8.030166023105834
 20
50.58770253894087
 11
8.117412363064133
 21
50.45712916378784
 72
     1
 10
8.11741236306409
 20
50.45712916378787
 11
8.194145082732632
 21
50.32011303383504
 72
     1
 10
8.194145082732688
 20
50.32011303383504
 11
8.259891099378535
 21
50.17749889908613
 72
     1
 10
8.259891099378478
 20
50.17749889908614
 11
8.314245066946199
 21
50.03016602310587
 72
     1
 10
8.314245066946227
 20
50.03016602310586
 11
8.356871875151284
 21
49.87902276206776
 72
     1
 10
8.356871875151284
 20
49.87902276206776
 11
8.387508715546204
 21
49.72500096443642
 72
     1
 10
8.387508715546232
 20
49.72500096443642
 11
8.405966701822222
 21
49.56905022581165
 72
     1
 10
8.405966701822194
 20
49.56905022581165
 11
8.412132034355934
 21
49.41213203435596
 72
     1
 10
8.41213203435592
 20
49.41213203435594
 11
8.41213203435592
 21
28.41213203435593
 72
     1
 10
8.41213203435592
 20
28.41213203435595
 11
8.409049368089043
 21
28.3336729386281
 72
     1
 10
8.409049368089085
 20
28.3336729386281
 11
8.39982037495109
 21
28.25569756931571
 72
     1
 10
8.399820374951048
 20
28.25569756931569
 11
8.384501954753588
 21
28.17868667050002
 72
     1
 10
8.384501954753602
 20
28.17868667050002
 11
8.363188550651088
 21
28.10311503998097
 72
     1
 10
8.363188550651102
 20
28.10311503998097
 11
8.336011566867227
 21
28.02944860199082
 72
     1
 10
8.336011566867227
 20
28.02944860199082
 11
8.303138558544318
 21
27.95814153461638
 72
     1
 10
8.303138558544333
 20
27.95814153461638
 11
8.264772198710048
 21
27.88963346963996
 72
     1
 10
8.264772198710033
 20
27.88963346963996
 11
8.221149028730891
 21
27.82434678206345
 72
     1
 10
8.221149028730906
 20
27.82434678206346
 11
8.172537999955991
 21
27.76268398602575
 72
     1
 10
8.172537999955977
 20
27.76268398602574
 11
8.119238815542487
 21
27.70502525316937
 72
     1
 10
8.119238815542473
 20
27.7050252531694
 11
8.06158008268612
 21
27.65172606875591
 72
     1
 10
8.061580082686134
 20
27.65172606875589
 11
7.999917286648411
 21
27.60311503998098
 72
     1
 10
7.999917286648383
 20
27.60311503998096
 11
7.934630599071866
 21
27.55949187000182
 72
     1
 10
7.934630599071851
 20
27.55949187000183
 11
7.866122534095438
 21
27.52112551016755
 72
     1
 10
7.866122534095438
 20
27.52112551016754
 11
7.79481546672099
 21
27.48825250184463
 72
     1
 10
7.794815466721047
 20
27.48825250184464
 11
7.721149028730906
 21
27.46107551806078
 72
     1
 10
7.721149028730906
 20
27.46107551806077
 11
7.645577398211855
 21
27.43976211395824
 72
     1
 10
7.645577398211798
 20
27.43976211395827
 11
7.568566499396126
 21
27.42444369376081
 72
     1
 10
7.568566499396183
 20
27.42444369376079
 11
7.490591130083799
 21
27.41521470062281
 72
     1
 10
7.490591130083771
 20
27.41521470062281
 11
7.412132034355934
 21
27.41213203435594
 72
     1
 10
7.41213203435592
 20
27.41213203435595
 11
0.9121320343559631
 21
27.41213203435599
 72
     1
 10
0.9121320343559773
 20
27.41213203435598
 11
0.8336729386281405
 21
27.40904936808912
 72
     1
 10
0.8336729386281263
 20
27.40904936808912
 11
0.7556975693157427
 21
27.39982037495112
 72
     1
 10
0.7556975693157711
 20
27.39982037495114
 11
0.6786866705000847
 21
27.38450195475368
 72
     1
 10
0.6786866705000421
 20
27.38450195475366
 11
0.6031150399810059
 21
27.36318855065113
 72
     1
 10
0.6031150399810486
 20
27.36318855065113
 11
0.5294486019909073
 21
27.33601156686727
 72
     1
 10
0.5294486019909073
 20
27.33601156686726
 11
0.4581415346164448
 21
27.30313855854435
 72
     1
 10
0.4581415346164022
 20
27.30313855854436
 11
0.3896334696400032
 21
27.26477219871008
 72
     1
 10
0.3896334696400458
 20
27.26477219871006
 11
0.3243467820635288
 21
27.22114902873092
 72
     1
 10
0.3243467820635146
 20
27.22114902873093
 11
0.2626839860257917
 21
27.17253799995602
 72
     1
 10
0.2626839860257633
 20
27.17253799995601
 11
0.2050252531694099
 21
27.11923881554252
 72
     1
 10
0.2050252531694241
 20
27.11923881554253
 11
0.1517260687559343
 21
27.06158008268616
 72
     1
 10
0.1517260687559201
 20
27.06158008268616
 11
0.1031150399809917
 21
26.99991728664846
 72
     1
 10
0.1031150399810485
 20
26.99991728664847
 11
0.0594918700019207
 21
26.93463059907195
 72
     1
 10
0.0594918700019207
 20
26.93463059907194
 11
0.0211255101676358
 21
26.86612253409553
 72
     1
 10
0.0211255101676216
 20
26.86612253409553
 11
-0.0117474981552874
 21
26.79481546672108
 72
     1
 10
-0.0117474981552732
 20
26.79481546672108
 11
-0.0389244819391479
 21
26.72114902873094
 72
     1
 10
-0.0389244819391479
 20
26.72114902873094
 11
-0.0602378860416621
 21
26.64557739821189
 72
     1
 10
-0.0602378860417048
 20
26.64557739821189
 11
-0.0755563062391644
 21
26.56856649939623
 72
     1
 10
-0.0755563062391502
 20
26.56856649939622
 11
-0.0847852993771454
 21
26.49059113008382
 72
     1
 10
-0.0847852993771312
 20
26.49059113008383
 11
-0.0878679656440085
 21
26.41213203435598
 72
     1
 10
-0.0878679656440227
 20
26.41213203435598
 11
-0.0878679656441364
 21
0.2121320343559319
 72
     1
 10
-0.0878679656441364
 20
0.2121320343559319
 11
-0.0869431657640689
 21
0.1885943056375794
 72
     1
 10
-0.0869431657640689
 20
0.1885943056375652
 11
-0.0841744678226633
 21
0.1652016948438302
 72
     1
 10
-0.0841744678226633
 20
0.1652016948438302
 11
-0.0795789417634296
 21
0.1420984251991229
 72
     1
 10
-0.0795789417634296
 20
0.1420984251991229
 11
-0.0731849205326682
 21
0.1194269360433964
 72
     1
 10
-0.0731849205326398
 20
0.1194269360434248
 11
-0.0650318253974831
 21
0.0973270046463881
 72
     1
 10
-0.0650318253975115
 20
0.0973270046463597
 11
-0.0551699229006317
 21
0.0759348844340195
 72
     1
 10
-0.0551699229006317
 20
0.0759348844340195
 11
-0.0436600149503477
 21
0.0553824649410899
 72
     1
 10
-0.0436600149503192
 20
0.0553824649411183
 11
-0.0305730639565809
 21
0.035796458668159
 72
     1
 10
-0.0305730639565809
 20
0.035796458668159
 11
-0.0159897553240995
 21
0.0172976198568335
 72
     1
 10
-0.0159897553241422
 20
0.0172976198568051
 11
-0.0000000000000853
 21
-0.0000000000001137
 72
     1
 10
-0.0000000000000568
 20
-0.0000000000000853
 11
0.0172976198568478
 21
-0.015989755324128
 72
     1
 10
0.0172976198568335
 20
-0.0159897553241422
 11
0.035796458668159
 21
-0.0305730639566235
 72
     1
 10
0.0357964586681874
 20
-0.0305730639566093
 11
0.055382464941161
 21
-0.0436600149503619
 72
     1
 10
0.0553824649411467
 20
-0.0436600149503761
 11
0.0759348844340622
 21
-0.0551699229006459
 72
     1
 10
0.075934884434048
 20
-0.0551699229006602
 11
0.0973270046464023
 21
-0.0650318253975542
 72
     1
 10
0.0973270046463881
 20
-0.0650318253975399
 11
0.1194269360434248
 21
-0.0731849205326967
 72
     1
 10
0.1194269360434532
 20
-0.0731849205326967
 11
0.1420984251991655
 21
-0.079578941763458
 72
     1
 10
0.1420984251991513
 20
-0.079578941763458
 11
0.1652016948438586
 21
-0.0841744678226917
 72
     1
 10
0.1652016948438586
 20
-0.0841744678226917
 11
0.1885943056375936
 21
-0.0869431657640831
 72
     1
 10
0.1885943056375936
 20
-0.0869431657640974
 11
0.2121320343559461
 21
-0.0878679656440511
 72
     1
 10
0.2121320343559319
 20
-0.0878679656440511
 11
2.112132034355951
 21
-0.0878679656440511
 72
     1
 10
2.112132034355965
 20
-0.0878679656440511
 11
2.135669763074318
 21
-0.0869431657639837
 72
     1
 10
2.135669763074304
 20
-0.0869431657639837
 11
2.159062373867996
 21
-0.0841744678225922
 72
     1
 10
2.159062373867982
 20
-0.084174467822578
 11
2.182165643512689
 21
-0.0795789417633444
 72
     1
 10
2.182165643512689
 20
-0.0795789417633444
 11
2.204837132668401
 21
-0.073184920532583
 72
     1
 10
2.204837132668444
 20
-0.073184920532583
 11
2.226937064065481
 21
-0.0650318253974263
 72
     1
 10
2.226937064065452
 20
-0.0650318253974263
 11
2.248329184277793
 21
-0.0551699229005465
 72
     1
 10
2.248329184277793
 20
-0.0551699229005465
 11
2.268881603770708
 21
-0.0436600149502766
 72
     1
 10
2.268881603770751
 20
-0.0436600149502908
 11
2.28846761004371
 21
-0.0305730639565383
 72
     1
 10
2.288467610043653
 20
-0.0305730639565241
 11
2.306966448854964
 21
-0.0159897553240569
 72
     1
 10
2.306966448855007
 20
-0.0159897553240569
 11
2.324264068711912
 21
-0.0000000000000142
 72
     1
 10
2.324264068711897
 20
-0.0000000000000284
 11
2.34025382403594
 21
0.0172976198568762
 72
     1
 10
2.340253824035926
 20
0.0172976198568904
 11
2.354837132668393
 21
0.0357964586682016
 72
     1
 10
2.354837132668421
 20
0.0357964586682158
 11
2.367924083662174
 21
0.0553824649411752
 72
     1
 10
2.36792408366216
 20
0.0553824649411752
 11
2.379433991612444
 21
0.0759348844341048
 72
     1
 10
2.379433991612472
 20
0.0759348844340764
 11
2.389295894109338
 21
0.0973270046464023
 72
     1
 10
2.389295894109295
 20
0.0973270046464165
 11
2.397448989244452
 21
0.1194269360434532
 72
     1
 10
2.39744898924448
 20
0.1194269360434532
 11
2.403843010475242
 21
0.1420984251991655
 72
     1
 10
2.403843010475213
 20
0.1420984251991797
 11
2.408438536534447
 21
0.165201694843887
 72
     1
 10
2.408438536534447
 20
0.165201694843887
 11
2.411207234475853
 21
0.1885943056375936
 72
     1
 10
2.411207234475853
 20
0.1885943056375652
 11
2.412132034355906
 21
0.2121320343559176
 72
     1
 10
2.41213203435592
 20
0.2121320343559319
 11
2.412132034356034
 21
24.41213203435598
 72
     1
 10
2.412132034356034
 20
24.41213203435598
 11
2.413673367489465
 21
24.4513615822199
 72
     1
 10
2.413673367489479
 20
24.4513615822199
 11
2.41828786405847
 21
24.49034926687608
 72
     1
 10
2.41828786405847
 20
24.49034926687608
 11
2.425947074157207
 21
24.52885471628393
 72
     1
 10
2.425947074157193
 20
24.52885471628392
 11
2.436603776208457
 21
24.56664053154343
 72
     1
 10
2.436603776208471
 20
24.56664053154344
 11
2.450192268100394
 21
24.60347375053852
 72
     1
 10
2.450192268100408
 20
24.60347375053852
 11
2.46662877226187
 21
24.63912728422573
 72
     1
 10
2.466628772261856
 20
24.63912728422574
 11
2.485811952179005
 21
24.67338131671394
 72
     1
 10
2.485811952179005
 20
24.67338131671394
 11
2.507623537168569
 21
24.70602466050221
 72
     1
 10
2.507623537168569
 20
24.70602466050221
 11
2.531929051556019
 21
24.73685605852106
 72
     1
 10
2.531929051556005
 20
24.73685605852106
 11
2.558578643762757
 21
24.76568542494923
 72
     1
 10
2.558578643762757
 20
24.76568542494923
 11
2.587408010190927
 21
24.79233501715598
 72
     1
 10
2.587408010190927
 20
24.79233501715598
 11
2.618239408209774
 21
24.81664053154343
 72
     1
 10
2.618239408209774
 20
24.81664053154342
 11
2.65088275199804
 21
24.83845211653298
 72
     1
 10
2.65088275199804
 20
24.83845211653298
 11
2.685136784486232
 21
24.85763529645013
 72
     1
 10
2.685136784486246
 20
24.85763529645013
 11
2.72079031817347
 21
24.87407180061158
 72
     1
 10
2.720790318173442
 20
24.87407180061158
 11
2.757623537168512
 21
24.8876602925035
 72
     1
 10
2.757623537168512
 20
24.88766029250351
 11
2.795409352428023
 21
24.89831699455478
 72
     1
 10
2.795409352428009
 20
24.89831699455476
 11
2.833914801835845
 21
24.9059762046535
 72
     1
 10
2.833914801835874
 20
24.90597620465351
 11
2.872902486492066
 21
24.91059070122251
 72
     1
 10
2.87290248649208
 20
24.91059070122251
 11
2.912132034355991
 21
24.91213203435599
 72
     1
 10
2.912132034355977
 20
24.91213203435598
 11
16.41213203435593
 21
24.91213203435604
 72
     1
 10
16.41213203435592
 20
24.91213203435604
 11
16.45136158221984
 21
24.9105907012226
 72
     1
 10
16.45136158221987
 20
24.91059070122262
 11
16.49034926687606
 21
24.90597620465363
 72
     1
 10
16.49034926687602
 20
24.90597620465363
 11
16.52885471628389
 21
24.89831699455489
 72
     1
 10
16.52885471628394
 20
24.89831699455488
 11
16.56664053154347
 21
24.88766029250361
 72
     1
 10
16.56664053154344
 20
24.88766029250363
 11
16.60347375053851
 21
24.87407180061169
 72
     1
 10
16.60347375053851
 20
24.87407180061169
 11
16.63912728422573
 21
24.85763529645023
 72
     1
 10
16.63912728422576
 20
24.85763529645022
 11
16.67338131671397
 21
24.83845211653308
 72
     1
 10
16.67338131671397
 20
24.83845211653309
 11
16.70602466050224
 21
24.81664053154353
 72
     1
 10
16.70602466050218
 20
24.81664053154353
 11
16.73685605852104
 21
24.79233501715605
 72
     1
 10
16.73685605852108
 20
24.79233501715603
 11
16.76568542494926
 21
24.7656854249493
 72
     1
 10
16.76568542494925
 20
24.76568542494928
 11
16.79233501715599
 21
24.7368560585211
 72
     1
 10
16.792335017156
 20
24.73685605852111
 11
16.81664053154348
 21
24.70602466050225
 72
     1
 10
16.8166405315435
 20
24.70602466050227
 11
16.83845211653306
 21
24.673381316714
 72
     1
 10
16.83845211653306
 20
24.673381316714
 11
16.8576352964502
 21
24.6391272842258
 72
     1
 10
16.85763529645015
 20
24.6391272842258
 11
16.87407180061162
 21
24.60347375053857
 72
     1
 10
16.87407180061166
 20
24.60347375053854
 11
16.88766029250359
 21
24.56664053154347
 72
     1
 10
16.88766029250359
 20
24.56664053154347
 11
16.89831699455486
 21
24.52885471628395
 72
     1
 10
16.89831699455482
 20
24.52885471628397
 11
16.90597620465355
 21
24.49034926687611
 72
     1
 10
16.9059762046536
 20
24.49034926687611
 11
16.91059070122259
 21
24.45136158221992
 72
     1
 10
16.91059070122253
 20
24.4513615822199
 11
16.91213203435596
 21
24.41213203435598
 72
     1
 10
16.91213203435598
 20
24.41213203435598
 11
16.91213203440871
 21
18.28713203435593
 72
     1
 10
16.91213203440873
 20
18.28713203435595
 11
18.79213203435599
 21
18.28713203435595
 72
     1
 10
18.79213203435597
 20
18.28713203435595
 11
19.41213203435592
 21
18.90713203435595
 72
     1
 10
19.41213203435592
 20
18.90713203435595
 11
19.41213203435592
 21
26.41213203435595
 72
     1
 10
19.41213203435592
 20
26.41213203435595
 11
19.40904936808904
 21
26.49059113008379
 72
     1
 10
19.40904936808908
 20
26.49059113008377
 11
19.3998203749511
 21
26.56856649939616
 72
     1
 10
19.3998203749511
 20
26.56856649939616
 11
19.38450195475364
 21
26.64557739821183
 72
     1
 10
19.3845019547536
 20
26.64557739821183
 11
19.36318855065107
 21
26.72114902873088
 72
     1
 10
19.3631885506511
 20
26.72114902873088
 11
19.33601156686724
 21
26.79481546672102
 72
     1
 10
19.33601156686723
 20
26.79481546672102
 11
19.30313855854432
 21
26.86612253409547
 72
     1
 10
19.30313855854433
 20
26.86612253409547
 11
19.26477219871005
 21
26.93463059907188
 72
     1
 10
19.26477219871003
 20
26.93463059907188
 11
19.22114902873089
 21
26.9999172866484
 72
     1
 10
19.2211490287309
 20
26.99991728664841
 11
19.17253799995599
 21
27.06158008268612
 72
     1
 10
19.17253799995598
 20
27.06158008268611
 11
19.11923881554249
 21
27.11923881554247
 72
     1
 10
19.11923881554247
 20
27.11923881554247
 11
19.0615800826861
 21
27.17253799995596
 72
     1
 10
19.06158008268613
 20
27.17253799995595
 11
18.99991728664842
 21
27.22114902873086
 72
     1
 10
18.99991728664838
 20
27.22114902873088
 11
18.93463059907186
 21
27.26477219871002
 72
     1
 10
18.93463059907191
 20
27.26477219871001
 11
18.86612253409549
 21
27.30313855854429
 72
     1
 10
18.86612253409549
 20
27.30313855854431
 11
18.79481546672105
 21
27.33601156686721
 72
     1
 10
18.79481546672105
 20
27.3360115668672
 11
18.7211490287309
 21
27.36318855065106
 72
     1
 10
18.7211490287309
 20
27.36318855065107
 11
18.64557739821185
 21
27.38450195475361
 72
     1
 10
18.64557739821185
 20
27.38450195475361
 11
18.56856649939618
 21
27.39982037495106
 72
     1
 10
18.56856649939618
 20
27.39982037495108
 11
18.4905911300838
 21
27.40904936808907
 72
     1
 10
18.49059113008377
 20
27.40904936808906
 11
18.41213203435592
 21
27.41213203435594
 72
     1
 10
18.41213203435592
 20
27.41213203435595
 11
11.91213203435598
 21
27.41213203435595
 72
     1
 10
11.91213203435598
 20
27.41213203435595
 11
11.83367293862812
 21
27.41521470062283
 72
     1
 10
11.83367293862812
 20
27.41521470062281
 11
11.75569756931575
 21
27.42444369376079
 72
     1
 10
11.75569756931577
 20
27.42444369376079
 11
11.67868667050008
 21
27.43976211395825
 72
     1
 10
11.6786866705001
 20
27.43976211395827
 11
11.60311503998105
 21
27.4610755180608
 72
     1
 10
11.60311503998105
 20
27.46107551806077
 11
11.52944860199091
 21
27.48825250184463
 72
     1
 10
11.52944860199091
 20
27.48825250184464
 11
11.45814153461646
 21
27.52112551016755
 72
     1
 10
11.45814153461646
 20
27.52112551016754
 11
11.38963346964006
 21
27.55949187000182
 72
     1
 10
11.38963346964004
 20
27.55949187000183
 11
11.32434678206351
 21
27.60311503998098
 72
     1
 10
11.32434678206351
 20
27.60311503998096
 11
11.2626839860258
 21
27.65172606875588
 72
     1
 10
11.26268398602582
 20
27.65172606875589
 11
11.20502525316945
 21
27.70502525316938
 72
     1
 10
11.20502525316942
 20
27.7050252531694
 11
11.15172606875593
 21
27.76268398602577
 72
     1
 10
11.15172606875592
 20
27.76268398602574
 11
11.103115039981
 21
27.82434678206345
 72
     1
 10
11.10311503998105
 20
27.82434678206346
 11
11.05949187000192
 21
27.88963346963998
 72
     1
 10
11.05949187000192
 20
27.88963346963996
 11
11.02112551016763
 21
27.95814153461638
 72
     1
 10
11.02112551016762
 20
27.95814153461638
 11
10.9882525018447
 21
28.02944860199082
 72
     1
 10
10.98825250184472
 20
28.02944860199082
 11
10.96107551806086
 21
28.10311503998097
 72
     1
 10
10.96107551806085
 20
28.10311503998097
 11
10.93976211395832
 21
28.17868667050002
 72
     1
 10
10.93976211395829
 20
28.17868667050002
 11
10.92444369376083
 21
28.25569756931569
 72
     1
 10
10.92444369376085
 20
28.25569756931569
 11
10.91521470062287
 21
28.33367293862807
 72
     1
 10
10.91521470062287
 20
28.3336729386281
 11
10.91213203435599
 21
28.41213203435595
 72
     1
 10
10.91213203435597
 20
28.41213203435595
 11
10.91213203435597
 21
55.01213203435601
 72
     1
 10
10.91213203435597
 20
55.01213203435603
 11
10.91829736688971
 21
55.16905022581173
 72
     1
 10
10.91829736688976
 20
55.16905022581173
 11
10.93675535316575
 21
55.32500096443647
 72
     1
 10
10.93675535316572
 20
55.32500096443644
 11
10.96739219356064
 21
55.47902276206781
 72
     1
 10
10.96739219356061
 20
55.47902276206778
 11
11.01001900176565
 21
55.63016602310589
 72
     1
 10
11.01001900176567
 20
55.63016602310589
 11
11.0643729693334
 21
55.77749889908616
 72
     1
 10
11.06437296933342
 20
55.77749889908616
 11
11.13011898597925
 21
55.92011303383507
 72
     1
 10
11.13011898597926
 20
55.92011303383507
 11
11.20685170564782
 21
56.05712916378786
 72
     1
 10
11.2068517056478
 20
56.05712916378789
 11
11.29409804560609
 21
56.18770253894095
 72
     1
 10
11.29409804560612
 20
56.18770253894095
 11
11.39132010315596
 21
56.31102813101637
 72
     1
 10
11.39132010315592
 20
56.31102813101634
 11
11.49791847198288
 21
56.42634559672905
 72
     1
 10
11.49791847198287
 20
56.42634559672908
 11
11.61323593769559
 21
56.53294396555605
 72
     1
 10
11.6132359376956
 20
56.53294396555603
 11
11.73656152977104
 21
56.63016602310588
 72
     1
 10
11.73656152977105
 20
56.63016602310588
 11
11.86713490492408
 21
56.71741236306414
 72
     1
 10
11.86713490492411
 20
56.71741236306414
 11
12.00415103487692
 21
56.79414508273271
 72
     1
 10
12.00415103487688
 20
56.79414508273274
 11
12.14676516962579
 21
56.85989109937858
 72
     1
 10
12.14676516962583
 20
56.85989109937858
 11
12.29409804560613
 21
56.9142450669463
 72
     1
 10
12.29409804560612
 20
56.91424506694628
 11
12.44524130664421
 21
56.9568718751513
 72
     1
 10
12.44524130664422
 20
56.95687187515133
 11
12.59926310427555
 21
56.98750871554628
 72
     1
 10
12.59926310427551
 20
56.98750871554628
 11
12.75521384290029
 21
57.00596670182225
 72
     1
 10
12.75521384290027
 20
57.00596670182225
 11
12.91213203435596
 21
57.012132034356
 72
     1
 10
12.91213203435598
 20
57.01213203435603
 11
16.61213203435601
 21
57.01213203435597
 72
     1
 10
16.61213203435602
 20
57.01213203435592
 11
16.65136158221995
 21
57.0105907012225
 72
     1
 10
16.65136158221992
 20
57.01059070122252
 11
16.6903492668761
 21
57.00597620465351
 72
     1
 10
16.69034926687612
 20
57.00597620465353
 11
16.72885471628397
 21
56.99831699455481
 72
     1
 10
16.72885471628399
 20
56.99831699455481
 11
16.7666405315435
 21
56.98766029250356
 72
     1
 10
16.76664053154349
 20
56.98766029250354
 11
16.80347375053855
 21
56.97407180061157
 72
     1
 10
16.80347375053855
 20
56.97407180061159
 11
16.83912728422576
 21
56.95763529645017
 72
     1
 10
16.83912728422575
 20
56.95763529645015
 11
16.87338131671396
 21
56.938452116533
 72
     1
 10
16.87338131671396
 20
56.938452116533
 11
16.90602466050222
 21
56.91664053154344
 72
     1
 10
16.90602466050222
 20
56.91664053154344
 11
16.93685605852107
 21
56.89233501715597
 72
     1
 10
16.93685605852107
 20
56.89233501715595
 11
16.96568542494924
 21
56.86568542494919
 72
     1
 10
16.96568542494924
 20
56.86568542494924
 11
16.99233501715599
 21
56.83685605852108
 72
     1
 10
16.99233501715599
 20
56.83685605852102
 11
17.01664053154344
 21
56.80602466050217
 72
     1
 10
17.01664053154343
 20
56.80602466050223
 11
17.03845211653299
 21
56.77338131671397
 72
     1
 10
17.03845211653299
 20
56.7733813167139
 11
17.05763529645014
 21
56.7391272842257
 72
     1
 10
17.05763529645014
 20
56.7391272842257
 11
17.07407180061159
 21
56.70347375053848
 72
     1
 10
17.07407180061159
 20
56.7034737505385
 11
17.08766029250351
 21
56.66664053154346
 72
     1
 10
17.08766029250353
 20
56.66664053154343
 11
17.09831699455479
 21
56.62885471628391
 72
     1
 10
17.0983169945548
 20
56.62885471628394
 11
17.10597620465354
 21
56.5903492668761
 72
     1
 10
17.10597620465353
 20
56.59034926687607
 11
17.11059070122252
 21
56.55136158221989
 72
     1
 10
17.11059070122252
 20
56.55136158221992
 11
17.11213203435595
 21
56.512132034356
 72
     1
 10
17.11213203435596
 20
56.51213203435602
 11
17.11213203435586
 21
55.31213203435598
 72
     1
 10
17.11213203435585
 20
55.31213203435598
 11
17.11319358612056
 21
55.28691687687723
 72
     1
 10
17.11319358612058
 20
55.2869168768772
 11
17.1163707288004
 21
55.26188016736455
 72
     1
 10
17.1163707288004
 20
55.26188016736458
 11
17.12164097771919
 21
55.23719909090582
 72
     1
 10
17.12164097771915
 20
55.23719909090576
 11
17.12896703526333
 21
55.21304831576935
 72
     1
 10
17.12896703526337
 20
55.21304831576938
 11
17.13829705483748
 21
55.18959875727512
 72
     1
 10
17.13829705483749
 20
55.18959875727515
 11
17.14956500778328
 21
55.16701636822438
 72
     1
 10
17.14956500778328
 20
55.16701636822435
 11
17.16269115066515
 21
55.14546096445005
 72
     1
 10
17.16269115066512
 20
55.14546096445005
 11
17.17758258961547
 21
55.12508509379827
 72
     1
 10
17.17758258961544
 20
55.12508509379827
 11
17.19413393774565
 21
55.10603295654544
 72
     1
 10
17.19413393774567
 20
55.10603295654542
 11
17.2122280609703
 21
55.08843938489093
 72
     1
 10
17.21222806097029
 20
55.08843938489096
 11
17.23173690696636
 21
55.07242888874839
 72
     1
 10
17.23173690696637
 20
55.07242888874841
 11
17.25252241140131
 21
55.05811477458744
 72
     1
 10
17.25252241140128
 20
55.05811477458738
 11
17.27443747501563
 21
55.0455983435622
 72
     1
 10
17.27443747501564
 20
55.04559834356226
 11
17.29732700464639
 21
55.03496817460254
 72
     1
 10
17.29732700464637
 20
55.03496817460248
 11
17.32102901082302
 21
55.02629949753899
 72
     1
 10
17.32102901082305
 20
55.02629949753899
 11
17.34537575416905
 21
55.01965366070132
 72
     1
 10
17.34537575416903
 20
55.01965366070137
 11
17.37019493249528
 21
55.01507769675498
 72
     1
 10
17.37019493249533
 20
55.01507769675495
 11
17.39531090018484
 21
55.01260398985053
 72
     1
 10
17.39531090018482
 20
55.01260398985053
 11
17.42054591123876
 21
55.01225004644095
 72
     1
 10
17.42054591123872
 20
55.01225004644098
 11
17.44572137718694
 21
55.01401837138795
 72
     1
 10
17.44572137718694
 20
55.01401837138795
 11
17.47065913096079
 21
55.01789645023496
 72
     1
 10
17.47065913096082
 20
55.01789645023492
 11
17.49518268778344
 21
55.02385683777237
 72
     1
 10
17.49518268778342
 20
55.02385683777234
 11
17.51911849415468
 21
55.0318573522675
 72
     1
 10
17.51911849415467
 20
55.0318573522675
 11
17.54229715609123
 21
55.04184137398514
 72
     1
 10
17.54229715609125
 20
55.04184137398514
 11
17.56455463792996
 21
55.05373824588616
 72
     1
 10
17.56455463792997
 20
55.0537382458862
 11
17.58573342320997
 21
55.06746377366815
 72
     1
 10
17.58573342320994
 20
55.06746377366815
 11
17.60568362941862
 21
55.08292082160943
 72
     1
 10
17.60568362941865
 20
55.08292082160941
 11
17.62426406871194
 21
55.09999999999999
 72
     1
 10
17.62426406871191
 20
55.10000000000005
 11
19.81923881554249
 21
57.29497474683063
 72
     1
 10
19.81923881554252
 20
57.29497474683061
 11
19.86397184183495
 21
57.34273571291709
 72
     1
 10
19.86397184183494
 20
57.34273571291706
 11
19.9054853746472
 21
57.39332009900841
 72
     1
 10
19.90548537464724
 20
57.39332009900843
 11
19.94360164665855
 21
57.44651129499755
 72
     1
 10
19.94360164665852
 20
57.44651129499757
 11
19.97815743814041
 21
57.50208152801718
 72
     1
 10
19.97815743814044
 20
57.50208152801715
 11
20.0090047758887
 21
57.55979283779814
 72
     1
 10
20.00900477588869
 20
57.55979283779814
 11
20.03601156686727
 21
57.61939809565209
 72
     1
 10
20.03601156686727
 20
57.61939809565209
 11
20.0590621638511
 21
57.68064206271398
 72
     1
 10
20.05906216385108
 20
57.68064206271398
 11
20.07805786064505
 21
57.74326248291465
 72
     1
 10
20.07805786064506
 20
57.74326248291462
 11
20.09291731475922
 21
57.80699120600101
 72
     1
 10
20.09291731475923
 20
57.80699120600107
 11
20.10357689572982
 21
57.87155533579715
 72
     1
 10
20.10357689572982
 20
57.87155533579713
 11
20.1099909575946
 21
57.93667839878702
 72
     1
 10
20.10999095759456
 20
57.936678398787
 11
20.11213203435596
 21
58.00208152801713
 72
     1
 10
20.11213203435596
 20
58.00208152801715
 11
20.11213203435596
 21
64.51213203435594
 72
     1
 10
20.11213203435596
 20
64.51213203435592
 11
20.11059070122254
 21
64.55136158221984
 72
     1
 10
20.11059070122258
 20
64.55136158221987
 11
20.10597620465357
 21
64.59034926687604
 72
     1
 10
20.10597620465353
 20
64.59034926687607
 11
20.09831699455479
 21
64.62885471628391
 72
     1
 10
20.09831699455481
 20
64.62885471628388
 11
20.08766029250356
 21
64.66664053154341
 72
     1
 10
20.08766029250353
 20
64.66664053154343
 11
20.07407180061159
 21
64.70347375053851
 72
     1
 10
20.07407180061159
 20
64.70347375053851
 11
20.05763529645014
 21
64.73912728422573
 72
     1
 10
20.05763529645014
 20
64.7391272842257
 11
20.03845211653299
 21
64.77338131671388
 72
     1
 10
20.03845211653299
 20
64.77338131671391
 11
20.01664053154343
 21
64.80602466050218
 72
     1
 10
20.01664053154343
 20
64.80602466050211
 11
19.99233501715598
 21
64.83685605852099
 72
     1
 10
19.99233501715599
 20
64.83685605852102
 11
19.96568542494924
 21
64.86568542494919
 72
     1
 10
19.96568542494924
 20
64.86568542494919
 11
19.93685605852107
 21
64.89233501715592
 72
     1
 10
19.93685605852107
 20
64.89233501715594
 11
19.90602466050222
 21
64.91664053154341
 72
     1
 10
19.90602466050222
 20
64.91664053154337
 11
19.87338131671396
 21
64.93845211653294
 72
     1
 10
19.87338131671396
 20
64.93845211653294
 11
19.83912728422575
 21
64.95763529645009
 72
     1
 10
19.83912728422575
 20
64.95763529645009
 11
19.80347375053854
 21
64.97407180061154
 72
     1
 10
19.80347375053856
 20
64.97407180061154
 11
19.76664053154349
 21
64.98766029250347
 72
     1
 10
19.76664053154349
 20
64.98766029250347
 11
19.72885471628397
 21
64.99831699455473
 72
     1
 10
19.72885471628399
 20
64.99831699455469
 11
19.69034926687615
 21
65.00597620465345
 72
     1
 10
19.69034926687612
 20
65.00597620465348
 11
19.65136158221993
 21
65.01059070122247
 72
     1
 10
19.65136158221992
 20
65.01059070122247
 11
19.61213203435599
 21
65.012132034356
 72
     1
 10
19.61213203435602
 20
65.01213203435603
 11
17.61213203435602
 21
65.01213203435591
 72
     1
 10
17.61213203435602
 20
65.01213203435591
 11
17.57290248649211
 21
65.01059070122249
 72
     1
 10
17.57290248649212
 20
65.01059070122247
 11
17.53391480183593
 21
65.00597620465348
 72
     1
 10
17.53391480183592
 20
65.00597620465348
 11
17.49540935242808
 21
64.99831699455473
 72
     1
 10
17.49540935242805
 20
64.99831699455469
 11
17.45762353716854
 21
64.98766029250345
 72
     1
 10
17.45762353716856
 20
64.98766029250347
 11
17.42079031817349
 21
64.97407180061154
 72
     1
 10
17.42079031817349
 20
64.97407180061154
 11
17.38513678448626
 21
64.95763529645009
 72
     1
 10
17.38513678448629
 20
64.95763529645009
 11
17.3508827519981
 21
64.93845211653294
 72
     1
 10
17.35088275199808
 20
64.93845211653294
 11
17.31823940820982
 21
64.91664053154337
 72
     1
 10
17.31823940820982
 20
64.91664053154337
 11
17.28740801019097
 21
64.89233501715592
 72
     1
 10
17.28740801019097
 20
64.89233501715594
 11
17.2585786437628
 21
64.86568542494921
 72
     1
 10
17.2585786437628
 20
64.86568542494919
 11
17.23192905155605
 21
64.83685605852102
 72
     1
 10
17.23192905155605
 20
64.83685605852102
 11
17.2076235371686
 21
64.80602466050214
 72
     1
 10
17.20762353716861
 20
64.80602466050211
 11
17.18581195217905
 21
64.77338131671385
 72
     1
 10
17.18581195217905
 20
64.77338131671391
 11
17.1666287722619
 21
64.73912728422573
 72
     1
 10
17.1666287722619
 20
64.7391272842257
 11
17.15019226810044
 21
64.70347375053847
 72
     1
 10
17.15019226810045
 20
64.70347375053851
 11
17.13660377620853
 21
64.66664053154343
 72
     1
 10
17.13660377620852
 20
64.66664053154343
 11
17.12594707415727
 21
64.62885471628391
 72
     1
 10
17.12594707415724
 20
64.62885471628388
 11
17.1182878640585
 21
64.59034926687604
 72
     1
 10
17.11828786405851
 20
64.59034926687607
 11
17.11367336748951
 21
64.55136158221989
 72
     1
 10
17.11367336748952
 20
64.55136158221987
 11
17.11213203435598
 21
64.51213203435594
 72
     1
 10
17.11213203435596
 20
64.51213203435592
 11
17.11213203435596
 21
60.51213203435591
 72
     1
 10
17.11213203435596
 20
60.51213203435591
 11
17.10904936808909
 21
60.43367293862806
 72
     1
 10
17.10904936808907
 20
60.43367293862812
 11
17.09982037495109
 21
60.35569756931574
 72
     1
 10
17.09982037495109
 20
60.35569756931571
 11
17.08450195475363
 21
60.27868667050004
 72
     1
 10
17.08450195475364
 20
60.27868667050004
 11
17.06318855065112
 21
60.20311503998101
 72
     1
 10
17.06318855065115
 20
60.20311503998098
 11
17.03601156686729
 21
60.12944860199084
 72
     1
 10
17.03601156686727
 20
60.12944860199084
 11
17.00313855854436
 21
60.05814153461637
 72
     1
 10
17.00313855854438
 20
60.05814153461639
 11
16.96477219871009
 21
59.98963346963998
 72
     1
 10
16.96477219871008
 20
59.98963346963998
 11
16.92114902873093
 21
59.92434678206348
 72
     1
 10
16.92114902873095
 20
59.9243467820635
 11
16.87253799995604
 21
59.86268398602581
 72
     1
 10
16.87253799995602
 20
59.86268398602581
 11
16.81923881554253
 21
59.80502525316942
 72
     1
 10
16.81923881554252
 20
59.80502525316936
 11
16.76158008268615
 21
59.75172606875588
 72
     1
 10
16.76158008268612
 20
59.75172606875592
 11
16.69991728664841
 21
59.70311503998101
 72
     1
 10
16.69991728664843
 20
59.70311503998098
 11
16.63463059907191
 21
59.65949187000183
 72
     1
 10
16.6346305990719
 20
59.65949187000186
 11
16.5661225340955
 21
59.62112551016758
 72
     1
 10
16.56612253409554
 20
59.62112551016756
 11
16.49481546672108
 21
59.58825250184464
 72
     1
 10
16.49481546672109
 20
59.58825250184466
 11
16.42114902873095
 21
59.56107551806079
 72
     1
 10
16.42114902873095
 20
59.56107551806079
 11
16.3455773982119
 21
59.53976211395826
 72
     1
 10
16.34557739821184
 20
59.53976211395823
 11
16.26856649939618
 21
59.52444369376076
 72
     1
 10
16.26856649939623
 20
59.52444369376078
 11
16.19059113008383
 21
59.51521470062281
 72
     1
 10
16.19059113008382
 20
59.51521470062281
 11
16.11213203435596
 21
59.51213203435594
 72
     1
 10
16.11213203435596
 20
59.51213203435592
 11
12.91213203435599
 21
59.51213203435592
 72
     1
 10
12.91213203435598
 20
59.51213203435592
 11
12.75521384290029
 21
59.51829736688967
 72
     1
 10
12.75521384290027
 20
59.5182973668897
 11
12.59926310427549
 21
59.53675535316569
 72
     1
 10
12.59926310427551
 20
59.53675535316566
 11
12.44524130664418
 21
59.56739219356058
 72
     1
 10
12.44524130664422
 20
59.56739219356061
 11
12.29409804560613
 21
59.61001900176563
 72
     1
 10
12.29409804560612
 20
59.61001900176566
 11
12.14676516962582
 21
59.66437296933341
 72
     1
 10
12.14676516962583
 20
59.66437296933341
 11
12.00415103487692
 21
59.73011898597923
 72
     1
 10
12.00415103487688
 20
59.73011898597921
 11
11.86713490492407
 21
59.80685170564777
 72
     1
 10
11.86713490492411
 20
59.8068517056478
 11
11.73656152977108
 21
59.89409804560605
 72
     1
 10
11.73656152977105
 20
59.89409804560605
 11
11.61323593769562
 21
59.99132010315591
 72
     1
 10
11.6132359376956
 20
59.99132010315591
 11
11.49791847198288
 21
60.0979184719829
 72
     1
 10
11.49791847198287
 20
60.09791847198286
 11
11.3913201031559
 21
60.21323593769557
 72
     1
 10
11.39132010315592
 20
60.2132359376956
 11
11.29409804560608
 21
60.33656152977105
 72
     1
 10
11.29409804560612
 20
60.33656152977099
 11
11.20685170564783
 21
60.46713490492402
 72
     1
 10
11.2068517056478
 20
60.46713490492405
 11
11.13011898597925
 21
60.60415103487684
 72
     1
 10
11.13011898597926
 20
60.60415103487688
 11
11.06437296933343
 21
60.74676516962577
 72
     1
 10
11.06437296933342
 20
60.74676516962577
 11
11.01001900176568
 21
60.89409804560606
 72
     1
 10
11.01001900176567
 20
60.89409804560606
 11
10.96739219356062
 21
61.04524130664415
 72
     1
 10
10.96739219356061
 20
61.04524130664415
 11
10.93675535316569
 21
61.19926310427553
 72
     1
 10
10.93675535316572
 20
61.1992631042755
 11
10.91829736688973
 21
61.35521384290027
 72
     1
 10
10.91829736688976
 20
61.35521384290027
 11
10.91213203435602
 21
61.51213203435594
 72
     1
 10
10.91213203435597
 20
61.51213203435592
 11
10.91213203435597
 21
67.03713203435592
 72
     1
 10
10.91213203435597
 20
67.03713203435595
 11
10.41213203435592
 21
67.53713203435601
 72
     1
 10
10.41213203435592
 20
67.53713203435601
 11
3.912132034355963
 21
67.53713203435601
 72
     1
 10
3.912132034355977
 20
67.53713203435601
 11
3.41213203435592
 21
67.03713203435595
 72
     1
 10
3.41213203435592
 20
67.03713203435595
 11
3.41213203435592
 21
54.41213203435594
 97
        0
 92
        1
 93
      303
 72
     1
 10
17.11213203435596
 20
85.41213203435601
 11
17.11059070122253
 21
85.37290248649208
 72
     1
 10
17.11059070122252
 20
85.37290248649204
 11
17.10597620465353
 21
85.33391480183587
 72
     1
 10
17.10597620465353
 20
85.33391480183585
 11
17.09831699455479
 21
85.29540935242801
 72
     1
 10
17.0983169945548
 20
85.29540935242804
 11
17.08766029250354
 21
85.25762353716851
 72
     1
 10
17.08766029250353
 20
85.25762353716848
 11
17.0740718006116
 21
85.22079031817344
 72
     1
 10
17.07407180061159
 20
85.22079031817346
 11
17.05763529645014
 21
85.18513678448625
 72
     1
 10
17.05763529645014
 20
85.18513678448622
 11
17.03845211653299
 21
85.15088275199801
 72
     1
 10
17.03845211653299
 20
85.15088275199801
 11
17.01664053154343
 21
85.11823940820974
 72
     1
 10
17.01664053154343
 20
85.11823940820979
 11
16.99233501715598
 21
85.08740801019095
 72
     1
 10
16.99233501715599
 20
85.0874080101909
 11
16.96568542494924
 21
85.05857864376272
 72
     1
 10
16.96568542494924
 20
85.05857864376279
 11
16.93685605852107
 21
85.03192905155604
 72
     1
 10
16.93685605852107
 20
85.03192905155598
 11
16.90602466050222
 21
85.00762353716851
 72
     1
 10
16.90602466050222
 20
85.00762353716854
 11
16.87338131671396
 21
84.98581195217898
 72
     1
 10
16.87338131671396
 20
84.98581195217898
 11
16.83912728422575
 21
84.96662877226185
 72
     1
 10
16.83912728422575
 20
84.96662877226189
 11
16.80347375053854
 21
84.95019226810043
 72
     1
 10
16.80347375053855
 20
84.95019226810043
 11
16.76664053154349
 21
84.93660377620846
 72
     1
 10
16.76664053154349
 20
84.93660377620845
 11
16.72885471628397
 21
84.92594707415719
 72
     1
 10
16.72885471628399
 20
84.92594707415722
 11
16.69034926687614
 21
84.9182878640585
 72
     1
 10
16.69034926687612
 20
84.9182878640585
 11
16.65136158221995
 21
84.9136733674895
 72
     1
 10
16.65136158221992
 20
84.91367336748945
 11
16.61213203435599
 21
84.9121320343559
 72
     1
 10
16.61213203435602
 20
84.9121320343559
 11
14.41213203435593
 21
84.9121320343559
 72
     1
 10
14.41213203435592
 20
84.9121320343559
 11
14.37290248649199
 21
84.91367336748934
 72
     1
 10
14.37290248649202
 20
84.91367336748934
 11
14.33391480183583
 21
84.91828786405832
 72
     1
 10
14.33391480183582
 20
84.91828786405838
 11
14.29540935242797
 21
84.9259470741571
 72
     1
 10
14.29540935242795
 20
84.9259470741571
 11
14.25762353716843
 21
84.93660377620839
 72
     1
 10
14.25762353716845
 20
84.93660377620839
 11
14.22079031817338
 21
84.95019226810033
 72
     1
 10
14.22079031817338
 20
84.95019226810033
 11
14.18513678448614
 21
84.9666287722618
 72
     1
 10
14.18513678448613
 20
84.96662877226176
 11
14.15088275199792
 21
84.98581195217886
 72
     1
 10
14.15088275199792
 20
84.98581195217886
 11
14.11823940820967
 21
85.00762353716845
 72
     1
 10
14.11823940820966
 20
85.00762353716849
 11
14.0874080101908
 21
85.03192905155595
 72
     1
 10
14.08740801019081
 20
85.03192905155591
 11
14.05857864376261
 21
85.05857864376267
 72
     1
 10
14.05857864376264
 20
85.05857864376267
 11
14.0319290515559
 21
85.08740801019085
 72
     1
 10
14.03192905155589
 20
85.08740801019085
 11
14.00762353716842
 21
85.11823940820972
 72
     1
 10
14.0076235371684
 20
85.11823940820969
 11
13.98581195217883
 21
85.15088275199792
 72
     1
 10
13.98581195217883
 20
85.15088275199795
 11
13.96662877226168
 21
85.18513678448618
 72
     1
 10
13.96662877226168
 20
85.18513678448622
 11
13.95019226810022
 21
85.22079031817344
 72
     1
 10
13.95019226810024
 20
85.22079031817341
 11
13.9366037762083
 21
85.25762353716848
 72
     1
 10
13.9366037762083
 20
85.25762353716848
 11
13.92594707415703
 21
85.29540935242801
 72
     1
 10
13.92594707415702
 20
85.29540935242804
 11
13.91828786405828
 21
85.33391480183587
 72
     1
 10
13.9182878640583
 20
85.33391480183585
 11
13.91367336748931
 21
85.37290248649204
 72
     1
 10
13.91367336748931
 20
85.37290248649204
 11
13.91213203435599
 21
85.41213203435598
 72
     1
 10
13.91213203435597
 20
85.41213203435601
 11
13.91213203435597
 21
87.91213203435594
 72
     1
 10
13.91213203435597
 20
87.91213203435589
 11
13.90596670182224
 21
88.0690502258116
 72
     1
 10
13.90596670182225
 20
88.0690502258116
 11
13.88750871554626
 21
88.22500096443636
 72
     1
 10
13.88750871554623
 20
88.22500096443642
 11
13.85687187515131
 21
88.37902276206776
 72
     1
 10
13.85687187515134
 20
88.37902276206776
 11
13.8142450669463
 21
88.53016602310587
 72
     1
 10
13.81424506694628
 20
88.53016602310587
 11
13.75989109937855
 21
88.67749889908614
 72
     1
 10
13.75989109937859
 20
88.67749889908614
 11
13.69414508273274
 21
88.82011303383505
 72
     1
 10
13.69414508273269
 20
88.82011303383505
 11
13.61741236306414
 21
88.95712916378787
 72
     1
 10
13.6174123630642
 20
88.95712916378787
 11
13.5301660231059
 21
89.0877025389409
 72
     1
 10
13.53016602310589
 20
89.08770253894088
 11
13.43294396555606
 21
89.21102813101629
 72
     1
 10
13.43294396555603
 20
89.21102813101631
 11
13.32634559672907
 21
89.32634559672905
 72
     1
 10
13.32634559672908
 20
89.326345596729
 11
13.21102813101636
 21
89.43294396555598
 72
     1
 10
13.21102813101635
 20
89.432943965556
 11
13.08770253894091
 21
89.53016602310583
 72
     1
 10
13.0877025389409
 20
89.53016602310587
 11
12.95712916378787
 21
89.61741236306412
 72
     1
 10
12.95712916378789
 20
89.61741236306412
 11
12.82011303383508
 21
89.69414508273269
 72
     1
 10
12.82011303383507
 20
89.69414508273265
 11
12.67749889908616
 21
89.75989109937851
 72
     1
 10
12.67749889908617
 20
89.75989109937851
 11
12.53016602310587
 21
89.81424506694622
 72
     1
 10
12.53016602310589
 20
89.81424506694626
 11
12.3790227620678
 21
89.8568718751513
 72
     1
 10
12.37902276206779
 20
89.85687187515125
 11
12.22500096443646
 21
89.88750871554618
 72
     1
 10
12.22500096443644
 20
89.8875087155462
 11
12.06905022581166
 21
89.90596670182217
 72
     1
 10
12.06905022581168
 20
89.90596670182217
 11
11.91213203435599
 21
89.91213203435592
 72
     1
 10
11.91213203435598
 20
89.9121320343559
 11
-4.087867965644036
 21
89.9121320343559
 72
     1
 10
-4.087867965644022
 20
89.9121320343559
 11
-4.24478615709971
 21
89.90596670182213
 72
     1
 10
-4.244786157099724
 20
89.90596670182217
 11
-4.400736895724506
 21
89.8875087155462
 72
     1
 10
-4.400736895724492
 20
89.8875087155462
 11
-4.554758693355836
 21
89.85687187515129
 72
     1
 10
-4.554758693355836
 20
89.85687187515125
 11
-4.705901954393922
 21
89.81424506694621
 72
     1
 10
-4.705901954393937
 20
89.81424506694626
 11
-4.853234830374219
 21
89.75989109937854
 72
     1
 10
-4.853234830374219
 20
89.75989109937851
 11
-4.995848965123144
 21
89.69414508273265
 72
     1
 10
-4.995848965123116
 20
89.69414508273265
 11
-5.132865095075914
 21
89.61741236306409
 72
     1
 10
-5.132865095075942
 20
89.61741236306412
 11
-5.263438470228976
 21
89.53016602310587
 72
     1
 10
-5.263438470228948
 20
89.53016602310587
 11
-5.386764062304379
 21
89.43294396555604
 72
     1
 10
-5.386764062304393
 20
89.432943965556
 11
-5.502081528017114
 21
89.32634559672903
 72
     1
 10
-5.502081528017129
 20
89.326345596729
 11
-5.608679896844094
 21
89.21102813101626
 72
     1
 10
-5.60867989684408
 20
89.21102813101631
 11
-5.705901954393922
 21
89.0877025389409
 72
     1
 10
-5.705901954393937
 20
89.08770253894088
 11
-5.793148294352221
 21
88.95712916378784
 72
     1
 10
-5.793148294352192
 20
88.95712916378787
 11
-5.869881014020748
 21
88.82011303383505
 72
     1
 10
-5.869881014020734
 20
88.82011303383505
 11
-5.935627030666566
 21
88.67749889908614
 72
     1
 10
-5.93562703066658
 20
88.67749889908614
 11
-5.989980998234315
 21
88.53016602310587
 72
     1
 10
-5.989980998234329
 20
88.53016602310587
 11
-6.032607806439372
 21
88.37902276206776
 72
     1
 10
-6.032607806439386
 20
88.37902276206776
 11
-6.063244646834306
 21
88.22500096443642
 72
     1
 10
-6.063244646834277
 20
88.22500096443642
 11
-6.081702633110268
 21
88.06905022581165
 72
     1
 10
-6.081702633110296
 20
88.0690502258116
 11
-6.087867965644036
 21
87.91213203435589
 72
     1
 10
-6.087867965644022
 20
87.91213203435589
 11
-6.087867965644022
 21
85.91213203435589
 72
     1
 10
-6.087867965644022
 20
85.91213203435589
 11
-6.084785299377145
 21
85.83367293862805
 72
     1
 10
-6.084785299377131
 20
85.8336729386281
 11
-6.07555630623915
 21
85.75569756931571
 72
     1
 10
-6.07555630623915
 20
85.75569756931569
 11
-6.06023788604169
 21
85.67868667050001
 72
     1
 10
-6.060237886041704
 20
85.67868667050001
 11
-6.038924481939176
 21
85.60311503998098
 72
     1
 10
-6.038924481939147
 20
85.60311503998097
 11
-6.011747498155287
 21
85.52944860199081
 72
     1
 10
-6.01174749815533
 20
85.52944860199081
 11
-5.978874489832406
 21
85.45814153461634
 72
     1
 10
-5.978874489832378
 20
85.45814153461638
 11
-5.940508129998093
 21
85.38963346963996
 72
     1
 10
-5.940508129998079
 20
85.38963346963996
 11
-5.896884960018951
 21
85.32434678206346
 72
     1
 10
-5.896884960018951
 20
85.32434678206348
 11
-5.848273931244037
 21
85.26268398602576
 72
     1
 10
-5.848273931244079
 20
85.26268398602573
 11
-5.79497474683059
 21
85.20502525316937
 72
     1
 10
-5.794974746830575
 20
85.20502525316933
 11
-5.737316013974208
 21
85.15172606875585
 72
     1
 10
-5.737316013974236
 20
85.15172606875589
 11
-5.675653217936527
 21
85.10311503998099
 72
     1
 10
-5.675653217936485
 20
85.10311503998096
 11
-5.610366530359968
 21
85.05949187000181
 72
     1
 10
-5.61036653036001
 20
85.05949187000183
 11
-5.541858465383597
 21
85.02112551016756
 72
     1
 10
-5.541858465383597
 20
85.02112551016754
 11
-5.470551398009135
 21
84.98825250184458
 72
     1
 10
-5.470551398009092
 20
84.98825250184465
 11
-5.396884960018965
 21
84.9610755180608
 72
     1
 10
-5.396884960018951
 20
84.96107551806076
 11
-5.321313329499901
 21
84.93976211395823
 72
     1
 10
-5.321313329499957
 20
84.93976211395821
 11
-5.244302430684285
 21
84.92444369376073
 72
     1
 10
-5.244302430684228
 20
84.92444369376077
 11
-5.166327061371845
 21
84.91521470062279
 72
     1
 10
-5.166327061371873
 20
84.91521470062279
 11
-5.087867965644022
 21
84.91213203435604
 72
     1
 10
-5.087867965644022
 20
84.912132034356
 11
-3.887867965644048
 21
84.9121320343559
 72
     1
 10
-3.887867965644034
 20
84.9121320343559
 11
-3.864330236925681
 21
84.91305683423595
 72
     1
 10
-3.864330236925695
 20
84.91305683423595
 11
-3.84093762613196
 21
84.91582553217734
 72
     1
 10
-3.84093762613196
 20
84.91582553217737
 11
-3.817834356487253
 21
84.92042105823662
 72
     1
 10
-3.817834356487253
 20
84.9204210582366
 11
-3.795162867331541
 21
84.92681507946736
 72
     1
 10
-3.795162867331555
 20
84.92681507946739
 11
-3.77306293593449
 21
84.93496817460254
 72
     1
 10
-3.77306293593449
 20
84.93496817460258
 11
-3.751670815722164
 21
84.94483007709945
 72
     1
 10
-3.75167081572215
 20
84.9448300770994
 11
-3.731118396229234
 21
84.95633998504969
 72
     1
 10
-3.731118396229248
 20
84.9563399850497
 11
-3.711532389956275
 21
84.96942693604347
 72
     1
 10
-3.711532389956232
 20
84.96942693604344
 11
-3.693033551144907
 21
84.98401024467591
 72
     1
 10
-3.693033551144935
 20
84.98401024467595
 11
-3.675735931288031
 21
84.99999999999998
 72
     1
 10
-3.675735931288045
 20
84.99999999999998
 11
-3.659746175963988
 21
85.01729761985689
 72
     1
 10
-3.65974617596396
 20
85.01729761985691
 11
-3.645162867331478
 21
85.03579645866825
 72
     1
 10
-3.645162867331464
 20
85.03579645866821
 11
-3.632075916337711
 21
85.05538246494117
 72
     1
 10
-3.632075916337726
 20
85.05538246494117
 11
-3.620566008387456
 21
85.07593488443408
 72
     1
 10
-3.62056600838747
 20
85.07593488443408
 11
-3.61070410589059
 21
85.09732700464644
 72
     1
 10
-3.61070410589059
 20
85.09732700464647
 11
-3.602551010755419
 21
85.11942693604353
 72
     1
 10
-3.602551010755405
 20
85.11942693604353
 11
-3.596156989524658
 21
85.14209842519926
 72
     1
 10
-3.596156989524672
 20
85.14209842519923
 11
-3.591561463465438
 21
85.16520169484392
 72
     1
 10
-3.591561463465438
 20
85.16520169484389
 11
-3.588792765524033
 21
85.18859430563763
 72
     1
 10
-3.588792765524033
 20
85.18859430563763
 11
-3.587867965643965
 21
85.21213203435596
 72
     1
 10
-3.587867965643965
 20
85.21213203435596
 11
-3.587867965644079
 21
86.91213203435589
 72
     1
 10
-3.587867965644079
 20
86.91213203435589
 11
-3.586326632510647
 21
86.95136158221982
 72
     1
 10
-3.586326632510633
 20
86.95136158221984
 11
-3.581712135941643
 21
86.99034926687605
 72
     1
 10
-3.581712135941643
 20
86.99034926687605
 11
-3.574052925842906
 21
87.02885471628389
 72
     1
 10
-3.57405292584292
 20
87.02885471628386
 11
-3.563396223791656
 21
87.06664053154339
 72
     1
 10
-3.563396223791642
 20
87.06664053154341
 11
-3.549807731899704
 21
87.10347375053848
 72
     1
 10
-3.549807731899704
 20
87.10347375053848
 11
-3.533371227738243
 21
87.13912728422574
 72
     1
 10
-3.533371227738257
 20
87.13912728422574
 11
-3.514188047821122
 21
87.17338131671395
 72
     1
 10
-3.514188047821107
 20
87.17338131671395
 11
-3.492376462831529
 21
87.20602466050218
 72
     1
 10
-3.492376462831543
 20
87.20602466050221
 11
-3.468070948444079
 21
87.23685605852109
 72
     1
 10
-3.468070948444051
 20
87.23685605852105
 11
-3.441421356237313
 21
87.26568542494925
 72
     1
 10
-3.441421356237356
 20
87.26568542494922
 11
-3.412591989809158
 21
87.29233501715595
 72
     1
 10
-3.412591989809129
 20
87.29233501715597
 11
-3.381760591790268
 21
87.31664053154345
 72
     1
 10
-3.381760591790282
 20
87.31664053154341
 11
-3.349117248002031
 21
87.33845211653301
 72
     1
 10
-3.349117248002016
 20
87.33845211653303
 11
-3.31486321551381
 21
87.35763529645016
 72
     1
 10
-3.31486321551381
 20
87.35763529645012
 11
-3.279209681826571
 21
87.37407180061159
 72
     1
 10
-3.279209681826614
 20
87.37407180061163
 11
-3.242376462831543
 21
87.38766029250355
 72
     1
 10
-3.242376462831543
 20
87.38766029250351
 11
-3.204590647572018
 21
87.39831699455478
 72
     1
 10
-3.20459064757199
 20
87.39831699455478
 11
-3.16608519816414
 21
87.40597620465354
 72
     1
 10
-3.166085198164125
 20
87.40597620465356
 11
-3.127097513507933
 21
87.41059070122256
 72
     1
 10
-3.127097513507919
 20
87.41059070122256
 11
-3.087867965643994
 21
87.41213203435597
 72
     1
 10
-3.087867965644022
 20
87.412132034356
 11
2.912132034355977
 21
87.4121320343559
 72
     1
 10
2.912132034355977
 20
87.4121320343559
 11
2.951361582219902
 21
87.41059070122247
 72
     1
 10
2.951361582219874
 20
87.41059070122245
 11
2.990349266876052
 21
87.40597620465345
 72
     1
 10
2.99034926687608
 20
87.40597620465345
 11
3.02885471628393
 21
87.3983169945547
 72
     1
 10
3.028854716283944
 20
87.39831699455468
 11
3.066640531543455
 21
87.38766029250342
 72
     1
 10
3.066640531543441
 20
87.38766029250346
 11
3.103473750538512
 21
87.37407180061152
 72
     1
 10
3.103473750538512
 20
87.37407180061152
 11
3.139127284225722
 21
87.35763529645007
 72
     1
 10
3.139127284225708
 20
87.35763529645007
 11
3.173381316713914
 21
87.33845211653292
 72
     1
 10
3.173381316713914
 20
87.33845211653292
 11
3.20602466050218
 21
87.31664053154336
 72
     1
 10
3.20602466050218
 20
87.31664053154336
 11
3.236856058521027
 21
87.29233501715588
 72
     1
 10
3.236856058521027
 20
87.29233501715592
 11
3.265685424949197
 21
87.2656854249492
 72
     1
 10
3.265685424949197
 20
87.26568542494916
 11
3.292335017155949
 21
87.23685605852097
 72
     1
 10
3.292335017155949
 20
87.236856058521
 11
3.316640531543399
 21
87.20602466050214
 72
     1
 10
3.316640531543384
 20
87.20602466050209
 11
3.338452116532948
 21
87.17338131671382
 72
     1
 10
3.338452116532948
 20
87.17338131671388
 11
3.357635296450098
 21
87.1391272842257
 72
     1
 10
3.357635296450098
 20
87.13912728422569
 11
3.374071800611545
 21
87.10347375053842
 72
     1
 10
3.374071800611545
 20
87.10347375053842
 11
3.387660292503468
 21
87.06664053154339
 72
     1
 10
3.387660292503483
 20
87.06664053154341
 11
3.398316994554747
 21
87.02885471628389
 72
     1
 10
3.398316994554761
 20
87.02885471628386
 11
3.405976204653498
 21
86.99034926687602
 72
     1
 10
3.405976204653484
 20
86.99034926687605
 11
3.410590701222474
 21
86.95136158221988
 72
     1
 10
3.410590701222474
 20
86.95136158221984
 11
3.412132034355906
 21
86.91213203435593
 72
     1
 10
3.41213203435592
 20
86.91213203435589
 11
3.41213203435592
 21
74.78713203435595
 72
     1
 10
3.41213203435592
 20
74.787132034356
 11
3.912132034355977
 21
74.28713203435606
 72
     1
 10
3.912132034355977
 20
74.287132034356
 11
10.41213203435593
 21
74.287132034356
 72
     1
 10
10.41213203435592
 20
74.287132034356
 11
10.91213203435597
 21
74.78713203435595
 72
     1
 10
10.91213203435597
 20
74.787132034356
 11
10.91213203435586
 21
79.21238456605024
 72
     1
 10
10.91213203435586
 20
79.21238456605024
 11
10.91320257273655
 21
79.24508613066532
 72
     1
 10
10.91320257273656
 20
79.24508613066532
 11
10.91640960366897
 21
79.27764766216029
 72
     1
 10
10.91640960366897
 20
79.27764766216026
 11
10.92173939415426
 21
79.30992972705829
 72
     1
 10
10.92173939415426
 20
79.30992972705829
 11
10.92916912121134
 21
79.34179408860149
 72
     1
 10
10.92916912121131
 20
79.34179408860146
 11
10.9386669696083
 21
79.3731042987018
 72
     1
 10
10.93866696960833
 20
79.37310429870186
 11
10.95019226810024
 21
79.40372628223281
 72
     1
 10
10.95019226810024
 20
79.40372628223278
 11
10.96369566358953
 21
79.43352891115975
 72
     1
 10
10.96369566358953
 20
79.43352891115975
 11
10.97911933246367
 21
79.46238456605025
 72
     1
 10
10.97911933246365
 20
79.46238456605025
 11
10.9963972282046
 21
79.49016968256007
 72
     1
 10
10.99639722820461
 20
79.49016968256003
 11
11.01545536421027
 21
79.51676528055457
 72
     1
 10
11.01545536421025
 20
79.51676528055461
 11
11.03621213061639
 21
79.54205747360029
 72
     1
 10
11.03621213061638
 20
79.54205747360029
 11
11.05857864376273
 21
79.56593795664338
 72
     1
 10
11.05857864376275
 20
79.56593795664335
 11
13.75832611206863
 21
82.26568542494911
 72
     1
 10
13.75832611206863
 20
82.26568542494911
 11
13.78220659511186
 21
82.28805193809535
 72
     1
 10
13.78220659511186
 20
82.28805193809538
 11
13.80749878815753
 21
82.30880870450148
 72
     1
 10
13.80749878815754
 20
82.30880870450144
 11
13.8340943861521
 21
82.32786684050712
 72
     1
 10
13.83409438615206
 20
82.32786684050713
 11
13.86187950266185
 21
82.34514473624811
 72
     1
 10
13.86187950266185
 20
82.34514473624811
 11
13.89073515755235
 21
82.36056840512222
 72
     1
 10
13.8907351575524
 20
82.36056840512222
 11
13.92053778647934
 21
82.37407180061152
 72
     1
 10
13.92053778647931
 20
82.37407180061152
 11
13.95115977001028
 21
82.38559709910342
 72
     1
 10
13.95115977001029
 20
82.38559709910342
 11
13.9824699801106
 21
82.39509494750041
 72
     1
 10
13.98246998011063
 20
82.39509494750043
 11
14.01433434165382
 21
82.40252467455752
 72
     1
 10
14.01433434165381
 20
82.4025246745575
 11
14.04661640655185
 21
82.40785446504276
 72
     1
 10
14.04661640655183
 20
82.40785446504279
 11
14.07917793804678
 21
82.41106149597518
 72
     1
 10
14.07917793804677
 20
82.41106149597513
 11
14.11187950266185
 21
82.41213203435595
 72
     1
 10
14.11187950266185
 20
82.412132034356
 11
16.11213203435595
 21
82.412132034356
 72
     1
 10
16.11213203435596
 20
82.412132034356
 11
16.19059113008382
 21
82.40904936808915
 72
     1
 10
16.19059113008382
 20
82.40904936808911
 11
16.2685664993962
 21
82.39982037495114
 72
     1
 10
16.26856649939623
 20
82.39982037495114
 11
16.3455773982119
 21
82.38450195475365
 72
     1
 10
16.34557739821184
 20
82.38450195475369
 11
16.42114902873089
 21
82.36318855065116
 72
     1
 10
16.42114902873095
 20
82.36318855065112
 11
16.49481546672109
 21
82.33601156686725
 72
     1
 10
16.49481546672109
 20
82.33601156686725
 11
16.56612253409554
 21
82.30313855854433
 72
     1
 10
16.56612253409548
 20
82.30313855854436
 11
16.6346305990719
 21
82.26477219871012
 72
     1
 10
16.6346305990719
 20
82.26477219871005
 11
16.69991728664841
 21
82.22114902873087
 72
     1
 10
16.69991728664843
 20
82.22114902873093
 11
16.76158008268614
 21
82.17253799995603
 72
     1
 10
16.76158008268612
 20
82.17253799995601
 11
16.81923881554249
 21
82.11923881554254
 72
     1
 10
16.81923881554252
 20
82.11923881554255
 11
16.87253799995601
 21
82.06158008268616
 72
     1
 10
16.87253799995602
 20
82.0615800826861
 11
16.92114902873093
 21
81.99991728664841
 72
     1
 10
16.92114902873095
 20
81.99991728664841
 11
16.96477219871009
 21
81.93463059907191
 72
     1
 10
16.96477219871008
 20
81.93463059907193
 11
17.00313855854436
 21
81.86612253409553
 72
     1
 10
17.00313855854438
 20
81.86612253409553
 11
17.03601156686729
 21
81.79481546672105
 72
     1
 10
17.03601156686727
 20
81.79481546672107
 11
17.06318855065113
 21
81.72114902873094
 72
     1
 10
17.06318855065115
 20
81.72114902873094
 11
17.08450195475367
 21
81.64557739821191
 72
     1
 10
17.08450195475364
 20
81.64557739821189
 11
17.09982037495111
 21
81.56856649939621
 72
     1
 10
17.09982037495109
 20
81.56856649939621
 11
17.10904936808907
 21
81.49059113008382
 72
     1
 10
17.10904936808907
 20
81.4905911300838
 11
17.11213203435595
 21
81.41213203435595
 72
     1
 10
17.11213203435596
 20
81.41213203435601
 11
17.11213203435608
 21
77.31213203435601
 72
     1
 10
17.11213203435608
 20
77.31213203435598
 11
17.11367336748951
 21
77.27290248649206
 72
     1
 10
17.11367336748952
 20
77.27290248649208
 11
17.11828786405853
 21
77.23391480183591
 72
     1
 10
17.11828786405851
 20
77.23391480183588
 11
17.12594707415725
 21
77.19540935242804
 72
     1
 10
17.12594707415724
 20
77.19540935242801
 11
17.13660377620849
 21
77.15762353716849
 72
     1
 10
17.13660377620852
 20
77.15762353716852
 11
17.15019226810044
 21
77.12079031817347
 72
     1
 10
17.15019226810045
 20
77.1207903181735
 11
17.16662877226191
 21
77.08513678448628
 72
     1
 10
17.1666287722619
 20
77.08513678448625
 11
17.18581195217905
 21
77.05088275199805
 72
     1
 10
17.18581195217905
 20
77.05088275199805
 11
17.20762353716861
 21
77.01823940820978
 72
     1
 10
17.20762353716861
 20
77.01823940820978
 11
17.23192905155606
 21
76.98740801019093
 72
     1
 10
17.23192905155605
 20
76.98740801019093
 11
17.2585786437628
 21
76.95857864376276
 72
     1
 10
17.2585786437628
 20
76.95857864376276
 11
17.28740801019097
 21
76.93192905155601
 72
     1
 10
17.28740801019097
 20
76.93192905155601
 11
17.31823940820982
 21
76.90762353716855
 72
     1
 10
17.31823940820982
 20
76.90762353716857
 11
17.35088275199808
 21
76.88581195217901
 72
     1
 10
17.35088275199808
 20
76.88581195217901
 11
17.38513678448628
 21
76.86662877226186
 72
     1
 10
17.38513678448629
 20
76.86662877226186
 11
17.42079031817351
 21
76.85019226810045
 72
     1
 10
17.42079031817349
 20
76.85019226810041
 11
17.45762353716856
 21
76.83660377620845
 72
     1
 10
17.45762353716856
 20
76.83660377620848
 11
17.49540935242807
 21
76.82594707415723
 72
     1
 10
17.49540935242805
 20
76.8259470741572
 11
17.53391480183589
 21
76.81828786405848
 72
     1
 10
17.53391480183592
 20
76.81828786405848
 11
17.57290248649211
 21
76.81367336748945
 72
     1
 10
17.57290248649212
 20
76.81367336748943
 11
17.61213203435604
 21
76.81213203435589
 72
     1
 10
17.61213203435602
 20
76.81213203435593
 11
19.61213203435602
 21
76.81213203435603
 72
     1
 10
19.61213203435602
 20
76.81213203435603
 11
19.65136158221995
 21
76.81367336748945
 72
     1
 10
19.65136158221992
 20
76.81367336748943
 11
19.69034926687611
 21
76.81828786405844
 72
     1
 10
19.69034926687612
 20
76.81828786405848
 11
19.72885471628396
 21
76.8259470741572
 72
     1
 10
19.72885471628399
 20
76.8259470741572
 11
19.7666405315435
 21
76.83660377620845
 72
     1
 10
19.76664053154349
 20
76.83660377620848
 11
19.80347375053856
 21
76.85019226810045
 72
     1
 10
19.80347375053856
 20
76.85019226810041
 11
19.83912728422577
 21
76.86662877226183
 72
     1
 10
19.83912728422575
 20
76.86662877226186
 11
19.87338131671396
 21
76.88581195217901
 72
     1
 10
19.87338131671396
 20
76.88581195217901
 11
19.90602466050222
 21
76.90762353716857
 72
     1
 10
19.90602466050222
 20
76.90762353716857
 11
19.93685605852107
 21
76.93192905155604
 72
     1
 10
19.93685605852107
 20
76.93192905155601
 11
19.96568542494924
 21
76.95857864376276
 72
     1
 10
19.96568542494924
 20
76.95857864376276
 11
19.99233501715599
 21
76.98740801019093
 72
     1
 10
19.99233501715599
 20
76.98740801019093
 11
20.01664053154344
 21
77.01823940820978
 72
     1
 10
20.01664053154343
 20
77.01823940820978
 11
20.03845211653299
 21
77.05088275199805
 72
     1
 10
20.03845211653299
 20
77.05088275199805
 11
20.05763529645014
 21
77.08513678448625
 72
     1
 10
20.05763529645014
 20
77.08513678448625
 11
20.07407180061159
 21
77.12079031817347
 72
     1
 10
20.07407180061159
 20
77.1207903181735
 11
20.08766029250353
 21
77.15762353716854
 72
     1
 10
20.08766029250353
 20
77.15762353716852
 11
20.09831699455478
 21
77.19540935242804
 72
     1
 10
20.09831699455481
 20
77.19540935242801
 11
20.10597620465354
 21
77.23391480183585
 72
     1
 10
20.10597620465353
 20
77.23391480183588
 11
20.11059070122254
 21
77.27290248649206
 72
     1
 10
20.11059070122258
 20
77.27290248649208
 11
20.11213203435601
 21
77.31213203435601
 72
     1
 10
20.11213203435596
 20
77.31213203435598
 11
20.11213203435596
 21
83.82218254069476
 72
     1
 10
20.11213203435596
 20
83.82218254069474
 11
20.10999095759456
 21
83.88758566992491
 72
     1
 10
20.10999095759456
 20
83.88758566992491
 11
20.10357689572977
 21
83.95270873291483
 72
     1
 10
20.10357689572982
 20
83.95270873291488
 11
20.09291731475923
 21
84.01727286271091
 72
     1
 10
20.09291731475923
 20
84.01727286271087
 11
20.07805786064507
 21
84.08100158579731
 72
     1
 10
20.07805786064506
 20
84.08100158579728
 11
20.0590621638511
 21
84.14362200599791
 72
     1
 10
20.05906216385108
 20
84.14362200599796
 11
20.03601156686726
 21
84.20486597305989
 72
     1
 10
20.03601156686727
 20
84.20486597305986
 11
20.00900477588869
 21
84.26447123091378
 72
     1
 10
20.00900477588869
 20
84.26447123091376
 11
19.97815743814043
 21
84.32218254069473
 72
     1
 10
19.97815743814044
 20
84.32218254069473
 11
19.94360164665855
 21
84.37775277371434
 72
     1
 10
19.94360164665852
 20
84.37775277371438
 11
19.90548537464721
 21
84.43094396970352
 72
     1
 10
19.90548537464724
 20
84.43094396970352
 11
19.86397184183498
 21
84.48152835579486
 72
     1
 10
19.86397184183494
 20
84.48152835579483
 11
19.81923881554253
 21
84.52928932188132
 72
     1
 10
19.81923881554257
 20
84.52928932188134
 11
17.62426406871199
 21
86.72426406871199
 72
     1
 10
17.62426406871196
 20
86.72426406871196
 11
17.60568362941862
 21
86.7413432471025
 72
     1
 10
17.60568362941865
 20
86.7413432471025
 11
17.58573342320996
 21
86.75680029504377
 72
     1
 10
17.58573342320994
 20
86.7568002950438
 11
17.56455463792994
 21
86.77052582282575
 72
     1
 10
17.56455463792991
 20
86.77052582282575
 11
17.54229715609122
 21
86.78242269472676
 72
     1
 10
17.54229715609125
 20
86.78242269472676
 11
17.51911849415467
 21
86.79240671644445
 72
     1
 10
17.51911849415467
 20
86.79240671644445
 11
17.49518268778342
 21
86.80040723093958
 72
     1
 10
17.49518268778342
 20
86.80040723093956
 11
17.47065913096081
 21
86.80636761847697
 72
     1
 10
17.47065913096082
 20
86.80636761847702
 11
17.44572137718697
 21
86.81024569732405
 72
     1
 10
17.44572137718694
 20
86.81024569732405
 11
17.4205459112387
 21
86.81201402227101
 72
     1
 10
17.42054591123872
 20
86.81201402227097
 11
17.39531090018479
 21
86.81166007886139
 72
     1
 10
17.39531090018477
 20
86.81166007886137
 11
17.37019493249526
 21
86.80918637195697
 72
     1
 10
17.37019493249528
 20
86.809186371957
 11
17.34537575416903
 21
86.80461040801061
 72
     1
 10
17.34537575416903
 20
86.80461040801063
 11
17.32102901082302
 21
86.79796457117294
 72
     1
 10
17.32102901082305
 20
86.79796457117291
 11
17.29732700464642
 21
86.78929589410945
 72
     1
 10
17.29732700464637
 20
86.78929589410941
 11
17.27443747501563
 21
86.7786657251497
 72
     1
 10
17.27443747501564
 20
86.77866572514975
 11
17.2525224114013
 21
86.76614929412457
 72
     1
 10
17.25252241140128
 20
86.76614929412451
 11
17.23173690696635
 21
86.75183517996348
 72
     1
 10
17.23173690696637
 20
86.75183517996348
 11
17.2122280609703
 21
86.73582468382093
 72
     1
 10
17.21222806097029
 20
86.73582468382099
 11
17.19413393774567
 21
86.71823111216653
 72
     1
 10
17.19413393774567
 20
86.71823111216648
 11
17.17758258961547
 21
86.69917897491359
 72
     1
 10
17.17758258961544
 20
86.69917897491362
 11
17.16269115066508
 21
86.67880310426189
 72
     1
 10
17.16269115066512
 20
86.67880310426189
 11
17.14956500778326
 21
86.65724770048759
 72
     1
 10
17.14956500778328
 20
86.65724770048759
 11
17.13829705483749
 21
86.63466531143681
 72
     1
 10
17.13829705483749
 20
86.63466531143681
 11
17.12896703526337
 21
86.61121575294254
 72
     1
 10
17.12896703526337
 20
86.6112157529425
 11
17.12164097771921
 21
86.58706497780611
 72
     1
 10
17.12164097771915
 20
86.58706497780613
 11
17.11637072880036
 21
86.5623839013474
 72
     1
 10
17.1163707288004
 20
86.56238390134744
 11
17.11319358612058
 21
86.53734719183479
 72
     1
 10
17.11319358612058
 20
86.53734719183475
 11
17.11213203435598
 21
86.51213203435597
 72
     1
 10
17.11213203435596
 20
86.51213203435597
 11
17.11213203435596
 21
85.41213203435598
 97
        0
 92
        1
 93
       45
 72
     1
 10
19.41213203435592
 20
10.91713203435594
 11
18.79213203435597
 21
11.53713203435596
 72
     1
 10
18.79213203435597
 20
11.53713203435595
 11
16.91213203435598
 21
11.53713203435595
 72
     1
 10
16.91213203435598
 20
11.53713203435595
 11
16.91213203435598
 21
0.2121320343559176
 72
     1
 10
16.91213203435598
 20
0.2121320343559319
 11
16.91305683423604
 21
0.1885943056375794
 72
     1
 10
16.91305683423604
 20
0.1885943056375652
 11
16.91582553217745
 21
0.1652016948438586
 72
     1
 10
16.91582553217745
 20
0.165201694843887
 11
16.92042105823668
 21
0.1420984251991797
 72
     1
 10
16.92042105823668
 20
0.1420984251991797
 11
16.92681507946743
 21
0.1194269360434674
 72
     1
 10
16.92681507946747
 20
0.1194269360434532
 11
16.93496817460264
 21
0.0973270046464165
 72
     1
 10
16.9349681746026
 20
0.0973270046464165
 11
16.94483007709947
 21
0.0759348844340906
 72
     1
 10
16.94483007709948
 20
0.0759348844340764
 11
16.95633998504975
 21
0.0553824649411467
 72
     1
 10
16.95633998504973
 20
0.0553824649411752
 11
16.96942693604349
 21
0.0357964586682158
 72
     1
 10
16.96942693604353
 20
0.0357964586682158
 11
16.984010244676
 21
0.0172976198569046
 72
     1
 10
16.98401024467597
 20
0.0172976198568904
 11
17.00000000000003
 21
-0.0000000000000142
 72
     1
 10
17.0
 20
-0.0000000000000284
 11
17.01729761985689
 21
-0.0159897553240711
 72
     1
 10
17.01729761985689
 20
-0.0159897553240569
 11
17.03579645866821
 21
-0.0305730639565241
 72
     1
 10
17.03579645866824
 20
-0.0305730639565241
 11
17.0553824649412
 21
-0.0436600149502766
 72
     1
 10
17.0553824649412
 20
-0.0436600149502908
 11
17.07593488443412
 21
-0.0551699229005607
 72
     1
 10
17.0759348844341
 20
-0.0551699229005465
 11
17.09732700464644
 21
-0.0650318253974263
 72
     1
 10
17.09732700464644
 20
-0.0650318253974263
 11
17.11942693604348
 21
-0.073184920532583
 72
     1
 10
17.11942693604351
 20
-0.073184920532583
 11
17.1420984251992
 21
-0.0795789417633444
 72
     1
 10
17.1420984251992
 20
-0.0795789417633444
 11
17.16520169484391
 21
-0.084174467822578
 72
     1
 10
17.16520169484391
 20
-0.084174467822578
 11
17.18859430563762
 21
-0.0869431657639695
 72
     1
 10
17.18859430563759
 20
-0.0869431657639837
 11
17.21213203435594
 21
-0.0878679656440511
 72
     1
 10
17.21213203435593
 20
-0.0878679656440511
 11
19.11213203435595
 21
-0.0878679656440511
 72
     1
 10
19.11213203435596
 20
-0.0878679656440511
 11
19.13566976307432
 21
-0.0869431657639837
 72
     1
 10
19.13566976307436
 20
-0.0869431657639837
 11
19.15906237386805
 21
-0.0841744678225922
 72
     1
 10
19.15906237386804
 20
-0.084174467822578
 11
19.18216564351275
 21
-0.0795789417633444
 72
     1
 10
19.18216564351275
 20
-0.0795789417633444
 11
19.20483713266846
 21
-0.073184920532583
 72
     1
 10
19.20483713266844
 20
-0.073184920532583
 11
19.22693706406548
 21
-0.0650318253974263
 72
     1
 10
19.22693706406551
 20
-0.0650318253974263
 11
19.24832918427785
 21
-0.0551699229005465
 72
     1
 10
19.24832918427785
 20
-0.0551699229005465
 11
19.26888160377076
 21
-0.0436600149502766
 72
     1
 10
19.26888160377075
 20
-0.0436600149502908
 11
19.28846761004371
 21
-0.0305730639565383
 72
     1
 10
19.28846761004371
 20
-0.0305730639565241
 11
19.30696644885502
 21
-0.0159897553240569
 72
     1
 10
19.306966448855
 20
-0.0159897553240569
 11
19.32426406871191
 21
-0.0000000000000142
 72
     1
 10
19.3242640687119
 20
-0.0000000000000284
 11
19.34025382403594
 21
0.0172976198568762
 72
     1
 10
19.34025382403592
 20
0.0172976198568904
 11
19.35483713266839
 21
0.0357964586682016
 72
     1
 10
19.35483713266842
 20
0.0357964586682158
 11
19.36792408366217
 21
0.0553824649411752
 72
     1
 10
19.36792408366216
 20
0.0553824649411752
 11
19.37943399161244
 21
0.0759348844341048
 72
     1
 10
19.37943399161247
 20
0.0759348844340764
 11
19.38929589410934
 21
0.0973270046464023
 72
     1
 10
19.38929589410929
 20
0.0973270046464165
 11
19.39744898924445
 21
0.1194269360434532
 72
     1
 10
19.39744898924448
 20
0.1194269360434532
 11
19.40384301047524
 21
0.1420984251991655
 72
     1
 10
19.40384301047527
 20
0.1420984251991797
 11
19.4084385365345
 21
0.165201694843887
 72
     1
 10
19.4084385365345
 20
0.165201694843887
 11
19.41120723447591
 21
0.1885943056375936
 72
     1
 10
19.41120723447591
 20
0.1885943056375652
 11
19.41213203435596
 21
0.2121320343559745
 72
     1
 10
19.41213203435592
 20
0.2121320343559887
 11
19.41213203435592
 21
10.91713203435594
 97
        0
 75
     0
 76
     1
 52
0.0
 41
29.05000000000002
 77
     0
 78
     1
 53
45.0
 43
-88.98786796564399
 44
-76.5878679656441
 45
-2.567681499183652
 46
2.567681499183652
 79
     0
 98
        1
 10
-88.98786796564399
 20
-76.5878679656441
  0
TEXT
  5
3CD
330
A
100
AcDbEntity
  8
0
  6
Continuous
 62
     7
370
     0
100
AcDbText
 10
95.21941758523505
 20
-48.60720350499136
 30
0.0
 40
30.0
  1
BS40
100
AcDbText
  0
ENDSEC
  0
SECTION
  2
OBJECTS
  0
DICTIONARY
  5
19
330
0
100
AcDbDictionary
281
     1
  3
ACAD_COLOR
350
2C8
  3
ACAD_GROUP
350
1A
  3
ACAD_LAYOUT
350
1E
  3
ACAD_MATERIAL
350
29E
  3
ACAD_MLEADERSTYLE
350
2ED
  3
ACAD_MLINESTYLE
350
1B
  3
ACAD_PLOTSETTINGS
350
22
  3
ACAD_PLOTSTYLENAME
350
1F
  3
ACAD_SCALELIST
350
2CB
  3
ACAD_TABLESTYLE
350
2C9
  3
ACAD_VISUALSTYLE
350
2B7
  3
ACAD_WIPEOUT_VARS
350
23
  3
ACDB_RECOMPOSE_DATA
350
3E2
  3
AcDbVariableDictionary
350
3E3
  3
ASE_INDEX_DICTIONARY
350
3B7
  3
DWGPROPS
350
3F1
  0
DICTIONARY
  5
3BA
330
14
100
AcDbDictionary
280
     1
281
     1
  3
ADSK_XREC_LAYER_RECONCILED
360
3BB
  0
DICTIONARY
  5
2FE
330
A
100
AcDbDictionary
280
     1
281
     1
  3
ACAD_SORTENTS
360
2FF
  0
DICTIONARY
  5
2C8
102
{ACAD_REACTORS
330
19
102
}
330
19
100
AcDbDictionary
281
     1
  0
DICTIONARY
  5
1A
102
{ACAD_REACTORS
330
19
102
}
330
19
100
AcDbDictionary
281
     1
  0
DICTIONARY
  5
1E
102
{ACAD_REACTORS
330
19
102
}
330
19
100
AcDbDictionary
281
     1
  3
Layout1
350
21
  3
Model
350
20
  0
DICTIONARY
  5
29E
102
{ACAD_REACTORS
330
19
102
}
330
19
100
AcDbDictionary
281
     1
  3
ByBlock
350
2A7
  3
ByLayer
350
29F
  3
Global
350
2AF
  0
DICTIONARY
  5
2ED
102
{ACAD_REACTORS
330
19
102
}
330
19
100
AcDbDictionary
281
     1
  3
Standard
350
2EE
  0
DICTIONARY
  5
1B
102
{ACAD_REACTORS
330
19
102
}
330
19
100
AcDbDictionary
281
     1
  3
Standard
350
1C
  0
DICTIONARY
  5
22
102
{ACAD_REACTORS
330
19
102
}
330
19
100
AcDbDictionary
281
     1
  0
ACDBDICTIONARYWDFLT
  5
1F
102
{ACAD_REACTORS
330
19
102
}
330
19
100
AcDbDictionary
281
     1
  3
Normal
350
1D
100
AcDbDictionaryWithDefault
340
1D
  0
DICTIONARY
  5
2CB
102
{ACAD_REACTORS
330
19
102
}
330
19
100
AcDbDictionary
281
     1
  3
A0
350
2CC
  3
A1
350
2CD
  3
A2
350
2CE
  3
A3
350
2CF
  3
A4
350
2D0
  3
A5
350
2D1
  3
A6
350
2D2
  3
A7
350
2D3
  3
A8
350
2D4
  3
A9
350
2D5
  3
B0
350
2D6
  3
B1
350
2D7
  3
B2
350
2D8
  3
B3
350
2D9
  3
B4
350
2DA
  3
B5
350
2DB
  3
B6
350
2DC
  3
B7
350
2DD
  3
B8
350
2DE
  3
B9
350
2DF
  3
C0
350
2E0
  3
C1
350
2E1
  3
C2
350
2E2
  3
C3
350
2E3
  3
C4
350
2E4
  3
C5
350
2E5
  3
C6
350
2E6
  3
C7
350
2E7
  3
C8
350
2E8
  3
C9
350
2E9
  3
D0
350
2EA
  3
D1
350
2EB
  3
D2
350
2EC
  0
DICTIONARY
  5
2C9
102
{ACAD_REACTORS
330
19
102
}
330
19
100
AcDbDictionary
281
     1
  3
Standard
350
2CA
  0
DICTIONARY
  5
2B7
102
{ACAD_REACTORS
330
19
102
}
330
19
100
AcDbDictionary
281
     1
  3
2dWireframe
350
2BD
  3
3D Hidden
350
2BF
  3
3dWireframe
350
2BE
  3
Basic
350
2BC
  3
Brighten
350
2C3
  3
ColorChange
350
2C7
  3
Conceptual
350
2C0
  3
Dim
350
2C2
  3
Facepattern
350
2C6
  3
Flat
350
2B8
  3
FlatWithEdges
350
2B9
  3
Gouraud
350
2BA
  3
GouraudWithEdges
350
2BB
  3
Linepattern
350
2C5
  3
Realistic
350
2C1
  3
Thicken
350
2C4
  0
WIPEOUTVARIABLES
  5
23
330
19
100
AcDbWipeoutVariables
 70
     1
  0
XRECORD
  5
3E2
102
{ACAD_REACTORS
330
19
102
}
330
19
100
AcDbXrecord
280
     1
 90
        1
330
2CA
  0
DICTIONARY
  5
3E3
102
{ACAD_REACTORS
330
19
102
}
330
19
100
AcDbDictionary
281
     1
  3
CANNOSCALE
350
3E7
  3
CMLEADERSTYLE
350
3E5
  3
CTABLESTYLE
350
3E4
  3
DIMASSOC
350
3EF
  3
INDEXCTL
350
3EE
  3
LIGHTINGUNITS
350
3E8
  3
MSLTSCALE
350
3E6
  3
SORTENTS
350
3ED
  0
DICTIONARY
  5
3B7
102
{ACAD_REACTORS
330
19
102
}
330
19
100
AcDbDictionary
281
     1
  3
ASEBlockHierarchyIndexRecord
350
3B9
1001
DCO15
1040
1701687917.295
  0
XRECORD
  5
3F1
102
{ACAD_REACTORS
330
19
102
}
330
19
100
AcDbXrecord
280
     1
  1
DWGPROPS COOKIE
  2

  3

  4

  6

  7

  8
renzo.ceresoli
  9

300
=
301
=
302
=
303
=
304
=
305
=
306
=
307
=
308
=
309
=
 40
0.005132962962963
 41
2455498.742800926
 42
2455498.69728272
  1

 90
        0
  0
XRECORD
  5
3BB
102
{ACAD_REACTORS
330
3BA
102
}
330
3BA
100
AcDbXrecord
280
     1
290
     1
  0
SORTENTSTABLE
  5
2FF
102
{ACAD_REACTORS
330
2FE
102
}
330
2FE
100
AcDbSortentsTable
330
A
331
1D3
  5
36D
331
306
  5
29C
331
33D
  5
330
331
30E
  5
301
331
345
  5
338
331
34D
  5
340
331
316
  5
309
331
31E
  5
311
331
355
  5
348
331
326
  5
319
331
35D
  5
350
331
32E
  5
321
331
365
  5
358
331
36D
  5
360
331
336
  5
329
331
33E
  5
331
331
1D4
  5
36E
331
307
  5
2F8
331
30F
  5
302
331
346
  5
339
331
317
  5
30A
331
34E
  5
341
331
31F
  5
312
331
356
  5
349
331
35E
  5
351
331
327
  5
31A
331
32F
  5
322
331
366
  5
359
331
337
  5
32A
331
36E
  5
361
331
16D
  5
365
331
1D5
  5
36F
331
308
  5
2F9
331
33F
  5
332
331
310
  5
303
331
347
  5
33A
331
34F
  5
342
331
318
  5
30B
331
357
  5
34A
331
320
  5
313
331
328
  5
31B
331
35F
  5
352
331
330
  5
323
331
367
  5
35A
331
36F
  5
362
331
D8
  5
D8
331
16E
  5
366
331
301
  5
16E
331
338
  5
32B
331
340
  5
333
331
1D6
  5
370
331
309
  5
2FA
331
311
  5
304
331
348
  5
33B
331
319
  5
30C
331
350
  5
343
331
358
  5
34B
331
321
  5
314
331
360
  5
353
331
329
  5
31C
331
331
  5
324
331
368
  5
35B
331
370
  5
363
331
302
  5
1D3
331
339
  5
32C
331
30A
  5
2FB
331
341
  5
334
331
349
  5
33C
331
312
  5
305
331
351
  5
344
331
29C
  5
371
331
31A
  5
30D
331
322
  5
315
331
359
  5
34C
331
32A
  5
31D
331
361
  5
354
331
369
  5
35C
331
332
  5
325
331
DA
  5
DA
331
303
  5
1D4
331
33A
  5
32D
331
30B
  5
2FC
331
342
  5
335
331
313
  5
306
331
34A
  5
33D
331
31B
  5
30E
331
352
  5
345
331
35A
  5
34D
331
323
  5
316
331
362
  5
355
331
32B
  5
31E
331
333
  5
326
331
36A
  5
35D
331
DB
  5
DB
331
304
  5
1D5
331
33B
  5
32E
331
30C
  5
2FD
331
343
  5
336
331
34B
  5
33E
331
314
  5
307
331
31C
  5
30F
331
353
  5
346
331
324
  5
317
331
35B
  5
34E
331
32C
  5
31F
331
363
  5
356
331
36B
  5
35E
331
334
  5
327
331
DC
  5
DC
331
305
  5
1D6
331
33C
  5
32F
331
30D
  5
300
331
344
  5
337
331
315
  5
308
331
34C
  5
33F
331
31D
  5
310
331
354
  5
347
331
35C
  5
34F
331
325
  5
318
331
32D
  5
320
331
364
  5
357
331
335
  5
328
331
36C
  5
35F
  0
LAYOUT
  5
21
102
{ACAD_XDICTIONARY
360
3F4
102
}
102
{ACAD_REACTORS
330
1E
102
}
330
1E
100
AcDbPlotSettings
  1

  2

  4

  6

 40
0.0
 41
0.0
 42
0.0
 43
0.0
 44
0.0
 45
0.0
 46
0.0
 47
0.0
 48
0.0
 49
0.0
140
0.0
141
0.0
142
1.0
143
1.0
 70
     0
 72
     0
 73
     0
 74
     0
  7

 75
     0
147
1.0
148
0.0
149
0.0
100
AcDbLayout
  1
Layout1
 70
     0
 71
     1
 10
0.0
 20
0.0
 11
12.0
 21
9.0
 12
0.0
 22
0.0
 32
0.0
 14
1.000000000000000E+20
 24
1.000000000000000E+20
 34
1.000000000000000E+20
 15
-1.000000000000000E+20
 25
-1.000000000000000E+20
 35
-1.000000000000000E+20
146
0.0
 13
0.0
 23
0.0
 33
0.0
 16
1.0
 26
0.0
 36
0.0
 17
0.0
 27
1.0
 37
0.0
 76
     0
330
B
  0
LAYOUT
  5
20
102
{ACAD_XDICTIONARY
360
3F2
102
}
102
{ACAD_REACTORS
330
1E
102
}
330
1E
100
AcDbPlotSettings
  1

  2

  4

  6

 40
0.0
 41
0.0
 42
0.0
 43
0.0
 44
0.0
 45
0.0
 46
0.0
 47
0.0
 48
0.0
 49
0.0
140
0.0
141
0.0
142
1.0
143
1.0
 70
  1024
 72
     0
 73
     0
 74
     0
  7

 75
     0
147
1.0
148
0.0
149
0.0
100
AcDbLayout
  1
Model
 70
     0
 71
     0
 10
0.0
 20
0.0
 11
0.0
 21
0.0
 12
0.0
 22
0.0
 32
0.0
 14
0.0
 24
0.0
 34
0.0
 15
0.0
 25
0.0
 35
0.0
146
0.0
 13
0.0
 23
0.0
 33
0.0
 16
0.0
 26
0.0
 36
0.0
 17
0.0
 27
0.0
 37
0.0
 76
     0
330
A
331
15
  0
MATERIAL
  5
2A7
102
{ACAD_XDICTIONARY
360
2A8
102
}
102
{ACAD_REACTORS
330
29E
102
}
330
29E
100
AcDbMaterial
  1
ByBlock
 72
     0
 43
0.0208333333333333
 43
0.0
 43
0.0
 43
0.0
 43
0.0
 43
0.0208333333333333
 43
0.0
 43
0.0
 43
0.0
 43
0.0
 43
1.0
 43
0.0
 43
0.0
 43
0.0
 43
0.0
 43
1.0
 77
     0
 47
0.0208333333333333
 47
0.0
 47
0.0
 47
0.0
 47
0.0
 47
0.0208333333333333
 47
0.0
 47
0.0
 47
0.0
 47
0.0
 47
1.0
 47
0.0
 47
0.0
 47
0.0
 47
0.0
 47
1.0
171
     0
 49
0.0208333333333333
 49
0.0
 49
0.0
 49
0.0
 49
0.0
 49
0.0208333333333333
 49
0.0
 49
0.0
 49
0.0
 49
0.0
 49
1.0
 49
0.0
 49
0.0
 49
0.0
 49
0.0
 49
1.0
175
     0
142
0.0208333333333333
142
0.0
142
0.0
142
0.0
142
0.0
142
0.0208333333333333
142
0.0
142
0.0
142
0.0
142
0.0
142
1.0
142
0.0
142
0.0
142
0.0
142
0.0
142
1.0
179
     0
144
0.0208333333333333
144
0.0
144
0.0
144
0.0
144
0.0
144
0.0208333333333333
144
0.0
144
0.0
144
0.0
144
0.0
144
1.0
144
0.0
144
0.0
144
0.0
144
0.0
144
1.0
147
0.0208333333333333
147
0.0
147
0.0
147
0.0
147
0.0
147
0.0208333333333333
147
0.0
147
0.0
147
0.0
147
0.0
147
1.0
147
0.0
147
0.0
147
0.0
147
0.0
147
1.0
  0
MATERIAL
  5
29F
102
{ACAD_XDICTIONARY
360
2A0
102
}
102
{ACAD_REACTORS
330
29E
102
}
330
29E
100
AcDbMaterial
  1
ByLayer
 72
     0
 43
0.0208333333333333
 43
0.0
 43
0.0
 43
0.0
 43
0.0
 43
0.0208333333333333
 43
0.0
 43
0.0
 43
0.0
 43
0.0
 43
1.0
 43
0.0
 43
0.0
 43
0.0
 43
0.0
 43
1.0
 77
     0
 47
0.0208333333333333
 47
0.0
 47
0.0
 47
0.0
 47
0.0
 47
0.0208333333333333
 47
0.0
 47
0.0
 47
0.0
 47
0.0
 47
1.0
 47
0.0
 47
0.0
 47
0.0
 47
0.0
 47
1.0
171
     0
 49
0.0208333333333333
 49
0.0
 49
0.0
 49
0.0
 49
0.0
 49
0.0208333333333333
 49
0.0
 49
0.0
 49
0.0
 49
0.0
 49
1.0
 49
0.0
 49
0.0
 49
0.0
 49
0.0
 49
1.0
175
     0
142
0.0208333333333333
142
0.0
142
0.0
142
0.0
142
0.0
142
0.0208333333333333
142
0.0
142
0.0
142
0.0
142
0.0
142
1.0
142
0.0
142
0.0
142
0.0
142
0.0
142
1.0
179
     0
144
0.0208333333333333
144
0.0
144
0.0
144
0.0
144
0.0
144
0.0208333333333333
144
0.0
144
0.0
144
0.0
144
0.0
144
1.0
144
0.0
144
0.0
144
0.0
144
0.0
144
1.0
147
0.0208333333333333
147
0.0
147
0.0
147
0.0
147
0.0
147
0.0208333333333333
147
0.0
147
0.0
147
0.0
147
0.0
147
1.0
147
0.0
147
0.0
147
0.0
147
0.0
147
1.0
  0
MATERIAL
  5
2AF
102
{ACAD_XDICTIONARY
360
2B0
102
}
102
{ACAD_REACTORS
330
29E
102
}
330
29E
100
AcDbMaterial
  1
Global
 72
     0
 43
0.0208333333333333
 43
0.0
 43
0.0
 43
0.0
 43
0.0
 43
0.0208333333333333
 43
0.0
 43
0.0
 43
0.0
 43
0.0
 43
1.0
 43
0.0
 43
0.0
 43
0.0
 43
0.0
 43
1.0
 77
     0
 47
0.0208333333333333
 47
0.0
 47
0.0
 47
0.0
 47
0.0
 47
0.0208333333333333
 47
0.0
 47
0.0
 47
0.0
 47
0.0
 47
1.0
 47
0.0
 47
0.0
 47
0.0
 47
0.0
 47
1.0
171
     0
 49
0.0208333333333333
 49
0.0
 49
0.0
 49
0.0
 49
0.0
 49
0.0208333333333333
 49
0.0
 49
0.0
 49
0.0
 49
0.0
 49
1.0
 49
0.0
 49
0.0
 49
0.0
 49
0.0
 49
1.0
175
     0
142
0.0208333333333333
142
0.0
142
0.0
142
0.0
142
0.0
142
0.0208333333333333
142
0.0
142
0.0
142
0.0
142
0.0
142
1.0
142
0.0
142
0.0
142
0.0
142
0.0
142
1.0
179
     0
144
0.0208333333333333
144
0.0
144
0.0
144
0.0
144
0.0
144
0.0208333333333333
144
0.0
144
0.0
144
0.0
144
0.0
144
1.0
144
0.0
144
0.0
144
0.0
144
0.0
144
1.0
147
0.0208333333333333
147
0.0
147
0.0
147
0.0
147
0.0
147
0.0208333333333333
147
0.0
147
0.0
147
0.0
147
0.0
147
1.0
147
0.0
147
0.0
147
0.0
147
0.0
147
1.0
  0
MLEADERSTYLE
  5
2EE
102
{ACAD_REACTORS
330
2ED
102
}
330
2ED
100
AcDbMLeaderStyle
170
     2
171
     1
172
     0
 90
        2
 40
0.0
 41
0.0
173
     1
 91
-1056964608
340
11
 92
       -2
290
     1
 42
2.0
291
     1
 43
0.36
  3
Standard
 44
4.0
300

342
17
174
     1
178
     6
175
     1
176
     0
 93
-1056964608
 45
4.0
292
     0
297
     0
 46
4.0
 94
-1056964608
 47
1.0
 49
1.0
140
1.0
293
     1
141
0.0
294
     1
177
     0
142
1.0
295
     0
296
     0
143
0.125
1001
ACAD_MLEADERVER
1070
     2
  0
MLINESTYLE
  5
1C
102
{ACAD_REACTORS
330
1B
102
}
330
1B
100
AcDbMlineStyle
  2
STANDARD
 70
     0
  3

 62
     0
 51
90.0
 52
90.0
 71
     2
 49
0.5
 62
   256
  6
BYLAYER
 49
-0.5
 62
   256
  6
BYLAYER
  0
ACDBPLACEHOLDER
  5
1D
102
{ACAD_REACTORS
330
1F
102
}
330
1F
  0
SCALE
  5
2CC
102
{ACAD_REACTORS
330
2CB
102
}
330
2CB
100
AcDbScale
 70
     0
300
1:1
140
1.0
141
1.0
290
     1
  0
SCALE
  5
2CD
102
{ACAD_REACTORS
330
2CB
102
}
330
2CB
100
AcDbScale
 70
     0
300
1:2
140
1.0
141
2.0
290
     0
  0
SCALE
  5
2CE
102
{ACAD_REACTORS
330
2CB
102
}
330
2CB
100
AcDbScale
 70
     0
300
1:4
140
1.0
141
4.0
290
     0
  0
SCALE
  5
2CF
102
{ACAD_REACTORS
330
2CB
102
}
330
2CB
100
AcDbScale
 70
     0
300
1:5
140
1.0
141
5.0
290
     0
  0
SCALE
  5
2D0
102
{ACAD_REACTORS
330
2CB
102
}
330
2CB
100
AcDbScale
 70
     0
300
1:8
140
1.0
141
8.0
290
     0
  0
SCALE
  5
2D1
102
{ACAD_REACTORS
330
2CB
102
}
330
2CB
100
AcDbScale
 70
     0
300
1:10
140
1.0
141
10.0
290
     0
  0
SCALE
  5
2D2
102
{ACAD_REACTORS
330
2CB
102
}
330
2CB
100
AcDbScale
 70
     0
300
1:16
140
1.0
141
16.0
290
     0
  0
SCALE
  5
2D3
102
{ACAD_REACTORS
330
2CB
102
}
330
2CB
100
AcDbScale
 70
     0
300
1:20
140
1.0
141
20.0
290
     0
  0
SCALE
  5
2D4
102
{ACAD_REACTORS
330
2CB
102
}
330
2CB
100
AcDbScale
 70
     0
300
1:30
140
1.0
141
30.0
290
     0
  0
SCALE
  5
2D5
102
{ACAD_REACTORS
330
2CB
102
}
330
2CB
100
AcDbScale
 70
     0
300
1:40
140
1.0
141
40.0
290
     0
  0
SCALE
  5
2D6
102
{ACAD_REACTORS
330
2CB
102
}
330
2CB
100
AcDbScale
 70
     0
300
1:50
140
1.0
141
50.0
290
     0
  0
SCALE
  5
2D7
102
{ACAD_REACTORS
330
2CB
102
}
330
2CB
100
AcDbScale
 70
     0
300
1:100
140
1.0
141
100.0
290
     0
  0
SCALE
  5
2D8
102
{ACAD_REACTORS
330
2CB
102
}
330
2CB
100
AcDbScale
 70
     0
300
2:1
140
2.0
141
1.0
290
     0
  0
SCALE
  5
2D9
102
{ACAD_REACTORS
330
2CB
102
}
330
2CB
100
AcDbScale
 70
     0
300
4:1
140
4.0
141
1.0
290
     0
  0
SCALE
  5
2DA
102
{ACAD_REACTORS
330
2CB
102
}
330
2CB
100
AcDbScale
 70
     0
300
8:1
140
8.0
141
1.0
290
     0
  0
SCALE
  5
2DB
102
{ACAD_REACTORS
330
2CB
102
}
330
2CB
100
AcDbScale
 70
     0
300
10:1
140
10.0
141
1.0
290
     0
  0
SCALE
  5
2DC
102
{ACAD_REACTORS
330
2CB
102
}
330
2CB
100
AcDbScale
 70
     0
300
100:1
140
100.0
141
1.0
290
     0
  0
SCALE
  5
2DD
102
{ACAD_REACTORS
330
2CB
102
}
330
2CB
100
AcDbScale
 70
     0
300
1/128" = 1'-0"
140
0.0078125
141
12.0
290
     0
  0
SCALE
  5
2DE
102
{ACAD_REACTORS
330
2CB
102
}
330
2CB
100
AcDbScale
 70
     0
300
1/64" = 1'-0"
140
0.015625
141
12.0
290
     0
  0
SCALE
  5
2DF
102
{ACAD_REACTORS
330
2CB
102
}
330
2CB
100
AcDbScale
 70
     0
300
1/32" = 1'-0"
140
0.03125
141
12.0
290
     0
  0
SCALE
  5
2E0
102
{ACAD_REACTORS
330
2CB
102
}
330
2CB
100
AcDbScale
 70
     0
300
1/16" = 1'-0"
140
0.0625
141
12.0
290
     0
  0
SCALE
  5
2E1
102
{ACAD_REACTORS
330
2CB
102
}
330
2CB
100
AcDbScale
 70
     0
300
3/32" = 1'-0"
140
0.09375
141
12.0
290
     0
  0
SCALE
  5
2E2
102
{ACAD_REACTORS
330
2CB
102
}
330
2CB
100
AcDbScale
 70
     0
300
1/8" = 1'-0"
140
0.125
141
12.0
290
     0
  0
SCALE
  5
2E3
102
{ACAD_REACTORS
330
2CB
102
}
330
2CB
100
AcDbScale
 70
     0
300
3/16" = 1'-0"
140
0.1875
141
12.0
290
     0
  0
SCALE
  5
2E4
102
{ACAD_REACTORS
330
2CB
102
}
330
2CB
100
AcDbScale
 70
     0
300
1/4" = 1'-0"
140
0.25
141
12.0
290
     0
  0
SCALE
  5
2E5
102
{ACAD_REACTORS
330
2CB
102
}
330
2CB
100
AcDbScale
 70
     0
300
3/8" = 1'-0"
140
0.375
141
12.0
290
     0
  0
SCALE
  5
2E6
102
{ACAD_REACTORS
330
2CB
102
}
330
2CB
100
AcDbScale
 70
     0
300
1/2" = 1'-0"
140
0.5
141
12.0
290
     0
  0
SCALE
  5
2E7
102
{ACAD_REACTORS
330
2CB
102
}
330
2CB
100
AcDbScale
 70
     0
300
3/4" = 1'-0"
140
0.75
141
12.0
290
     0
  0
SCALE
  5
2E8
102
{ACAD_REACTORS
330
2CB
102
}
330
2CB
100
AcDbScale
 70
     0
300
1" = 1'-0"
140
1.0
141
12.0
290
     0
  0
SCALE
  5
2E9
102
{ACAD_REACTORS
330
2CB
102
}
330
2CB
100
AcDbScale
 70
     0
300
1-1/2" = 1'-0"
140
1.5
141
12.0
290
     0
  0
SCALE
  5
2EA
102
{ACAD_REACTORS
330
2CB
102
}
330
2CB
100
AcDbScale
 70
     0
300
3" = 1'-0"
140
3.0
141
12.0
290
     0
  0
SCALE
  5
2EB
102
{ACAD_REACTORS
330
2CB
102
}
330
2CB
100
AcDbScale
 70
     0
300
6" = 1'-0"
140
6.0
141
12.0
290
     0
  0
SCALE
  5
2EC
102
{ACAD_REACTORS
330
2CB
102
}
330
2CB
100
AcDbScale
 70
     0
300
1'-0" = 1'-0"
140
12.0
141
12.0
290
     0
  0
TABLESTYLE
  5
2CA
102
{ACAD_XDICTIONARY
360
3E0
102
}
102
{ACAD_REACTORS
330
2C9
102
}
330
2C9
100
AcDbTableStyle
  3
Standard
 70
     0
 71
     0
 40
1.5
 41
1.5
280
     0
281
     0
  7
Standard
140
4.5
170
     2
 62
     0
 63
     7
283
     0
274
    -2
284
     1
 64
     0
275
    -2
285
     1
 65
     0
276
    -2
286
     1
 66
     0
277
    -2
287
     1
 67
     0
278
    -2
288
     1
 68
     0
279
    -2
289
     1
 69
     0
  7
Standard
140
6.0
170
     5
 62
     0
 63
     7
283
     0
274
    -2
284
     1
 64
     0
275
    -2
285
     1
 65
     0
276
    -2
286
     1
 66
     0
277
    -2
287
     1
 67
     0
278
    -2
288
     1
 68
     0
279
    -2
289
     1
 69
     0
  7
Standard
140
4.5
170
     5
 62
     0
 63
     7
283
     0
274
    -2
284
     1
 64
     0
275
    -2
285
     1
 65
     0
276
    -2
286
     1
 66
     0
277
    -2
287
     1
 67
     0
278
    -2
288
     1
 68
     0
279
    -2
289
     1
 69
     0
  0
VISUALSTYLE
  5
2BD
102
{ACAD_REACTORS
330
2B7
102
}
330
2B7
100
AcDbVisualStyle
  2
2dWireframe
 70
     4
 71
     0
 72
     2
 73
     0
 90
        0
 40
-0.6
 41
-30.0
 62
     5
 63
     7
 74
     1
 91
        4
 64
     7
 65
   257
 75
     1
175
     1
 42
1.0
 92
        0
 66
   257
 43
1.0
 76
     1
 77
     6
 78
     2
 67
     7
 79
     5
170
     0
171
     0
290
     0
174
     0
 93
        1
 44
0.0
173
     0
291
     0
 45
0.0
1001
ACAD
1000
AcDbSavedByObjectVersion
1070
     0
  0
VISUALSTYLE
  5
2BF
102
{ACAD_REACTORS
330
2B7
102
}
330
2B7
100
AcDbVisualStyle
  2
3D Hidden
 70
     6
 71
     1
 72
     2
 73
     2
 90
        0
 40
-0.6
 41
-30.0
 62
     5
 63
     7
 74
     2
 91
        2
 64
     7
 65
   257
 75
     2
175
     1
 42
40.0
 92
        0
 66
   257
 43
1.0
 76
     1
 77
     6
 78
     2
 67
     7
 79
     3
170
     0
171
     0
290
     0
174
     0
 93
        1
 44
0.0
173
     0
291
     0
 45
0.0
1001
ACAD
1000
AcDbSavedByObjectVersion
1070
     0
  0
VISUALSTYLE
  5
2BE
102
{ACAD_REACTORS
330
2B7
102
}
330
2B7
100
AcDbVisualStyle
  2
3dWireframe
 70
     5
 71
     0
 72
     2
 73
     0
 90
        0
 40
-0.6
 41
-30.0
 62
     5
 63
     7
 74
     1
 91
        4
 64
     7
 65
   257
 75
     1
175
     1
 42
1.0
 92
        0
 66
   257
 43
1.0
 76
     1
 77
     6
 78
     2
 67
     7
 79
     5
170
     0
171
     0
290
     0
174
     0
 93
        1
 44
0.0
173
     0
291
     0
 45
0.0
1001
ACAD
1000
AcDbSavedByObjectVersion
1070
     0
  0
VISUALSTYLE
  5
2BC
102
{ACAD_REACTORS
330
2B7
102
}
330
2B7
100
AcDbVisualStyle
  2
Basic
 70
     7
 71
     1
 72
     0
 73
     1
 90
        0
 40
-0.6
 41
-30.0
 62
     5
 63
     7
 74
     0
 91
        4
 64
     7
 65
   257
 75
     1
175
     1
 42
1.0
 92
        8
 66
     7
 43
1.0
 76
     1
 77
     6
 78
     2
 67
     7
 79
     5
170
     0
171
     0
290
     0
174
     0
 93
        1
 44
0.0
173
     0
291
     1
 45
0.0
1001
ACAD
1000
AcDbSavedByObjectVersion
1070
     0
  0
VISUALSTYLE
  5
2C3
102
{ACAD_REACTORS
330
2B7
102
}
330
2B7
100
AcDbVisualStyle
  2
Brighten
 70
    12
 71
     2
 72
     2
 73
     0
 90
        0
 40
-0.6
 41
-30.0
 62
     5
 63
     7
 74
     1
 91
        4
 64
     7
 65
   257
 75
     1
175
     1
 42
1.0
 92
        8
 66
     7
 43
1.0
 76
     1
 77
     6
 78
     2
 67
     7
 79
     5
170
     0
171
     0
290
     0
174
     0
 93
        1
 44
50.0
173
     0
291
     1
 45
0.0
1001
ACAD
1000
AcDbSavedByObjectVersion
1070
     0
  0
VISUALSTYLE
  5
2C7
102
{ACAD_REACTORS
330
2B7
102
}
330
2B7
100
AcDbVisualStyle
  2
ColorChange
 70
    16
 71
     2
 72
     2
 73
     3
 90
        0
 40
-0.6
 41
-30.0
 62
     5
 63
     8
 74
     1
 91
        4
 64
     7
 65
   257
 75
     1
175
     1
 42
1.0
 92
        8
 66
     8
 43
1.0
 76
     1
 77
     6
 78
     2
 67
     7
 79
     5
170
     0
171
     0
290
     0
174
     0
 93
        1
 44
0.0
173
     0
291
     1
 45
0.0
1001
ACAD
1000
AcDbSavedByObjectVersion
1070
     0
  0
VISUALSTYLE
  5
2C0
102
{ACAD_REACTORS
330
2B7
102
}
330
2B7
100
AcDbVisualStyle
  2
Conceptual
 70
     9
 71
     3
 72
     2
 73
     0
 90
        0
 40
-0.6
 41
-30.0
 62
     5
 63
     7
 74
     2
 91
        2
 64
     7
 65
   257
 75
     1
175
     1
 42
40.0
 92
        8
 66
     7
 43
1.0
 76
     1
 77
     6
 78
     2
 67
     7
 79
     3
170
     0
171
     0
290
     0
174
     0
 93
        1
 44
0.0
173
     0
291
     0
 45
0.0
1001
ACAD
1000
AcDbSavedByObjectVersion
1070
     0
  0
VISUALSTYLE
  5
2C2
102
{ACAD_REACTORS
330
2B7
102
}
330
2B7
100
AcDbVisualStyle
  2
Dim
 70
    11
 71
     2
 72
     2
 73
     0
 90
        0
 40
-0.6
 41
-30.0
 62
     5
 63
     7
 74
     1
 91
        4
 64
     7
 65
   257
 75
     1
175
     1
 42
1.0
 92
        8
 66
     7
 43
1.0
 76
     1
 77
     6
 78
     2
 67
     7
 79
     5
170
     0
171
     0
290
     0
174
     0
 93
        1
 44
-50.0
173
     0
291
     1
 45
0.0
1001
ACAD
1000
AcDbSavedByObjectVersion
1070
     0
  0
VISUALSTYLE
  5
2C6
102
{ACAD_REACTORS
330
2B7
102
}
330
2B7
100
AcDbVisualStyle
  2
Facepattern
 70
    15
 71
     2
 72
     2
 73
     0
 90
        0
 40
-0.6
 41
-30.0
 62
     5
 63
     7
 74
     1
 91
        4
 64
     7
 65
   257
 75
     1
175
     1
 42
1.0
 92
        8
 66
     7
 43
1.0
 76
     1
 77
     6
 78
     2
 67
     7
 79
     5
170
     0
171
     0
290
     0
174
     0
 93
        1
 44
0.0
173
     0
291
     1
 45
0.0
1001
ACAD
1000
AcDbSavedByObjectVersion
1070
     0
  0
VISUALSTYLE
  5
2B8
102
{ACAD_REACTORS
330
2B7
102
}
330
2B7
100
AcDbVisualStyle
  2
Flat
 70
     0
 71
     2
 72
     1
 73
     1
 90
        2
 40
-0.6
 41
30.0
 62
     5
 63
     7
 74
     0
 91
        4
 64
     7
 65
   257
 75
     1
175
     1
 42
1.0
 92
        8
 66
     7
 43
1.0
 76
     1
 77
     6
 78
     2
 67
     7
 79
     5
170
     0
171
     0
290
     0
174
     0
 93
       13
 44
0.0
173
     0
291
     1
 45
0.0
1001
ACAD
1000
AcDbSavedByObjectVersion
1070
     0
  0
VISUALSTYLE
  5
2B9
102
{ACAD_REACTORS
330
2B7
102
}
330
2B7
100
AcDbVisualStyle
  2
FlatWithEdges
 70
     1
 71
     2
 72
     1
 73
     1
 90
        2
 40
-0.6
 41
30.0
 62
     5
 63
     7
 74
     1
 91
        4
 64
     7
 65
   257
 75
     1
175
     1
 42
1.0
 92
        0
 66
   257
 43
1.0
 76
     1
 77
     6
 78
     2
 67
     7
 79
     5
170
     0
171
     0
290
     0
174
     0
 93
       13
 44
0.0
173
     0
291
     1
 45
0.0
1001
ACAD
1000
AcDbSavedByObjectVersion
1070
     0
  0
VISUALSTYLE
  5
2BA
102
{ACAD_REACTORS
330
2B7
102
}
330
2B7
100
AcDbVisualStyle
  2
Gouraud
 70
     2
 71
     2
 72
     2
 73
     1
 90
        2
 40
-0.6
 41
30.0
 62
     5
 63
     7
 74
     0
 91
        4
 64
     7
 65
   257
 75
     1
175
     1
 42
1.0
 92
        0
 66
     7
 43
1.0
 76
     1
 77
     6
 78
     2
 67
     7
 79
     5
170
     0
171
     0
290
     0
174
     0
 93
       13
 44
0.0
173
     0
291
     1
 45
0.0
1001
ACAD
1000
AcDbSavedByObjectVersion
1070
     0
  0
VISUALSTYLE
  5
2BB
102
{ACAD_REACTORS
330
2B7
102
}
330
2B7
100
AcDbVisualStyle
  2
GouraudWithEdges
 70
     3
 71
     2
 72
     2
 73
     1
 90
        2
 40
-0.6
 41
30.0
 62
     5
 63
     7
 74
     1
 91
        4
 64
     7
 65
   257
 75
     1
175
     1
 42
1.0
 92
        0
 66
   257
 43
1.0
 76
     1
 77
     6
 78
     2
 67
     7
 79
     5
170
     0
171
     0
290
     0
174
     0
 93
       13
 44
0.0
173
     0
291
     1
 45
0.0
1001
ACAD
1000
AcDbSavedByObjectVersion
1070
     0
  0
VISUALSTYLE
  5
2C5
102
{ACAD_REACTORS
330
2B7
102
}
330
2B7
100
AcDbVisualStyle
  2
Linepattern
 70
    14
 71
     2
 72
     2
 73
     0
 90
        0
 40
-0.6
 41
-30.0
 62
     5
 63
     7
 74
     1
 91
        4
 64
     7
 65
   257
 75
     7
175
     7
 42
1.0
 92
        8
 66
     7
 43
1.0
 76
     1
 77
     6
 78
     2
 67
     7
 79
     5
170
     0
171
     0
290
     0
174
     0
 93
        1
 44
0.0
173
     0
291
     1
 45
0.0
1001
ACAD
1000
AcDbSavedByObjectVersion
1070
     0
  0
VISUALSTYLE
  5
2C1
102
{ACAD_REACTORS
330
2B7
102
}
330
2B7
100
AcDbVisualStyle
  2
Realistic
 70
     8
 71
     2
 72
     2
 73
     0
 90
        0
 40
-0.6
 41
-30.0
 62
     5
 63
     7
 74
     1
 91
        0
 64
     7
 65
   257
 75
     1
175
     1
 42
1.0
 92
        8
 66
     8
 43
1.0
 76
     1
 77
     6
 78
     2
 67
     7
 79
     5
170
     0
171
     0
290
     0
174
     0
 93
       13
 44
0.0
173
     0
291
     0
 45
0.0
1001
ACAD
1000
AcDbSavedByObjectVersion
1070
     0
  0
VISUALSTYLE
  5
2C4
102
{ACAD_REACTORS
330
2B7
102
}
330
2B7
100
AcDbVisualStyle
  2
Thicken
 70
    13
 71
     2
 72
     2
 73
     0
 90
        0
 40
-0.6
 41
-30.0
 62
     5
 63
     7
 74
     1
 91
        4
 64
     7
 65
   257
 75
     1
175
     1
 42
1.0
 92
       12
 66
     7
 43
1.0
 76
     1
 77
     6
 78
     2
 67
     7
 79
     5
170
     0
171
     0
290
     0
174
     0
 93
        1
 44
0.0
173
     0
291
     1
 45
0.0
1001
ACAD
1000
AcDbSavedByObjectVersion
1070
     0
  0
DICTIONARYVAR
  5
3E7
102
{ACAD_REACTORS
330
3E3
102
}
330
3E3
100
DictionaryVariables
280
     0
  1
1:1
  0
DICTIONARYVAR
  5
3E5
102
{ACAD_REACTORS
330
3E3
102
}
330
3E3
100
DictionaryVariables
280
     0
  1
STANDARD
  0
DICTIONARYVAR
  5
3E4
102
{ACAD_REACTORS
330
3E3
102
}
330
3E3
100
DictionaryVariables
280
     0
  1
STANDARD
  0
DICTIONARYVAR
  5
3EF
102
{ACAD_REACTORS
330
3E3
102
}
330
3E3
100
DictionaryVariables
280
     0
  1
1
  0
DICTIONARYVAR
  5
3EE
102
{ACAD_REACTORS
330
3E3
102
}
330
3E3
100
DictionaryVariables
280
     0
  1
0
  0
DICTIONARYVAR
  5
3E8
102
{ACAD_REACTORS
330
3E3
102
}
330
3E3
100
DictionaryVariables
280
     0
  1
0
  0
DICTIONARYVAR
  5
3E6
102
{ACAD_REACTORS
330
3E3
102
}
330
3E3
100
DictionaryVariables
280
     0
  1
0
  0
DICTIONARYVAR
  5
3ED
102
{ACAD_REACTORS
330
3E3
102
}
330
3E3
100
DictionaryVariables
280
     0
  1
127
  0
XRECORD
  5
3B9
102
{ACAD_REACTORS
330
3B7
102
}
330
3B7
100
AcDbXrecord
280
     1
330
D8
330
29C
  0
DICTIONARY
  5
3F4
330
21
100
AcDbDictionary
280
     1
281
     1
  3
ACAD_XREC_ROUNDTRIP
360
3F5
  0
DICTIONARY
  5
3F2
330
20
100
AcDbDictionary
280
     1
281
     1
  3
ACAD_XREC_ROUNDTRIP
360
3F3
  0
DICTIONARY
  5
2A8
330
2A7
100
AcDbDictionary
280
     1
281
     1
  3
ACAD_XREC_ROUNDTRIP
360
3F7
  3
BUMPTILE
360
2AA
  3
DIFFUSETILE
360
2A9
  3
OPACITYTILE
360
2AD
  3
REFLECTIONTILE
360
2AC
  3
REFRACTIONTILE
360
2AE
  3
SPECULARTILE
360
2AB
  0
DICTIONARY
  5
2A0
330
29F
100
AcDbDictionary
280
     1
281
     1
  3
ACAD_XREC_ROUNDTRIP
360
3F6
  3
BUMPTILE
360
2A2
  3
DIFFUSETILE
360
2A1
  3
OPACITYTILE
360
2A5
  3
REFLECTIONTILE
360
2A4
  3
REFRACTIONTILE
360
2A6
  3
SPECULARTILE
360
2A3
  0
DICTIONARY
  5
2B0
330
2AF
100
AcDbDictionary
280
     1
281
     1
  3
ACAD_XREC_ROUNDTRIP
360
3F8
  3
BUMPTILE
360
2B2
  3
DIFFUSETILE
360
2B1
  3
OPACITYTILE
360
2B5
  3
REFLECTIONTILE
360
2B4
  3
REFRACTIONTILE
360
2B6
  3
SPECULARTILE
360
2B3
  0
DICTIONARY
  5
3E0
330
2CA
100
AcDbDictionary
280
     1
281
     1
  3
ACAD_ROUNDTRIP_2008_TABLESTYLE_CELLSTYLEMAP
360
3F0
  3
ACAD_XREC_ROUNDTRIP
360
3F9
  0
XRECORD
  5
3F5
102
{ACAD_REACTORS
330
3F4
102
}
330
3F4
100
AcDbXrecord
280
     1
102
SHADEPLOT
 70
     0
102
SHADEPLOTRESLEVEL
 70
     2
102
SHADEPLOTCUSTOMDPI
 70
   300
  0
XRECORD
  5
3F3
102
{ACAD_REACTORS
330
3F2
102
}
330
3F2
100
AcDbXrecord
280
     1
102
SHADEPLOT
 70
     0
102
SHADEPLOTRESLEVEL
 70
     2
102
SHADEPLOTCUSTOMDPI
 70
   300
  0
XRECORD
  5
3F7
102
{ACAD_REACTORS
330
2A8
102
}
330
2A8
100
AcDbXrecord
280
     1
102
MATERIAL
148
0.0
149
0.0
149
0.0
 93
        0
 94
      127
282
     0
 72
     0
 77
     0
171
     0
175
     0
179
     0
273
     0
  0
XRECORD
  5
2AA
102
{ACAD_REACTORS
330
2A8
102
}
330
2A8
100
AcDbXrecord
280
     1
270
     1
271
     1
  0
XRECORD
  5
2A9
102
{ACAD_REACTORS
330
2A8
102
}
330
2A8
100
AcDbXrecord
280
     1
270
     1
271
     1
  0
XRECORD
  5
2AD
102
{ACAD_REACTORS
330
2A8
102
}
330
2A8
100
AcDbXrecord
280
     1
270
     1
271
     1
  0
XRECORD
  5
2AC
102
{ACAD_REACTORS
330
2A8
102
}
330
2A8
100
AcDbXrecord
280
     1
270
     1
271
     1
  0
XRECORD
  5
2AE
102
{ACAD_REACTORS
330
2A8
102
}
330
2A8
100
AcDbXrecord
280
     1
270
     1
271
     1
  0
XRECORD
  5
2AB
102
{ACAD_REACTORS
330
2A8
102
}
330
2A8
100
AcDbXrecord
280
     1
270
     1
271
     1
  0
XRECORD
  5
3F6
102
{ACAD_REACTORS
330
2A0
102
}
330
2A0
100
AcDbXrecord
280
     1
102
MATERIAL
148
0.0
149
0.0
149
0.0
 93
        0
 94
      127
282
     0
 72
     0
 77
     0
171
     0
175
     0
179
     0
273
     0
  0
XRECORD
  5
2A2
102
{ACAD_REACTORS
330
2A0
102
}
330
2A0
100
AcDbXrecord
280
     1
270
     1
271
     1
  0
XRECORD
  5
2A1
102
{ACAD_REACTORS
330
2A0
102
}
330
2A0
100
AcDbXrecord
280
     1
270
     1
271
     1
  0
XRECORD
  5
2A5
102
{ACAD_REACTORS
330
2A0
102
}
330
2A0
100
AcDbXrecord
280
     1
270
     1
271
     1
  0
XRECORD
  5
2A4
102
{ACAD_REACTORS
330
2A0
102
}
330
2A0
100
AcDbXrecord
280
     1
270
     1
271
     1
  0
XRECORD
  5
2A6
102
{ACAD_REACTORS
330
2A0
102
}
330
2A0
100
AcDbXrecord
280
     1
270
     1
271
     1
  0
XRECORD
  5
2A3
102
{ACAD_REACTORS
330
2A0
102
}
330
2A0
100
AcDbXrecord
280
     1
270
     1
271
     1
  0
XRECORD
  5
3F8
102
{ACAD_REACTORS
330
2B0
102
}
330
2B0
100
AcDbXrecord
280
     1
102
MATERIAL
148
0.0
149
0.0
149
0.0
 93
        0
 94
      127
282
     0
 72
     0
 77
     0
171
     0
175
     0
179
     0
273
     0
  0
XRECORD
  5
2B2
102
{ACAD_REACTORS
330
2B0
102
}
330
2B0
100
AcDbXrecord
280
     1
270
     1
271
     1
  0
XRECORD
  5
2B1
102
{ACAD_REACTORS
330
2B0
102
}
330
2B0
100
AcDbXrecord
280
     1
270
     1
271
     1
  0
XRECORD
  5
2B5
102
{ACAD_REACTORS
330
2B0
102
}
330
2B0
100
AcDbXrecord
280
     1
270
     1
271
     1
  0
XRECORD
  5
2B4
102
{ACAD_REACTORS
330
2B0
102
}
330
2B0
100
AcDbXrecord
280
     1
270
     1
271
     1
  0
XRECORD
  5
2B6
102
{ACAD_REACTORS
330
2B0
102
}
330
2B0
100
AcDbXrecord
280
     1
270
     1
271
     1
  0
XRECORD
  5
2B3
102
{ACAD_REACTORS
330
2B0
102
}
330
2B0
100
AcDbXrecord
280
     1
270
     1
271
     1
  0
CELLSTYLEMAP
  5
3F0
102
{ACAD_REACTORS
330
3E0
102
}
330
3E0
100
AcDbCellStyleMap
 90
        3
300
CELLSTYLE
  1
TABLEFORMAT_BEGIN
 90
        5
170
     1
 91
        0
 92
    32768
 62
   257
 93
        1
300
CONTENTFORMAT
  1
CONTENTFORMAT_BEGIN
 90
        0
 91
        0
 92
      512
 93
        0
300

 40
0.0
140
1.0
 94
        5
 62
     0
340
17
144
6.0
309
CONTENTFORMAT_END
171
     1
301
MARGIN
  1
CELLMARGIN_BEGIN
 40
1.5
 40
1.5
 40
1.5
 40
1.5
 40
4.5
 40
4.5
309
CELLMARGIN_END
 94
        6
 95
        1
302
GRIDFORMAT
  1
GRIDFORMAT_BEGIN
 90
        0
 91
        1
 62
     0
 92
       -2
340
0
 93
        0
 40
1.125
309
GRIDFORMAT_END
 95
        2
302
GRIDFORMAT
  1
GRIDFORMAT_BEGIN
 90
        0
 91
        1
 62
     0
 92
       -2
340
0
 93
        0
 40
1.125
309
GRIDFORMAT_END
 95
        4
302
GRIDFORMAT
  1
GRIDFORMAT_BEGIN
 90
        0
 91
        1
 62
     0
 92
       -2
340
0
 93
        0
 40
1.125
309
GRIDFORMAT_END
 95
        8
302
GRIDFORMAT
  1
GRIDFORMAT_BEGIN
 90
        0
 91
        1
 62
     0
 92
       -2
340
0
 93
        0
 40
1.125
309
GRIDFORMAT_END
 95
       16
302
GRIDFORMAT
  1
GRIDFORMAT_BEGIN
 90
        0
 91
        1
 62
     0
 92
       -2
340
0
 93
        0
 40
1.125
309
GRIDFORMAT_END
 95
       32
302
GRIDFORMAT
  1
GRIDFORMAT_BEGIN
 90
        0
 91
        1
 62
     0
 92
       -2
340
0
 93
        0
 40
1.125
309
GRIDFORMAT_END
309
TABLEFORMAT_END
  1
CELLSTYLE_BEGIN
 90
        1
 91
        1
300
_TITLE
309
CELLSTYLE_END
300
CELLSTYLE
  1
TABLEFORMAT_BEGIN
 90
        5
170
     1
 91
        0
 92
        0
 62
   257
 93
        1
300
CONTENTFORMAT
  1
CONTENTFORMAT_BEGIN
 90
        0
 91
        0
 92
      512
 93
        0
300

 40
0.0
140
1.0
 94
        5
 62
     0
340
17
144
4.5
309
CONTENTFORMAT_END
171
     1
301
MARGIN
  1
CELLMARGIN_BEGIN
 40
1.5
 40
1.5
 40
1.5
 40
1.5
 40
4.5
 40
4.5
309
CELLMARGIN_END
 94
        6
 95
        1
302
GRIDFORMAT
  1
GRIDFORMAT_BEGIN
 90
        0
 91
        1
 62
     0
 92
       -2
340
0
 93
        0
 40
1.125
309
GRIDFORMAT_END
 95
        2
302
GRIDFORMAT
  1
GRIDFORMAT_BEGIN
 90
        0
 91
        1
 62
     0
 92
       -2
340
0
 93
        0
 40
1.125
309
GRIDFORMAT_END
 95
        4
302
GRIDFORMAT
  1
GRIDFORMAT_BEGIN
 90
        0
 91
        1
 62
     0
 92
       -2
340
0
 93
        0
 40
1.125
309
GRIDFORMAT_END
 95
        8
302
GRIDFORMAT
  1
GRIDFORMAT_BEGIN
 90
        0
 91
        1
 62
     0
 92
       -2
340
0
 93
        0
 40
1.125
309
GRIDFORMAT_END
 95
       16
302
GRIDFORMAT
  1
GRIDFORMAT_BEGIN
 90
        0
 91
        1
 62
     0
 92
       -2
340
0
 93
        0
 40
1.125
309
GRIDFORMAT_END
 95
       32
302
GRIDFORMAT
  1
GRIDFORMAT_BEGIN
 90
        0
 91
        1
 62
     0
 92
       -2
340
0
 93
        0
 40
1.125
309
GRIDFORMAT_END
309
TABLEFORMAT_END
  1
CELLSTYLE_BEGIN
 90
        2
 91
        1
300
_HEADER
309
CELLSTYLE_END
300
CELLSTYLE
  1
TABLEFORMAT_BEGIN
 90
        5
170
     1
 91
        0
 92
        0
 62
   257
 93
        1
300
CONTENTFORMAT
  1
CONTENTFORMAT_BEGIN
 90
        0
 91
        0
 92
      512
 93
        0
300

 40
0.0
140
1.0
 94
        2
 62
     0
340
17
144
4.5
309
CONTENTFORMAT_END
171
     1
301
MARGIN
  1
CELLMARGIN_BEGIN
 40
1.5
 40
1.5
 40
1.5
 40
1.5
 40
4.5
 40
4.5
309
CELLMARGIN_END
 94
        6
 95
        1
302
GRIDFORMAT
  1
GRIDFORMAT_BEGIN
 90
        0
 91
        1
 62
     0
 92
       -2
340
0
 93
        0
 40
1.125
309
GRIDFORMAT_END
 95
        2
302
GRIDFORMAT
  1
GRIDFORMAT_BEGIN
 90
        0
 91
        1
 62
     0
 92
       -2
340
0
 93
        0
 40
1.125
309
GRIDFORMAT_END
 95
        4
302
GRIDFORMAT
  1
GRIDFORMAT_BEGIN
 90
        0
 91
        1
 62
     0
 92
       -2
340
0
 93
        0
 40
1.125
309
GRIDFORMAT_END
 95
        8
302
GRIDFORMAT
  1
GRIDFORMAT_BEGIN
 90
        0
 91
        1
 62
     0
 92
       -2
340
0
 93
        0
 40
1.125
309
GRIDFORMAT_END
 95
       16
302
GRIDFORMAT
  1
GRIDFORMAT_BEGIN
 90
        0
 91
        1
 62
     0
 92
       -2
340
0
 93
        0
 40
1.125
309
GRIDFORMAT_END
 95
       32
302
GRIDFORMAT
  1
GRIDFORMAT_BEGIN
 90
        0
 91
        1
 62
     0
 92
       -2
340
0
 93
        0
 40
1.125
309
GRIDFORMAT_END
309
TABLEFORMAT_END
  1
CELLSTYLE_BEGIN
 90
        3
 91
        2
300
_DATA
309
CELLSTYLE_END
  0
XRECORD
  5
3F9
102
{ACAD_REACTORS
330
3E0
102
}
330
3E0
100
AcDbXrecord
280
     1
102
ACAD_ROUNDTRIP_PRE2007_TABLESTYLE
 90
      512
 91
        0
  1

 92
      512
 93
        0
  2

 94
      512
 95
        0
  3

  0
ENDSEC
  0
EOF
