  0
SECTION
  2
HEADER
  9
$ACADVER
  1
AC1015
  9
$ACADMAINTVER
 70
    20
  9
$DWGCODEPAGE
  3
ANSI_1252
  9
$INSBASE
 10
0.0
 20
0.0
 30
0.0
  9
$EXTMIN
 10
-1.024333642282494
 20
-1041.431180449487
 30
-0.0000000000000004
  9
$EXTMAX
 10
5095.661357121901
 20
78.46563648958502
 30
0.0000000000000004
  9
$LIMMIN
 10
-959.2951014604304
 20
-0.0366300366300366
  9
$LIMMAX
 10
2630.220101460432
 20
1094.1561691673
  9
$ORTHOMODE
 70
     0
  9
$REGENMODE
 70
     1
  9
$FILLMODE
 70
     1
  9
$QTEXTMODE
 70
     0
  9
$MIRRTEXT
 70
     1
  9
$LTSCALE
 40
10.0
  9
$ATTMODE
 70
     1
  9
$TEXTSIZE
 40
0.0
  9
$TRACEWID
 40
0.05
  9
$TEXTSTYLE
  7
Standard
  9
$CLAYER
  8
0
  9
$CELTYPE
  6
Continuous
  9
$CECOLOR
 62
   256
  9
$CELTSCALE
 40
1.0
  9
$DISPSILH
 70
     0
  9
$DIMSCALE
 40
1.0
  9
$DIMASZ
 40
1.25
  9
$DIMEXO
 40
0.0
  9
$DIMDLI
 40
0.38
  9
$DIMRND
 40
0.0
  9
$DIMDLE
 40
0.0
  9
$DIMEXE
 40
0.75
  9
$DIMTP
 40
0.0
  9
$DIMTM
 40
0.0
  9
$DIMTXT
 40
2.5
  9
$DIMCEN
 40
0.09
  9
$DIMTSZ
 40
0.0
  9
$DIMTOL
 70
     0
  9
$DIMLIM
 70
     0
  9
$DIMTIH
 70
     0
  9
$DIMTOH
 70
     0
  9
$DIMSE1
 70
     0
  9
$DIMSE2
 70
     0
  9
$DIMTAD
 70
     1
  9
$DIMZIN
 70
     0
  9
$DIMBLK
  1

  9
$DIMASO
 70
     1
  9
$DIMSHO
 70
     1
  9
$DIMPOST
  1

  9
$DIMAPOST
  1

  9
$DIMALT
 70
     0
  9
$DIMALTD
 70
     2
  9
$DIMALTF
 40
25.4
  9
$DIMLFAC
 40
1.0
  9
$DIMTOFL
 70
     0
  9
$DIMTVP
 40
0.0
  9
$DIMTIX
 70
     0
  9
$DIMSOXD
 70
     0
  9
$DIMSAH
 70
     0
  9
$DIMBLK1
  1

  9
$DIMBLK2
  1

  9
$DIMSTYLE
  2
Standard
  9
$DIMCLRD
 70
     7
  9
$DIMCLRE
 70
     7
  9
$DIMCLRT
 70
     7
  9
$DIMTFAC
 40
0.8
  9
$DIMGAP
 40
1.25
  9
$DIMJUST
 70
     0
  9
$DIMSD1
 70
     0
  9
$DIMSD2
 70
     0
  9
$DIMTOLJ
 70
     1
  9
$DIMTZIN
 70
     0
  9
$DIMALTZ
 70
     0
  9
$DIMALTTZ
 70
     0
  9
$DIMUPT
 70
     0
  9
$DIMDEC
 70
     2
  9
$DIMTDEC
 70
     4
  9
$DIMALTU
 70
     2
  9
$DIMALTTD
 70
     2
  9
$DIMTXSTY
  7
Standard
  9
$DIMAUNIT
 70
     0
  9
$DIMADEC
 70
     0
  9
$DIMALTRND
 40
0.0
  9
$DIMAZIN
 70
     0
  9
$DIMDSEP
 70
     0
  9
$DIMATFIT
 70
     3
  9
$DIMFRAC
 70
     0
  9
$DIMLDRBLK
  1

  9
$DIMLUNIT
 70
     2
  9
$DIMLWD
 70
     0
  9
$DIMLWE
 70
     0
  9
$DIMTMOVE
 70
     0
  9
$LUNITS
 70
     2
  9
$LUPREC
 70
     4
  9
$SKETCHINC
 40
0.1
  9
$FILLETRAD
 40
0.0
  9
$AUNITS
 70
     0
  9
$AUPREC
 70
     0
  9
$MENU
  1
acad
  9
$ELEVATION
 40
0.0
  9
$PELEVATION
 40
0.0
  9
$THICKNESS
 40
0.0
  9
$LIMCHECK
 70
     0
  9
$CHAMFERA
 40
0.0
  9
$CHAMFERB
 40
0.0
  9
$CHAMFERC
 40
0.0
  9
$CHAMFERD
 40
0.0
  9
$SKPOLY
 70
     0
  9
$TDCREATE
 40
2455498.741087963
  9
$TDUCREATE
 40
2455498.657754630
  9
$TDUPDATE
 40
2455498.697558426
  9
$TDUUPDATE
 40
2455498.614225093
  9
$TDINDWG
 40
0.0084566088
  9
$TDUSRTIMER
 40
0.0084566088
  9
$USRTIMER
 70
     1
  9
$ANGBASE
 50
0.0
  9
$ANGDIR
 70
     0
  9
$PDMODE
 70
     0
  9
$PDSIZE
 40
0.0
  9
$PLINEWID
 40
0.0
  9
$SPLFRAME
 70
     0
  9
$SPLINETYPE
 70
     6
  9
$SPLINESEGS
 70
     8
  9
$HANDSEED
  5
8B1
  9
$SURFTAB1
 70
     6
  9
$SURFTAB2
 70
     6
  9
$SURFTYPE
 70
     6
  9
$SURFU
 70
     6
  9
$SURFV
 70
     6
  9
$UCSBASE
  2

  9
$UCSNAME
  2

  9
$UCSORG
 10
0.0
 20
0.0
 30
0.0
  9
$UCSXDIR
 10
1.0
 20
0.0
 30
0.0
  9
$UCSYDIR
 10
0.0
 20
1.0
 30
0.0
  9
$UCSORTHOREF
  2

  9
$UCSORTHOVIEW
 70
     0
  9
$UCSORGTOP
 10
0.0
 20
0.0
 30
0.0
  9
$UCSORGBOTTOM
 10
0.0
 20
0.0
 30
0.0
  9
$UCSORGLEFT
 10
0.0
 20
0.0
 30
0.0
  9
$UCSORGRIGHT
 10
0.0
 20
0.0
 30
0.0
  9
$UCSORGFRONT
 10
0.0
 20
0.0
 30
0.0
  9
$UCSORGBACK
 10
0.0
 20
0.0
 30
0.0
  9
$PUCSBASE
  2

  9
$PUCSNAME
  2

  9
$PUCSORG
 10
0.0
 20
0.0
 30
0.0
  9
$PUCSXDIR
 10
1.0
 20
0.0
 30
0.0
  9
$PUCSYDIR
 10
0.0
 20
1.0
 30
0.0
  9
$PUCSORTHOREF
  2

  9
$PUCSORTHOVIEW
 70
     0
  9
$PUCSORGTOP
 10
0.0
 20
0.0
 30
0.0
  9
$PUCSORGBOTTOM
 10
0.0
 20
0.0
 30
0.0
  9
$PUCSORGLEFT
 10
0.0
 20
0.0
 30
0.0
  9
$PUCSORGRIGHT
 10
0.0
 20
0.0
 30
0.0
  9
$PUCSORGFRONT
 10
0.0
 20
0.0
 30
0.0
  9
$PUCSORGBACK
 10
0.0
 20
0.0
 30
0.0
  9
$USERI1
 70
     0
  9
$USERI2
 70
     0
  9
$USERI3
 70
     0
  9
$USERI4
 70
     0
  9
$USERI5
 70
     0
  9
$USERR1
 40
0.0
  9
$USERR2
 40
0.0
  9
$USERR3
 40
0.0
  9
$USERR4
 40
0.0
  9
$USERR5
 40
0.0
  9
$WORLDVIEW
 70
     1
  9
$SHADEDGE
 70
     3
  9
$SHADEDIF
 70
    70
  9
$TILEMODE
 70
     1
  9
$MAXACTVP
 70
    16
  9
$PINSBASE
 10
0.0
 20
0.0
 30
0.0
  9
$PLIMCHECK
 70
     0
  9
$PEXTMIN
 10
1.000000000000000E+20
 20
1.000000000000000E+20
 30
1.000000000000000E+20
  9
$PEXTMAX
 10
-1.000000000000000E+20
 20
-1.000000000000000E+20
 30
-1.000000000000000E+20
  9
$PLIMMIN
 10
0.0
 20
0.0
  9
$PLIMMAX
 10
12.0
 20
9.0
  9
$UNITMODE
 70
     0
  9
$VISRETAIN
 70
     0
  9
$PLINEGEN
 70
     1
  9
$PSLTSCALE
 70
     0
  9
$TREEDEPTH
 70
  3020
  9
$CMLSTYLE
  2
Standard
  9
$CMLJUST
 70
     0
  9
$CMLSCALE
 40
1.0
  9
$PROXYGRAPHICS
 70
     0
  9
$MEASUREMENT
 70
     1
  9
$CELWEIGHT
370
     0
  9
$ENDCAPS
280
     0
  9
$JOINSTYLE
280
     0
  9
$LWDISPLAY
290
     0
  9
$INSUNITS
 70
     0
  9
$HYPERLINKBASE
  1

  9
$STYLESHEET
  1

  9
$XEDIT
290
     1
  9
$CEPSNTYPE
380
     0
  9
$PSTYLEMODE
290
     1
  9
$FINGERPRINTGUID
  2

  9
$VERSIONGUID
  2
{8BAD56FE-6911-4580-9330-333049A3A4E5}
  9
$EXTNAMES
290
     1
  9
$PSVPSCALE
 40
0.0
  9
$OLESTARTUP
290
     0
  0
ENDSEC
  0
SECTION
  2
CLASSES
  0
CLASS
  1
IMAGE
  2
AcDbRasterImage
  3
ISM
 90
    34943
280
     0
281
     1
  0
CLASS
  1
DICTIONARYVAR
  2
AcDbDictionaryVar
  3
ObjectDBX Classes
 90
        0
280
     0
281
     0
  0
CLASS
  1
RASTERVARIABLES
  2
AcDbRasterVariables
  3
ISM
 90
    32768
280
     0
281
     0
  0
CLASS
  1
IMAGEDEF
  2
AcDbRasterImageDef
  3
ISM
 90
    32768
280
     0
281
     0
  0
CLASS
  1
IMAGEDEF_REACTOR
  2
AcDbRasterImageDefReactor
  3
ISM
 90
    32769
280
     0
281
     0
  0
CLASS
  1
IDBUFFER
  2
AcDbIdBuffer
  3
ObjectDBX Classes
 90
    32768
280
     0
281
     0
  0
CLASS
  1
SPATIAL_FILTER
  2
AcDbSpatialFilter
  3
ObjectDBX Classes
 90
    32768
280
     0
281
     0
  0
CLASS
  1
SORTENTSTABLE
  2
AcDbSortentsTable
  3
ObjectDBX Classes
 90
        0
280
     0
281
     0
  0
CLASS
  1
LAYER_INDEX
  2
AcDbLayerIndex
  3
ObjectDBX Classes
 90
    32768
280
     0
281
     0
  0
CLASS
  1
SPATIAL_INDEX
  2
AcDbSpatialIndex
  3
ObjectDBX Classes
 90
    32768
280
     0
281
     0
  0
CLASS
  1
OBJECT_PTR
  2
CAseDLPNTableRecord
  3
ASE-LPNTableRecord
 90
    32769
280
     0
281
     0
  0
CLASS
  1
LAYOUT
  2
AcDbLayout
  3
ObjectDBX Classes
 90
        0
280
     0
281
     0
  0
CLASS
  1
PLOTSETTINGS
  2
AcDbPlotSettings
  3
ObjectDBX Classes
 90
    32768
280
     0
281
     0
  0
CLASS
  1
ACDBDICTIONARYWDFLT
  2
AcDbDictionaryWithDefault
  3
ObjectDBX Classes
 90
        0
280
     0
281
     0
  0
CLASS
  1
ACDBPLACEHOLDER
  2
AcDbPlaceHolder
  3
ObjectDBX Classes
 90
        0
280
     0
281
     0
  0
CLASS
  1
VBA_PROJECT
  2
AcDbVbaProject
  3
acad
 90
    32768
280
     0
281
     0
  0
CLASS
  1
WIPEOUT
  2
AcDbWipeout
  3
"WipeOut|Product Desc: Object Enabler for WipeOut entity                        |Company: Autodesk, Inc.                        |WEB Address: www.autodesk.com"
 90
    34943
280
     0
281
     1
  0
CLASS
  1
WIPEOUTVARIABLES
  2
AcDbWipeoutVariables
  3
"WipeOut|Product Desc:     WipeOut Dbx Application|Company:          Autodesk, Inc.|WEB Address:      www.autodesk.com"
 90
        0
280
     0
281
     0
  0
CLASS
  1
RTEXT
  2
RText
  3
RText|AutoCAD Express Tool|expresstools@autodesk.com
 90
    35839
280
     0
281
     1
  0
CLASS
  1
ARCALIGNEDTEXT
  2
AcDbArcAlignedText
  3
ATEXT|AutoCAD Express Tool|expresstools@autodesk.com
 90
    32768
280
     0
281
     1
  0
CLASS
  1
MATERIAL
  2
AcDbMaterial
  3
ObjectDBX Classes
 90
     1153
280
     0
281
     0
  0
CLASS
  1
VISUALSTYLE
  2
AcDbVisualStyle
  3
ObjectDBX Classes
 90
     4095
280
     0
281
     0
  0
CLASS
  1
TABLESTYLE
  2
AcDbTableStyle
  3
ObjectDBX Classes
 90
     4095
280
     0
281
     0
  0
CLASS
  1
SCALE
  2
AcDbScale
  3
ObjectDBX Classes
 90
     1153
280
     0
281
     0
  0
CLASS
  1
MLEADERSTYLE
  2
AcDbMLeaderStyle
  3
ACDB_MLEADERSTYLE_CLASS
 90
     4095
280
     0
281
     0
  0
CLASS
  1
CELLSTYLEMAP
  2
AcDbCellStyleMap
  3
ObjectDBX Classes
 90
     1152
280
     0
281
     0
  0
ENDSEC
  0
SECTION
  2
TABLES
  0
TABLE
  2
VPORT
  5
7
330
0
100
AcDbSymbolTable
 70
     1
  0
VPORT
  5
15
330
7
100
AcDbSymbolTableRecord
100
AcDbViewportTableRecord
  2
*ACTIVE
 70
     0
 10
0.0
 20
0.0
 11
1.0
 21
1.0
 12
2539.904873283563
 22
-544.7215924422716
 13
0.0
 23
0.0
 14
1.0
 24
1.0
 15
0.0
 25
0.0
 16
0.0
 26
0.0
 36
1.0
 17
0.0
 27
0.0
 37
0.0
 40
3568.674433886593
 41
1.611330698287219
 42
50.0
 43
0.0
 44
0.0
 50
0.0
 51
0.0
 71
     0
 72
   100
 73
     1
 74
     1
 75
     0
 76
     0
 77
     0
 78
     0
281
     0
 65
     0
110
0.0
120
0.0
130
0.0
111
1.0
121
0.0
131
0.0
112
0.0
122
1.0
132
0.0
 79
     0
146
0.0
  0
ENDTAB
  0
TABLE
  2
LTYPE
  5
4
330
0
100
AcDbSymbolTable
 70
     2
  0
LTYPE
  5
11
330
4
100
AcDbSymbolTableRecord
100
AcDbLinetypeTableRecord
  2
ByBlock
 70
     0
  3

 72
    65
 73
     0
 40
0.0
  0
LTYPE
  5
12
330
4
100
AcDbSymbolTableRecord
100
AcDbLinetypeTableRecord
  2
ByLayer
 70
     0
  3

 72
    65
 73
     0
 40
0.0
  0
LTYPE
  5
13
330
4
100
AcDbSymbolTableRecord
100
AcDbLinetypeTableRecord
  2
Continuous
 70
     0
  3
Solid line
 72
    65
 73
     0
 40
0.0
  0
LTYPE
  5
17C
330
4
100
AcDbSymbolTableRecord
100
AcDbLinetypeTableRecord
  2
CENTER
 70
     0
  3
____ _ ____ _ ____ _ ____ _ ____ _ ____ _ ____
 72
    65
 73
     4
 40
2.0
 49
1.25
 74
     0
 49
-0.25
 74
     0
 49
0.25
 74
     0
 49
-0.25
 74
     0
  0
ENDTAB
  0
TABLE
  2
LAYER
  5
2
330
0
100
AcDbSymbolTable
 70
     2
  0
LAYER
  5
14
102
{ACAD_XDICTIONARY
360
82E
102
}
330
2
100
AcDbSymbolTableRecord
100
AcDbLayerTableRecord
  2
0
 70
     0
 62
     7
  6
Continuous
370
    -3
390
1D
  0
LAYER
  5
7FE
330
2
100
AcDbSymbolTableRecord
100
AcDbLayerTableRecord
  2
Defpoints
 70
     0
 62
     7
  6
Continuous
290
     0
370
    -3
390
1D
  0
ENDTAB
  0
TABLE
  2
STYLE
  5
3
330
0
100
AcDbSymbolTable
 70
     1
  0
STYLE
  5
17
330
3
100
AcDbSymbolTableRecord
100
AcDbTextStyleTableRecord
  2
Standard
 70
     0
 40
0.0
 41
1.0
 50
0.0
 71
     0
 42
0.0
  3
I011000D.TTF
  4

1001
ACAD
1000
IsonormD
1071
        0
  0
ENDTAB
  0
TABLE
  2
VIEW
  5
5
330
0
100
AcDbSymbolTable
 70
     0
  0
ENDTAB
  0
TABLE
  2
UCS
  5
6
330
0
100
AcDbSymbolTable
 70
     0
  0
ENDTAB
  0
TABLE
  2
APPID
  5
8
330
0
100
AcDbSymbolTable
 70
     6
  0
APPID
  5
16
330
8
100
AcDbSymbolTableRecord
100
AcDbRegAppTableRecord
  2
ACAD
 70
     0
  0
APPID
  5
26
330
8
100
AcDbSymbolTableRecord
100
AcDbRegAppTableRecord
  2
TopSolid'Draft
 70
     0
  0
APPID
  5
579
330
8
100
AcDbSymbolTableRecord
100
AcDbRegAppTableRecord
  2
ACAD_MLEADERVER
 70
     0
  0
APPID
  5
82C
330
8
100
AcDbSymbolTableRecord
100
AcDbRegAppTableRecord
  2
DCO15
 70
     0
  0
APPID
  5
84B
330
8
100
AcDbSymbolTableRecord
100
AcDbRegAppTableRecord
  2
ACAD_EXEMPT_FROM_CAD_STANDARDS
 70
     0
  0
APPID
  5
86C
330
8
100
AcDbSymbolTableRecord
100
AcDbRegAppTableRecord
  2
ACAD_PSEXT
 70
     0
  0
ENDTAB
  0
TABLE
  2
DIMSTYLE
  5
9
330
0
100
AcDbSymbolTable
 70
     1
100
AcDbDimStyleTable
 71
     1
340
18
  0
DIMSTYLE
105
18
330
9
100
AcDbSymbolTableRecord
100
AcDbDimStyleTableRecord
  2
Standard
 70
     0
 41
1.25
 42
0.0
 44
0.75
 73
     0
 74
     0
 77
     1
140
2.5
146
0.8
147
1.25
176
     7
177
     7
178
     7
271
     2
340
17
  0
ENDTAB
  0
TABLE
  2
BLOCK_RECORD
  5
1
330
0
100
AcDbSymbolTable
 70
     1
  0
BLOCK_RECORD
  5
A
102
{ACAD_XDICTIONARY
360
585
102
}
330
1
100
AcDbSymbolTableRecord
100
AcDbBlockTableRecord
  2
*MODEL_SPACE
340
20
  0
BLOCK_RECORD
  5
B
330
1
100
AcDbSymbolTableRecord
100
AcDbBlockTableRecord
  2
*PAPER_SPACE
340
21
  0
BLOCK_RECORD
  5
34B
330
1
100
AcDbSymbolTableRecord
100
AcDbBlockTableRecord
  2
AID1373
340
0
102
{BLKREFS
331
526
102
}
  0
ENDTAB
  0
ENDSEC
  0
SECTION
  2
BLOCKS
  0
BLOCK
  5
D
330
A
100
AcDbEntity
  8
0
100
AcDbBlockBegin
  2
*MODEL_SPACE
 70
     0
 10
0.0
 20
0.0
 30
0.0
  3
*MODEL_SPACE
  1

  0
ENDBLK
  5
E
330
A
100
AcDbEntity
  8
0
100
AcDbBlockEnd
  0
BLOCK
  5
F
330
B
100
AcDbEntity
 67
     1
  8
0
100
AcDbBlockBegin
  2
*PAPER_SPACE
 70
     0
 10
0.0
 20
0.0
 30
0.0
  3
*PAPER_SPACE
  1

  0
ENDBLK
  5
10
330
B
100
AcDbEntity
 67
     1
  8
0
100
AcDbBlockEnd
  0
BLOCK
  5
34C
330
34B
100
AcDbEntity
  8
0
100
AcDbBlockBegin
  2
AID1373
 70
     0
 10
0.0
 20
0.0
 30
0.0
  3
AID1373
  1

  0
LINE
  5
34D
330
34B
100
AcDbEntity
  8
0
  6
Continuous
 62
     7
100
AcDbLine
 10
-947.5959938021516
 20
340.7820487375271
 30
0.0
 11
-947.4886625392315
 21
340.4753241053242
 31
0.0
  0
LINE
  5
34E
330
34B
100
AcDbEntity
  8
0
  6
Continuous
 62
     7
100
AcDbLine
 10
-947.4886625392315
 20
331.2662452871887
 30
0.0
 11
-947.4886625392315
 21
340.4753241053242
 31
0.0
  0
ELLIPSE
  5
34F
330
34B
100
AcDbEntity
  8
0
  6
Continuous
 62
     7
100
AcDbEllipse
 10
-947.8464334156315
 20
331.5583639845248
 30
0.0
 11
0.160000000000049
 21
-0.7838367176906114
 31
0.0
210
-0.0000000000000001
220
0.0
230
1.0
 40
0.4082482904638633
 41
0.3217505543965742
 42
1.107148717794153
  0
LINE
  5
350
330
34B
100
AcDbEntity
  8
0
  6
Continuous
 62
     7
100
AcDbLine
 10
-947.593451202818
 20
330.8354070932332
 30
0.0
 11
-948.3787492416675
 21
329.8736173476387
 31
0.0
  0
ELLIPSE
  5
351
330
34B
100
AcDbEntity
  8
0
  6
Continuous
 62
     7
100
AcDbEllipse
 10
-948.4546439055115
 20
330.0905044150263
 30
0.0
 11
0.048000000000048
 21
-0.2351510153071889
 31
0.0
210
-0.0000000000000001
220
0.0
230
1.0
 40
0.4082482904638633
 41
5.819537698179299
 42
6.283185307179586
  0
ELLIPSE
  5
352
330
34B
100
AcDbEntity
  8
0
  6
Continuous
 62
     7
100
AcDbEllipse
 10
-948.4546439055115
 20
330.0905044150263
 30
0.0
 11
0.048000000000048
 21
-0.2351510153071889
 31
0.0
210
-0.0000000000000001
220
0.0
230
1.0
 40
0.4082482904638633
 41
4.248741371383912
 42
5.819537698179299
  0
LINE
  5
353
330
34B
100
AcDbEntity
  8
0
  6
Continuous
 62
     7
100
AcDbLine
 10
-948.5619751684316
 20
331.2005554649034
 30
0.0
 11
-948.5619751684316
 21
330.178140024227
 31
0.0
  0
ELLIPSE
  5
354
330
34B
100
AcDbEntity
  8
0
  6
Continuous
 62
     7
100
AcDbEllipse
 10
-948.6693064313513
 20
331.2881910741042
 30
0.0
 11
-0.048000000000048
 21
0.2351510153071889
 31
0.0
210
-0.0000000000000001
220
0.0
230
1.0
 40
0.4082482904638633
 41
4.248741371383192
 42
5.819537698178407
  0
LINE
  5
355
330
34B
100
AcDbEntity
  8
0
  6
Continuous
 62
     7
100
AcDbLine
 10
-950.7980431459312
 20
333.245386346256
 30
0.0
 11
-948.6693064313513
 21
331.5072800971063
 31
0.0
  0
LINE
  5
356
330
34B
100
AcDbEntity
  8
0
  6
Continuous
 62
     7
100
AcDbLine
 10
-950.7980431459312
 20
335.6188507621117
 30
0.0
 11
-950.7980431459312
 21
333.245386346256
 31
0.0
  0
ELLIPSE
  5
357
330
34B
100
AcDbEntity
  8
0
  6
Continuous
 62
     7
100
AcDbEllipse
 10
-950.3329410066113
 20
335.2390964555748
 30
0.0
 11
0.207999999999986
 21
-1.0189877329978
 31
0.0
210
-0.0000000000000001
220
0.0
230
1.0
 40
0.4082482904638631
 41
2.677945044589024
 42
3.141592653589793
  0
ELLIPSE
  5
358
330
34B
100
AcDbEntity
  8
0
  6
Continuous
 62
     7
100
AcDbEllipse
 10
-950.3329410066113
 20
335.2390964555748
 30
0.0
 11
0.207999999999986
 21
-1.0189877329978
 31
0.0
210
-0.0000000000000001
220
0.0
230
1.0
 40
0.4082482904638631
 41
1.10714871779398
 42
2.677945044589031
  0
LINE
  5
359
330
34B
100
AcDbEntity
  8
0
  6
Continuous
 62
     7
100
AcDbLine
 10
-949.8678388672914
 20
334.6767679632029
 30
0.0
 11
-949.8678388672914
 21
334.8593421490379
 31
0.0
  0
LINE
  5
35A
330
34B
100
AcDbEntity
  8
0
  6
Continuous
 62
     7
100
AcDbLine
 10
-948.6693064313513
 20
333.6981703271269
 30
0.0
 11
-949.8678388672914
 21
334.6767679632029
 31
0.0
  0
ELLIPSE
  5
35B
330
34B
100
AcDbEntity
  8
0
  6
Continuous
 62
     7
100
AcDbEllipse
 10
-948.6693064313513
 20
333.917259350129
 30
0.0
 11
-0.048000000000048
 21
0.2351510153071889
 31
0.0
210
-0.0000000000000001
220
0.0
230
1.0
 40
0.4082482904638633
 41
3.141592653587933
 42
4.248741371382969
  0
LINE
  5
35C
330
34B
100
AcDbEntity
  8
0
  6
Continuous
 62
     7
100
AcDbLine
 10
-948.5619751684316
 20
349.604033397077
 30
0.0
 11
-948.5619751684316
 21
333.8296237409282
 31
0.0
  0
ELLIPSE
  5
35D
330
34B
100
AcDbEntity
  8
0
  6
Continuous
 62
     7
100
AcDbEllipse
 10
-948.7408606066315
 20
349.750092745745
 30
0.0
 11
-0.079999999999969
 21
0.3919183588453334
 31
0.0
210
-0.0000000000000001
220
0.0
230
0.9999999999999998
 40
0.4082482904638633
 41
4.248741371383531
 42
5.819537698178955
  0
LINE
  5
35E
330
34B
100
AcDbEntity
  8
0
  6
Continuous
 62
     7
100
AcDbLine
 10
-950.6012691639114
 20
351.6342583435628
 30
0.0
 11
-948.7408606066315
 21
350.1152411174151
 31
0.0
  0
ELLIPSE
  5
35F
330
34B
100
AcDbEntity
  8
0
  6
Continuous
 62
     7
100
AcDbEllipse
 10
-950.6012691639114
 20
351.9994067152329
 30
0.0
 11
0.079999999999969
 21
-0.3919183588453334
 31
0.0
210
-0.0000000000000001
220
0.0
230
0.9999999999999998
 40
0.4082482904638633
 41
4.24874137138353
 42
5.819537698178955
  0
LINE
  5
360
330
34B
100
AcDbEntity
  8
0
  6
Continuous
 62
     7
100
AcDbLine
 10
-950.7801546021113
 20
356.5272465239423
 30
0.0
 11
-950.7801546021113
 21
352.145466063901
 31
0.0
  0
LINE
  5
361
330
34B
100
AcDbEntity
  8
0
  6
Continuous
 62
     7
100
AcDbLine
 10
-953.284550736911
 20
358.5720774052949
 30
0.0
 11
-950.7801546021113
 21
356.5272465239423
 31
0.0
  0
LINE
  5
362
330
34B
100
AcDbEntity
  8
0
  6
Continuous
 62
     7
100
AcDbLine
 10
-953.284550736911
 20
358.5720774052949
 30
0.0
 11
-953.391881999831
 21
358.8788020374978
 31
0.0
  0
LINE
  5
363
330
34B
100
AcDbEntity
  8
0
  6
Continuous
 62
     7
100
AcDbLine
 10
-953.391881999831
 20
358.8788020374978
 30
0.0
 11
-953.4992132627511
 21
358.7473486236965
 31
0.0
  0
LINE
  5
364
330
34B
100
AcDbEntity
  8
0
  6
Continuous
 62
     7
100
AcDbLine
 10
-956.0036093975508
 20
360.7921795050491
 30
0.0
 11
-953.4992132627511
 21
358.7473486236965
 31
0.0
  0
LINE
  5
365
330
34B
100
AcDbEntity
  8
0
  6
Continuous
 62
     7
100
AcDbLine
 10
-956.0036093975508
 20
356.4103990450078
 30
0.0
 11
-956.0036093975508
 21
360.7921795050491
 31
0.0
  0
ELLIPSE
  5
366
330
34B
100
AcDbEntity
  8
0
  6
Continuous
 62
     7
100
AcDbEllipse
 10
-956.1824948357507
 20
356.5564583936759
 30
0.0
 11
0.079999999999969
 21
-0.3919183588452779
 31
0.0
210
-0.0000000000000001
220
0.0
230
1.0
 40
0.4082482904638633
 41
5.819537698179481
 42
6.283185307179572
  0
LINE
  5
367
330
34B
100
AcDbEntity
  8
0
  6
Continuous
 62
     7
100
AcDbLine
 10
-958.0429033930306
 20
357.7103272481534
 30
0.0
 11
-956.1824948357507
 21
356.1913100220058
 31
0.0
  0
ELLIPSE
  5
368
330
34B
100
AcDbEntity
  8
0
  6
Continuous
 62
     7
100
AcDbEllipse
 10
-958.0429033930306
 20
357.3451788764833
 30
0.0
 11
-0.079999999999969
 21
0.3919183588452779
 31
0.0
210
-0.0000000000000001
220
0.0
230
1.0
 40
0.4082482904638633
 41
6.283185307179572
 42
7.390334024973868
  0
LINE
  5
369
330
34B
100
AcDbEntity
  8
0
  6
Continuous
 62
     7
100
AcDbLine
 10
-958.2217888312305
 20
341.7168285690025
 30
0.0
 11
-958.2217888312305
 21
357.4912382251513
 31
0.0
  0
ELLIPSE
  5
36A
330
34B
100
AcDbEntity
  8
0
  6
Continuous
 62
     7
100
AcDbEllipse
 10
-958.1144575683108
 20
341.6291929598017
 30
0.0
 11
-0.048000000000048
 21
0.2351510153071334
 31
0.0
210
-0.0000000000000001
220
0.0
230
1.0
 40
0.4082482904638633
 41
1.107148717794082
 42
2.677945044590412
  0
LINE
  5
36B
330
34B
100
AcDbEntity
  8
0
  6
Continuous
 62
     7
100
AcDbLine
 10
-956.9159251323707
 20
340.4315063007238
 30
0.0
 11
-958.1144575683108
 21
341.4101039367997
 31
0.0
  0
LINE
  5
36C
330
34B
100
AcDbEntity
  8
0
  6
Continuous
 62
     7
100
AcDbLine
 10
-956.9159251323707
 20
340.6140804865589
 30
0.0
 11
-956.9159251323707
 21
340.4315063007238
 31
0.0
  0
ELLIPSE
  5
36D
330
34B
100
AcDbEntity
  8
0
  6
Continuous
 62
     7
100
AcDbEllipse
 10
-956.4508229930508
 20
340.2343261800219
 30
0.0
 11
0.207999999999986
 21
-1.0189877329978
 31
0.0
210
-0.0000000000000001
220
0.0
230
1.0
 40
0.4082482904638633
 41
2.677945044589032
 42
3.141592653589793
  0
ELLIPSE
  5
36E
330
34B
100
AcDbEntity
  8
0
  6
Continuous
 62
     7
100
AcDbEllipse
 10
-956.4508229930508
 20
340.2343261800219
 30
0.0
 11
0.207999999999986
 21
-1.0189877329978
 31
0.0
210
-0.0000000000000001
220
0.0
230
1.0
 40
0.4082482904638633
 41
1.107148717794171
 42
2.677945044589031
  0
LINE
  5
36F
330
34B
100
AcDbEntity
  8
0
  6
Continuous
 62
     7
100
AcDbLine
 10
-955.9857208537307
 20
337.4811074576293
 30
0.0
 11
-955.9857208537307
 21
339.854571873485
 31
0.0
  0
LINE
  5
370
330
34B
100
AcDbEntity
  8
0
  6
Continuous
 62
     7
100
AcDbLine
 10
-958.1144575683108
 20
339.219213706779
 30
0.0
 11
-955.9857208537307
 21
337.4811074576292
 31
0.0
  0
ELLIPSE
  5
371
330
34B
100
AcDbEntity
  8
0
  6
Continuous
 62
     7
100
AcDbEllipse
 10
-958.1144575683108
 20
339.000124683777
 30
0.0
 11
-0.048000000000048
 21
0.2351510153071334
 31
0.0
210
-0.0000000000000001
220
0.0
230
1.0
 40
0.4082482904638633
 41
6.283185307178632
 42
7.390334024973669
  0
LINE
  5
372
330
34B
100
AcDbEntity
  8
0
  6
Continuous
 62
     7
100
AcDbLine
 10
-958.2217888312305
 20
338.0653448523014
 30
0.0
 11
-958.2217888312305
 21
339.0877602929777
 31
0.0
  0
ELLIPSE
  5
373
330
34B
100
AcDbEntity
  8
0
  6
Continuous
 62
     7
100
AcDbEllipse
 10
-958.3291200941506
 20
338.1529804615023
 30
0.0
 11
0.048000000000048
 21
-0.2351510153071889
 31
0.0
210
-0.0000000000000001
220
0.0
230
1.0
 40
0.4082482904638633
 41
5.819537698179305
 42
6.283185307180515
  0
ELLIPSE
  5
374
330
34B
100
AcDbEntity
  8
0
  6
Continuous
 62
     7
100
AcDbEllipse
 10
-958.3291200941506
 20
338.1529804615023
 30
0.0
 11
0.048000000000048
 21
-0.2351510153071889
 31
0.0
210
-0.0000000000000001
220
0.0
230
1.0
 40
0.4082482904638633
 41
5.034139534781772
 42
5.819537698179328
  0
LINE
  5
375
330
34B
100
AcDbEntity
  8
0
  6
Continuous
 62
     7
100
AcDbLine
 10
-958.4050147579945
 20
338.0600288611932
 30
0.0
 11
-959.1903127968437
 21
340.3042049342469
 31
0.0
  0
ELLIPSE
  5
376
330
34B
100
AcDbEntity
  8
0
  6
Continuous
 62
     7
100
AcDbEllipse
 10
-958.9373305840306
 20
340.6140436019433
 30
0.0
 11
0.160000000000049
 21
-0.7838367176906114
 31
0.0
210
-0.0000000000000001
220
0.0
230
1.0
 40
0.4082482904638633
 41
4.248741371384014
 42
5.034139534781482
  0
LINE
  5
377
330
34B
100
AcDbEntity
  8
0
  6
Continuous
 62
     7
100
AcDbLine
 10
-959.2951014604304
 20
350.1152411174151
 30
0.0
 11
-959.2951014604304
 21
340.9061622992794
 31
0.0
  0
LINE
  5
378
330
34B
100
AcDbEntity
  8
0
  6
Continuous
 62
     7
100
AcDbLine
 10
-959.2951014604304
 20
350.1152411174151
 30
0.0
 11
-959.1877701975118
 21
350.2466945312161
 31
0.0
  0
LINE
  5
379
330
34B
100
AcDbEntity
  8
0
  6
Continuous
 62
     7
100
AcDbLine
 10
-959.1877701975118
 20
350.2466945312161
 30
0.0
 11
-959.2951014604304
 21
350.5534191634193
 31
0.0
  0
LINE
  5
37A
330
34B
100
AcDbEntity
  8
0
  6
Continuous
 62
     7
100
AcDbLine
 10
-959.2951014604304
 20
359.7624979815543
 30
0.0
 11
-959.2951014604304
 21
350.5534191634192
 31
0.0
  0
ELLIPSE
  5
37B
330
34B
100
AcDbEntity
  8
0
  6
Continuous
 62
     7
100
AcDbEllipse
 10
-958.9373305840306
 20
359.4703792842182
 30
0.0
 11
0.160000000000049
 21
-0.7838367176906114
 31
0.0
210
-0.0000000000000001
220
0.0
230
1.0
 40
0.4082482904638633
 41
3.463343207986367
 42
4.24874137138398
  0
LINE
  5
37C
330
34B
100
AcDbEntity
  8
0
  6
Continuous
 62
     7
100
AcDbLine
 10
-959.1903127968439
 20
360.1933361755103
 30
0.0
 11
-958.4050147579947
 21
361.1551259211049
 31
0.0
  0
ELLIPSE
  5
37D
330
34B
100
AcDbEntity
  8
0
  6
Continuous
 62
     7
100
AcDbEllipse
 10
-958.3291200941506
 20
360.9382388537172
 30
0.0
 11
0.048000000000048
 21
-0.2351510153071889
 31
0.0
210
-0.0000000000000001
220
0.0
230
1.0
 40
0.4082482904638633
 41
2.677945044589536
 42
3.141592653589817
  0
ELLIPSE
  5
37E
330
34B
100
AcDbEntity
  8
0
  6
Continuous
 62
     7
100
AcDbEllipse
 10
-958.3291200941506
 20
360.9382388537172
 30
0.0
 11
0.048000000000048
 21
-0.2351510153071889
 31
0.0
210
-0.0000000000000001
220
0.0
230
1.0
 40
0.4082482904638633
 41
1.107148717794231
 42
2.677945044588703
  0
LINE
  5
37F
330
34B
100
AcDbEntity
  8
0
  6
Continuous
 62
     7
100
AcDbLine
 10
-958.2217888312305
 20
359.901217478174
 30
0.0
 11
-958.2217888312305
 21
360.8506032445163
 31
0.0
  0
ELLIPSE
  5
380
330
34B
100
AcDbEntity
  8
0
  6
Continuous
 62
     7
100
AcDbEllipse
 10
-958.1144575683108
 20
359.8135818689733
 30
0.0
 11
-0.047999999999937
 21
0.2351510153071334
 31
0.0
210
-0.0000000000000001
220
0.0
230
0.9999999999999998
 40
0.4082482904638633
 41
1.107148717794172
 42
2.67794504459042
  0
LINE
  5
381
330
34B
100
AcDbEntity
  8
0
  6
Continuous
 62
     7
100
AcDbLine
 10
-957.2558074649506
 20
358.8934079723646
 30
0.0
 11
-958.1144575683108
 21
359.5944928459712
 31
0.0
  0
ELLIPSE
  5
382
330
34B
100
AcDbEntity
  8
0
  6
Continuous
 62
     7
100
AcDbEllipse
 10
-957.2558074649506
 20
359.2585563440347
 30
0.0
 11
-0.079999999999969
 21
0.3919183588453334
 31
0.0
210
-0.0000000000000001
220
0.0
230
0.9999999999999998
 40
0.4082482904638633
 41
3.141592653589234
 42
4.24874137138353
  0
LINE
  5
383
330
34B
100
AcDbEntity
  8
0
  6
Continuous
 62
     7
100
AcDbLine
 10
-957.0769220267507
 20
363.8594258270781
 30
0.0
 11
-957.0769220267507
 21
359.1124969953666
 31
0.0
  0
LINE
  5
384
330
34B
100
AcDbEntity
  8
0
  6
Continuous
 62
     7
100
AcDbLine
 10
-949.7068419729114
 20
357.8417806619547
 30
0.0
 11
-957.0769220267507
 21
363.8594258270781
 31
0.0
  0
LINE
  5
385
330
34B
100
AcDbEntity
  8
0
  6
Continuous
 62
     7
100
AcDbLine
 10
-949.7068419729114
 20
353.0948518302433
 30
0.0
 11
-949.7068419729114
 21
357.8417806619547
 31
0.0
  0
ELLIPSE
  5
386
330
34B
100
AcDbEntity
  8
0
  6
Continuous
 62
     7
100
AcDbEllipse
 10
-949.5279565347114
 20
352.9487924815752
 30
0.0
 11
-0.079999999999969
 21
0.3919183588452779
 31
0.0
210
-0.0000000000000001
220
0.0
230
1.0
 40
0.4082482904638633
 41
1.107148717794282
 42
2.677945044589707
  0
LINE
  5
387
330
34B
100
AcDbEntity
  8
0
  6
Continuous
 62
     7
100
AcDbLine
 10
-948.6693064313513
 20
351.8825592362984
 30
0.0
 11
-949.5279565347114
 21
352.5836441099051
 31
0.0
  0
ELLIPSE
  5
388
330
34B
100
AcDbEntity
  8
0
  6
Continuous
 62
     7
100
AcDbEllipse
 10
-948.6693064313513
 20
352.1016482593005
 30
0.0
 11
-0.048000000000048
 21
0.2351510153071889
 31
0.0
210
-0.0000000000000001
220
0.0
230
1.0
 40
0.4082482904638633
 41
3.141592653587933
 42
4.248741371382969
  0
LINE
  5
389
330
34B
100
AcDbEntity
  8
0
  6
Continuous
 62
     7
100
AcDbLine
 10
-948.5619751684316
 20
352.963398416442
 30
0.0
 11
-948.5619751684316
 21
352.0140126500997
 31
0.0
  0
ELLIPSE
  5
38A
330
34B
100
AcDbEntity
  8
0
  6
Continuous
 62
     7
100
AcDbEllipse
 10
-948.4546439055115
 20
352.8757628072412
 30
0.0
 11
0.048000000000048
 21
-0.2351510153071889
 31
0.0
210
-0.0000000000000001
220
0.0
230
1.0
 40
0.4082482904638633
 41
2.677945044589536
 42
3.141592653589817
  0
ELLIPSE
  5
38B
330
34B
100
AcDbEntity
  8
0
  6
Continuous
 62
     7
100
AcDbEllipse
 10
-948.454643905511
 20
352.8757628072408
 30
0.0
 11
0.048000000000048
 21
-0.2351510153071334
 31
0.0
210
-0.0000000000000001
220
0.0
230
1.0
 40
0.4082482904638633
 41
1.892546881192886
 42
2.677945044594227
  0
LINE
  5
38C
330
34B
100
AcDbEntity
  8
0
  6
Continuous
 62
     7
100
AcDbLine
 10
-948.3787492416672
 20
352.9687144075499
 30
0.0
 11
-947.593451202818
 21
350.7245383344968
 31
0.0
  0
ELLIPSE
  5
38D
330
34B
100
AcDbEntity
  8
0
  6
Continuous
 62
     7
100
AcDbEllipse
 10
-947.8464334156315
 20
350.4146996668002
 30
0.0
 11
0.160000000000049
 21
-0.7838367176906114
 31
0.0
210
-0.0000000000000001
220
0.0
230
1.0
 40
0.4082482904638633
 41
1.10714871779422
 42
1.892546881191689
  0
LINE
  5
38E
330
34B
100
AcDbEntity
  8
0
  6
Continuous
 62
     7
100
AcDbLine
 10
-947.4886625392315
 20
340.9135021513283
 30
0.0
 11
-947.4886625392315
 21
350.1225809694641
 31
0.0
  0
LINE
  5
38F
330
34B
100
AcDbEntity
  8
0
  6
Continuous
 62
     7
100
AcDbLine
 10
-947.4886625392315
 20
340.9135021513283
 30
0.0
 11
-947.5959938021516
 21
340.7820487375271
 31
0.0
  0
LINE
  5
390
330
34B
100
AcDbEntity
  8
0
  6
Continuous
 62
     9
100
AcDbLine
 10
2629.330014757997
 20
1083.265457747771
 30
0.0
 11
-948.3787492416668
 21
352.9687144075497
 31
0.0
  0
LINE
  5
391
330
34B
100
AcDbEntity
  8
0
  6
Continuous
 62
     7
100
AcDbLine
 10
2629.330014757997
 20
1083.265457747771
 30
0.0
 11
2630.115312796846
 21
1081.021281674718
 31
0.0
  0
LINE
  5
392
330
34B
100
AcDbEntity
  8
0
  6
Continuous
 62
     9
100
AcDbLine
 10
-947.593451202818
 20
350.7245383344968
 30
0.0
 11
2630.115312796846
 21
1081.021281674718
 31
0.0
  0
LINE
  5
393
330
34B
100
AcDbEntity
  8
0
  6
Continuous
 62
     9
100
AcDbLine
 10
2630.220101460432
 20
1080.419324309686
 30
0.0
 11
-947.4886625392313
 21
350.1225809694641
 31
0.0
  0
ELLIPSE
  5
394
330
34B
100
AcDbEntity
  8
0
  6
Continuous
 62
     7
100
AcDbEllipse
 10
2629.862330584032
 20
1080.711443007022
 30
0.0
 11
-0.16000000000016
 21
0.7838367176906669
 31
0.0
210
-0.0000000000000001
220
0.0
230
1.0
 40
0.4082482904638632
 41
4.248741371383611
 42
5.034139534781195
  0
LINE
  5
395
330
34B
100
AcDbEntity
  8
0
  6
Continuous
 62
     7
100
AcDbLine
 10
2276.23551612165
 20
998.9534445839915
 30
0.0
 11
2554.879635119255
 21
1055.831437198282
 31
0.0
  0
ELLIPSE
  5
396
330
34B
100
AcDbEntity
  8
0
  6
Continuous
 62
     7
100
AcDbEllipse
 10
2272.449225060466
 20
997.9614821345252
 30
0.0
 11
2.681611455822352
 21
3.284289877583557
 31
0.0000000000000001
210
0.0
220
0.0
230
0.9999999999999998
 40
0.8164965809277262
 41
5.554421187324702
 42
6.283185307179611
  0
LINE
  5
397
330
34B
100
AcDbEntity
  8
0
  6
Continuous
 62
     7
100
AcDbLine
 10
1990.018815001676
 20
940.5297051167737
 30
0.0
 11
2268.662933999282
 21
997.4076977310645
 31
0.0
  0
ELLIPSE
  5
398
330
34B
100
AcDbEntity
  8
0
  6
Continuous
 62
     7
100
AcDbEllipse
 10
1986.232523940492
 20
939.5377426673077
 30
0.0
 11
2.681611455822574
 21
3.284289877583558
 31
0.0000000000000001
210
0.0
220
0.0
230
1.0
 40
0.8164965809277262
 41
5.554421187324702
 42
6.283185307179611
  0
LINE
  5
399
330
34B
100
AcDbEntity
  8
0
  6
Continuous
 62
     7
100
AcDbLine
 10
1703.802113881703
 20
882.1059656495558
 30
0.0
 11
1982.446232879308
 21
938.9839582638467
 31
0.0
  0
ELLIPSE
  5
39A
330
34B
100
AcDbEntity
  8
0
  6
Continuous
 62
     7
100
AcDbEllipse
 10
1700.015822820519
 20
881.1140032000899
 30
0.0
 11
2.681611455822796
 21
3.28428987758389
 31
0.0
210
0.0
220
0.0
230
1.0
 40
0.8164965809277264
 41
5.55442118732473
 42
6.28318530717957
  0
LINE
  5
39B
330
34B
100
AcDbEntity
  8
0
  6
Continuous
 62
     7
100
AcDbLine
 10
1417.58541276173
 20
823.6822261823382
 30
0.0
 11
1696.229531759335
 21
880.5602187966291
 31
0.0
  0
ELLIPSE
  5
39C
330
34B
100
AcDbEntity
  8
0
  6
Continuous
 62
     7
100
AcDbEllipse
 10
1413.799121700546
 20
822.6902637328722
 30
0.0
 11
2.681611455822796
 21
3.28428987758389
 31
0.0
210
0.0
220
0.0
230
1.0
 40
0.8164965809277259
 41
5.554421187324733
 42
6.283185307179579
  0
LINE
  5
39D
330
34B
100
AcDbEntity
  8
0
  6
Continuous
 62
     7
100
AcDbLine
 10
1131.368711641757
 20
765.2584867151204
 30
0.0
 11
1410.012830639362
 21
822.1364793294112
 31
0.0
  0
ELLIPSE
  5
39E
330
34B
100
AcDbEntity
  8
0
  6
Continuous
 62
     7
100
AcDbEllipse
 10
1127.582420580573
 20
764.2665242656544
 30
0.0
 11
2.681611455823018
 21
3.284289877584113
 31
0.0000000000000001
210
-0.0000000000000001
220
0.0
230
1.0
 40
0.8164965809277257
 41
5.554421187324767
 42
6.283185307179549
  0
LINE
  5
39F
330
34B
100
AcDbEntity
  8
0
  6
Continuous
 62
     7
100
AcDbLine
 10
845.1520105217838
 20
706.8347472479027
 30
0.0
 11
1123.796129519389
 21
763.7127398621935
 31
0.0
  0
ELLIPSE
  5
3A0
330
34B
100
AcDbEntity
  8
0
  6
Continuous
 62
     7
100
AcDbEllipse
 10
841.3657194605999
 20
705.8427847984368
 30
0.0
 11
2.681611455822796
 21
3.28428987758389
 31
0.0000000000000001
210
0.0
220
0.0
230
1.0
 40
0.8164965809277262
 41
5.554421187324691
 42
6.283185307179579
  0
LINE
  5
3A1
330
34B
100
AcDbEntity
  8
0
  6
Continuous
 62
     7
100
AcDbLine
 10
558.9353094018108
 20
648.4110077806849
 30
0.0
 11
837.5794283994162
 21
705.2890003949758
 31
0.0
  0
ELLIPSE
  5
3A2
330
34B
100
AcDbEntity
  8
0
  6
Continuous
 62
     7
100
AcDbEllipse
 10
555.1490183406269
 20
647.419045331219
 30
0.0
 11
2.681611455822796
 21
3.28428987758389
 31
0.0000000000000001
210
0.0
220
0.0
230
1.0
 40
0.8164965809277262
 41
5.554421187324688
 42
6.283185307179577
  0
LINE
  5
3A3
330
34B
100
AcDbEntity
  8
0
  6
Continuous
 62
     7
100
AcDbLine
 10
272.7186082818379
 20
589.987268313467
 30
0.0
 11
551.3627272794431
 21
646.865260927758
 31
0.0
  0
ELLIPSE
  5
3A4
330
34B
100
AcDbEntity
  8
0
  6
Continuous
 62
     7
100
AcDbEllipse
 10
268.9323172206538
 20
588.9953058640013
 30
0.0
 11
2.681611455822796
 21
3.28428987758389
 31
0.0
210
0.0
220
0.0
230
1.0
 40
0.8164965809277259
 41
5.554421187324689
 42
6.283185307179591
  0
LINE
  5
3A5
330
34B
100
AcDbEntity
  8
0
  6
Continuous
 62
     7
100
AcDbLine
 10
-13.49809283813491
 20
531.5635288462495
 30
0.0
 11
265.1460261594698
 21
588.4415214605402
 31
0.0
  0
ELLIPSE
  5
3A6
330
34B
100
AcDbEntity
  8
0
  6
Continuous
 62
     7
100
AcDbEllipse
 10
-17.28438389931924
 20
530.5715663967837
 30
0.0
 11
2.681611455822744
 21
3.28428987758389
 31
0.0
210
0.0
220
0.0
230
1.0
 40
0.8164965809277264
 41
5.554421187324646
 42
6.283185307179592
  0
LINE
  5
3A7
330
34B
100
AcDbEntity
  8
0
  6
Continuous
 62
     7
100
AcDbLine
 10
-299.7147939581079
 20
473.1397893790318
 30
0.0
 11
-21.07067496050302
 21
530.0177819933225
 31
0.0
  0
ELLIPSE
  5
3A8
330
34B
100
AcDbEntity
  8
0
  6
Continuous
 62
     7
100
AcDbEllipse
 10
-303.5010850192924
 20
472.1478269295659
 30
0.0
 11
2.681611455822796
 21
3.28428987758389
 31
0.0
210
0.0
220
0.0
230
1.0
 40
0.8164965809277264
 41
5.554421187324654
 42
6.283185307179582
  0
LINE
  5
3A9
330
34B
100
AcDbEntity
  8
0
  6
Continuous
 62
     7
100
AcDbLine
 10
-585.9314950780807
 20
414.716049911814
 30
0.0
 11
-307.2873760804762
 21
471.5940425261047
 31
0.0
  0
ELLIPSE
  5
3AA
330
34B
100
AcDbEntity
  8
0
  6
Continuous
 62
     7
100
AcDbEllipse
 10
-589.7177861392655
 20
413.7240874623483
 30
0.0
 11
2.681611455822796
 21
3.28428987758389
 31
0.0000000000000001
210
0.0
220
0.0
230
1.0
 40
0.8164965809277262
 41
5.55442118732463
 42
6.283185307179586
  0
LINE
  5
3AB
330
34B
100
AcDbEntity
  8
0
  6
Continuous
 62
     7
100
AcDbLine
 10
-872.1481961980549
 20
356.2923104445961
 30
0.0
 11
-593.5040772004491
 21
413.170303058887
 31
0.0
  0
ELLIPSE
  5
3AC
330
34B
100
AcDbEntity
  8
0
  6
Continuous
 62
     7
100
AcDbEllipse
 10
-875.9344872592384
 20
355.3003479951307
 30
0.0
 11
2.681611455822796
 21
3.28428987758389
 31
0.0000000000000001
210
-0.0000000000000001
220
0.0
230
1.0
 40
0.8164965809277257
 41
5.554421187324631
 42
6.283185307179586
  0
LINE
  5
3AD
330
34B
100
AcDbEntity
  8
0
  6
Continuous
 62
     7
100
AcDbLine
 10
-947.4886625392315
 20
340.9135021513283
 30
0.0
 11
-879.7207783204219
 21
354.7465635916694
 31
0.0
  0
LINE
  5
3AE
330
34B
100
AcDbEntity
  8
0
  6
Continuous
 62
     7
100
AcDbLine
 10
2630.220101460432
 20
1071.21024549155
 30
0.0
 11
2630.220101460432
 21
1080.419324309686
 31
0.0
  0
LINE
  5
3AF
330
34B
100
AcDbEntity
  8
0
  6
Continuous
 62
     7
100
AcDbLine
 10
2562.452217241622
 20
1057.377184051209
 30
0.0
 11
2630.220101460432
 21
1071.21024549155
 31
0.0
  0
ELLIPSE
  5
3B0
330
34B
100
AcDbEntity
  8
0
  6
Continuous
 62
     7
100
AcDbEllipse
 10
2558.665926180438
 20
1056.385221601743
 30
0.0
 11
2.681611455822352
 21
3.284289877583557
 31
0.0000000000000001
210
-0.0000000000000001
220
0.0
230
0.9999999999999998
 40
0.8164965809277257
 41
5.55442118732474
 42
6.283185307179611
  0
LINE
  5
3B1
330
34B
100
AcDbEntity
  8
0
  6
Continuous
 62
     9
100
AcDbLine
 10
2629.254120094152
 20
1083.391595170465
 30
0.0
 11
-948.4546439055101
 21
353.0948518302435
 31
0.0
  0
ELLIPSE
  5
3B2
330
34B
100
AcDbEntity
  8
0
  6
Continuous
 62
     7
100
AcDbEllipse
 10
2629.254120094153
 20
1083.172506147463
 30
0.0
 11
-0.048000000000048
 21
0.2351510153071334
 31
0.0
210
-0.0000000000000001
220
0.0
230
1.0
 40
0.4082482904638633
 41
5.03413953478044
 42
5.819537698183006
  0
ELLIPSE
  5
3B3
330
34B
100
AcDbEntity
  8
0
  6
Continuous
 62
     7
100
AcDbEllipse
 10
2629.254120094152
 20
1083.172506147463
 30
0.0
 11
-0.048000000000048
 21
0.2351510153071334
 31
0.0
210
-0.0000000000000001
220
0.0
230
1.0
 40
0.408248290463863
 41
5.81953769817934
 42
6.28318530717768
  0
ELLIPSE
  5
3B4
330
34B
100
AcDbEntity
  8
0
  6
Continuous
 62
     7
100
AcDbEllipse
 10
-948.4546439055115
 20
352.8757628072412
 30
0.0
 11
0.048000000000048
 21
-0.2351510153071889
 31
0.0
210
-0.0000000000000001
220
0.0
230
1.0
 40
0.4082482904638629
 41
3.141592653589816
 42
4.248741371384024
  0
LINE
  5
3B5
330
34B
100
AcDbEntity
  8
0
  6
Continuous
 62
     7
100
AcDbLine
 10
2628.001922026752
 20
1088.138524002176
 30
0.0
 11
-949.7068419729099
 21
357.8417806619549
 31
0.0
  0
LINE
  5
3B6
330
34B
100
AcDbEntity
  8
0
  6
Continuous
 62
     7
100
AcDbLine
 10
2628.001922026752
 20
1083.391595170465
 30
0.0
 11
2628.001922026752
 21
1088.138524002176
 31
0.0
  0
LINE
  5
3B7
330
34B
100
AcDbEntity
  8
0
  6
Continuous
 62
     9
100
AcDbLine
 10
-949.7068419729114
 20
353.0948518302433
 30
0.0
 11
2628.001922026751
 21
1083.391595170465
 31
0.0
  0
LINE
  5
3B8
330
34B
100
AcDbEntity
  8
0
  6
Continuous
 62
     7
100
AcDbLine
 10
2620.631841972913
 20
1094.1561691673
 30
0.0
 11
-957.0769220267507
 21
363.8594258270782
 31
0.0
  0
LINE
  5
3B9
330
34B
100
AcDbEntity
  8
0
  6
Continuous
 62
     7
100
AcDbLine
 10
2628.001922026752
 20
1088.138524002176
 30
0.0
 11
2620.631841972913
 21
1094.1561691673
 31
0.0
  0
ELLIPSE
  5
3BA
330
34B
100
AcDbEntity
  8
0
  6
Continuous
 62
     7
100
AcDbEllipse
 10
-881.837706719838
 20
375.4565381113208
 30
0.0
 11
-2.120000000000121
 21
0.0
 31
0.0
210
0.0
220
0.0
230
1.0
 40
0.4082482904638631
 41
0.4636476090008176
 42
3.141592653589794
  0
ELLIPSE
  5
3BB
330
34B
100
AcDbEntity
  8
0
  6
Continuous
 62
     7
100
AcDbEllipse
 10
-595.6210055998649
 20
433.8802775785385
 30
0.0
 11
-2.119999999999899
 21
0.0
 31
0.0
210
0.0
220
0.0
230
1.0
 40
0.4082482904638631
 41
0.4636476090008176
 42
3.141592653589819
  0
ELLIPSE
  5
3BC
330
34B
100
AcDbEntity
  8
0
  6
Continuous
 62
     7
100
AcDbEllipse
 10
-309.4043044798918
 20
492.3040170457562
 30
0.0
 11
-2.12000000000001
 21
0.0
 31
0.0
210
0.0
220
0.0
230
1.0
 40
0.4082482904638631
 41
0.4636476090008017
 42
3.141592653589806
  0
ELLIPSE
  5
3BD
330
34B
100
AcDbEntity
  8
0
  6
Continuous
 62
     7
100
AcDbEllipse
 10
-23.18760335991871
 20
550.7277565129739
 30
0.0
 11
-2.120000000000121
 21
0.0
 31
0.0
210
0.0
220
0.0
230
1.0
 40
0.4082482904638631
 41
0.4636476090008178
 42
3.141592653589793
  0
ELLIPSE
  5
3BE
330
34B
100
AcDbEntity
  8
0
  6
Continuous
 62
     7
100
AcDbEllipse
 10
263.0290977600543
 20
609.1514959801918
 30
0.0
 11
-2.120000000000121
 21
0.0
 31
0.0
210
0.0
220
0.0
230
1.0
 40
0.4082482904638631
 41
0.4636476090008432
 42
3.141592653589766
  0
ELLIPSE
  5
3BF
330
34B
100
AcDbEntity
  8
0
  6
Continuous
 62
     7
100
AcDbEllipse
 10
549.2457988800274
 20
667.5752354474094
 30
0.0
 11
-2.120000000000121
 21
0.0
 31
0.0
210
0.0
220
0.0
230
1.0
 40
0.4082482904638631
 41
0.463647609000765
 42
3.141592653589858
  0
ELLIPSE
  5
3C0
330
34B
100
AcDbEntity
  8
0
  6
Continuous
 62
     7
100
AcDbEllipse
 10
835.4625000000003
 20
725.9989749146273
 30
0.0
 11
-2.120000000000121
 21
0.0
 31
0.0
210
0.0
220
0.0
230
1.0
 40
0.4082482904638631
 41
0.4636476090007707
 42
3.141592653589858
  0
ELLIPSE
  5
3C1
330
34B
100
AcDbEntity
  8
0
  6
Continuous
 62
     7
100
AcDbEllipse
 10
1121.679201119973
 20
784.4227143818449
 30
0.0
 11
-2.120000000000121
 21
0.0
 31
0.0
210
0.0
220
0.0
230
1.0
 40
0.4082482904638631
 41
0.4636476090008176
 42
3.141592653589858
  0
ELLIPSE
  5
3C2
330
34B
100
AcDbEntity
  8
0
  6
Continuous
 62
     7
100
AcDbEllipse
 10
1407.895902239946
 20
842.8464538490628
 30
0.0
 11
-2.120000000000121
 21
0.0
 31
0.0
210
0.0
220
0.0
230
1.0
 40
0.4082482904638631
 41
0.4636476090008764
 42
3.141592653589793
  0
ELLIPSE
  5
3C3
330
34B
100
AcDbEntity
  8
0
  6
Continuous
 62
     7
100
AcDbEllipse
 10
1694.11260335992
 20
901.2701933162805
 30
0.0
 11
-2.120000000000565
 21
0.0
 31
0.0
210
0.0
220
0.0
230
1.0
 40
0.4082482904638631
 41
0.4636476090007299
 42
3.14159265358974
  0
ELLIPSE
  5
3C4
330
34B
100
AcDbEntity
  8
0
  6
Continuous
 62
     7
100
AcDbEllipse
 10
1980.329304479893
 20
959.6939327834983
 30
0.0
 11
-2.120000000000121
 21
0.0
 31
0.0
210
0.0
220
0.0
230
1.0
 40
0.4082482904638631
 41
0.4636476090008764
 42
3.141592653589531
  0
ELLIPSE
  5
3C5
330
34B
100
AcDbEntity
  8
0
  6
Continuous
 62
     7
100
AcDbEllipse
 10
2266.546005599866
 20
1018.117672250716
 30
0.0
 11
-2.120000000000121
 21
0.0
 31
0.0
210
0.0
220
0.0
230
1.0
 40
0.4082482904638631
 41
0.463647609000824
 42
3.141592653589479
  0
ELLIPSE
  5
3C6
330
34B
100
AcDbEntity
  8
0
  6
Continuous
 62
     7
100
AcDbEllipse
 10
2552.762706719839
 20
1076.541411717933
 30
0.0
 11
-2.120000000000121
 21
0.0
 31
0.0
210
0.0
220
0.0
230
1.0
 40
0.4082482904638631
 41
0.4636476090008764
 42
3.141592653589531
  0
ELLIPSE
  5
3C7
330
34B
100
AcDbEntity
  8
0
  6
Continuous
 62
     7
100
AcDbEllipse
 10
-948.6693064313513
 20
352.1016482593005
 30
0.0
 11
-0.048000000000048
 21
0.2351510153071889
 31
0.0
210
-0.0000000000000001
220
0.0
230
1.0
 40
0.408248290463863
 41
2.677945044589506
 42
3.141592653587933
  0
LINE
  5
3C8
330
34B
100
AcDbEntity
  8
0
  6
Continuous
 62
     9
100
AcDbLine
 10
-948.5834414210154
 20
351.9000863581386
 30
0.0
 11
-948.6693064313513
 21
351.8825592362985
 31
0.0
  0
LINE
  5
3C9
330
34B
100
AcDbEntity
  8
0
  6
Continuous
 62
     9
100
AcDbLine
 10
-948.5619751684311
 20
352.780824230607
 30
0.0
 11
-949.5279565347114
 21
352.583644109905
 31
0.0
  0
ELLIPSE
  5
3CA
330
34B
100
AcDbEntity
  8
0
  6
Continuous
 62
     7
100
AcDbEllipse
 10
2628.180807464952
 20
1083.245535821797
 30
0.0
 11
0.08000000000008
 21
-0.3919183588454444
 31
0.0
210
-0.0000000000000001
220
0.0
230
1.0
 40
0.4082482904638633
 41
4.248741371383967
 42
4.828189368365276
  0
LINE
  5
3CB
330
34B
100
AcDbEntity
  8
0
  6
Continuous
 62
     7
100
AcDbLine
 10
-879.8341898119984
 20
354.6138690563908
 30
0.0
 11
-947.5959938021516
 21
340.782048737527
 31
0.0
  0
ELLIPSE
  5
3CC
330
34B
100
AcDbEntity
  8
0
  6
Continuous
 62
     7
100
AcDbEllipse
 10
-876.0418185221585
 20
355.3879836043315
 30
0.0
 11
4.185250820383012
 21
1.985892590513738
 31
0.0
210
0.0
220
0.0
230
1.0
 40
0.3419987131196465
 41
2.460435723848168
 42
2.517069767390662
  0
LINE
  5
3CD
330
34B
100
AcDbEntity
  8
0
  6
Continuous
 62
     7
100
AcDbLine
 10
-879.7207783204223
 20
354.3083855456651
 30
0.0
 11
-947.4886625392315
 21
340.4753241053242
 31
0.0
  0
ELLIPSE
  5
3CE
330
34B
100
AcDbEntity
  8
0
  6
Continuous
 62
     7
100
AcDbEllipse
 10
-876.0418185221585
 20
355.3879836043315
 30
0.0
 11
2.479171606974416
 21
-5.224831922695017
 31
0.0
210
0.0
220
0.0
230
1.0
 40
0.6583306249916992
 41
4.551513703186365
 42
4.60814774672885
  0
LINE
  5
3CF
330
34B
100
AcDbEntity
  8
0
  6
Continuous
 62
     7
100
AcDbLine
 10
2630.220101460432
 20
1070.772067445546
 30
0.0
 11
2562.452217241622
 21
1056.939006005205
 31
0.0
  0
LINE
  5
3D0
330
34B
100
AcDbEntity
  8
0
  6
Continuous
 62
     7
100
AcDbLine
 10
2630.220101460432
 20
1061.56298862741
 30
0.0
 11
2630.220101460432
 21
1070.772067445546
 31
0.0
  0
LINE
  5
3D1
330
34B
100
AcDbEntity
  8
0
  6
Continuous
 62
     9
100
AcDbLine
 10
-947.4886625392315
 20
331.2662452871887
 30
0.0
 11
2630.220101460431
 21
1061.56298862741
 31
0.0
  0
ELLIPSE
  5
3D2
330
34B
100
AcDbEntity
  8
0
  6
Continuous
 62
     7
100
AcDbEllipse
 10
-875.9344872592384
 20
355.3003479951307
 30
0.0
 11
2.681611455822796
 21
3.28428987758389
 31
0.0
210
0.0
220
0.0
230
1.0
 40
0.8164965809277259
 41
2.412828533734809
 42
3.141592653589793
  0
LINE
  5
3D3
330
34B
100
AcDbEntity
  8
0
  6
Continuous
 62
     7
100
AcDbLine
 10
-593.5040772004491
 20
412.7321250128828
 30
0.0
 11
-872.1481961980549
 21
355.854132398592
 31
0.0
  0
ELLIPSE
  5
3D4
330
34B
100
AcDbEntity
  8
0
  6
Continuous
 62
     7
100
AcDbEllipse
 10
-589.7177861392655
 20
413.7240874623483
 30
0.0
 11
2.681611455822796
 21
3.28428987758389
 31
0.0000000000000001
210
0.0
220
0.0
230
1.0
 40
0.8164965809277262
 41
2.412828533734836
 42
3.141592653589801
  0
LINE
  5
3D5
330
34B
100
AcDbEntity
  8
0
  6
Continuous
 62
     7
100
AcDbLine
 10
-307.2873760804761
 20
471.1558644801006
 30
0.0
 11
-585.9314950780814
 21
414.2778718658098
 31
0.0
  0
ELLIPSE
  5
3D6
330
34B
100
AcDbEntity
  8
0
  6
Continuous
 62
     7
100
AcDbEllipse
 10
-303.5010850192924
 20
472.1478269295659
 30
0.0
 11
2.681611455822796
 21
3.28428987758389
 31
0.0000000000000001
210
0.0
220
0.0
230
1.0
 40
0.8164965809277262
 41
2.412828533734792
 42
3.141592653589762
  0
LINE
  5
3D7
330
34B
100
AcDbEntity
  8
0
  6
Continuous
 62
     7
100
AcDbLine
 10
-21.07067496050302
 20
529.5796039473184
 30
0.0
 11
-299.7147939581085
 21
472.7016113330275
 31
0.0
  0
ELLIPSE
  5
3D8
330
34B
100
AcDbEntity
  8
0
  6
Continuous
 62
     7
100
AcDbEllipse
 10
-17.28438389931924
 20
530.5715663967837
 30
0.0
 11
2.681611455822744
 21
3.28428987758389
 31
0.0
210
0.0
220
0.0
230
1.0
 40
0.8164965809277264
 41
2.412828533734769
 42
3.141592653589773
  0
LINE
  5
3D9
330
34B
100
AcDbEntity
  8
0
  6
Continuous
 62
     7
100
AcDbLine
 10
265.1460261594698
 20
588.003343414536
 30
0.0
 11
-13.49809283813524
 21
531.1253508002452
 31
0.0
  0
ELLIPSE
  5
3DA
330
34B
100
AcDbEntity
  8
0
  6
Continuous
 62
     7
100
AcDbEllipse
 10
268.9323172206538
 20
588.9953058640013
 30
0.0
 11
2.681611455822796
 21
3.28428987758389
 31
0.0000000000000001
210
0.0
220
0.0
230
1.0
 40
0.8164965809277257
 41
2.412828533734766
 42
3.141592653589793
  0
LINE
  5
3DB
330
34B
100
AcDbEntity
  8
0
  6
Continuous
 62
     7
100
AcDbLine
 10
551.362727279443
 20
646.4270828817539
 30
0.0
 11
272.7186082818374
 21
589.549090267463
 31
0.0
  0
ELLIPSE
  5
3DC
330
34B
100
AcDbEntity
  8
0
  6
Continuous
 62
     7
100
AcDbEllipse
 10
555.1490183406269
 20
647.419045331219
 30
0.0
 11
2.681611455822796
 21
3.28428987758389
 31
0.0
210
0.0
220
0.0
230
1.0
 40
0.8164965809277264
 41
2.412828533734753
 42
3.141592653589725
  0
LINE
  5
3DD
330
34B
100
AcDbEntity
  8
0
  6
Continuous
 62
     7
100
AcDbLine
 10
837.579428399416
 20
704.8508223489715
 30
0.0
 11
558.9353094018108
 21
647.9728297346808
 31
0.0
  0
ELLIPSE
  5
3DE
330
34B
100
AcDbEntity
  8
0
  6
Continuous
 62
     7
100
AcDbEllipse
 10
841.3657194605999
 20
705.8427847984368
 30
0.0
 11
2.681611455822796
 21
3.28428987758389
 31
0.0000000000000001
210
0.0
220
0.0
230
1.0
 40
0.8164965809277262
 41
2.412828533734736
 42
3.141592653589721
  0
LINE
  5
3DF
330
34B
100
AcDbEntity
  8
0
  6
Continuous
 62
     7
100
AcDbLine
 10
1123.796129519389
 20
763.2745618161894
 30
0.0
 11
845.1520105217838
 21
706.3965692018984
 31
0.0
  0
ELLIPSE
  5
3E0
330
34B
100
AcDbEntity
  8
0
  6
Continuous
 62
     7
100
AcDbEllipse
 10
1127.582420580573
 20
764.2665242656544
 30
0.0
 11
2.681611455823018
 21
3.284289877584113
 31
0.0
210
0.0
220
0.0
230
1.0
 40
0.8164965809277259
 41
2.412828533734802
 42
3.141592653589857
  0
LINE
  5
3E1
330
34B
100
AcDbEntity
  8
0
  6
Continuous
 62
     7
100
AcDbLine
 10
1410.012830639362
 20
821.698301283407
 30
0.0
 11
1131.368711641757
 21
764.8203086691163
 31
0.0
  0
ELLIPSE
  5
3E2
330
34B
100
AcDbEntity
  8
0
  6
Continuous
 62
     7
100
AcDbEllipse
 10
1413.799121700546
 20
822.6902637328722
 30
0.0
 11
2.681611455822796
 21
3.28428987758389
 31
0.0000000000000001
210
0.0
220
0.0
230
1.0
 40
0.8164965809277262
 41
2.412828533734713
 42
3.141592653589776
  0
LINE
  5
3E3
330
34B
100
AcDbEntity
  8
0
  6
Continuous
 62
     7
100
AcDbLine
 10
1696.229531759335
 20
880.1220407506248
 30
0.0
 11
1417.585412761729
 21
823.2440481363338
 31
0.0
  0
ELLIPSE
  5
3E4
330
34B
100
AcDbEntity
  8
0
  6
Continuous
 62
     7
100
AcDbEllipse
 10
1700.015822820519
 20
881.1140032000899
 30
0.0
 11
2.681611455822796
 21
3.28428987758389
 31
0.0000000000000001
210
0.0
220
0.0
230
1.0
 40
0.8164965809277262
 41
2.412828533734719
 42
3.141592653589662
  0
LINE
  5
3E5
330
34B
100
AcDbEntity
  8
0
  6
Continuous
 62
     7
100
AcDbLine
 10
1982.446232879308
 20
938.5457802178427
 30
0.0
 11
1703.802113881703
 21
881.6677876035518
 31
0.0
  0
ELLIPSE
  5
3E6
330
34B
100
AcDbEntity
  8
0
  6
Continuous
 62
     7
100
AcDbEllipse
 10
1986.232523940492
 20
939.5377426673077
 30
0.0
 11
2.681611455822574
 21
3.284289877583558
 31
0.0
210
0.0
220
0.0
230
1.0
 40
0.8164965809277264
 41
2.412828533734624
 42
3.141592653589745
  0
LINE
  5
3E7
330
34B
100
AcDbEntity
  8
0
  6
Continuous
 62
     7
100
AcDbLine
 10
2268.662933999282
 20
996.9695196850603
 30
0.0
 11
1990.018815001676
 21
940.0915270707697
 31
0.0
  0
ELLIPSE
  5
3E8
330
34B
100
AcDbEntity
  8
0
  6
Continuous
 62
     7
100
AcDbEllipse
 10
2272.449225060466
 20
997.9614821345252
 30
0.0
 11
2.681611455822352
 21
3.284289877583557
 31
0.0
210
0.0
220
0.0
230
0.9999999999999998
 40
0.8164965809277264
 41
2.412828533734624
 42
3.141592653589745
  0
LINE
  5
3E9
330
34B
100
AcDbEntity
  8
0
  6
Continuous
 62
     7
100
AcDbLine
 10
2554.879635119255
 20
1055.393259152278
 30
0.0
 11
2276.23551612165
 21
998.5152665379873
 31
0.0
  0
ELLIPSE
  5
3EA
330
34B
100
AcDbEntity
  8
0
  6
Continuous
 62
     7
100
AcDbEllipse
 10
2558.665926180438
 20
1056.385221601743
 30
0.0
 11
2.681611455822352
 21
3.284289877583557
 31
0.0000000000000001
210
-0.0000000000000001
220
0.0
230
0.9999999999999998
 40
0.8164965809277257
 41
2.412828533734598
 42
3.141592653589745
  0
ELLIPSE
  5
3EB
330
34B
100
AcDbEntity
  8
0
  6
Continuous
 62
     7
100
AcDbEllipse
 10
2629.862330584032
 20
1061.855107324747
 30
0.0
 11
-0.16000000000016
 21
0.7838367176906669
 31
0.0
210
-0.0000000000000001
220
0.0
230
1.0
 40
0.4082482904638633
 41
3.463343207985805
 42
4.248741371383382
  0
LINE
  5
3EC
330
34B
100
AcDbEntity
  8
0
  6
Continuous
 62
     9
100
AcDbLine
 10
2630.115312796846
 20
1061.132150433455
 30
0.0
 11
-947.5934512028167
 21
330.8354070932336
 31
0.0
  0
LINE
  5
3ED
330
34B
100
AcDbEntity
  8
0
  6
Continuous
 62
     9
100
AcDbLine
 10
-948.3787492416675
 20
329.8736173476387
 30
0.0
 11
2629.330014757996
 21
1060.17036068786
 31
0.0
  0
LINE
  5
3EE
330
34B
100
AcDbEntity
  8
0
  6
Continuous
 62
     7
100
AcDbLine
 10
2630.115312796846
 20
1061.132150433455
 30
0.0
 11
2629.330014757996
 21
1060.17036068786
 31
0.0
  0
LINE
  5
3EF
330
34B
100
AcDbEntity
  8
0
  6
Continuous
 62
     7
100
AcDbLine
 10
-953.356104912191
 20
358.7765604934302
 30
0.0
 11
-953.4992132627511
 21
358.7473486236965
 31
0.0
  0
ELLIPSE
  5
3F0
330
34B
100
AcDbEntity
  8
0
  6
Continuous
 62
     7
100
AcDbEllipse
 10
-948.6693064313513
 20
333.917259350129
 30
0.0
 11
-0.048000000000048
 21
0.2351510153071889
 31
0.0
210
-0.0000000000000001
220
0.0
230
1.0
 40
0.4082482904638633
 41
2.677945044589536
 42
3.141592653587933
  0
LINE
  5
3F1
330
34B
100
AcDbEntity
  8
0
  6
Continuous
 62
     9
100
AcDbLine
 10
-948.6693064313513
 20
333.6981703271269
 30
0.0
 11
-948.5834414210154
 21
333.7156974489671
 31
0.0
  0
LINE
  5
3F2
330
34B
100
AcDbEntity
  8
0
  6
Continuous
 62
     7
100
AcDbLine
 10
-948.5619751684318
 20
334.943326274522
 30
0.0
 11
-949.8678388672914
 21
334.6767679632028
 31
0.0
  0
ELLIPSE
  5
3F3
330
34B
100
AcDbEntity
  8
0
  6
Continuous
 62
     7
100
AcDbEllipse
 10
-948.4546439055115
 20
330.0905044150263
 30
0.0
 11
0.048000000000048
 21
-0.2351510153071889
 31
0.0
210
-0.0000000000000001
220
0.0
230
1.0
 40
0.4082482904638633
 41
0.0
 42
0.321750554395173
  0
ELLIPSE
  5
3F4
330
34B
100
AcDbEntity
  8
0
  6
Continuous
 62
     7
100
AcDbEllipse
 10
2629.254120094152
 20
1060.387247755248
 30
0.0
 11
-0.048000000000048
 21
0.2351510153071334
 31
0.0
210
-0.0000000000000001
220
0.0
230
1.0
 40
0.4082482904638633
 41
3.141592653591514
 42
3.463343207989252
  0
LINE
  5
3F5
330
34B
100
AcDbEntity
  8
0
  6
Continuous
 62
     9
100
AcDbLine
 10
-948.5619751684311
 20
336.5499791098706
 30
0.0
 11
-950.3329410066113
 21
336.1884822219171
 31
0.0
  0
LINE
  5
3F6
330
34B
100
AcDbEntity
  8
0
  6
Continuous
 62
     9
100
AcDbLine
 10
-948.5619751684319
 20
335.125900460357
 30
0.0
 11
-949.8678388672914
 21
334.8593421490379
 31
0.0
  0
ELLIPSE
  5
3F7
330
34B
100
AcDbEntity
  8
0
  6
Continuous
 62
     7
100
AcDbEllipse
 10
-950.3329410066113
 20
335.2390964555748
 30
0.0
 11
0.207999999999986
 21
-1.0189877329978
 31
0.0
210
-0.0000000000000001
220
0.0
230
1.0
 40
0.4082482904638631
 41
3.141592653589793
 42
4.248741371383965
  0
LINE
  5
3F8
330
34B
100
AcDbEntity
  8
0
  6
Continuous
 62
     9
100
AcDbLine
 10
-956.0036093975508
 20
356.4103990450078
 30
0.0
 11
-951.7103588807511
 21
357.2867551370161
 31
0.0
  0
ELLIPSE
  5
3F9
330
34B
100
AcDbEntity
  8
0
  6
Continuous
 62
     7
100
AcDbEllipse
 10
-956.1824948357507
 20
356.5564583936759
 30
0.0
 11
0.079999999999969
 21
-0.3919183588452779
 31
0.0
210
-0.0000000000000001
220
0.0
230
1.0
 40
0.4082482904638629
 41
6.283185307179572
 42
7.390334024973868
  0
ELLIPSE
  5
3FA
330
34B
100
AcDbEntity
  8
0
  6
Continuous
 62
     7
100
AcDbEllipse
 10
-957.2558074649506
 20
359.2585563440347
 30
0.0
 11
-0.079999999999969
 21
0.3919183588453334
 31
0.0
210
-0.0000000000000001
220
0.0
230
0.9999999999999998
 40
0.4082482904638633
 41
2.677945044589162
 42
3.141592653589235
  0
LINE
  5
3FB
330
34B
100
AcDbEntity
  8
0
  6
Continuous
 62
     9
100
AcDbLine
 10
-957.2558074649506
 20
358.8934079723646
 30
0.0
 11
-957.1126991143904
 21
358.9226198420983
 31
0.0
  0
LINE
  5
3FC
330
34B
100
AcDbEntity
  8
0
  6
Continuous
 62
     9
100
AcDbLine
 10
-957.0769220267498
 20
359.8062789015401
 30
0.0
 11
-958.1144575683108
 21
359.5944928459712
 31
0.0
  0
LINE
  5
3FD
330
34B
100
AcDbEntity
  8
0
  6
Continuous
 62
     9
100
AcDbLine
 10
-957.0769220267498
 20
361.0842982023854
 30
0.0
 11
-958.2217888312305
 21
360.8506032445163
 31
0.0
  0
LINE
  5
3FE
330
34B
100
AcDbEntity
  8
0
  6
Continuous
 62
     9
100
AcDbLine
 10
-957.0769220267509
 20
361.4129317368884
 30
0.0
 11
-958.3291200941506
 21
361.1573278767194
 31
0.0
  0
LINE
  5
3FF
330
34B
100
AcDbEntity
  8
0
  6
Continuous
 62
     9
100
AcDbLine
 10
-957.0769220267507
 20
360.1349124360429
 30
0.0
 11
-958.2217888312305
 21
359.901217478174
 31
0.0
  0
ELLIPSE
  5
400
330
34B
100
AcDbEntity
  8
0
  6
Continuous
 62
     7
100
AcDbEllipse
 10
-958.3291200941506
 20
360.9382388537172
 30
0.0
 11
0.048000000000048
 21
-0.2351510153071889
 31
0.0
210
-0.0000000000000001
220
0.0
230
1.0
 40
0.4082482904638629
 41
3.141592653589816
 42
3.463343207986742
  0
ELLIPSE
  5
401
330
34B
100
AcDbEntity
  8
0
  6
Continuous
 62
     7
100
AcDbEllipse
 10
-958.0429033930306
 20
357.3451788764833
 30
0.0
 11
-0.079999999999969
 21
0.3919183588452779
 31
0.0
210
-0.0000000000000001
220
0.0
230
1.0
 40
0.4082482904638633
 41
5.819537698179499
 42
6.283185307179572
  0
LINE
  5
402
330
34B
100
AcDbEntity
  8
0
  6
Continuous
 62
     9
100
AcDbLine
 10
-957.8640179548303
 20
357.5642678994855
 30
0.0
 11
-958.2217888312305
 21
357.4912382251514
 31
0.0
  0
LINE
  5
403
330
34B
100
AcDbEntity
  8
0
  6
Continuous
 62
     9
100
AcDbLine
 10
-958.2217888312305
 20
341.7168285690025
 30
0.0
 11
-948.5619751684316
 21
343.6886297760211
 31
0.0
  0
LINE
  5
404
330
34B
100
AcDbEntity
  8
0
  6
Continuous
 62
     9
100
AcDbLine
 10
-878.0486679516108
 20
358.0820983391313
 30
0.0
 11
-873.8335031159225
 21
358.9425152582279
 31
0.0
  0
LINE
  5
405
330
34B
100
AcDbEntity
  8
0
  6
Continuous
 62
     9
100
AcDbLine
 10
-591.831966831638
 20
416.5058378063489
 30
0.0
 11
-587.61680199595
 21
417.3662547254455
 31
0.0
  0
LINE
  5
406
330
34B
100
AcDbEntity
  8
0
  6
Continuous
 62
     9
100
AcDbLine
 10
-305.6152657116647
 20
474.9295772735668
 30
0.0
 11
-301.4001008759771
 21
475.7899941926631
 31
0.0
  0
LINE
  5
407
330
34B
100
AcDbEntity
  8
0
  6
Continuous
 62
     9
100
AcDbLine
 10
-19.3985645916917
 20
533.3533167407844
 30
0.0
 11
-15.18339975600408
 21
534.2137336598808
 31
0.0
  0
LINE
  5
408
330
34B
100
AcDbEntity
  8
0
  6
Continuous
 62
     9
100
AcDbLine
 10
266.8181365282814
 20
591.7770562080022
 30
0.0
 11
271.033301363969
 21
592.6374731270986
 31
0.0
  0
LINE
  5
409
330
34B
100
AcDbEntity
  8
0
  6
Continuous
 62
     9
100
AcDbLine
 10
553.0348376482545
 20
650.20079567522
 30
0.0
 11
557.250002483942
 21
651.0612125943164
 31
0.0
  0
LINE
  5
40A
330
34B
100
AcDbEntity
  8
0
  6
Continuous
 62
     9
100
AcDbLine
 10
839.2515387682275
 20
708.6245351424377
 30
0.0
 11
843.4667036039146
 21
709.4849520615341
 31
0.0
  0
LINE
  5
40B
330
34B
100
AcDbEntity
  8
0
  6
Continuous
 62
     9
100
AcDbLine
 10
1125.468239888201
 20
767.0482746096556
 30
0.0
 11
1129.683404723887
 21
767.9086915287519
 31
0.0
  0
LINE
  5
40C
330
34B
100
AcDbEntity
  8
0
  6
Continuous
 62
     9
100
AcDbLine
 10
1411.684941008174
 20
825.4720140768732
 30
0.0
 11
1415.90010584386
 21
826.3324309959696
 31
0.0
  0
LINE
  5
40D
330
34B
100
AcDbEntity
  8
0
  6
Continuous
 62
     9
100
AcDbLine
 10
1697.901642128147
 20
883.8957535440911
 30
0.0
 11
1702.116806963833
 21
884.7561704631873
 31
0.0
  0
LINE
  5
40E
330
34B
100
AcDbEntity
  8
0
  6
Continuous
 62
     9
100
AcDbLine
 10
1984.11834324812
 20
942.3194930113089
 30
0.0
 11
1988.333508083807
 21
943.1799099304052
 31
0.0
  0
LINE
  5
40F
330
34B
100
AcDbEntity
  8
0
  6
Continuous
 62
     9
100
AcDbLine
 10
2270.335044368093
 20
1000.743232478527
 30
0.0
 11
2274.55020920378
 21
1001.603649397623
 31
0.0
  0
LINE
  5
410
330
34B
100
AcDbEntity
  8
0
  6
Continuous
 62
     9
100
AcDbLine
 10
2556.551745488067
 20
1059.166971945744
 30
0.0
 11
2560.766910323753
 21
1060.02738886484
 31
0.0
  0
LINE
  5
411
330
34B
100
AcDbEntity
  8
0
  6
Continuous
 62
     9
100
AcDbLine
 10
2561.190612995374
 20
1059.219263299926
 30
0.0
 11
2555.629349160175
 21
1058.084075073156
 31
0.0
  0
LINE
  5
412
330
34B
100
AcDbEntity
  8
0
  6
Continuous
 62
     9
100
AcDbLine
 10
2274.973911875401
 20
1000.795523832708
 30
0.0
 11
2269.412648040201
 21
999.6603356059386
 31
0.0
  0
LINE
  5
413
330
34B
100
AcDbEntity
  8
0
  6
Continuous
 62
     9
100
AcDbLine
 10
1988.757210755428
 20
942.3717843654904
 30
0.0
 11
1983.195946920228
 21
941.2365961387209
 31
0.0
  0
LINE
  5
414
330
34B
100
AcDbEntity
  8
0
  6
Continuous
 62
     9
100
AcDbLine
 10
1702.540509635454
 20
883.9480448982726
 30
0.0
 11
1696.979245800255
 21
882.8128566715031
 31
0.0
  0
LINE
  5
415
330
34B
100
AcDbEntity
  8
0
  6
Continuous
 62
     9
100
AcDbLine
 10
1416.323808515481
 20
825.5243054310549
 30
0.0
 11
1410.762544680281
 21
824.3891172042854
 31
0.0
  0
LINE
  5
416
330
34B
100
AcDbEntity
  8
0
  6
Continuous
 62
     9
100
AcDbLine
 10
1130.107107395509
 20
767.100565963837
 30
0.0
 11
1124.545843560308
 21
765.9653777370678
 31
0.0
  0
LINE
  5
417
330
34B
100
AcDbEntity
  8
0
  6
Continuous
 62
     9
100
AcDbLine
 10
843.8904062755357
 20
708.6768264966194
 30
0.0
 11
838.3291424403354
 21
707.5416382698499
 31
0.0
  0
LINE
  5
418
330
34B
100
AcDbEntity
  8
0
  6
Continuous
 62
     9
100
AcDbLine
 10
557.6737051555625
 20
650.2530870294016
 30
0.0
 11
552.1124413203624
 21
649.1178988026322
 31
0.0
  0
LINE
  5
419
330
34B
100
AcDbEntity
  8
0
  6
Continuous
 62
     9
100
AcDbLine
 10
271.4570040355898
 20
591.8293475621841
 30
0.0
 11
265.8957402003895
 21
590.6941593354145
 31
0.0
  0
LINE
  5
41A
330
34B
100
AcDbEntity
  8
0
  6
Continuous
 62
     9
100
AcDbLine
 10
-14.75969708438346
 20
533.4056080949661
 30
0.0
 11
-20.32096091958385
 21
532.2704198681966
 31
0.0
  0
LINE
  5
41B
330
34B
100
AcDbEntity
  8
0
  6
Continuous
 62
     9
100
AcDbLine
 10
-300.9763982043564
 20
474.9818686277484
 30
0.0
 11
-306.5376620395572
 21
473.8466804009788
 31
0.0
  0
LINE
  5
41C
330
34B
100
AcDbEntity
  8
0
  6
Continuous
 62
     9
100
AcDbLine
 10
-587.1930993243292
 20
416.5581291605308
 30
0.0
 11
-592.75436315953
 21
415.4229409337611
 31
0.0
  0
LINE
  5
41D
330
34B
100
AcDbEntity
  8
0
  6
Continuous
 62
     9
100
AcDbLine
 10
-873.4098004443032
 20
358.1343896933129
 30
0.0
 11
-878.9710642795032
 21
356.9992014665434
 31
0.0
  0
LINE
  5
41E
330
34B
100
AcDbEntity
  8
0
  6
Continuous
 62
     9
100
AcDbLine
 10
-948.5619751684316
 20
342.7940162654294
 30
0.0
 11
-956.4508229930508
 21
341.1837119463642
 31
0.0
  0
LINE
  5
41F
330
34B
100
AcDbEntity
  8
0
  6
Continuous
 62
     9
100
AcDbLine
 10
2561.379876415103
 20
1057.833817884188
 30
0.0
 11
2554.976243267233
 21
1056.5266817415
 31
0.0
  0
LINE
  5
420
330
34B
100
AcDbEntity
  8
0
  6
Continuous
 62
     9
100
AcDbLine
 10
2275.163175295129
 20
999.4100784169702
 30
0.0
 11
2268.75954214726
 21
998.1029422742826
 31
0.0
  0
LINE
  5
421
330
34B
100
AcDbEntity
  8
0
  6
Continuous
 62
     9
100
AcDbLine
 10
1988.946474175156
 20
940.9863389497527
 30
0.0
 11
1982.542841027287
 21
939.6792028070649
 31
0.0
  0
LINE
  5
422
330
34B
100
AcDbEntity
  8
0
  6
Continuous
 62
     9
100
AcDbLine
 10
1702.729773055182
 20
882.5625994825347
 30
0.0
 11
1696.326139907314
 21
881.2554633398471
 31
0.0
  0
LINE
  5
423
330
34B
100
AcDbEntity
  8
0
  6
Continuous
 62
     9
100
AcDbLine
 10
1416.513071935209
 20
824.1388600153172
 30
0.0
 11
1410.10943878734
 21
822.8317238726294
 31
0.0
  0
LINE
  5
424
330
34B
100
AcDbEntity
  8
0
  6
Continuous
 62
     9
100
AcDbLine
 10
1130.296370815236
 20
765.7151205480994
 30
0.0
 11
1123.892737667367
 21
764.4079844054117
 31
0.0
  0
LINE
  5
425
330
34B
100
AcDbEntity
  8
0
  6
Continuous
 62
     9
100
AcDbLine
 10
844.0796696952638
 20
707.2913810808817
 30
0.0
 11
837.6760365473945
 21
705.9842449381941
 31
0.0
  0
LINE
  5
426
330
34B
100
AcDbEntity
  8
0
  6
Continuous
 62
     9
100
AcDbLine
 10
557.8629685752907
 20
648.8676416136639
 30
0.0
 11
551.4593354274211
 21
647.5605054709761
 31
0.0
  0
LINE
  5
427
330
34B
100
AcDbEntity
  8
0
  6
Continuous
 62
     9
100
AcDbLine
 10
271.6462674553171
 20
590.443902146446
 30
0.0
 11
265.2426343074481
 21
589.1367660037584
 31
0.0
  0
LINE
  5
428
330
34B
100
AcDbEntity
  8
0
  6
Continuous
 62
     9
100
AcDbLine
 10
-14.57043366465554
 20
532.0201626792285
 30
0.0
 11
-20.97406681252484
 21
530.7130265365407
 31
0.0
  0
LINE
  5
429
330
34B
100
AcDbEntity
  8
0
  6
Continuous
 62
     9
100
AcDbLine
 10
-300.7871347846288
 20
473.5964232120105
 30
0.0
 11
-307.1907679324981
 21
472.2892870693228
 31
0.0
  0
LINE
  5
42A
330
34B
100
AcDbEntity
  8
0
  6
Continuous
 62
     9
100
AcDbLine
 10
-587.0038359046024
 20
415.1726837447927
 30
0.0
 11
-593.4074690524709
 21
413.8655476021052
 31
0.0
  0
LINE
  5
42B
330
34B
100
AcDbEntity
  8
0
  6
Continuous
 62
     9
100
AcDbLine
 10
-873.2205370245749
 20
356.7489442775752
 30
0.0
 11
-879.6241701724436
 21
355.4418081348876
 31
0.0
  0
LINE
  5
42C
330
34B
100
AcDbEntity
  8
0
  6
Continuous
 62
     9
100
AcDbLine
 10
-948.5619751684312
 20
341.369937615916
 30
0.0
 11
-955.9857208537307
 21
339.854571873485
 31
0.0
  0
LINE
  5
42D
330
34B
100
AcDbEntity
  8
0
  6
Continuous
 62
     7
100
AcDbLine
 10
2560.424602251782
 20
1055.265358946282
 30
0.0
 11
2555.161277838593
 21
1054.190987349362
 31
0.0
  0
LINE
  5
42E
330
34B
100
AcDbEntity
  8
0
  6
Continuous
 62
     7
100
AcDbLine
 10
2274.207901131808
 20
996.8416194790647
 30
0.0
 11
2268.944576718619
 21
995.7672478821439
 31
0.0
  0
LINE
  5
42F
330
34B
100
AcDbEntity
  8
0
  6
Continuous
 62
     7
100
AcDbLine
 10
1987.991200011835
 20
938.4178800118467
 30
0.0
 11
1982.727875598646
 21
937.3435084149262
 31
0.0
  0
LINE
  5
430
330
34B
100
AcDbEntity
  8
0
  6
Continuous
 62
     7
100
AcDbLine
 10
1701.774498891861
 20
879.994140544629
 30
0.0
 11
1696.511174478673
 21
878.9197689477086
 31
0.0
  0
LINE
  5
431
330
34B
100
AcDbEntity
  8
0
  6
Continuous
 62
     7
100
AcDbLine
 10
1415.557797771889
 20
821.5704010774114
 30
0.0
 11
1410.2944733587
 21
820.4960294804909
 31
0.0
  0
LINE
  5
432
330
34B
100
AcDbEntity
  8
0
  6
Continuous
 62
     7
100
AcDbLine
 10
1129.341096651915
 20
763.1466616101936
 30
0.0
 11
1124.077772238727
 21
762.0722900132731
 31
0.0
  0
LINE
  5
433
330
34B
100
AcDbEntity
  8
0
  6
Continuous
 62
     7
100
AcDbLine
 10
843.1243955319427
 20
704.7229221429759
 30
0.0
 11
837.8610711187542
 21
703.6485505460555
 31
0.0
  0
LINE
  5
434
330
34B
100
AcDbEntity
  8
0
  6
Continuous
 62
     7
100
AcDbLine
 10
556.9076944119692
 20
646.2991826757582
 30
0.0
 11
551.6443699987811
 21
645.2248110788376
 31
0.0
  0
LINE
  5
435
330
34B
100
AcDbEntity
  8
0
  6
Continuous
 62
     7
100
AcDbLine
 10
270.6909932919963
 20
587.8754432085403
 30
0.0
 11
265.4276688788081
 21
586.8010716116198
 31
0.0
  0
LINE
  5
436
330
34B
100
AcDbEntity
  8
0
  6
Continuous
 62
     7
100
AcDbLine
 10
-15.5257078279763
 20
529.4517037413227
 30
0.0
 11
-20.78903224116485
 21
528.3773321444022
 31
0.0
  0
LINE
  5
437
330
34B
100
AcDbEntity
  8
0
  6
Continuous
 62
     7
100
AcDbLine
 10
-301.74240894795
 20
471.0279642741048
 30
0.0
 11
-307.005733361138
 21
469.9535926771845
 31
0.0
  0
LINE
  5
438
330
34B
100
AcDbEntity
  8
0
  6
Continuous
 62
     7
100
AcDbLine
 10
-587.9591100679227
 20
412.6042248068871
 30
0.0
 11
-593.2224344811112
 21
411.5298532099666
 31
0.0
  0
LINE
  5
439
330
34B
100
AcDbEntity
  8
0
  6
Continuous
 62
     7
100
AcDbLine
 10
-874.1758111878965
 20
354.1804853396692
 30
0.0
 11
-879.4391356010839
 21
353.106113742749
 31
0.0
  0
LINE
  5
43A
330
34B
100
AcDbEntity
  8
0
  6
Continuous
 62
     7
100
AcDbLine
 10
-948.5619751684309
 20
338.9964732000603
 30
0.0
 11
-955.9857208537307
 21
337.4811074576293
 31
0.0
  0
ELLIPSE
  5
43B
330
34B
100
AcDbEntity
  8
0
  6
Continuous
 62
     7
100
AcDbEllipse
 10
-956.4508229930508
 20
340.2343261800219
 30
0.0
 11
0.207999999999986
 21
-1.0189877329978
 31
0.0
210
-0.0000000000000001
220
0.0
230
1.0
 40
0.4082482904638631
 41
3.141592653589793
 42
4.248741371383773
  0
LINE
  5
43C
330
34B
100
AcDbEntity
  8
0
  6
Continuous
 62
     9
100
AcDbLine
 10
2560.955469480356
 20
1059.737244807004
 30
0.0
 11
2556.137369279754
 21
1058.753754221915
 31
0.0
  0
LINE
  5
43D
330
34B
100
AcDbEntity
  8
0
  6
Continuous
 62
     9
100
AcDbLine
 10
2274.738768360383
 20
1001.313505339787
 30
0.0
 11
2269.920668159781
 21
1000.330014754697
 31
0.0
  0
LINE
  5
43E
330
34B
100
AcDbEntity
  8
0
  6
Continuous
 62
     9
100
AcDbLine
 10
1988.522067240409
 20
942.8897658725691
 30
0.0
 11
1983.703967039808
 21
941.9062752874795
 31
0.0
  0
LINE
  5
43F
330
34B
100
AcDbEntity
  8
0
  6
Continuous
 62
     9
100
AcDbLine
 10
1702.305366120436
 20
884.4660264053514
 30
0.0
 11
1697.487265919835
 21
883.4825358202616
 31
0.0
  0
LINE
  5
440
330
34B
100
AcDbEntity
  8
0
  6
Continuous
 62
     9
100
AcDbLine
 10
1416.088665000463
 20
826.0422869381335
 30
0.0
 11
1411.270564799862
 21
825.058796353044
 31
0.0
  0
LINE
  5
441
330
34B
100
AcDbEntity
  8
0
  6
Continuous
 62
     9
100
AcDbLine
 10
1129.87196388049
 20
767.6185474709158
 30
0.0
 11
1125.053863679888
 21
766.6350568858262
 31
0.0
  0
LINE
  5
442
330
34B
100
AcDbEntity
  8
0
  6
Continuous
 62
     9
100
AcDbLine
 10
843.6552627605173
 20
709.1948080036983
 30
0.0
 11
838.8371625599148
 21
708.2113174186084
 31
0.0
  0
LINE
  5
443
330
34B
100
AcDbEntity
  8
0
  6
Continuous
 62
     9
100
AcDbLine
 10
557.4385616405442
 20
650.7710685364803
 30
0.0
 11
552.6204614399423
 21
649.7875779513907
 31
0.0
  0
LINE
  5
444
330
34B
100
AcDbEntity
  8
0
  6
Continuous
 62
     9
100
AcDbLine
 10
271.2218605205708
 20
592.3473290692625
 30
0.0
 11
266.4037603199692
 21
591.3638384841728
 31
0.0
  0
LINE
  5
445
330
34B
100
AcDbEntity
  8
0
  6
Continuous
 62
     9
100
AcDbLine
 10
-14.99484059940198
 20
533.9235896020449
 30
0.0
 11
-19.81294080000368
 21
532.9400990169553
 31
0.0
  0
LINE
  5
446
330
34B
100
AcDbEntity
  8
0
  6
Continuous
 62
     9
100
AcDbLine
 10
-301.211541719375
 20
475.4998501348271
 30
0.0
 11
-306.0296419199769
 21
474.5163595497374
 31
0.0
  0
LINE
  5
447
330
34B
100
AcDbEntity
  8
0
  6
Continuous
 62
     9
100
AcDbLine
 10
-587.428242839348
 20
417.0761106676094
 30
0.0
 11
-592.24634303995
 21
416.0926200825197
 31
0.0
  0
LINE
  5
448
330
34B
100
AcDbEntity
  8
0
  6
Continuous
 62
     9
100
AcDbLine
 10
-873.644943959321
 20
358.6523712003917
 30
0.0
 11
-878.4630441599231
 21
357.668880615302
 31
0.0
  0
LINE
  5
449
330
34B
100
AcDbEntity
  8
0
  6
Continuous
 62
     9
100
AcDbLine
 10
-948.5619751684319
 20
343.359996241518
 30
0.0
 11
-958.1144575683108
 21
341.4101039367996
 31
0.0
  0
ELLIPSE
  5
44A
330
34B
100
AcDbEntity
  8
0
  6
Continuous
 62
     7
100
AcDbEllipse
 10
-958.1144575683108
 20
339.000124683777
 30
0.0
 11
-0.048000000000048
 21
0.2351510153071334
 31
0.0
210
-0.0000000000000001
220
0.0
230
1.0
 40
0.4082482904638633
 41
5.819537698180235
 42
6.283185307178634
  0
LINE
  5
44B
330
34B
100
AcDbEntity
  8
0
  6
Continuous
 62
     9
100
AcDbLine
 10
-958.0071263053909
 20
339.1315780975781
 30
0.0
 11
-958.2217888312305
 21
339.0877602929777
 31
0.0
  0
LINE
  5
44C
330
34B
100
AcDbEntity
  8
0
  6
Continuous
 62
     9
100
AcDbLine
 10
-958.2217888312305
 20
338.0653448523014
 30
0.0
 11
-957.0053678514707
 21
338.3136457450371
 31
0.0
  0
ELLIPSE
  5
44D
330
34B
100
AcDbEntity
  8
0
  6
Continuous
 62
     7
100
AcDbEllipse
 10
-958.3291200941506
 20
338.1529804615023
 30
0.0
 11
0.048000000000048
 21
-0.2351510153071889
 31
0.0
210
-0.0000000000000001
220
0.0
230
1.0
 40
0.4082482904638633
 41
0.0000000000009297
 42
1.107148717794208
  0
ELLIPSE
  5
44E
330
34B
100
AcDbEntity
  8
0
  6
Continuous
 62
     7
100
AcDbEllipse
 10
-875.9344872592384
 20
355.3003479951307
 30
0.0
 11
2.681611455822796
 21
3.28428987758389
 31
0.0
210
0.0
220
0.0
230
1.0
 40
0.8164965809277264
 41
3.141592653589793
 42
5.44115310023966
  0
ELLIPSE
  5
44F
330
34B
100
AcDbEntity
  8
0
  6
Continuous
 62
     7
100
AcDbEllipse
 10
-875.9344872592384
 20
355.3003479951307
 30
0.0
 11
2.681611455822796
 21
3.28428987758389
 31
0.0
210
0.0
220
0.0
230
1.0
 40
0.8164965809277264
 41
6.283185307179586
 42
8.582745753829431
  0
ELLIPSE
  5
450
330
34B
100
AcDbEntity
  8
0
  6
Continuous
 62
     7
100
AcDbEllipse
 10
-877.0077998884385
 20
356.1767040871389
 30
0.0
 11
-2.681611455822796
 21
-3.28428987758389
 31
0.0
210
0.0
220
0.0
230
1.0
 40
0.8164965809277259
 41
0.201485051685483
 42
2.940107601904356
  0
ELLIPSE
  5
451
330
34B
100
AcDbEntity
  8
0
  6
Continuous
 62
     7
100
AcDbEllipse
 10
-876.0418185221585
 20
355.3879836043315
 30
0.0
 11
2.479171606974416
 21
-5.224831922695017
 31
0.0
210
0.0
220
0.0
230
1.0
 40
0.6583306249916992
 41
1.353287006054092
 42
1.409921049596578
  0
ELLIPSE
  5
452
330
34B
100
AcDbEntity
  8
0
  6
Continuous
 62
     7
100
AcDbEllipse
 10
-876.0418185221585
 20
355.3879836043315
 30
0.0
 11
4.185250820383012
 21
1.985892590513738
 31
0.0
210
0.0
220
0.0
230
1.0
 40
0.3419987131196465
 41
5.658662420980462
 42
5.715296464522948
  0
ELLIPSE
  5
453
330
34B
100
AcDbEntity
  8
0
  6
Continuous
 62
     7
100
AcDbEllipse
 10
-881.837706719838
 20
375.3469935998197
 30
0.0
 11
-2.120000000000121
 21
0.0
 31
0.0
210
0.0
220
0.0
230
1.0
 40
0.4082482904638631
 41
5.819537698178767
 42
6.219858045548413
  0
ELLIPSE
  5
454
330
34B
100
AcDbEntity
  8
0
  6
Continuous
 62
     7
100
AcDbEllipse
 10
-881.837706719838
 20
373.4117072299682
 30
0.0
 11
4.240000000000021
 21
0.0
 31
0.0
210
0.0
220
0.0
230
1.0
 40
0.408248290463863
 41
1.138727231083596
 42
2.002865422506192
  0
ELLIPSE
  5
455
330
34B
100
AcDbEntity
  8
0
  6
Continuous
 62
     7
100
AcDbEllipse
 10
-881.837706719838
 20
375.3469935998197
 30
0.0
 11
-2.120000000000121
 21
0.0
 31
0.0
210
0.0
220
0.0
230
1.0
 40
0.4082482904638631
 41
3.60524026259061
 42
5.819537698178767
  0
ELLIPSE
  5
456
330
34B
100
AcDbEntity
  8
0
  6
Continuous
 62
     7
100
AcDbEllipse
 10
-881.837706719838
 20
375.3469935998197
 30
0.0
 11
-2.120000000000121
 21
0.0
 31
0.0
210
0.0
220
0.0
230
1.0
 40
0.4082482904638631
 41
3.204919915224606
 42
3.605240262590611
  0
ELLIPSE
  5
457
330
34B
100
AcDbEntity
  8
0
  6
Continuous
 62
     7
100
AcDbEllipse
 10
-881.837706719838
 20
375.4565381113208
 30
0.0
 11
-2.120000000000121
 21
0.0
 31
0.0
210
0.0
220
0.0
230
1.0
 40
0.4082482904638631
 41
6.283185307179586
 42
6.746832916180403
  0
ELLIPSE
  5
458
330
34B
100
AcDbEntity
  8
0
  6
Continuous
 62
     7
100
AcDbEllipse
 10
-881.837706719838
 20
375.4565381113208
 30
0.0
 11
-2.120000000000121
 21
0.0
 31
0.0
210
0.0
220
0.0
230
1.0
 40
0.4082482904638631
 41
3.141592653589793
 42
6.283185307179586
  0
LINE
  5
459
330
34B
100
AcDbEntity
  8
0
  6
Continuous
 62
     7
100
AcDbLine
 10
-593.6174886920242
 20
413.0376085236087
 30
0.0
 11
-872.2494472323187
 21
356.1620981522721
 31
0.0
  0
ELLIPSE
  5
45A
330
34B
100
AcDbEntity
  8
0
  6
Continuous
 62
     7
100
AcDbEllipse
 10
-589.8251174021855
 20
413.8117230715492
 30
0.0
 11
4.185250820383012
 21
1.985892590513738
 31
0.0
210
0.0
220
0.0
230
1.0
 40
0.3419987131196465
 41
2.460435723848162
 42
2.517069767390648
  0
ELLIPSE
  5
45B
330
34B
100
AcDbEntity
  8
0
  6
Continuous
 62
     7
100
AcDbEllipse
 10
-589.8251174021853
 20
413.8117230715491
 30
0.0
 11
2.479171606974416
 21
-5.224831922695017
 31
0.0
210
0.0
220
0.0
230
1.0
 40
0.6583306249916992
 41
4.551513703186351
 42
4.608147746728837
  0
ELLIPSE
  5
45C
330
34B
100
AcDbEntity
  8
0
  6
Continuous
 62
     7
100
AcDbEllipse
 10
-881.837706719838
 20
373.2656478813002
 30
0.0
 11
4.240000000000021
 21
0.0
 31
0.0
210
0.0
220
0.0
230
1.0
 40
0.4082482904638633
 41
1.192048690743698
 42
1.949543962846141
  0
ELLIPSE
  5
45D
330
34B
100
AcDbEntity
  8
0
  6
Continuous
 62
     7
100
AcDbEllipse
 10
-589.7177861392655
 20
413.7240874623483
 30
0.0
 11
2.681611455822796
 21
3.28428987758389
 31
0.0000000000000001
210
0.0
220
0.0
230
1.0
 40
0.8164965809277262
 41
0.0
 42
2.299560446649855
  0
ELLIPSE
  5
45E
330
34B
100
AcDbEntity
  8
0
  6
Continuous
 62
     7
100
AcDbEllipse
 10
-589.7177861392655
 20
413.7240874623483
 30
0.0
 11
2.681611455822796
 21
3.28428987758389
 31
0.0000000000000001
210
0.0
220
0.0
230
1.0
 40
0.8164965809277262
 41
3.141592653589801
 42
5.441153100239677
  0
ELLIPSE
  5
45F
330
34B
100
AcDbEntity
  8
0
  6
Continuous
 62
     7
100
AcDbEllipse
 10
-590.7910987684654
 20
414.6004435543566
 30
0.0
 11
-2.681611455822796
 21
-3.28428987758389
 31
-0.0000000000000001
210
0.0
220
0.0
230
1.0
 40
0.816496580927726
 41
0.2014850516876091
 42
2.940107601902191
  0
ELLIPSE
  5
460
330
34B
100
AcDbEntity
  8
0
  6
Continuous
 62
     7
100
AcDbEllipse
 10
-589.8251174021855
 20
413.8117230715492
 30
0.0
 11
4.185250820383012
 21
1.985892590513738
 31
0.0
210
0.0
220
0.0
230
1.0
 40
0.3419987131196465
 41
5.658662420980475
 42
5.715296464522946
  0
ELLIPSE
  5
461
330
34B
100
AcDbEntity
  8
0
  6
Continuous
 62
     7
100
AcDbEllipse
 10
-589.8251174021853
 20
413.8117230715491
 30
0.0
 11
2.479171606974416
 21
-5.224831922695017
 31
0.0
210
0.0
220
0.0
230
1.0
 40
0.6583306249916992
 41
1.353287006054112
 42
1.409921049596592
  0
ELLIPSE
  5
462
330
34B
100
AcDbEntity
  8
0
  6
Continuous
 62
     7
100
AcDbEllipse
 10
-595.6210055998649
 20
433.7707330670373
 30
0.0
 11
-2.119999999999899
 21
0.0
 31
0.0
210
0.0
220
0.0
230
1.0
 40
0.4082482904638633
 41
5.819537698178767
 42
6.21985804610062
  0
ELLIPSE
  5
463
330
34B
100
AcDbEntity
  8
0
  6
Continuous
 62
     7
100
AcDbEllipse
 10
-595.6210055998649
 20
431.8354466971858
 30
0.0
 11
4.240000000000021
 21
0.0
 31
0.0
210
0.0
220
0.0
230
1.0
 40
0.4082482904638633
 41
1.138727231085451
 42
2.002865422504347
  0
ELLIPSE
  5
464
330
34B
100
AcDbEntity
  8
0
  6
Continuous
 62
     7
100
AcDbEllipse
 10
-595.6210055998649
 20
433.7707330670373
 30
0.0
 11
-2.119999999999899
 21
0.0
 31
0.0
210
0.0
220
0.0
230
1.0
 40
0.4082482904638631
 41
3.60524026259061
 42
5.819537698178767
  0
ELLIPSE
  5
465
330
34B
100
AcDbEntity
  8
0
  6
Continuous
 62
     7
100
AcDbEllipse
 10
-595.6210055998649
 20
433.7707330670373
 30
0.0
 11
-2.119999999999899
 21
0.0
 31
0.0
210
0.0
220
0.0
230
1.0
 40
0.4082482904638629
 41
3.204919914656384
 42
3.605240262590611
  0
ELLIPSE
  5
466
330
34B
100
AcDbEntity
  8
0
  6
Continuous
 62
     7
100
AcDbEllipse
 10
-595.6210055998649
 20
433.8802775785385
 30
0.0
 11
-2.119999999999899
 21
0.0
 31
0.0
210
0.0
220
0.0
230
1.0
 40
0.4082482904638631
 41
6.283185307179586
 42
6.746832916180403
  0
ELLIPSE
  5
467
330
34B
100
AcDbEntity
  8
0
  6
Continuous
 62
     7
100
AcDbEllipse
 10
-595.6210055998649
 20
433.8802775785385
 30
0.0
 11
-2.119999999999899
 21
0.0
 31
0.0
210
0.0
220
0.0
230
1.0
 40
0.4082482904638631
 41
3.141592653589819
 42
6.283185307179586
  0
LINE
  5
468
330
34B
100
AcDbEntity
  8
0
  6
Continuous
 62
     7
100
AcDbLine
 10
-307.4007875720515
 20
471.4613479908264
 30
0.0
 11
-586.0327461123448
 21
414.5858376194899
 31
0.0
  0
ELLIPSE
  5
469
330
34B
100
AcDbEntity
  8
0
  6
Continuous
 62
     7
100
AcDbEllipse
 10
-303.6084162822124
 20
472.2354625387668
 30
0.0
 11
4.185250820383012
 21
1.985892590513738
 31
0.0
210
0.0
220
0.0
230
1.0
 40
0.3419987131196465
 41
2.460435723848148
 42
2.517069767390634
  0
ELLIPSE
  5
46A
330
34B
100
AcDbEntity
  8
0
  6
Continuous
 62
     7
100
AcDbEllipse
 10
-303.6084162822123
 20
472.2354625387668
 30
0.0
 11
2.479171606974361
 21
-5.224831922695017
 31
0.0
210
0.0
220
0.0
230
1.0
 40
0.6583306249916992
 41
4.551513703186337
 42
4.608147746728824
  0
ELLIPSE
  5
46B
330
34B
100
AcDbEntity
  8
0
  6
Continuous
 62
     7
100
AcDbEllipse
 10
-595.6210055998649
 20
431.6893873485177
 30
0.0
 11
4.240000000000021
 21
0.0
 31
0.0
210
0.0
220
0.0
230
1.0
 40
0.4082482904638633
 41
1.192048690742074
 42
1.949543962847717
  0
ELLIPSE
  5
46C
330
34B
100
AcDbEntity
  8
0
  6
Continuous
 62
     7
100
AcDbEllipse
 10
-303.5010850192924
 20
472.1478269295659
 30
0.0
 11
2.681611455822796
 21
3.28428987758389
 31
0.0000000000000001
210
0.0
220
0.0
230
1.0
 40
0.8164965809277262
 41
6.283185307179582
 42
8.582745753829408
  0
ELLIPSE
  5
46D
330
34B
100
AcDbEntity
  8
0
  6
Continuous
 62
     7
100
AcDbEllipse
 10
-303.5010850192924
 20
472.1478269295659
 30
0.0
 11
2.681611455822796
 21
3.28428987758389
 31
0.0000000000000001
210
0.0
220
0.0
230
1.0
 40
0.8164965809277262
 41
3.141592653589762
 42
5.441153100239692
  0
ELLIPSE
  5
46E
330
34B
100
AcDbEntity
  8
0
  6
Continuous
 62
     7
100
AcDbEllipse
 10
-304.5743976484923
 20
473.0241830215742
 30
0.0
 11
-2.681611455822852
 21
-3.284289877583945
 31
-0.0000000000000001
210
0.0
220
0.0
230
1.0
 40
0.816496580927726
 41
0.2014850516664911
 42
2.940107601923285
  0
ELLIPSE
  5
46F
330
34B
100
AcDbEntity
  8
0
  6
Continuous
 62
     7
100
AcDbEllipse
 10
-303.6084162822124
 20
472.2354625387668
 30
0.0
 11
4.185250820383012
 21
1.985892590513738
 31
0.0
210
0.0
220
0.0
230
1.0
 40
0.3419987131196465
 41
5.65866242098049
 42
5.715296464522965
  0
ELLIPSE
  5
470
330
34B
100
AcDbEntity
  8
0
  6
Continuous
 62
     7
100
AcDbEllipse
 10
-303.6084162822123
 20
472.2354625387668
 30
0.0
 11
2.479171606974361
 21
-5.224831922695017
 31
0.0
210
0.0
220
0.0
230
1.0
 40
0.6583306249916992
 41
1.35328700605412
 42
1.409921049596606
  0
ELLIPSE
  5
471
330
34B
100
AcDbEntity
  8
0
  6
Continuous
 62
     7
100
AcDbEllipse
 10
-309.4043044798918
 20
492.194472534255
 30
0.0
 11
-2.12000000000001
 21
0.0
 31
0.0
210
0.0
220
0.0
230
1.0
 40
0.4082482904638633
 41
5.819537698178796
 42
6.219858037316806
  0
ELLIPSE
  5
472
330
34B
100
AcDbEntity
  8
0
  6
Continuous
 62
     7
100
AcDbEllipse
 10
-309.4043044798918
 20
490.2591861644035
 30
0.0
 11
4.23999999999991
 21
0.0
 31
0.0
210
0.0
220
0.0
230
1.0
 40
0.4082482904638633
 41
1.138727231092476
 42
2.002865422497317
  0
ELLIPSE
  5
473
330
34B
100
AcDbEntity
  8
0
  6
Continuous
 62
     7
100
AcDbEllipse
 10
-309.4043044798918
 20
492.194472534255
 30
0.0
 11
-2.12000000000001
 21
0.0
 31
0.0
210
0.0
220
0.0
230
1.0
 40
0.4082482904638631
 41
3.605240262590604
 42
5.819537698178797
  0
ELLIPSE
  5
474
330
34B
100
AcDbEntity
  8
0
  6
Continuous
 62
     7
100
AcDbEllipse
 10
-309.4043044798918
 20
492.194472534255
 30
0.0
 11
-2.12000000000001
 21
0.0
 31
0.0
210
0.0
220
0.0
230
1.0
 40
0.4082482904638631
 41
3.204919923561029
 42
3.605240262590604
  0
ELLIPSE
  5
475
330
34B
100
AcDbEntity
  8
0
  6
Continuous
 62
     7
100
AcDbEllipse
 10
-309.4043044798918
 20
492.3040170457562
 30
0.0
 11
-2.12000000000001
 21
0.0
 31
0.0
210
0.0
220
0.0
230
1.0
 40
0.4082482904638629
 41
6.283185307179565
 42
6.746832916180388
  0
ELLIPSE
  5
476
330
34B
100
AcDbEntity
  8
0
  6
Continuous
 62
     7
100
AcDbEllipse
 10
-309.4043044798918
 20
492.3040170457562
 30
0.0
 11
-2.12000000000001
 21
0.0
 31
0.0
210
0.0
220
0.0
230
1.0
 40
0.4082482904638629
 41
3.141592653589805
 42
6.283185307179565
  0
LINE
  5
477
330
34B
100
AcDbEntity
  8
0
  6
Continuous
 62
     7
100
AcDbLine
 10
-21.1840864520782
 20
529.8850874580441
 30
0.0
 11
-299.8160449923721
 21
473.0095770867077
 31
0.0
  0
ELLIPSE
  5
478
330
34B
100
AcDbEntity
  8
0
  6
Continuous
 62
     7
100
AcDbEllipse
 10
-17.39171516223931
 20
530.6592020059846
 30
0.0
 11
4.185250820382987
 21
1.985892590513738
 31
0.0
210
0.0
220
0.0
230
1.0
 40
0.3419987131196465
 41
2.460435723848134
 42
2.517069767390621
  0
ELLIPSE
  5
479
330
34B
100
AcDbEntity
  8
0
  6
Continuous
 62
     7
100
AcDbEllipse
 10
-17.3917151622392
 20
530.6592020059845
 30
0.0
 11
2.479171606974365
 21
-5.224831922694961
 31
0.0
210
0.0
220
0.0
230
1.0
 40
0.6583306249916992
 41
4.551513703186324
 42
4.60814774672881
  0
ELLIPSE
  5
47A
330
34B
100
AcDbEntity
  8
0
  6
Continuous
 62
     7
100
AcDbEllipse
 10
-309.4043044798918
 20
490.1131268157356
 30
0.0
 11
4.23999999999991
 21
0.0
 31
0.0
210
0.0
220
0.0
230
1.0
 40
0.4082482904638633
 41
1.192048690757287
 42
1.94954396283253
  0
ELLIPSE
  5
47B
330
34B
100
AcDbEntity
  8
0
  6
Continuous
 62
     7
100
AcDbEllipse
 10
-17.28438389931924
 20
530.5715663967837
 30
0.0
 11
2.681611455822744
 21
3.28428987758389
 31
0.0
210
0.0
220
0.0
230
1.0
 40
0.8164965809277259
 41
0.0000000000000061
 42
2.299560446649799
  0
ELLIPSE
  5
47C
330
34B
100
AcDbEntity
  8
0
  6
Continuous
 62
     7
100
AcDbEllipse
 10
-17.28438389931924
 20
530.5715663967837
 30
0.0
 11
2.681611455822744
 21
3.28428987758389
 31
0.0000000000000001
210
-0.0000000000000001
220
0.0
230
1.0
 40
0.8164965809277255
 41
3.141592653589773
 42
5.441153100239687
  0
ELLIPSE
  5
47D
330
34B
100
AcDbEntity
  8
0
  6
Continuous
 62
     7
100
AcDbEllipse
 10
-18.3576965285192
 20
531.4479224887921
 30
0.0
 11
-2.681611455822789
 21
-3.284289877583889
 31
0.0
210
0.0
220
0.0
230
0.9999999999999998
 40
0.8164965809277259
 41
0.2014850517046157
 42
2.940107601884865
  0
ELLIPSE
  5
47E
330
34B
100
AcDbEntity
  8
0
  6
Continuous
 62
     7
100
AcDbEllipse
 10
-17.39171516223931
 20
530.6592020059846
 30
0.0
 11
4.185250820382987
 21
1.985892590513738
 31
0.0
210
0.0
220
0.0
230
1.0
 40
0.3419987131196465
 41
5.658662420980504
 42
5.715296464522979
  0
ELLIPSE
  5
47F
330
34B
100
AcDbEntity
  8
0
  6
Continuous
 62
     7
100
AcDbEllipse
 10
-17.3917151622392
 20
530.6592020059845
 30
0.0
 11
2.479171606974365
 21
-5.224831922694961
 31
0.0
210
0.0
220
0.0
230
1.0
 40
0.6583306249916992
 41
1.353287006054138
 42
1.40992104959662
  0
ELLIPSE
  5
480
330
34B
100
AcDbEntity
  8
0
  6
Continuous
 62
     7
100
AcDbEllipse
 10
-23.18760335991871
 20
550.6182120014728
 30
0.0
 11
-2.120000000000121
 21
0.0
 31
0.0
210
0.0
220
0.0
230
1.0
 40
0.4082482904638633
 41
5.819537698178784
 42
6.219858043215456
  0
ELLIPSE
  5
481
330
34B
100
AcDbEntity
  8
0
  6
Continuous
 62
     7
100
AcDbEllipse
 10
-23.18760335991871
 20
548.6829256316212
 30
0.0
 11
4.239999999999799
 21
0.0
 31
0.0
210
0.0
220
0.0
230
1.0
 40
0.408248290463863
 41
1.138727231072517
 42
2.002865422517262
  0
ELLIPSE
  5
482
330
34B
100
AcDbEntity
  8
0
  6
Continuous
 62
     7
100
AcDbEllipse
 10
-23.18760335991871
 20
550.6182120014728
 30
0.0
 11
-2.120000000000121
 21
0.0
 31
0.0
210
0.0
220
0.0
230
1.0
 40
0.4082482904638631
 41
3.605240262590591
 42
5.819537698178784
  0
ELLIPSE
  5
483
330
34B
100
AcDbEntity
  8
0
  6
Continuous
 62
     7
100
AcDbEllipse
 10
-23.18760335991871
 20
550.6182120014728
 30
0.0
 11
-2.120000000000121
 21
0.0
 31
0.0
210
0.0
220
0.0
230
1.0
 40
0.4082482904638631
 41
3.204919917574368
 42
3.60524026259059
  0
ELLIPSE
  5
484
330
34B
100
AcDbEntity
  8
0
  6
Continuous
 62
     7
100
AcDbEllipse
 10
-23.18760335991871
 20
550.7277565129739
 30
0.0
 11
-2.120000000000121
 21
0.0
 31
0.0
210
0.0
220
0.0
230
1.0
 40
0.4082482904638633
 41
0.0000000000000327
 42
0.4636476090008178
  0
ELLIPSE
  5
485
330
34B
100
AcDbEntity
  8
0
  6
Continuous
 62
     7
100
AcDbEllipse
 10
-23.18760335991871
 20
550.7277565129739
 30
0.0
 11
-2.120000000000121
 21
0.0
 31
0.0
210
0.0
220
0.0
230
1.0
 40
0.4082482904638633
 41
3.141592653589793
 42
6.283185307179619
  0
LINE
  5
486
330
34B
100
AcDbEntity
  8
0
  6
Continuous
 62
     7
100
AcDbLine
 10
265.0326146678943
 20
588.3088269252619
 30
0.0
 11
-13.59934387239875
 21
531.4333165539255
 31
0.0
  0
ELLIPSE
  5
487
330
34B
100
AcDbEntity
  8
0
  6
Continuous
 62
     7
100
AcDbEllipse
 10
268.8249859577337
 20
589.0829414732023
 30
0.0
 11
4.185250820383012
 21
1.985892590513738
 31
0.0
210
0.0
220
0.0
230
1.0
 40
0.3419987131196465
 41
2.46043572384812
 42
2.517069767390607
  0
ELLIPSE
  5
488
330
34B
100
AcDbEntity
  8
0
  6
Continuous
 62
     7
100
AcDbEllipse
 10
268.8249859577339
 20
589.0829414732021
 30
0.0
 11
2.479171606974361
 21
-5.224831922694961
 31
0.0
210
0.0
220
0.0
230
1.0
 40
0.6583306249916992
 41
4.551513703186309
 42
4.608147746728795
  0
ELLIPSE
  5
489
330
34B
100
AcDbEntity
  8
0
  6
Continuous
 62
     7
100
AcDbEllipse
 10
-23.18760335991871
 20
548.5368662829532
 30
0.0
 11
4.239999999999799
 21
0.0
 31
0.0
210
0.0
220
0.0
230
1.0
 40
0.4082482904638633
 41
1.192048690750614
 42
1.949543962839216
  0
ELLIPSE
  5
48A
330
34B
100
AcDbEntity
  8
0
  6
Continuous
 62
     7
100
AcDbEllipse
 10
268.9323172206538
 20
588.9953058640013
 30
0.0
 11
2.681611455822796
 21
3.28428987758389
 31
0.0
210
0.0
220
0.0
230
1.0
 40
0.8164965809277259
 41
0.0000000000000043
 42
2.2995604466498
  0
ELLIPSE
  5
48B
330
34B
100
AcDbEntity
  8
0
  6
Continuous
 62
     7
100
AcDbEllipse
 10
268.9323172206538
 20
588.9953058640013
 30
0.0
 11
2.681611455822796
 21
3.28428987758389
 31
0.0000000000000001
210
-0.0000000000000001
220
0.0
230
1.0
 40
0.8164965809277255
 41
3.141592653589793
 42
5.441153100239715
  0
ELLIPSE
  5
48C
330
34B
100
AcDbEntity
  8
0
  6
Continuous
 62
     7
100
AcDbEllipse
 10
267.8590045914538
 20
589.8716619560096
 30
0.0
 11
-2.681611455822796
 21
-3.28428987758389
 31
-0.0000000000000001
210
0.0
220
0.0
230
1.0
 40
0.816496580927726
 41
0.2014850516622608
 42
2.940107601927589
  0
ELLIPSE
  5
48D
330
34B
100
AcDbEntity
  8
0
  6
Continuous
 62
     7
100
AcDbEllipse
 10
268.8249859577337
 20
589.0829414732023
 30
0.0
 11
4.185250820383012
 21
1.985892590513738
 31
0.0
210
0.0
220
0.0
230
1.0
 40
0.3419987131196465
 41
5.658662420980517
 42
5.715296464522999
  0
ELLIPSE
  5
48E
330
34B
100
AcDbEntity
  8
0
  6
Continuous
 62
     7
100
AcDbEllipse
 10
268.8249859577339
 20
589.0829414732021
 30
0.0
 11
2.479171606974361
 21
-5.224831922694961
 31
0.0
210
0.0
220
0.0
230
1.0
 40
0.6583306249916992
 41
1.353287006054147
 42
1.409921049596634
  0
ELLIPSE
  5
48F
330
34B
100
AcDbEntity
  8
0
  6
Continuous
 62
     7
100
AcDbEllipse
 10
263.0290977600543
 20
609.0419514686905
 30
0.0
 11
-2.120000000000121
 21
0.0
 31
0.0
210
0.0
220
0.0
230
1.0
 40
0.4082482904638633
 41
5.819537698178748
 42
6.219858020918572
  0
ELLIPSE
  5
490
330
34B
100
AcDbEntity
  8
0
  6
Continuous
 62
     7
100
AcDbEllipse
 10
263.0290977600543
 20
607.1066650988389
 30
0.0
 11
4.239999999999799
 21
0.0
 31
0.0
210
0.0
220
0.0
230
1.0
 40
0.4082482904638633
 41
1.138727231090048
 42
2.002865422499839
  0
ELLIPSE
  5
491
330
34B
100
AcDbEntity
  8
0
  6
Continuous
 62
     7
100
AcDbEllipse
 10
263.0290977600543
 20
609.0419514686905
 30
0.0
 11
-2.120000000000121
 21
0.0
 31
0.0
210
0.0
220
0.0
230
1.0
 40
0.4082482904638631
 41
3.605240262590521
 42
5.819537698178748
  0
ELLIPSE
  5
492
330
34B
100
AcDbEntity
  8
0
  6
Continuous
 62
     7
100
AcDbEllipse
 10
263.0290977600543
 20
609.0419514686905
 30
0.0
 11
-2.120000000000121
 21
0.0
 31
0.0
210
0.0
220
0.0
230
1.0
 40
0.4082482904638631
 41
3.204919940022352
 42
3.605240262590522
  0
ELLIPSE
  5
493
330
34B
100
AcDbEntity
  8
0
  6
Continuous
 62
     7
100
AcDbEllipse
 10
263.0290977600543
 20
609.1514959801918
 30
0.0
 11
-2.120000000000121
 21
0.0
 31
0.0
210
0.0
220
0.0
230
1.0
 40
0.4082482904638633
 41
0.0000000000000376
 42
0.4636476090008431
  0
ELLIPSE
  5
494
330
34B
100
AcDbEntity
  8
0
  6
Continuous
 62
     7
100
AcDbEllipse
 10
263.0290977600543
 20
609.1514959801918
 30
0.0
 11
-2.120000000000121
 21
0.0
 31
0.0
210
0.0
220
0.0
230
1.0
 40
0.4082482904638633
 41
3.141592653589766
 42
6.283185307179624
  0
LINE
  5
495
330
34B
100
AcDbEntity
  8
0
  6
Continuous
 62
     7
100
AcDbLine
 10
551.2493157878678
 20
646.7325663924796
 30
0.0
 11
272.6173572475738
 21
589.8570560211431
 31
0.0
  0
ELLIPSE
  5
496
330
34B
100
AcDbEntity
  8
0
  6
Continuous
 62
     7
100
AcDbEllipse
 10
555.0416870777068
 20
647.5066809404201
 30
0.0
 11
4.185250820383012
 21
1.985892590513738
 31
0.0
210
0.0
220
0.0
230
1.0
 40
0.3419987131196465
 41
2.460435723848104
 42
2.517069767390593
  0
ELLIPSE
  5
497
330
34B
100
AcDbEntity
  8
0
  6
Continuous
 62
     7
100
AcDbEllipse
 10
555.041687077707
 20
647.5066809404198
 30
0.0
 11
2.479171606974417
 21
-5.224831922694961
 31
0.0
210
0.0
220
0.0
230
1.0
 40
0.6583306249916992
 41
4.551513703186295
 42
4.60814774672878
  0
ELLIPSE
  5
498
330
34B
100
AcDbEntity
  8
0
  6
Continuous
 62
     7
100
AcDbEllipse
 10
263.0290977600543
 20
606.9606057501711
 30
0.0
 11
4.239999999999799
 21
0.0
 31
0.0
210
0.0
220
0.0
230
1.0
 40
0.4082482904638633
 41
1.192048690762373
 42
1.949543962827507
  0
ELLIPSE
  5
499
330
34B
100
AcDbEntity
  8
0
  6
Continuous
 62
     7
100
AcDbEllipse
 10
555.1490183406269
 20
647.419045331219
 30
0.0
 11
2.681611455822796
 21
3.28428987758389
 31
0.0000000000000001
210
0.0
220
0.0
230
1.0
 40
0.8164965809277262
 41
6.283185307179579
 42
8.582745753829357
  0
ELLIPSE
  5
49A
330
34B
100
AcDbEntity
  8
0
  6
Continuous
 62
     7
100
AcDbEllipse
 10
555.1490183406269
 20
647.419045331219
 30
0.0
 11
2.681611455822796
 21
3.28428987758389
 31
0.0000000000000001
210
0.0
220
0.0
230
1.0
 40
0.8164965809277262
 41
3.141592653589725
 42
5.441153100239726
  0
ELLIPSE
  5
49B
330
34B
100
AcDbEntity
  8
0
  6
Continuous
 62
     7
100
AcDbEllipse
 10
554.0757057114269
 20
648.2954014232274
 30
0.0
 11
-2.681611455822907
 21
-3.284289877584001
 31
-0.0000000000000001
210
0.0
220
0.0
230
1.0
 40
0.816496580927726
 41
0.2014850516821604
 42
2.940107601939468
  0
ELLIPSE
  5
49C
330
34B
100
AcDbEntity
  8
0
  6
Continuous
 62
     7
100
AcDbEllipse
 10
555.0416870777068
 20
647.5066809404201
 30
0.0
 11
4.185250820383012
 21
1.985892590513738
 31
0.0
210
0.0
220
0.0
230
1.0
 40
0.3419987131196465
 41
5.658662420980531
 42
5.715296464523015
  0
ELLIPSE
  5
49D
330
34B
100
AcDbEntity
  8
0
  6
Continuous
 62
     7
100
AcDbEllipse
 10
555.041687077707
 20
647.5066809404198
 30
0.0
 11
2.479171606974417
 21
-5.224831922694961
 31
0.0
210
0.0
220
0.0
230
1.0
 40
0.6583306249916992
 41
1.353287006054163
 42
1.409921049596648
  0
ELLIPSE
  5
49E
330
34B
100
AcDbEntity
  8
0
  6
Continuous
 62
     7
100
AcDbEllipse
 10
549.2457988800274
 20
667.4656909359082
 30
0.0
 11
-2.120000000000121
 21
0.0
 31
0.0
210
0.0
220
0.0
230
1.0
 40
0.4082482904638633
 41
5.819537698178878
 42
6.219858030874655
  0
ELLIPSE
  5
49F
330
34B
100
AcDbEntity
  8
0
  6
Continuous
 62
     7
100
AcDbEllipse
 10
549.2457988800274
 20
665.5304045660566
 30
0.0
 11
4.240000000000021
 21
0.0
 31
0.0
210
0.0
220
0.0
230
1.0
 40
0.4082482904638633
 41
1.1387272310408
 42
2.002865422548932
  0
ELLIPSE
  5
4A0
330
34B
100
AcDbEntity
  8
0
  6
Continuous
 62
     7
100
AcDbEllipse
 10
549.2457988800274
 20
667.4656909359082
 30
0.0
 11
-2.120000000000121
 21
0.0
 31
0.0
210
0.0
220
0.0
230
1.0
 40
0.4082482904638631
 41
3.605240262590604
 42
5.819537698178878
  0
ELLIPSE
  5
4A1
330
34B
100
AcDbEntity
  8
0
  6
Continuous
 62
     7
100
AcDbEllipse
 10
549.2457988800274
 20
667.4656909359082
 30
0.0
 11
-2.120000000000121
 21
0.0
 31
0.0
210
0.0
220
0.0
230
1.0
 40
0.4082482904638631
 41
3.20491992998116
 42
3.605240262590604
  0
ELLIPSE
  5
4A2
330
34B
100
AcDbEntity
  8
0
  6
Continuous
 62
     7
100
AcDbEllipse
 10
549.2457988800274
 20
667.5752354474094
 30
0.0
 11
-2.120000000000121
 21
0.0
 31
0.0
210
0.0
220
0.0
230
1.0
 40
0.4082482904638633
 41
0.0
 42
0.463647609000765
  0
ELLIPSE
  5
4A3
330
34B
100
AcDbEntity
  8
0
  6
Continuous
 62
     7
100
AcDbEllipse
 10
549.2457988800274
 20
667.5752354474094
 30
0.0
 11
-2.120000000000121
 21
0.0
 31
0.0
210
0.0
220
0.0
230
1.0
 40
0.4082482904638633
 41
3.141592653589858
 42
6.283185307179586
  0
LINE
  5
4A4
330
34B
100
AcDbEntity
  8
0
  6
Continuous
 62
     7
100
AcDbLine
 10
837.4660169078405
 20
705.1563058596973
 30
0.0
 11
558.8340583675471
 21
648.2807954883609
 31
0.0
  0
ELLIPSE
  5
4A5
330
34B
100
AcDbEntity
  8
0
  6
Continuous
 62
     7
100
AcDbEllipse
 10
841.2583881976798
 20
705.9304204076377
 30
0.0
 11
4.185250820383012
 21
1.985892590513738
 31
0.0
210
0.0
220
0.0
230
1.0
 40
0.3419987131196465
 41
2.46043572384809
 42
2.517069767390579
  0
ELLIPSE
  5
4A6
330
34B
100
AcDbEntity
  8
0
  6
Continuous
 62
     7
100
AcDbEllipse
 10
841.25838819768
 20
705.9304204076375
 30
0.0
 11
2.479171606974417
 21
-5.224831922694961
 31
0.0
210
0.0
220
0.0
230
1.0
 40
0.6583306249916992
 41
4.551513703186282
 42
4.608147746728766
  0
ELLIPSE
  5
4A7
330
34B
100
AcDbEntity
  8
0
  6
Continuous
 62
     7
100
AcDbEllipse
 10
549.2457988800274
 20
665.3843452173888
 30
0.0
 11
4.240000000000021
 21
0.0
 31
0.0
210
0.0
220
0.0
230
1.0
 40
0.4082482904638633
 41
1.192048690707508
 42
1.949543962882149
  0
ELLIPSE
  5
4A8
330
34B
100
AcDbEntity
  8
0
  6
Continuous
 62
     7
100
AcDbEllipse
 10
841.3657194605999
 20
705.8427847984368
 30
0.0
 11
2.681611455822796
 21
3.28428987758389
 31
0.0000000000000001
210
0.0
220
0.0
230
1.0
 40
0.8164965809277262
 41
6.283185307179579
 42
8.582745753829343
  0
ELLIPSE
  5
4A9
330
34B
100
AcDbEntity
  8
0
  6
Continuous
 62
     7
100
AcDbEllipse
 10
841.3657194605999
 20
705.8427847984368
 30
0.0
 11
2.681611455822796
 21
3.28428987758389
 31
0.0000000000000001
210
0.0
220
0.0
230
1.0
 40
0.8164965809277262
 41
3.141592653589721
 42
5.441153100239739
  0
ELLIPSE
  5
4AA
330
34B
100
AcDbEntity
  8
0
  6
Continuous
 62
     7
100
AcDbEllipse
 10
840.2924068314
 20
706.719140890445
 30
0.0
 11
-2.681611455822907
 21
-3.284289877584001
 31
-0.0000000000000001
210
0.0
220
0.0
230
1.0
 40
0.816496580927726
 41
0.2014850516726938
 42
2.940107601916804
  0
ELLIPSE
  5
4AB
330
34B
100
AcDbEntity
  8
0
  6
Continuous
 62
     7
100
AcDbEllipse
 10
841.2583881976798
 20
705.9304204076377
 30
0.0
 11
4.185250820383012
 21
1.985892590513738
 31
0.0
210
0.0
220
0.0
230
1.0
 40
0.3419987131196465
 41
5.658662420980546
 42
5.71529646452303
  0
ELLIPSE
  5
4AC
330
34B
100
AcDbEntity
  8
0
  6
Continuous
 62
     7
100
AcDbEllipse
 10
841.25838819768
 20
705.9304204076375
 30
0.0
 11
2.479171606974417
 21
-5.224831922694961
 31
0.0
210
0.0
220
0.0
230
1.0
 40
0.6583306249916992
 41
1.353287006054177
 42
1.409921049596662
  0
ELLIPSE
  5
4AD
330
34B
100
AcDbEntity
  8
0
  6
Continuous
 62
     7
100
AcDbEllipse
 10
835.4625000000003
 20
725.8894304031259
 30
0.0
 11
-2.120000000000121
 21
0.0
 31
0.0
210
0.0
220
0.0
230
1.0
 40
0.4082482904638633
 41
5.819537698178874
 42
6.219858062336497
  0
ELLIPSE
  5
4AE
330
34B
100
AcDbEntity
  8
0
  6
Continuous
 62
     7
100
AcDbEllipse
 10
835.4625000000003
 20
723.9541440332742
 30
0.0
 11
4.240000000000021
 21
0.0
 31
0.0
210
0.0
220
0.0
230
1.0
 40
0.4082482904638633
 41
1.138727231002047
 42
2.002865422587671
  0
ELLIPSE
  5
4AF
330
34B
100
AcDbEntity
  8
0
  6
Continuous
 62
     7
100
AcDbEllipse
 10
835.4625000000003
 20
725.8894304031259
 30
0.0
 11
-2.120000000000121
 21
0.0
 31
0.0
210
0.0
220
0.0
230
1.0
 40
0.4082482904638631
 41
3.60524026259061
 42
5.819537698178874
  0
ELLIPSE
  5
4B0
330
34B
100
AcDbEntity
  8
0
  6
Continuous
 62
     7
100
AcDbEllipse
 10
835.4625000000003
 20
725.8894304031259
 30
0.0
 11
-2.120000000000121
 21
0.0
 31
-0.0000000000000001
210
-0.0000000000000001
220
0.0
230
1.0
 40
0.4082482904638631
 41
3.20491989835955
 42
3.605240262590609
  0
ELLIPSE
  5
4B1
330
34B
100
AcDbEntity
  8
0
  6
Continuous
 62
     7
100
AcDbEllipse
 10
835.4625000000003
 20
725.9989749146273
 30
0.0
 11
-2.120000000000121
 21
0.0
 31
0.0
210
0.0
220
0.0
230
1.0
 40
0.4082482904638633
 41
0.0
 42
0.4636476090007707
  0
ELLIPSE
  5
4B2
330
34B
100
AcDbEntity
  8
0
  6
Continuous
 62
     7
100
AcDbEllipse
 10
835.4625000000003
 20
725.9989749146273
 30
0.0
 11
-2.120000000000121
 21
0.0
 31
0.0
210
0.0
220
0.0
230
1.0
 40
0.4082482904638633
 41
3.141592653589858
 42
6.283185307179586
  0
LINE
  5
4B3
330
34B
100
AcDbEntity
  8
0
  6
Continuous
 62
     7
100
AcDbLine
 10
1123.682718027813
 20
763.5800453269151
 30
0.0
 11
845.0507594875197
 21
706.7045349555788
 31
0.0
  0
ELLIPSE
  5
4B4
330
34B
100
AcDbEntity
  8
0
  6
Continuous
 62
     7
100
AcDbEllipse
 10
1127.475089317653
 20
764.3541598748554
 30
0.0
 11
4.185250820383012
 21
1.985892590513738
 31
0.0
210
0.0
220
0.0
230
1.0
 40
0.3419987131196465
 41
2.460435723848076
 42
2.517069767390565
  0
ELLIPSE
  5
4B5
330
34B
100
AcDbEntity
  8
0
  6
Continuous
 62
     7
100
AcDbEllipse
 10
1127.475089317653
 20
764.3541598748551
 30
0.0
 11
2.479171606974306
 21
-5.224831922694961
 31
0.0
210
0.0
220
0.0
230
1.0
 40
0.6583306249916992
 41
4.551513703186268
 42
4.608147746728752
  0
ELLIPSE
  5
4B6
330
34B
100
AcDbEntity
  8
0
  6
Continuous
 62
     7
100
AcDbEllipse
 10
835.4625000000003
 20
723.8080846846066
 30
0.0
 11
4.240000000000021
 21
0.0
 31
0.0000000000000003
210
-0.0000000000000001
220
0.0
230
1.0
 40
0.408248290463863
 41
1.192048690695339
 42
1.949543962894377
  0
ELLIPSE
  5
4B7
330
34B
100
AcDbEntity
  8
0
  6
Continuous
 62
     7
100
AcDbEllipse
 10
1127.582420580573
 20
764.2665242656544
 30
0.0
 11
2.681611455823018
 21
3.284289877584113
 31
0.0000000000000001
210
0.0
220
0.0
230
1.0
 40
0.8164965809277262
 41
6.283185307179549
 42
8.582745753829415
  0
ELLIPSE
  5
4B8
330
34B
100
AcDbEntity
  8
0
  6
Continuous
 62
     7
100
AcDbEllipse
 10
1127.582420580573
 20
764.2665242656544
 30
0.0
 11
2.681611455823018
 21
3.284289877584113
 31
0.0000000000000001
210
0.0
220
0.0
230
1.0
 40
0.8164965809277262
 41
3.141592653589857
 42
5.441153100239823
  0
ELLIPSE
  5
4B9
330
34B
100
AcDbEntity
  8
0
  6
Continuous
 62
     7
100
AcDbEllipse
 10
1126.509107951373
 20
765.1428803576627
 30
0.0
 11
-2.681611455822796
 21
-3.28428987758389
 31
0.0
210
0.0
220
0.0
230
1.0
 40
0.8164965809277259
 41
0.2014850516379384
 42
2.940107601951872
  0
ELLIPSE
  5
4BA
330
34B
100
AcDbEntity
  8
0
  6
Continuous
 62
     7
100
AcDbEllipse
 10
1127.475089317653
 20
764.3541598748554
 30
0.0
 11
4.185250820383012
 21
1.985892590513738
 31
0.0
210
0.0
220
0.0
230
1.0
 40
0.3419987131196465
 41
5.658662420980559
 42
5.715296464523044
  0
ELLIPSE
  5
4BB
330
34B
100
AcDbEntity
  8
0
  6
Continuous
 62
     7
100
AcDbEllipse
 10
1127.475089317653
 20
764.3541598748551
 30
0.0
 11
2.479171606974306
 21
-5.224831922694961
 31
0.0
210
0.0
220
0.0
230
1.0
 40
0.6583306249916992
 41
1.353287006054191
 42
1.409921049596675
  0
ELLIPSE
  5
4BC
330
34B
100
AcDbEntity
  8
0
  6
Continuous
 62
     7
100
AcDbEllipse
 10
1121.679201119973
 20
784.3131698703436
 30
0.0
 11
-2.120000000000121
 21
0.0
 31
0.0
210
0.0
220
0.0
230
1.0
 40
0.4082482904638633
 41
5.819537698178827
 42
6.219857986294424
  0
ELLIPSE
  5
4BD
330
34B
100
AcDbEntity
  8
0
  6
Continuous
 62
     7
100
AcDbEllipse
 10
1121.679201119973
 20
782.377883500492
 30
0.0
 11
4.240000000000243
 21
0.0
 31
0.0
210
0.0
220
0.0
230
1.0
 40
0.4082482904638633
 41
1.138727231184492
 42
2.002865422405397
  0
ELLIPSE
  5
4BE
330
34B
100
AcDbEntity
  8
0
  6
Continuous
 62
     7
100
AcDbEllipse
 10
1121.679201119973
 20
784.3131698703436
 30
0.0
 11
-2.120000000000121
 21
0.0
 31
0.0
210
0.0
220
0.0
230
1.0
 40
0.4082482904638631
 41
3.605240262590517
 42
5.819537698178827
  0
ELLIPSE
  5
4BF
330
34B
100
AcDbEntity
  8
0
  6
Continuous
 62
     7
100
AcDbEllipse
 10
1121.679201119973
 20
784.3131698703436
 30
0.0
 11
-2.120000000000121
 21
0.0
 31
0.0
210
0.0
220
0.0
230
1.0
 40
0.4082482904638631
 41
3.204919974716664
 42
3.605240262590517
  0
ELLIPSE
  5
4C0
330
34B
100
AcDbEntity
  8
0
  6
Continuous
 62
     7
100
AcDbEllipse
 10
1121.679201119973
 20
784.4227143818449
 30
0.0
 11
-2.120000000000121
 21
0.0
 31
0.0
210
0.0
220
0.0
230
1.0
 40
0.4082482904638633
 41
0.0
 42
0.4636476090008176
  0
ELLIPSE
  5
4C1
330
34B
100
AcDbEntity
  8
0
  6
Continuous
 62
     7
100
AcDbEllipse
 10
1121.679201119973
 20
784.4227143818449
 30
0.0
 11
-2.120000000000121
 21
0.0
 31
0.0
210
0.0
220
0.0
230
1.0
 40
0.4082482904638633
 41
3.141592653589858
 42
6.283185307179586
  0
LINE
  5
4C2
330
34B
100
AcDbEntity
  8
0
  6
Continuous
 62
     7
100
AcDbLine
 10
1409.899419147786
 20
822.0037847941327
 30
0.0
 11
1131.267460607493
 21
765.1282744227962
 31
0.0
  0
ELLIPSE
  5
4C3
330
34B
100
AcDbEntity
  8
0
  6
Continuous
 62
     7
100
AcDbEllipse
 10
1413.691790437626
 20
822.7778993420731
 30
0.0
 11
4.185250820383012
 21
1.985892590513738
 31
0.0
210
0.0
220
0.0
230
1.0
 40
0.3419987131196465
 41
2.460435723848063
 42
2.517069767390551
  0
ELLIPSE
  5
4C4
330
34B
100
AcDbEntity
  8
0
  6
Continuous
 62
     7
100
AcDbEllipse
 10
1413.691790437626
 20
822.7778993420727
 30
0.0
 11
2.479171606974306
 21
-5.224831922694961
 31
0.0
210
0.0
220
0.0
230
1.0
 40
0.6583306249916992
 41
4.551513703186254
 42
4.608147746728739
  0
ELLIPSE
  5
4C5
330
34B
100
AcDbEntity
  8
0
  6
Continuous
 62
     7
100
AcDbEllipse
 10
1121.679201119973
 20
782.2318241518242
 30
0.0
 11
4.240000000000243
 21
0.0
 31
0.0
210
0.0
220
0.0
230
1.0
 40
0.4082482904638633
 41
1.192048690827899
 42
1.949543962761879
  0
ELLIPSE
  5
4C6
330
34B
100
AcDbEntity
  8
0
  6
Continuous
 62
     7
100
AcDbEllipse
 10
1413.799121700546
 20
822.6902637328722
 30
0.0
 11
2.681611455822796
 21
3.28428987758389
 31
0.0000000000000001
210
0.0
220
0.0
230
1.0
 40
0.8164965809277262
 41
6.283185307179579
 42
8.582745753829321
  0
ELLIPSE
  5
4C7
330
34B
100
AcDbEntity
  8
0
  6
Continuous
 62
     7
100
AcDbEllipse
 10
1413.799121700546
 20
822.6902637328722
 30
0.0
 11
2.681611455822796
 21
3.28428987758389
 31
0.0000000000000001
210
0.0
220
0.0
230
1.0
 40
0.8164965809277262
 41
3.141592653589776
 42
5.441153100239771
  0
ELLIPSE
  5
4C8
330
34B
100
AcDbEntity
  8
0
  6
Continuous
 62
     7
100
AcDbEllipse
 10
1412.725809071346
 20
823.5666198248804
 30
0.0
 11
-2.681611455822796
 21
-3.28428987758389
 31
0.0
210
0.0
220
0.0
230
1.0
 40
0.8164965809277264
 41
0.2014850514968015
 42
2.940107602095383
  0
ELLIPSE
  5
4C9
330
34B
100
AcDbEntity
  8
0
  6
Continuous
 62
     7
100
AcDbEllipse
 10
1413.691790437626
 20
822.7778993420731
 30
0.0
 11
4.185250820383012
 21
1.985892590513738
 31
0.0
210
0.0
220
0.0
230
1.0
 40
0.3419987131196465
 41
5.658662420980573
 42
5.715296464523053
  0
ELLIPSE
  5
4CA
330
34B
100
AcDbEntity
  8
0
  6
Continuous
 62
     7
100
AcDbEllipse
 10
1413.691790437626
 20
822.7778993420727
 30
0.0
 11
2.479171606974306
 21
-5.224831922694961
 31
0.0
210
0.0
220
0.0
230
1.0
 40
0.6583306249916992
 41
1.3532870060542
 42
1.409921049596689
  0
ELLIPSE
  5
4CB
330
34B
100
AcDbEntity
  8
0
  6
Continuous
 62
     7
100
AcDbEllipse
 10
1407.895902239946
 20
842.7369093375613
 30
0.0
 11
-2.120000000000121
 21
0.0
 31
0.0
210
0.0
220
0.0
230
1.0
 40
0.4082482904638633
 41
5.819537698178827
 42
6.219858079617447
  0
ELLIPSE
  5
4CC
330
34B
100
AcDbEntity
  8
0
  6
Continuous
 62
     7
100
AcDbEllipse
 10
1407.895902239946
 20
840.8016229677096
 30
0.0
 11
4.240000000000243
 21
0.0
 31
0.0
210
0.0
220
0.0
230
1.0
 40
0.4082482904638633
 41
1.138727231167434
 42
2.002865422422453
  0
ELLIPSE
  5
4CD
330
34B
100
AcDbEntity
  8
0
  6
Continuous
 62
     7
100
AcDbEllipse
 10
1407.895902239946
 20
842.7369093375613
 30
0.0
 11
-2.120000000000121
 21
0.0
 31
0.0
210
0.0
220
0.0
230
1.0
 40
0.4082482904638631
 41
3.605240262590668
 42
5.819537698178827
  0
ELLIPSE
  5
4CE
330
34B
100
AcDbEntity
  8
0
  6
Continuous
 62
     7
100
AcDbEllipse
 10
1407.895902239946
 20
842.7369093375613
 30
0.0
 11
-2.120000000000121
 21
0.0
 31
0.0
210
0.0
220
0.0
230
1.0
 40
0.4082482904638633
 41
3.204919948071221
 42
3.605240262590666
  0
ELLIPSE
  5
4CF
330
34B
100
AcDbEntity
  8
0
  6
Continuous
 62
     7
100
AcDbEllipse
 10
1407.895902239946
 20
842.8464538490628
 30
0.0
 11
-2.120000000000121
 21
0.0
 31
0.0
210
0.0
220
0.0
230
1.0
 40
0.4082482904638633
 41
0.0
 42
0.4636476090008764
  0
ELLIPSE
  5
4D0
330
34B
100
AcDbEntity
  8
0
  6
Continuous
 62
     7
100
AcDbEllipse
 10
1407.895902239946
 20
842.8464538490628
 30
0.0
 11
-2.120000000000121
 21
0.0
 31
0.0
210
0.0
220
0.0
230
1.0
 40
0.4082482904638633
 41
3.141592653589793
 42
6.283185307179586
  0
LINE
  5
4D1
330
34B
100
AcDbEntity
  8
0
  6
Continuous
 62
     7
100
AcDbLine
 10
1696.116120267759
 20
880.4275242613506
 30
0.0
 11
1417.484161727466
 21
823.552013890014
 31
0.0
  0
ELLIPSE
  5
4D2
330
34B
100
AcDbEntity
  8
0
  6
Continuous
 62
     7
100
AcDbEllipse
 10
1699.908491557599
 20
881.2016388092908
 30
0.0
 11
4.185250820383012
 21
1.985892590513738
 31
0.0
210
0.0
220
0.0
230
1.0
 40
0.3419987131196465
 41
2.460435723848048
 42
2.517069767390537
  0
ELLIPSE
  5
4D3
330
34B
100
AcDbEntity
  8
0
  6
Continuous
 62
     7
100
AcDbEllipse
 10
1699.908491557599
 20
881.2016388092905
 30
0.0
 11
2.479171606974306
 21
-5.224831922694961
 31
0.0
210
0.0
220
0.0
230
1.0
 40
0.6583306249916992
 41
4.55151370318624
 42
4.608147746728724
  0
ELLIPSE
  5
4D4
330
34B
100
AcDbEntity
  8
0
  6
Continuous
 62
     7
100
AcDbEllipse
 10
1407.895902239946
 20
840.655563619042
 30
0.0
 11
4.240000000000243
 21
0.0
 31
0.0
210
0.0
220
0.0
230
1.0
 40
0.408248290463863
 41
1.192048690672358
 42
1.949543962917215
  0
ELLIPSE
  5
4D5
330
34B
100
AcDbEntity
  8
0
  6
Continuous
 62
     7
100
AcDbEllipse
 10
1700.015822820519
 20
881.1140032000899
 30
0.0
 11
2.681611455822796
 21
3.28428987758389
 31
0.0000000000000001
210
0.0
220
0.0
230
1.0
 40
0.8164965809277262
 41
6.28318530717957
 42
8.582745753829319
  0
ELLIPSE
  5
4D6
330
34B
100
AcDbEntity
  8
0
  6
Continuous
 62
     7
100
AcDbEllipse
 10
1700.015822820519
 20
881.1140032000899
 30
0.0
 11
2.681611455822796
 21
3.28428987758389
 31
0.0000000000000001
210
0.0
220
0.0
230
1.0
 40
0.8164965809277262
 41
3.141592653589662
 42
5.441153100239788
  0
ELLIPSE
  5
4D7
330
34B
100
AcDbEntity
  8
0
  6
Continuous
 62
     7
100
AcDbEllipse
 10
1698.942510191319
 20
881.9903592920981
 30
0.0
 11
-2.681611455823018
 21
-3.284289877584113
 31
0.0
210
0.0
220
0.0
230
1.0
 40
0.8164965809277264
 41
0.2014850516697829
 42
2.940107601921105
  0
ELLIPSE
  5
4D8
330
34B
100
AcDbEntity
  8
0
  6
Continuous
 62
     7
100
AcDbEllipse
 10
1699.908491557599
 20
881.2016388092908
 30
0.0
 11
4.185250820383012
 21
1.985892590513738
 31
0.0
210
0.0
220
0.0
230
1.0
 40
0.3419987131196465
 41
5.658662420980586
 42
5.715296464523071
  0
ELLIPSE
  5
4D9
330
34B
100
AcDbEntity
  8
0
  6
Continuous
 62
     7
100
AcDbEllipse
 10
1699.908491557599
 20
881.2016388092905
 30
0.0
 11
2.479171606974306
 21
-5.224831922694961
 31
0.0
210
0.0
220
0.0
230
1.0
 40
0.6583306249916992
 41
1.353287006054219
 42
1.409921049596703
  0
ELLIPSE
  5
4DA
330
34B
100
AcDbEntity
  8
0
  6
Continuous
 62
     7
100
AcDbEllipse
 10
1694.11260335992
 20
901.1606488047789
 30
0.0
 11
-2.120000000000565
 21
0.0
 31
0.0
210
0.0
220
0.0
230
1.0
 40
0.4082482904638633
 41
5.81953769817892
 42
6.219858158166848
  0
ELLIPSE
  5
4DB
330
34B
100
AcDbEntity
  8
0
  6
Continuous
 62
     7
100
AcDbEllipse
 10
1694.11260335992
 20
899.2253624349272
 30
0.0
 11
4.239999999999799
 21
0.0
 31
0.0
210
0.0
220
0.0
230
1.0
 40
0.4082482904638633
 41
1.138727231040882
 42
2.002865422549048
  0
ELLIPSE
  5
4DC
330
34B
100
AcDbEntity
  8
0
  6
Continuous
 62
     7
100
AcDbEllipse
 10
1694.11260335992
 20
901.1606488047789
 30
0.0
 11
-2.120000000000565
 21
0.0
 31
0.0
210
0.0
220
0.0
230
1.0
 40
0.4082482904638631
 41
3.605240262590553
 42
5.81953769817892
  0
ELLIPSE
  5
4DD
330
34B
100
AcDbEntity
  8
0
  6
Continuous
 62
     7
100
AcDbEllipse
 10
1694.11260335992
 20
901.1606488047789
 30
0.0
 11
-2.120000000000565
 21
0.0
 31
-0.0000000000000001
210
-0.0000000000000001
220
0.0
230
1.0
 40
0.4082482904638631
 41
3.204919802244177
 42
3.605240262590555
  0
ELLIPSE
  5
4DE
330
34B
100
AcDbEntity
  8
0
  6
Continuous
 62
     7
100
AcDbEllipse
 10
1694.11260335992
 20
901.2701933162805
 30
0.0
 11
-2.120000000000565
 21
0.0
 31
0.0
210
0.0
220
0.0
230
1.0
 40
0.4082482904638633
 41
0.0000000000000786
 42
0.4636476090007301
  0
ELLIPSE
  5
4DF
330
34B
100
AcDbEntity
  8
0
  6
Continuous
 62
     7
100
AcDbEllipse
 10
1694.11260335992
 20
901.2701933162805
 30
0.0
 11
-2.120000000000565
 21
0.0
 31
0.0
210
0.0
220
0.0
230
1.0
 40
0.4082482904638633
 41
3.14159265358974
 42
6.283185307179664
  0
LINE
  5
4E0
330
34B
100
AcDbEntity
  8
0
  6
Continuous
 62
     7
100
AcDbLine
 10
1982.332821387733
 20
938.8512637285684
 30
0.0
 11
1703.700862847439
 21
881.9757533572319
 31
0.0
  0
ELLIPSE
  5
4E1
330
34B
100
AcDbEntity
  8
0
  6
Continuous
 62
     7
100
AcDbEllipse
 10
1986.125192677572
 20
939.6253782765088
 30
0.0
 11
4.185250820383012
 21
1.985892590513738
 31
0.0
210
0.0
220
0.0
230
1.0
 40
0.3419987131196465
 41
2.46043572384804
 42
2.517069767390523
  0
ELLIPSE
  5
4E2
330
34B
100
AcDbEntity
  8
0
  6
Continuous
 62
     7
100
AcDbEllipse
 10
1986.125192677572
 20
939.6253782765082
 30
0.0
 11
2.479171606974306
 21
-5.224831922694961
 31
0.0
210
0.0
220
0.0
230
1.0
 40
0.6583306249916992
 41
4.551513703186226
 42
4.60814774672871
  0
ELLIPSE
  5
4E3
330
34B
100
AcDbEntity
  8
0
  6
Continuous
 62
     7
100
AcDbEllipse
 10
1694.11260335992
 20
899.0793030862599
 30
0.0
 11
4.239999999999799
 21
0.0
 31
0.0000000000000003
210
-0.0000000000000001
220
0.0
230
1.0
 40
0.408248290463863
 41
1.192048690555556
 42
1.949543963034334
  0
ELLIPSE
  5
4E4
330
34B
100
AcDbEntity
  8
0
  6
Continuous
 62
     7
100
AcDbEllipse
 10
1986.232523940492
 20
939.5377426673077
 30
0.0
 11
2.681611455822574
 21
3.284289877583558
 31
0.0000000000000001
210
0.0
220
0.0
230
1.0
 40
0.8164965809277262
 41
0.0000000000000248
 42
2.299560446649669
  0
ELLIPSE
  5
4E5
330
34B
100
AcDbEntity
  8
0
  6
Continuous
 62
     7
100
AcDbEllipse
 10
1986.232523940492
 20
939.5377426673077
 30
0.0
 11
2.681611455822574
 21
3.284289877583558
 31
0.0000000000000001
210
0.0
220
0.0
230
1.0
 40
0.8164965809277262
 41
3.141592653589745
 42
5.441153100239749
  0
ELLIPSE
  5
4E6
330
34B
100
AcDbEntity
  8
0
  6
Continuous
 62
     7
100
AcDbEllipse
 10
1985.159211311292
 20
940.4140987593159
 30
0.0
 11
-2.681611455822796
 21
-3.28428987758389
 31
-0.0000000000000001
210
-0.0000000000000001
220
0.0
230
1.0
 40
0.8164965809277259
 41
0.2014850517905379
 42
2.940107601797601
  0
ELLIPSE
  5
4E7
330
34B
100
AcDbEntity
  8
0
  6
Continuous
 62
     7
100
AcDbEllipse
 10
1986.125192677572
 20
939.6253782765088
 30
0.0
 11
4.185250820383012
 21
1.985892590513738
 31
0.0
210
0.0
220
0.0
230
1.0
 40
0.3419987131196465
 41
5.658662420980601
 42
5.715296464523086
  0
ELLIPSE
  5
4E8
330
34B
100
AcDbEntity
  8
0
  6
Continuous
 62
     7
100
AcDbEllipse
 10
1986.125192677572
 20
939.6253782765082
 30
0.0
 11
2.479171606974306
 21
-5.224831922694961
 31
0.0
210
0.0
220
0.0
230
1.0
 40
0.6583306249916992
 41
1.353287006054233
 42
1.409921049596717
  0
ELLIPSE
  5
4E9
330
34B
100
AcDbEntity
  8
0
  6
Continuous
 62
     7
100
AcDbEllipse
 10
1980.329304479893
 20
959.5843882719968
 30
0.0
 11
-2.120000000000121
 21
0.0
 31
0.0
210
0.0
220
0.0
230
1.0
 40
0.4082482904638633
 41
5.819537698178943
 42
6.219858178761371
  0
ELLIPSE
  5
4EA
330
34B
100
AcDbEntity
  8
0
  6
Continuous
 62
     7
100
AcDbEllipse
 10
1980.329304479893
 20
957.6491019021451
 30
0.0
 11
4.239999999999799
 21
0.0
 31
0.0
210
0.0
220
0.0
230
1.0
 40
0.4082482904638633
 41
1.13872723114217
 42
2.002865422447746
  0
ELLIPSE
  5
4EB
330
34B
100
AcDbEntity
  8
0
  6
Continuous
 62
     7
100
AcDbEllipse
 10
1980.329304479893
 20
959.5843882719968
 30
0.0
 11
-2.120000000000121
 21
0.0
 31
0.0
210
0.0
220
0.0
230
1.0
 40
0.4082482904638631
 41
3.605240262590668
 42
5.819537698178943
  0
ELLIPSE
  5
4EC
330
34B
100
AcDbEntity
  8
0
  6
Continuous
 62
     7
100
AcDbEllipse
 10
1980.329304479893
 20
959.5843882719968
 30
0.0
 11
-2.120000000000121
 21
0.0
 31
0.0
210
0.0
220
0.0
230
1.0
 40
0.4082482904638631
 41
3.204919781619691
 42
3.605240262590671
  0
ELLIPSE
  5
4ED
330
34B
100
AcDbEntity
  8
0
  6
Continuous
 62
     7
100
AcDbEllipse
 10
1980.329304479893
 20
959.6939327834983
 30
0.0
 11
-2.120000000000121
 21
0.0
 31
0.0
210
0.0
220
0.0
230
1.0
 40
0.4082482904638633
 41
6.283185307179454
 42
6.746832916180462
  0
ELLIPSE
  5
4EE
330
34B
100
AcDbEntity
  8
0
  6
Continuous
 62
     7
100
AcDbEllipse
 10
1980.329304479893
 20
959.6939327834983
 30
0.0
 11
-2.120000000000121
 21
0.0
 31
0.0
210
0.0
220
0.0
230
1.0
 40
0.4082482904638633
 41
3.141592653589531
 42
6.283185307179454
  0
LINE
  5
4EF
330
34B
100
AcDbEntity
  8
0
  6
Continuous
 62
     7
100
AcDbLine
 10
2268.549522507705
 20
997.2750031957861
 30
0.0
 11
1989.917563967412
 21
940.3994928244497
 31
0.0
  0
ELLIPSE
  5
4F0
330
34B
100
AcDbEntity
  8
0
  6
Continuous
 62
     7
100
AcDbEllipse
 10
2272.341893797545
 20
998.0491177437261
 30
0.0
 11
4.185250820382791
 21
1.985892590513849
 31
0.0
210
0.0
220
0.0
230
1.0
 40
0.3419987131196465
 41
2.460435723848025
 42
2.51706976739051
  0
ELLIPSE
  5
4F1
330
34B
100
AcDbEntity
  8
0
  6
Continuous
 62
     7
100
AcDbEllipse
 10
2272.341893797546
 20
998.0491177437258
 30
0.0
 11
2.479171606974528
 21
-5.224831922694961
 31
0.0
210
0.0
220
0.0
230
1.0
 40
0.6583306249916992
 41
4.551513703186212
 42
4.608147746728697
  0
ELLIPSE
  5
4F2
330
34B
100
AcDbEntity
  8
0
  6
Continuous
 62
     7
100
AcDbEllipse
 10
1980.329304479893
 20
957.5030425534775
 30
0.0
 11
4.239999999999799
 21
0.0
 31
0.0
210
0.0
220
0.0
230
1.0
 40
0.4082482904638633
 41
1.192048690687437
 42
1.949543962902453
  0
ELLIPSE
  5
4F3
330
34B
100
AcDbEntity
  8
0
  6
Continuous
 62
     7
100
AcDbEllipse
 10
2272.449225060466
 20
997.9614821345252
 30
0.0
 11
2.681611455822352
 21
3.284289877583557
 31
0.0000000000000001
210
0.0
220
0.0
230
0.9999999999999998
 40
0.8164965809277262
 41
0.0000000000000248
 42
2.299560446649669
  0
ELLIPSE
  5
4F4
330
34B
100
AcDbEntity
  8
0
  6
Continuous
 62
     7
100
AcDbEllipse
 10
2272.449225060466
 20
997.9614821345252
 30
0.0
 11
2.681611455822352
 21
3.284289877583557
 31
0.0000000000000001
210
0.0
220
0.0
230
0.9999999999999998
 40
0.8164965809277262
 41
3.141592653589745
 42
5.441153100239749
  0
ELLIPSE
  5
4F5
330
34B
100
AcDbEntity
  8
0
  6
Continuous
 62
     7
100
AcDbEllipse
 10
2271.375912431266
 20
998.8378382265334
 30
0.0
 11
-2.681611455822796
 21
-3.28428987758389
 31
0.0
210
0.0
220
0.0
230
1.0
 40
0.8164965809277264
 41
0.201485052021996
 42
2.940107601565724
  0
ELLIPSE
  5
4F6
330
34B
100
AcDbEntity
  8
0
  6
Continuous
 62
     7
100
AcDbEllipse
 10
2272.341893797545
 20
998.0491177437261
 30
0.0
 11
4.185250820382791
 21
1.985892590513849
 31
0.0
210
0.0
220
0.0
230
1.0
 40
0.3419987131196465
 41
5.658662420980615
 42
5.715296464523099
  0
ELLIPSE
  5
4F7
330
34B
100
AcDbEntity
  8
0
  6
Continuous
 62
     7
100
AcDbEllipse
 10
2272.341893797546
 20
998.0491177437258
 30
0.0
 11
2.479171606974528
 21
-5.224831922694961
 31
0.0
210
0.0
220
0.0
230
1.0
 40
0.6583306249916992
 41
1.353287006054247
 42
1.409921049596731
  0
ELLIPSE
  5
4F8
330
34B
100
AcDbEntity
  8
0
  6
Continuous
 62
     7
100
AcDbEllipse
 10
2266.546005599866
 20
1018.008127739214
 30
0.0
 11
-2.120000000000121
 21
0.0
 31
0.0
210
0.0
220
0.0
230
1.0
 40
0.4082482904638633
 41
5.819537698178827
 42
6.219858149286507
  0
ELLIPSE
  5
4F9
330
34B
100
AcDbEntity
  8
0
  6
Continuous
 62
     7
100
AcDbEllipse
 10
2266.546005599866
 20
1016.072841369363
 30
0.0
 11
4.239999999999799
 21
0.0
 31
0.0
210
0.0
220
0.0
230
1.0
 40
0.4082482904638633
 41
1.138727230956612
 42
2.002865422633181
  0
ELLIPSE
  5
4FA
330
34B
100
AcDbEntity
  8
0
  6
Continuous
 62
     7
100
AcDbEllipse
 10
2266.546005599866
 20
1018.008127739214
 30
0.0
 11
-2.120000000000121
 21
0.0
 31
0.0
210
0.0
220
0.0
230
1.0
 40
0.4082482904638631
 41
3.605240262590553
 42
5.819537698178827
  0
ELLIPSE
  5
4FB
330
34B
100
AcDbEntity
  8
0
  6
Continuous
 62
     7
100
AcDbEllipse
 10
2266.546005599866
 20
1018.008127739214
 30
0.0
 11
-2.120000000000121
 21
0.0
 31
0.0
210
0.0
220
0.0
230
1.0
 40
0.4082482904638629
 41
3.204919811210901
 42
3.605240262590553
  0
ELLIPSE
  5
4FC
330
34B
100
AcDbEntity
  8
0
  6
Continuous
 62
     7
100
AcDbEllipse
 10
2266.546005599866
 20
1018.117672250716
 30
0.0
 11
-2.120000000000121
 21
0.0
 31
0.0
210
0.0
220
0.0
230
1.0
 40
0.4082482904638633
 41
6.283185307179532
 42
6.74683291618041
  0
ELLIPSE
  5
4FD
330
34B
100
AcDbEntity
  8
0
  6
Continuous
 62
     7
100
AcDbEllipse
 10
2266.546005599866
 20
1018.117672250716
 30
0.0
 11
-2.120000000000121
 21
0.0
 31
0.0
210
0.0
220
0.0
230
1.0
 40
0.4082482904638633
 41
3.141592653589479
 42
6.283185307179534
  0
LINE
  5
4FE
330
34B
100
AcDbEntity
  8
0
  6
Continuous
 62
     7
100
AcDbLine
 10
2554.766223627679
 20
1055.698742663004
 30
0.0
 11
2276.134265087385
 21
998.8232322916674
 31
0.0
  0
ELLIPSE
  5
4FF
330
34B
100
AcDbEntity
  8
0
  6
Continuous
 62
     7
100
AcDbEllipse
 10
2558.558594917518
 20
1056.472857210944
 30
0.0
 11
4.185250820382791
 21
1.985892590513849
 31
0.0
210
0.0
220
0.0
230
1.0
 40
0.3419987131196465
 41
2.460435723848012
 42
2.517069767390495
  0
ELLIPSE
  5
500
330
34B
100
AcDbEntity
  8
0
  6
Continuous
 62
     7
100
AcDbEllipse
 10
2558.558594917519
 20
1056.472857210943
 30
0.0
 11
2.479171606974528
 21
-5.224831922695072
 31
0.0
210
0.0
220
0.0
230
1.0
 40
0.6583306249916992
 41
4.551513703186198
 42
4.608147746728683
  0
ELLIPSE
  5
501
330
34B
100
AcDbEntity
  8
0
  6
Continuous
 62
     7
100
AcDbEllipse
 10
2266.546005599866
 20
1015.926782020695
 30
0.0
 11
4.239999999999799
 21
0.0
 31
0.0
210
0.0
220
0.0
230
1.0
 40
0.4082482904638633
 41
1.192048690535625
 42
1.949543963054168
  0
ELLIPSE
  5
502
330
34B
100
AcDbEntity
  8
0
  6
Continuous
 62
     7
100
AcDbEllipse
 10
2558.665926180438
 20
1056.385221601743
 30
0.0
 11
2.681611455822352
 21
3.284289877583557
 31
0.0000000000000001
210
0.0
220
0.0
230
0.9999999999999998
 40
0.8164965809277262
 41
0.0000000000000248
 42
2.299560446649643
  0
ELLIPSE
  5
503
330
34B
100
AcDbEntity
  8
0
  6
Continuous
 62
     7
100
AcDbEllipse
 10
2558.665926180438
 20
1056.385221601743
 30
0.0
 11
2.681611455822352
 21
3.284289877583557
 31
0.0000000000000001
210
0.0
220
0.0
230
0.9999999999999998
 40
0.8164965809277262
 41
3.141592653589745
 42
5.441153100239775
  0
ELLIPSE
  5
504
330
34B
100
AcDbEntity
  8
0
  6
Continuous
 62
     7
100
AcDbEllipse
 10
2557.592613551239
 20
1057.261577693751
 30
0.0
 11
-2.681611455822797
 21
-3.284289877584001
 31
-0.0000000000000001
210
0.0
220
0.0
230
1.0
 40
0.816496580927726
 41
0.2014850518305515
 42
2.9401076017979
  0
ELLIPSE
  5
505
330
34B
100
AcDbEntity
  8
0
  6
Continuous
 62
     7
100
AcDbEllipse
 10
2558.558594917518
 20
1056.472857210944
 30
0.0
 11
4.185250820382791
 21
1.985892590513849
 31
0.0
210
0.0
220
0.0
230
1.0
 40
0.3419987131196465
 41
5.658662420980628
 42
5.715296464523113
  0
ELLIPSE
  5
506
330
34B
100
AcDbEntity
  8
0
  6
Continuous
 62
     7
100
AcDbEllipse
 10
2558.558594917519
 20
1056.472857210943
 30
0.0
 11
2.479171606974528
 21
-5.224831922695072
 31
0.0
210
0.0
220
0.0
230
1.0
 40
0.6583306249916992
 41
1.35328700605426
 42
1.409921049596745
  0
ELLIPSE
  5
507
330
34B
100
AcDbEntity
  8
0
  6
Continuous
 62
     7
100
AcDbEllipse
 10
2552.762706719839
 20
1076.431867206432
 30
0.0
 11
-2.120000000000121
 21
0.0
 31
0.0
210
0.0
220
0.0
230
1.0
 40
0.4082482904638633
 41
5.819537698178996
 42
6.219858208806495
  0
ELLIPSE
  5
508
330
34B
100
AcDbEntity
  8
0
  6
Continuous
 62
     7
100
AcDbEllipse
 10
2552.762706719839
 20
1074.49658083658
 30
0.0
 11
4.240000000000243
 21
0.0
 31
0.0
210
0.0
220
0.0
230
1.0
 40
0.4082482904638633
 41
1.138727231075076
 42
2.00286542251462
  0
ELLIPSE
  5
509
330
34B
100
AcDbEntity
  8
0
  6
Continuous
 62
     7
100
AcDbEllipse
 10
2552.762706719839
 20
1076.431867206432
 30
0.0
 11
-2.120000000000121
 21
0.0
 31
0.0
210
0.0
220
0.0
230
1.0
 40
0.4082482904638631
 41
3.605240262590604
 42
5.819537698178996
  0
ELLIPSE
  5
50A
330
34B
100
AcDbEntity
  8
0
  6
Continuous
 62
     7
100
AcDbEllipse
 10
2552.762706719839
 20
1076.431867206432
 30
0.0
 11
-2.120000000000121
 21
0.0
 31
0.0
210
0.0
220
0.0
230
1.0
 40
0.4082482904638633
 41
3.204919751566333
 42
3.605240262590605
  0
ELLIPSE
  5
50B
330
34B
100
AcDbEntity
  8
0
  6
Continuous
 62
     7
100
AcDbEllipse
 10
2552.762706719839
 20
1076.541411717933
 30
0.0
 11
-2.120000000000121
 21
0.0
 31
0.0
210
0.0
220
0.0
230
1.0
 40
0.4082482904638633
 41
6.283185307179454
 42
6.746832916180462
  0
ELLIPSE
  5
50C
330
34B
100
AcDbEntity
  8
0
  6
Continuous
 62
     7
100
AcDbEllipse
 10
2552.762706719839
 20
1076.541411717933
 30
0.0
 11
-2.120000000000121
 21
0.0
 31
0.0
210
0.0
220
0.0
230
1.0
 40
0.4082482904638633
 41
3.141592653589531
 42
6.283185307179454
  0
LINE
  5
50D
330
34B
100
AcDbEntity
  8
0
  6
Continuous
 62
     7
100
AcDbLine
 10
2630.220101460432
 20
1071.21024549155
 30
0.0
 11
2630.112770197512
 21
1071.078792077749
 31
0.0
  0
LINE
  5
50E
330
34B
100
AcDbEntity
  8
0
  6
Continuous
 62
     7
100
AcDbLine
 10
2630.112770197512
 20
1071.078792077749
 30
0.0
 11
2562.350966207358
 21
1057.246971758885
 31
0.0
  0
LINE
  5
50F
330
34B
100
AcDbEntity
  8
0
  6
Continuous
 62
     7
100
AcDbLine
 10
2630.112770197512
 20
1071.078792077749
 30
0.0
 11
2630.220101460432
 21
1070.772067445546
 31
0.0
  0
ELLIPSE
  5
510
330
34B
100
AcDbEntity
  8
0
  6
Continuous
 62
     7
100
AcDbEllipse
 10
2552.762706719839
 20
1074.350521487913
 30
0.0
 11
4.240000000000243
 21
0.0
 31
0.0
210
0.0
220
0.0
230
1.0
 40
0.4082482904638633
 41
1.192048690760382
 42
1.949543962829167
  0
LINE
  5
511
330
34B
100
AcDbEntity
  8
0
  6
Continuous
 62
     7
100
AcDbLine
 10
2629.206120094153
 20
1083.40765716277
 30
0.0
 11
-948.5026439055115
 21
353.1109138225484
 31
0.0
  0
LINE
  5
512
330
34B
100
AcDbEntity
  8
0
  6
Continuous
 62
     7
100
AcDbLine
 10
-948.4066439055114
 20
329.855353399719
 30
0.0
 11
2629.302120094151
 21
1060.152096739941
 31
0.0
  0
LINE
  5
513
330
34B
100
AcDbEntity
  8
0
  6
Continuous
 62
     7
100
AcDbLine
 10
-948.5619751684318
 20
336.6620388987342
 30
0.0
 11
-950.5409410066112
 21
336.2580841885726
 31
0.0
  0
LINE
  5
514
330
34B
100
AcDbEntity
  8
0
  6
Continuous
 62
     7
100
AcDbLine
 10
-956.1024948357507
 20
356.1645400348306
 30
0.0
 11
-951.4892443189511
 21
357.106215853313
 31
0.0
  0
LINE
  5
515
330
34B
100
AcDbEntity
  8
0
  6
Continuous
 62
     7
100
AcDbLine
 10
-957.0769220267511
 20
361.4387916881645
 30
0.0
 11
-958.3771200941507
 21
361.1733898690244
 31
0.0
  0
LINE
  5
516
330
34B
100
AcDbEntity
  8
0
  6
Continuous
 62
     7
100
AcDbLine
 10
2561.152158105366
 20
1059.323473517236
 30
0.0
 11
2555.714677772718
 21
1058.213552492119
 31
0.0
  0
LINE
  5
517
330
34B
100
AcDbEntity
  8
0
  6
Continuous
 62
     7
100
AcDbLine
 10
2274.935456985392
 20
1000.899734050019
 30
0.0
 11
2269.497976652745
 21
999.7898130249017
 31
0.0
  0
LINE
  5
518
330
34B
100
AcDbEntity
  8
0
  6
Continuous
 62
     7
100
AcDbLine
 10
1988.718755865419
 20
942.4759945828011
 30
0.0
 11
1983.281275532771
 21
941.366073557684
 31
0.0
  0
LINE
  5
519
330
34B
100
AcDbEntity
  8
0
  6
Continuous
 62
     7
100
AcDbLine
 10
1702.502054745445
 20
884.0522551155833
 30
0.0
 11
1697.064574412797
 21
882.9423340904661
 31
0.0
  0
LINE
  5
51A
330
34B
100
AcDbEntity
  8
0
  6
Continuous
 62
     7
100
AcDbLine
 10
1416.285353625473
 20
825.6285156483656
 30
0.0
 11
1410.847873292824
 21
824.5185946232483
 31
0.0
  0
LINE
  5
51B
330
34B
100
AcDbEntity
  8
0
  6
Continuous
 62
     7
100
AcDbLine
 10
1130.0686525055
 20
767.2047761811479
 30
0.0
 11
1124.631172172851
 21
766.0948551560306
 31
0.0
  0
LINE
  5
51C
330
34B
100
AcDbEntity
  8
0
  6
Continuous
 62
     7
100
AcDbLine
 10
843.8519513855267
 20
708.7810367139302
 30
0.0
 11
838.4144710528785
 21
707.6711156888129
 31
0.0
  0
LINE
  5
51D
330
34B
100
AcDbEntity
  8
0
  6
Continuous
 62
     7
100
AcDbLine
 10
557.6352502655537
 20
650.3572972467123
 30
0.0
 11
552.1977699329052
 21
649.247376221595
 31
0.0
  0
LINE
  5
51E
330
34B
100
AcDbEntity
  8
0
  6
Continuous
 62
     7
100
AcDbLine
 10
271.4185491455808
 20
591.9335577794946
 30
0.0
 11
265.9810688129321
 21
590.8236367543772
 31
0.0
  0
LINE
  5
51F
330
34B
100
AcDbEntity
  8
0
  6
Continuous
 62
     7
100
AcDbLine
 10
-14.79815197439244
 20
533.5098183122767
 30
0.0
 11
-20.23563230704068
 21
532.3998972871595
 31
0.0
  0
LINE
  5
520
330
34B
100
AcDbEntity
  8
0
  6
Continuous
 62
     7
100
AcDbLine
 10
-301.0148530943654
 20
475.0860788450591
 30
0.0
 11
-306.452333427014
 21
473.9761578199418
 31
0.0
  0
LINE
  5
521
330
34B
100
AcDbEntity
  8
0
  6
Continuous
 62
     7
100
AcDbLine
 10
-587.2315542143383
 20
416.6623393778414
 30
0.0
 11
-592.6690345469869
 21
415.5524183527241
 31
0.0
  0
LINE
  5
522
330
34B
100
AcDbEntity
  8
0
  6
Continuous
 62
     7
100
AcDbLine
 10
-873.4482553343111
 20
358.2385999106238
 30
0.0
 11
-878.8857356669607
 21
357.1286788855062
 31
0.0
  0
LINE
  5
523
330
34B
100
AcDbEntity
  8
0
  6
Continuous
 62
     7
100
AcDbLine
 10
-948.5619751684318
 20
342.9060760542931
 30
0.0
 11
-956.6588229930509
 21
341.2533139130197
 31
0.0
  0
LINE
  5
524
330
34B
100
AcDbEntity
  8
0
  6
Continuous
 62
     7
100
AcDbLine
 10
-958.2811200941504
 20
337.9178294461951
 30
0.0
 11
-956.8726991143908
 21
338.2053221748153
 31
0.0
  0
ENDBLK
  5
525
330
34B
100
AcDbEntity
  8
0
100
AcDbBlockEnd
  0
ENDSEC
  0
SECTION
  2
ENTITIES
  0
LINE
  5
17D
330
A
100
AcDbEntity
  8
0
  6
CENTER
 62
     1
100
AcDbLine
 10
132.9815441536365
 20
16.01979771062955
 30
0.0
 11
257.8732217115462
 21
16.01979771062955
 31
0.0
  0
LINE
  5
17E
330
A
100
AcDbEntity
  8
0
  6
CENTER
 62
     1
100
AcDbLine
 10
533.0006440874577
 20
16.01979771062955
 30
0.0
 11
657.8923216453674
 21
16.01979771062955
 31
0.0
  0
LINE
  5
17F
330
A
100
AcDbEntity
  8
0
  6
CENTER
 62
     1
100
AcDbLine
 10
595.4464828664124
 20
-46.42604106832584
 30
0.0
 11
595.4464828664124
 21
78.46563648958502
 31
0.0
  0
LINE
  5
180
330
A
100
AcDbEntity
  8
0
  6
CENTER
 62
     1
100
AcDbLine
 10
933.0197440212788
 20
16.01979771062955
 30
0.0
 11
1057.911421579188
 21
16.01979771062955
 31
0.0
  0
LINE
  5
181
330
A
100
AcDbEntity
  8
0
  6
CENTER
 62
     1
100
AcDbLine
 10
995.4655828002335
 20
-46.42604106832584
 30
0.0
 11
995.4655828002335
 21
78.46563648958502
 31
0.0
  0
LINE
  5
182
330
A
100
AcDbEntity
  8
0
  6
CENTER
 62
     1
100
AcDbLine
 10
1333.0388439551
 20
16.01979771062955
 30
0.0
 11
1457.930521513009
 21
16.01979771062955
 31
0.0
  0
LINE
  5
183
330
A
100
AcDbEntity
  8
0
  6
CENTER
 62
     1
100
AcDbLine
 10
1395.484682734055
 20
-46.42604106832481
 30
0.0
 11
1395.484682734055
 21
78.46563648958398
 31
0.0
  0
LINE
  5
184
330
A
100
AcDbEntity
  8
0
  6
CENTER
 62
     1
100
AcDbLine
 10
1733.057943888922
 20
16.01979771062955
 30
0.0
 11
1857.949621446831
 21
16.01979771062955
 31
0.0
  0
LINE
  5
185
330
A
100
AcDbEntity
  8
0
  6
CENTER
 62
     1
100
AcDbLine
 10
1795.503782667876
 20
-46.42604106832584
 30
0.0
 11
1795.503782667876
 21
78.46563648958502
 31
0.0
  0
LINE
  5
186
330
A
100
AcDbEntity
  8
0
  6
CENTER
 62
     1
100
AcDbLine
 10
2133.077043822743
 20
16.01979771062955
 30
0.0
 11
2257.968721380653
 21
16.01979771062955
 31
0.0
  0
LINE
  5
187
330
A
100
AcDbEntity
  8
0
  6
CENTER
 62
     1
100
AcDbLine
 10
2195.522882601698
 20
-46.42604106832584
 30
0.0
 11
2195.522882601698
 21
78.46563648958502
 31
0.0
  0
LINE
  5
188
330
A
100
AcDbEntity
  8
0
  6
CENTER
 62
     1
100
AcDbLine
 10
2533.096143756565
 20
16.01979771062955
 30
0.0
 11
2657.987821314474
 21
16.01979771062955
 31
0.0
  0
LINE
  5
189
330
A
100
AcDbEntity
  8
0
  6
CENTER
 62
     1
100
AcDbLine
 10
2595.541982535519
 20
-46.42604106832584
 30
0.0
 11
2595.541982535519
 21
78.46563648958502
 31
0.0
  0
LINE
  5
279
330
A
100
AcDbEntity
  8
0
  6
CENTER
 62
     1
100
AcDbLine
 10
35.40486796721391
 20
16.02141275576055
 30
0.0
 11
27.83230879221277
 21
16.02141275576055
 31
0.0
  0
LINE
  5
27A
330
A
100
AcDbEntity
  8
0
  6
CENTER
 62
     1
100
AcDbLine
 10
16.61634850471379
 20
38.06275193275583
 30
0.0
 11
16.61634850471379
 21
29.74241517224963
 31
0.0
  0
LINE
  5
2E9
330
A
100
AcDbEntity
  8
0
  6
CENTER
 62
     1
100
AcDbLine
 10
-1.024333642282494
 20
16.02141275576055
 30
0.0
 11
7.296003118223435
 21
16.02141275576055
 31
0.0
  0
LINE
  5
2F4
330
A
100
AcDbEntity
  8
0
  6
CENTER
 62
     1
100
AcDbLine
 10
2933.115243690385
 20
16.01979771062852
 30
0.0
 11
3058.006921248296
 21
16.01979771062852
 31
0.0
  0
LINE
  5
2F5
330
A
100
AcDbEntity
  8
0
  6
CENTER
 62
     1
100
AcDbLine
 10
2995.561082469341
 20
-46.42604106832688
 30
0.0
 11
2995.561082469341
 21
78.46563648958398
 31
0.0
  0
LINE
  5
300
330
A
100
AcDbEntity
  8
0
  6
CENTER
 62
     1
100
AcDbLine
 10
3333.134343624208
 20
16.01979771062852
 30
0.0
 11
3458.026021182116
 21
16.01979771062852
 31
0.0
  0
LINE
  5
301
330
A
100
AcDbEntity
  8
0
  6
CENTER
 62
     1
100
AcDbLine
 10
3395.580182403162
 20
-46.42604106832584
 30
0.0
 11
3395.580182403162
 21
78.46563648958294
 31
0.0
  0
LINE
  5
302
330
A
100
AcDbEntity
  8
0
  6
CENTER
 62
     1
100
AcDbLine
 10
3733.153443558029
 20
16.01979771062852
 30
0.0
 11
3858.045121115937
 21
16.01979771062852
 31
0.0
  0
LINE
  5
303
330
A
100
AcDbEntity
  8
0
  6
CENTER
 62
     1
100
AcDbLine
 10
3795.599282336983
 20
-46.42604106832584
 30
0.0
 11
3795.599282336983
 21
78.46563648958294
 31
0.0
  0
LINE
  5
304
330
A
100
AcDbEntity
  8
0
  6
CENTER
 62
     1
100
AcDbLine
 10
4133.172543491848
 20
16.01979771062852
 30
0.0
 11
4258.064221049757
 21
16.01979771062852
 31
0.0
  0
LINE
  5
305
330
A
100
AcDbEntity
  8
0
  6
CENTER
 62
     1
100
AcDbLine
 10
4195.618382270803
 20
-46.42604106832584
 30
0.0
 11
4195.618382270803
 21
78.46563648958294
 31
0.0
  0
LINE
  5
306
330
A
100
AcDbEntity
  8
0
  6
CENTER
 62
     1
100
AcDbLine
 10
4533.191643425669
 20
16.01979771062852
 30
0.0
 11
4658.083320983579
 21
16.01979771062852
 31
0.0
  0
LINE
  5
307
330
A
100
AcDbEntity
  8
0
  6
CENTER
 62
     1
100
AcDbLine
 10
4595.637482204623
 20
-46.42604106832584
 30
0.0
 11
4595.637482204623
 21
78.46563648958294
 31
0.0
  0
LINE
  5
308
330
A
100
AcDbEntity
  8
0
  6
CENTER
 62
     1
100
AcDbLine
 10
4933.21074335949
 20
16.01979771062852
 30
0.0
 11
5058.1024209174
 21
16.01979771062852
 31
0.0
  0
LINE
  5
309
330
A
100
AcDbEntity
  8
0
  6
CENTER
 62
     1
100
AcDbLine
 10
4995.656582138446
 20
-46.42604106832584
 30
0.0
 11
4995.656582138446
 21
78.46563648958294
 31
0.0
  0
INSERT
  5
526
330
A
100
AcDbEntity
  8
0
100
AcDbBlockReference
  2
AID1373
 10
1522.613795343748
 20
-1418.464775062144
 30
0.0
 41
1.1430278
 42
1.1430278
 43
1.1430278
  0
LINE
  5
5F9
330
A
100
AcDbEntity
  8
0
  6
Continuous
 62
     7
370
     0
100
AcDbLine
 10
2.814287819712438
 20
10.72062133326069
 30
0.0
 11
2.814287819712438
 21
21.32220417826099
 31
0.0
  0
LINE
  5
5FA
330
A
100
AcDbEntity
  8
0
  6
Continuous
 62
     7
370
     0
100
AcDbLine
 10
2.814287819712438
 20
21.32220417826037
 30
0.0
 11
3.114332617213141
 21
21.32220417826037
 31
0.0
  0
LINE
  5
5FB
330
A
100
AcDbEntity
  8
0
  6
Continuous
 62
     7
370
     0
100
AcDbLine
 10
3.114332617213271
 20
21.32220417826037
 30
0.0
 11
3.114332617213271
 21
10.72062133326007
 31
0.0
  0
LINE
  5
5FC
330
A
100
AcDbEntity
  8
0
  6
Continuous
 62
     7
370
     0
100
AcDbLine
 10
3.114332617213271
 20
10.72062133326069
 30
0.0
 11
2.814287819712569
 21
10.72062133326069
 31
0.0
  0
ARC
  5
5FD
330
A
100
AcDbEntity
  8
0
  6
Continuous
 62
     7
370
     0
100
AcDbCircle
 10
1.114033967212848
 20
28.9333910553908
 30
0.0
 40
1.000149324999699
100
AcDbArc
 50
135.0
 51
180.0
  0
LINE
  5
5FE
330
A
100
AcDbEntity
  8
0
  6
Continuous
 62
     7
370
     0
100
AcDbLine
 10
0.4068215973067307
 20
29.64060342529796
 30
0.0
 11
2.602124108741468
 21
31.83590593673192
 31
0.0
  0
ARC
  5
5FF
330
A
100
AcDbEntity
  8
0
  6
Continuous
 62
     7
370
     0
100
AcDbCircle
 10
2.814287819712438
 20
31.6237422257602
 30
0.0
 40
0.3000447974996383
100
AcDbArc
 50
89.9999999998624
 51
134.999999999863
  0
ARC
  5
600
330
A
100
AcDbEntity
  8
0
  6
Continuous
 62
     7
370
     0
100
AcDbCircle
 10
2.814287819712438
 20
31.6237422257602
 30
0.0
 40
0.3000447975008236
100
AcDbArc
 50
359.9999999999593
 51
90.0
  0
LINE
  5
601
330
A
100
AcDbEntity
  8
0
  6
Continuous
 62
     7
370
     0
100
AcDbLine
 10
3.114332617213271
 20
31.6237422257602
 30
0.0
 11
3.114332617213271
 21
30.32354810326089
 31
0.0
  0
ARC
  5
602
330
A
100
AcDbEntity
  8
0
  6
Continuous
 62
     7
370
     0
100
AcDbCircle
 10
3.414377414713079
 20
30.3235481032607
 30
0.0
 40
0.3000447974998083
100
AcDbArc
 50
180.0
 51
270.0
  0
LINE
  5
603
330
A
100
AcDbEntity
  8
0
  6
Continuous
 62
     7
370
     0
100
AcDbLine
 10
3.414377414713079
 20
30.0235033057599
 30
0.0
 11
5.814735794713104
 21
30.0235033057599
 31
0.0
  0
ARC
  5
604
330
A
100
AcDbEntity
  8
0
  6
Continuous
 62
     7
370
     0
100
AcDbCircle
 10
5.814735794713576
 20
30.52357796826023
 30
0.0
 40
0.5000746624993422
100
AcDbArc
 50
270.0
 51
0.0
  0
LINE
  5
605
330
A
100
AcDbEntity
  8
0
  6
Continuous
 62
     7
370
     0
100
AcDbLine
 10
6.314810457212926
 20
30.52357796826023
 30
0.0
 11
6.314810457212926
 21
37.0245485807608
 31
0.0
  0
LINE
  5
606
330
A
100
AcDbEntity
  8
0
  6
Continuous
 62
     7
370
     0
100
AcDbLine
 10
6.314810457212926
 20
37.0245485807608
 30
0.0
 11
13.96595279346323
 21
37.0245485807608
 31
0.0
  0
LINE
  5
607
330
A
100
AcDbEntity
  8
0
  6
Continuous
 62
     7
370
     0
100
AcDbLine
 10
13.96595279346311
 20
36.87452618201091
 30
0.0
 11
13.96595279346311
 21
37.02454858076126
 31
0.0
  0
LINE
  5
608
330
A
100
AcDbEntity
  8
0
  6
Continuous
 62
     7
370
     0
100
AcDbLine
 10
11.31555708221344
 20
34.22413047076024
 30
0.0
 11
13.96595279346352
 21
36.87452618201033
 31
0.0
  0
LINE
  5
609
330
A
100
AcDbEntity
  8
0
  6
Continuous
 62
     7
370
     0
100
AcDbLine
 10
11.31555708221344
 20
34.0241006057597
 30
0.0
 11
11.31555708221344
 21
34.2241304707599
 31
0.0
  0
LINE
  5
60A
330
A
100
AcDbEntity
  8
0
  6
Continuous
 62
     7
370
     0
100
AcDbLine
 10
11.31555708221344
 20
34.0241006057597
 30
0.0
 11
9.315258432213818
 21
34.0241006057597
 31
0.0
  0
LINE
  5
60B
330
A
100
AcDbEntity
  8
0
  6
Continuous
 62
     7
370
     0
100
AcDbLine
 10
9.315258432213024
 20
34.0241006057597
 30
0.0
 11
9.315258432213024
 21
28.02320465576002
 31
0.0
  0
ARC
  5
60C
330
A
100
AcDbEntity
  8
0
  6
Continuous
 62
     7
370
     0
100
AcDbCircle
 10
8.815183769713689
 20
28.02320465576048
 30
0.0
 40
0.5000746624993422
100
AcDbArc
 50
270.0
 51
0.0
  0
LINE
  5
60D
330
A
100
AcDbEntity
  8
0
  6
Continuous
 62
     7
370
     0
100
AcDbLine
 10
8.815183769713689
 20
27.52312999326012
 30
0.0
 11
3.614407279713254
 21
27.52312999326012
 31
0.0
  0
ARC
  5
60E
330
A
100
AcDbEntity
  8
0
  6
Continuous
 62
     7
370
     0
100
AcDbCircle
 10
3.614407279712621
 20
27.02305533076077
 30
0.0
 40
0.5000746624993422
100
AcDbArc
 50
90.0
 51
180.0
  0
LINE
  5
60F
330
A
100
AcDbEntity
  8
0
  6
Continuous
 62
     7
370
     0
100
AcDbLine
 10
3.114332617213271
 20
27.02305533076077
 30
0.0
 11
3.114332617213271
 21
21.32220417826102
 31
0.0
  0
LINE
  5
610
330
A
100
AcDbEntity
  8
0
  6
Continuous
 62
     7
370
     0
100
AcDbLine
 10
0.1638921084627869
 20
18.6718084670107
 30
0.0
 11
2.814287819712861
 21
21.32220417826076
 31
0.0
  0
LINE
  5
611
330
A
100
AcDbEntity
  8
0
  6
Continuous
 62
     7
370
     0
100
AcDbLine
 10
0.1138846422131572
 20
18.6718084670107
 30
0.0
 11
0.1638921084630142
 21
18.6718084670107
 31
0.0
  0
LINE
  5
612
330
A
100
AcDbEntity
  8
0
  6
Continuous
 62
     7
370
     0
100
AcDbLine
 10
0.1138846422131572
 20
18.6718084670107
 30
0.0
 11
0.1138846422131572
 21
28.93339105539138
 31
0.0
  0
LINE
  5
613
330
A
100
AcDbEntity
  8
0
  6
Continuous
 62
     7
370
     0
100
AcDbLine
 10
30.11836439221327
 20
10.72062133326069
 30
0.0
 11
30.11836439221327
 21
21.32220417826099
 31
0.0
  0
LINE
  5
614
330
A
100
AcDbEntity
  8
0
  6
Continuous
 62
     7
370
     0
100
AcDbLine
 10
30.11836439221327
 20
21.32220417826037
 30
0.0
 11
33.1188123672139
 21
21.32220417826037
 31
0.0
  0
LINE
  5
615
330
A
100
AcDbEntity
  8
0
  6
Continuous
 62
     7
370
     0
100
AcDbLine
 10
33.1188123672134
 20
16.32145755325982
 30
0.0
 11
32.81876756971349
 21
16.02141275575993
 31
0.0
  0
LINE
  5
616
330
A
100
AcDbEntity
  8
0
  6
Continuous
 62
     7
370
     0
100
AcDbLine
 10
32.81876756971357
 20
16.02141275576003
 30
0.0
 11
33.11881236721348
 21
15.72136795826014
 31
0.0
  0
LINE
  5
617
330
A
100
AcDbEntity
  8
0
  6
Continuous
 62
     7
370
     0
100
AcDbLine
 10
33.1188123672134
 20
10.72062133326069
 30
0.0
 11
30.11836439221277
 21
10.72062133326069
 31
0.0
  0
LINE
  5
618
330
A
100
AcDbEntity
  8
0
  6
Continuous
 62
     7
370
     0
100
AcDbLine
 10
33.1188123672134
 20
15.72136795826023
 30
0.0
 11
33.1188123672134
 21
10.72062133325997
 31
0.0
  0
LINE
  5
619
330
A
100
AcDbEntity
  8
0
  6
Continuous
 62
     7
370
     0
100
AcDbLine
 10
33.1188123672134
 20
21.32220417826037
 30
0.0
 11
33.1188123672134
 21
16.32145755326011
 31
0.0
  0
LINE
  5
61A
330
A
100
AcDbEntity
  8
0
  6
Continuous
 62
     7
370
     0
100
AcDbLine
 10
0.1638921084627869
 20
13.37101704451036
 30
0.0
 11
0.1638921084627869
 21
15.77137542451038
 31
0.0
  0
LINE
  5
61B
330
A
100
AcDbEntity
  8
0
  6
Continuous
 62
     7
370
     0
100
AcDbLine
 10
0.4139294397129655
 20
16.02141275576003
 30
0.0
 11
0.1638921084629168
 21
15.77137542451077
 31
0.0
  0
LINE
  5
61C
330
A
100
AcDbEntity
  8
0
  6
Continuous
 62
     7
370
     0
100
AcDbLine
 10
0.1638921084627869
 20
16.27145008701022
 30
0.0
 11
0.4139294397128356
 21
16.02141275575934
 31
0.0
  0
LINE
  5
61D
330
A
100
AcDbEntity
  8
0
  6
Continuous
 62
     7
370
     0
100
AcDbLine
 10
0.1638921084627869
 20
16.27145008701022
 30
0.0
 11
0.1638921084627869
 21
18.67180846701021
 31
0.0
  0
LINE
  5
61E
330
A
100
AcDbEntity
  8
0
  6
Continuous
 62
     7
370
     0
100
AcDbLine
 10
2.814287819712438
 20
10.72062133326069
 30
0.0
 11
0.1638921084623807
 21
13.37101704451078
 31
0.0
  0
LINE
  5
61F
330
A
100
AcDbEntity
  8
0
  6
Continuous
 62
     7
370
     0
100
AcDbLine
 10
30.11836439221327
 20
21.32220417826037
 30
0.0
 11
30.11836439221327
 21
27.02305533076013
 31
0.0
  0
ARC
  5
620
330
A
100
AcDbEntity
  8
0
  6
Continuous
 62
     7
370
     0
100
AcDbCircle
 10
29.61828972971394
 20
27.02305533076077
 30
0.0
 40
0.5000746624993422
100
AcDbArc
 50
0.0
 51
90.0
  0
LINE
  5
621
330
A
100
AcDbEntity
  8
0
  6
Continuous
 62
     7
370
     0
100
AcDbLine
 10
29.61828972971394
 20
27.52312999326012
 30
0.0
 11
24.4175132397135
 21
27.52312999326012
 31
0.0
  0
ARC
  5
622
330
A
100
AcDbEntity
  8
0
  6
Continuous
 62
     7
370
     0
100
AcDbCircle
 10
24.41751323971287
 20
28.02320465576048
 30
0.0
 40
0.5000746625003574
100
AcDbArc
 50
180.0
 51
270.0
  0
LINE
  5
623
330
A
100
AcDbEntity
  8
0
  6
Continuous
 62
     7
370
     0
100
AcDbLine
 10
23.91743857721251
 20
28.02320465576048
 30
0.0
 11
23.91743857721251
 21
34.02410060576012
 31
0.0
  0
LINE
  5
624
330
A
100
AcDbEntity
  8
0
  6
Continuous
 62
     7
370
     0
100
AcDbLine
 10
23.91743857721251
 20
34.0241006057597
 30
0.0
 11
21.91713992721289
 21
34.0241006057597
 31
0.0
  0
LINE
  5
625
330
A
100
AcDbEntity
  8
0
  6
Continuous
 62
     7
370
     0
100
AcDbLine
 10
21.9171399272131
 20
34.22413047076024
 30
0.0
 11
21.9171399272131
 21
34.02410060576002
 31
0.0
  0
LINE
  5
626
330
A
100
AcDbEntity
  8
0
  6
Continuous
 62
     7
370
     0
100
AcDbLine
 10
19.26674421596344
 20
36.87452618201091
 30
0.0
 11
21.91713992721352
 21
34.22413047076086
 31
0.0
  0
LINE
  5
627
330
A
100
AcDbEntity
  8
0
  6
Continuous
 62
     7
370
     0
100
AcDbLine
 10
19.26674421596344
 20
37.0245485807608
 30
0.0
 11
19.26674421596344
 21
36.87452618201048
 31
0.0
  0
LINE
  5
628
330
A
100
AcDbEntity
  8
0
  6
Continuous
 62
     7
370
     0
100
AcDbLine
 10
19.26674421596344
 20
37.0245485807608
 30
0.0
 11
26.91788655221377
 21
37.0245485807608
 31
0.0
  0
LINE
  5
629
330
A
100
AcDbEntity
  8
0
  6
Continuous
 62
     7
370
     0
100
AcDbLine
 10
26.91788655221363
 20
37.0245485807608
 30
0.0
 11
26.91788655221363
 21
30.52357796826026
 31
0.0
  0
ARC
  5
62A
330
A
100
AcDbEntity
  8
0
  6
Continuous
 62
     7
370
     0
100
AcDbCircle
 10
27.41796121471296
 20
30.52357796826023
 30
0.0
 40
0.5000746625003574
100
AcDbArc
 50
180.0
 51
270.0
  0
LINE
  5
62B
330
A
100
AcDbEntity
  8
0
  6
Continuous
 62
     7
370
     0
100
AcDbLine
 10
27.41796121471296
 20
30.0235033057599
 30
0.0
 11
29.81831959471299
 21
30.0235033057599
 31
0.0
  0
ARC
  5
62C
330
A
100
AcDbEntity
  8
0
  6
Continuous
 62
     7
370
     0
100
AcDbCircle
 10
29.81831959471246
 20
30.3235481032607
 30
0.0
 40
0.3000447975008236
100
AcDbArc
 50
270.0
 51
0.0
  0
LINE
  5
62D
330
A
100
AcDbEntity
  8
0
  6
Continuous
 62
     7
370
     0
100
AcDbLine
 10
30.11836439221327
 20
30.3235481032607
 30
0.0
 11
30.11836439221327
 21
31.62374222576004
 31
0.0
  0
ARC
  5
62E
330
A
100
AcDbEntity
  8
0
  6
Continuous
 62
     7
370
     0
100
AcDbCircle
 10
30.4184091897131
 20
31.6237422257602
 30
0.0
 40
0.3000447974998083
100
AcDbArc
 50
90.0
 51
180.0
  0
ARC
  5
62F
330
A
100
AcDbEntity
  8
0
  6
Continuous
 62
     7
370
     0
100
AcDbCircle
 10
30.4184091897141
 20
31.6237422257602
 30
0.0
 40
0.3000447975008236
100
AcDbArc
 50
44.9999999999833
 51
90.00000000019374
  0
LINE
  5
630
330
A
100
AcDbEntity
  8
0
  6
Continuous
 62
     7
370
     0
100
AcDbLine
 10
30.63057290068635
 20
31.83590593673247
 30
0.0
 11
32.8258754121203
 21
29.64060342529929
 31
0.0
  0
ARC
  5
631
330
A
100
AcDbEntity
  8
0
  6
Continuous
 62
     7
370
     0
100
AcDbCircle
 10
32.11866304221369
 20
28.93339105539184
 30
0.0
 40
1.00014932499999
100
AcDbArc
 50
0.0000000000407112
 51
45.00000000004088
  0
LINE
  5
632
330
A
100
AcDbEntity
  8
0
  6
Continuous
 62
     7
370
     0
100
AcDbLine
 10
33.1188123672134
 20
28.93339105539184
 30
0.0
 11
33.1188123672134
 21
21.32220417826044
 31
0.0
  0
LINE
  5
633
330
A
100
AcDbEntity
  8
0
  6
Continuous
 62
     7
370
     0
100
AcDbLine
 10
26.4678193559629
 20
5.369822444510749
 30
0.0
 11
26.4678193559629
 21
5.119785113260684
 31
0.0
  0
LINE
  5
634
330
A
100
AcDbEntity
  8
0
  6
Continuous
 62
     7
370
     0
100
AcDbLine
 10
26.4678193559629
 20
5.119785113260554
 30
0.0
 11
29.81831959471249
 21
5.119785113260554
 31
0.0
  0
ARC
  5
635
330
A
100
AcDbEntity
  8
0
  6
Continuous
 62
     7
370
     0
100
AcDbCircle
 10
29.81831959471246
 20
5.419829910760379
 30
0.0
 40
0.3000447975008236
100
AcDbArc
 50
270.0
 51
0.0
  0
ARC
  5
636
330
A
100
AcDbEntity
  8
0
  6
Continuous
 62
     7
370
     0
100
AcDbCircle
 10
32.11866304221369
 20
3.109434456129255
 30
0.0
 40
1.000149324999699
100
AcDbArc
 50
315.0
 51
0.0
  0
LINE
  5
637
330
A
100
AcDbEntity
  8
0
  6
Continuous
 62
     7
370
     0
100
AcDbLine
 10
32.82587541211983
 20
2.402222086223105
 30
0.0
 11
30.63057290068508
 21
0.2069195747891478
 31
0.0
  0
ARC
  5
638
330
A
100
AcDbEntity
  8
0
  6
Continuous
 62
     7
370
     0
100
AcDbCircle
 10
30.4184091897131
 20
0.4190832857608663
 30
0.0
 40
0.3000447975003562
100
AcDbArc
 50
270.0000000001466
 51
315.000000000274
  0
ARC
  5
639
330
A
100
AcDbEntity
  8
0
  6
Continuous
 62
     7
370
     0
100
AcDbCircle
 10
30.4184091897131
 20
0.4190832857608663
 30
0.0
 40
0.3000447974998083
100
AcDbArc
 50
180.0
 51
270.0
  0
LINE
  5
63A
330
A
100
AcDbEntity
  8
0
  6
Continuous
 62
     7
370
     0
100
AcDbLine
 10
30.11836439221327
 20
0.4190832857608663
 30
0.0
 11
30.11836439221327
 21
1.819292340760664
 31
0.0
  0
ARC
  5
63B
330
A
100
AcDbEntity
  8
0
  6
Continuous
 62
     7
370
     0
100
AcDbCircle
 10
29.81831959471246
 20
1.819292340760632
 30
0.0
 40
0.3000447975008236
100
AcDbArc
 50
0.0
 51
90.0
  0
LINE
  5
63C
330
A
100
AcDbEntity
  8
0
  6
Continuous
 62
     7
370
     0
100
AcDbLine
 10
29.81831959471246
 20
2.119337138260457
 30
0.0
 11
23.86743111096266
 21
2.119337138260457
 31
0.0
  0
LINE
  5
63D
330
A
100
AcDbEntity
  8
0
  6
Continuous
 62
     7
370
     0
100
AcDbLine
 10
23.86743111096288
 20
2.119337138260457
 30
0.0
 11
23.86743111096288
 21
5.369822444510327
 31
0.0
  0
ARC
  5
63E
330
A
100
AcDbEntity
  8
0
  6
Continuous
 62
     7
370
     0
100
AcDbCircle
 10
25.16762523346339
 20
5.369822444510749
 30
0.0
 40
1.300194122500523
100
AcDbArc
 50
90.0
 51
180.0
  0
ARC
  5
63F
330
A
100
AcDbEntity
  8
0
  6
Continuous
 62
     7
370
     0
100
AcDbCircle
 10
25.16762523346339
 20
5.369822444510749
 30
0.0
 40
1.300194122499507
100
AcDbArc
 50
0.0
 51
90.0
  0
LINE
  5
640
330
A
100
AcDbEntity
  8
0
  6
Continuous
 62
     7
370
     0
100
AcDbLine
 10
30.11836439221327
 20
5.419829910760379
 30
0.0
 11
30.11836439221327
 21
10.72062133326053
 31
0.0
  0
LINE
  5
641
330
A
100
AcDbEntity
  8
0
  6
Continuous
 62
     7
370
     0
100
AcDbLine
 10
33.1188123672134
 20
10.72062133326069
 30
0.0
 11
33.1188123672134
 21
3.109434456129288
 31
0.0
  0
ARC
  5
642
330
A
100
AcDbEntity
  8
0
  6
Continuous
 62
     7
370
     0
100
AcDbCircle
 10
2.814287819712438
 20
0.4190832857608663
 30
0.0
 40
0.3000447974998083
100
AcDbArc
 50
224.9999999999868
 51
270.0
  0
LINE
  5
643
330
A
100
AcDbEntity
  8
0
  6
Continuous
 62
     7
370
     0
100
AcDbLine
 10
2.602124108741207
 20
0.2069195747885955
 30
0.0
 11
0.4068215973064708
 21
2.402222086221773
 31
0.0
  0
ARC
  5
644
330
A
100
AcDbEntity
  8
0
  6
Continuous
 62
     7
370
     0
100
AcDbCircle
 10
1.114033967212848
 20
3.109434456129255
 30
0.0
 40
1.00014932499999
100
AcDbArc
 50
180.0000000000407
 51
225.0000000000414
  0
LINE
  5
645
330
A
100
AcDbEntity
  8
0
  6
Continuous
 62
     7
370
     0
100
AcDbLine
 10
0.1138846422131572
 20
3.109434456129255
 30
0.0
 11
0.1138846422131572
 21
13.37101704451071
 31
0.0
  0
LINE
  5
646
330
A
100
AcDbEntity
  8
0
  6
Continuous
 62
     7
370
     0
100
AcDbLine
 10
0.1638921084627869
 20
13.37101704451036
 30
0.0
 11
0.1138846422129298
 21
13.37101704451036
 31
0.0
  0
ARC
  5
647
330
A
100
AcDbEntity
  8
0
  6
Continuous
 62
     7
370
     0
100
AcDbCircle
 10
3.414377414713079
 20
5.419829910760379
 30
0.0
 40
0.3000447974998083
100
AcDbArc
 50
180.0
 51
270.0
  0
LINE
  5
648
330
A
100
AcDbEntity
  8
0
  6
Continuous
 62
     7
370
     0
100
AcDbLine
 10
3.414377414713079
 20
5.119785113260554
 30
0.0
 11
6.764877653462663
 21
5.119785113260554
 31
0.0
  0
LINE
  5
649
330
A
100
AcDbEntity
  8
0
  6
Continuous
 62
     7
370
     0
100
AcDbLine
 10
6.76487765346263
 20
5.119785113260554
 30
0.0
 11
6.76487765346263
 21
5.369822444510619
 31
0.0
  0
ARC
  5
64A
330
A
100
AcDbEntity
  8
0
  6
Continuous
 62
     7
370
     0
100
AcDbCircle
 10
8.065071775963152
 20
5.369822444510749
 30
0.0
 40
1.300194122500523
100
AcDbArc
 50
90.0
 51
180.0
  0
ARC
  5
64B
330
A
100
AcDbEntity
  8
0
  6
Continuous
 62
     7
370
     0
100
AcDbCircle
 10
8.065071775963152
 20
5.369822444510749
 30
0.0
 40
1.300194122499507
100
AcDbArc
 50
0.0
 51
90.0
  0
LINE
  5
64C
330
A
100
AcDbEntity
  8
0
  6
Continuous
 62
     7
370
     0
100
AcDbLine
 10
9.365265898463675
 20
5.369822444510749
 30
0.0
 11
9.365265898463675
 21
2.119337138260847
 31
0.0
  0
LINE
  5
64D
330
A
100
AcDbEntity
  8
0
  6
Continuous
 62
     7
370
     0
100
AcDbLine
 10
9.365265898463675
 20
2.119337138260457
 30
0.0
 11
3.414377414713875
 21
2.119337138260457
 31
0.0
  0
ARC
  5
64E
330
A
100
AcDbEntity
  8
0
  6
Continuous
 62
     7
370
     0
100
AcDbCircle
 10
3.414377414713079
 20
1.819292340760632
 30
0.0
 40
0.3000447974998083
100
AcDbArc
 50
90.0
 51
180.0
  0
LINE
  5
64F
330
A
100
AcDbEntity
  8
0
  6
Continuous
 62
     7
370
     0
100
AcDbLine
 10
3.114332617213271
 20
1.819292340760632
 30
0.0
 11
3.114332617213271
 21
0.4190832857608337
 31
0.0
  0
ARC
  5
650
330
A
100
AcDbEntity
  8
0
  6
Continuous
 62
     7
370
     0
100
AcDbCircle
 10
2.814287819712438
 20
0.4190832857608663
 30
0.0
 40
0.3000447975008236
100
AcDbArc
 50
270.0000000000122
 51
0.0
  0
LINE
  5
651
330
A
100
AcDbEntity
  8
0
  6
Continuous
 62
     7
370
     0
100
AcDbLine
 10
3.114332617213271
 20
10.72062133326069
 30
0.0
 11
3.114332617213271
 21
5.419829910760574
 31
0.0
  0
LINE
  5
652
330
A
100
AcDbEntity
  8
0
  6
Continuous
 62
     7
370
     0
100
AcDbLine
 10
21.9171399272131
 20
34.0241006057597
 30
0.0
 11
16.91639330221287
 21
34.0241006057597
 31
0.0
  0
LINE
  5
653
330
A
100
AcDbEntity
  8
0
  6
Continuous
 62
     7
370
     0
100
AcDbLine
 10
16.91639330221358
 20
34.0241006057597
 30
0.0
 11
16.71636343721339
 21
34.2241304707599
 31
0.0
  0
LINE
  5
654
330
A
100
AcDbEntity
  8
0
  6
Continuous
 62
     7
370
     0
100
AcDbLine
 10
21.9171399272131
 20
34.22413047076024
 30
0.0
 11
16.71636343721266
 21
34.22413047076024
 31
0.0
  0
LINE
  5
655
330
A
100
AcDbEntity
  8
0
  6
Continuous
 62
     7
370
     0
100
AcDbLine
 10
0.1138846422131572
 20
13.37101704451036
 30
0.0
 11
0.1138846422131572
 21
15.72136795826053
 31
0.0
  0
LINE
  5
656
330
A
100
AcDbEntity
  8
0
  6
Continuous
 62
     7
370
     0
100
AcDbLine
 10
0.1138846422131572
 20
15.72136795826023
 30
0.0
 11
0.1638921084630142
 21
15.77137542451006
 31
0.0
  0
LINE
  5
657
330
A
100
AcDbEntity
  8
0
  6
Continuous
 62
     7
370
     0
100
AcDbLine
 10
0.1638921084627869
 20
16.27145008701022
 30
0.0
 11
0.1138846422129298
 21
16.32145755326004
 31
0.0
  0
LINE
  5
658
330
A
100
AcDbEntity
  8
0
  6
Continuous
 62
     7
370
     0
100
AcDbLine
 10
0.1138846422131572
 20
16.32145755325982
 30
0.0
 11
0.1138846422131572
 21
18.67180846701002
 31
0.0
  0
LINE
  5
659
330
A
100
AcDbEntity
  8
0
  6
Continuous
 62
     7
370
     0
100
AcDbLine
 10
13.96595279346311
 20
36.87452618201091
 30
0.0
 11
19.26674421596325
 21
36.87452618201091
 31
0.0
  0
LINE
  5
65A
330
A
100
AcDbEntity
  8
0
  6
Continuous
 62
     7
370
     0
100
AcDbLine
 10
16.61634850471276
 20
34.32414540326053
 30
0.0
 11
16.71636343721246
 21
34.22413047076001
 31
0.0
  0
LINE
  5
65B
330
A
100
AcDbEntity
  8
0
  6
Continuous
 62
     7
370
     0
100
AcDbLine
 10
16.51633357221351
 20
34.22413047076024
 30
0.0
 11
16.6163485047132
 21
34.32414540326072
 31
0.0
  0
LINE
  5
65C
330
A
100
AcDbEntity
  8
0
  6
Continuous
 62
     7
370
     0
100
AcDbLine
 10
16.51633357221351
 20
34.22413047076024
 30
0.0
 11
11.31555708221307
 21
34.22413047076024
 31
0.0
  0
LINE
  5
65D
330
A
100
AcDbEntity
  8
0
  6
Continuous
 62
     7
370
     0
100
AcDbLine
 10
16.51633357221351
 20
34.22413047076024
 30
0.0
 11
16.3163037072133
 21
34.02410060576002
 31
0.0
  0
LINE
  5
65E
330
A
100
AcDbEntity
  8
0
  6
Continuous
 62
     7
370
     0
100
AcDbLine
 10
16.31630370721296
 20
34.0241006057597
 30
0.0
 11
11.31555708221271
 21
34.0241006057597
 31
0.0
  0
LINE
  5
65F
330
A
100
AcDbEntity
  8
0
  6
Continuous
 62
     7
370
     0
100
AcDbLine
 10
13.96595279346311
 20
37.0245485807608
 30
0.0
 11
19.26674421596325
 21
37.0245485807608
 31
0.0
  0
LINE
  5
660
330
A
100
AcDbEntity
  8
0
  6
Continuous
 62
     9
370
     0
100
AcDbLine
 10
33.1188123672134
 20
16.32145755325982
 30
0.0
 11
32.81876756971349
 21
16.02141275575993
 31
0.0
  0
LINE
  5
661
330
A
100
AcDbEntity
  8
0
  6
Continuous
 62
     9
370
     0
100
AcDbLine
 10
32.81876756971357
 20
16.02141275576003
 30
0.0
 11
33.11881236721348
 21
15.72136795826014
 31
0.0
  0
LINE
  5
662
330
A
100
AcDbEntity
  8
0
  6
Continuous
 62
     9
370
     0
100
AcDbLine
 10
33.1188123672134
 20
16.32145755325982
 30
0.0
 11
32.81876756971349
 21
16.02141275575993
 31
0.0
  0
LINE
  5
663
330
A
100
AcDbEntity
  8
0
  6
Continuous
 62
     9
370
     0
100
AcDbLine
 10
32.81876756971357
 20
16.02141275576003
 30
0.0
 11
33.11881236721348
 21
15.72136795826014
 31
0.0
  0
LINE
  5
664
330
A
100
AcDbEntity
  8
0
  6
Continuous
 62
     9
370
     0
100
AcDbLine
 10
33.1188123672134
 20
16.32145755325982
 30
0.0
 11
32.81876756971349
 21
16.02141275575993
 31
0.0
  0
LINE
  5
665
330
A
100
AcDbEntity
  8
0
  6
Continuous
 62
     9
370
     0
100
AcDbLine
 10
32.81876756971357
 20
16.02141275576003
 30
0.0
 11
33.11881236721348
 21
15.72136795826014
 31
0.0
  0
LINE
  5
666
330
A
100
AcDbEntity
  8
0
  6
Continuous
 62
     9
370
     0
100
AcDbLine
 10
33.1188123672134
 20
16.32145755325982
 30
0.0
 11
32.81876756971349
 21
16.02141275575993
 31
0.0
  0
LINE
  5
667
330
A
100
AcDbEntity
  8
0
  6
Continuous
 62
     9
370
     0
100
AcDbLine
 10
32.81876756971357
 20
16.02141275576003
 30
0.0
 11
33.11881236721348
 21
15.72136795826014
 31
0.0
  0
LINE
  5
668
330
A
100
AcDbEntity
  8
0
  6
Continuous
 62
     9
370
     0
100
AcDbLine
 10
33.1188123672134
 20
16.32145755325982
 30
0.0
 11
32.81876756971349
 21
16.02141275575993
 31
0.0
  0
LINE
  5
669
330
A
100
AcDbEntity
  8
0
  6
Continuous
 62
     9
370
     0
100
AcDbLine
 10
32.81876756971357
 20
16.02141275576003
 30
0.0
 11
33.11881236721348
 21
15.72136795826014
 31
0.0
  0
LINE
  5
66A
330
A
100
AcDbEntity
  8
0
  6
Continuous
 62
     9
370
     0
100
AcDbLine
 10
33.1188123672134
 20
16.32145755325982
 30
0.0
 11
32.81876756971349
 21
16.02141275575993
 31
0.0
  0
LINE
  5
66B
330
A
100
AcDbEntity
  8
0
  6
Continuous
 62
     9
370
     0
100
AcDbLine
 10
32.81876756971357
 20
16.02141275576003
 30
0.0
 11
33.11881236721348
 21
15.72136795826014
 31
0.0
  0
LINE
  5
66C
330
A
100
AcDbEntity
  8
0
  6
Continuous
 62
     9
370
     0
100
AcDbLine
 10
33.1188123672134
 20
16.32145755325982
 30
0.0
 11
32.81876756971349
 21
16.02141275575993
 31
0.0
  0
LINE
  5
66D
330
A
100
AcDbEntity
  8
0
  6
Continuous
 62
     9
370
     0
100
AcDbLine
 10
32.81876756971357
 20
16.02141275576003
 30
0.0
 11
33.11881236721348
 21
15.72136795826014
 31
0.0
  0
LINE
  5
66E
330
A
100
AcDbEntity
  8
0
  6
Continuous
 62
     9
370
     0
100
AcDbLine
 10
33.1188123672134
 20
16.32145755325982
 30
0.0
 11
32.81876756971349
 21
16.02141275575993
 31
0.0
  0
LINE
  5
66F
330
A
100
AcDbEntity
  8
0
  6
Continuous
 62
     9
370
     0
100
AcDbLine
 10
32.81876756971357
 20
16.02141275576003
 30
0.0
 11
33.11881236721348
 21
15.72136795826014
 31
0.0
  0
LINE
  5
670
330
A
100
AcDbEntity
  8
0
  6
Continuous
 62
     9
370
     0
100
AcDbLine
 10
33.1188123672134
 20
16.32145755325982
 30
0.0
 11
32.81876756971349
 21
16.02141275575993
 31
0.0
  0
LINE
  5
671
330
A
100
AcDbEntity
  8
0
  6
Continuous
 62
     9
370
     0
100
AcDbLine
 10
32.81876756971357
 20
16.02141275576003
 30
0.0
 11
33.11881236721348
 21
15.72136795826014
 31
0.0
  0
LINE
  5
672
330
A
100
AcDbEntity
  8
0
  6
Continuous
 62
     9
370
     0
100
AcDbLine
 10
33.1188123672134
 20
16.32145755325982
 30
0.0
 11
32.81876756971349
 21
16.02141275575993
 31
0.0
  0
LINE
  5
673
330
A
100
AcDbEntity
  8
0
  6
Continuous
 62
     9
370
     0
100
AcDbLine
 10
32.81876756971357
 20
16.02141275576003
 30
0.0
 11
33.11881236721348
 21
15.72136795826014
 31
0.0
  0
LINE
  5
674
330
A
100
AcDbEntity
  8
0
  6
Continuous
 62
     9
370
     0
100
AcDbLine
 10
33.1188123672134
 20
16.32145755325982
 30
0.0
 11
32.81876756971349
 21
16.02141275575993
 31
0.0
  0
LINE
  5
675
330
A
100
AcDbEntity
  8
0
  6
Continuous
 62
     9
370
     0
100
AcDbLine
 10
32.81876756971357
 20
16.02141275576003
 30
0.0
 11
33.11881236721348
 21
15.72136795826014
 31
0.0
  0
LINE
  5
676
330
A
100
AcDbEntity
  8
0
  6
Continuous
 62
     9
370
     0
100
AcDbLine
 10
33.1188123672134
 20
16.32145755325982
 30
0.0
 11
32.81876756971349
 21
16.02141275575993
 31
0.0
  0
LINE
  5
677
330
A
100
AcDbEntity
  8
0
  6
Continuous
 62
     9
370
     0
100
AcDbLine
 10
32.81876756971357
 20
16.02141275576003
 30
0.0
 11
33.11881236721348
 21
15.72136795826014
 31
0.0
  0
HATCH
  5
678
330
A
100
AcDbEntity
  8
0
 62
     9
370
     0
100
AcDbHatch
 10
0.0
 20
0.0
 30
0.0
210
0.0
220
0.0
230
1.0
  2
ANSI31
 70
     0
 71
     0
 91
        4
 92
        1
 93
      140
 72
     1
 10
0.1138846422131572
 20
28.9333910553908
 11
0.1138846422131572
 21
18.6718084670107
 72
     1
 10
0.1138846422131572
 20
18.6718084670107
 11
0.1638921084627869
 21
18.6718084670107
 72
     1
 10
0.1638921084627869
 20
18.6718084670107
 11
2.814287819712438
 21
21.32220417826037
 72
     1
 10
2.814287819712438
 20
21.32220417826037
 11
3.11433261721327
 21
21.32220417826037
 72
     1
 10
3.114332617213271
 20
21.32220417826037
 11
3.114332617212264
 21
27.02305533076077
 72
     1
 10
3.114332617212264
 20
27.02305533076077
 11
3.115874180505263
 21
27.06229073657697
 72
     1
 10
3.115874180505263
 20
27.06229073657697
 11
3.120489366133962
 21
27.10128424306923
 72
     1
 10
3.120489366133962
 20
27.10128424306923
 11
3.128149719944233
 21
27.13979544230332
 72
     1
 10
3.128149719944233
 20
27.13979544230332
 11
3.138808013307561
 21
27.17758689992972
 72
     1
 10
3.138808013307561
 20
27.17758689992972
 11
3.15239853430105
 21
27.21442561904522
 72
     1
 10
3.15239853430105
 20
27.21442561904522
 11
3.168837492843497
 21
27.25008447669642
 72
     1
 10
3.168837492843498
 20
27.25008447669641
 11
3.188023537288989
 21
27.28434362416802
 72
     1
 10
3.188023537288988
 20
27.28434362416802
 11
3.209838379293513
 21
27.31699184242366
 72
     1
 10
3.209838379293513
 20
27.31699184242366
 11
3.234147523101925
 21
27.34782784434102
 72
     1
 10
3.234147523101926
 20
27.34782784434102
 11
3.260801094759042
 21
27.37666151571435
 72
     1
 10
3.260801094759042
 20
27.37666151571435
 11
3.289634766132378
 21
27.4033150873715
 72
     1
 10
3.289634766132378
 20
27.4033150873715
 11
3.320470768049775
 21
27.42762423117989
 72
     1
 10
3.320470768049775
 20
27.42762423117988
 11
3.353118986305376
 21
27.4494390731844
 72
     1
 10
3.353118986305376
 20
27.44943907318441
 11
3.387378133776984
 21
27.46862511762989
 72
     1
 10
3.387378133776984
 20
27.46862511762989
 11
3.423036991428163
 21
27.48506407617235
 72
     1
 10
3.423036991428162
 20
27.48506407617235
 11
3.459875710543692
 21
27.49865459716585
 72
     1
 10
3.459875710543692
 20
27.49865459716585
 11
3.497667168170093
 21
27.50931289052915
 72
     1
 10
3.497667168170093
 20
27.50931289052915
 11
3.536178367404199
 21
27.51697324433944
 72
     1
 10
3.536178367404198
 20
27.51697324433943
 11
3.575171873896424
 21
27.52158842996812
 72
     1
 10
3.575171873896424
 20
27.52158842996812
 11
3.614407279712621
 21
27.52312999326012
 72
     1
 10
3.614407279712621
 20
27.52312999326012
 11
8.815183769713691
 21
27.52312999326113
 72
     1
 10
8.815183769713689
 20
27.52312999326113
 11
8.854419175529788
 21
27.52467155655415
 72
     1
 10
8.854419175529789
 20
27.52467155655415
 11
8.893412682021949
 21
27.52928674218284
 72
     1
 10
8.893412682021949
 20
27.52928674218284
 11
8.931923881255974
 21
27.53694709599312
 72
     1
 10
8.931923881255974
 20
27.53694709599312
 11
8.969715338882293
 21
27.54760538935638
 72
     1
 10
8.969715338882293
 20
27.54760538935638
 11
9.006554057997758
 21
27.56119591034982
 72
     1
 10
9.006554057997757
 20
27.56119591034982
 11
9.042212915648853
 21
27.57763486889228
 72
     1
 10
9.042212915648855
 20
27.57763486889229
 11
9.076472063120414
 21
27.59682091333773
 72
     1
 10
9.076472063120414
 20
27.59682091333773
 11
9.109120281375934
 21
27.61863575534222
 72
     1
 10
9.109120281375934
 20
27.61863575534222
 11
9.139956283293267
 21
27.64294489915057
 72
     1
 10
9.139956283293267
 20
27.64294489915057
 11
9.168789954666554
 21
27.66959847080765
 72
     1
 10
9.168789954666554
 20
27.66959847080765
 11
9.195443526323622
 21
27.69843214218089
 72
     1
 10
9.195443526323622
 20
27.69843214218089
 11
9.219752670131969
 21
27.72926814409822
 72
     1
 10
9.219752670131969
 20
27.72926814409822
 11
9.241567512136445
 21
27.76191636235379
 72
     1
 10
9.241567512136445
 20
27.76191636235379
 11
9.260753556581903
 21
27.79617550982533
 72
     1
 10
9.260753556581903
 20
27.79617550982533
 11
9.277192515124317
 21
27.83183436747643
 72
     1
 10
9.277192515124317
 20
27.83183436747644
 11
9.29078303611779
 21
27.86867308659187
 72
     1
 10
9.290783036117792
 20
27.86867308659186
 11
9.301441329481072
 21
27.9064645442182
 72
     1
 10
9.301441329481072
 20
27.9064645442182
 11
9.309101683291343
 21
27.94497574345222
 72
     1
 10
9.309101683291343
 20
27.94497574345222
 11
9.313716868920042
 21
27.98396924994439
 72
     1
 10
9.313716868920041
 20
27.98396924994439
 11
9.315258432213024
 21
28.02320465576049
 72
     1
 10
9.315258432213024
 20
28.02320465576048
 11
9.315258432213024
 21
34.0241006057597
 72
     1
 10
9.315258432213024
 20
34.0241006057597
 11
11.31555708221344
 21
34.0241006057597
 72
     1
 10
11.31555708221344
 20
34.0241006057597
 11
11.31555708221344
 21
34.22413047076023
 72
     1
 10
11.31555708221344
 20
34.22413047076024
 11
13.96595279346311
 21
36.87452618201091
 72
     1
 10
13.96595279346311
 20
36.87452618201091
 11
13.96595279346311
 21
37.02454858076081
 72
     1
 10
13.96595279346311
 20
37.0245485807608
 11
6.314810457212926
 21
37.0245485807608
 72
     1
 10
6.314810457212926
 20
37.0245485807608
 11
6.314810457212926
 21
30.52357796826022
 72
     1
 10
6.314810457212926
 20
30.52357796826023
 11
6.313268893919927
 21
30.48434256244413
 72
     1
 10
6.313268893919927
 20
30.48434256244413
 11
6.308653708291228
 21
30.44534905595196
 72
     1
 10
6.308653708291227
 20
30.44534905595196
 11
6.30099335448094
 21
30.40683785671797
 72
     1
 10
6.300993354480941
 20
30.40683785671797
 11
6.290335061117661
 21
30.36904639909164
 72
     1
 10
6.290335061117661
 20
30.36904639909164
 11
6.276744540124204
 21
30.33220767997617
 72
     1
 10
6.276744540124204
 20
30.33220767997617
 11
6.260305581581789
 21
30.29654882232507
 72
     1
 10
6.260305581581789
 20
30.29654882232507
 11
6.241119537136331
 21
30.2622896748535
 72
     1
 10
6.241119537136332
 20
30.2622896748535
 11
6.219304695131856
 21
30.229641456598
 72
     1
 10
6.219304695131855
 20
30.229641456598
 11
6.194995551323508
 21
30.19880545468066
 72
     1
 10
6.194995551323508
 20
30.19880545468066
 11
6.16834197966644
 21
30.16997178330739
 72
     1
 10
6.16834197966644
 20
30.16997178330739
 11
6.139508308293152
 21
30.14331821165034
 72
     1
 10
6.139508308293152
 20
30.14331821165034
 11
6.108672306375821
 21
30.11900906784196
 72
     1
 10
6.108672306375821
 20
30.11900906784196
 11
6.0760240881203
 21
30.0971942258375
 72
     1
 10
6.076024088120301
 20
30.0971942258375
 11
6.041764940648726
 21
30.07800818139206
 72
     1
 10
6.041764940648725
 20
30.07800818139206
 11
6.006106082997644
 21
30.0615692228496
 72
     1
 10
6.006106082997644
 20
30.0615692228496
 11
5.969267363882179
 21
30.04797870185616
 72
     1
 10
5.969267363882179
 20
30.04797870185616
 11
5.93147590625586
 21
30.03732040849286
 72
     1
 10
5.931475906255861
 20
30.03732040849286
 11
5.892964707021836
 21
30.02966005468261
 72
     1
 10
5.892964707021836
 20
30.0296600546826
 11
5.853971200529676
 21
30.02504486905392
 72
     1
 10
5.853971200529675
 20
30.02504486905392
 11
5.814735794713575
 21
30.0235033057599
 72
     1
 10
5.814735794713576
 20
30.0235033057599
 11
3.414377414713079
 21
30.0235033057599
 72
     1
 10
3.414377414713079
 20
30.0235033057599
 11
3.390836171223319
 21
30.02442824373571
 72
     1
 10
3.390836171223319
 20
30.02442824373571
 11
3.367440067327928
 21
30.02719735511292
 72
     1
 10
3.367440067327928
 20
30.02719735511292
 11
3.344333347787432
 21
30.03179356739909
 72
     1
 10
3.344333347787432
 20
30.0317935673991
 11
3.321658473211543
 21
30.03818854341711
 72
     1
 10
3.321658473211543
 20
30.03818854341711
 11
3.299555241742173
 21
30.04634285601322
 72
     1
 10
3.299555241742173
 20
30.04634285601322
 11
3.278159927151433
 21
30.0562062311387
 72
     1
 10
3.278159927151434
 20
30.0562062311387
 11
3.257604438668411
 21
30.06771785780602
 72
     1
 10
3.257604438668411
 20
30.06771785780602
 11
3.238015507715024
 21
30.08080676300874
 72
     1
 10
3.238015507715024
 20
30.08080676300874
 11
3.21951390656454
 21
30.09539224929382
 72
     1
 10
3.21951390656454
 20
30.09539224929382
 11
3.2022137037405
 21
30.11138439228814
 72
     1
 10
3.202213703740499
 20
30.11138439228814
 11
3.1862215607462
 21
30.12868459511218
 72
     1
 10
3.1862215607462
 20
30.12868459511218
 11
3.171636074461127
 21
30.14718619626262
 72
     1
 10
3.171636074461127
 20
30.14718619626262
 11
3.158547169258399
 21
30.16677512721604
 72
     1
 10
3.158547169258399
 20
30.16677512721604
 11
3.147035542591066
 21
30.18733061569907
 72
     1
 10
3.147035542591066
 20
30.18733061569907
 11
3.137172167465571
 21
30.20872593028979
 72
     1
 10
3.137172167465571
 20
30.20872593028979
 11
3.129017854869455
 21
30.23082916175916
 72
     1
 10
3.129017854869455
 20
30.23082916175916
 11
3.122622878851477
 21
30.25350403633507
 72
     1
 10
3.122622878851478
 20
30.25350403633507
 11
3.118026666565282
 21
30.27661075587555
 72
     1
 10
3.118026666565282
 20
30.27661075587555
 11
3.115257555188057
 21
30.30000685977095
 72
     1
 10
3.115257555188057
 20
30.30000685977095
 11
3.11433261721327
 21
30.3235481032607
 72
     1
 10
3.114332617213271
 20
30.3235481032607
 11
3.114332617213271
 21
31.6237422257602
 72
     1
 10
3.114332617213271
 20
31.6237422257602
 11
3.113407679237461
 21
31.64728346924997
 72
     1
 10
3.113407679237461
 20
31.64728346924997
 11
3.110638567860235
 21
31.67067957314538
 72
     1
 10
3.110638567860235
 20
31.67067957314538
 11
3.106042355574056
 21
31.69378629268589
 72
     1
 10
3.106042355574057
 20
31.69378629268589
 11
3.099647379556047
 21
31.7164611672618
 72
     1
 10
3.099647379556047
 20
31.7164611672618
 11
3.091493066959947
 21
31.73856439873117
 72
     1
 10
3.091493066959946
 20
31.73856439873117
 11
3.081629691834435
 21
31.75995971332192
 72
     1
 10
3.081629691834436
 20
31.75995971332192
 11
3.070118065167103
 21
31.78051520180495
 72
     1
 10
3.070118065167103
 20
31.78051520180495
 11
3.057029159964359
 21
31.80010413275836
 72
     1
 10
3.057029159964358
 20
31.80010413275836
 11
3.042443673679252
 21
31.81860573390882
 72
     1
 10
3.042443673679252
 20
31.81860573390882
 11
3.026451530684953
 21
31.83590593673285
 72
     1
 10
3.026451530684953
 20
31.83590593673286
 11
3.009151327860896
 21
31.85189807972717
 72
     1
 10
3.009151327860897
 20
31.85189807972717
 11
2.990649726710413
 21
31.86648356601225
 72
     1
 10
2.990649726710413
 20
31.86648356601225
 11
2.971060795756994
 21
31.87957247121497
 72
     1
 10
2.971060795756994
 20
31.87957247121497
 11
2.95050530727397
 21
31.89108409788229
 72
     1
 10
2.95050530727397
 20
31.89108409788229
 11
2.929109992683215
 21
31.90094747300777
 72
     1
 10
2.929109992683214
 20
31.90094747300777
 11
2.907006761213828
 21
31.90910178560388
 72
     1
 10
2.907006761213828
 20
31.90910178560388
 11
2.884331886637923
 21
31.91549676162186
 72
     1
 10
2.884331886637923
 20
31.91549676162186
 11
2.861225167097395
 21
31.92009297390804
 72
     1
 10
2.861225167097395
 20
31.92009297390804
 11
2.837829063202004
 21
31.92286208528525
 72
     1
 10
2.837829063202004
 20
31.92286208528525
 11
2.814287819712439
 21
31.92378702326103
 72
     1
 10
2.814287819712438
 20
31.92378702326103
 11
2.794663951046679
 21
31.92314460431772
 72
     1
 10
2.794663951046679
 20
31.92314460431772
 11
2.775124114799223
 21
31.92122009842437
 72
     1
 10
2.775124114799223
 20
31.92122009842437
 11
2.755751983548744
 21
31.91802174661061
 72
     1
 10
2.755751983548744
 20
31.91802174661061
 11
2.73663051173531
 21
31.91356324470992
 72
     1
 10
2.73663051173531
 20
31.91356324470993
 11
2.717841580436789
 21
31.90786368471202
 72
     1
 10
2.717841580436789
 20
31.90786368471202
 11
2.699465646741549
 21
31.90094747300771
 72
     1
 10
2.699465646741549
 20
31.90094747300771
 11
2.681581399218788
 21
31.89284422587741
 72
     1
 10
2.681581399218788
 20
31.89284422587741
 11
2.664265420962039
 21
31.88358864266929
 72
     1
 10
2.664265420962039
 20
31.88358864266929
 11
2.647591861648596
 21
31.8732203572116
 72
     1
 10
2.647591861648596
 20
31.8732203572116
 11
2.631632120019207
 21
31.86178376809451
 72
     1
 10
2.631632120019207
 20
31.86178376809451
 11
2.616454538137729
 21
31.84932784854831
 72
     1
 10
2.616454538137729
 20
31.84932784854831
 11
2.602124108741208
 21
31.83590593673247
 72
     1
 10
2.602124108741207
 20
31.83590593673247
 11
0.4068215973057075
 21
29.64060342529796
 72
     1
 10
0.4068215973057074
 20
29.64060342529796
 11
0.3620818912540878
 21
29.59283532730522
 72
     1
 10
0.3620818912540878
 20
29.59283532730522
 11
0.3205621594335221
 21
29.54224338770035
 72
     1
 10
0.3205621594335221
 20
29.54224338770035
 11
0.2824401957098592
 21
29.48904424893585
 72
     1
 10
0.2824401957098593
 20
29.48904424893585
 11
0.2478792441843752
 21
29.43346571789119
 72
     1
 10
0.2478792441843752
 20
29.43346571789119
 11
0.217027300157392
 21
29.37574579036879
 72
     1
 10
0.217027300157392
 20
29.37574579036879
 11
0.1900164763897235
 21
29.31613163195971
 72
     1
 10
0.1900164763897235
 20
29.31613163195972
 11
0.1669624373754887
 21
29.25487851964238
 72
     1
 10
0.1669624373754887
 20
29.25487851964238
 11
0.1479639040490938
 21
29.19224874864746
 72
     1
 10
0.1479639040490938
 20
29.19224874864746
 11
0.1331022310469267
 21
29.12851050926942
 72
     1
 10
0.1331022310469267
 20
29.12851050926942
 11
0.122441058334416
 21
29.06393673843462
 72
     1
 10
0.122441058334416
 20
29.06393673843462
 11
0.1160260386898255
 21
28.9988039509433
 72
     1
 10
0.1160260386898255
 20
28.9988039509433
 11
0.1138846422131572
 21
28.9333910553908
 97
        0
 92
        1
 93
      138
 72
     1
 10
33.1188123672134
 20
28.93339105539184
 11
33.11667097073571
 21
28.99880395094424
 72
     1
 10
33.1166709707357
 20
28.99880395094424
 11
33.11025595109113
 21
29.06393673843549
 72
     1
 10
33.11025595109113
 20
29.06393673843549
 11
33.09959477837863
 21
29.12851050927022
 72
     1
 10
33.09959477837862
 20
29.12851050927022
 11
33.08473310537646
 21
29.19224874864818
 72
     1
 10
33.08473310537646
 20
29.19224874864818
 11
33.0657345720501
 21
29.25487851964303
 72
     1
 10
33.0657345720501
 20
29.25487851964303
 11
33.04268053303589
 21
29.31613163196034
 72
     1
 10
33.04268053303589
 20
29.31613163196034
 11
33.01566970926824
 21
29.37574579036938
 72
     1
 10
33.01566970926824
 20
29.37574579036938
 11
32.98481776524129
 21
29.43346571789168
 72
     1
 10
32.98481776524129
 20
29.43346571789168
 11
32.95025681371584
 21
29.4890442489363
 72
     1
 10
32.95025681371583
 20
29.4890442489363
 11
32.91213484999222
 21
29.54224338770077
 72
     1
 10
32.91213484999222
 20
29.54224338770077
 11
32.87061511817169
 21
29.59283532730555
 72
     1
 10
32.87061511817169
 20
29.59283532730555
 11
32.82587541211983
 21
29.64060342529899
 72
     1
 10
32.82587541211983
 20
29.640603425299
 11
30.63057290068597
 21
31.83590593673208
 72
     1
 10
30.63057290068597
 20
31.83590593673208
 11
30.61624247128808
 21
31.8493278485476
 72
     1
 10
30.61624247128808
 20
31.8493278485476
 11
30.60106488940659
 21
31.8617837680938
 72
     1
 10
30.60106488940659
 20
31.86178376809379
 11
30.58510514777716
 21
31.87322035721095
 72
     1
 10
30.58510514777717
 20
31.87322035721095
 11
30.5684315884637
 21
31.88358864266858
 72
     1
 10
30.5684315884637
 20
31.88358864266858
 11
30.55111561020691
 21
31.89284422587669
 72
     1
 10
30.55111561020691
 20
31.89284422587669
 11
30.53323136268412
 21
31.90094747300699
 72
     1
 10
30.53323136268412
 20
31.90094747300699
 11
30.51485542898883
 21
31.90786368471124
 72
     1
 10
30.51485542898883
 20
31.90786368471124
 11
30.49606649769028
 21
31.91356324470915
 72
     1
 10
30.49606649769027
 20
31.91356324470914
 11
30.47694502587679
 21
31.91802174660976
 72
     1
 10
30.47694502587679
 20
31.91802174660976
 11
30.45757289462628
 21
31.92122009842346
 72
     1
 10
30.45757289462628
 20
31.92122009842346
 11
30.43803305837881
 21
31.92314460431678
 72
     1
 10
30.43803305837881
 20
31.92314460431678
 11
30.4184091897131
 21
31.92378702326103
 72
     1
 10
30.4184091897131
 20
31.92378702326103
 11
30.39486794622332
 21
31.92286208528522
 72
     1
 10
30.39486794622332
 20
31.92286208528522
 11
30.37147184232795
 21
31.92009297390801
 72
     1
 10
30.37147184232794
 20
31.92009297390801
 11
30.34836512278743
 21
31.91549676162183
 72
     1
 10
30.34836512278743
 20
31.91549676162183
 11
30.32569024821154
 21
31.90910178560382
 72
     1
 10
30.32569024821154
 20
31.90910178560382
 11
30.30358701674219
 21
31.90094747300771
 72
     1
 10
30.30358701674219
 20
31.90094747300771
 11
30.28219170215143
 21
31.89108409788223
 72
     1
 10
30.28219170215143
 20
31.89108409788222
 11
30.26163621366841
 21
31.87957247121491
 72
     1
 10
30.26163621366841
 20
31.87957247121491
 11
30.24204728271503
 21
31.86648356601215
 72
     1
 10
30.24204728271503
 20
31.86648356601215
 11
30.22354568156456
 21
31.85189807972711
 72
     1
 10
30.22354568156456
 20
31.85189807972711
 11
30.2062454787405
 21
31.8359059367328
 72
     1
 10
30.2062454787405
 20
31.83590593673279
 11
30.19025333574622
 21
31.81860573390875
 72
     1
 10
30.19025333574622
 20
31.81860573390875
 11
30.17566784946115
 21
31.8001041327583
 72
     1
 10
30.17566784946114
 20
31.8001041327583
 11
30.1625789442584
 21
31.78051520180488
 72
     1
 10
30.1625789442584
 20
31.78051520180488
 11
30.15106731759107
 21
31.75995971332186
 72
     1
 10
30.15106731759107
 20
31.75995971332186
 11
30.14120394246559
 21
31.73856439873114
 72
     1
 10
30.14120394246559
 20
31.73856439873114
 11
30.13304962986947
 21
31.71646116726177
 72
     1
 10
30.13304962986947
 20
31.71646116726176
 11
30.12665465385148
 21
31.69378629268586
 72
     1
 10
30.12665465385148
 20
31.69378629268586
 11
30.12205844156528
 21
31.67067957314538
 72
     1
 10
30.12205844156528
 20
31.67067957314538
 11
30.11928933018806
 21
31.64728346924997
 72
     1
 10
30.11928933018806
 20
31.64728346924997
 11
30.11836439221327
 21
31.6237422257602
 72
     1
 10
30.11836439221327
 20
31.6237422257602
 11
30.11836439221327
 21
30.3235481032607
 72
     1
 10
30.11836439221327
 20
30.3235481032607
 11
30.11743945423748
 21
30.30000685977095
 72
     1
 10
30.11743945423748
 20
30.30000685977095
 11
30.11467034286026
 21
30.27661075587555
 72
     1
 10
30.11467034286025
 20
30.27661075587555
 11
30.11007413057406
 21
30.25350403633507
 72
     1
 10
30.11007413057406
 20
30.25350403633507
 11
30.10367915455609
 21
30.23082916175916
 72
     1
 10
30.10367915455608
 20
30.23082916175916
 11
30.09552484195996
 21
30.20872593028979
 72
     1
 10
30.09552484195996
 20
30.20872593028979
 11
30.08566146683447
 21
30.18733061569907
 72
     1
 10
30.08566146683447
 20
30.18733061569907
 11
30.07414984016714
 21
30.16677512721605
 72
     1
 10
30.07414984016714
 20
30.16677512721604
 11
30.06106093496441
 21
30.14718619626262
 72
     1
 10
30.06106093496441
 20
30.14718619626262
 11
30.04647544867933
 21
30.12868459511218
 72
     1
 10
30.04647544867934
 20
30.12868459511218
 11
30.03048330568504
 21
30.11138439228814
 72
     1
 10
30.03048330568504
 20
30.11138439228814
 11
30.013183102861
 21
30.09539224929382
 72
     1
 10
30.013183102861
 20
30.09539224929382
 11
29.99468150171051
 21
30.08080676300874
 72
     1
 10
29.99468150171051
 20
30.08080676300874
 11
29.97509257075713
 21
30.06771785780602
 72
     1
 10
29.97509257075713
 20
30.06771785780602
 11
29.9545370822741
 21
30.0562062311387
 72
     1
 10
29.9545370822741
 20
30.0562062311387
 11
29.93314176768336
 21
30.04634285601322
 72
     1
 10
29.93314176768337
 20
30.04634285601322
 11
29.911038536214
 21
30.03818854341711
 72
     1
 10
29.911038536214
 20
30.03818854341711
 11
29.88836366163811
 21
30.03179356739909
 72
     1
 10
29.8883636616381
 20
30.0317935673991
 11
29.86525694209761
 21
30.02719735511292
 72
     1
 10
29.86525694209761
 20
30.02719735511292
 11
29.84186083820222
 21
30.02442824373571
 72
     1
 10
29.84186083820222
 20
30.02442824373571
 11
29.81831959471246
 21
30.02350330575989
 72
     1
 10
29.81831959471246
 20
30.0235033057599
 11
27.41796121471297
 21
30.0235033057599
 72
     1
 10
27.41796121471296
 20
30.0235033057599
 11
27.37872580889678
 21
30.02504486905289
 72
     1
 10
27.37872580889679
 20
30.02504486905288
 11
27.33973230240456
 21
30.02966005468156
 72
     1
 10
27.33973230240456
 20
30.02966005468156
 11
27.30122110317046
 21
30.03732040849188
 72
     1
 10
27.30122110317046
 20
30.03732040849188
 11
27.26342964554405
 21
30.04797870185518
 72
     1
 10
27.26342964554405
 20
30.04797870185518
 11
27.22659092642852
 21
30.06156922284869
 72
     1
 10
27.22659092642852
 20
30.06156922284869
 11
27.19093206877734
 21
30.07800818139112
 72
     1
 10
27.19093206877734
 20
30.07800818139112
 11
27.15667292130574
 21
30.09719422583663
 72
     1
 10
27.15667292130574
 20
30.09719422583663
 11
27.12402470305014
 21
30.11900906784115
 72
     1
 10
27.12402470305014
 20
30.11900906784115
 11
27.09318870113274
 21
30.14331821164953
 72
     1
 10
27.09318870113274
 20
30.14331821164953
 11
27.06435502975941
 21
30.16997178330667
 72
     1
 10
27.06435502975941
 20
30.16997178330667
 11
27.03770145810229
 21
30.19880545468001
 72
     1
 10
27.03770145810229
 20
30.19880545468001
 11
27.01339231429388
 21
30.22964145659738
 72
     1
 10
27.01339231429388
 20
30.22964145659738
 11
26.99157747228935
 21
30.26228967485301
 72
     1
 10
26.99157747228935
 20
30.26228967485301
 11
26.97239142784386
 21
30.29654882232462
 72
     1
 10
26.97239142784386
 20
30.29654882232462
 11
26.95595246930141
 21
30.33220767997582
 72
     1
 10
26.95595246930141
 20
30.33220767997582
 11
26.94236194830792
 21
30.36904639909131
 72
     1
 10
26.94236194830792
 20
30.36904639909131
 11
26.9317036549446
 21
30.40683785671771
 72
     1
 10
26.9317036549446
 20
30.40683785671771
 11
26.92404330113433
 21
30.4453490559518
 72
     1
 10
26.92404330113432
 20
30.4453490559518
 11
26.91942811550563
 21
30.48434256244406
 72
     1
 10
26.91942811550563
 20
30.48434256244406
 11
26.91788655221363
 21
30.52357796826023
 72
     1
 10
26.91788655221363
 20
30.52357796826023
 11
26.91788655221363
 21
37.02454858076081
 72
     1
 10
26.91788655221363
 20
37.0245485807608
 11
19.26674421596344
 21
37.0245485807608
 72
     1
 10
19.26674421596344
 20
37.0245485807608
 11
19.26674421596344
 21
36.87452618201091
 72
     1
 10
19.26674421596344
 20
36.87452618201091
 11
21.91713992721309
 21
34.22413047076024
 72
     1
 10
21.9171399272131
 20
34.22413047076024
 11
21.9171399272131
 21
34.02410060575971
 72
     1
 10
21.9171399272131
 20
34.0241006057597
 11
23.91743857721251
 21
34.0241006057597
 72
     1
 10
23.91743857721251
 20
34.0241006057597
 11
23.91743857721251
 21
28.02320465576048
 72
     1
 10
23.91743857721251
 20
28.02320465576048
 11
23.91898014050551
 21
27.98396924994428
 72
     1
 10
23.91898014050551
 20
27.98396924994428
 11
23.92359532613421
 21
27.94497574345206
 72
     1
 10
23.92359532613421
 20
27.94497574345206
 11
23.93125567994448
 21
27.90646454421794
 72
     1
 10
23.93125567994448
 20
27.90646454421794
 11
23.94191397330781
 21
27.86867308659157
 72
     1
 10
23.94191397330781
 20
27.86867308659157
 11
23.9555044943013
 21
27.83183436747604
 72
     1
 10
23.9555044943013
 20
27.83183436747604
 11
23.97194345284375
 21
27.79617550982484
 72
     1
 10
23.97194345284375
 20
27.79617550982484
 11
23.99112949728924
 21
27.76191636235324
 72
     1
 10
23.99112949728924
 20
27.76191636235324
 11
24.01294433929376
 21
27.72926814409764
 72
     1
 10
24.01294433929376
 20
27.72926814409764
 11
24.03725348310218
 21
27.69843214218028
 72
     1
 10
24.03725348310218
 20
27.69843214218028
 11
24.0639070547593
 21
27.6695984708069
 72
     1
 10
24.06390705475929
 20
27.6695984708069
 11
24.09274072613262
 21
27.64294489914979
 72
     1
 10
24.09274072613263
 20
27.64294489914979
 11
24.12357672805002
 21
27.61863575534138
 72
     1
 10
24.12357672805002
 20
27.61863575534138
 11
24.15622494630563
 21
27.59682091333689
 72
     1
 10
24.15622494630563
 20
27.59682091333688
 11
24.19048409377723
 21
27.57763486889138
 72
     1
 10
24.19048409377723
 20
27.57763486889138
 11
24.22614295142841
 21
27.56119591034892
 72
     1
 10
24.22614295142841
 20
27.56119591034891
 11
24.26298167054394
 21
27.54760538935541
 72
     1
 10
24.26298167054394
 20
27.54760538935541
 11
24.30077312817034
 21
27.53694709599211
 72
     1
 10
24.30077312817034
 20
27.53694709599211
 11
24.33928432740445
 21
27.52928674218182
 72
     1
 10
24.33928432740445
 20
27.52928674218182
 11
24.37827783389667
 21
27.52467155655314
 72
     1
 10
24.37827783389667
 20
27.52467155655314
 11
24.41751323971287
 21
27.52312999326012
 72
     1
 10
24.41751323971287
 20
27.52312999326012
 11
29.61828972971394
 21
27.52312999326012
 72
     1
 10
29.61828972971394
 20
27.52312999326012
 11
29.65752513553004
 21
27.52158842996711
 72
     1
 10
29.65752513553004
 20
27.52158842996711
 11
29.6965186420222
 21
27.51697324433843
 72
     1
 10
29.6965186420222
 20
27.51697324433843
 11
29.73502984125622
 21
27.50931289052817
 72
     1
 10
29.73502984125622
 20
27.50931289052817
 11
29.77282129888254
 21
27.49865459716488
 72
     1
 10
29.77282129888255
 20
27.49865459716488
 11
29.80966001799801
 21
27.48506407617144
 72
     1
 10
29.80966001799801
 20
27.48506407617143
 11
29.8453188756491
 21
27.46862511762897
 72
     1
 10
29.84531887564911
 20
27.46862511762897
 11
29.87957802312067
 21
27.44943907318353
 72
     1
 10
29.87957802312066
 20
27.44943907318353
 11
29.91222624137618
 21
27.42762423117907
 72
     1
 10
29.91222624137618
 20
27.42762423117907
 11
29.94306224329351
 21
27.40331508737069
 72
     1
 10
29.94306224329351
 20
27.4033150873707
 11
29.9718959146668
 21
27.37666151571364
 72
     1
 10
29.9718959146668
 20
27.37666151571364
 11
29.99854948632387
 21
27.34782784434037
 72
     1
 10
29.99854948632387
 20
27.34782784434037
 11
30.02285863013222
 21
27.31699184242304
 72
     1
 10
30.02285863013222
 20
27.31699184242304
 11
30.04467347213669
 21
27.2843436241675
 72
     1
 10
30.04467347213669
 20
27.2843436241675
 11
30.06385951658215
 21
27.25008447669592
 72
     1
 10
30.06385951658215
 20
27.25008447669593
 11
30.08029847512457
 21
27.21442561904486
 72
     1
 10
30.08029847512457
 20
27.21442561904486
 11
30.09388899611804
 21
27.1775868999294
 72
     1
 10
30.09388899611804
 20
27.1775868999294
 11
30.10454728948132
 21
27.13979544230306
 72
     1
 10
30.10454728948132
 20
27.13979544230306
 11
30.11220764329159
 21
27.10128424306907
 72
     1
 10
30.11220764329159
 20
27.10128424306907
 11
30.11682282892029
 21
27.06229073657687
 72
     1
 10
30.11682282892029
 20
27.06229073657687
 11
30.11836439221327
 21
27.02305533076077
 72
     1
 10
30.11836439221327
 20
27.02305533076077
 11
30.11836439221327
 21
21.32220417826037
 72
     1
 10
30.11836439221327
 20
21.32220417826037
 11
33.1188123672134
 21
21.32220417826037
 72
     1
 10
33.1188123672134
 20
21.32220417826037
 11
33.1188123672134
 21
28.93339105539184
 97
        0
 92
        1
 93
      135
 72
     1
 10
2.814287819712504
 20
0.1190384882600346
 11
2.83782906320228
 21
0.1199634262358441
 72
     1
 10
2.83782906320228
 20
0.1199634262358441
 11
2.861225167097654
 21
0.1227325376130861
 72
     1
 10
2.861225167097655
 20
0.1227325376130861
 11
2.884331886638151
 21
0.1273287498992648
 72
     1
 10
2.88433188663815
 20
0.1273287498992648
 11
2.90700676121404
 21
0.1337237259172424
 72
     1
 10
2.90700676121404
 20
0.1337237259172424
 11
2.929109992683393
 21
0.1418780385133586
 72
     1
 10
2.929109992683393
 20
0.1418780385133586
 11
2.950505307274149
 21
0.1517414136388693
 72
     1
 10
2.950505307274149
 20
0.1517414136388693
 11
2.971060795757156
 21
0.1632530403061865
 72
     1
 10
2.971060795757156
 20
0.1632530403061865
 11
2.990649726710543
 21
0.176341945508947
 72
     1
 10
2.990649726710543
 20
0.176341945508947
 11
3.00915132786101
 21
0.1909274317939878
 72
     1
 10
3.00915132786101
 20
0.1909274317939878
 11
3.026451530685034
 21
0.2069195747883032
 72
     1
 10
3.026451530685034
 20
0.2069195747883032
 11
3.042443673679334
 21
0.2242197776123437
 72
     1
 10
3.042443673679333
 20
0.2242197776123437
 11
3.057029159964407
 21
0.2427213787628274
 72
     1
 10
3.057029159964407
 20
0.2427213787628274
 11
3.070118065167151
 21
0.262310309716214
 72
     1
 10
3.070118065167151
 20
0.262310309716214
 11
3.081629691834468
 21
0.2828657981992373
 72
     1
 10
3.081629691834468
 20
0.2828657981992373
 11
3.091493066959947
 21
0.3042611127899606
 72
     1
 10
3.091493066959946
 20
0.3042611127899606
 11
3.099647379556063
 21
0.3263643442593303
 72
     1
 10
3.099647379556063
 20
0.3263643442593303
 11
3.106042355574073
 21
0.3490392188352034
 72
     1
 10
3.106042355574073
 20
0.3490392188352033
 11
3.110638567860251
 21
0.3721459383757153
 72
     1
 10
3.110638567860251
 20
0.3721459383757153
 11
3.113407679237477
 21
0.3955420422710896
 72
     1
 10
3.113407679237477
 20
0.3955420422710896
 11
3.11433261721327
 21
0.4190832857608663
 72
     1
 10
3.114332617213271
 20
0.4190832857608663
 11
3.114332617212264
 21
1.819292340760632
 72
     1
 10
3.114332617212264
 20
1.819292340760632
 11
3.115257555188057
 21
1.842833584250408
 72
     1
 10
3.115257555188057
 20
1.842833584250408
 11
3.118026666565282
 21
1.866229688145815
 72
     1
 10
3.118026666565282
 20
1.866229688145815
 11
3.122622878851478
 21
1.889336407686295
 72
     1
 10
3.122622878851478
 20
1.889336407686295
 11
3.129017854869455
 21
1.912011282262168
 72
     1
 10
3.129017854869455
 20
1.912011282262168
 11
3.137172167465571
 21
1.93411451373157
 72
     1
 10
3.137172167465571
 20
1.93411451373157
 11
3.147035542591066
 21
1.955509828322293
 72
     1
 10
3.147035542591066
 20
1.955509828322293
 11
3.158547169258399
 21
1.976065316805317
 72
     1
 10
3.158547169258399
 20
1.976065316805317
 11
3.171636074461127
 21
1.995654247758703
 72
     1
 10
3.171636074461127
 20
1.995654247758703
 11
3.186221560746201
 21
2.014155848909187
 72
     1
 10
3.1862215607462
 20
2.014155848909187
 11
3.2022137037405
 21
2.031456051733195
 72
     1
 10
3.202213703740499
 20
2.031456051733195
 11
3.219513906564539
 21
2.047448194727543
 72
     1
 10
3.21951390656454
 20
2.047448194727543
 11
3.238015507715024
 21
2.062033681012584
 72
     1
 10
3.238015507715024
 20
2.062033681012584
 11
3.257604438668411
 21
2.075122586215312
 72
     1
 10
3.257604438668411
 20
2.075122586215312
 11
3.278159927151434
 21
2.086634212882661
 72
     1
 10
3.278159927151434
 20
2.086634212882661
 11
3.299555241742174
 21
2.096497588008139
 72
     1
 10
3.299555241742173
 20
2.09649758800814
 11
3.321658473211543
 21
2.104651900604256
 72
     1
 10
3.321658473211543
 20
2.104651900604256
 11
3.344333347787432
 21
2.111046876622266
 72
     1
 10
3.344333347787432
 20
2.111046876622266
 11
3.367440067327928
 21
2.115643088908444
 72
     1
 10
3.367440067327928
 20
2.115643088908444
 11
3.390836171223318
 21
2.118412200285654
 72
     1
 10
3.390836171223319
 20
2.118412200285654
 11
3.414377414713079
 21
2.119337138260457
 72
     1
 10
3.414377414713079
 20
2.119337138260457
 11
9.365265898463677
 21
2.119337138260457
 72
     1
 10
9.365265898463675
 20
2.119337138260457
 11
9.365265898463675
 21
5.369822444510749
 72
     1
 10
9.365265898463675
 20
5.369822444510749
 11
9.36125783390185
 21
5.471834499632789
 72
     1
 10
9.361257833901852
 20
5.471834499632789
 11
9.349258351267245
 21
5.573217616512581
 72
     1
 10
9.349258351267245
 20
5.573217616512582
 11
9.329341431360509
 21
5.673346734521207
 72
     1
 10
9.329341431360509
 20
5.673346734521207
 11
9.30162986861594
 21
5.771604524349817
 72
     1
 10
9.30162986861594
 20
5.771604524349817
 11
9.266294514032862
 21
5.867385194050148
 72
     1
 10
9.26629451403286
 20
5.867385194050149
 11
9.223553221822488
 21
5.960098223943164
 72
     1
 10
9.223553221822486
 20
5.960098223943164
 11
9.17366950626422
 21
6.049172007369403
 72
     1
 10
9.173669506264221
 20
6.049172007369404
 11
9.116950917052509
 21
6.134057374833895
 72
     1
 10
9.116950917052509
 20
6.134057374833895
 11
9.053747143150644
 21
6.214230979819076
 72
     1
 10
9.053747143150642
 20
6.214230979819075
 11
8.984447856842175
 21
6.289198525389754
 72
     1
 10
8.984447856842175
 20
6.289198525389755
 11
8.909480311271495
 21
6.358497811698239
 72
     1
 10
8.909480311271495
 20
6.358497811698238
 11
8.829306706286315
 21
6.421701585600071
 72
     1
 10
8.829306706286317
 20
6.421701585600071
 11
8.744421338821792
 21
6.478420174811816
 72
     1
 10
8.744421338821792
 20
6.478420174811817
 11
8.655347555395586
 21
6.52830389037005
 72
     1
 10
8.655347555395584
 20
6.52830389037005
 11
8.562634525502568
 21
6.571045182580456
 72
     1
 10
8.56263452550257
 20
6.571045182580456
 11
8.466853855802238
 21
6.606380537163518
 72
     1
 10
8.466853855802238
 20
6.606380537163517
 11
8.368596065973596
 21
6.634092099908087
 72
     1
 10
8.368596065973594
 20
6.634092099908087
 11
8.268466947964968
 21
6.65400901981484
 72
     1
 10
8.26846694796497
 20
6.654009019814839
 11
8.167083831085211
 21
6.666008502449447
 72
     1
 10
8.167083831085211
 20
6.666008502449447
 11
8.065071775963154
 21
6.670016567011256
 72
     1
 10
8.065071775963152
 20
6.670016567011256
 11
7.963059720841096
 21
6.666008502449447
 72
     1
 10
7.963059720841097
 20
6.666008502449447
 11
7.861676603961337
 21
6.654009019814839
 72
     1
 10
7.861676603961337
 20
6.654009019814839
 11
7.761547485952712
 21
6.634092099908087
 72
     1
 10
7.761547485952712
 20
6.634092099908087
 11
7.663289696124069
 21
6.606380537163518
 72
     1
 10
7.663289696124069
 20
6.606380537163517
 11
7.567509026423738
 21
6.571045182580455
 72
     1
 10
7.567509026423738
 20
6.571045182580456
 11
7.474795996530723
 21
6.52830389037005
 72
     1
 10
7.474795996530722
 20
6.52830389037005
 11
7.385722213104515
 21
6.478420174811817
 72
     1
 10
7.385722213104515
 20
6.478420174811817
 11
7.300836845639991
 21
6.421701585600072
 72
     1
 10
7.300836845639992
 20
6.421701585600071
 11
7.220663240654811
 21
6.358497811698238
 72
     1
 10
7.220663240654811
 20
6.358497811698238
 11
7.145695695084132
 21
6.289198525389755
 72
     1
 10
7.145695695084132
 20
6.289198525389755
 11
7.076396408775665
 21
6.214230979819076
 72
     1
 10
7.076396408775664
 20
6.214230979819075
 11
7.013192634873798
 21
6.134057374833894
 72
     1
 10
7.013192634873799
 20
6.134057374833895
 11
6.956474045662086
 21
6.049172007369404
 72
     1
 10
6.956474045662086
 20
6.049172007369404
 11
6.90659033010382
 21
5.960098223943164
 72
     1
 10
6.906590330103821
 20
5.960098223943164
 11
6.863849037893447
 21
5.867385194050149
 72
     1
 10
6.863849037893447
 20
5.867385194050149
 11
6.828513683310369
 21
5.771604524349818
 72
     1
 10
6.828513683310369
 20
5.771604524349817
 11
6.8008021205658
 21
5.673346734521207
 72
     1
 10
6.800802120565799
 20
5.673346734521207
 11
6.780885200659063
 21
5.573217616512582
 72
     1
 10
6.780885200659063
 20
5.573217616512582
 11
6.768885718024455
 21
5.47183449963279
 72
     1
 10
6.768885718024455
 20
5.471834499632789
 11
6.76487765346263
 21
5.369822444510749
 72
     1
 10
6.76487765346263
 20
5.369822444510749
 11
6.76487765346263
 21
5.119785113260554
 72
     1
 10
6.76487765346263
 20
5.119785113260554
 11
3.414377414713078
 21
5.119785113259546
 72
     1
 10
3.414377414713079
 20
5.119785113259546
 11
3.390836171223319
 21
5.120710051235356
 72
     1
 10
3.390836171223319
 20
5.120710051235357
 11
3.367440067327928
 21
5.123479162612566
 72
     1
 10
3.367440067327928
 20
5.123479162612566
 11
3.344333347787432
 21
5.128075374898744
 72
     1
 10
3.344333347787432
 20
5.128075374898744
 11
3.321658473211543
 21
5.134470350916754
 72
     1
 10
3.321658473211543
 20
5.134470350916755
 11
3.299555241742173
 21
5.142624663512871
 72
     1
 10
3.299555241742173
 20
5.142624663512871
 11
3.278159927151433
 21
5.15248803863835
 72
     1
 10
3.278159927151434
 20
5.152488038638349
 11
3.257604438668411
 21
5.163999665305698
 72
     1
 10
3.257604438668411
 20
5.163999665305699
 11
3.238015507715024
 21
5.177088570508427
 72
     1
 10
3.238015507715024
 20
5.177088570508427
 11
3.21951390656454
 21
5.191674056793468
 72
     1
 10
3.21951390656454
 20
5.191674056793467
 11
3.2022137037405
 21
5.207666199787815
 72
     1
 10
3.202213703740499
 20
5.207666199787816
 11
3.1862215607462
 21
5.224966402611824
 72
     1
 10
3.1862215607462
 20
5.224966402611823
 11
3.171636074461127
 21
5.243468003762306
 72
     1
 10
3.171636074461127
 20
5.243468003762307
 11
3.158547169258399
 21
5.263056934715694
 72
     1
 10
3.158547169258399
 20
5.263056934715693
 11
3.147035542591066
 21
5.283612423198716
 72
     1
 10
3.147035542591066
 20
5.283612423198717
 11
3.137172167465571
 21
5.30500773778944
 72
     1
 10
3.137172167465571
 20
5.30500773778944
 11
3.129017854869455
 21
5.327110969258843
 72
     1
 10
3.129017854869455
 20
5.327110969258842
 11
3.122622878851477
 21
5.349785843834715
 72
     1
 10
3.122622878851478
 20
5.349785843834715
 11
3.118026666565282
 21
5.372892563375195
 72
     1
 10
3.118026666565282
 20
5.372892563375195
 11
3.115257555188057
 21
5.396288667270602
 72
     1
 10
3.115257555188057
 20
5.396288667270602
 11
3.11433261721327
 21
5.419829910760379
 72
     1
 10
3.114332617213271
 20
5.419829910760379
 11
3.114332617213271
 21
10.72062133326069
 72
     1
 10
3.114332617213271
 20
10.72062133326069
 11
2.814287819712439
 21
10.72062133326069
 72
     1
 10
2.814287819712438
 20
10.72062133326069
 11
0.1638921084627869
 21
13.37101704451036
 72
     1
 10
0.1638921084627869
 20
13.37101704451036
 11
0.1138846422131572
 21
13.37101704451036
 72
     1
 10
0.1138846422131572
 20
13.37101704451036
 11
0.1138846422151876
 21
3.109434456129253
 72
     1
 10
0.1138846422151876
 20
3.109434456129255
 11
0.116026038692863
 21
3.044021560576983
 72
     1
 10
0.116026038692863
 20
3.044021560576983
 11
0.1224410583374373
 21
2.978888773085831
 72
     1
 10
0.1224410583374373
 20
2.97888877308583
 11
0.1331022310499155
 21
2.914315002251225
 72
     1
 10
0.1331022310499155
 20
2.914315002251225
 11
0.1479639040520338
 21
2.850576762873405
 72
     1
 10
0.1479639040520338
 20
2.850576762873405
 11
0.1669624373783638
 21
2.78794699187865
 72
     1
 10
0.1669624373783638
 20
2.78794699187865
 11
0.1900164763925337
 21
2.726693879561508
 72
     1
 10
0.1900164763925337
 20
2.726693879561508
 11
0.2170273001601372
 21
2.667079721152596
 72
     1
 10
0.2170273001601371
 20
2.667079721152596
 11
0.2478792441870229
 21
2.609359793630392
 72
     1
 10
0.2478792441870229
 20
2.609359793630392
 11
0.2824401957123932
 21
2.553781262585864
 72
     1
 10
0.2824401957123932
 20
2.553781262585864
 11
0.3205621594359261
 21
2.500582123821526
 72
     1
 10
0.3205621594359261
 20
2.500582123821526
 11
0.3620818912563781
 21
2.449990184216879
 72
     1
 10
0.3620818912563781
 20
2.449990184216879
 11
0.4068215973067307
 21
2.402222086223105
 72
     1
 10
0.4068215973067307
 20
2.402222086223105
 11
2.602124108739827
 21
0.2069195747883352
 72
     1
 10
2.602124108739827
 20
0.2069195747883357
 11
2.61645453813768
 21
0.1934976629728206
 72
     1
 10
2.61645453813768
 20
0.1934976629728206
 11
2.631632120019158
 21
0.1810417434265907
 72
     1
 10
2.631632120019158
 20
0.1810417434265907
 11
2.647591861648547
 21
0.1696051543094968
 72
     1
 10
2.647591861648548
 20
0.1696051543094968
 11
2.664265420961991
 21
0.1592368688518369
 72
     1
 10
2.66426542096199
 20
0.1592368688518369
 11
2.681581399218755
 21
0.1499812856436884
 72
     1
 10
2.681581399218756
 20
0.1499812856436884
 11
2.699465646741517
 21
0.1418780385133586
 72
     1
 10
2.699465646741517
 20
0.1418780385133586
 11
2.717841580436757
 21
0.1349618268090768
 72
     1
 10
2.717841580436757
 20
0.1349618268090768
 11
2.736630511735294
 21
0.129262266811142
 72
     1
 10
2.736630511735294
 20
0.1292622668111421
 11
2.755751983548727
 21
0.1248037649104903
 72
     1
 10
2.755751983548727
 20
0.1248037649104903
 11
2.775124114799206
 21
0.121605413096729
 72
     1
 10
2.775124114799206
 20
0.121605413096729
 11
2.794663951046663
 21
0.1196809072033404
 72
     1
 10
2.794663951046663
 20
0.1196809072033405
 11
2.814287819712504
 21
0.1190384882600346
 97
        0
 92
        1
 93
      133
 72
     1
 10
26.4678193559629
 20
5.369822444510749
 11
26.4638112914011
 21
5.471834499632724
 72
     1
 10
26.4638112914011
 20
5.471834499632724
 11
26.45181180876649
 21
5.57321761651242
 72
     1
 10
26.45181180876649
 20
5.57321761651242
 11
26.43189488885977
 21
5.673346734520948
 72
     1
 10
26.43189488885977
 20
5.673346734520948
 11
26.40418332611522
 21
5.771604524349493
 72
     1
 10
26.40418332611521
 20
5.771604524349493
 11
26.36884797153216
 21
5.867385194049792
 72
     1
 10
26.36884797153217
 20
5.867385194049791
 11
26.32610667932183
 21
5.960098223942742
 72
     1
 10
26.32610667932183
 20
5.960098223942742
 11
26.27622296376361
 21
6.04917200736885
 72
     1
 10
26.27622296376361
 20
6.049172007368851
 11
26.21950437455192
 21
6.13405737483331
 72
     1
 10
26.21950437455192
 20
6.13405737483331
 11
26.15630060065013
 21
6.214230979818426
 72
     1
 10
26.15630060065013
 20
6.214230979818425
 11
26.0870013143417
 21
6.289198525389039
 72
     1
 10
26.0870013143417
 20
6.28919852538904
 11
26.01203376877108
 21
6.358497811697458
 72
     1
 10
26.01203376877108
 20
6.358497811697458
 11
25.93186016378596
 21
6.421701585599258
 72
     1
 10
25.93186016378597
 20
6.421701585599258
 11
25.84697479632151
 21
6.478420174810938
 72
     1
 10
25.84697479632151
 20
6.478420174810939
 11
25.75790101289537
 21
6.528303890369173
 72
     1
 10
25.75790101289536
 20
6.528303890369173
 11
25.66518798300241
 21
6.571045182579513
 72
     1
 10
25.66518798300242
 20
6.571045182579513
 11
25.56940731330217
 21
6.606380537162543
 72
     1
 10
25.56940731330217
 20
6.606380537162543
 11
25.47114952347361
 21
6.634092099907112
 72
     1
 10
25.47114952347361
 20
6.634092099907113
 11
25.37102040546506
 21
6.654009019813833
 72
     1
 10
25.37102040546506
 20
6.654009019813832
 11
25.26963728858536
 21
6.666008502448439
 72
     1
 10
25.26963728858536
 20
6.666008502448439
 11
25.16762523346339
 21
6.670016567010248
 72
     1
 10
25.16762523346339
 20
6.670016567010248
 11
25.06561317834143
 21
6.666008502448439
 72
     1
 10
25.06561317834143
 20
6.666008502448439
 11
24.96423006146173
 21
6.654009019813832
 72
     1
 10
24.96423006146173
 20
6.654009019813832
 11
24.86410094345318
 21
6.634092099907112
 72
     1
 10
24.86410094345319
 20
6.634092099907113
 11
24.76584315362463
 21
6.606380537162544
 72
     1
 10
24.76584315362463
 20
6.606380537162543
 11
24.67006248392438
 21
6.571045182579482
 72
     1
 10
24.67006248392438
 20
6.571045182579481
 11
24.57734945403143
 21
6.528303890369172
 72
     1
 10
24.57734945403143
 20
6.528303890369173
 11
24.48827567060529
 21
6.478420174810939
 72
     1
 10
24.48827567060529
 20
6.478420174810939
 11
24.40339030314083
 21
6.421701585599259
 72
     1
 10
24.40339030314083
 20
6.421701585599258
 11
24.32321669815571
 21
6.358497811697458
 72
     1
 10
24.32321669815571
 20
6.358497811697458
 11
24.2482491525851
 21
6.28919852538904
 72
     1
 10
24.2482491525851
 20
6.28919852538904
 11
24.17894986627666
 21
6.214230979818426
 72
     1
 10
24.17894986627667
 20
6.214230979818425
 11
24.11574609237488
 21
6.134057374833309
 72
     1
 10
24.11574609237488
 20
6.13405737483331
 11
24.05902750316318
 21
6.049172007368851
 72
     1
 10
24.05902750316319
 20
6.049172007368851
 11
24.00914378760497
 21
5.96009822394271
 72
     1
 10
24.00914378760496
 20
5.960098223942709
 11
23.96640249539462
 21
5.86738519404979
 72
     1
 10
23.96640249539462
 20
5.867385194049791
 11
23.93106714081158
 21
5.771604524349492
 72
     1
 10
23.93106714081158
 20
5.771604524349493
 11
23.90335557806702
 21
5.673346734520948
 72
     1
 10
23.90335557806702
 20
5.673346734520948
 11
23.88343865816031
 21
5.57321761651242
 72
     1
 10
23.88343865816031
 20
5.57321761651242
 11
23.8714391755257
 21
5.471834499632724
 72
     1
 10
23.8714391755257
 20
5.471834499632724
 11
23.86743111096288
 21
5.369822444510749
 72
     1
 10
23.86743111096288
 20
5.369822444510749
 11
23.86743111096288
 21
2.119337138260456
 72
     1
 10
23.86743111096288
 20
2.119337138260457
 11
29.81831959471246
 21
2.119337138261464
 72
     1
 10
29.81831959471246
 20
2.119337138261463
 11
29.84186083820222
 21
2.118412200285654
 72
     1
 10
29.84186083820222
 20
2.118412200285654
 11
29.86525694209761
 21
2.115643088908444
 72
     1
 10
29.86525694209761
 20
2.115643088908444
 11
29.8883636616381
 21
2.111046876622266
 72
     1
 10
29.8883636616381
 20
2.111046876622266
 11
29.91103853621399
 21
2.104651900604256
 72
     1
 10
29.911038536214
 20
2.104651900604256
 11
29.93314176768337
 21
2.096497588008139
 72
     1
 10
29.93314176768337
 20
2.09649758800814
 11
29.9545370822741
 21
2.086634212882661
 72
     1
 10
29.9545370822741
 20
2.086634212882661
 11
29.97509257075713
 21
2.075122586215311
 72
     1
 10
29.97509257075713
 20
2.075122586215312
 11
29.99468150171051
 21
2.062033681012584
 72
     1
 10
29.99468150171051
 20
2.062033681012584
 11
30.013183102861
 21
2.047448194727543
 72
     1
 10
30.013183102861
 20
2.047448194727543
 11
30.03048330568504
 21
2.031456051733195
 72
     1
 10
30.03048330568504
 20
2.031456051733195
 11
30.04647544867934
 21
2.014155848909187
 72
     1
 10
30.04647544867934
 20
2.014155848909187
 11
30.06106093496441
 21
1.995654247758703
 72
     1
 10
30.06106093496441
 20
1.995654247758703
 11
30.07414984016714
 21
1.976065316805316
 72
     1
 10
30.07414984016714
 20
1.976065316805317
 11
30.08566146683447
 21
1.955509828322293
 72
     1
 10
30.08566146683447
 20
1.955509828322293
 11
30.09552484195996
 21
1.93411451373157
 72
     1
 10
30.09552484195996
 20
1.93411451373157
 11
30.10367915455608
 21
1.912011282262168
 72
     1
 10
30.10367915455608
 20
1.912011282262168
 11
30.11007413057406
 21
1.889336407686295
 72
     1
 10
30.11007413057406
 20
1.889336407686295
 11
30.11467034286026
 21
1.866229688145815
 72
     1
 10
30.11467034286025
 20
1.866229688145815
 11
30.11743945423748
 21
1.842833584250409
 72
     1
 10
30.11743945423748
 20
1.842833584250408
 11
30.11836439221327
 21
1.819292340760632
 72
     1
 10
30.11836439221327
 20
1.819292340760632
 11
30.11836439221227
 21
0.4190832857608662
 72
     1
 10
30.11836439221227
 20
0.4190832857608663
 11
30.11928933018806
 21
0.3955420422710896
 72
     1
 10
30.11928933018806
 20
0.3955420422710896
 11
30.12205844156528
 21
0.3721459383756829
 72
     1
 10
30.12205844156528
 20
0.3721459383756829
 11
30.12665465385148
 21
0.3490392188352034
 72
     1
 10
30.12665465385148
 20
0.3490392188352033
 11
30.13304962986947
 21
0.3263643442593302
 72
     1
 10
30.13304962986947
 20
0.3263643442593303
 11
30.14120394246559
 21
0.3042611127899281
 72
     1
 10
30.14120394246559
 20
0.304261112789928
 11
30.15106731759106
 21
0.2828657981992047
 72
     1
 10
30.15106731759107
 20
0.2828657981992047
 11
30.1625789442584
 21
0.2623103097161815
 72
     1
 10
30.1625789442584
 20
0.2623103097161815
 11
30.17566784946114
 21
0.2427213787627948
 72
     1
 10
30.17566784946114
 20
0.2427213787627949
 11
30.19025333574622
 21
0.2242197776123111
 72
     1
 10
30.19025333574622
 20
0.2242197776123112
 11
30.2062454787405
 21
0.2069195747883032
 72
     1
 10
30.2062454787405
 20
0.2069195747883032
 11
30.22354568156456
 21
0.1909274317939553
 72
     1
 10
30.22354568156456
 20
0.1909274317939553
 11
30.24204728271503
 21
0.1763419455089145
 72
     1
 10
30.24204728271503
 20
0.1763419455089145
 11
30.26163621366841
 21
0.1632530403061865
 72
     1
 10
30.26163621366841
 20
0.1632530403061865
 11
30.28219170215143
 21
0.1517414136388369
 72
     1
 10
30.28219170215143
 20
0.1517414136388369
 11
30.30358701674219
 21
0.1418780385133586
 72
     1
 10
30.30358701674219
 20
0.1418780385133586
 11
30.32569024821154
 21
0.1337237259172424
 72
     1
 10
30.32569024821154
 20
0.1337237259172424
 11
30.34836512278743
 21
0.1273287498992323
 72
     1
 10
30.34836512278743
 20
0.1273287498992323
 11
30.37147184232794
 21
0.1227325376130536
 72
     1
 10
30.37147184232794
 20
0.1227325376130536
 11
30.39486794622332
 21
0.1199634262358441
 72
     1
 10
30.39486794622332
 20
0.1199634262358441
 11
30.41840918971305
 21
0.1190384882600346
 72
     1
 10
30.41840918971305
 20
0.1190384882600346
 11
30.43803305837887
 21
0.1196809072033405
 72
     1
 10
30.43803305837887
 20
0.1196809072033405
 11
30.45757289462638
 21
0.121605413096729
 72
     1
 10
30.45757289462638
 20
0.121605413096729
 11
30.47694502587692
 21
0.1248037649105228
 72
     1
 10
30.47694502587692
 20
0.1248037649105228
 11
30.4960664976904
 21
0.1292622668111745
 72
     1
 10
30.4960664976904
 20
0.1292622668111745
 11
30.51485542898897
 21
0.1349618268091417
 72
     1
 10
30.51485542898897
 20
0.1349618268091417
 11
30.53323136268426
 21
0.1418780385134561
 72
     1
 10
30.53323136268426
 20
0.141878038513456
 11
30.55111561020707
 21
0.1499812856438183
 72
     1
 10
30.55111561020707
 20
0.1499812856438183
 11
30.56843158846386
 21
0.1592368688519669
 72
     1
 10
30.56843158846386
 20
0.1592368688519669
 11
30.58510514777733
 21
0.1696051543097241
 72
     1
 10
30.58510514777733
 20
0.1696051543097242
 11
30.60106488940672
 21
0.1810417434268831
 72
     1
 10
30.60106488940672
 20
0.1810417434268831
 11
30.61624247128825
 21
0.1934976629731454
 72
     1
 10
30.61624247128825
 20
0.1934976629731454
 11
30.63057290068533
 21
0.2069195747885955
 72
     1
 10
30.63057290068533
 20
0.2069195747885955
 11
32.82587541212013
 21
2.402222086222812
 72
     1
 10
32.82587541212013
 20
2.402222086222813
 11
32.87061511817171
 21
2.449990184215547
 72
     1
 10
32.87061511817171
 20
2.449990184215547
 11
32.91213484999222
 21
2.500582123820291
 72
     1
 10
32.91213484999222
 20
2.500582123820291
 11
32.95025681371583
 21
2.55378126258476
 72
     1
 10
32.95025681371583
 20
2.55378126258476
 11
32.98481776524128
 21
2.609359793629385
 72
     1
 10
32.98481776524129
 20
2.609359793629385
 11
33.01566970926824
 21
2.667079721151719
 72
     1
 10
33.01566970926824
 20
2.667079721151719
 11
33.04268053303589
 21
2.726693879560729
 72
     1
 10
33.04268053303589
 20
2.726693879560729
 11
33.06573457205011
 21
2.787946991878033
 72
     1
 10
33.0657345720501
 20
2.787946991878033
 11
33.08473310537649
 21
2.850576762872885
 72
     1
 10
33.08473310537649
 20
2.850576762872885
 11
33.09959477837863
 21
2.914315002250835
 72
     1
 10
33.09959477837862
 20
2.914315002250835
 11
33.11025595109113
 21
2.978888773085571
 72
     1
 10
33.11025595109113
 20
2.978888773085571
 11
33.1166709707357
 21
3.044021560576821
 72
     1
 10
33.1166709707357
 20
3.04402156057682
 11
33.11881236721339
 21
3.109434456129255
 72
     1
 10
33.1188123672134
 20
3.109434456129255
 11
33.1188123672134
 21
10.72062133326069
 72
     1
 10
33.1188123672134
 20
10.72062133326069
 11
30.11836439221327
 21
10.72062133326069
 72
     1
 10
30.11836439221327
 20
10.72062133326069
 11
30.11836439221327
 21
5.419829910760378
 72
     1
 10
30.11836439221327
 20
5.419829910760379
 11
30.11743945423748
 21
5.396288667270602
 72
     1
 10
30.11743945423748
 20
5.396288667270602
 11
30.11467034286026
 21
5.372892563375195
 72
     1
 10
30.11467034286025
 20
5.372892563375195
 11
30.11007413057406
 21
5.349785843834715
 72
     1
 10
30.11007413057406
 20
5.349785843834715
 11
30.10367915455609
 21
5.327110969258842
 72
     1
 10
30.10367915455608
 20
5.327110969258842
 11
30.09552484195996
 21
5.30500773778944
 72
     1
 10
30.09552484195996
 20
5.30500773778944
 11
30.08566146683447
 21
5.283612423198717
 72
     1
 10
30.08566146683447
 20
5.283612423198717
 11
30.07414984016714
 21
5.263056934715694
 72
     1
 10
30.07414984016714
 20
5.263056934715693
 11
30.06106093496441
 21
5.243468003762306
 72
     1
 10
30.06106093496441
 20
5.243468003762307
 11
30.04647544867933
 21
5.224966402611824
 72
     1
 10
30.04647544867934
 20
5.224966402611823
 11
30.03048330568504
 21
5.207666199787815
 72
     1
 10
30.03048330568504
 20
5.207666199787816
 11
30.013183102861
 21
5.191674056793468
 72
     1
 10
30.013183102861
 20
5.191674056793467
 11
29.99468150171051
 21
5.177088570508426
 72
     1
 10
29.99468150171051
 20
5.177088570508427
 11
29.97509257075713
 21
5.163999665305699
 72
     1
 10
29.97509257075713
 20
5.163999665305699
 11
29.9545370822741
 21
5.15248803863835
 72
     1
 10
29.9545370822741
 20
5.152488038638349
 11
29.93314176768336
 21
5.14262466351287
 72
     1
 10
29.93314176768337
 20
5.142624663512871
 11
29.911038536214
 21
5.134470350916755
 72
     1
 10
29.911038536214
 20
5.134470350916755
 11
29.88836366163811
 21
5.128075374898745
 72
     1
 10
29.8883636616381
 20
5.128075374898744
 11
29.86525694209761
 21
5.123479162612566
 72
     1
 10
29.86525694209761
 20
5.123479162612566
 11
29.84186083820222
 21
5.120710051235357
 72
     1
 10
29.84186083820222
 20
5.120710051235357
 11
29.81831959471246
 21
5.119785113260554
 72
     1
 10
29.81831959471246
 20
5.119785113260554
 11
26.4678193559629
 21
5.119785113260554
 72
     1
 10
26.4678193559629
 20
5.119785113260554
 11
26.4678193559629
 21
5.369822444510749
 97
        0
 75
     0
 76
     1
 52
0.0
 41
17.47760945437574
 77
     0
 78
     1
 53
45.0
 43
-100.7154551652858
 44
-147.0172150667392
 45
-1.5448170205149
 46
1.5448170205149
 79
     0
 98
        1
 10
-100.7154551652858
 20
-147.0172150667392
  0
LINE
  5
6C0
330
A
100
AcDbEntity
  8
0
  6
Continuous
 62
     9
370
     0
100
AcDbLine
 10
95.42260794913627
 20
3.109130751514325
 30
0.0
 11
5095.661357121901
 21
3.109130751514325
 31
0.0
  0
LINE
  5
6C1
330
A
100
AcDbEntity
  8
0
  6
Continuous
 62
     7
370
     0
100
AcDbLine
 10
5095.661357121901
 20
3.109130751514325
 30
0.0
 11
5095.661357121901
 21
2.40199020609601
 31
0.0
  0
LINE
  5
6C2
330
A
100
AcDbEntity
  8
0
  6
Continuous
 62
     9
370
     0
100
AcDbLine
 10
5095.661357121901
 20
2.40199020609601
 30
0.0
 11
95.42260794913627
 21
2.40199020609601
 31
0.0
  0
LINE
  5
6C3
330
A
100
AcDbEntity
  8
0
  6
Continuous
 62
     7
370
     0
100
AcDbLine
 10
95.42260794913627
 20
2.40199020609601
 30
0.0
 11
95.42260794913627
 21
3.109130751514325
 31
0.0
  0
LINE
  5
6C4
330
A
100
AcDbEntity
  8
0
  6
Continuous
 62
     7
370
     0
100
AcDbLine
 10
190.127129858468
 20
16.01979771062955
 30
0.0
 11
95.42260794913627
 21
16.01979771062955
 31
0.0
  0
LINE
  5
6C5
330
A
100
AcDbEntity
  8
0
  6
Continuous
 62
     7
370
     0
100
AcDbLine
 10
95.42260794913627
 20
16.31981203558003
 30
0.0
 11
190.1356276420879
 21
16.31981203558003
 31
0.0
  0
LINE
  5
6C6
330
A
100
AcDbEntity
  8
0
  6
Continuous
 62
     7
370
     0
100
AcDbLine
 10
190.1356276420873
 20
16.31981203558003
 30
0.0
 11
190.1271298584681
 21
16.01979771062955
 31
0.0
  0
LINE
  5
6C7
330
A
100
AcDbEntity
  8
0
  6
Continuous
 62
     7
370
     0
100
AcDbLine
 10
95.42260794913627
 20
16.31981203558003
 30
0.0
 11
95.42260794913627
 21
16.01979771062955
 31
0.0
  0
LINE
  5
6C8
330
A
100
AcDbEntity
  8
0
  6
Continuous
 62
     7
370
     0
100
AcDbLine
 10
5095.661357121901
 20
15.71978338567915
 30
0.0
 11
5000.94833742895
 21
15.71978338567915
 31
0.0
  0
LINE
  5
6C9
330
A
100
AcDbEntity
  8
0
  6
Continuous
 62
     7
370
     0
100
AcDbLine
 10
5095.661357121901
 20
3.109130751514325
 30
0.0
 11
5095.661357121901
 21
15.71978338567915
 31
0.0
  0
LINE
  5
6CA
330
A
100
AcDbEntity
  8
0
  6
Continuous
 62
     7
370
     0
100
AcDbLine
 10
190.135627642087
 20
15.71978338567915
 30
0.0
 11
95.42260794913627
 21
15.71978338567915
 31
0.0
  0
ARC
  5
6CB
330
A
100
AcDbEntity
  8
0
  6
Continuous
 62
     7
370
     0
100
AcDbCircle
 10
195.4273829325913
 20
16.01979771062955
 30
0.0
 40
5.300253074123205
100
AcDbArc
 50
183.244891671744
 51
356.7551083282559
  0
LINE
  5
6CC
330
A
100
AcDbEntity
  8
0
  6
Continuous
 62
     7
370
     0
100
AcDbLine
 10
590.1547275759084
 20
15.71978338567915
 30
0.0
 11
200.7191382230952
 21
15.71978338567915
 31
0.0
  0
ARC
  5
6CD
330
A
100
AcDbEntity
  8
0
  6
Continuous
 62
     7
370
     0
100
AcDbCircle
 10
595.4464828664124
 20
16.01979771062955
 30
0.0
 40
5.300253074123104
100
AcDbArc
 50
183.244891671744
 51
356.7551083282559
  0
LINE
  5
6CE
330
A
100
AcDbEntity
  8
0
  6
Continuous
 62
     7
370
     0
100
AcDbLine
 10
990.1738275097297
 20
15.71978338567915
 30
0.0
 11
600.738238156917
 21
15.71978338567915
 31
0.0
  0
ARC
  5
6CF
330
A
100
AcDbEntity
  8
0
  6
Continuous
 62
     7
370
     0
100
AcDbCircle
 10
995.4655828002335
 20
16.01979771062955
 30
0.0
 40
5.300253074123104
100
AcDbArc
 50
183.244891671744
 51
356.7551083282576
  0
LINE
  5
6D0
330
A
100
AcDbEntity
  8
0
  6
Continuous
 62
     7
370
     0
100
AcDbLine
 10
1390.192927443551
 20
15.71978338567915
 30
0.0
 11
1000.757338090738
 21
15.71978338567915
 31
0.0
  0
ARC
  5
6D1
330
A
100
AcDbEntity
  8
0
  6
Continuous
 62
     7
370
     0
100
AcDbCircle
 10
1395.484682734055
 20
16.01979771062955
 30
0.0
 40
5.300253074122908
100
AcDbArc
 50
183.244891671744
 51
356.7551083282592
  0
LINE
  5
6D2
330
A
100
AcDbEntity
  8
0
  6
Continuous
 62
     7
370
     0
100
AcDbLine
 10
1790.212027377372
 20
15.71978338567915
 30
0.0
 11
1400.776438024559
 21
15.71978338567915
 31
0.0
  0
ARC
  5
6D3
330
A
100
AcDbEntity
  8
0
  6
Continuous
 62
     7
370
     0
100
AcDbCircle
 10
1795.503782667876
 20
16.01979771062955
 30
0.0
 40
5.300253074123302
100
AcDbArc
 50
183.2448916717424
 51
356.7551083282592
  0
LINE
  5
6D4
330
A
100
AcDbEntity
  8
0
  6
Continuous
 62
     7
370
     0
100
AcDbLine
 10
2190.231127311194
 20
15.71978338567915
 30
0.0
 11
1800.79553795838
 21
15.71978338567915
 31
0.0
  0
ARC
  5
6D5
330
A
100
AcDbEntity
  8
0
  6
Continuous
 62
     7
370
     0
100
AcDbCircle
 10
2195.522882601698
 20
16.01979771062955
 30
0.0
 40
5.300253074123302
100
AcDbArc
 50
183.2448916717424
 51
356.7551083282625
  0
LINE
  5
6D6
330
A
100
AcDbEntity
  8
0
  6
Continuous
 62
     7
370
     0
100
AcDbLine
 10
2590.250227245015
 20
15.71978338567915
 30
0.0
 11
2200.814637892202
 21
15.71978338567915
 31
0.0
  0
ARC
  5
6D7
330
A
100
AcDbEntity
  8
0
  6
Continuous
 62
     7
370
     0
100
AcDbCircle
 10
2595.541982535519
 20
16.01979771062955
 30
0.0
 40
5.300253074123302
100
AcDbArc
 50
183.2448916717424
 51
356.7551083282641
  0
LINE
  5
6D8
330
A
100
AcDbEntity
  8
0
  6
Continuous
 62
     7
370
     0
100
AcDbLine
 10
2990.269327178836
 20
15.71978338567915
 30
0.0
 11
2600.833737826024
 21
15.71978338567915
 31
0.0
  0
ARC
  5
6D9
330
A
100
AcDbEntity
  8
0
  6
Continuous
 62
     7
370
     0
100
AcDbCircle
 10
2995.561082469341
 20
16.01979771062852
 30
0.0
 40
5.300253074123258
100
AcDbArc
 50
183.2448916717343
 51
356.7551083282576
  0
LINE
  5
6DA
330
A
100
AcDbEntity
  8
0
  6
Continuous
 62
     7
370
     0
100
AcDbLine
 10
3390.288427112658
 20
15.71978338567915
 30
0.0
 11
3000.852837759844
 21
15.71978338567915
 31
0.0
  0
ARC
  5
6DB
330
A
100
AcDbEntity
  8
0
  6
Continuous
 62
     7
370
     0
100
AcDbCircle
 10
3395.580182403162
 20
16.01979771062852
 30
0.0
 40
5.300253074122863
100
AcDbArc
 50
183.2448916717343
 51
356.7551083282592
  0
LINE
  5
6DC
330
A
100
AcDbEntity
  8
0
  6
Continuous
 62
     7
370
     0
100
AcDbLine
 10
3790.307527046478
 20
15.71978338567915
 30
0.0
 11
3400.871937693665
 21
15.71978338567915
 31
0.0
  0
ARC
  5
6DD
330
A
100
AcDbEntity
  8
0
  6
Continuous
 62
     7
370
     0
100
AcDbCircle
 10
3795.599282336983
 20
16.01979771062852
 30
0.0
 40
5.300253074122863
100
AcDbArc
 50
183.2448916717343
 51
356.7551083282592
  0
LINE
  5
6DE
330
A
100
AcDbEntity
  8
0
  6
Continuous
 62
     7
370
     0
100
AcDbLine
 10
4190.3266269803
 20
15.71978338567915
 30
0.0
 11
3800.891037627487
 21
15.71978338567915
 31
0.0
  0
ARC
  5
6DF
330
A
100
AcDbEntity
  8
0
  6
Continuous
 62
     7
370
     0
100
AcDbCircle
 10
4195.618382270803
 20
16.01979771062852
 30
0.0
 40
5.300253074122863
100
AcDbArc
 50
183.2448916717343
 51
356.7551083282625
  0
LINE
  5
6E0
330
A
100
AcDbEntity
  8
0
  6
Continuous
 62
     7
370
     0
100
AcDbLine
 10
4590.34572691412
 20
15.71978338567915
 30
0.0
 11
4200.910137561308
 21
15.71978338567915
 31
0.0
  0
ARC
  5
6E1
330
A
100
AcDbEntity
  8
0
  6
Continuous
 62
     7
370
     0
100
AcDbCircle
 10
4595.637482204623
 20
16.01979771062852
 30
0.0
 40
5.300253074122863
100
AcDbArc
 50
183.2448916717343
 51
356.7551083282641
  0
LINE
  5
6E2
330
A
100
AcDbEntity
  8
0
  6
Continuous
 62
     7
370
     0
100
AcDbLine
 10
4990.364826847942
 20
15.71978338567915
 30
0.0
 11
4600.929237495127
 21
15.71978338567915
 31
0.0
  0
ARC
  5
6E3
330
A
100
AcDbEntity
  8
0
  6
Continuous
 62
     7
370
     0
100
AcDbCircle
 10
4995.656582138446
 20
16.01979771062852
 30
0.0
 40
5.300253074122863
100
AcDbArc
 50
183.2448916717343
 51
356.7551083282657
  0
LINE
  5
6E4
330
A
100
AcDbEntity
  8
0
  6
Continuous
 62
     7
370
     0
100
AcDbLine
 10
95.42260794913627
 20
3.109130751514325
 30
0.0
 11
95.42260794913627
 21
15.71978338567915
 31
0.0
  0
LINE
  5
6E5
330
A
100
AcDbEntity
  8
0
  6
Continuous
 62
     9
370
     0
100
AcDbLine
 10
5095.661357121901
 20
28.93046466974486
 30
0.0
 11
95.42260794913627
 21
28.93046466974486
 31
0.0
  0
LINE
  5
6E6
330
A
100
AcDbEntity
  8
0
  6
Continuous
 62
     9
370
     0
100
AcDbLine
 10
95.42260794913627
 20
29.63760521516421
 30
0.0
 11
5095.661357121901
 21
29.63760521516421
 31
0.0
  0
LINE
  5
6E7
330
A
100
AcDbEntity
  8
0
  6
Continuous
 62
     7
370
     0
100
AcDbLine
 10
5095.661357121901
 20
29.63760521516421
 30
0.0
 11
5095.661357121901
 21
28.93046466974486
 31
0.0
  0
LINE
  5
6E8
330
A
100
AcDbEntity
  8
0
  6
Continuous
 62
     7
370
     0
100
AcDbLine
 10
95.42260794913627
 20
28.93046466974486
 30
0.0
 11
95.42260794913627
 21
29.63760521516421
 31
0.0
  0
LINE
  5
6E9
330
A
100
AcDbEntity
  8
0
  6
Continuous
 62
     7
370
     0
100
AcDbLine
 10
4600.929237495127
 20
16.31981203558003
 30
0.0
 11
4990.364826847942
 21
16.31981203558003
 31
0.0
  0
ARC
  5
6EA
330
A
100
AcDbEntity
  8
0
  6
Continuous
 62
     7
370
     0
100
AcDbCircle
 10
4595.637482204623
 20
16.01979771062852
 30
0.0
 40
5.300253074123745
100
AcDbArc
 50
3.244891671750611
 51
176.7551083282445
  0
LINE
  5
6EB
330
A
100
AcDbEntity
  8
0
  6
Continuous
 62
     7
370
     0
100
AcDbLine
 10
4200.910137561308
 20
16.31981203558003
 30
0.0
 11
4590.34572691412
 21
16.31981203558003
 31
0.0
  0
ARC
  5
6EC
330
A
100
AcDbEntity
  8
0
  6
Continuous
 62
     7
370
     0
100
AcDbCircle
 10
4195.618382270803
 20
16.01979771062852
 30
0.0
 40
5.300253074123745
100
AcDbArc
 50
3.244891671750611
 51
176.7551083282477
  0
LINE
  5
6ED
330
A
100
AcDbEntity
  8
0
  6
Continuous
 62
     7
370
     0
100
AcDbLine
 10
3800.891037627487
 20
16.31981203558003
 30
0.0
 11
4190.3266269803
 21
16.31981203558003
 31
0.0
  0
ARC
  5
6EE
330
A
100
AcDbEntity
  8
0
  6
Continuous
 62
     7
370
     0
100
AcDbCircle
 10
3795.599282336983
 20
16.01979771062852
 30
0.0
 40
5.300253074122952
100
AcDbArc
 50
3.244891671752236
 51
176.7551083282494
  0
LINE
  5
6EF
330
A
100
AcDbEntity
  8
0
  6
Continuous
 62
     7
370
     0
100
AcDbLine
 10
3400.871937693667
 20
16.31981203558003
 30
0.0
 11
3790.307527046478
 21
16.31981203558003
 31
0.0
  0
ARC
  5
6F0
330
A
100
AcDbEntity
  8
0
  6
Continuous
 62
     7
370
     0
100
AcDbCircle
 10
3395.580182403162
 20
16.01979771062852
 30
0.0
 40
5.300253074122952
100
AcDbArc
 50
3.244891671752236
 51
176.7551083282494
  0
LINE
  5
6F1
330
A
100
AcDbEntity
  8
0
  6
Continuous
 62
     7
370
     0
100
AcDbLine
 10
3000.852837759844
 20
16.31981203558003
 30
0.0
 11
3390.288427112658
 21
16.31981203558003
 31
0.0
  0
ARC
  5
6F2
330
A
100
AcDbEntity
  8
0
  6
Continuous
 62
     7
370
     0
100
AcDbCircle
 10
2995.561082469341
 20
16.01979771062852
 30
0.0
 40
5.300253074122952
100
AcDbArc
 50
3.244891671752236
 51
176.755108328251
  0
LINE
  5
6F3
330
A
100
AcDbEntity
  8
0
  6
Continuous
 62
     7
370
     0
100
AcDbLine
 10
2600.833737826024
 20
16.31981203558003
 30
0.0
 11
2990.269327178836
 21
16.31981203558003
 31
0.0
  0
ARC
  5
6F4
330
A
100
AcDbEntity
  8
0
  6
Continuous
 62
     7
370
     0
100
AcDbCircle
 10
2595.541982535519
 20
16.01979771062955
 30
0.0
 40
5.300253074122952
100
AcDbArc
 50
3.244891671752236
 51
176.7551083282526
  0
LINE
  5
6F5
330
A
100
AcDbEntity
  8
0
  6
Continuous
 62
     7
370
     0
100
AcDbLine
 10
2200.814637892202
 20
16.31981203558003
 30
0.0
 11
2590.250227245015
 21
16.31981203558003
 31
0.0
  0
ARC
  5
6F6
330
A
100
AcDbEntity
  8
0
  6
Continuous
 62
     7
370
     0
100
AcDbCircle
 10
2195.522882601698
 20
16.01979771062955
 30
0.0
 40
5.300253074122952
100
AcDbArc
 50
3.244891671752236
 51
176.7551083282559
  0
LINE
  5
6F7
330
A
100
AcDbEntity
  8
0
  6
Continuous
 62
     7
370
     0
100
AcDbLine
 10
1800.795537958381
 20
16.31981203558003
 30
0.0
 11
2190.231127311195
 21
16.31981203558003
 31
0.0
  0
ARC
  5
6F8
330
A
100
AcDbEntity
  8
0
  6
Continuous
 62
     7
370
     0
100
AcDbCircle
 10
1795.503782667876
 20
16.01979771062955
 30
0.0
 40
5.300253074122908
100
AcDbArc
 50
3.244891671744062
 51
176.7551083282477
  0
LINE
  5
6F9
330
A
100
AcDbEntity
  8
0
  6
Continuous
 62
     7
370
     0
100
AcDbLine
 10
1400.77643802456
 20
16.31981203558003
 30
0.0
 11
1790.212027377372
 21
16.31981203558003
 31
0.0
  0
ARC
  5
6FA
330
A
100
AcDbEntity
  8
0
  6
Continuous
 62
     7
370
     0
100
AcDbCircle
 10
1395.484682734055
 20
16.01979771062955
 30
0.0
 40
5.300253074123302
100
AcDbArc
 50
3.244891671742436
 51
176.7551083282494
  0
LINE
  5
6FB
330
A
100
AcDbEntity
  8
0
  6
Continuous
 62
     7
370
     0
100
AcDbLine
 10
1000.757338090738
 20
16.31981203558003
 30
0.0
 11
1390.192927443551
 21
16.31981203558003
 31
0.0
  0
ARC
  5
6FC
330
A
100
AcDbEntity
  8
0
  6
Continuous
 62
     7
370
     0
100
AcDbCircle
 10
995.4655828002335
 20
16.01979771062955
 30
0.0
 40
5.300253074123104
100
AcDbArc
 50
3.244891671744062
 51
176.755108328251
  0
LINE
  5
6FD
330
A
100
AcDbEntity
  8
0
  6
Continuous
 62
     7
370
     0
100
AcDbLine
 10
600.7382381569177
 20
16.31981203558003
 30
0.0
 11
990.1738275097297
 21
16.31981203558003
 31
0.0
  0
ARC
  5
6FE
330
A
100
AcDbEntity
  8
0
  6
Continuous
 62
     7
370
     0
100
AcDbCircle
 10
595.4464828664124
 20
16.01979771062955
 30
0.0
 40
5.300253074123104
100
AcDbArc
 50
3.244891671744062
 51
176.7551083282526
  0
LINE
  5
6FF
330
A
100
AcDbEntity
  8
0
  6
Continuous
 62
     7
370
     0
100
AcDbLine
 10
200.7191382230952
 20
16.31981203558003
 30
0.0
 11
590.1547275759083
 21
16.31981203558003
 31
0.0
  0
ARC
  5
700
330
A
100
AcDbEntity
  8
0
  6
Continuous
 62
     7
370
     0
100
AcDbCircle
 10
195.4273829325913
 20
16.01979771062955
 30
0.0
 40
5.300253074123104
100
AcDbArc
 50
3.244891671744062
 51
176.7551083282526
  0
LINE
  5
701
330
A
100
AcDbEntity
  8
0
  6
Continuous
 62
     7
370
     0
100
AcDbLine
 10
5095.661357121901
 20
16.31981203558003
 30
0.0
 11
5095.661357121901
 21
28.93046466974486
 31
0.0
  0
LINE
  5
702
330
A
100
AcDbEntity
  8
0
  6
Continuous
 62
     7
370
     0
100
AcDbLine
 10
5000.94833742895
 20
16.31981203558003
 30
0.0
 11
5095.661357121901
 21
16.31981203558003
 31
0.0
  0
ARC
  5
703
330
A
100
AcDbEntity
  8
0
  6
Continuous
 62
     7
370
     0
100
AcDbCircle
 10
4995.656582138446
 20
16.01979771062852
 30
0.0
 40
5.300253074123745
100
AcDbArc
 50
3.244891671750611
 51
176.7551083282429
  0
LINE
  5
704
330
A
100
AcDbEntity
  8
0
  6
Continuous
 62
     7
370
     0
100
AcDbLine
 10
95.42260794913627
 20
16.31981203558003
 30
0.0
 11
95.42260794913627
 21
28.93046466974486
 31
0.0
  0
LINE
  5
705
330
A
100
AcDbEntity
  8
0
  6
Continuous
 62
     7
370
     0
100
AcDbLine
 10
190.1271298584681
 20
16.01979771062955
 30
0.0
 11
190.1356276420873
 21
15.71978338567915
 31
0.0
  0
LINE
  5
706
330
A
100
AcDbEntity
  8
0
  6
Continuous
 62
     7
370
     0
100
AcDbLine
 10
95.42260794913627
 20
16.01979771062955
 30
0.0
 11
95.42260794913627
 21
15.71978338567915
 31
0.0
  0
LINE
  5
707
330
A
100
AcDbEntity
  8
0
  6
Continuous
 62
     7
370
     0
100
AcDbLine
 10
590.1462297922905
 20
16.01979771062955
 30
0.0
 11
200.7276360067144
 21
16.01979771062955
 31
0.0
  0
LINE
  5
708
330
A
100
AcDbEntity
  8
0
  6
Continuous
 62
     7
370
     0
100
AcDbLine
 10
200.7276360067144
 20
16.01979771062955
 30
0.0
 11
200.7191382230952
 21
16.31981203558003
 31
0.0
  0
LINE
  5
709
330
A
100
AcDbEntity
  8
0
  6
Continuous
 62
     7
370
     0
100
AcDbLine
 10
590.1547275759084
 20
16.31981203558003
 30
0.0
 11
590.1462297922892
 21
16.01979771062955
 31
0.0
  0
LINE
  5
70A
330
A
100
AcDbEntity
  8
0
  6
Continuous
 62
     7
370
     0
100
AcDbLine
 10
590.1462297922892
 20
16.01979771062955
 30
0.0
 11
590.1547275759084
 21
15.71978338567915
 31
0.0
  0
LINE
  5
70B
330
A
100
AcDbEntity
  8
0
  6
Continuous
 62
     7
370
     0
100
AcDbLine
 10
200.7191382230952
 20
15.71978338567915
 30
0.0
 11
200.7276360067144
 21
16.01979771062955
 31
0.0
  0
LINE
  5
70C
330
A
100
AcDbEntity
  8
0
  6
Continuous
 62
     7
370
     0
100
AcDbLine
 10
600.7382381569167
 20
15.71978338567915
 30
0.0
 11
600.7467359405358
 21
16.01979771062955
 31
0.0
  0
LINE
  5
70D
330
A
100
AcDbEntity
  8
0
  6
Continuous
 62
     7
370
     0
100
AcDbLine
 10
990.1653297261114
 20
16.01979771062955
 30
0.0
 11
600.7467359405368
 21
16.01979771062955
 31
0.0
  0
LINE
  5
70E
330
A
100
AcDbEntity
  8
0
  6
Continuous
 62
     7
370
     0
100
AcDbLine
 10
990.1653297261105
 20
16.01979771062955
 30
0.0
 11
990.1738275097297
 21
15.71978338567915
 31
0.0
  0
LINE
  5
70F
330
A
100
AcDbEntity
  8
0
  6
Continuous
 62
     7
370
     0
100
AcDbLine
 10
990.1738275097297
 20
16.31981203558003
 30
0.0
 11
990.1653297261105
 21
16.01979771062955
 31
0.0
  0
LINE
  5
710
330
A
100
AcDbEntity
  8
0
  6
Continuous
 62
     7
370
     0
100
AcDbLine
 10
600.7467359405358
 20
16.01979771062955
 30
0.0
 11
600.7382381569165
 21
16.31981203558003
 31
0.0
  0
LINE
  5
711
330
A
100
AcDbEntity
  8
0
  6
Continuous
 62
     7
370
     0
100
AcDbLine
 10
1000.757338090737
 20
15.71978338567915
 30
0.0
 11
1000.765835874356
 21
16.01979771062955
 31
0.0
  0
LINE
  5
712
330
A
100
AcDbEntity
  8
0
  6
Continuous
 62
     7
370
     0
100
AcDbLine
 10
1390.184429659933
 20
16.01979771062955
 30
0.0
 11
1000.765835874358
 21
16.01979771062955
 31
0.0
  0
LINE
  5
713
330
A
100
AcDbEntity
  8
0
  6
Continuous
 62
     7
370
     0
100
AcDbLine
 10
1390.184429659931
 20
16.01979771062955
 30
0.0
 11
1390.192927443551
 21
15.71978338567915
 31
0.0
  0
LINE
  5
714
330
A
100
AcDbEntity
  8
0
  6
Continuous
 62
     7
370
     0
100
AcDbLine
 10
1000.765835874356
 20
16.01979771062955
 30
0.0
 11
1000.757338090737
 21
16.31981203558003
 31
0.0
  0
LINE
  5
715
330
A
100
AcDbEntity
  8
0
  6
Continuous
 62
     7
370
     0
100
AcDbLine
 10
1390.192927443551
 20
16.31981203558003
 30
0.0
 11
1390.184429659931
 21
16.01979771062955
 31
0.0
  0
LINE
  5
716
330
A
100
AcDbEntity
  8
0
  6
Continuous
 62
     7
370
     0
100
AcDbLine
 10
1400.776438024559
 20
15.71978338567915
 30
0.0
 11
1400.784935808178
 21
16.01979771062955
 31
0.0
  0
LINE
  5
717
330
A
100
AcDbEntity
  8
0
  6
Continuous
 62
     7
370
     0
100
AcDbLine
 10
1790.203529593753
 20
16.01979771062955
 30
0.0
 11
1400.784935808179
 21
16.01979771062955
 31
0.0
  0
LINE
  5
718
330
A
100
AcDbEntity
  8
0
  6
Continuous
 62
     7
370
     0
100
AcDbLine
 10
1790.203529593753
 20
16.01979771062955
 30
0.0
 11
1790.212027377372
 21
15.71978338567915
 31
0.0
  0
LINE
  5
719
330
A
100
AcDbEntity
  8
0
  6
Continuous
 62
     7
370
     0
100
AcDbLine
 10
1790.212027377372
 20
16.31981203558003
 30
0.0
 11
1790.203529593753
 21
16.01979771062955
 31
0.0
  0
LINE
  5
71A
330
A
100
AcDbEntity
  8
0
  6
Continuous
 62
     7
370
     0
100
AcDbLine
 10
1400.784935808178
 20
16.01979771062955
 30
0.0
 11
1400.776438024559
 21
16.31981203558003
 31
0.0
  0
LINE
  5
71B
330
A
100
AcDbEntity
  8
0
  6
Continuous
 62
     7
370
     0
100
AcDbLine
 10
1800.79553795838
 20
15.71978338567915
 30
0.0
 11
1800.804035741999
 21
16.01979771062955
 31
0.0
  0
LINE
  5
71C
330
A
100
AcDbEntity
  8
0
  6
Continuous
 62
     7
370
     0
100
AcDbLine
 10
2190.222629527576
 20
16.01979771062955
 30
0.0
 11
1800.804035742
 21
16.01979771062955
 31
0.0
  0
LINE
  5
71D
330
A
100
AcDbEntity
  8
0
  6
Continuous
 62
     7
370
     0
100
AcDbLine
 10
2190.222629527575
 20
16.01979771062955
 30
0.0
 11
2190.231127311194
 21
15.71978338567915
 31
0.0
  0
LINE
  5
71E
330
A
100
AcDbEntity
  8
0
  6
Continuous
 62
     7
370
     0
100
AcDbLine
 10
1800.804035741999
 20
16.01979771062955
 30
0.0
 11
1800.79553795838
 21
16.31981203558003
 31
0.0
  0
LINE
  5
71F
330
A
100
AcDbEntity
  8
0
  6
Continuous
 62
     7
370
     0
100
AcDbLine
 10
2190.231127311195
 20
16.31981203558003
 30
0.0
 11
2190.222629527575
 21
16.01979771062955
 31
0.0
  0
LINE
  5
720
330
A
100
AcDbEntity
  8
0
  6
Continuous
 62
     7
370
     0
100
AcDbLine
 10
2590.241729461397
 20
16.01979771062955
 30
0.0
 11
2200.823135675822
 21
16.01979771062955
 31
0.0
  0
LINE
  5
721
330
A
100
AcDbEntity
  8
0
  6
Continuous
 62
     7
370
     0
100
AcDbLine
 10
2590.241729461396
 20
16.01979771062955
 30
0.0
 11
2590.250227245015
 21
15.71978338567915
 31
0.0
  0
LINE
  5
722
330
A
100
AcDbEntity
  8
0
  6
Continuous
 62
     7
370
     0
100
AcDbLine
 10
2200.814637892202
 20
15.71978338567915
 30
0.0
 11
2200.823135675821
 21
16.01979771062955
 31
0.0
  0
LINE
  5
723
330
A
100
AcDbEntity
  8
0
  6
Continuous
 62
     7
370
     0
100
AcDbLine
 10
2590.250227245015
 20
16.31981203558003
 30
0.0
 11
2590.241729461396
 21
16.01979771062955
 31
0.0
  0
LINE
  5
724
330
A
100
AcDbEntity
  8
0
  6
Continuous
 62
     7
370
     0
100
AcDbLine
 10
2200.823135675821
 20
16.01979771062955
 30
0.0
 11
2200.814637892201
 21
16.31981203558003
 31
0.0
  0
LINE
  5
725
330
A
100
AcDbEntity
  8
0
  6
Continuous
 62
     7
370
     0
100
AcDbLine
 10
2990.260829395218
 20
16.01979771062955
 30
0.0
 11
2600.842235609643
 21
16.01979771062955
 31
0.0
  0
LINE
  5
726
330
A
100
AcDbEntity
  8
0
  6
Continuous
 62
     7
370
     0
100
AcDbLine
 10
2600.842235609643
 20
16.01979771062955
 30
0.0
 11
2600.833737826023
 21
16.31981203558003
 31
0.0
  0
LINE
  5
727
330
A
100
AcDbEntity
  8
0
  6
Continuous
 62
     7
370
     0
100
AcDbLine
 10
2990.269327178836
 20
16.31981203558003
 30
0.0
 11
2990.260829395217
 21
16.01979771062955
 31
0.0
  0
LINE
  5
728
330
A
100
AcDbEntity
  8
0
  6
Continuous
 62
     7
370
     0
100
AcDbLine
 10
2990.260829395217
 20
16.01979771062955
 30
0.0
 11
2990.269327178836
 21
15.71978338567915
 31
0.0
  0
LINE
  5
729
330
A
100
AcDbEntity
  8
0
  6
Continuous
 62
     7
370
     0
100
AcDbLine
 10
2600.833737826024
 20
15.71978338567915
 30
0.0
 11
2600.842235609643
 21
16.01979771062955
 31
0.0
  0
LINE
  5
72A
330
A
100
AcDbEntity
  8
0
  6
Continuous
 62
     7
370
     0
100
AcDbLine
 10
3390.279929329039
 20
16.01979771062955
 30
0.0
 11
3000.861335543464
 21
16.01979771062955
 31
0.0
  0
LINE
  5
72B
330
A
100
AcDbEntity
  8
0
  6
Continuous
 62
     7
370
     0
100
AcDbLine
 10
3000.861335543464
 20
16.01979771062955
 30
0.0
 11
3000.852837759844
 21
16.31981203558003
 31
0.0
  0
LINE
  5
72C
330
A
100
AcDbEntity
  8
0
  6
Continuous
 62
     7
370
     0
100
AcDbLine
 10
3390.288427112658
 20
16.31981203558003
 30
0.0
 11
3390.279929329039
 21
16.01979771062955
 31
0.0
  0
LINE
  5
72D
330
A
100
AcDbEntity
  8
0
  6
Continuous
 62
     7
370
     0
100
AcDbLine
 10
3000.852837759844
 20
15.71978338567915
 30
0.0
 11
3000.861335543464
 21
16.01979771062955
 31
0.0
  0
LINE
  5
72E
330
A
100
AcDbEntity
  8
0
  6
Continuous
 62
     7
370
     0
100
AcDbLine
 10
3390.279929329039
 20
16.01979771062955
 30
0.0
 11
3390.288427112658
 21
15.71978338567915
 31
0.0
  0
LINE
  5
72F
330
A
100
AcDbEntity
  8
0
  6
Continuous
 62
     7
370
     0
100
AcDbLine
 10
3400.871937693665
 20
15.71978338567915
 30
0.0
 11
3400.880435477285
 21
16.01979771062955
 31
0.0
  0
LINE
  5
730
330
A
100
AcDbEntity
  8
0
  6
Continuous
 62
     7
370
     0
100
AcDbLine
 10
3790.29902926286
 20
16.01979771062955
 30
0.0
 11
3400.880435477285
 21
16.01979771062955
 31
0.0
  0
LINE
  5
731
330
A
100
AcDbEntity
  8
0
  6
Continuous
 62
     7
370
     0
100
AcDbLine
 10
3790.299029262859
 20
16.01979771062955
 30
0.0
 11
3790.307527046478
 21
15.71978338567915
 31
0.0
  0
LINE
  5
732
330
A
100
AcDbEntity
  8
0
  6
Continuous
 62
     7
370
     0
100
AcDbLine
 10
3400.880435477285
 20
16.01979771062955
 30
0.0
 11
3400.871937693665
 21
16.31981203558003
 31
0.0
  0
LINE
  5
733
330
A
100
AcDbEntity
  8
0
  6
Continuous
 62
     7
370
     0
100
AcDbLine
 10
3790.307527046478
 20
16.31981203558003
 30
0.0
 11
3790.299029262859
 21
16.01979771062955
 31
0.0
  0
LINE
  5
734
330
A
100
AcDbEntity
  8
0
  6
Continuous
 62
     7
370
     0
100
AcDbLine
 10
4190.31812919668
 20
16.01979771062955
 30
0.0
 11
3800.899535411107
 21
16.01979771062955
 31
0.0
  0
LINE
  5
735
330
A
100
AcDbEntity
  8
0
  6
Continuous
 62
     7
370
     0
100
AcDbLine
 10
4190.3266269803
 20
16.31981203558003
 30
0.0
 11
4190.31812919668
 21
16.01979771062955
 31
0.0
  0
LINE
  5
736
330
A
100
AcDbEntity
  8
0
  6
Continuous
 62
     7
370
     0
100
AcDbLine
 10
3800.899535411106
 20
16.01979771062955
 30
0.0
 11
3800.891037627486
 21
16.31981203558003
 31
0.0
  0
LINE
  5
737
330
A
100
AcDbEntity
  8
0
  6
Continuous
 62
     7
370
     0
100
AcDbLine
 10
4190.31812919668
 20
16.01979771062955
 30
0.0
 11
4190.3266269803
 21
15.71978338567915
 31
0.0
  0
LINE
  5
738
330
A
100
AcDbEntity
  8
0
  6
Continuous
 62
     7
370
     0
100
AcDbLine
 10
3800.891037627487
 20
15.71978338567915
 30
0.0
 11
3800.899535411106
 21
16.01979771062955
 31
0.0
  0
LINE
  5
739
330
A
100
AcDbEntity
  8
0
  6
Continuous
 62
     7
370
     0
100
AcDbLine
 10
4200.910137561308
 20
15.71978338567915
 30
0.0
 11
4200.918635344926
 21
16.01979771062955
 31
0.0
  0
LINE
  5
73A
330
A
100
AcDbEntity
  8
0
  6
Continuous
 62
     7
370
     0
100
AcDbLine
 10
4590.3372291305
 20
16.01979771062955
 30
0.0
 11
4200.918635344926
 21
16.01979771062955
 31
0.0
  0
LINE
  5
73B
330
A
100
AcDbEntity
  8
0
  6
Continuous
 62
     7
370
     0
100
AcDbLine
 10
4590.3372291305
 20
16.01979771062955
 30
0.0
 11
4590.34572691412
 21
15.71978338567915
 31
0.0
  0
LINE
  5
73C
330
A
100
AcDbEntity
  8
0
  6
Continuous
 62
     7
370
     0
100
AcDbLine
 10
4200.918635344926
 20
16.01979771062955
 30
0.0
 11
4200.910137561308
 21
16.31981203558003
 31
0.0
  0
LINE
  5
73D
330
A
100
AcDbEntity
  8
0
  6
Continuous
 62
     7
370
     0
100
AcDbLine
 10
4590.34572691412
 20
16.31981203558003
 30
0.0
 11
4590.3372291305
 21
16.01979771062955
 31
0.0
  0
LINE
  5
73E
330
A
100
AcDbEntity
  8
0
  6
Continuous
 62
     7
370
     0
100
AcDbLine
 10
4990.356329064322
 20
16.01979771062955
 30
0.0
 11
4600.937735278747
 21
16.01979771062955
 31
0.0
  0
LINE
  5
73F
330
A
100
AcDbEntity
  8
0
  6
Continuous
 62
     7
370
     0
100
AcDbLine
 10
4990.364826847942
 20
16.31981203558003
 30
0.0
 11
4990.356329064322
 21
16.01979771062955
 31
0.0
  0
LINE
  5
740
330
A
100
AcDbEntity
  8
0
  6
Continuous
 62
     7
370
     0
100
AcDbLine
 10
4600.937735278747
 20
16.01979771062955
 30
0.0
 11
4600.929237495127
 21
16.31981203558003
 31
0.0
  0
LINE
  5
741
330
A
100
AcDbEntity
  8
0
  6
Continuous
 62
     7
370
     0
100
AcDbLine
 10
4990.356329064322
 20
16.01979771062955
 30
0.0
 11
4990.364826847942
 21
15.71978338567915
 31
0.0
  0
LINE
  5
742
330
A
100
AcDbEntity
  8
0
  6
Continuous
 62
     7
370
     0
100
AcDbLine
 10
4600.929237495127
 20
15.71978338567915
 30
0.0
 11
4600.937735278747
 21
16.01979771062955
 31
0.0
  0
LINE
  5
743
330
A
100
AcDbEntity
  8
0
  6
Continuous
 62
     7
370
     0
100
AcDbLine
 10
5095.661357121901
 20
16.01979771062955
 30
0.0
 11
5000.956835212568
 21
16.01979771062955
 31
0.0
  0
LINE
  5
744
330
A
100
AcDbEntity
  8
0
  6
Continuous
 62
     7
370
     0
100
AcDbLine
 10
5095.661357121901
 20
16.01979771062955
 30
0.0
 11
5095.661357121901
 21
15.71978338567915
 31
0.0
  0
LINE
  5
745
330
A
100
AcDbEntity
  8
0
  6
Continuous
 62
     7
370
     0
100
AcDbLine
 10
5000.94833742895
 20
15.71978338567915
 30
0.0
 11
5000.956835212568
 21
16.01979771062955
 31
0.0
  0
LINE
  5
746
330
A
100
AcDbEntity
  8
0
  6
Continuous
 62
     7
370
     0
100
AcDbLine
 10
5095.661357121901
 20
16.31981203558003
 30
0.0
 11
5095.661357121901
 21
16.01979771062955
 31
0.0
  0
LINE
  5
747
330
A
100
AcDbEntity
  8
0
  6
Continuous
 62
     7
370
     0
100
AcDbLine
 10
5000.956835212568
 20
16.01979771062955
 30
0.0
 11
5000.94833742895
 21
16.31981203558003
 31
0.0
  0
LINE
  5
748
330
A
100
AcDbEntity
  8
0
  6
Continuous
 62
     9
370
     0
100
AcDbLine
 10
5095.661357121901
 20
31.83268477167402
 30
0.0
 11
95.42260794913627
 21
31.83268477167402
 31
0.0
  0
LINE
  5
749
330
A
100
AcDbEntity
  8
0
  6
Continuous
 62
     7
370
     0
100
AcDbLine
 10
5095.661357121901
 20
31.83268477167402
 30
0.0
 11
5095.661357121901
 21
29.63760521516421
 31
0.0
  0
LINE
  5
74A
330
A
100
AcDbEntity
  8
0
  6
Continuous
 62
     7
370
     0
100
AcDbLine
 10
95.42260794913627
 20
31.83268477167402
 30
0.0
 11
95.42260794913627
 21
29.63760521516421
 31
0.0
  0
LINE
  5
74B
330
A
100
AcDbEntity
  8
0
  6
Continuous
 62
     9
370
     0
100
AcDbLine
 10
95.42260794913627
 20
0.2069106495851041
 30
0.0
 11
5095.661357121901
 21
0.2069106495851041
 31
0.0
  0
LINE
  5
74C
330
A
100
AcDbEntity
  8
0
  6
Continuous
 62
     7
370
     0
100
AcDbLine
 10
5095.661357121901
 20
2.40199020609601
 30
0.0
 11
5095.661357121901
 21
0.2069106495851041
 31
0.0
  0
LINE
  5
74D
330
A
100
AcDbEntity
  8
0
  6
Continuous
 62
     7
370
     0
100
AcDbLine
 10
95.42260794913627
 20
2.40199020609601
 30
0.0
 11
95.42260794913627
 21
0.2069106495851041
 31
0.0
  0
LINE
  5
74E
330
A
100
AcDbEntity
  8
0
  6
Continuous
 62
     7
370
     0
100
AcDbLine
 10
5095.661357121901
 20
31.9205569329997
 30
0.0
 11
95.42260794913627
 21
31.9205569329997
 31
0.0
  0
LINE
  5
74F
330
A
100
AcDbEntity
  8
0
  6
Continuous
 62
     7
370
     0
100
AcDbLine
 10
5095.661357121901
 20
31.9205569329997
 30
0.0
 11
5095.661357121901
 21
31.83268477167402
 31
0.0
  0
LINE
  5
750
330
A
100
AcDbEntity
  8
0
  6
Continuous
 62
     7
370
     0
100
AcDbLine
 10
95.42260794913627
 20
31.83268477167402
 30
0.0
 11
95.42260794913627
 21
31.9205569329997
 31
0.0
  0
LINE
  5
751
330
A
100
AcDbEntity
  8
0
  6
Continuous
 62
     7
370
     0
100
AcDbLine
 10
95.42260794913627
 20
0.1190384882605219
 30
0.0
 11
5095.661357121901
 21
0.1190384882605219
 31
0.0
  0
LINE
  5
752
330
A
100
AcDbEntity
  8
0
  6
Continuous
 62
     7
370
     0
100
AcDbLine
 10
5095.661357121901
 20
0.2069106495851041
 30
0.0
 11
5095.661357121901
 21
0.1190384882605219
 31
0.0
  0
LINE
  5
753
330
A
100
AcDbEntity
  8
0
  6
Continuous
 62
     7
370
     0
100
AcDbLine
 10
95.42260794913627
 20
0.1190384882605219
 30
0.0
 11
95.42260794913627
 21
0.2069106495851041
 31
0.0
  0
LINE
  5
754
330
A
100
AcDbEntity
  8
0
  6
Continuous
 62
     7
370
     0
100
AcDbLine
 10
5095.661357121901
 20
37.02080045715572
 30
0.0
 11
95.42260794913627
 21
37.02080045715572
 31
0.0
  0
LINE
  5
755
330
A
100
AcDbEntity
  8
0
  6
Continuous
 62
     7
370
     0
100
AcDbLine
 10
5095.661357121901
 20
31.9205569329997
 30
0.0
 11
5095.661357121901
 21
37.02080045715572
 31
0.0
  0
LINE
  5
756
330
A
100
AcDbEntity
  8
0
  6
Continuous
 62
     7
370
     0
100
AcDbLine
 10
95.42260794913627
 20
31.9205569329997
 30
0.0
 11
95.42260794913627
 21
37.02080045715572
 31
0.0
  0
ARC
  5
757
330
A
100
AcDbEntity
  8
0
  6
Continuous
 62
     7
370
     0
100
AcDbCircle
 10
195.4273829325913
 20
16.01979771062955
 30
0.0
 40
2.650126537061569
100
AcDbArc
 50
5.41331227397136
 51
174.586687726027
  0
LINE
  5
758
330
A
100
AcDbEntity
  8
0
  6
Continuous
 62
     7
370
     0
100
AcDbLine
 10
192.5272444580705
 20
16.01979771063059
 30
0.0
 11
192.7890757682212
 21
16.26980964808795
 31
0.0
  0
LINE
  5
759
330
A
100
AcDbEntity
  8
0
  6
Continuous
 62
     7
370
     0
100
AcDbLine
 10
192.7890757682212
 20
15.76978577317123
 30
0.0
 11
192.5272444580705
 21
16.01979771063059
 31
0.0
  0
ARC
  5
75A
330
A
100
AcDbEntity
  8
0
  6
Continuous
 62
     7
370
     0
100
AcDbCircle
 10
195.4273829325913
 20
16.01979771062955
 30
0.0
 40
2.650126537061569
100
AcDbArc
 50
185.4133122739681
 51
354.586687726027
  0
LINE
  5
75B
330
A
100
AcDbEntity
  8
0
  6
Continuous
 62
     7
370
     0
100
AcDbLine
 10
198.3275214071107
 20
16.01979771062852
 30
0.0
 11
198.0656900969614
 21
15.76978577317123
 31
0.0
  0
LINE
  5
75C
330
A
100
AcDbEntity
  8
0
  6
Continuous
 62
     7
370
     0
100
AcDbLine
 10
198.0656900969614
 20
16.26980964808795
 30
0.0
 11
198.3275214071107
 21
16.01979771062852
 31
0.0
  0
ARC
  5
75D
330
A
100
AcDbEntity
  8
0
  6
Continuous
 62
     7
370
     0
100
AcDbCircle
 10
595.4464828664124
 20
16.01979771062955
 30
0.0
 40
2.650126537061569
100
AcDbArc
 50
185.4133122739664
 51
354.586687726027
  0
LINE
  5
75E
330
A
100
AcDbEntity
  8
0
  6
Continuous
 62
     7
370
     0
100
AcDbLine
 10
598.3466213409322
 20
16.01979771063059
 30
0.0
 11
598.0847900307824
 21
15.76978577317123
 31
0.0
  0
LINE
  5
75F
330
A
100
AcDbEntity
  8
0
  6
Continuous
 62
     7
370
     0
100
AcDbLine
 10
598.0847900307824
 20
16.26980964808795
 30
0.0
 11
598.3466213409322
 21
16.01979771063059
 31
0.0
  0
ARC
  5
760
330
A
100
AcDbEntity
  8
0
  6
Continuous
 62
     7
370
     0
100
AcDbCircle
 10
595.4464828664124
 20
16.01979771062955
 30
0.0
 40
2.650126537061569
100
AcDbArc
 50
5.413312273974601
 51
174.586687726027
  0
LINE
  5
761
330
A
100
AcDbEntity
  8
0
  6
Continuous
 62
     7
370
     0
100
AcDbLine
 10
592.5463443918917
 20
16.01979771062852
 30
0.0
 11
592.8081757020424
 21
16.26980964808795
 31
0.0
  0
LINE
  5
762
330
A
100
AcDbEntity
  8
0
  6
Continuous
 62
     7
370
     0
100
AcDbLine
 10
592.8081757020424
 20
15.76978577317123
 30
0.0
 11
592.5463443918917
 21
16.01979771062852
 31
0.0
  0
ARC
  5
763
330
A
100
AcDbEntity
  8
0
  6
Continuous
 62
     7
370
     0
100
AcDbCircle
 10
995.4655828002335
 20
16.01979771062955
 30
0.0
 40
2.650126537061569
100
AcDbArc
 50
185.4133122739631
 51
354.586687726027
  0
LINE
  5
764
330
A
100
AcDbEntity
  8
0
  6
Continuous
 62
     7
370
     0
100
AcDbLine
 10
998.3657212747534
 20
16.01979771063059
 30
0.0
 11
998.1038899646037
 21
15.76978577317123
 31
0.0
  0
LINE
  5
765
330
A
100
AcDbEntity
  8
0
  6
Continuous
 62
     7
370
     0
100
AcDbLine
 10
998.1038899646037
 20
16.26980964808795
 30
0.0
 11
998.3657212747534
 21
16.01979771063059
 31
0.0
  0
ARC
  5
766
330
A
100
AcDbEntity
  8
0
  6
Continuous
 62
     7
370
     0
100
AcDbCircle
 10
995.4655828002335
 20
16.01979771062955
 30
0.0
 40
2.650126537061569
100
AcDbArc
 50
5.41331227397792
 51
174.586687726027
  0
LINE
  5
767
330
A
100
AcDbEntity
  8
0
  6
Continuous
 62
     7
370
     0
100
AcDbLine
 10
992.5654443257128
 20
16.01979771062852
 30
0.0
 11
992.8272756358639
 21
16.26980964808795
 31
0.0
  0
LINE
  5
768
330
A
100
AcDbEntity
  8
0
  6
Continuous
 62
     7
370
     0
100
AcDbLine
 10
992.8272756358639
 20
15.76978577317123
 30
0.0
 11
992.5654443257128
 21
16.01979771062852
 31
0.0
  0
ARC
  5
769
330
A
100
AcDbEntity
  8
0
  6
Continuous
 62
     7
370
     0
100
AcDbCircle
 10
1395.484682734055
 20
16.01979771062955
 30
0.0
 40
2.650126537061569
100
AcDbArc
 50
185.4133122739582
 51
354.586687726027
  0
LINE
  5
76A
330
A
100
AcDbEntity
  8
0
  6
Continuous
 62
     7
370
     0
100
AcDbLine
 10
1398.384821208574
 20
16.01979771063059
 30
0.0
 11
1398.122989898425
 21
15.76978577317123
 31
0.0
  0
LINE
  5
76B
330
A
100
AcDbEntity
  8
0
  6
Continuous
 62
     7
370
     0
100
AcDbLine
 10
1398.122989898425
 20
16.26980964808795
 30
0.0
 11
1398.384821208574
 21
16.01979771063059
 31
0.0
  0
ARC
  5
76C
330
A
100
AcDbEntity
  8
0
  6
Continuous
 62
     7
370
     0
100
AcDbCircle
 10
1395.484682734055
 20
16.01979771062955
 30
0.0
 40
2.650126537061569
100
AcDbArc
 50
5.413312273981164
 51
174.586687726027
  0
LINE
  5
76D
330
A
100
AcDbEntity
  8
0
  6
Continuous
 62
     7
370
     0
100
AcDbLine
 10
1392.584544259534
 20
16.01979771062852
 30
0.0
 11
1392.846375569684
 21
16.26980964808795
 31
0.0
  0
LINE
  5
76E
330
A
100
AcDbEntity
  8
0
  6
Continuous
 62
     7
370
     0
100
AcDbLine
 10
1392.846375569684
 20
15.76978577317123
 30
0.0
 11
1392.584544259534
 21
16.01979771062852
 31
0.0
  0
ARC
  5
76F
330
A
100
AcDbEntity
  8
0
  6
Continuous
 62
     7
370
     0
100
AcDbCircle
 10
1795.503782667876
 20
16.01979771062955
 30
0.0
 40
2.650126537061569
100
AcDbArc
 50
185.4133122739566
 51
354.586687726027
  0
LINE
  5
770
330
A
100
AcDbEntity
  8
0
  6
Continuous
 62
     7
370
     0
100
AcDbLine
 10
1798.403921142395
 20
16.01979771063059
 30
0.0
 11
1798.142089832246
 21
15.76978577317123
 31
0.0
  0
LINE
  5
771
330
A
100
AcDbEntity
  8
0
  6
Continuous
 62
     7
370
     0
100
AcDbLine
 10
1798.142089832246
 20
16.26980964808795
 30
0.0
 11
1798.403921142395
 21
16.01979771063059
 31
0.0
  0
ARC
  5
772
330
A
100
AcDbEntity
  8
0
  6
Continuous
 62
     7
370
     0
100
AcDbCircle
 10
1795.503782667876
 20
16.01979771062955
 30
0.0
 40
2.650126537061569
100
AcDbArc
 50
5.413312273982783
 51
174.586687726027
  0
LINE
  5
773
330
A
100
AcDbEntity
  8
0
  6
Continuous
 62
     7
370
     0
100
AcDbLine
 10
1792.603644193355
 20
16.01979771062852
 30
0.0
 11
1792.865475503506
 21
16.26980964808795
 31
0.0
  0
LINE
  5
774
330
A
100
AcDbEntity
  8
0
  6
Continuous
 62
     7
370
     0
100
AcDbLine
 10
1792.865475503506
 20
15.76978577317123
 30
0.0
 11
1792.603644193355
 21
16.01979771062852
 31
0.0
  0
ARC
  5
775
330
A
100
AcDbEntity
  8
0
  6
Continuous
 62
     7
370
     0
100
AcDbCircle
 10
2195.522882601698
 20
16.01979771062955
 30
0.0
 40
2.650126537061494
100
AcDbArc
 50
185.4133122739714
 51
354.586687726045
  0
LINE
  5
776
330
A
100
AcDbEntity
  8
0
  6
Continuous
 62
     7
370
     0
100
AcDbLine
 10
2198.423021076217
 20
16.01979771063059
 30
0.0
 11
2198.161189766068
 21
15.76978577317123
 31
0.0
  0
LINE
  5
777
330
A
100
AcDbEntity
  8
0
  6
Continuous
 62
     7
370
     0
100
AcDbLine
 10
2198.161189766068
 20
16.26980964808795
 30
0.0
 11
2198.423021076217
 21
16.01979771063059
 31
0.0
  0
ARC
  5
778
330
A
100
AcDbEntity
  8
0
  6
Continuous
 62
     7
370
     0
100
AcDbCircle
 10
2195.522882601698
 20
16.01979771062955
 30
0.0
 40
2.650126537061569
100
AcDbArc
 50
5.413312273986106
 51
174.586687726027
  0
LINE
  5
779
330
A
100
AcDbEntity
  8
0
  6
Continuous
 62
     7
370
     0
100
AcDbLine
 10
2192.622744127177
 20
16.01979771062852
 30
0.0
 11
2192.884575437327
 21
16.26980964808795
 31
0.0
  0
LINE
  5
77A
330
A
100
AcDbEntity
  8
0
  6
Continuous
 62
     7
370
     0
100
AcDbLine
 10
2192.884575437327
 20
15.76978577317123
 30
0.0
 11
2192.622744127177
 21
16.01979771062852
 31
0.0
  0
ARC
  5
77B
330
A
100
AcDbEntity
  8
0
  6
Continuous
 62
     7
370
     0
100
AcDbCircle
 10
2595.541982535519
 20
16.01979771062955
 30
0.0
 40
2.650126537061494
100
AcDbArc
 50
185.4133122739664
 51
354.586687726045
  0
LINE
  5
77C
330
A
100
AcDbEntity
  8
0
  6
Continuous
 62
     7
370
     0
100
AcDbLine
 10
2598.442121010039
 20
16.01979771062955
 30
0.0
 11
2598.180289699889
 21
15.76978577317123
 31
0.0
  0
LINE
  5
77D
330
A
100
AcDbEntity
  8
0
  6
Continuous
 62
     7
370
     0
100
AcDbLine
 10
2598.180289699889
 20
16.26980964808795
 30
0.0
 11
2598.442121010039
 21
16.01979771062955
 31
0.0
  0
ARC
  5
77E
330
A
100
AcDbEntity
  8
0
  6
Continuous
 62
     7
370
     0
100
AcDbCircle
 10
2595.541982535519
 20
16.01979771062955
 30
0.0
 40
2.650126537061569
100
AcDbArc
 50
5.413312273989348
 51
174.586687726027
  0
LINE
  5
77F
330
A
100
AcDbEntity
  8
0
  6
Continuous
 62
     7
370
     0
100
AcDbLine
 10
2592.641844060999
 20
16.01979771062955
 30
0.0
 11
2592.903675371149
 21
16.26980964808795
 31
0.0
  0
LINE
  5
780
330
A
100
AcDbEntity
  8
0
  6
Continuous
 62
     7
370
     0
100
AcDbLine
 10
2592.903675371149
 20
15.76978577317123
 30
0.0
 11
2592.641844060999
 21
16.01979771062955
 31
0.0
  0
ARC
  5
781
330
A
100
AcDbEntity
  8
0
  6
Continuous
 62
     7
370
     0
100
AcDbCircle
 10
2995.561082469341
 20
16.01979771062852
 30
0.0
 40
2.650126537061494
100
AcDbArc
 50
185.4133122739648
 51
354.586687726045
  0
LINE
  5
782
330
A
100
AcDbEntity
  8
0
  6
Continuous
 62
     7
370
     0
100
AcDbLine
 10
2998.461220943861
 20
16.01979771062955
 30
0.0
 11
2998.199389633711
 21
15.76978577317123
 31
0.0
  0
LINE
  5
783
330
A
100
AcDbEntity
  8
0
  6
Continuous
 62
     7
370
     0
100
AcDbLine
 10
2998.199389633711
 20
16.26980964808795
 30
0.0
 11
2998.461220943861
 21
16.01979771062955
 31
0.0
  0
ARC
  5
784
330
A
100
AcDbEntity
  8
0
  6
Continuous
 62
     7
370
     0
100
AcDbCircle
 10
2995.561082469341
 20
16.01979771062852
 30
0.0
 40
2.650126537061643
100
AcDbArc
 50
5.413312273974601
 51
174.5866877260106
  0
LINE
  5
785
330
A
100
AcDbEntity
  8
0
  6
Continuous
 62
     7
370
     0
100
AcDbLine
 10
2992.66094399482
 20
16.01979771062955
 30
0.0
 11
2992.92277530497
 21
16.26980964808795
 31
0.0
  0
LINE
  5
786
330
A
100
AcDbEntity
  8
0
  6
Continuous
 62
     7
370
     0
100
AcDbLine
 10
2992.92277530497
 20
15.76978577317123
 30
0.0
 11
2992.66094399482
 21
16.01979771062955
 31
0.0
  0
ARC
  5
787
330
A
100
AcDbEntity
  8
0
  6
Continuous
 62
     7
370
     0
100
AcDbCircle
 10
3395.580182403162
 20
16.01979771062852
 30
0.0
 40
2.650126537061494
100
AcDbArc
 50
185.4133122739599
 51
354.586687726045
  0
LINE
  5
788
330
A
100
AcDbEntity
  8
0
  6
Continuous
 62
     7
370
     0
100
AcDbLine
 10
3398.480320877681
 20
16.01979771062955
 30
0.0
 11
3398.218489567532
 21
15.76978577317123
 31
0.0
  0
LINE
  5
789
330
A
100
AcDbEntity
  8
0
  6
Continuous
 62
     7
370
     0
100
AcDbLine
 10
3398.218489567532
 20
16.26980964808795
 30
0.0
 11
3398.480320877681
 21
16.01979771062955
 31
0.0
  0
ARC
  5
78A
330
A
100
AcDbEntity
  8
0
  6
Continuous
 62
     7
370
     0
100
AcDbCircle
 10
3395.580182403162
 20
16.01979771062852
 30
0.0
 40
2.650126537061643
100
AcDbArc
 50
5.413312273979543
 51
174.5866877260106
  0
LINE
  5
78B
330
A
100
AcDbEntity
  8
0
  6
Continuous
 62
     7
370
     0
100
AcDbLine
 10
3392.680043928641
 20
16.01979771062955
 30
0.0
 11
3392.941875238792
 21
16.26980964808795
 31
0.0
  0
LINE
  5
78C
330
A
100
AcDbEntity
  8
0
  6
Continuous
 62
     7
370
     0
100
AcDbLine
 10
3392.941875238792
 20
15.76978577317123
 30
0.0
 11
3392.680043928641
 21
16.01979771062955
 31
0.0
  0
ARC
  5
78D
330
A
100
AcDbEntity
  8
0
  6
Continuous
 62
     7
370
     0
100
AcDbCircle
 10
3795.599282336983
 20
16.01979771062852
 30
0.0
 40
2.650126537062284
100
AcDbArc
 50
185.4133122739582
 51
354.5866877260467
  0
LINE
  5
78E
330
A
100
AcDbEntity
  8
0
  6
Continuous
 62
     7
370
     0
100
AcDbLine
 10
3798.499420811502
 20
16.01979771063059
 30
0.0
 11
3798.237589501353
 21
15.76978577317123
 31
0.0
  0
LINE
  5
78F
330
A
100
AcDbEntity
  8
0
  6
Continuous
 62
     7
370
     0
100
AcDbLine
 10
3798.237589501353
 20
16.26980964808795
 30
0.0
 11
3798.499420811502
 21
16.01979771063059
 31
0.0
  0
ARC
  5
790
330
A
100
AcDbEntity
  8
0
  6
Continuous
 62
     7
370
     0
100
AcDbCircle
 10
3795.599282336983
 20
16.01979771062852
 30
0.0
 40
2.650126537061643
100
AcDbArc
 50
5.413312273981164
 51
174.5866877260106
  0
LINE
  5
791
330
A
100
AcDbEntity
  8
0
  6
Continuous
 62
     7
370
     0
100
AcDbLine
 10
3792.699143862461
 20
16.01979771062955
 30
0.0
 11
3792.960975172612
 21
16.26980964808795
 31
0.0
  0
LINE
  5
792
330
A
100
AcDbEntity
  8
0
  6
Continuous
 62
     7
370
     0
100
AcDbLine
 10
3792.960975172612
 20
15.76978577317123
 30
0.0
 11
3792.699143862461
 21
16.01979771062955
 31
0.0
  0
ARC
  5
793
330
A
100
AcDbEntity
  8
0
  6
Continuous
 62
     7
370
     0
100
AcDbCircle
 10
4195.618382270803
 20
16.01979771062852
 30
0.0
 40
2.650126537062284
100
AcDbArc
 50
185.4133122739566
 51
354.5866877260467
  0
LINE
  5
794
330
A
100
AcDbEntity
  8
0
  6
Continuous
 62
     7
370
     0
100
AcDbLine
 10
4198.518520745325
 20
16.01979771062955
 30
0.0
 11
4198.256689435174
 21
15.76978577317123
 31
0.0
  0
LINE
  5
795
330
A
100
AcDbEntity
  8
0
  6
Continuous
 62
     7
370
     0
100
AcDbLine
 10
4198.256689435174
 20
16.26980964808795
 30
0.0
 11
4198.518520745325
 21
16.01979771062955
 31
0.0
  0
ARC
  5
796
330
A
100
AcDbEntity
  8
0
  6
Continuous
 62
     7
370
     0
100
AcDbCircle
 10
4195.618382270803
 20
16.01979771062852
 30
0.0
 40
2.650126537061643
100
AcDbArc
 50
5.413312273986106
 51
174.5866877260106
  0
LINE
  5
797
330
A
100
AcDbEntity
  8
0
  6
Continuous
 62
     7
370
     0
100
AcDbLine
 10
4192.718243796282
 20
16.01979771062955
 30
0.0
 11
4192.980075106433
 21
16.26980964808795
 31
0.0
  0
LINE
  5
798
330
A
100
AcDbEntity
  8
0
  6
Continuous
 62
     7
370
     0
100
AcDbLine
 10
4192.980075106433
 20
15.76978577317123
 30
0.0
 11
4192.718243796282
 21
16.01979771062955
 31
0.0
  0
ARC
  5
799
330
A
100
AcDbEntity
  8
0
  6
Continuous
 62
     7
370
     0
100
AcDbCircle
 10
4595.637482204623
 20
16.01979771062852
 30
0.0
 40
2.650126537062284
100
AcDbArc
 50
185.4133122739517
 51
354.5866877260467
  0
LINE
  5
79A
330
A
100
AcDbEntity
  8
0
  6
Continuous
 62
     7
370
     0
100
AcDbLine
 10
4598.537620679143
 20
16.01979771062955
 30
0.0
 11
4598.275789368993
 21
15.76978577317123
 31
0.0
  0
LINE
  5
79B
330
A
100
AcDbEntity
  8
0
  6
Continuous
 62
     7
370
     0
100
AcDbLine
 10
4598.275789368993
 20
16.26980964808795
 30
0.0
 11
4598.537620679143
 21
16.01979771062955
 31
0.0
  0
ARC
  5
79C
330
A
100
AcDbEntity
  8
0
  6
Continuous
 62
     7
370
     0
100
AcDbCircle
 10
4595.637482204623
 20
16.01979771062852
 30
0.0
 40
2.650126537061643
100
AcDbArc
 50
5.413312273987727
 51
174.5866877260106
  0
LINE
  5
79D
330
A
100
AcDbEntity
  8
0
  6
Continuous
 62
     7
370
     0
100
AcDbLine
 10
4592.737343730105
 20
16.01979771062955
 30
0.0
 11
4592.999175040254
 21
16.26980964808795
 31
0.0
  0
LINE
  5
79E
330
A
100
AcDbEntity
  8
0
  6
Continuous
 62
     7
370
     0
100
AcDbLine
 10
4592.999175040254
 20
15.76978577317123
 30
0.0
 11
4592.737343730105
 21
16.01979771062955
 31
0.0
  0
ARC
  5
79F
330
A
100
AcDbEntity
  8
0
  6
Continuous
 62
     7
370
     0
100
AcDbCircle
 10
4995.656582138446
 20
16.01979771062852
 30
0.0
 40
2.650126537062284
100
AcDbArc
 50
185.4133122739501
 51
354.5866877260467
  0
LINE
  5
7A0
330
A
100
AcDbEntity
  8
0
  6
Continuous
 62
     7
370
     0
100
AcDbLine
 10
4998.556720612967
 20
16.01979771062955
 30
0.0
 11
4998.294889302815
 21
15.76978577317123
 31
0.0
  0
LINE
  5
7A1
330
A
100
AcDbEntity
  8
0
  6
Continuous
 62
     7
370
     0
100
AcDbLine
 10
4998.294889302815
 20
16.26980964808795
 30
0.0
 11
4998.556720612967
 21
16.01979771062955
 31
0.0
  0
ARC
  5
7A2
330
A
100
AcDbEntity
  8
0
  6
Continuous
 62
     7
370
     0
100
AcDbCircle
 10
4995.656582138446
 20
16.01979771062852
 30
0.0
 40
2.650126537061643
100
AcDbArc
 50
5.413312273990969
 51
174.5866877260106
  0
LINE
  5
7A3
330
A
100
AcDbEntity
  8
0
  6
Continuous
 62
     7
370
     0
100
AcDbLine
 10
4992.756443663925
 20
16.01979771062955
 30
0.0
 11
4993.018274974075
 21
16.26980964808795
 31
0.0
  0
LINE
  5
7A4
330
A
100
AcDbEntity
  8
0
  6
Continuous
 62
     7
370
     0
100
AcDbLine
 10
4993.018274974075
 20
15.76978577317123
 30
0.0
 11
4992.756443663925
 21
16.01979771062955
 31
0.0
  0
TEXT
  5
875
330
A
100
AcDbEntity
  8
0
  6
Continuous
 62
     7
370
     0
100
AcDbText
 10
1238.833002076292
 20
-434.6921010160453
 30
0.0
 40
137.163336
  1
BS40
100
AcDbText
  0
ENDSEC
  0
SECTION
  2
OBJECTS
  0
DICTIONARY
  5
19
330
0
100
AcDbDictionary
281
     1
  3
ACAD_COLOR
350
552
  3
ACAD_GROUP
350
1A
  3
ACAD_LAYOUT
350
1E
  3
ACAD_MATERIAL
350
528
  3
ACAD_MLEADERSTYLE
350
577
  3
ACAD_MLINESTYLE
350
1B
  3
ACAD_PLOTSETTINGS
350
22
  3
ACAD_PLOTSTYLENAME
350
1F
  3
ACAD_SCALELIST
350
555
  3
ACAD_TABLESTYLE
350
553
  3
ACAD_VISUALSTYLE
350
541
  3
ACAD_WIPEOUT_VARS
350
23
  3
ACDB_RECOMPOSE_DATA
350
832
  3
AcDbVariableDictionary
350
833
  3
ASE_INDEX_DICTIONARY
350
89D
  3
DWGPROPS
350
8A8
  0
DICTIONARY
  5
82E
330
14
100
AcDbDictionary
280
     1
281
     1
  3
ADSK_XREC_LAYER_RECONCILED
360
82F
  0
DICTIONARY
  5
585
330
A
100
AcDbDictionary
280
     1
281
     1
  3
ACAD_SORTENTS
360
586
  0
DICTIONARY
  5
552
102
{ACAD_REACTORS
330
19
102
}
330
19
100
AcDbDictionary
281
     1
  0
DICTIONARY
  5
1A
102
{ACAD_REACTORS
330
19
102
}
330
19
100
AcDbDictionary
281
     1
  0
DICTIONARY
  5
1E
102
{ACAD_REACTORS
330
19
102
}
330
19
100
AcDbDictionary
281
     1
  3
Layout1
350
21
  3
Model
350
20
  0
DICTIONARY
  5
528
102
{ACAD_REACTORS
330
19
102
}
330
19
100
AcDbDictionary
281
     1
  3
ByBlock
350
531
  3
ByLayer
350
529
  3
Global
350
539
  0
DICTIONARY
  5
577
102
{ACAD_REACTORS
330
19
102
}
330
19
100
AcDbDictionary
281
     1
  3
Standard
350
578
  0
DICTIONARY
  5
1B
102
{ACAD_REACTORS
330
19
102
}
330
19
100
AcDbDictionary
281
     1
  3
Standard
350
1C
  0
DICTIONARY
  5
22
102
{ACAD_REACTORS
330
19
102
}
330
19
100
AcDbDictionary
281
     1
  0
ACDBDICTIONARYWDFLT
  5
1F
102
{ACAD_REACTORS
330
19
102
}
330
19
100
AcDbDictionary
281
     1
  3
Normal
350
1D
100
AcDbDictionaryWithDefault
340
1D
  0
DICTIONARY
  5
555
102
{ACAD_REACTORS
330
19
102
}
330
19
100
AcDbDictionary
281
     1
  3
A0
350
556
  3
A1
350
557
  3
A2
350
558
  3
A3
350
559
  3
A4
350
55A
  3
A5
350
55B
  3
A6
350
55C
  3
A7
350
55D
  3
A8
350
55E
  3
A9
350
55F
  3
B0
350
560
  3
B1
350
561
  3
B2
350
562
  3
B3
350
563
  3
B4
350
564
  3
B5
350
565
  3
B6
350
566
  3
B7
350
567
  3
B8
350
568
  3
B9
350
569
  3
C0
350
56A
  3
C1
350
56B
  3
C2
350
56C
  3
C3
350
56D
  3
C4
350
56E
  3
C5
350
56F
  3
C6
350
570
  3
C7
350
571
  3
C8
350
572
  3
C9
350
573
  3
D0
350
574
  3
D1
350
575
  3
D2
350
576
  0
DICTIONARY
  5
553
102
{ACAD_REACTORS
330
19
102
}
330
19
100
AcDbDictionary
281
     1
  3
Standard
350
554
  0
DICTIONARY
  5
541
102
{ACAD_REACTORS
330
19
102
}
330
19
100
AcDbDictionary
281
     1
  3
2dWireframe
350
547
  3
3D Hidden
350
549
  3
3dWireframe
350
548
  3
Basic
350
546
  3
Brighten
350
54D
  3
ColorChange
350
551
  3
Conceptual
350
54A
  3
Dim
350
54C
  3
Facepattern
350
550
  3
Flat
350
542
  3
FlatWithEdges
350
543
  3
Gouraud
350
544
  3
GouraudWithEdges
350
545
  3
Linepattern
350
54F
  3
Realistic
350
54B
  3
Thicken
350
54E
  0
WIPEOUTVARIABLES
  5
23
330
19
100
AcDbWipeoutVariables
 70
     1
  0
XRECORD
  5
832
102
{ACAD_REACTORS
330
19
102
}
330
19
100
AcDbXrecord
280
     1
 90
        1
330
554
  0
DICTIONARY
  5
833
102
{ACAD_REACTORS
330
19
102
}
330
19
100
AcDbDictionary
281
     1
  3
CANNOSCALE
350
837
  3
CMLEADERSTYLE
350
835
  3
CTABLESTYLE
350
834
  3
DIMASSOC
350
8A6
  3
INDEXCTL
350
8A5
  3
LIGHTINGUNITS
350
838
  3
MSLTSCALE
350
836
  3
SORTENTS
350
8A4
  0
DICTIONARY
  5
89D
102
{ACAD_REACTORS
330
19
102
}
330
19
100
AcDbDictionary
281
     1
  3
ASEBlockHierarchyIndexRecord
350
89E
1001
DCO15
1040
1701687892.997
  0
XRECORD
  5
8A8
102
{ACAD_REACTORS
330
19
102
}
330
19
100
AcDbXrecord
280
     1
  1
DWGPROPS COOKIE
  2

  3

  4

  6

  7

  8
renzo.ceresoli
  9

300
=
301
=
302
=
303
=
304
=
305
=
306
=
307
=
308
=
309
=
 40
0.0084566087962963
 41
2455498.741087963
 42
2455498.697558426
  1

 90
        0
  0
XRECORD
  5
82F
102
{ACAD_REACTORS
330
82E
102
}
330
82E
100
AcDbXrecord
280
     1
290
     1
  0
SORTENTSTABLE
  5
586
102
{ACAD_REACTORS
330
585
102
}
330
585
100
AcDbSortentsTable
330
A
331
790
  5
69D
331
71A
  5
61A
331
664
  5
763
331
300
  5
7CC
331
625
  5
724
331
6DB
  5
5DB
331
751
  5
651
331
798
  5
6A5
331
722
  5
622
331
66C
  5
76B
331
62D
  5
72C
331
6E3
  5
5E3
331
759
  5
659
331
761
  5
661
331
72A
  5
62A
331
674
  5
773
331
635
  5
734
331
5FE
  5
6FD
331
6EB
  5
5EB
331
7A0
  5
6AD
331
769
  5
669
331
732
  5
632
331
63D
  5
73C
331
606
  5
705
331
6F3
  5
5F3
331
308
  5
7D4
331
181
  5
6B6
331
771
  5
671
331
6FB
  5
5FB
331
645
  5
744
331
189
  5
6BE
331
60E
  5
70D
331
6C4
  5
5C4
331
73A
  5
63A
331
779
  5
679
331
703
  5
603
331
6CC
  5
5CC
331
616
  5
715
331
64D
  5
74C
331
742
  5
642
331
781
  5
68A
331
74A
  5
64A
331
6D4
  5
5D4
331
655
  5
754
331
61E
  5
71D
331
70B
  5
60B
331
65D
  5
75C
331
713
  5
613
331
789
  5
696
331
279
  5
779
331
2E9
  5
7BD
331
791
  5
69E
331
71B
  5
61B
331
665
  5
764
331
301
  5
7CD
331
626
  5
725
331
6DC
  5
5DC
331
752
  5
652
331
799
  5
6A6
331
723
  5
623
331
66D
  5
76C
331
62E
  5
72D
331
6E4
  5
5E4
331
75A
  5
65A
331
7A1
  5
6AE
331
762
  5
662
331
6EC
  5
5EC
331
636
  5
735
331
5FF
  5
6FE
331
675
  5
774
331
72B
  5
62B
331
76A
  5
66A
331
6F4
  5
5F4
331
607
  5
706
331
63E
  5
73D
331
733
  5
633
331
309
  5
7D5
331
182
  5
6B7
331
772
  5
672
331
73B
  5
63B
331
6C5
  5
5C5
331
646
  5
745
331
60F
  5
70E
331
6FC
  5
5FC
331
77A
  5
67F
331
743
  5
643
331
704
  5
604
331
64E
  5
74D
331
617
  5
716
331
6CD
  5
5CD
331
782
  5
68F
331
70C
  5
60C
331
656
  5
755
331
61F
  5
71E
331
6D5
  5
5D5
331
74B
  5
64B
331
714
  5
614
331
65E
  5
75D
331
78A
  5
697
331
27A
  5
77A
331
792
  5
69F
331
71C
  5
61C
331
666
  5
765
331
627
  5
726
331
6DD
  5
5DD
331
753
  5
653
331
302
  5
7CE
331
79A
  5
6A7
331
724
  5
624
331
66E
  5
76D
331
62F
  5
72E
331
6E5
  5
5E5
331
75B
  5
65B
331
763
  5
663
331
72C
  5
62C
331
676
  5
775
331
637
  5
736
331
600
  5
6FF
331
6ED
  5
5ED
331
7A2
  5
6AF
331
734
  5
634
331
63F
  5
73E
331
6F5
  5
5F5
331
76B
  5
66B
331
608
  5
707
331
183
  5
6B8
331
773
  5
673
331
6FD
  5
5FD
331
647
  5
746
331
610
  5
70F
331
6C6
  5
5C6
331
73C
  5
63C
331
77B
  5
680
331
705
  5
605
331
6CE
  5
5CE
331
618
  5
717
331
64F
  5
74E
331
744
  5
644
331
783
  5
690
331
74C
  5
64C
331
6D6
  5
5D6
331
657
  5
756
331
70D
  5
60D
331
65F
  5
75E
331
715
  5
615
331
78B
  5
698
331
620
  5
71F
331
793
  5
6A0
331
71D
  5
61D
331
667
  5
766
331
628
  5
727
331
6DE
  5
5DE
331
754
  5
654
331
303
  5
7CF
331
79B
  5
6A8
331
725
  5
625
331
630
  5
72F
331
5F9
  5
6F8
331
66F
  5
76E
331
6E6
  5
5E6
331
75C
  5
65C
331
7A3
  5
6B0
331
764
  5
664
331
6EE
  5
5EE
331
677
  5
776
331
601
  5
700
331
638
  5
737
331
72D
  5
62D
331
76C
  5
66C
331
6F6
  5
5F6
331
735
  5
635
331
609
  5
708
331
640
  5
73F
331
184
  5
6B9
331
774
  5
674
331
73D
  5
63D
331
6C7
  5
5C7
331
648
  5
747
331
611
  5
710
331
6FE
  5
5FE
331
745
  5
645
331
706
  5
606
331
650
  5
74F
331
619
  5
718
331
6CF
  5
5CF
331
77C
  5
681
331
784
  5
691
331
70E
  5
60E
331
658
  5
757
331
6D7
  5
5D7
331
74D
  5
64D
331
78C
  5
699
331
716
  5
616
331
660
  5
75F
331
621
  5
720
331
2F4
  5
7C4
331
794
  5
6A1
331
71E
  5
61E
331
668
  5
767
331
629
  5
728
331
6DF
  5
5DF
331
755
  5
655
331
304
  5
7D0
331
79C
  5
6A9
331
726
  5
626
331
670
  5
76F
331
631
  5
730
331
5FA
  5
6F9
331
6E7
  5
5E7
331
75D
  5
65D
331
765
  5
665
331
72E
  5
62E
331
678
  5
777
331
639
  5
738
331
602
  5
701
331
6EF
  5
5EF
331
7A4
  5
6B1
331
736
  5
636
331
6F7
  5
5F7
331
76D
  5
66D
331
17D
  5
6B2
331
641
  5
740
331
60A
  5
709
331
6C0
  5
5C0
331
185
  5
6BA
331
775
  5
675
331
6FF
  5
5FF
331
6C8
  5
5C8
331
612
  5
711
331
649
  5
748
331
73E
  5
63E
331
77D
  5
682
331
6D0
  5
5D0
331
651
  5
750
331
61A
  5
719
331
707
  5
607
331
746
  5
646
331
74E
  5
64E
331
659
  5
758
331
70F
  5
60F
331
785
  5
692
331
717
  5
617
331
78D
  5
69A
331
661
  5
760
331
622
  5
721
331
6D8
  5
5D8
331
2F5
  5
7C5
331
795
  5
6A2
331
71F
  5
61F
331
669
  5
768
331
62A
  5
729
331
6E0
  5
5E0
331
756
  5
656
331
305
  5
7D1
331
79D
  5
6AA
331
6E8
  5
5E8
331
632
  5
731
331
5FB
  5
6FA
331
671
  5
770
331
727
  5
627
331
75E
  5
65E
331
766
  5
666
331
6F0
  5
5F0
331
603
  5
702
331
63A
  5
739
331
72F
  5
62F
331
76E
  5
66E
331
737
  5
637
331
17E
  5
6B3
331
6F8
  5
5F8
331
6C1
  5
5C1
331
642
  5
741
331
60B
  5
70A
331
186
  5
6BB
331
776
  5
676
331
73F
  5
63F
331
700
  5
600
331
64A
  5
749
331
613
  5
712
331
6C9
  5
5C9
331
708
  5
608
331
652
  5
751
331
61B
  5
71A
331
6D1
  5
5D1
331
747
  5
647
331
77E
  5
687
331
786
  5
693
331
710
  5
610
331
65A
  5
759
331
74F
  5
64F
331
78E
  5
69B
331
718
  5
618
331
662
  5
761
331
623
  5
722
331
6D9
  5
5D9
331
796
  5
6A3
331
720
  5
620
331
66A
  5
769
331
62B
  5
72A
331
6E1
  5
5E1
331
757
  5
657
331
306
  5
7D2
331
79E
  5
6AB
331
6E9
  5
5E9
331
672
  5
771
331
633
  5
732
331
5FC
  5
6FB
331
728
  5
628
331
75F
  5
65F
331
767
  5
667
331
730
  5
630
331
63B
  5
73A
331
604
  5
703
331
6F1
  5
5F1
331
76F
  5
66F
331
17F
  5
6B4
331
6F9
  5
5F9
331
643
  5
742
331
60C
  5
70B
331
526
  5
7FB
331
6C2
  5
5C2
331
738
  5
638
331
187
  5
6BC
331
777
  5
677
331
701
  5
601
331
6CA
  5
5CA
331
614
  5
713
331
64B
  5
74A
331
740
  5
640
331
748
  5
648
331
6D2
  5
5D2
331
653
  5
752
331
61C
  5
71B
331
709
  5
609
331
77F
  5
688
331
65B
  5
75A
331
711
  5
611
331
787
  5
694
331
78F
  5
69C
331
719
  5
619
331
663
  5
762
331
624
  5
723
331
6DA
  5
5DA
331
750
  5
650
331
797
  5
6A4
331
721
  5
621
331
66B
  5
76A
331
62C
  5
72B
331
6E2
  5
5E2
331
758
  5
658
331
307
  5
7D3
331
760
  5
660
331
6EA
  5
5EA
331
634
  5
733
331
5FD
  5
6FC
331
673
  5
772
331
729
  5
629
331
79F
  5
6AC
331
768
  5
668
331
6F2
  5
5F2
331
605
  5
704
331
63C
  5
73B
331
731
  5
631
331
180
  5
6B5
331
770
  5
670
331
6FA
  5
5FA
331
6C3
  5
5C3
331
644
  5
743
331
60D
  5
70C
331
739
  5
639
331
188
  5
6BD
331
778
  5
678
331
741
  5
641
331
702
  5
602
331
64C
  5
74B
331
615
  5
714
331
6CB
  5
5CB
331
780
  5
689
331
70A
  5
60A
331
654
  5
753
331
61D
  5
71C
331
6D3
  5
5D3
331
749
  5
649
331
712
  5
612
331
65C
  5
75B
331
788
  5
695
  0
LAYOUT
  5
21
102
{ACAD_XDICTIONARY
360
8AB
102
}
102
{ACAD_REACTORS
330
1E
102
}
330
1E
100
AcDbPlotSettings
  1

  2

  4

  6

 40
0.0
 41
0.0
 42
0.0
 43
0.0
 44
0.0
 45
0.0
 46
0.0
 47
0.0
 48
0.0
 49
0.0
140
0.0
141
0.0
142
1.0
143
1.0
 70
     0
 72
     0
 73
     0
 74
     0
  7

 75
     0
147
1.0
148
0.0
149
0.0
100
AcDbLayout
  1
Layout1
 70
     0
 71
     1
 10
0.0
 20
0.0
 11
12.0
 21
9.0
 12
0.0
 22
0.0
 32
0.0
 14
1.000000000000000E+20
 24
1.000000000000000E+20
 34
1.000000000000000E+20
 15
-1.000000000000000E+20
 25
-1.000000000000000E+20
 35
-1.000000000000000E+20
146
0.0
 13
0.0
 23
0.0
 33
0.0
 16
1.0
 26
0.0
 36
0.0
 17
0.0
 27
1.0
 37
0.0
 76
     0
330
B
  0
LAYOUT
  5
20
102
{ACAD_XDICTIONARY
360
8A9
102
}
102
{ACAD_REACTORS
330
1E
102
}
330
1E
100
AcDbPlotSettings
  1

  2
AL-C9100(D1A073)
  4
A4
  6

 40
5.873749732971191
 41
5.873717308044433
 42
5.873748779296875
 43
5.873748779296875
 44
209.9733276367187
 45
297.0106506347656
 46
0.0
 47
0.0
 48
0.0
 49
0.0
140
0.0
141
0.0
142
1.0
143
1.0
 70
 11264
 72
     1
 73
     1
 74
     0
  7

 75
     0
147
1.0
148
5110.284721090947
149
6098.203004327522
100
AcDbLayout
  1
Model
 70
     0
 71
     0
 10
0.0
 20
0.0
 11
0.0
 21
0.0
 12
0.0
 22
0.0
 32
0.0
 14
0.0
 24
0.0
 34
0.0
 15
0.0
 25
0.0
 35
0.0
146
0.0
 13
0.0
 23
0.0
 33
0.0
 16
0.0
 26
0.0
 36
0.0
 17
0.0
 27
0.0
 37
0.0
 76
     0
330
A
331
15
1001
ACAD_PSEXT
1000
AL-C9100(D1A073)
1000
EPSON AL-C9100 Advanced
1000
IP_192.168.0.169
1000

1070
     0
  0
MATERIAL
  5
531
102
{ACAD_XDICTIONARY
360
532
102
}
102
{ACAD_REACTORS
330
528
102
}
330
528
100
AcDbMaterial
  1
ByBlock
 72
     0
 43
0.0208333333333333
 43
0.0
 43
0.0
 43
0.0
 43
0.0
 43
0.0208333333333333
 43
0.0
 43
0.0
 43
0.0
 43
0.0
 43
1.0
 43
0.0
 43
0.0
 43
0.0
 43
0.0
 43
1.0
 77
     0
 47
0.0208333333333333
 47
0.0
 47
0.0
 47
0.0
 47
0.0
 47
0.0208333333333333
 47
0.0
 47
0.0
 47
0.0
 47
0.0
 47
1.0
 47
0.0
 47
0.0
 47
0.0
 47
0.0
 47
1.0
171
     0
 49
0.0208333333333333
 49
0.0
 49
0.0
 49
0.0
 49
0.0
 49
0.0208333333333333
 49
0.0
 49
0.0
 49
0.0
 49
0.0
 49
1.0
 49
0.0
 49
0.0
 49
0.0
 49
0.0
 49
1.0
175
     0
142
0.0208333333333333
142
0.0
142
0.0
142
0.0
142
0.0
142
0.0208333333333333
142
0.0
142
0.0
142
0.0
142
0.0
142
1.0
142
0.0
142
0.0
142
0.0
142
0.0
142
1.0
179
     0
144
0.0208333333333333
144
0.0
144
0.0
144
0.0
144
0.0
144
0.0208333333333333
144
0.0
144
0.0
144
0.0
144
0.0
144
1.0
144
0.0
144
0.0
144
0.0
144
0.0
144
1.0
147
0.0208333333333333
147
0.0
147
0.0
147
0.0
147
0.0
147
0.0208333333333333
147
0.0
147
0.0
147
0.0
147
0.0
147
1.0
147
0.0
147
0.0
147
0.0
147
0.0
147
1.0
  0
MATERIAL
  5
529
102
{ACAD_XDICTIONARY
360
52A
102
}
102
{ACAD_REACTORS
330
528
102
}
330
528
100
AcDbMaterial
  1
ByLayer
 72
     0
 43
0.0208333333333333
 43
0.0
 43
0.0
 43
0.0
 43
0.0
 43
0.0208333333333333
 43
0.0
 43
0.0
 43
0.0
 43
0.0
 43
1.0
 43
0.0
 43
0.0
 43
0.0
 43
0.0
 43
1.0
 77
     0
 47
0.0208333333333333
 47
0.0
 47
0.0
 47
0.0
 47
0.0
 47
0.0208333333333333
 47
0.0
 47
0.0
 47
0.0
 47
0.0
 47
1.0
 47
0.0
 47
0.0
 47
0.0
 47
0.0
 47
1.0
171
     0
 49
0.0208333333333333
 49
0.0
 49
0.0
 49
0.0
 49
0.0
 49
0.0208333333333333
 49
0.0
 49
0.0
 49
0.0
 49
0.0
 49
1.0
 49
0.0
 49
0.0
 49
0.0
 49
0.0
 49
1.0
175
     0
142
0.0208333333333333
142
0.0
142
0.0
142
0.0
142
0.0
142
0.0208333333333333
142
0.0
142
0.0
142
0.0
142
0.0
142
1.0
142
0.0
142
0.0
142
0.0
142
0.0
142
1.0
179
     0
144
0.0208333333333333
144
0.0
144
0.0
144
0.0
144
0.0
144
0.0208333333333333
144
0.0
144
0.0
144
0.0
144
0.0
144
1.0
144
0.0
144
0.0
144
0.0
144
0.0
144
1.0
147
0.0208333333333333
147
0.0
147
0.0
147
0.0
147
0.0
147
0.0208333333333333
147
0.0
147
0.0
147
0.0
147
0.0
147
1.0
147
0.0
147
0.0
147
0.0
147
0.0
147
1.0
  0
MATERIAL
  5
539
102
{ACAD_XDICTIONARY
360
53A
102
}
102
{ACAD_REACTORS
330
528
102
}
330
528
100
AcDbMaterial
  1
Global
 72
     0
 43
0.0208333333333333
 43
0.0
 43
0.0
 43
0.0
 43
0.0
 43
0.0208333333333333
 43
0.0
 43
0.0
 43
0.0
 43
0.0
 43
1.0
 43
0.0
 43
0.0
 43
0.0
 43
0.0
 43
1.0
 77
     0
 47
0.0208333333333333
 47
0.0
 47
0.0
 47
0.0
 47
0.0
 47
0.0208333333333333
 47
0.0
 47
0.0
 47
0.0
 47
0.0
 47
1.0
 47
0.0
 47
0.0
 47
0.0
 47
0.0
 47
1.0
171
     0
 49
0.0208333333333333
 49
0.0
 49
0.0
 49
0.0
 49
0.0
 49
0.0208333333333333
 49
0.0
 49
0.0
 49
0.0
 49
0.0
 49
1.0
 49
0.0
 49
0.0
 49
0.0
 49
0.0
 49
1.0
175
     0
142
0.0208333333333333
142
0.0
142
0.0
142
0.0
142
0.0
142
0.0208333333333333
142
0.0
142
0.0
142
0.0
142
0.0
142
1.0
142
0.0
142
0.0
142
0.0
142
0.0
142
1.0
179
     0
144
0.0208333333333333
144
0.0
144
0.0
144
0.0
144
0.0
144
0.0208333333333333
144
0.0
144
0.0
144
0.0
144
0.0
144
1.0
144
0.0
144
0.0
144
0.0
144
0.0
144
1.0
147
0.0208333333333333
147
0.0
147
0.0
147
0.0
147
0.0
147
0.0208333333333333
147
0.0
147
0.0
147
0.0
147
0.0
147
1.0
147
0.0
147
0.0
147
0.0
147
0.0
147
1.0
  0
MLEADERSTYLE
  5
578
102
{ACAD_REACTORS
330
577
102
}
330
577
100
AcDbMLeaderStyle
170
     2
171
     1
172
     0
 90
        2
 40
0.0
 41
0.0
173
     1
 91
-1056964608
340
11
 92
       -2
290
     1
 42
2.0
291
     1
 43
0.36
  3
Standard
 44
4.0
300

342
17
174
     1
178
     6
175
     1
176
     0
 93
-1056964608
 45
4.0
292
     0
297
     0
 46
4.0
 94
-1056964608
 47
1.0
 49
1.0
140
1.0
293
     1
141
0.0
294
     1
177
     0
142
1.0
295
     0
296
     0
143
0.125
1001
ACAD_MLEADERVER
1070
     2
  0
MLINESTYLE
  5
1C
102
{ACAD_REACTORS
330
1B
102
}
330
1B
100
AcDbMlineStyle
  2
STANDARD
 70
     0
  3

 62
     0
 51
90.0
 52
90.0
 71
     2
 49
0.5
 62
   256
  6
BYLAYER
 49
-0.5
 62
   256
  6
BYLAYER
  0
ACDBPLACEHOLDER
  5
1D
102
{ACAD_REACTORS
330
1F
102
}
330
1F
  0
SCALE
  5
556
102
{ACAD_REACTORS
330
555
102
}
330
555
100
AcDbScale
 70
     0
300
1:1
140
1.0
141
1.0
290
     1
  0
SCALE
  5
557
102
{ACAD_REACTORS
330
555
102
}
330
555
100
AcDbScale
 70
     0
300
1:2
140
1.0
141
2.0
290
     0
  0
SCALE
  5
558
102
{ACAD_REACTORS
330
555
102
}
330
555
100
AcDbScale
 70
     0
300
1:4
140
1.0
141
4.0
290
     0
  0
SCALE
  5
559
102
{ACAD_REACTORS
330
555
102
}
330
555
100
AcDbScale
 70
     0
300
1:5
140
1.0
141
5.0
290
     0
  0
SCALE
  5
55A
102
{ACAD_REACTORS
330
555
102
}
330
555
100
AcDbScale
 70
     0
300
1:8
140
1.0
141
8.0
290
     0
  0
SCALE
  5
55B
102
{ACAD_REACTORS
330
555
102
}
330
555
100
AcDbScale
 70
     0
300
1:10
140
1.0
141
10.0
290
     0
  0
SCALE
  5
55C
102
{ACAD_REACTORS
330
555
102
}
330
555
100
AcDbScale
 70
     0
300
1:16
140
1.0
141
16.0
290
     0
  0
SCALE
  5
55D
102
{ACAD_REACTORS
330
555
102
}
330
555
100
AcDbScale
 70
     0
300
1:20
140
1.0
141
20.0
290
     0
  0
SCALE
  5
55E
102
{ACAD_REACTORS
330
555
102
}
330
555
100
AcDbScale
 70
     0
300
1:30
140
1.0
141
30.0
290
     0
  0
SCALE
  5
55F
102
{ACAD_REACTORS
330
555
102
}
330
555
100
AcDbScale
 70
     0
300
1:40
140
1.0
141
40.0
290
     0
  0
SCALE
  5
560
102
{ACAD_REACTORS
330
555
102
}
330
555
100
AcDbScale
 70
     0
300
1:50
140
1.0
141
50.0
290
     0
  0
SCALE
  5
561
102
{ACAD_REACTORS
330
555
102
}
330
555
100
AcDbScale
 70
     0
300
1:100
140
1.0
141
100.0
290
     0
  0
SCALE
  5
562
102
{ACAD_REACTORS
330
555
102
}
330
555
100
AcDbScale
 70
     0
300
2:1
140
2.0
141
1.0
290
     0
  0
SCALE
  5
563
102
{ACAD_REACTORS
330
555
102
}
330
555
100
AcDbScale
 70
     0
300
4:1
140
4.0
141
1.0
290
     0
  0
SCALE
  5
564
102
{ACAD_REACTORS
330
555
102
}
330
555
100
AcDbScale
 70
     0
300
8:1
140
8.0
141
1.0
290
     0
  0
SCALE
  5
565
102
{ACAD_REACTORS
330
555
102
}
330
555
100
AcDbScale
 70
     0
300
10:1
140
10.0
141
1.0
290
     0
  0
SCALE
  5
566
102
{ACAD_REACTORS
330
555
102
}
330
555
100
AcDbScale
 70
     0
300
100:1
140
100.0
141
1.0
290
     0
  0
SCALE
  5
567
102
{ACAD_REACTORS
330
555
102
}
330
555
100
AcDbScale
 70
     0
300
1/128" = 1'-0"
140
0.0078125
141
12.0
290
     0
  0
SCALE
  5
568
102
{ACAD_REACTORS
330
555
102
}
330
555
100
AcDbScale
 70
     0
300
1/64" = 1'-0"
140
0.015625
141
12.0
290
     0
  0
SCALE
  5
569
102
{ACAD_REACTORS
330
555
102
}
330
555
100
AcDbScale
 70
     0
300
1/32" = 1'-0"
140
0.03125
141
12.0
290
     0
  0
SCALE
  5
56A
102
{ACAD_REACTORS
330
555
102
}
330
555
100
AcDbScale
 70
     0
300
1/16" = 1'-0"
140
0.0625
141
12.0
290
     0
  0
SCALE
  5
56B
102
{ACAD_REACTORS
330
555
102
}
330
555
100
AcDbScale
 70
     0
300
3/32" = 1'-0"
140
0.09375
141
12.0
290
     0
  0
SCALE
  5
56C
102
{ACAD_REACTORS
330
555
102
}
330
555
100
AcDbScale
 70
     0
300
1/8" = 1'-0"
140
0.125
141
12.0
290
     0
  0
SCALE
  5
56D
102
{ACAD_REACTORS
330
555
102
}
330
555
100
AcDbScale
 70
     0
300
3/16" = 1'-0"
140
0.1875
141
12.0
290
     0
  0
SCALE
  5
56E
102
{ACAD_REACTORS
330
555
102
}
330
555
100
AcDbScale
 70
     0
300
1/4" = 1'-0"
140
0.25
141
12.0
290
     0
  0
SCALE
  5
56F
102
{ACAD_REACTORS
330
555
102
}
330
555
100
AcDbScale
 70
     0
300
3/8" = 1'-0"
140
0.375
141
12.0
290
     0
  0
SCALE
  5
570
102
{ACAD_REACTORS
330
555
102
}
330
555
100
AcDbScale
 70
     0
300
1/2" = 1'-0"
140
0.5
141
12.0
290
     0
  0
SCALE
  5
571
102
{ACAD_REACTORS
330
555
102
}
330
555
100
AcDbScale
 70
     0
300
3/4" = 1'-0"
140
0.75
141
12.0
290
     0
  0
SCALE
  5
572
102
{ACAD_REACTORS
330
555
102
}
330
555
100
AcDbScale
 70
     0
300
1" = 1'-0"
140
1.0
141
12.0
290
     0
  0
SCALE
  5
573
102
{ACAD_REACTORS
330
555
102
}
330
555
100
AcDbScale
 70
     0
300
1-1/2" = 1'-0"
140
1.5
141
12.0
290
     0
  0
SCALE
  5
574
102
{ACAD_REACTORS
330
555
102
}
330
555
100
AcDbScale
 70
     0
300
3" = 1'-0"
140
3.0
141
12.0
290
     0
  0
SCALE
  5
575
102
{ACAD_REACTORS
330
555
102
}
330
555
100
AcDbScale
 70
     0
300
6" = 1'-0"
140
6.0
141
12.0
290
     0
  0
SCALE
  5
576
102
{ACAD_REACTORS
330
555
102
}
330
555
100
AcDbScale
 70
     0
300
1'-0" = 1'-0"
140
12.0
141
12.0
290
     0
  0
TABLESTYLE
  5
554
102
{ACAD_XDICTIONARY
360
830
102
}
102
{ACAD_REACTORS
330
553
102
}
330
553
100
AcDbTableStyle
  3
Standard
 70
     0
 71
     0
 40
1.5
 41
1.5
280
     0
281
     0
  7
Standard
140
4.5
170
     2
 62
     0
 63
     7
283
     0
274
    -2
284
     1
 64
     0
275
    -2
285
     1
 65
     0
276
    -2
286
     1
 66
     0
277
    -2
287
     1
 67
     0
278
    -2
288
     1
 68
     0
279
    -2
289
     1
 69
     0
  7
Standard
140
6.0
170
     5
 62
     0
 63
     7
283
     0
274
    -2
284
     1
 64
     0
275
    -2
285
     1
 65
     0
276
    -2
286
     1
 66
     0
277
    -2
287
     1
 67
     0
278
    -2
288
     1
 68
     0
279
    -2
289
     1
 69
     0
  7
Standard
140
4.5
170
     5
 62
     0
 63
     7
283
     0
274
    -2
284
     1
 64
     0
275
    -2
285
     1
 65
     0
276
    -2
286
     1
 66
     0
277
    -2
287
     1
 67
     0
278
    -2
288
     1
 68
     0
279
    -2
289
     1
 69
     0
  0
VISUALSTYLE
  5
547
102
{ACAD_REACTORS
330
541
102
}
330
541
100
AcDbVisualStyle
  2
2dWireframe
 70
     4
 71
     0
 72
     2
 73
     0
 90
        0
 40
-0.6
 41
-30.0
 62
     5
 63
     7
 74
     1
 91
        4
 64
     7
 65
   257
 75
     1
175
     1
 42
1.0
 92
        0
 66
   257
 43
1.0
 76
     1
 77
     6
 78
     2
 67
     7
 79
     5
170
     0
171
     0
290
     0
174
     0
 93
        1
 44
0.0
173
     0
291
     0
 45
0.0
1001
ACAD
1000
AcDbSavedByObjectVersion
1070
     0
  0
VISUALSTYLE
  5
549
102
{ACAD_REACTORS
330
541
102
}
330
541
100
AcDbVisualStyle
  2
3D Hidden
 70
     6
 71
     1
 72
     2
 73
     2
 90
        0
 40
-0.6
 41
-30.0
 62
     5
 63
     7
 74
     2
 91
        2
 64
     7
 65
   257
 75
     2
175
     1
 42
40.0
 92
        0
 66
   257
 43
1.0
 76
     1
 77
     6
 78
     2
 67
     7
 79
     3
170
     0
171
     0
290
     0
174
     0
 93
        1
 44
0.0
173
     0
291
     0
 45
0.0
1001
ACAD
1000
AcDbSavedByObjectVersion
1070
     0
  0
VISUALSTYLE
  5
548
102
{ACAD_REACTORS
330
541
102
}
330
541
100
AcDbVisualStyle
  2
3dWireframe
 70
     5
 71
     0
 72
     2
 73
     0
 90
        0
 40
-0.6
 41
-30.0
 62
     5
 63
     7
 74
     1
 91
        4
 64
     7
 65
   257
 75
     1
175
     1
 42
1.0
 92
        0
 66
   257
 43
1.0
 76
     1
 77
     6
 78
     2
 67
     7
 79
     5
170
     0
171
     0
290
     0
174
     0
 93
        1
 44
0.0
173
     0
291
     0
 45
0.0
1001
ACAD
1000
AcDbSavedByObjectVersion
1070
     0
  0
VISUALSTYLE
  5
546
102
{ACAD_REACTORS
330
541
102
}
330
541
100
AcDbVisualStyle
  2
Basic
 70
     7
 71
     1
 72
     0
 73
     1
 90
        0
 40
-0.6
 41
-30.0
 62
     5
 63
     7
 74
     0
 91
        4
 64
     7
 65
   257
 75
     1
175
     1
 42
1.0
 92
        8
 66
     7
 43
1.0
 76
     1
 77
     6
 78
     2
 67
     7
 79
     5
170
     0
171
     0
290
     0
174
     0
 93
        1
 44
0.0
173
     0
291
     1
 45
0.0
1001
ACAD
1000
AcDbSavedByObjectVersion
1070
     0
  0
VISUALSTYLE
  5
54D
102
{ACAD_REACTORS
330
541
102
}
330
541
100
AcDbVisualStyle
  2
Brighten
 70
    12
 71
     2
 72
     2
 73
     0
 90
        0
 40
-0.6
 41
-30.0
 62
     5
 63
     7
 74
     1
 91
        4
 64
     7
 65
   257
 75
     1
175
     1
 42
1.0
 92
        8
 66
     7
 43
1.0
 76
     1
 77
     6
 78
     2
 67
     7
 79
     5
170
     0
171
     0
290
     0
174
     0
 93
        1
 44
50.0
173
     0
291
     1
 45
0.0
1001
ACAD
1000
AcDbSavedByObjectVersion
1070
     0
  0
VISUALSTYLE
  5
551
102
{ACAD_REACTORS
330
541
102
}
330
541
100
AcDbVisualStyle
  2
ColorChange
 70
    16
 71
     2
 72
     2
 73
     3
 90
        0
 40
-0.6
 41
-30.0
 62
     5
 63
     8
 74
     1
 91
        4
 64
     7
 65
   257
 75
     1
175
     1
 42
1.0
 92
        8
 66
     8
 43
1.0
 76
     1
 77
     6
 78
     2
 67
     7
 79
     5
170
     0
171
     0
290
     0
174
     0
 93
        1
 44
0.0
173
     0
291
     1
 45
0.0
1001
ACAD
1000
AcDbSavedByObjectVersion
1070
     0
  0
VISUALSTYLE
  5
54A
102
{ACAD_REACTORS
330
541
102
}
330
541
100
AcDbVisualStyle
  2
Conceptual
 70
     9
 71
     3
 72
     2
 73
     0
 90
        0
 40
-0.6
 41
-30.0
 62
     5
 63
     7
 74
     2
 91
        2
 64
     7
 65
   257
 75
     1
175
     1
 42
40.0
 92
        8
 66
     7
 43
1.0
 76
     1
 77
     6
 78
     2
 67
     7
 79
     3
170
     0
171
     0
290
     0
174
     0
 93
        1
 44
0.0
173
     0
291
     0
 45
0.0
1001
ACAD
1000
AcDbSavedByObjectVersion
1070
     0
  0
VISUALSTYLE
  5
54C
102
{ACAD_REACTORS
330
541
102
}
330
541
100
AcDbVisualStyle
  2
Dim
 70
    11
 71
     2
 72
     2
 73
     0
 90
        0
 40
-0.6
 41
-30.0
 62
     5
 63
     7
 74
     1
 91
        4
 64
     7
 65
   257
 75
     1
175
     1
 42
1.0
 92
        8
 66
     7
 43
1.0
 76
     1
 77
     6
 78
     2
 67
     7
 79
     5
170
     0
171
     0
290
     0
174
     0
 93
        1
 44
-50.0
173
     0
291
     1
 45
0.0
1001
ACAD
1000
AcDbSavedByObjectVersion
1070
     0
  0
VISUALSTYLE
  5
550
102
{ACAD_REACTORS
330
541
102
}
330
541
100
AcDbVisualStyle
  2
Facepattern
 70
    15
 71
     2
 72
     2
 73
     0
 90
        0
 40
-0.6
 41
-30.0
 62
     5
 63
     7
 74
     1
 91
        4
 64
     7
 65
   257
 75
     1
175
     1
 42
1.0
 92
        8
 66
     7
 43
1.0
 76
     1
 77
     6
 78
     2
 67
     7
 79
     5
170
     0
171
     0
290
     0
174
     0
 93
        1
 44
0.0
173
     0
291
     1
 45
0.0
1001
ACAD
1000
AcDbSavedByObjectVersion
1070
     0
  0
VISUALSTYLE
  5
542
102
{ACAD_REACTORS
330
541
102
}
330
541
100
AcDbVisualStyle
  2
Flat
 70
     0
 71
     2
 72
     1
 73
     1
 90
        2
 40
-0.6
 41
30.0
 62
     5
 63
     7
 74
     0
 91
        4
 64
     7
 65
   257
 75
     1
175
     1
 42
1.0
 92
        8
 66
     7
 43
1.0
 76
     1
 77
     6
 78
     2
 67
     7
 79
     5
170
     0
171
     0
290
     0
174
     0
 93
       13
 44
0.0
173
     0
291
     1
 45
0.0
1001
ACAD
1000
AcDbSavedByObjectVersion
1070
     0
  0
VISUALSTYLE
  5
543
102
{ACAD_REACTORS
330
541
102
}
330
541
100
AcDbVisualStyle
  2
FlatWithEdges
 70
     1
 71
     2
 72
     1
 73
     1
 90
        2
 40
-0.6
 41
30.0
 62
     5
 63
     7
 74
     1
 91
        4
 64
     7
 65
   257
 75
     1
175
     1
 42
1.0
 92
        0
 66
   257
 43
1.0
 76
     1
 77
     6
 78
     2
 67
     7
 79
     5
170
     0
171
     0
290
     0
174
     0
 93
       13
 44
0.0
173
     0
291
     1
 45
0.0
1001
ACAD
1000
AcDbSavedByObjectVersion
1070
     0
  0
VISUALSTYLE
  5
544
102
{ACAD_REACTORS
330
541
102
}
330
541
100
AcDbVisualStyle
  2
Gouraud
 70
     2
 71
     2
 72
     2
 73
     1
 90
        2
 40
-0.6
 41
30.0
 62
     5
 63
     7
 74
     0
 91
        4
 64
     7
 65
   257
 75
     1
175
     1
 42
1.0
 92
        0
 66
     7
 43
1.0
 76
     1
 77
     6
 78
     2
 67
     7
 79
     5
170
     0
171
     0
290
     0
174
     0
 93
       13
 44
0.0
173
     0
291
     1
 45
0.0
1001
ACAD
1000
AcDbSavedByObjectVersion
1070
     0
  0
VISUALSTYLE
  5
545
102
{ACAD_REACTORS
330
541
102
}
330
541
100
AcDbVisualStyle
  2
GouraudWithEdges
 70
     3
 71
     2
 72
     2
 73
     1
 90
        2
 40
-0.6
 41
30.0
 62
     5
 63
     7
 74
     1
 91
        4
 64
     7
 65
   257
 75
     1
175
     1
 42
1.0
 92
        0
 66
   257
 43
1.0
 76
     1
 77
     6
 78
     2
 67
     7
 79
     5
170
     0
171
     0
290
     0
174
     0
 93
       13
 44
0.0
173
     0
291
     1
 45
0.0
1001
ACAD
1000
AcDbSavedByObjectVersion
1070
     0
  0
VISUALSTYLE
  5
54F
102
{ACAD_REACTORS
330
541
102
}
330
541
100
AcDbVisualStyle
  2
Linepattern
 70
    14
 71
     2
 72
     2
 73
     0
 90
        0
 40
-0.6
 41
-30.0
 62
     5
 63
     7
 74
     1
 91
        4
 64
     7
 65
   257
 75
     7
175
     7
 42
1.0
 92
        8
 66
     7
 43
1.0
 76
     1
 77
     6
 78
     2
 67
     7
 79
     5
170
     0
171
     0
290
     0
174
     0
 93
        1
 44
0.0
173
     0
291
     1
 45
0.0
1001
ACAD
1000
AcDbSavedByObjectVersion
1070
     0
  0
VISUALSTYLE
  5
54B
102
{ACAD_REACTORS
330
541
102
}
330
541
100
AcDbVisualStyle
  2
Realistic
 70
     8
 71
     2
 72
     2
 73
     0
 90
        0
 40
-0.6
 41
-30.0
 62
     5
 63
     7
 74
     1
 91
        0
 64
     7
 65
   257
 75
     1
175
     1
 42
1.0
 92
        8
 66
     8
 43
1.0
 76
     1
 77
     6
 78
     2
 67
     7
 79
     5
170
     0
171
     0
290
     0
174
     0
 93
       13
 44
0.0
173
     0
291
     0
 45
0.0
1001
ACAD
1000
AcDbSavedByObjectVersion
1070
     0
  0
VISUALSTYLE
  5
54E
102
{ACAD_REACTORS
330
541
102
}
330
541
100
AcDbVisualStyle
  2
Thicken
 70
    13
 71
     2
 72
     2
 73
     0
 90
        0
 40
-0.6
 41
-30.0
 62
     5
 63
     7
 74
     1
 91
        4
 64
     7
 65
   257
 75
     1
175
     1
 42
1.0
 92
       12
 66
     7
 43
1.0
 76
     1
 77
     6
 78
     2
 67
     7
 79
     5
170
     0
171
     0
290
     0
174
     0
 93
        1
 44
0.0
173
     0
291
     1
 45
0.0
1001
ACAD
1000
AcDbSavedByObjectVersion
1070
     0
  0
DICTIONARYVAR
  5
837
102
{ACAD_REACTORS
330
833
102
}
330
833
100
DictionaryVariables
280
     0
  1
1:1
  0
DICTIONARYVAR
  5
835
102
{ACAD_REACTORS
330
833
102
}
330
833
100
DictionaryVariables
280
     0
  1
STANDARD
  0
DICTIONARYVAR
  5
834
102
{ACAD_REACTORS
330
833
102
}
330
833
100
DictionaryVariables
280
     0
  1
STANDARD
  0
DICTIONARYVAR
  5
8A6
102
{ACAD_REACTORS
330
833
102
}
330
833
100
DictionaryVariables
280
     0
  1
1
  0
DICTIONARYVAR
  5
8A5
102
{ACAD_REACTORS
330
833
102
}
330
833
100
DictionaryVariables
280
     0
  1
0
  0
DICTIONARYVAR
  5
838
102
{ACAD_REACTORS
330
833
102
}
330
833
100
DictionaryVariables
280
     0
  1
0
  0
DICTIONARYVAR
  5
836
102
{ACAD_REACTORS
330
833
102
}
330
833
100
DictionaryVariables
280
     0
  1
0
  0
DICTIONARYVAR
  5
8A4
102
{ACAD_REACTORS
330
833
102
}
330
833
100
DictionaryVariables
280
     0
  1
127
  0
XRECORD
  5
89E
102
{ACAD_REACTORS
330
89D
102
}
330
89D
100
AcDbXrecord
280
     1
330
526
  0
DICTIONARY
  5
8AB
330
21
100
AcDbDictionary
280
     1
281
     1
  3
ACAD_XREC_ROUNDTRIP
360
8AC
  0
DICTIONARY
  5
8A9
330
20
100
AcDbDictionary
280
     1
281
     1
  3
ACAD_XREC_ROUNDTRIP
360
8AA
  0
DICTIONARY
  5
532
330
531
100
AcDbDictionary
280
     1
281
     1
  3
ACAD_XREC_ROUNDTRIP
360
8AE
  3
BUMPTILE
360
534
  3
DIFFUSETILE
360
533
  3
OPACITYTILE
360
537
  3
REFLECTIONTILE
360
536
  3
REFRACTIONTILE
360
538
  3
SPECULARTILE
360
535
  0
DICTIONARY
  5
52A
330
529
100
AcDbDictionary
280
     1
281
     1
  3
ACAD_XREC_ROUNDTRIP
360
8AD
  3
BUMPTILE
360
52C
  3
DIFFUSETILE
360
52B
  3
OPACITYTILE
360
52F
  3
REFLECTIONTILE
360
52E
  3
REFRACTIONTILE
360
530
  3
SPECULARTILE
360
52D
  0
DICTIONARY
  5
53A
330
539
100
AcDbDictionary
280
     1
281
     1
  3
ACAD_XREC_ROUNDTRIP
360
8AF
  3
BUMPTILE
360
53C
  3
DIFFUSETILE
360
53B
  3
OPACITYTILE
360
53F
  3
REFLECTIONTILE
360
53E
  3
REFRACTIONTILE
360
540
  3
SPECULARTILE
360
53D
  0
DICTIONARY
  5
830
330
554
100
AcDbDictionary
280
     1
281
     1
  3
ACAD_ROUNDTRIP_2008_TABLESTYLE_CELLSTYLEMAP
360
8A7
  3
ACAD_XREC_ROUNDTRIP
360
8B0
  0
XRECORD
  5
8AC
102
{ACAD_REACTORS
330
8AB
102
}
330
8AB
100
AcDbXrecord
280
     1
102
SHADEPLOT
 70
     0
102
SHADEPLOTRESLEVEL
 70
     2
102
SHADEPLOTCUSTOMDPI
 70
   300
  0
XRECORD
  5
8AA
102
{ACAD_REACTORS
330
8A9
102
}
330
8A9
100
AcDbXrecord
280
     1
102
SHADEPLOT
 70
     0
102
SHADEPLOTRESLEVEL
 70
     2
102
SHADEPLOTCUSTOMDPI
 70
   300
  0
XRECORD
  5
8AE
102
{ACAD_REACTORS
330
532
102
}
330
532
100
AcDbXrecord
280
     1
102
MATERIAL
148
0.0
149
0.0
149
0.0
 93
        0
 94
      127
282
     0
 72
     0
 77
     0
171
     0
175
     0
179
     0
273
     0
  0
XRECORD
  5
534
102
{ACAD_REACTORS
330
532
102
}
330
532
100
AcDbXrecord
280
     1
270
     1
271
     1
  0
XRECORD
  5
533
102
{ACAD_REACTORS
330
532
102
}
330
532
100
AcDbXrecord
280
     1
270
     1
271
     1
  0
XRECORD
  5
537
102
{ACAD_REACTORS
330
532
102
}
330
532
100
AcDbXrecord
280
     1
270
     1
271
     1
  0
XRECORD
  5
536
102
{ACAD_REACTORS
330
532
102
}
330
532
100
AcDbXrecord
280
     1
270
     1
271
     1
  0
XRECORD
  5
538
102
{ACAD_REACTORS
330
532
102
}
330
532
100
AcDbXrecord
280
     1
270
     1
271
     1
  0
XRECORD
  5
535
102
{ACAD_REACTORS
330
532
102
}
330
532
100
AcDbXrecord
280
     1
270
     1
271
     1
  0
XRECORD
  5
8AD
102
{ACAD_REACTORS
330
52A
102
}
330
52A
100
AcDbXrecord
280
     1
102
MATERIAL
148
0.0
149
0.0
149
0.0
 93
        0
 94
      127
282
     0
 72
     0
 77
     0
171
     0
175
     0
179
     0
273
     0
  0
XRECORD
  5
52C
102
{ACAD_REACTORS
330
52A
102
}
330
52A
100
AcDbXrecord
280
     1
270
     1
271
     1
  0
XRECORD
  5
52B
102
{ACAD_REACTORS
330
52A
102
}
330
52A
100
AcDbXrecord
280
     1
270
     1
271
     1
  0
XRECORD
  5
52F
102
{ACAD_REACTORS
330
52A
102
}
330
52A
100
AcDbXrecord
280
     1
270
     1
271
     1
  0
XRECORD
  5
52E
102
{ACAD_REACTORS
330
52A
102
}
330
52A
100
AcDbXrecord
280
     1
270
     1
271
     1
  0
XRECORD
  5
530
102
{ACAD_REACTORS
330
52A
102
}
330
52A
100
AcDbXrecord
280
     1
270
     1
271
     1
  0
XRECORD
  5
52D
102
{ACAD_REACTORS
330
52A
102
}
330
52A
100
AcDbXrecord
280
     1
270
     1
271
     1
  0
XRECORD
  5
8AF
102
{ACAD_REACTORS
330
53A
102
}
330
53A
100
AcDbXrecord
280
     1
102
MATERIAL
148
0.0
149
0.0
149
0.0
 93
        0
 94
      127
282
     0
 72
     0
 77
     0
171
     0
175
     0
179
     0
273
     0
  0
XRECORD
  5
53C
102
{ACAD_REACTORS
330
53A
102
}
330
53A
100
AcDbXrecord
280
     1
270
     1
271
     1
  0
XRECORD
  5
53B
102
{ACAD_REACTORS
330
53A
102
}
330
53A
100
AcDbXrecord
280
     1
270
     1
271
     1
  0
XRECORD
  5
53F
102
{ACAD_REACTORS
330
53A
102
}
330
53A
100
AcDbXrecord
280
     1
270
     1
271
     1
  0
XRECORD
  5
53E
102
{ACAD_REACTORS
330
53A
102
}
330
53A
100
AcDbXrecord
280
     1
270
     1
271
     1
  0
XRECORD
  5
540
102
{ACAD_REACTORS
330
53A
102
}
330
53A
100
AcDbXrecord
280
     1
270
     1
271
     1
  0
XRECORD
  5
53D
102
{ACAD_REACTORS
330
53A
102
}
330
53A
100
AcDbXrecord
280
     1
270
     1
271
     1
  0
CELLSTYLEMAP
  5
8A7
102
{ACAD_REACTORS
330
830
102
}
330
830
100
AcDbCellStyleMap
 90
        3
300
CELLSTYLE
  1
TABLEFORMAT_BEGIN
 90
        5
170
     1
 91
        0
 92
    32768
 62
   257
 93
        1
300
CONTENTFORMAT
  1
CONTENTFORMAT_BEGIN
 90
        0
 91
        0
 92
      512
 93
        0
300

 40
0.0
140
1.0
 94
        5
 62
     0
340
17
144
6.0
309
CONTENTFORMAT_END
171
     1
301
MARGIN
  1
CELLMARGIN_BEGIN
 40
1.5
 40
1.5
 40
1.5
 40
1.5
 40
4.5
 40
4.5
309
CELLMARGIN_END
 94
        6
 95
        1
302
GRIDFORMAT
  1
GRIDFORMAT_BEGIN
 90
        0
 91
        1
 62
     0
 92
       -2
340
0
 93
        0
 40
1.125
309
GRIDFORMAT_END
 95
        2
302
GRIDFORMAT
  1
GRIDFORMAT_BEGIN
 90
        0
 91
        1
 62
     0
 92
       -2
340
0
 93
        0
 40
1.125
309
GRIDFORMAT_END
 95
        4
302
GRIDFORMAT
  1
GRIDFORMAT_BEGIN
 90
        0
 91
        1
 62
     0
 92
       -2
340
0
 93
        0
 40
1.125
309
GRIDFORMAT_END
 95
        8
302
GRIDFORMAT
  1
GRIDFORMAT_BEGIN
 90
        0
 91
        1
 62
     0
 92
       -2
340
0
 93
        0
 40
1.125
309
GRIDFORMAT_END
 95
       16
302
GRIDFORMAT
  1
GRIDFORMAT_BEGIN
 90
        0
 91
        1
 62
     0
 92
       -2
340
0
 93
        0
 40
1.125
309
GRIDFORMAT_END
 95
       32
302
GRIDFORMAT
  1
GRIDFORMAT_BEGIN
 90
        0
 91
        1
 62
     0
 92
       -2
340
0
 93
        0
 40
1.125
309
GRIDFORMAT_END
309
TABLEFORMAT_END
  1
CELLSTYLE_BEGIN
 90
        1
 91
        1
300
_TITLE
309
CELLSTYLE_END
300
CELLSTYLE
  1
TABLEFORMAT_BEGIN
 90
        5
170
     1
 91
        0
 92
        0
 62
   257
 93
        1
300
CONTENTFORMAT
  1
CONTENTFORMAT_BEGIN
 90
        0
 91
        0
 92
      512
 93
        0
300

 40
0.0
140
1.0
 94
        5
 62
     0
340
17
144
4.5
309
CONTENTFORMAT_END
171
     1
301
MARGIN
  1
CELLMARGIN_BEGIN
 40
1.5
 40
1.5
 40
1.5
 40
1.5
 40
4.5
 40
4.5
309
CELLMARGIN_END
 94
        6
 95
        1
302
GRIDFORMAT
  1
GRIDFORMAT_BEGIN
 90
        0
 91
        1
 62
     0
 92
       -2
340
0
 93
        0
 40
1.125
309
GRIDFORMAT_END
 95
        2
302
GRIDFORMAT
  1
GRIDFORMAT_BEGIN
 90
        0
 91
        1
 62
     0
 92
       -2
340
0
 93
        0
 40
1.125
309
GRIDFORMAT_END
 95
        4
302
GRIDFORMAT
  1
GRIDFORMAT_BEGIN
 90
        0
 91
        1
 62
     0
 92
       -2
340
0
 93
        0
 40
1.125
309
GRIDFORMAT_END
 95
        8
302
GRIDFORMAT
  1
GRIDFORMAT_BEGIN
 90
        0
 91
        1
 62
     0
 92
       -2
340
0
 93
        0
 40
1.125
309
GRIDFORMAT_END
 95
       16
302
GRIDFORMAT
  1
GRIDFORMAT_BEGIN
 90
        0
 91
        1
 62
     0
 92
       -2
340
0
 93
        0
 40
1.125
309
GRIDFORMAT_END
 95
       32
302
GRIDFORMAT
  1
GRIDFORMAT_BEGIN
 90
        0
 91
        1
 62
     0
 92
       -2
340
0
 93
        0
 40
1.125
309
GRIDFORMAT_END
309
TABLEFORMAT_END
  1
CELLSTYLE_BEGIN
 90
        2
 91
        1
300
_HEADER
309
CELLSTYLE_END
300
CELLSTYLE
  1
TABLEFORMAT_BEGIN
 90
        5
170
     1
 91
        0
 92
        0
 62
   257
 93
        1
300
CONTENTFORMAT
  1
CONTENTFORMAT_BEGIN
 90
        0
 91
        0
 92
      512
 93
        0
300

 40
0.0
140
1.0
 94
        2
 62
     0
340
17
144
4.5
309
CONTENTFORMAT_END
171
     1
301
MARGIN
  1
CELLMARGIN_BEGIN
 40
1.5
 40
1.5
 40
1.5
 40
1.5
 40
4.5
 40
4.5
309
CELLMARGIN_END
 94
        6
 95
        1
302
GRIDFORMAT
  1
GRIDFORMAT_BEGIN
 90
        0
 91
        1
 62
     0
 92
       -2
340
0
 93
        0
 40
1.125
309
GRIDFORMAT_END
 95
        2
302
GRIDFORMAT
  1
GRIDFORMAT_BEGIN
 90
        0
 91
        1
 62
     0
 92
       -2
340
0
 93
        0
 40
1.125
309
GRIDFORMAT_END
 95
        4
302
GRIDFORMAT
  1
GRIDFORMAT_BEGIN
 90
        0
 91
        1
 62
     0
 92
       -2
340
0
 93
        0
 40
1.125
309
GRIDFORMAT_END
 95
        8
302
GRIDFORMAT
  1
GRIDFORMAT_BEGIN
 90
        0
 91
        1
 62
     0
 92
       -2
340
0
 93
        0
 40
1.125
309
GRIDFORMAT_END
 95
       16
302
GRIDFORMAT
  1
GRIDFORMAT_BEGIN
 90
        0
 91
        1
 62
     0
 92
       -2
340
0
 93
        0
 40
1.125
309
GRIDFORMAT_END
 95
       32
302
GRIDFORMAT
  1
GRIDFORMAT_BEGIN
 90
        0
 91
        1
 62
     0
 92
       -2
340
0
 93
        0
 40
1.125
309
GRIDFORMAT_END
309
TABLEFORMAT_END
  1
CELLSTYLE_BEGIN
 90
        3
 91
        2
300
_DATA
309
CELLSTYLE_END
  0
XRECORD
  5
8B0
102
{ACAD_REACTORS
330
830
102
}
330
830
100
AcDbXrecord
280
     1
102
ACAD_ROUNDTRIP_PRE2007_TABLESTYLE
 90
      512
 91
        0
  1

 92
      512
 93
        0
  2

 94
      512
 95
        0
  3

  0
ENDSEC
  0
EOF
