  0
SECTION
  2
HEADER
  9
$ACADVER
  1
AC1015
  9
$ACADMAINTVER
 70
     6
  9
$DWGCODEPAGE
  3
ANSI_1252
  9
$INSBASE
 10
0.0
 20
0.0
 30
0.0
  9
$EXTMIN
 10
-160.782356583
 20
-95.2375465131
 30
0.0
  9
$EXTMAX
 10
525.9185624394048
 20
285.0749738328
 30
0.0
  9
$LIMMIN
 10
0.0
 20
0.0
  9
$LIMMAX
 10
420.0
 20
297.0
  9
$ORTHOMODE
 70
     0
  9
$REGENMODE
 70
     1
  9
$FILLMODE
 70
     1
  9
$QTEXTMODE
 70
     0
  9
$MIRRTEXT
 70
     1
  9
$LTSCALE
 40
1.0
  9
$ATTMODE
 70
     1
  9
$TEXTSIZE
 40
2.8
  9
$TRACEWID
 40
1.0
  9
$TEXTSTYLE
  7
Standard
  9
$CLAYER
  8
0
  9
$CELTYPE
  6
ByLayer
  9
$CECOLOR
 62
   256
  9
$CELTSCALE
 40
1.0
  9
$DISPSILH
 70
     0
  9
$DIMSCALE
 40
1.0
  9
$DIMASZ
 40
3.2
  9
$DIMEXO
 40
0.1
  9
$DIMDLI
 40
3.75
  9
$DIMRND
 40
0.0
  9
$DIMDLE
 40
0.0
  9
$DIMEXE
 40
1.0
  9
$DIMTP
 40
0.0
  9
$DIMTM
 40
0.0
  9
$DIMTXT
 40
3.2
  9
$DIMCEN
 40
2.5
  9
$DIMTSZ
 40
0.0
  9
$DIMTOL
 70
     0
  9
$DIMLIM
 70
     0
  9
$DIMTIH
 70
     1
  9
$DIMTOH
 70
     1
  9
$DIMSE1
 70
     0
  9
$DIMSE2
 70
     0
  9
$DIMTAD
 70
     1
  9
$DIMZIN
 70
     0
  9
$DIMBLK
  1

  9
$DIMASO
 70
     1
  9
$DIMSHO
 70
     1
  9
$DIMPOST
  1

  9
$DIMAPOST
  1

  9
$DIMALT
 70
     0
  9
$DIMALTD
 70
     3
  9
$DIMALTF
 40
0.0393700787
  9
$DIMLFAC
 40
1.0
  9
$DIMTOFL
 70
     1
  9
$DIMTVP
 40
0.0
  9
$DIMTIX
 70
     0
  9
$DIMSOXD
 70
     0
  9
$DIMSAH
 70
     0
  9
$DIMBLK1
  1

  9
$DIMBLK2
  1

  9
$DIMSTYLE
  2
ISO-25
  9
$DIMCLRD
 70
     0
  9
$DIMCLRE
 70
     0
  9
$DIMCLRT
 70
     0
  9
$DIMTFAC
 40
1.0
  9
$DIMGAP
 40
2.0
  9
$DIMJUST
 70
     0
  9
$DIMSD1
 70
     0
  9
$DIMSD2
 70
     0
  9
$DIMTOLJ
 70
     0
  9
$DIMTZIN
 70
     0
  9
$DIMALTZ
 70
     0
  9
$DIMALTTZ
 70
     0
  9
$DIMUPT
 70
     0
  9
$DIMDEC
 70
     2
  9
$DIMTDEC
 70
     2
  9
$DIMALTU
 70
     2
  9
$DIMALTTD
 70
     3
  9
$DIMTXSTY
  7
Standard
  9
$DIMAUNIT
 70
     0
  9
$DIMADEC
 70
     2
  9
$DIMALTRND
 40
0.0
  9
$DIMAZIN
 70
     0
  9
$DIMDSEP
 70
    44
  9
$DIMATFIT
 70
     3
  9
$DIMFRAC
 70
     0
  9
$DIMLDRBLK
  1

  9
$DIMLUNIT
 70
     2
  9
$DIMLWD
 70
    -2
  9
$DIMLWE
 70
    -2
  9
$DIMTMOVE
 70
     0
  9
$LUNITS
 70
     2
  9
$LUPREC
 70
     2
  9
$SKETCHINC
 40
1.0
  9
$FILLETRAD
 40
10.0
  9
$AUNITS
 70
     0
  9
$AUPREC
 70
     2
  9
$MENU
  1
.
  9
$ELEVATION
 40
0.0
  9
$PELEVATION
 40
0.0
  9
$THICKNESS
 40
0.0
  9
$LIMCHECK
 70
     0
  9
$CHAMFERA
 40
0.0
  9
$CHAMFERB
 40
0.0
  9
$CHAMFERC
 40
0.0
  9
$CHAMFERD
 40
0.0
  9
$SKPOLY
 70
     0
  9
$TDCREATE
 40
2456832.390981771
  9
$TDUCREATE
 40
2456832.307648438
  9
$TDUPDATE
 40
2456832.394274155
  9
$TDUUPDATE
 40
2456832.310940822
  9
$TDINDWG
 40
0.0023290625
  9
$TDUSRTIMER
 40
2456832.309079502
  9
$USRTIMER
 70
     1
  9
$ANGBASE
 50
0.0
  9
$ANGDIR
 70
     0
  9
$PDMODE
 70
     0
  9
$PDSIZE
 40
-1.0
  9
$PLINEWID
 40
0.0
  9
$SPLFRAME
 70
     0
  9
$SPLINETYPE
 70
     6
  9
$SPLINESEGS
 70
     8
  9
$HANDSEED
  5
564
  9
$SURFTAB1
 70
     6
  9
$SURFTAB2
 70
     6
  9
$SURFTYPE
 70
     6
  9
$SURFU
 70
     6
  9
$SURFV
 70
     6
  9
$UCSBASE
  2

  9
$UCSNAME
  2

  9
$UCSORG
 10
0.0
 20
0.0
 30
0.0
  9
$UCSXDIR
 10
1.0
 20
0.0
 30
0.0
  9
$UCSYDIR
 10
0.0
 20
1.0
 30
0.0
  9
$UCSORTHOREF
  2

  9
$UCSORTHOVIEW
 70
     0
  9
$UCSORGTOP
 10
0.0
 20
0.0
 30
0.0
  9
$UCSORGBOTTOM
 10
0.0
 20
0.0
 30
0.0
  9
$UCSORGLEFT
 10
0.0
 20
0.0
 30
0.0
  9
$UCSORGRIGHT
 10
0.0
 20
0.0
 30
0.0
  9
$UCSORGFRONT
 10
0.0
 20
0.0
 30
0.0
  9
$UCSORGBACK
 10
0.0
 20
0.0
 30
0.0
  9
$PUCSBASE
  2

  9
$PUCSNAME
  2

  9
$PUCSORG
 10
0.0
 20
0.0
 30
0.0
  9
$PUCSXDIR
 10
1.0
 20
0.0
 30
0.0
  9
$PUCSYDIR
 10
0.0
 20
1.0
 30
0.0
  9
$PUCSORTHOREF
  2

  9
$PUCSORTHOVIEW
 70
     0
  9
$PUCSORGTOP
 10
0.0
 20
0.0
 30
0.0
  9
$PUCSORGBOTTOM
 10
0.0
 20
0.0
 30
0.0
  9
$PUCSORGLEFT
 10
0.0
 20
0.0
 30
0.0
  9
$PUCSORGRIGHT
 10
0.0
 20
0.0
 30
0.0
  9
$PUCSORGFRONT
 10
0.0
 20
0.0
 30
0.0
  9
$PUCSORGBACK
 10
0.0
 20
0.0
 30
0.0
  9
$USERI1
 70
     0
  9
$USERI2
 70
     0
  9
$USERI3
 70
     0
  9
$USERI4
 70
     0
  9
$USERI5
 70
     0
  9
$USERR1
 40
0.0
  9
$USERR2
 40
0.0
  9
$USERR3
 40
0.0
  9
$USERR4
 40
0.0
  9
$USERR5
 40
0.0
  9
$WORLDVIEW
 70
     1
  9
$SHADEDGE
 70
     3
  9
$SHADEDIF
 70
    70
  9
$TILEMODE
 70
     1
  9
$MAXACTVP
 70
    64
  9
$PINSBASE
 10
0.0
 20
0.0
 30
0.0
  9
$PLIMCHECK
 70
     0
  9
$PEXTMIN
 10
1.000000000000000E+20
 20
1.000000000000000E+20
 30
1.000000000000000E+20
  9
$PEXTMAX
 10
-1.000000000000000E+20
 20
-1.000000000000000E+20
 30
-1.000000000000000E+20
  9
$PLIMMIN
 10
0.0
 20
0.0
  9
$PLIMMAX
 10
0.0
 20
0.0
  9
$UNITMODE
 70
     0
  9
$VISRETAIN
 70
     1
  9
$PLINEGEN
 70
     0
  9
$PSLTSCALE
 70
     1
  9
$TREEDEPTH
 70
  3020
  9
$CMLSTYLE
  2
Standard
  9
$CMLJUST
 70
     0
  9
$CMLSCALE
 40
20.0
  9
$PROXYGRAPHICS
 70
     1
  9
$MEASUREMENT
 70
     1
  9
$CELWEIGHT
370
    -1
  9
$ENDCAPS
280
     0
  9
$JOINSTYLE
280
     0
  9
$LWDISPLAY
290
     1
  9
$INSUNITS
 70
     4
  9
$HYPERLINKBASE
  1

  9
$STYLESHEET
  1

  9
$XEDIT
290
     1
  9
$CEPSNTYPE
380
     0
  9
$PSTYLEMODE
290
     1
  9
$FINGERPRINTGUID
  2
{2FCF7529-F1A6-4087-85E8-D7DB12EBBA10}
  9
$VERSIONGUID
  2
{FAEB1C32-E019-11D5-929B-00C0DF256EC4}
  9
$EXTNAMES
290
     1
  9
$PSVPSCALE
 40
0.0
  9
$OLESTARTUP
290
     0
  0
ENDSEC
  0
SECTION
  2
CLASSES
  0
CLASS
  1
ACDBDICTIONARYWDFLT
  2
AcDbDictionaryWithDefault
  3
ObjectDBX Classes
 90
        0
280
     0
281
     0
  0
CLASS
  1
VISUALSTYLE
  2
AcDbVisualStyle
  3
ObjectDBX Classes
 90
     4095
280
     0
281
     0
  0
CLASS
  1
MATERIAL
  2
AcDbMaterial
  3
ObjectDBX Classes
 90
     1153
280
     0
281
     0
  0
CLASS
  1
SCALE
  2
AcDbScale
  3
ObjectDBX Classes
 90
     1153
280
     0
281
     0
  0
CLASS
  1
SUN
  2
AcDbSun
  3
SCENEOE
 90
     1153
280
     0
281
     0
  0
CLASS
  1
ACDBPLACEHOLDER
  2
AcDbPlaceHolder
  3
ObjectDBX Classes
 90
        0
280
     0
281
     0
  0
CLASS
  1
LAYOUT
  2
AcDbLayout
  3
ObjectDBX Classes
 90
        0
280
     0
281
     0
  0
CLASS
  1
TABLESTYLE
  2
AcDbTableStyle
  3
ObjectDBX Classes
 90
     4095
280
     0
281
     0
  0
CLASS
  1
RASTERVARIABLES
  2
AcDbRasterVariables
  3
ISM
 90
        0
280
     0
281
     0
  0
CLASS
  1
SORTENTSTABLE
  2
AcDbSortentsTable
  3
ObjectDBX Classes
 90
        0
280
     0
281
     0
  0
CLASS
  1
DICTIONARYVAR
  2
AcDbDictionaryVar
  3
ObjectDBX Classes
 90
        0
280
     0
281
     0
  0
ENDSEC
  0
SECTION
  2
TABLES
  0
TABLE
  2
VPORT
  5
8
330
0
100
AcDbSymbolTable
 70
     1
  0
VPORT
  5
29
330
8
100
AcDbSymbolTableRecord
100
AcDbViewportTableRecord
  2
*Active
 70
     0
 10
0.0
 20
0.0
 11
1.0
 21
1.0
 12
182.5681029282024
 22
92.22483330739985
 13
0.0
 23
0.0
 14
10.0
 24
10.0
 15
10.0
 25
10.0
 16
0.0
 26
0.0
 36
1.0
 17
0.0
 27
0.0
 37
0.0
 40
387.918770752818
 41
2.333333333333333
 42
50.0
 43
0.0
 44
0.0
 50
0.0
 51
0.0
 71
    16
 72
  2000
 73
     1
 74
     3
 75
     0
 76
     0
 77
     0
 78
     0
281
     0
 65
     1
110
0.0
120
0.0
130
0.0
111
1.0
121
0.0
131
0.0
112
0.0
122
1.0
132
0.0
 79
     0
146
0.0
  0
ENDTAB
  0
TABLE
  2
LTYPE
  5
5
330
0
100
AcDbSymbolTable
 70
     6
  0
LTYPE
  5
14
330
5
100
AcDbSymbolTableRecord
100
AcDbLinetypeTableRecord
  2
ByBlock
 70
     0
  3

 72
    65
 73
     0
 40
0.0
  0
LTYPE
  5
15
330
5
100
AcDbSymbolTableRecord
100
AcDbLinetypeTableRecord
  2
ByLayer
 70
     0
  3

 72
    65
 73
     0
 40
0.0
  0
LTYPE
  5
16
330
5
100
AcDbSymbolTableRecord
100
AcDbLinetypeTableRecord
  2
Continuous
 70
     0
  3
Solid line
 72
    65
 73
     0
 40
0.0
  0
LTYPE
  5
6A
330
5
100
AcDbSymbolTableRecord
100
AcDbLinetypeTableRecord
  2
HIDDEN
 70
     0
  3
Hidden __ __ __ __ __ __ __ __ __ __ __ __ __ __
 72
    65
 73
     2
 40
1.905
 49
1.27
 74
     0
 49
-0.635
 74
     0
  0
LTYPE
  5
6B
330
5
100
AcDbSymbolTableRecord
100
AcDbLinetypeTableRecord
  2
PHANTOM
 70
     0
  3
Phantom ______  __  __  ______  __  __  ______
 72
    65
 73
     6
 40
12.7
 49
6.35
 74
     0
 49
-1.27
 74
     0
 49
1.27
 74
     0
 49
-1.27
 74
     0
 49
1.27
 74
     0
 49
-1.27
 74
     0
  0
LTYPE
  5
6C
330
5
100
AcDbSymbolTableRecord
100
AcDbLinetypeTableRecord
  2
CENTER
 70
     0
  3
Center ____ _ ____ _ ____ _ ____ _ ____ _ ____
 72
    65
 73
     4
 40
10.16
 49
6.35
 74
     0
 49
-1.27
 74
     0
 49
1.27
 74
     0
 49
-1.27
 74
     0
  0
LTYPE
  5
6D
330
5
100
AcDbSymbolTableRecord
100
AcDbLinetypeTableRecord
  2
CENTERX2
 70
     0
  3
Center (2x) ________  __  ________  __  _____
 72
    65
 73
     4
 40
20.32
 49
12.7
 74
     0
 49
-2.54
 74
     0
 49
2.54
 74
     0
 49
-2.54
 74
     0
  0
LTYPE
  5
6E
330
5
100
AcDbSymbolTableRecord
100
AcDbLinetypeTableRecord
  2
DOT2
 70
     0
  3
Dot (.5x) ........................................
 72
    65
 73
     2
 40
0.635
 49
0.0
 74
     0
 49
-0.635
 74
     0
  0
ENDTAB
  0
TABLE
  2
LAYER
  5
2
330
0
100
AcDbSymbolTable
 70
     5
  0
LAYER
  5
10
330
2
100
AcDbSymbolTableRecord
100
AcDbLayerTableRecord
  2
0
 70
     0
 62
     7
  6
Continuous
370
    -3
390
F
  0
LAYER
  5
6F
330
2
100
AcDbSymbolTableRecord
100
AcDbLayerTableRecord
  2
1
 70
     0
 62
     3
  6
Continuous
370
    -3
390
F
  0
LAYER
  5
70
330
2
100
AcDbSymbolTableRecord
100
AcDbLayerTableRecord
  2
2
 70
     0
 62
     1
  6
Continuous
370
    -1
390
F
  0
LAYER
  5
71
330
2
100
AcDbSymbolTableRecord
100
AcDbLayerTableRecord
  2
3
 70
     0
 62
     4
  6
Continuous
370
    -3
390
F
  0
LAYER
  5
72
330
2
100
AcDbSymbolTableRecord
100
AcDbLayerTableRecord
  2
4
 70
     0
 62
     4
  6
HIDDEN
370
    -3
390
F
  0
ENDTAB
  0
TABLE
  2
STYLE
  5
3
330
0
100
AcDbSymbolTable
 70
     2
  0
STYLE
  5
11
330
3
100
AcDbSymbolTableRecord
100
AcDbTextStyleTableRecord
  2
Standard
 70
     0
 40
0.0
 41
1.0
 50
0.0
 71
     0
 42
2.8
  3
txt
  4

  0
STYLE
  5
73
330
3
100
AcDbSymbolTableRecord
100
AcDbTextStyleTableRecord
  2
SLDTEXTSTYLE0
 70
     0
 40
0.0
 41
0.75
 50
0.0
 71
     0
 42
2.8
  3
TXT
  4

  0
ENDTAB
  0
TABLE
  2
VIEW
  5
6
330
0
100
AcDbSymbolTable
 70
     0
  0
ENDTAB
  0
TABLE
  2
UCS
  5
7
330
0
100
AcDbSymbolTable
 70
     0
  0
ENDTAB
  0
TABLE
  2
APPID
  5
9
330
0
100
AcDbSymbolTable
 70
     1
  0
APPID
  5
12
330
9
100
AcDbSymbolTableRecord
100
AcDbRegAppTableRecord
  2
ACAD
 70
     0
  0
ENDTAB
  0
TABLE
  2
DIMSTYLE
  5
A
330
0
100
AcDbSymbolTable
 70
     3
100
AcDbDimStyleTable
  0
DIMSTYLE
105
27
330
A
100
AcDbSymbolTableRecord
100
AcDbDimStyleTableRecord
  2
ISO-25
 70
     0
 41
2.5
 42
0.625
 43
3.75
 44
1.25
 73
     0
 74
     0
 77
     1
 78
     8
140
2.5
141
2.5
143
0.0393700787
147
0.625
171
     3
172
     1
178
     0
271
     2
272
     2
274
     3
278
    44
283
     0
284
     8
340
11
  0
DIMSTYLE
105
11D
330
A
100
AcDbSymbolTableRecord
100
AcDbDimStyleTableRecord
  2
SLDDIMSTYLE0
 70
     0
 41
3.2
 44
0.0
 45
0.000000001
146
3.2
147
0.0
173
     1
178
     0
271
     0
272
     0
276
     2
340
11
  0
DIMSTYLE
105
49F
330
A
100
AcDbSymbolTableRecord
100
AcDbDimStyleTableRecord
  2
Standard
 70
     0
 41
1.25
 42
0.0
 44
0.75
 73
     0
 74
     0
 77
     1
140
2.5
146
0.8
147
1.25
176
     7
177
     7
271
     2
178
     7
271
     2
340
11
  0
ENDTAB
  0
TABLE
  2
BLOCK_RECORD
  5
1
330
0
100
AcDbSymbolTable
 70
     6
  0
BLOCK_RECORD
  5
1F
330
1
100
AcDbSymbolTableRecord
100
AcDbBlockTableRecord
  2
*Model_Space
340
22
  0
BLOCK_RECORD
  5
1B
330
1
100
AcDbSymbolTableRecord
100
AcDbBlockTableRecord
  2
*Paper_Space
340
1E
  0
BLOCK_RECORD
  5
23
330
1
100
AcDbSymbolTableRecord
100
AcDbBlockTableRecord
  2
*Paper_Space0
340
26
  0
BLOCK_RECORD
  5
117
330
1
100
AcDbSymbolTableRecord
100
AcDbBlockTableRecord
  2
SW_NOTE_0
340
0
102
{BLKREFS
331
11C
102
}
  0
BLOCK_RECORD
  5
11F
330
1
100
AcDbSymbolTableRecord
100
AcDbBlockTableRecord
  2
SW_NOTE_1
340
0
102
{BLKREFS
331
124
102
}
  0
BLOCK_RECORD
  5
126
330
1
100
AcDbSymbolTableRecord
100
AcDbBlockTableRecord
  2
SW_CENTERMARKSYMBOL_0
340
0
102
{BLKREFS
331
131
102
}
  0
BLOCK_RECORD
  5
49E
102
{ACAD_XDICTIONARY
360
4C0
102
}
330
1
100
AcDbSymbolTableRecord
100
AcDbBlockTableRecord
  2
A$C18726
340
0
102
{BLKREFS
331
4DA
102
}
  0
ENDTAB
  0
ENDSEC
  0
SECTION
  2
BLOCKS
  0
BLOCK
  5
20
330
1F
100
AcDbEntity
  8
0
100
AcDbBlockBegin
  2
*Model_Space
 70
     0
 10
0.0
 20
0.0
 30
0.0
  3
*Model_Space
  1
*Model_Space
  0
ENDBLK
  5
21
330
1F
100
AcDbEntity
  8
0
100
AcDbBlockEnd
  0
BLOCK
  5
1C
330
1B
100
AcDbEntity
 67
     1
  8
0
100
AcDbBlockBegin
  2
*Paper_Space
 70
     0
 10
0.0
 20
0.0
 30
0.0
  3
*Paper_Space
  1
*Paper_Space
  0
ENDBLK
  5
1D
330
1B
100
AcDbEntity
 67
     1
  8
0
100
AcDbBlockEnd
  0
BLOCK
  5
24
330
23
100
AcDbEntity
  8
0
100
AcDbBlockBegin
  2
*Paper_Space0
 70
     0
 10
0.0
 20
0.0
 30
0.0
  3
*Paper_Space0
  1
*Paper_Space0
  0
ENDBLK
  5
25
330
23
100
AcDbEntity
  8
0
100
AcDbBlockEnd
  0
BLOCK
  5
118
330
117
100
AcDbEntity
  8
0
100
AcDbBlockBegin
  2
SW_NOTE_0
 70
     0
 10
0.0
 20
0.0
 30
0.0
  3
SW_NOTE_0
  1
SW_NOTE_0
  0
LINE
  5
11A
330
117
100
AcDbEntity
  8
0
  6
Continuous
 62
     0
370
     0
100
AcDbLine
 10
-15.2319414322
 20
0.0
 30
0.0
 11
0.0
 21
0.0
 31
0.0
  0
MTEXT
  5
11B
330
117
100
AcDbEntity
  8
0
  6
Continuous
 62
     0
370
     0
100
AcDbMText
 10
-15.6618622195
 20
3.7119541605
 30
0.0
 40
2.8
 41
0.0
 71
     1
 72
     1
  1
A100E40
  7
SLDTEXTSTYLE0
 73
     1
 44
1.0
  0
ENDBLK
  5
119
330
117
100
AcDbEntity
  8
0
100
AcDbBlockEnd
  0
BLOCK
  5
120
330
11F
100
AcDbEntity
  8
0
100
AcDbBlockBegin
  2
SW_NOTE_1
 70
     0
 10
0.0
 20
0.0
 30
0.0
  3
SW_NOTE_1
  1
SW_NOTE_1
  0
LINE
  5
122
330
11F
100
AcDbEntity
  8
0
  6
Continuous
 62
     0
370
     0
100
AcDbLine
 10
10.2208344485
 20
0.0
 30
0.0
 11
0.0
 21
0.0
 31
0.0
  0
MTEXT
  5
123
330
11F
100
AcDbEntity
  8
0
  6
Continuous
 62
     0
370
     0
100
AcDbMText
 10
0.3822348272
 20
3.6865599529
 30
0.0
 40
2.8
 41
0.0
 71
     1
 72
     1
  1
10025
  7
SLDTEXTSTYLE0
 73
     1
 44
1.0
  0
ENDBLK
  5
121
330
11F
100
AcDbEntity
  8
0
100
AcDbBlockEnd
  0
BLOCK
  5
127
330
126
100
AcDbEntity
  8
0
100
AcDbBlockBegin
  2
SW_CENTERMARKSYMBOL_0
 70
     0
 10
0.0
 20
0.0
 30
0.0
  3
SW_CENTERMARKSYMBOL_0
  1
SW_CENTERMARKSYMBOL_0
  0
LINE
  5
129
330
126
100
AcDbEntity
  8
0
  6
Continuous
 62
     0
370
     0
100
AcDbLine
 10
0.0
 20
0.0
 30
0.0
 11
0.0
 21
2.5
 31
0.0
  0
LINE
  5
12A
330
126
100
AcDbEntity
  8
0
  6
Continuous
 62
     0
370
     0
100
AcDbLine
 10
0.0
 20
0.0
 30
0.0
 11
-2.5
 21
0.0
 31
0.0
  0
LINE
  5
12B
330
126
100
AcDbEntity
  8
0
  6
Continuous
 62
     0
370
     0
100
AcDbLine
 10
0.0
 20
0.0
 30
0.0
 11
0.0
 21
-2.5
 31
0.0
  0
LINE
  5
12C
330
126
100
AcDbEntity
  8
0
  6
Continuous
 62
     0
370
     0
100
AcDbLine
 10
0.0
 20
0.0
 30
0.0
 11
2.5
 21
0.0
 31
0.0
  0
LINE
  5
12D
330
126
100
AcDbEntity
  8
0
  6
Continuous
 62
     0
370
     0
100
AcDbLine
 10
0.0
 20
5.0
 30
0.0
 11
0.0
 21
7.5
 31
0.0
  0
LINE
  5
12E
330
126
100
AcDbEntity
  8
0
  6
Continuous
 62
     0
370
     0
100
AcDbLine
 10
-5.0
 20
0.0
 30
0.0
 11
-7.5
 21
0.0
 31
0.0
  0
LINE
  5
12F
330
126
100
AcDbEntity
  8
0
  6
Continuous
 62
     0
370
     0
100
AcDbLine
 10
0.0
 20
-5.0
 30
0.0
 11
0.0
 21
-7.5
 31
0.0
  0
LINE
  5
130
330
126
100
AcDbEntity
  8
0
  6
Continuous
 62
     0
370
     0
100
AcDbLine
 10
5.0
 20
0.0
 30
0.0
 11
7.5
 21
0.0
 31
0.0
  0
ENDBLK
  5
128
330
126
100
AcDbEntity
  8
0
100
AcDbBlockEnd
  0
BLOCK
  5
4D8
330
49E
100
AcDbEntity
  8
0
100
AcDbBlockBegin
  2
A$C18726
 70
     0
 10
0.0
 20
0.0
 30
0.0
  3
A$C18726
  1
A$C18726
  0
LINE
  5
4C2
330
49E
100
AcDbEntity
  8
0
  6
ByBlock
 62
     4
100
AcDbLine
 10
75.51162936127305
 20
42.00000003417277
 30
0.0
 11
-56.99877517785331
 21
41.99999943375586
 31
0.0
  0
LINE
  5
4C3
330
49E
100
AcDbEntity
  8
0
  6
ByBlock
 62
     4
100
AcDbLine
 10
122.2487952626396
 20
-0.9999999552974295
 30
0.0
 11
101.0007546435574
 21
-0.9999999552974295
 31
0.0
  0
LINE
  5
4C4
330
49E
100
AcDbEntity
  8
0
  6
Continuous
 62
     4
370
     0
100
AcDbLine
 10
124.7766196342477
 20
39.58834269206173
 30
0.0
 11
133.7961873079864
 21
18.10054911638998
 31
0.0
  0
LINE
  5
4C5
330
49E
100
AcDbEntity
  8
0
  6
Continuous
 62
     4
370
     0
100
AcDbLine
 10
133.7961873079864
 20
18.10054911638998
 30
0.0
 11
128.7558406667794
 21
5.632323214456999
 31
0.0
  0
LINE
  5
4C6
330
49E
100
AcDbEntity
  8
0
  6
Continuous
 62
     4
370
     0
100
AcDbLine
 10
128.7558406667794
 20
5.632323214456999
 30
0.0
 11
122.2487952626396
 21
-0.9999999552974295
 31
0.0
  0
ARC
  5
4C7
330
49E
100
AcDbEntity
  8
0
  6
ByBlock
 62
     4
100
AcDbCircle
 10
87.00075464355731
 20
38.0000000447034
 30
0.0
 40
10.0
100
AcDbArc
 50
90.0
 51
145.1500954734693
  0
LINE
  5
4C8
330
49E
100
AcDbEntity
  8
0
  6
ByBlock
 62
     4
100
AcDbLine
 10
91.31633824060387
 20
47.99498380538458
 30
0.0
 11
86.94980583189042
 21
48.00000004470354
 31
0.0
  0
ARC
  5
4C9
330
49E
100
AcDbEntity
  8
0
  6
ByBlock
 62
     4
100
AcDbCircle
 10
91.00075464355734
 20
38.00000004470351
 30
0.0
 40
10.0
100
AcDbArc
 50
0.0
 51
90.0
  0
LINE
  5
4CA
330
49E
100
AcDbEntity
  8
0
  6
ByBlock
 62
     4
100
AcDbLine
 10
101.0007546435574
 20
-0.9999999552975147
 30
0.0
 11
101.0007546435574
 21
38.0000000447034
 31
0.0
  0
ARC
  5
4CB
330
49E
100
AcDbEntity
  8
0
  6
ByBlock
 62
     4
100
AcDbCircle
 10
75.51162934314868
 20
46.00000003417279
 30
0.0
 40
4.0
100
AcDbArc
 50
270.0000002596125
 51
325.1500954734694
  0
LINE
  5
4CC
330
49E
100
AcDbEntity
  8
0
  6
Continuous
 62
     4
370
     0
100
AcDbLine
 10
94.00397698266835
 20
70.8915481479786
 30
0.0
 11
120.5321171995471
 21
78.8499902130422
 31
0.0
  0
LINE
  5
4CD
330
49E
100
AcDbEntity
  8
0
  6
Continuous
 62
     4
370
     0
100
AcDbLine
 10
120.5321171995471
 20
78.8499902130422
 30
0.0
 11
131.6739360906361
 21
61.60669907207105
 31
0.0
  0
LINE
  5
4CE
330
49E
100
AcDbEntity
  8
0
  6
Continuous
 62
     4
370
     0
100
AcDbLine
 10
131.6739360906361
 20
61.60669907207105
 30
0.0
 11
124.7766196342477
 21
39.58834269206173
 31
0.0
  0
LINE
  5
4CF
330
49E
100
AcDbEntity
  8
0
  6
ByBlock
 62
     4
100
AcDbLine
 10
-56.99877517785353
 20
41.9999994337559
 30
0.0
 11
-56.99877517785353
 21
75.32110703198092
 31
0.0
  0
LINE
  5
4D0
330
49E
100
AcDbEntity
  8
0
  6
ByBlock
 62
     0
100
AcDbLine
 10
-59.99877517785353
 20
-26.51855802953549
 30
0.0
 11
-59.99877517785353
 21
85.60471791576498
 31
0.0
  0
LINE
  5
4D1
330
49E
100
AcDbEntity
  8
0
  6
Continuous
 62
     4
370
     0
100
AcDbLine
 10
-56.99877517785353
 20
75.32110703198092
 30
0.0
 11
-35.98391008003729
 21
66.9123271154468
 31
0.0
  0
LINE
  5
4D2
330
49E
100
AcDbEntity
  8
0
  6
Continuous
 62
     4
370
     0
100
AcDbLine
 10
-35.98391008003729
 20
66.9123271154468
 30
0.0
 11
-16.08780491737824
 21
74.78031597720205
 31
0.0
  0
LINE
  5
4D3
330
49E
100
AcDbEntity
  8
0
  6
Continuous
 62
     4
370
     0
100
AcDbLine
 10
-16.08780491737824
 20
74.78031597720205
 30
0.0
 11
9.379209690825315
 21
71.8622205533454
 31
0.0
  0
LINE
  5
4D4
330
49E
100
AcDbEntity
  8
0
  6
Continuous
 62
     4
370
     0
100
AcDbLine
 10
9.379209690825315
 20
71.8622205533454
 30
0.0
 11
26.88778223396524
 21
77.16784859672113
 31
0.0
  0
LINE
  5
4D5
330
49E
100
AcDbEntity
  8
0
  6
Continuous
 62
     4
370
     0
100
AcDbLine
 10
26.88778223396524
 20
77.16784859672113
 30
0.0
 11
47.31445020096185
 21
73.18862756418932
 31
0.0
  0
LINE
  5
4D6
330
49E
100
AcDbEntity
  8
0
  6
Continuous
 62
     4
370
     0
100
AcDbLine
 10
47.31445020096185
 20
73.18862756418932
 30
0.0
 11
65.08830414627059
 21
80.08594402057778
 31
0.0
  0
LINE
  5
4D7
330
49E
100
AcDbEntity
  8
0
  6
Continuous
 62
     4
370
     0
100
AcDbLine
 10
65.08830414627059
 20
80.08594402057778
 30
0.0
 11
94.00397698266835
 21
70.8915481479786
 31
0.0
  0
ENDBLK
  5
4D9
330
49E
100
AcDbEntity
  8
0
100
AcDbBlockEnd
  0
ENDSEC
  0
SECTION
  2
ENTITIES
  0
MTEXT
  5
74
330
1F
100
AcDbEntity
  8
0
  6
Continuous
 62
     7
370
     0
100
AcDbMText
 10
109.1510755395
 20
163.6463240263
 30
0.0
 40
5.8208333333
 41
0.0
 71
     1
 72
     1
  1
schema di montaggio su 100E25
  7
SLDTEXTSTYLE0
 73
     1
 44
1.0
  0
LINE
  5
75
330
1F
100
AcDbEntity
  8
0
100
AcDbLine
 10
263.2121471585
 20
135.8295372576
 30
0.0
 11
263.2928578366
 21
135.8295372576
 31
0.0
  0
LINE
  5
76
330
1F
100
AcDbEntity
  8
0
100
AcDbLine
 10
263.2928578366
 20
138.6295372576
 30
0.0
 11
263.2121471585
 21
138.6295372576
 31
0.0
  0
LINE
  5
77
330
1F
100
AcDbEntity
  8
0
100
AcDbLine
 10
263.2121471585
 20
108.8295372576
 30
0.0
 11
263.2928578366
 21
108.8295372576
 31
0.0
  0
LINE
  5
78
330
1F
100
AcDbEntity
  8
0
100
AcDbLine
 10
263.2928578366
 20
111.6295372576
 30
0.0
 11
263.2121471585
 21
111.6295372576
 31
0.0
  0
LINE
  5
79
330
1F
100
AcDbEntity
  8
0
100
AcDbLine
 10
193.7932203966
 20
129.0769076615
 30
0.0
 11
193.7932203966
 21
130.9295372576
 31
0.0
  0
LINE
  5
7A
330
1F
100
AcDbEntity
  8
0
100
AcDbLine
 10
183.7932203966
 20
130.9295372576
 30
0.0
 11
183.7932203966
 21
129.0769076615
 31
0.0
  0
LINE
  5
7B
330
1F
100
AcDbEntity
  8
0
100
AcDbLine
 10
185.7932203966
 20
119.9795372576
 30
0.0
 11
185.7932203966
 21
119.8295372576
 31
0.0
  0
LINE
  5
7C
330
1F
100
AcDbEntity
  8
0
100
AcDbLine
 10
191.7932203966
 20
119.8295372576
 30
0.0
 11
191.7932203966
 21
119.9795372576
 31
0.0
  0
LINE
  5
7D
330
1F
100
AcDbEntity
  8
0
100
AcDbLine
 10
124.2932203966
 20
118.3758661488
 30
0.0
 11
124.2932203966
 21
116.5295372576
 31
0.0
  0
LINE
  5
7E
330
1F
100
AcDbEntity
  8
0
100
AcDbLine
 10
134.2932203966
 20
116.5295372576
 30
0.0
 11
134.2932203966
 21
118.3758661488
 31
0.0
  0
LINE
  5
7F
330
1F
100
AcDbEntity
  8
0
100
AcDbLine
 10
132.2932203966
 20
127.4795372576
 30
0.0
 11
132.2932203966
 21
127.6295372576
 31
0.0
  0
LINE
  5
80
330
1F
100
AcDbEntity
  8
0
100
AcDbLine
 10
126.2932203966
 20
127.6295372576
 30
0.0
 11
126.2932203966
 21
127.4795372576
 31
0.0
  0
LINE
  5
81
330
1F
100
AcDbEntity
  8
0
100
AcDbLine
 10
183.2932203966
 20
129.0769076615
 30
0.0
 11
183.2932203966
 21
127.4769076615
 31
0.0
  0
LINE
  5
82
330
1F
100
AcDbEntity
  8
0
100
AcDbLine
 10
194.2932203966
 20
127.4769076615
 30
0.0
 11
194.2932203966
 21
129.0769076615
 31
0.0
  0
LINE
  5
83
330
1F
100
AcDbEntity
  8
0
100
AcDbLine
 10
123.7932203966
 20
119.9758661488
 30
0.0
 11
123.7932203966
 21
118.3758661488
 31
0.0
  0
LINE
  5
84
330
1F
100
AcDbEntity
  8
0
100
AcDbLine
 10
134.7932203966
 20
118.3758661488
 30
0.0
 11
134.7932203966
 21
119.9758661488
 31
0.0
  0
LINE
  5
85
330
1F
100
AcDbEntity
  8
0
100
AcDbLine
 10
97.2928578366
 20
118.7295372576
 30
0.0
 11
102.2928578366
 21
118.7295372576
 31
0.0
  0
LINE
  5
86
330
1F
100
AcDbEntity
  8
0
100
AcDbLine
 10
93.7928578366
 20
143.7295372576
 30
0.0
 11
93.7928578366
 21
103.7295372576
 31
0.0
  0
LINE
  5
87
330
1F
100
AcDbEntity
  8
0
100
AcDbLine
 10
97.2928578366
 20
143.7295372576
 30
0.0
 11
93.7928578366
 21
143.7295372576
 31
0.0
  0
LINE
  5
88
330
1F
100
AcDbEntity
  8
0
100
AcDbLine
 10
97.2928578366
 20
128.7295372576
 30
0.0
 11
97.2928578366
 21
143.7295372576
 31
0.0
  0
LINE
  5
89
330
1F
100
AcDbEntity
  8
0
100
AcDbLine
 10
102.2928578366
 20
128.7295372576
 30
0.0
 11
97.2928578366
 21
128.7295372576
 31
0.0
  0
LINE
  5
8A
330
1F
100
AcDbEntity
  8
0
100
AcDbLine
 10
102.2928578366
 20
118.7295372576
 30
0.0
 11
102.2928578366
 21
128.7295372576
 31
0.0
  0
LINE
  5
8B
330
1F
100
AcDbEntity
  8
0
100
AcDbLine
 10
93.7928578366
 20
103.7295372576
 30
0.0
 11
97.2928578366
 21
103.7295372576
 31
0.0
  0
LINE
  5
8C
330
1F
100
AcDbEntity
  8
0
100
AcDbLine
 10
97.2928578366
 20
103.7295372576
 30
0.0
 11
97.2928578366
 21
118.7295372576
 31
0.0
  0
CIRCLE
  5
8D
330
1F
100
AcDbEntity
  8
0
100
AcDbCircle
 10
153.7932203966
 20
123.7295372576
 30
0.0
 40
4.99999999999997
  0
CIRCLE
  5
8E
330
1F
100
AcDbEntity
  8
0
100
AcDbCircle
 10
153.7932203966
 20
123.7295372576
 30
0.0
 40
5.999999999999974
  0
LINE
  5
8F
330
1F
100
AcDbEntity
  8
0
100
AcDbLine
 10
139.7932203966
 20
131.7295372576
 30
0.0
 11
168.837960105
 21
131.7295372576
 31
0.0
  0
LWPOLYLINE
  5
90
330
1F
100
AcDbEntity
  8
0
100
AcDbPolyline
 90
        3
 70
   128
 43
0.0
 10
179.2730162937
 20
116.5295372576
 10
179.274005677
 20
116.5344469356
 10
179.2932203966
 20
116.7295372576
  0
LINE
  5
91
330
1F
100
AcDbEntity
  8
0
100
AcDbLine
 10
179.2932203966
 20
130.7295372576
 30
0.0
 11
179.2932203966
 21
116.7295372576
 31
0.0
  0
LWPOLYLINE
  5
92
330
1F
100
AcDbEntity
  8
0
100
AcDbPolyline
 90
        3
 70
   128
 43
0.0
 10
179.2932203966
 20
130.7295372576
 10
179.274005677
 20
130.9246275796
 10
179.2730162937
 20
130.9295372576
  0
LINE
  5
93
330
1F
100
AcDbEntity
  8
0
100
AcDbLine
 10
168.837960105
 20
115.7295372576
 30
0.0
 11
139.7932203966
 21
115.7295372576
 31
0.0
  0
LINE
  5
94
330
1F
100
AcDbEntity
  8
0
100
AcDbLine
 10
138.7932203966
 20
116.7295372576
 30
0.0
 11
138.7932203966
 21
130.7295372576
 31
0.0
  0
LINE
  5
95
330
1F
100
AcDbEntity
  8
0
100
AcDbLine
 10
139.7932203966
 20
131.7295372576
 30
0.0
 11
139.7471121576
 21
131.7284737072
 31
0.0
  0
LWPOLYLINE
  5
96
330
1F
100
AcDbEntity
  8
0
100
AcDbPolyline
 90
        3
 70
   128
 43
0.0
 10
138.8134244995
 20
130.9295372576
 10
138.8124351162
 20
130.9246275796
 10
138.7932203966
 20
130.7295372576
  0
LWPOLYLINE
  5
97
330
1F
100
AcDbEntity
  8
0
100
AcDbPolyline
 90
        3
 70
   128
 43
0.0
 10
138.7932203966
 20
116.7295372576
 10
138.8124351162
 20
116.5344469356
 10
138.8134244995
 20
116.5295372576
  0
LINE
  5
98
330
1F
100
AcDbEntity
  8
0
100
AcDbLine
 10
139.7471121576
 20
115.730600808
 30
0.0
 11
139.7932203966
 21
115.7295372576
 31
0.0
  0
LINE
  5
99
330
1F
100
AcDbEntity
  8
0
100
AcDbLine
 10
197.2932203966
 20
119.8295372576
 30
0.0
 11
197.2932203966
 21
116.5295372576
 31
0.0
  0
LINE
  5
9A
330
1F
100
AcDbEntity
  8
0
100
AcDbLine
 10
196.2932203966
 20
119.8295372576
 30
0.0
 11
197.2932203966
 21
119.8295372576
 31
0.0
  0
LINE
  5
9B
330
1F
100
AcDbEntity
  8
0
100
AcDbLine
 10
196.2932203966
 20
119.8295372576
 30
0.0
 11
179.2932203966
 21
119.8295372576
 31
0.0
  0
LINE
  5
9C
330
1F
100
AcDbEntity
  8
0
100
AcDbLine
 10
166.4332861651
 20
112.6295372576
 30
0.0
 11
142.1524295081
 21
112.6295372576
 31
0.0
  0
LINE
  5
9D
330
1F
100
AcDbEntity
  8
0
100
AcDbLine
 10
179.2932203966
 20
130.9295372576
 30
0.0
 11
179.2932203966
 21
130.7295372576
 31
0.0
  0
LINE
  5
9E
330
1F
100
AcDbEntity
  8
0
100
AcDbLine
 10
121.7932203966
 20
127.6295372576
 30
0.0
 11
138.7932203966
 21
127.6295372576
 31
0.0
  0
LINE
  5
9F
330
1F
100
AcDbEntity
  8
0
100
AcDbLine
 10
142.1524295081
 20
134.8295372576
 30
0.0
 11
166.4332861651
 21
134.8295372576
 31
0.0
  0
LINE
  5
A0
330
1F
100
AcDbEntity
  8
0
100
AcDbLine
 10
138.7932203966
 20
116.5295372576
 30
0.0
 11
138.7932203966
 21
116.7295372576
 31
0.0
  0
LINE
  5
A1
330
1F
100
AcDbEntity
  8
0
100
AcDbLine
 10
120.7932203966
 20
127.6295372576
 30
0.0
 11
120.7932203966
 21
130.9295372576
 31
0.0
  0
LINE
  5
A2
330
1F
100
AcDbEntity
  8
0
100
AcDbLine
 10
121.7932203966
 20
127.6295372576
 30
0.0
 11
120.7932203966
 21
127.6295372576
 31
0.0
  0
LINE
  5
A3
330
1F
100
AcDbEntity
  8
0
100
AcDbLine
 10
253.4928578366
 20
129.9795372576
 30
0.0
 11
252.4928578366
 21
129.9795372576
 31
0.0
  0
LINE
  5
A4
330
1F
100
AcDbEntity
  8
0
100
AcDbLine
 10
252.4928578366
 20
129.9795372576
 30
0.0
 11
252.4928578366
 21
130.9295372576
 31
0.0
  0
LINE
  5
A5
330
1F
100
AcDbEntity
  8
0
100
AcDbLine
 10
253.4928578366
 20
129.9795372576
 30
0.0
 11
260.9928578366
 21
129.9795372576
 31
0.0
  0
LINE
  5
A6
330
1F
100
AcDbEntity
  8
0
100
AcDbLine
 10
261.9928578366
 20
130.9295372576
 30
0.0
 11
261.9928578366
 21
129.9795372576
 31
0.0
  0
LINE
  5
A7
330
1F
100
AcDbEntity
  8
0
100
AcDbLine
 10
261.9928578366
 20
129.9795372576
 30
0.0
 11
260.9928578366
 21
129.9795372576
 31
0.0
  0
LINE
  5
A8
330
1F
100
AcDbEntity
  8
0
100
AcDbLine
 10
252.4928578366
 20
129.9795372576
 30
0.0
 11
252.2928578366
 21
129.9795372576
 31
0.0
  0
LINE
  5
A9
330
1F
100
AcDbEntity
  8
0
100
AcDbLine
 10
98.9928578366
 20
129.9795372576
 30
0.0
 11
98.9928578366
 21
130.9295372576
 31
0.0
  0
LINE
  5
AA
330
1F
100
AcDbEntity
  8
0
100
AcDbLine
 10
99.9928578366
 20
129.9795372576
 30
0.0
 11
98.9928578366
 21
129.9795372576
 31
0.0
  0
LINE
  5
AB
330
1F
100
AcDbEntity
  8
0
100
AcDbLine
 10
99.9928578366
 20
129.9795372576
 30
0.0
 11
102.2928578366
 21
129.9795372576
 31
0.0
  0
LINE
  5
AC
330
1F
100
AcDbEntity
  8
0
100
AcDbLine
 10
261.9928578366
 20
117.4795372576
 30
0.0
 11
261.9928578366
 21
116.5295372576
 31
0.0
  0
LINE
  5
AD
330
1F
100
AcDbEntity
  8
0
100
AcDbLine
 10
252.4928578366
 20
116.5295372576
 30
0.0
 11
252.4928578366
 21
117.4795372576
 31
0.0
  0
LINE
  5
AE
330
1F
100
AcDbEntity
  8
0
100
AcDbLine
 10
252.4928578366
 20
117.4795372576
 30
0.0
 11
252.5928578366
 21
117.4795372576
 31
0.0
  0
LINE
  5
AF
330
1F
100
AcDbEntity
  8
0
100
AcDbLine
 10
253.4928578366
 20
117.4795372576
 30
0.0
 11
260.9928578366
 21
117.4795372576
 31
0.0
  0
LINE
  5
B0
330
1F
100
AcDbEntity
  8
0
100
AcDbLine
 10
252.2928578366
 20
117.4795372576
 30
0.0
 11
252.4928578366
 21
117.4795372576
 31
0.0
  0
LINE
  5
B1
330
1F
100
AcDbEntity
  8
0
100
AcDbLine
 10
98.9928578366
 20
116.5295372576
 30
0.0
 11
98.9928578366
 21
117.4795372576
 31
0.0
  0
LINE
  5
B2
330
1F
100
AcDbEntity
  8
0
100
AcDbLine
 10
98.9928578366
 20
117.4795372576
 30
0.0
 11
99.0928578366
 21
117.4795372576
 31
0.0
  0
LINE
  5
B3
330
1F
100
AcDbEntity
  8
0
100
AcDbLine
 10
137.2928578366
 20
119.9758661488
 30
0.0
 11
115.7928578366
 21
119.9758661488
 31
0.0
  0
LINE
  5
B4
330
1F
100
AcDbEntity
  8
0
100
AcDbLine
 10
98.8735685147
 20
140.4795372576
 30
0.0
 11
98.7928578366
 21
140.4795372576
 31
0.0
  0
LINE
  5
B5
330
1F
100
AcDbEntity
  8
0
100
AcDbLine
 10
98.8735685147
 20
116.4795372576
 30
0.0
 11
98.7928578366
 21
116.4795372576
 31
0.0
  0
LINE
  5
B6
330
1F
100
AcDbEntity
  8
0
100
AcDbLine
 10
137.2928578366
 20
127.4795372576
 30
0.0
 11
137.2928578366
 21
119.9758661488
 31
0.0
  0
ARC
  5
B7
330
1F
100
AcDbEntity
  8
0
100
AcDbCircle
 10
115.7928578366
 20
113.9758661488
 30
0.0
 40
6.000000000000009
100
AcDbArc
 50
90.0
 51
154.81060224
  0
ARC
  5
B8
330
1F
100
AcDbEntity
  8
0
100
AcDbCircle
 10
115.7928578366
 20
133.4795372576
 30
0.0
 40
6.000000000000014
100
AcDbArc
 50
205.1506634125
 51
270.0
  0
LINE
  5
B9
330
1F
100
AcDbEntity
  8
0
100
AcDbLine
 10
102.2928578366
 20
130.9295372576
 30
0.0
 11
102.2928578366
 21
116.5295372576
 31
0.0
  0
LINE
  5
BA
330
1F
100
AcDbEntity
  8
0
100
AcDbLine
 10
115.7928578366
 20
127.4795372576
 30
0.0
 11
137.2928578366
 21
127.4795372576
 31
0.0
  0
LINE
  5
BB
330
1F
100
AcDbEntity
  8
0
100
AcDbLine
 10
98.8735685147
 20
133.9795372576
 30
0.0
 11
98.7928578366
 21
133.9795372576
 31
0.0
  0
LINE
  5
BC
330
1F
100
AcDbEntity
  8
0
100
AcDbLine
 10
98.8735685147
 20
106.9795372576
 30
0.0
 11
98.7928578366
 21
106.9795372576
 31
0.0
  0
ARC
  5
BD
330
1F
100
AcDbEntity
  8
0
100
AcDbCircle
 10
201.7928578366
 20
133.4769076615
 30
0.0
 40
6.000000000000014
100
AcDbArc
 50
270.0
 51
334.8770742423
  0
LINE
  5
BE
330
1F
100
AcDbEntity
  8
0
100
AcDbLine
 10
180.2928578366
 20
127.4769076615
 30
0.0
 11
180.2928578366
 21
119.9795372576
 31
0.0
  0
LINE
  5
BF
330
1F
100
AcDbEntity
  8
0
100
AcDbLine
 10
180.2928578366
 20
127.4769076615
 30
0.0
 11
201.7928578366
 21
127.4769076615
 31
0.0
  0
LINE
  5
C0
330
1F
100
AcDbEntity
  8
0
100
AcDbLine
 10
252.2928578366
 20
130.9295372576
 30
0.0
 11
252.2928578366
 21
116.5295372576
 31
0.0
  0
ARC
  5
C1
330
1F
100
AcDbEntity
  8
0
100
AcDbCircle
 10
201.7928578366
 20
113.9795372576
 30
0.0
 40
6.0
100
AcDbArc
 50
25.1506634125
 51
90.0
  0
LINE
  5
C2
330
1F
100
AcDbEntity
  8
0
100
AcDbLine
 10
201.7928578366
 20
119.9795372576
 30
0.0
 11
180.2928578366
 21
119.9795372576
 31
0.0
  0
LINE
  5
C3
330
1F
100
AcDbEntity
  8
0
100
AcDbLine
 10
98.8735685147
 20
131.4795372576
 30
0.0
 11
98.7928578366
 21
131.4795372576
 31
0.0
  0
LINE
  5
C4
330
1F
100
AcDbEntity
  8
0
100
AcDbLine
 10
183.2932203966
 20
129.0769076615
 30
0.0
 11
194.2932203966
 21
129.0769076615
 31
0.0
  0
LINE
  5
C5
330
1F
100
AcDbEntity
  8
0
100
AcDbLine
 10
134.7189207703
 20
118.3758661488
 30
0.0
 11
134.7932203966
 21
118.3758661488
 31
0.0
  0
LINE
  5
C6
330
1F
100
AcDbEntity
  8
0
100
AcDbLine
 10
123.7932203966
 20
118.3758661488
 30
0.0
 11
134.7189207703
 21
118.3758661488
 31
0.0
  0
LINE
  5
C7
330
1F
100
AcDbEntity
  8
0
100
AcDbLine
 10
98.8735685147
 20
140.9295372576
 30
0.0
 11
98.8735685147
 21
130.9295372576
 31
0.0
  0
LINE
  5
C8
330
1F
100
AcDbEntity
  8
0
100
AcDbLine
 10
263.2121471585
 20
130.9295372576
 30
0.0
 11
263.2121471585
 21
140.9295372576
 31
0.0
  0
LINE
  5
C9
330
1F
100
AcDbEntity
  8
0
100
AcDbLine
 10
263.2121471585
 20
130.9295372576
 30
0.0
 11
169.2928578366
 21
130.9295372576
 31
0.0
  0
ARC
  5
CA
330
1F
100
AcDbEntity
  8
0
100
AcDbCircle
 10
154.2928578366
 20
122.9295372576
 30
0.0
 40
16.99999999999999
100
AcDbArc
 50
28.0724869359
 51
151.9275130641
  0
LINE
  5
CB
330
1F
100
AcDbEntity
  8
0
100
AcDbLine
 10
139.2928578366
 20
130.9295372576
 30
0.0
 11
98.8735685147
 21
130.9295372576
 31
0.0
  0
ELLIPSE
  5
CC
330
1F
100
AcDbEntity
  8
0
100
AcDbEllipse
 10
99.2928578366
 20
140.9295372576
 30
0.0
 11
0.0
 21
1.5
 31
0.0
210
0.0
220
0.0
230
1.0
 40
0.2795262146
 41
0.0
 42
1.570796326794897
  0
LINE
  5
CD
330
1F
100
AcDbEntity
  8
0
100
AcDbLine
 10
262.7928578366
 20
142.4295372576
 30
0.0
 11
99.2928578366
 21
142.4295372576
 31
0.0
  0
ELLIPSE
  5
CE
330
1F
100
AcDbEntity
  8
0
100
AcDbEllipse
 10
262.7928578366
 20
140.9295372576
 30
0.0
 11
0.0
 21
1.5
 31
0.0
210
0.0
220
0.0
230
1.0
 40
0.2795262146
 41
4.712388980384693
 42
6.283185307179586
  0
ARC
  5
CF
330
1F
100
AcDbEntity
  8
0
100
AcDbCircle
 10
262.7928578366
 20
140.9295372576
 30
0.0
 40
0.5000000000000033
100
AcDbArc
 50
0.0
 51
34.56898943
  0
ARC
  5
D0
330
1F
100
AcDbEntity
  8
0
100
AcDbCircle
 10
262.7928578366
 20
140.9295372576
 30
0.0
 40
1.5
100
AcDbArc
 50
0.0
 51
90.0
  0
LINE
  5
D1
330
1F
100
AcDbEntity
  8
0
100
AcDbLine
 10
263.2928578366
 20
140.9295372576
 30
0.0
 11
263.2928578366
 21
130.9295372576
 31
0.0
  0
LINE
  5
D2
330
1F
100
AcDbEntity
  8
0
100
AcDbLine
 10
264.2928578366
 20
130.9295372576
 30
0.0
 11
263.2928578366
 21
130.9295372576
 31
0.0
  0
LINE
  5
D3
330
1F
100
AcDbEntity
  8
0
100
AcDbLine
 10
264.2928578366
 20
140.9295372576
 30
0.0
 11
264.2928578366
 21
130.9295372576
 31
0.0
  0
ARC
  5
D4
330
1F
100
AcDbEntity
  8
0
100
AcDbCircle
 10
99.2928578366
 20
140.9295372576
 30
0.0
 40
0.5
100
AcDbArc
 50
145.4310105706
 51
180.0
  0
ARC
  5
D5
330
1F
100
AcDbEntity
  8
0
100
AcDbCircle
 10
99.2928578366
 20
140.9295372576
 30
0.0
 40
1.5
100
AcDbArc
 50
90.0
 51
180.0
  0
LINE
  5
D6
330
1F
100
AcDbEntity
  8
0
100
AcDbLine
 10
97.7928578366
 20
130.9295372576
 30
0.0
 11
98.7928578366
 21
130.9295372576
 31
0.0
  0
LINE
  5
D7
330
1F
100
AcDbEntity
  8
0
100
AcDbLine
 10
97.7928578366
 20
130.9295372576
 30
0.0
 11
97.7928578366
 21
140.9295372576
 31
0.0
  0
LINE
  5
D8
330
1F
100
AcDbEntity
  8
0
100
AcDbLine
 10
98.7928578366
 20
130.9295372576
 30
0.0
 11
98.7928578366
 21
140.9295372576
 31
0.0
  0
ELLIPSE
  5
D9
330
1F
100
AcDbEntity
  8
0
100
AcDbEllipse
 10
262.7928578366
 20
106.5295372576
 30
0.0
 11
0.0
 21
1.5
 31
0.0
210
0.0
220
0.0
230
1.0
 40
0.2795262146
 41
3.141592653589978
 42
4.712388980384693
  0
LINE
  5
DA
330
1F
100
AcDbEntity
  8
0
100
AcDbLine
 10
99.2928578366
 20
105.0295372576
 30
0.0
 11
262.7928578366
 21
105.0295372576
 31
0.0
  0
ELLIPSE
  5
DB
330
1F
100
AcDbEntity
  8
0
100
AcDbEllipse
 10
99.2928578366
 20
106.5295372576
 30
0.0
 11
0.0
 21
1.5
 31
0.0
210
0.0
220
0.0
230
1.0
 40
0.2795262146
 41
1.570796326794897
 42
3.141592653589793
  0
LINE
  5
DC
330
1F
100
AcDbEntity
  8
0
100
AcDbLine
 10
263.2121471585
 20
106.5295372576
 30
0.0
 11
263.2121471585
 21
116.5295372576
 31
0.0
  0
LINE
  5
DD
330
1F
100
AcDbEntity
  8
0
100
AcDbLine
 10
98.8735685147
 20
116.5295372576
 30
0.0
 11
98.8735685147
 21
106.5295372576
 31
0.0
  0
LINE
  5
DE
330
1F
100
AcDbEntity
  8
0
100
AcDbLine
 10
98.8735685147
 20
116.5295372576
 30
0.0
 11
139.2928578366
 21
116.5295372576
 31
0.0
  0
ARC
  5
DF
330
1F
100
AcDbEntity
  8
0
100
AcDbCircle
 10
154.2928578366
 20
124.5295372576
 30
0.0
 40
17.0
100
AcDbArc
 50
208.0724869359
 51
331.9275130641001
  0
LINE
  5
E0
330
1F
100
AcDbEntity
  8
0
100
AcDbLine
 10
169.2928578366
 20
116.5295372576
 30
0.0
 11
263.2121471585
 21
116.5295372576
 31
0.0
  0
ARC
  5
E1
330
1F
100
AcDbEntity
  8
0
100
AcDbCircle
 10
99.2928578366
 20
106.5295372576
 30
0.0
 40
0.5000000000000092
100
AcDbArc
 50
180.0
 51
214.5689894289
  0
ARC
  5
E2
330
1F
100
AcDbEntity
  8
0
100
AcDbCircle
 10
99.2928578366
 20
106.5295372576
 30
0.0
 40
1.5
100
AcDbArc
 50
180.0
 51
270.0
  0
LINE
  5
E3
330
1F
100
AcDbEntity
  8
0
100
AcDbLine
 10
98.7928578366
 20
106.5295372576
 30
0.0
 11
98.7928578366
 21
116.5295372576
 31
0.0
  0
LINE
  5
E4
330
1F
100
AcDbEntity
  8
0
100
AcDbLine
 10
97.7928578366
 20
116.5295372576
 30
0.0
 11
98.7928578366
 21
116.5295372576
 31
0.0
  0
LINE
  5
E5
330
1F
100
AcDbEntity
  8
0
100
AcDbLine
 10
97.7928578366
 20
106.5295372576
 30
0.0
 11
97.7928578366
 21
116.5295372576
 31
0.0
  0
ARC
  5
E6
330
1F
100
AcDbEntity
  8
0
100
AcDbCircle
 10
262.7928578366
 20
106.5295372576
 30
0.0
 40
0.5000000000000466
100
AcDbArc
 50
325.4310105722
 51
0.0
  0
ARC
  5
E7
330
1F
100
AcDbEntity
  8
0
100
AcDbCircle
 10
262.7928578366
 20
106.5295372576
 30
0.0
 40
1.5
100
AcDbArc
 50
270.0
 51
0.0
  0
LINE
  5
E8
330
1F
100
AcDbEntity
  8
0
100
AcDbLine
 10
264.2928578366
 20
116.5295372576
 30
0.0
 11
263.2928578366
 21
116.5295372576
 31
0.0
  0
LINE
  5
E9
330
1F
100
AcDbEntity
  8
0
100
AcDbLine
 10
264.2928578366
 20
116.5295372576
 30
0.0
 11
264.2928578366
 21
106.5295372576
 31
0.0
  0
LINE
  5
EA
330
1F
100
AcDbEntity
  8
0
100
AcDbLine
 10
263.2928578366
 20
116.5295372576
 30
0.0
 11
263.2928578366
 21
106.5295372576
 31
0.0
  0
LINE
  5
EB
330
1F
100
AcDbEntity
  8
0
100
AcDbLine
 10
99.0928578366
 20
118.4795372576
 30
0.0
 11
99.0928578366
 21
117.4795372576
 31
0.0
  0
LINE
  5
EC
330
1F
100
AcDbEntity
  8
0
100
AcDbLine
 10
99.0928578366
 20
118.4795372576
 30
0.0
 11
101.0928578366
 21
118.4795372576
 31
0.0
  0
LINE
  5
ED
330
1F
100
AcDbEntity
  8
0
100
AcDbLine
 10
101.0928578366
 20
118.7295372576
 30
0.0
 11
101.0928578366
 21
118.4795372576
 31
0.0
  0
LINE
  5
EE
330
1F
100
AcDbEntity
  8
0
100
AcDbLine
 10
102.0928578366
 20
118.7295372576
 30
0.0
 11
102.0928578366
 21
117.4795372576
 31
0.0
  0
LINE
  5
EF
330
1F
100
AcDbEntity
  8
0
100
AcDbLine
 10
99.0928578366
 20
117.4795372576
 30
0.0
 11
102.0928578366
 21
117.4795372576
 31
0.0
  0
LINE
  5
F0
330
1F
100
AcDbEntity
  8
0
100
AcDbLine
 10
252.5928578366
 20
127.4795372576
 30
0.0
 11
252.5928578366
 21
117.4795372576
 31
0.0
  0
LINE
  5
F1
330
1F
100
AcDbEntity
  8
0
100
AcDbLine
 10
252.5928578366
 20
127.4795372576
 30
0.0
 11
253.5928578366
 21
127.4795372576
 31
0.0
  0
LINE
  5
F2
330
1F
100
AcDbEntity
  8
0
100
AcDbLine
 10
262.0928578366
 20
118.4795372576
 30
0.0
 11
262.0928578366
 21
117.4795372576
 31
0.0
  0
LINE
  5
F3
330
1F
100
AcDbEntity
  8
0
100
AcDbLine
 10
252.5928578366
 20
117.4795372576
 30
0.0
 11
262.0928578366
 21
117.4795372576
 31
0.0
  0
LINE
  5
F4
330
1F
100
AcDbEntity
  8
0
100
AcDbLine
 10
253.5928578366
 20
127.4795372576
 30
0.0
 11
253.5928578366
 21
118.4795372576
 31
0.0
  0
LINE
  5
F5
330
1F
100
AcDbEntity
  8
0
100
AcDbLine
 10
253.5928578366
 20
118.4795372576
 30
0.0
 11
262.0928578366
 21
118.4795372576
 31
0.0
  0
LINE
  5
F6
330
1F
100
AcDbEntity
  8
0
100
AcDbLine
 10
102.2928578366
 20
117.4795372576
 30
0.0
 11
102.0928578366
 21
117.4795372576
 31
0.0
  0
LINE
  5
F7
330
1F
100
AcDbEntity
  8
0
100
AcDbLine
 10
252.3428578366
 20
127.4795372576
 30
0.0
 11
252.5928578366
 21
127.4795372576
 31
0.0
  0
LINE
  5
F8
330
1F
100
AcDbEntity
  8
0
100
AcDbLine
 10
252.2928578366
 20
127.4795372576
 30
0.0
 11
252.3428578366
 21
127.4795372576
 31
0.0
  0
LINE
  5
F9
330
1F
100
AcDbEntity
  8
0
  6
Continuous
 62
     8
370
     0
100
AcDbLine
 10
178.2932203966
 20
130.7295372576
 30
0.0
 11
178.2932203966
 21
130.9295372576
 31
0.0
  0
LINE
  5
FA
330
1F
100
AcDbEntity
  8
0
  6
Continuous
 62
     8
370
     0
100
AcDbLine
 10
178.2932203966
 20
130.7295372576
 30
0.0
 11
139.7932203966
 21
130.7295372576
 31
0.0
  0
LINE
  5
FB
330
1F
100
AcDbEntity
  8
0
  6
Continuous
 62
     8
370
     0
100
AcDbLine
 10
139.7932203966
 20
131.7295372576
 30
0.0
 11
139.7932203966
 21
130.7295372576
 31
0.0
  0
LINE
  5
FC
330
1F
100
AcDbEntity
  8
0
  6
Continuous
 62
     8
370
     0
100
AcDbLine
 10
178.2932203966
 20
116.7295372576
 30
0.0
 11
179.2932203966
 21
116.7295372576
 31
0.0
  0
LINE
  5
FD
330
1F
100
AcDbEntity
  8
0
  6
Continuous
 62
     8
370
     0
100
AcDbLine
 10
178.2932203966
 20
116.7295372576
 30
0.0
 11
178.2932203966
 21
116.5295372576
 31
0.0
  0
LINE
  5
FE
330
1F
100
AcDbEntity
  8
0
  6
Continuous
 62
     8
370
     0
100
AcDbLine
 10
178.2932203966
 20
116.7295372576
 30
0.0
 11
178.2932203966
 21
130.7295372576
 31
0.0
  0
LINE
  5
FF
330
1F
100
AcDbEntity
  8
0
  6
Continuous
 62
     8
370
     0
100
AcDbLine
 10
178.2932203966
 20
130.7295372576
 30
0.0
 11
179.2932203966
 21
130.7295372576
 31
0.0
  0
LINE
  5
100
330
1F
100
AcDbEntity
  8
0
  6
Continuous
 62
     8
370
     0
100
AcDbLine
 10
139.7932203966
 20
116.7295372576
 30
0.0
 11
178.2932203966
 21
116.7295372576
 31
0.0
  0
LINE
  5
101
330
1F
100
AcDbEntity
  8
0
  6
Continuous
 62
     8
370
     0
100
AcDbLine
 10
139.7932203966
 20
115.7295372576
 30
0.0
 11
139.7932203966
 21
116.7295372576
 31
0.0
  0
LINE
  5
102
330
1F
100
AcDbEntity
  8
0
  6
Continuous
 62
     8
370
     0
100
AcDbLine
 10
139.7932203966
 20
130.7295372576
 30
0.0
 11
139.7932203966
 21
116.7295372576
 31
0.0
  0
LINE
  5
103
330
1F
100
AcDbEntity
  8
0
  6
Continuous
 62
     8
370
     0
100
AcDbLine
 10
138.7932203966
 20
130.7295372576
 30
0.0
 11
139.7932203966
 21
130.7295372576
 31
0.0
  0
LINE
  5
104
330
1F
100
AcDbEntity
  8
0
  6
Continuous
 62
     8
370
     0
100
AcDbLine
 10
138.7932203966
 20
116.7295372576
 30
0.0
 11
139.7932203966
 21
116.7295372576
 31
0.0
  0
LINE
  5
105
330
1F
100
AcDbEntity
  8
0
  6
Continuous
 62
     8
370
     0
100
AcDbLine
 10
196.2932203966
 20
116.5295372576
 30
0.0
 11
196.2932203966
 21
119.8295372576
 31
0.0
  0
LINE
  5
106
330
1F
100
AcDbEntity
  8
0
  6
Continuous
 62
     8
370
     0
100
AcDbLine
 10
141.2471688935
 20
113.6295372576
 30
0.0
 11
167.3385467797
 21
113.6295372576
 31
0.0
  0
LINE
  5
107
330
1F
100
AcDbEntity
  8
0
  6
Continuous
 62
     8
370
     0
100
AcDbLine
 10
139.7932203966
 20
115.7295372576
 30
0.0
 11
139.7932203966
 21
115.6548251998
 31
0.0
  0
LINE
  5
108
330
1F
100
AcDbEntity
  8
0
  6
Continuous
 62
     8
370
     0
100
AcDbLine
 10
121.7932203966
 20
130.9295372576
 30
0.0
 11
121.7932203966
 21
127.6295372576
 31
0.0
  0
LINE
  5
109
330
1F
100
AcDbEntity
  8
0
  6
Continuous
 62
     8
370
     0
100
AcDbLine
 10
167.3385467797
 20
133.8295372576
 30
0.0
 11
141.2471688935
 21
133.8295372576
 31
0.0
  0
LINE
  5
10A
330
1F
100
AcDbEntity
  8
0
  6
Continuous
 62
     8
370
     0
100
AcDbLine
 10
253.4928578366
 20
130.9295372576
 30
0.0
 11
253.4928578366
 21
129.9795372576
 31
0.0
  0
LINE
  5
10B
330
1F
100
AcDbEntity
  8
0
  6
Continuous
 62
     8
370
     0
100
AcDbLine
 10
260.9928578366
 20
129.9795372576
 30
0.0
 11
260.9928578366
 21
130.9295372576
 31
0.0
  0
LINE
  5
10C
330
1F
100
AcDbEntity
  8
0
  6
Continuous
 62
     8
370
     0
100
AcDbLine
 10
99.9928578366
 20
130.9295372576
 30
0.0
 11
99.9928578366
 21
129.9795372576
 31
0.0
  0
LINE
  5
10D
330
1F
100
AcDbEntity
  8
0
  6
Continuous
 62
     8
370
     0
100
AcDbLine
 10
260.9928578366
 20
116.5295372576
 30
0.0
 11
260.9928578366
 21
117.4795372576
 31
0.0
  0
LINE
  5
10E
330
1F
100
AcDbEntity
  8
0
  6
Continuous
 62
     8
370
     0
100
AcDbLine
 10
253.4928578366
 20
117.4795372576
 30
0.0
 11
253.4928578366
 21
116.5295372576
 31
0.0
  0
LINE
  5
10F
330
1F
100
AcDbEntity
  8
0
  6
Continuous
 62
     8
370
     0
100
AcDbLine
 10
99.9928578366
 20
117.4795372576
 30
0.0
 11
99.9928578366
 21
116.5295372576
 31
0.0
  0
LINE
  5
110
330
1F
100
AcDbEntity
  8
0
  6
Continuous
 62
     8
370
     0
100
AcDbLine
 10
98.8735685147
 20
140.9295372576
 30
0.0
 11
263.2121471585
 21
140.9295372576
 31
0.0
  0
LINE
  5
111
330
1F
100
AcDbEntity
  8
0
  6
Continuous
 62
     8
370
     0
100
AcDbLine
 10
264.2928578366
 20
140.9295372576
 30
0.0
 11
263.2928578366
 21
140.9295372576
 31
0.0
  0
LINE
  5
112
330
1F
100
AcDbEntity
  8
0
  6
Continuous
 62
     8
370
     0
100
AcDbLine
 10
97.7928578366
 20
140.9295372576
 30
0.0
 11
98.7928578366
 21
140.9295372576
 31
0.0
  0
LINE
  5
113
330
1F
100
AcDbEntity
  8
0
  6
Continuous
 62
     8
370
     0
100
AcDbLine
 10
263.2121471585
 20
106.5295372576
 30
0.0
 11
98.8735685147
 21
106.5295372576
 31
0.0
  0
LINE
  5
114
330
1F
100
AcDbEntity
  8
0
  6
Continuous
 62
     8
370
     0
100
AcDbLine
 10
97.7928578366
 20
106.5295372576
 30
0.0
 11
98.7928578366
 21
106.5295372576
 31
0.0
  0
LINE
  5
115
330
1F
100
AcDbEntity
  8
0
  6
Continuous
 62
     8
370
     0
100
AcDbLine
 10
264.2928578366
 20
106.5295372576
 30
0.0
 11
263.2928578366
 21
106.5295372576
 31
0.0
  0
LINE
  5
116
330
1F
100
AcDbEntity
  8
0
  6
Continuous
 62
     8
370
     0
100
AcDbLine
 10
252.3428578366
 20
117.4795372576
 30
0.0
 11
252.3428578366
 21
127.4795372576
 31
0.0
  0
INSERT
  5
11C
330
1F
100
AcDbEntity
  8
0
  6
Continuous
 62
     7
370
     0
100
AcDbBlockReference
  2
SW_NOTE_0
 10
74.8172319143
 20
140.0813349174
 30
0.0
  0
LEADER
  5
11E
330
1F
100
AcDbEntity
  8
0
  6
Continuous
 62
     7
370
     0
100
AcDbLeader
  3
SLDDIMSTYLE0
 76
     2
 10
93.7928578366
 20
123.2581479545
 30
0.0
 10
74.8172319143
 20
140.0813349174
 30
0.0
  0
INSERT
  5
124
330
1F
100
AcDbEntity
  8
0
  6
Continuous
 62
     7
370
     0
100
AcDbBlockReference
  2
SW_NOTE_1
 10
251.2923362176
 20
148.8576019137
 30
0.0
  0
LEADER
  5
125
330
1F
100
AcDbEntity
  8
0
  6
Continuous
 62
     7
370
     0
100
AcDbLeader
  3
SLDDIMSTYLE0
 76
     2
 10
244.7659872643
 20
142.1416102879
 30
0.0
 10
251.2923362176
 20
148.8576019137
 30
0.0
  0
INSERT
  5
131
330
1F
100
AcDbEntity
  8
0
  6
Continuous
 62
     7
370
     0
100
AcDbBlockReference
  2
SW_CENTERMARKSYMBOL_0
 10
153.7932203966
 20
123.7295372576
 30
0.0
  0
LINE
  5
132
330
1F
100
AcDbEntity
  8
0
100
AcDbLine
 10
147.7932216335
 20
-2.7706376039
 30
0.0
 11
147.7932216335
 21
-20.0206371718
 31
0.0
  0
LINE
  5
133
330
1F
100
AcDbEntity
  8
0
100
AcDbLine
 10
159.7932198752
 20
-20.0206371718
 30
0.0
 11
159.7932198752
 21
-2.7706376039
 31
0.0
  0
LINE
  5
134
330
1F
100
AcDbEntity
  8
0
100
AcDbLine
 10
147.7932216335
 20
-20.0206371718
 30
0.0
 11
148.7932199348
 21
-21.0206391984
 31
0.0
  0
LINE
  5
135
330
1F
100
AcDbEntity
  8
0
100
AcDbLine
 10
158.7932215739
 20
-21.0206391984
 30
0.0
 11
159.7932198752
 21
-20.0206371718
 31
0.0
  0
LINE
  5
136
330
1F
100
AcDbEntity
  8
0
100
AcDbLine
 10
97.2928578235
 20
-1.2706382894
 30
0.0
 11
93.7928579483
 21
-1.2706382894
 31
0.0
  0
LINE
  5
137
330
1F
100
AcDbEntity
  8
0
100
AcDbLine
 10
97.2928578235
 20
37.7293625153
 30
0.0
 11
93.7928579483
 21
37.7293625153
 31
0.0
  0
LINE
  5
138
330
1F
100
AcDbEntity
  8
0
100
AcDbLine
 10
97.2928578235
 20
-1.2706382894
 30
0.0
 11
97.2928578235
 21
37.7293625153
 31
0.0
  0
LINE
  5
139
330
1F
100
AcDbEntity
  8
0
100
AcDbLine
 10
93.7928579483
 20
-1.2706382894
 30
0.0
 11
93.7928579483
 21
37.7293625153
 31
0.0
  0
LINE
  5
13A
330
1F
100
AcDbEntity
  8
0
100
AcDbLine
 10
97.7928577891
 20
37.7293625153
 30
0.0
 11
97.2928578235
 21
37.7293625153
 31
0.0
  0
LINE
  5
13B
330
1F
100
AcDbEntity
  8
0
100
AcDbLine
 10
97.7928577891
 20
-1.2706382894
 30
0.0
 11
97.2928578235
 21
-1.2706382894
 31
0.0
  0
LINE
  5
13C
330
1F
100
AcDbEntity
  8
0
100
AcDbLine
 10
159.0107897032
 20
-20.0206371718
 30
0.0
 11
159.7932198752
 21
-20.0206371718
 31
0.0
  0
LINE
  5
13D
330
1F
100
AcDbEntity
  8
0
100
AcDbLine
 10
147.7932216335
 20
-20.0206371718
 30
0.0
 11
159.0107897032
 21
-20.0206371718
 31
0.0
  0
LINE
  5
13E
330
1F
100
AcDbEntity
  8
0
100
AcDbLine
 10
158.1411951889
 20
-21.0206391984
 30
0.0
 11
148.7932199348
 21
-21.0206391984
 31
0.0
  0
LINE
  5
13F
330
1F
100
AcDbEntity
  8
0
100
AcDbLine
 10
158.7932215739
 20
-21.0206391984
 30
0.0
 11
158.1411951889
 21
-21.0206391984
 31
0.0
  0
LWPOLYLINE
  5
140
330
1F
100
AcDbEntity
  8
0
100
AcDbPolyline
 90
        9
 70
   128
 43
0.0
 10
263.2928559292
 20
52.1486518211
 10
263.2832446803
 20
52.1405940182
 10
263.2547983635
 20
52.1167335338
 10
263.2085898627
 20
52.0779905147
 10
263.146407317
 20
52.0258439011
 10
263.0706498135
 20
51.9623053498
 10
262.9841932763
 20
51.8898186511
 10
262.8904053677
 20
51.8111628718
 10
262.7928623665
 20
51.7293629474
  0
LINE
  5
141
330
1F
100
AcDbEntity
  8
0
100
AcDbLine
 10
264.2928579558
 20
52.1486518211
 30
0.0
 11
263.2928559292
 21
52.1486518211
 31
0.0
  0
LWPOLYLINE
  5
142
330
1F
100
AcDbEntity
  8
0
100
AcDbPolyline
 90
        9
 70
   128
 43
0.0
 10
264.2928579558
 20
52.1486518211
 10
264.26403911
 20
52.1405940182
 10
264.1786703576
 20
52.1167335338
 10
264.0400597561
 20
52.0779905147
 10
263.8535121192
 20
52.0258439011
 10
263.6262098063
 20
51.9623053498
 10
263.366884898
 20
51.8898186511
 10
263.0854913701
 20
51.8111628718
 10
262.7928623665
 20
51.7293629474
  0
LWPOLYLINE
  5
143
330
1F
100
AcDbEntity
  8
0
100
AcDbPolyline
 90
       10
 70
   128
 43
0.0
 10
99.2928578603
 20
51.7293629474
 10
99.2200490114
 20
51.9898352451
 10
99.1494524319
 20
52.2423913009
 10
99.0832131616
 20
52.479360742
 10
99.0233438611
 20
52.6935425825
 10
98.9716635782
 20
52.87842874
 10
98.9297426391
 20
53.0284014768
 10
98.8988547584
 20
53.1389010376
 10
98.8799384618
 20
53.2065746612
 10
98.8735685137
 20
53.2293622619
  0
LINE
  5
144
330
1F
100
AcDbEntity
  8
0
100
AcDbLine
 10
263.2121512402
 20
53.2293622619
 30
0.0
 11
98.8735685137
 21
53.2293622619
 31
0.0
  0
LWPOLYLINE
  5
145
330
1F
100
AcDbEntity
  8
0
100
AcDbPolyline
 90
       10
 70
   128
 43
0.0
 10
262.7928623665
 20
51.7293629474
 10
262.8656694401
 20
51.9898352451
 10
262.9362562407
 20
52.2423913009
 10
263.0025068034
 20
52.479360742
 10
263.0623647679
 20
52.6935425825
 10
263.1140568961
 20
52.87842874
 10
263.1559738625
 20
53.0284014768
 10
263.1868639697
 20
53.1389010376
 10
263.2057735432
 20
53.2065746612
 10
263.2121512402
 20
53.2293622619
  0
LWPOLYLINE
  5
146
330
1F
100
AcDbEntity
  8
0
100
AcDbPolyline
 90
       10
 70
   128
 43
0.0
 10
264.2928579558
 20
-1.6899271631
 10
264.2700740803
 20
-1.6835569167
 10
264.2023930062
 20
-1.6646398925
 10
264.0919008959
 20
-1.6337535107
 10
263.9419207085
 20
-1.5918309563
 10
263.7570420016
 20
-1.5401518666
 10
263.5428527106
 20
-1.4802827262
 10
263.3058944453
 20
-1.4140433394
 10
263.0533346642
 20
-1.3434472256
 10
262.7928623665
 20
-1.2706382894
  0
LINE
  5
147
330
1F
100
AcDbEntity
  8
0
100
AcDbLine
 10
264.2928579558
 20
-1.6899271631
 30
0.0
 11
264.2928579558
 21
52.1486518211
 31
0.0
  0
LWPOLYLINE
  5
148
330
1F
100
AcDbEntity
  8
0
100
AcDbPolyline
 90
       10
 70
   128
 43
0.0
 10
262.7928623665
 20
51.7293629474
 10
262.8656694401
 20
51.8161882884
 10
262.9362562407
 20
51.9003723986
 10
263.0025068034
 20
51.979363454
 10
263.0623647679
 20
52.0507549173
 10
263.1140568961
 20
52.11238612
 10
263.1559738625
 20
52.1623757905
 10
263.1868639697
 20
52.1992077357
 10
263.2057735432
 20
52.2217680938
 10
263.2121512402
 20
52.2293639607
  0
LINE
  5
149
330
1F
100
AcDbEntity
  8
0
100
AcDbLine
 10
263.2121512402
 20
53.2293622619
 30
0.0
 11
263.2121512402
 21
52.2293639607
 31
0.0
  0
LWPOLYLINE
  5
14A
330
1F
100
AcDbEntity
  8
0
100
AcDbPolyline
 90
        9
 70
   128
 43
0.0
 10
262.7928623665
 20
-1.2706382894
 10
262.8746548403
 20
-1.3681831532
 10
262.9533180703
 20
-1.4619785123
 10
263.0257973183
 20
-1.5484220111
 10
263.0893358696
 20
-1.6241906905
 10
263.1414899338
 20
-1.6863732361
 10
263.1802329529
 20
-1.7325780117
 10
263.204089712
 20
-1.7610299163
 10
263.2121512402
 20
-1.77063744
  0
LINE
  5
14B
330
1F
100
AcDbEntity
  8
0
100
AcDbLine
 10
263.2121512402
 20
-2.7706376039
 30
0.0
 11
263.2121512402
 21
-1.77063744
 31
0.0
  0
LWPOLYLINE
  5
14C
330
1F
100
AcDbEntity
  8
0
100
AcDbPolyline
 90
        9
 70
   128
 43
0.0
 10
262.7928623665
 20
-1.2706382894
 10
262.8746548403
 20
-1.5632728809
 10
262.9533180703
 20
-1.8446626835
 10
263.0257973183
 20
-2.1039931797
 10
263.0893358696
 20
-2.3312973552
 10
263.1414899338
 20
-2.5178412669
 10
263.1802329529
 20
-2.6564574563
 10
263.204089712
 20
-2.7418150329
 10
263.2121512402
 20
-2.7706376039
  0
LWPOLYLINE
  5
14D
330
1F
100
AcDbEntity
  8
0
100
AcDbPolyline
 90
        9
 70
   128
 43
0.0
 10
263.2928559292
 20
-1.6899271631
 10
263.2832446803
 20
-1.6818712228
 10
263.2547983635
 20
-1.6580107384
 10
263.2085898627
 20
-1.619263994
 10
263.146407317
 20
-1.5671192431
 10
263.0706498135
 20
-1.5035825544
 10
262.9841932763
 20
-1.4310921305
 10
262.8904053677
 20
-1.3524363511
 10
262.7928623665
 20
-1.2706382894
  0
LINE
  5
14E
330
1F
100
AcDbEntity
  8
0
100
AcDbLine
 10
264.2928579558
 20
-1.6899271631
 30
0.0
 11
263.2928559292
 21
-1.6899271631
 31
0.0
  0
LWPOLYLINE
  5
14F
330
1F
100
AcDbEntity
  8
0
100
AcDbPolyline
 90
       10
 70
   128
 43
0.0
 10
98.8735685137
 20
-2.7706376039
 10
98.8799384618
 20
-2.7478500032
 10
98.8988547584
 20
-2.6801763796
 10
98.9297426391
 20
-2.5696749561
 10
98.9716635782
 20
-2.419704082
 10
99.0233438611
 20
-2.2348197871
 10
99.0832131616
 20
-2.0206379467
 10
99.1494524319
 20
-1.7836685055
 10
99.2200490114
 20
-1.5311105871
 10
99.2928578603
 20
-1.2706382894
  0
LINE
  5
150
330
1F
100
AcDbEntity
  8
0
100
AcDbLine
 10
98.8735685137
 20
-2.7706376039
 30
0.0
 11
263.2121512402
 21
-2.7706376039
 31
0.0
  0
LWPOLYLINE
  5
151
330
1F
100
AcDbEntity
  8
0
100
AcDbPolyline
 90
       10
 70
   128
 43
0.0
 10
99.2928578603
 20
51.7293629474
 10
99.2200490114
 20
51.8161882884
 10
99.1494524319
 20
51.9003723986
 10
99.0832131616
 20
51.979363454
 10
99.0233438611
 20
52.0507549173
 10
98.9716635782
 20
52.11238612
 10
98.9297426391
 20
52.1623757905
 10
98.8988547584
 20
52.1992077357
 10
98.8799384618
 20
52.2217680938
 10
98.8735685137
 20
52.2293639607
  0
LINE
  5
152
330
1F
100
AcDbEntity
  8
0
100
AcDbLine
 10
98.8735685137
 20
53.2293622619
 30
0.0
 11
98.8735685137
 21
52.2293639607
 31
0.0
  0
LWPOLYLINE
  5
153
330
1F
100
AcDbEntity
  8
0
100
AcDbPolyline
 90
        9
 70
   128
 43
0.0
 10
97.7928577891
 20
52.1486518211
 10
97.8216798945
 20
52.1405940182
 10
97.9070385188
 20
52.1167335338
 10
98.0456534276
 20
52.0779905147
 10
98.2321976885
 20
52.0258439011
 10
98.4595024752
 20
51.9623053498
 10
98.7188326877
 20
51.8898186511
 10
99.0002223521
 20
51.8111628718
 10
99.2928578603
 20
51.7293629474
  0
LWPOLYLINE
  5
154
330
1F
100
AcDbEntity
  8
0
100
AcDbPolyline
 90
        9
 70
   128
 43
0.0
 10
99.2928578603
 20
-1.2706382894
 10
99.0002223521
 20
-1.3524363511
 10
98.7188326877
 20
-1.4310921305
 10
98.4595024752
 20
-1.5035825544
 10
98.2321976885
 20
-1.5671192431
 10
98.0456534276
 20
-1.619263994
 10
97.9070385188
 20
-1.6580107384
 10
97.8216798945
 20
-1.6818712228
 10
97.7928577891
 20
-1.6899271631
  0
LINE
  5
155
330
1F
100
AcDbEntity
  8
0
100
AcDbLine
 10
97.7928577891
 20
52.1486518211
 30
0.0
 11
97.7928577891
 21
-1.6899271631
 31
0.0
  0
LWPOLYLINE
  5
156
330
1F
100
AcDbEntity
  8
0
100
AcDbPolyline
 90
       10
 70
   128
 43
0.0
 10
98.7928578366
 20
52.1486518211
 10
98.80045396
 20
52.1422815747
 10
98.8230115259
 20
52.1233645505
 10
98.8598451336
 20
52.0924781687
 10
98.9098356118
 20
52.0505574769
 10
98.9714640278
 20
51.9988765246
 10
99.0428578485
 20
51.9390073842
 10
99.1218477689
 20
51.8727679974
 10
99.2060337417
 20
51.802170021
 10
99.2928578603
 20
51.7293629474
  0
LINE
  5
157
330
1F
100
AcDbEntity
  8
0
100
AcDbLine
 10
97.7928577891
 20
52.1486518211
 30
0.0
 11
98.7928578366
 21
52.1486518211
 31
0.0
  0
LWPOLYLINE
  5
158
330
1F
100
AcDbEntity
  8
0
100
AcDbPolyline
 90
        9
 70
   128
 43
0.0
 10
98.8735685137
 20
-1.77063744
 10
98.8816250433
 20
-1.7610299163
 10
98.9054850111
 20
-1.7325780117
 10
98.9442315008
 20
-1.6863732361
 10
98.9963755097
 20
-1.6241906905
 10
99.0599131588
 20
-1.5484220111
 10
99.1324027678
 20
-1.4619785123
 10
99.2110585471
 20
-1.3681831532
 10
99.2928578603
 20
-1.2706382894
  0
LINE
  5
159
330
1F
100
AcDbEntity
  8
0
100
AcDbLine
 10
98.8735685137
 20
-2.7706376039
 30
0.0
 11
98.8735685137
 21
-1.77063744
 31
0.0
  0
LWPOLYLINE
  5
15A
330
1F
100
AcDbEntity
  8
0
100
AcDbPolyline
 90
        9
 70
   128
 43
0.0
 10
99.2928578603
 20
-1.2706382894
 10
99.1953126764
 20
-1.3524363511
 10
99.101516124
 20
-1.4310921305
 10
99.0150727271
 20
-1.5035825544
 10
98.9393044406
 20
-1.5671192431
 10
98.87712303
 20
-1.619263994
 10
98.8309180689
 20
-1.6580107384
 10
98.8024651966
 20
-1.6818712228
 10
98.7928578366
 20
-1.6899271631
  0
LINE
  5
15B
330
1F
100
AcDbEntity
  8
0
100
AcDbLine
 10
97.7928577891
 20
-1.6899271631
 30
0.0
 11
98.7928578366
 21
-1.6899271631
 31
0.0
  0
LINE
  5
15C
330
1F
100
AcDbEntity
  8
0
  6
Continuous
 62
     8
370
     0
100
AcDbLine
 10
99.2928578603
 20
51.7293629474
 30
0.0
 11
262.7928623665
 21
51.7293629474
 31
0.0
  0
LINE
  5
15D
330
1F
100
AcDbEntity
  8
0
  6
Continuous
 62
     8
370
     0
100
AcDbLine
 10
262.7928623665
 20
51.7293629474
 30
0.0
 11
262.7928623665
 21
-1.2706382894
 31
0.0
  0
LINE
  5
15E
330
1F
100
AcDbEntity
  8
0
  6
Continuous
 62
     8
370
     0
100
AcDbLine
 10
262.7928623665
 20
-1.2706382894
 30
0.0
 11
99.2928578603
 21
-1.2706382894
 31
0.0
  0
LINE
  5
15F
330
1F
100
AcDbEntity
  8
0
  6
Continuous
 62
     8
370
     0
100
AcDbLine
 10
99.2928578603
 20
-1.2706382894
 30
0.0
 11
99.2928578603
 21
51.7293629474
 31
0.0
  0
LINE
  5
160
330
1F
100
AcDbEntity
  8
0
  6
CENTERX2
 62
     7
370
     0
100
AcDbLine
 10
153.7932203966
 20
-22.0206375592
 30
0.0
 11
153.7932203966
 21
1.9793624408
 31
0.0
  0
LINE
  5
161
330
1F
100
AcDbEntity
  8
0
100
AcDbLine
 10
352.7646015399
 20
117.7295372576
 30
0.0
 11
371.5146015399
 21
117.7295372576
 31
0.0
  0
LINE
  5
162
330
1F
100
AcDbEntity
  8
0
100
AcDbLine
 10
371.5146015399
 20
129.7295372576
 30
0.0
 11
352.7646015399
 21
129.7295372576
 31
0.0
  0
LINE
  5
163
330
1F
100
AcDbEntity
  8
0
100
AcDbLine
 10
371.5146015399
 20
117.7295372576
 30
0.0
 11
372.5146015399
 21
118.7295372576
 31
0.0
  0
LINE
  5
164
330
1F
100
AcDbEntity
  8
0
100
AcDbLine
 10
372.5146015399
 20
128.7295372576
 30
0.0
 11
371.5146015399
 21
129.7295372576
 31
0.0
  0
LINE
  5
165
330
1F
100
AcDbEntity
  8
0
100
AcDbLine
 10
311.2646015399
 20
127.4795372576
 30
0.0
 11
311.2646015399
 21
129.9795372576
 31
0.0
  0
LINE
  5
166
330
1F
100
AcDbEntity
  8
0
100
AcDbLine
 10
308.2646015399
 20
129.9795372576
 30
0.0
 11
308.2646015399
 21
127.4795372576
 31
0.0
  0
LINE
  5
167
330
1F
100
AcDbEntity
  8
0
100
AcDbLine
 10
306.2646015399
 20
127.4795372576
 30
0.0
 11
306.2646015399
 21
118.4795372576
 31
0.0
  0
LINE
  5
168
330
1F
100
AcDbEntity
  8
0
100
AcDbLine
 10
352.7646015399
 20
143.7295372576
 30
0.0
 11
313.7646015399
 21
143.7295372576
 31
0.0
  0
LINE
  5
169
330
1F
100
AcDbEntity
  8
0
100
AcDbLine
 10
352.7646015399
 20
143.7295372576
 30
0.0
 11
352.7646015399
 21
103.7295372576
 31
0.0
  0
CIRCLE
  5
16A
330
1F
100
AcDbEntity
  8
0
100
AcDbCircle
 10
333.2646015399
 20
136.2295372576
 30
0.0
 40
2.649999999999977
  0
CIRCLE
  5
16B
330
1F
100
AcDbEntity
  8
0
100
AcDbCircle
 10
333.2646015399
 20
111.2295372576
 30
0.0
 40
2.650000000000034
  0
LINE
  5
16C
330
1F
100
AcDbEntity
  8
0
100
AcDbLine
 10
352.7646015399
 20
103.7295372576
 30
0.0
 11
313.7646015399
 21
103.7295372576
 31
0.0
  0
LINE
  5
16D
330
1F
100
AcDbEntity
  8
0
100
AcDbLine
 10
313.7646015399
 20
143.7295372576
 30
0.0
 11
313.7646015399
 21
103.7295372576
 31
0.0
  0
LINE
  5
16E
330
1F
100
AcDbEntity
  8
0
100
AcDbLine
 10
371.5146015399
 20
117.7295372576
 30
0.0
 11
371.5146015399
 21
129.7295372576
 31
0.0
  0
LINE
  5
16F
330
1F
100
AcDbEntity
  8
0
100
AcDbLine
 10
372.5146015399
 20
128.7295372576
 30
0.0
 11
372.5146015399
 21
118.7295372576
 31
0.0
  0
LINE
  5
170
330
1F
100
AcDbEntity
  8
0
100
AcDbLine
 10
304.7646015399
 20
129.9795372576
 30
0.0
 11
312.2646015399
 21
129.9795372576
 31
0.0
  0
LINE
  5
171
330
1F
100
AcDbEntity
  8
0
100
AcDbLine
 10
299.7646015399
 20
130.9295372576
 30
0.0
 11
299.7646015399
 21
129.9795372576
 31
0.0
  0
LINE
  5
172
330
1F
100
AcDbEntity
  8
0
100
AcDbLine
 10
299.7646015399
 20
129.9795372576
 30
0.0
 11
304.7646015399
 21
129.9795372576
 31
0.0
  0
LINE
  5
173
330
1F
100
AcDbEntity
  8
0
100
AcDbLine
 10
313.2646015399
 20
130.9295372576
 30
0.0
 11
313.2646015399
 21
129.9795372576
 31
0.0
  0
LINE
  5
174
330
1F
100
AcDbEntity
  8
0
100
AcDbLine
 10
313.2646015399
 20
129.9795372576
 30
0.0
 11
312.2646015399
 21
129.9795372576
 31
0.0
  0
LINE
  5
175
330
1F
100
AcDbEntity
  8
0
100
AcDbLine
 10
304.7646015399
 20
117.4795372576
 30
0.0
 11
312.2646015399
 21
117.4795372576
 31
0.0
  0
LINE
  5
176
330
1F
100
AcDbEntity
  8
0
100
AcDbLine
 10
299.7646015399
 20
117.4795372576
 30
0.0
 11
299.7646015399
 21
116.5295372576
 31
0.0
  0
LINE
  5
177
330
1F
100
AcDbEntity
  8
0
100
AcDbLine
 10
303.7696141028
 20
117.4795372576
 30
0.0
 11
304.7646015399
 21
117.4795372576
 31
0.0
  0
LINE
  5
178
330
1F
100
AcDbEntity
  8
0
100
AcDbLine
 10
313.2646015399
 20
117.4795372576
 30
0.0
 11
313.2646015399
 21
116.5295372576
 31
0.0
  0
LINE
  5
179
330
1F
100
AcDbEntity
  8
0
100
AcDbLine
 10
312.2646015399
 20
117.4795372576
 30
0.0
 11
312.7004914342
 21
117.4795372576
 31
0.0
  0
CIRCLE
  5
17A
330
1F
100
AcDbEntity
  8
0
100
AcDbCircle
 10
306.7646015399
 20
110.2295372576
 30
0.0
 40
1.650000000000006
  0
CIRCLE
  5
17B
330
1F
100
AcDbEntity
  8
0
100
AcDbCircle
 10
306.7646015399
 20
137.2295372576
 30
0.0
 40
1.650000000000006
  0
LINE
  5
17C
330
1F
100
AcDbEntity
  8
0
100
AcDbLine
 10
313.2646015399
 20
127.4795372576
 30
0.0
 11
313.2646015399
 21
129.9795372576
 31
0.0
  0
LINE
  5
17D
330
1F
100
AcDbEntity
  8
0
100
AcDbLine
 10
313.7646015399
 20
142.4295372576
 30
0.0
 11
299.7646015399
 21
142.4295372576
 31
0.0
  0
ELLIPSE
  5
17E
330
1F
100
AcDbEntity
  8
0
100
AcDbEllipse
 10
352.7646015399
 20
140.9295372576
 30
0.0
 11
0.0
 21
1.5
 31
0.0
210
0.0
220
0.0
230
1.0
 40
0.2795262146
 41
4.712388980384693
 42
6.283185307179586
  0
ELLIPSE
  5
17F
330
1F
100
AcDbEntity
  8
0
100
AcDbEllipse
 10
299.7646015399
 20
140.9295372576
 30
0.0
 11
0.0
 21
1.5
 31
0.0
210
0.0
220
0.0
230
1.0
 40
0.2795262146
 41
0.0
 42
1.570796326794897
  0
LINE
  5
180
330
1F
100
AcDbEntity
  8
0
100
AcDbLine
 10
353.1838908618
 20
130.9295372576
 30
0.0
 11
353.1838908618
 21
140.9295372576
 31
0.0
  0
CIRCLE
  5
181
330
1F
100
AcDbEntity
  8
0
100
AcDbCircle
 10
306.7646015399
 20
137.2295372576
 30
0.0
 40
1.749999999999972
  0
LINE
  5
182
330
1F
100
AcDbEntity
  8
0
100
AcDbLine
 10
299.345312218
 20
140.9295372576
 30
0.0
 11
299.345312218
 21
130.9295372576
 31
0.0
  0
LINE
  5
183
330
1F
100
AcDbEntity
  8
0
100
AcDbLine
 10
353.1838908618
 20
130.9295372576
 30
0.0
 11
352.7646015399
 21
130.9295372576
 31
0.0
  0
LINE
  5
184
330
1F
100
AcDbEntity
  8
0
100
AcDbLine
 10
313.7646015399
 20
130.9295372576
 30
0.0
 11
299.345312218
 21
130.9295372576
 31
0.0
  0
ARC
  5
185
330
1F
100
AcDbEntity
  8
0
100
AcDbCircle
 10
299.7646015399
 20
140.9295372576
 30
0.0
 40
0.5
100
AcDbArc
 50
145.4310105681
 51
180.0
  0
ARC
  5
186
330
1F
100
AcDbEntity
  8
0
100
AcDbCircle
 10
299.7646015399
 20
140.9295372576
 30
0.0
 40
1.5
100
AcDbArc
 50
90.0
 51
180.0
  0
LINE
  5
187
330
1F
100
AcDbEntity
  8
0
100
AcDbLine
 10
299.2646015399
 20
130.9295372576
 30
0.0
 11
299.2646015399
 21
140.9295372576
 31
0.0
  0
LINE
  5
188
330
1F
100
AcDbEntity
  8
0
100
AcDbLine
 10
298.2646015399
 20
130.9295372576
 30
0.0
 11
299.2646015399
 21
130.9295372576
 31
0.0
  0
LINE
  5
189
330
1F
100
AcDbEntity
  8
0
100
AcDbLine
 10
298.2646015399
 20
130.9295372576
 30
0.0
 11
298.2646015399
 21
140.9295372576
 31
0.0
  0
ARC
  5
18A
330
1F
100
AcDbEntity
  8
0
100
AcDbCircle
 10
352.7646015399
 20
140.9295372576
 30
0.0
 40
0.5
100
AcDbArc
 50
0.0
 51
34.5689894261
  0
ARC
  5
18B
330
1F
100
AcDbEntity
  8
0
100
AcDbCircle
 10
352.7646015399
 20
140.9295372576
 30
0.0
 40
1.5
100
AcDbArc
 50
0.0
 51
90.0
  0
LINE
  5
18C
330
1F
100
AcDbEntity
  8
0
100
AcDbLine
 10
353.2646015399
 20
140.9295372576
 30
0.0
 11
353.2646015399
 21
130.9295372576
 31
0.0
  0
LINE
  5
18D
330
1F
100
AcDbEntity
  8
0
100
AcDbLine
 10
354.2646015399
 20
140.9295372576
 30
0.0
 11
354.2646015399
 21
130.9295372576
 31
0.0
  0
LINE
  5
18E
330
1F
100
AcDbEntity
  8
0
100
AcDbLine
 10
354.2646015399
 20
130.9295372576
 30
0.0
 11
353.2646015399
 21
130.9295372576
 31
0.0
  0
LINE
  5
18F
330
1F
100
AcDbEntity
  8
0
100
AcDbLine
 10
299.345312218
 20
116.5295372576
 30
0.0
 11
299.345312218
 21
106.5295372576
 31
0.0
  0
LINE
  5
190
330
1F
100
AcDbEntity
  8
0
100
AcDbLine
 10
299.345312218
 20
116.5295372576
 30
0.0
 11
313.7646015399
 21
116.5295372576
 31
0.0
  0
LINE
  5
191
330
1F
100
AcDbEntity
  8
0
100
AcDbLine
 10
352.7646015399
 20
116.5295372576
 30
0.0
 11
353.1838908618
 21
116.5295372576
 31
0.0
  0
LINE
  5
192
330
1F
100
AcDbEntity
  8
0
100
AcDbLine
 10
353.1838908618
 20
106.5295372576
 30
0.0
 11
353.1838908618
 21
116.5295372576
 31
0.0
  0
CIRCLE
  5
193
330
1F
100
AcDbEntity
  8
0
100
AcDbCircle
 10
306.7646015399
 20
110.2295372576
 30
0.0
 40
1.749999999999957
  0
ELLIPSE
  5
194
330
1F
100
AcDbEntity
  8
0
100
AcDbEllipse
 10
352.7646015399
 20
106.5295372576
 30
0.0
 11
0.0
 21
1.5
 31
0.0
210
0.0
220
0.0
230
1.0
 40
0.2795262146
 41
3.141592653589793
 42
4.712388980384693
  0
LINE
  5
195
330
1F
100
AcDbEntity
  8
0
100
AcDbLine
 10
299.7646015399
 20
105.0295372576
 30
0.0
 11
313.7646015399
 21
105.0295372576
 31
0.0
  0
ELLIPSE
  5
196
330
1F
100
AcDbEntity
  8
0
100
AcDbEllipse
 10
299.7646015399
 20
106.5295372576
 30
0.0
 11
0.0
 21
1.5
 31
0.0
210
0.0
220
0.0
230
1.0
 40
0.2795262146
 41
1.570796326794897
 42
3.141592653589793
  0
ARC
  5
197
330
1F
100
AcDbEntity
  8
0
100
AcDbCircle
 10
299.7646015399
 20
106.5295372576
 30
0.0
 40
0.5000000000000602
100
AcDbArc
 50
180.0
 51
214.5689894258
  0
ARC
  5
198
330
1F
100
AcDbEntity
  8
0
100
AcDbCircle
 10
299.7646015399
 20
106.5295372576
 30
0.0
 40
1.500000000000057
100
AcDbArc
 50
180.0
 51
270.0
  0
LINE
  5
199
330
1F
100
AcDbEntity
  8
0
100
AcDbLine
 10
299.2646015399
 20
106.5295372576
 30
0.0
 11
299.2646015399
 21
116.5295372576
 31
0.0
  0
LINE
  5
19A
330
1F
100
AcDbEntity
  8
0
100
AcDbLine
 10
298.2646015399
 20
116.5295372576
 30
0.0
 11
299.2646015399
 21
116.5295372576
 31
0.0
  0
LINE
  5
19B
330
1F
100
AcDbEntity
  8
0
100
AcDbLine
 10
298.2646015399
 20
106.5295372576
 30
0.0
 11
298.2646015399
 21
116.5295372576
 31
0.0
  0
ARC
  5
19C
330
1F
100
AcDbEntity
  8
0
100
AcDbCircle
 10
352.7646015399
 20
106.5295372576
 30
0.0
 40
1.5
100
AcDbArc
 50
270.0
 51
0.0
  0
ARC
  5
19D
330
1F
100
AcDbEntity
  8
0
100
AcDbCircle
 10
352.7646015399
 20
106.5295372576
 30
0.0
 40
0.5000000000000322
100
AcDbArc
 50
325.4310105686
 51
0.0
  0
LINE
  5
19E
330
1F
100
AcDbEntity
  8
0
100
AcDbLine
 10
354.2646015399
 20
116.5295372576
 30
0.0
 11
354.2646015399
 21
106.5295372576
 31
0.0
  0
LINE
  5
19F
330
1F
100
AcDbEntity
  8
0
100
AcDbLine
 10
353.2646015399
 20
116.5295372576
 30
0.0
 11
353.2646015399
 21
106.5295372576
 31
0.0
  0
LINE
  5
1A0
330
1F
100
AcDbEntity
  8
0
100
AcDbLine
 10
354.2646015399
 20
116.5295372576
 30
0.0
 11
353.2646015399
 21
116.5295372576
 31
0.0
  0
LINE
  5
1A1
330
1F
100
AcDbEntity
  8
0
100
AcDbLine
 10
299.7646015399
 20
118.4795372576
 30
0.0
 11
299.7646015399
 21
117.4795372576
 31
0.0
  0
LINE
  5
1A2
330
1F
100
AcDbEntity
  8
0
100
AcDbLine
 10
299.7646015399
 20
117.4795372576
 30
0.0
 11
303.2646015399
 21
117.4795372576
 31
0.0
  0
LINE
  5
1A3
330
1F
100
AcDbEntity
  8
0
100
AcDbLine
 10
299.7646015399
 20
118.4795372576
 30
0.0
 11
303.2646015399
 21
118.4795372576
 31
0.0
  0
LINE
  5
1A4
330
1F
100
AcDbEntity
  8
0
100
AcDbLine
 10
303.2646015399
 20
117.4795372576
 30
0.0
 11
303.7696141028
 21
117.4795372576
 31
0.0
  0
LINE
  5
1A5
330
1F
100
AcDbEntity
  8
0
100
AcDbLine
 10
312.7004914342
 20
117.4795372576
 30
0.0
 11
313.7646015399
 21
117.4795372576
 31
0.0
  0
LINE
  5
1A6
330
1F
100
AcDbEntity
  8
0
100
AcDbLine
 10
303.2646015399
 20
118.4795372576
 30
0.0
 11
313.7646015399
 21
118.4795372576
 31
0.0
  0
LINE
  5
1A7
330
1F
100
AcDbEntity
  8
0
100
AcDbLine
 10
313.5146015399
 20
127.4795372576
 30
0.0
 11
313.7646015399
 21
127.4795372576
 31
0.0
  0
LINE
  5
1A8
330
1F
100
AcDbEntity
  8
0
100
AcDbLine
 10
312.2646015399
 20
118.4795372576
 30
0.0
 11
312.2646015399
 21
127.4795372576
 31
0.0
  0
LINE
  5
1A9
330
1F
100
AcDbEntity
  8
0
100
AcDbLine
 10
312.2646015399
 20
127.4795372576
 30
0.0
 11
313.5146015399
 21
127.4795372576
 31
0.0
  0
LINE
  5
1AA
330
1F
100
AcDbEntity
  8
0
100
AcDbLine
 10
306.2646015399
 20
127.4795372576
 30
0.0
 11
312.2646015399
 21
127.4795372576
 31
0.0
  0
LINE
  5
1AB
330
1F
100
AcDbEntity
  8
0
  6
Continuous
 62
     8
370
     0
100
AcDbLine
 10
304.7646015399
 20
130.9295372576
 30
0.0
 11
304.7646015399
 21
129.9795372576
 31
0.0
  0
LINE
  5
1AC
330
1F
100
AcDbEntity
  8
0
  6
Continuous
 62
     8
370
     0
100
AcDbLine
 10
312.2646015399
 20
129.9795372576
 30
0.0
 11
312.2646015399
 21
130.9295372576
 31
0.0
  0
LINE
  5
1AD
330
1F
100
AcDbEntity
  8
0
  6
Continuous
 62
     8
370
     0
100
AcDbLine
 10
304.7646015399
 20
117.4795372576
 30
0.0
 11
304.7646015399
 21
116.5295372576
 31
0.0
  0
LINE
  5
1AE
330
1F
100
AcDbEntity
  8
0
  6
Continuous
 62
     8
370
     0
100
AcDbLine
 10
312.2646015399
 20
116.5295372576
 30
0.0
 11
312.2646015399
 21
117.4795372576
 31
0.0
  0
LINE
  5
1AF
330
1F
100
AcDbEntity
  8
0
  6
Continuous
 62
     8
370
     0
100
AcDbLine
 10
299.345312218
 20
140.9295372576
 30
0.0
 11
313.7646015399
 21
140.9295372576
 31
0.0
  0
LINE
  5
1B0
330
1F
100
AcDbEntity
  8
0
  6
Continuous
 62
     8
370
     0
100
AcDbLine
 10
352.7646015399
 20
140.9295372576
 30
0.0
 11
353.1838908618
 21
140.9295372576
 31
0.0
  0
LINE
  5
1B1
330
1F
100
AcDbEntity
  8
0
  6
Continuous
 62
     8
370
     0
100
AcDbLine
 10
298.2646015399
 20
140.9295372576
 30
0.0
 11
299.2646015399
 21
140.9295372576
 31
0.0
  0
LINE
  5
1B2
330
1F
100
AcDbEntity
  8
0
  6
Continuous
 62
     8
370
     0
100
AcDbLine
 10
354.2646015399
 20
140.9295372576
 30
0.0
 11
353.2646015399
 21
140.9295372576
 31
0.0
  0
LINE
  5
1B3
330
1F
100
AcDbEntity
  8
0
  6
Continuous
 62
     8
370
     0
100
AcDbLine
 10
353.1838908618
 20
106.5295372576
 30
0.0
 11
352.7646015399
 21
106.5295372576
 31
0.0
  0
LINE
  5
1B4
330
1F
100
AcDbEntity
  8
0
  6
Continuous
 62
     8
370
     0
100
AcDbLine
 10
313.7646015399
 20
106.5295372576
 30
0.0
 11
299.345312218
 21
106.5295372576
 31
0.0
  0
LINE
  5
1B5
330
1F
100
AcDbEntity
  8
0
  6
Continuous
 62
     8
370
     0
100
AcDbLine
 10
298.2646015399
 20
106.5295372576
 30
0.0
 11
299.2646015399
 21
106.5295372576
 31
0.0
  0
LINE
  5
1B6
330
1F
100
AcDbEntity
  8
0
  6
Continuous
 62
     8
370
     0
100
AcDbLine
 10
354.2646015399
 20
106.5295372576
 30
0.0
 11
353.2646015399
 21
106.5295372576
 31
0.0
  0
LINE
  5
1B7
330
1F
100
AcDbEntity
  8
0
  6
Continuous
 62
     8
370
     0
100
AcDbLine
 10
303.2646015399
 20
118.4795372576
 30
0.0
 11
303.2646015399
 21
117.4795372576
 31
0.0
  0
LINE
  5
1B8
330
1F
100
AcDbEntity
  8
0
  6
Continuous
 62
     8
370
     0
100
AcDbLine
 10
313.5146015399
 20
127.4795372576
 30
0.0
 11
313.5146015399
 21
118.4795372576
 31
0.0
  0
LINE
  5
1B9
330
1F
100
AcDbEntity
  8
0
  6
CENTERX2
 62
     7
370
     0
100
AcDbLine
 10
334.0146015399
 20
123.7295372576
 30
0.0
 11
374.5146015399
 21
123.7295372576
 31
0.0
  0
LINE
  5
1BA
330
1F
100
AcDbEntity
  8
0
100
AcDbLine
 10
131.2017797519
 20
269.0749738328
 30
0.0
 11
131.2017797519
 21
285.0749738328
 31
0.0
  0
ARC
  5
1BB
330
1F
100
AcDbEntity
  8
0
100
AcDbCircle
 10
128.7017797519
 20
269.0749738328
 30
0.0
 40
2.500000000000057
100
AcDbArc
 50
270.0
 51
0.0
  0
ARC
  5
1BC
330
1F
100
AcDbEntity
  8
0
100
AcDbCircle
 10
128.7017797519
 20
269.0749738328
 30
0.0
 40
2.500000000000057
100
AcDbArc
 50
180.0
 51
270.0
  0
LINE
  5
1BD
330
1F
100
AcDbEntity
  8
0
100
AcDbLine
 10
126.2017797519
 20
285.0749738328
 30
0.0
 11
126.2017797519
 21
269.0749738328
 31
0.0
  0
LINE
  5
1BE
330
1F
100
AcDbEntity
  8
0
100
AcDbLine
 10
131.2017797519
 20
285.0749738328
 30
0.0
 11
126.2017797519
 21
285.0749738328
 31
0.0
  0
ARC
  5
1BF
330
1F
100
AcDbEntity
  8
0
100
AcDbCircle
 10
128.7017797519
 20
269.0749738328
 30
0.0
 40
3.000000000000057
100
AcDbArc
 50
270.0
 51
0.0
  0
LINE
  5
1C0
330
1F
100
AcDbEntity
  8
0
100
AcDbLine
 10
125.7017797519
 20
269.0749738328
 30
0.0
 11
125.7017797519
 21
285.0749738328
 31
0.0
  0
LINE
  5
1C1
330
1F
100
AcDbEntity
  8
0
100
AcDbLine
 10
125.7017797519
 20
285.0749738328
 30
0.0
 11
126.2017797519
 21
285.0749738328
 31
0.0
  0
LINE
  5
1C2
330
1F
100
AcDbEntity
  8
0
100
AcDbLine
 10
131.7017797519
 20
285.0749738328
 30
0.0
 11
131.7017797519
 21
269.0749738328
 31
0.0
  0
LINE
  5
1C3
330
1F
100
AcDbEntity
  8
0
100
AcDbLine
 10
131.2017797519
 20
285.0749738328
 30
0.0
 11
131.7017797519
 21
285.0749738328
 31
0.0
  0
ARC
  5
1C4
330
1F
100
AcDbEntity
  8
0
100
AcDbCircle
 10
128.7017797519
 20
269.0749738328
 30
0.0
 40
3.000000000000057
100
AcDbArc
 50
180.0
 51
270.0
  0
LINE
  5
1C5
330
1F
100
AcDbEntity
  8
0
100
AcDbLine
 10
133.7017797519
 20
246.0749738328
 30
0.0
 11
133.7017797519
 21
285.0749738328
 31
0.0
  0
LINE
  5
1C6
330
1F
100
AcDbEntity
  8
0
100
AcDbLine
 10
133.7017797519
 20
246.0749738328
 30
0.0
 11
123.7017797519
 21
246.0749738328
 31
0.0
  0
LINE
  5
1C7
330
1F
100
AcDbEntity
  8
0
100
AcDbLine
 10
123.7017797519
 20
246.0749738328
 30
0.0
 11
123.7017797519
 21
285.0749738328
 31
0.0
  0
LINE
  5
1C8
330
1F
100
AcDbEntity
  8
0
100
AcDbLine
 10
125.7017797519
 20
285.0749738328
 30
0.0
 11
123.7017797519
 21
285.0749738328
 31
0.0
  0
LINE
  5
1C9
330
1F
100
AcDbEntity
  8
0
100
AcDbLine
 10
133.7017797519
 20
285.0749738328
 30
0.0
 11
131.7017797519
 21
285.0749738328
 31
0.0
  0
LINE
  5
1CA
330
1F
100
AcDbEntity
  8
0
100
AcDbLine
 10
108.7017797519
 20
246.0749738328
 30
0.0
 11
108.7017797519
 21
285.0749738328
 31
0.0
  0
CIRCLE
  5
1CB
330
1F
100
AcDbEntity
  8
0
100
AcDbCircle
 10
116.2017797519
 20
265.5749738328
 30
0.0
 40
5.199999999999989
  0
LINE
  5
1CC
330
1F
100
AcDbEntity
  8
0
100
AcDbLine
 10
123.7017797519
 20
246.0749738328
 30
0.0
 11
108.7017797519
 21
246.0749738328
 31
0.0
  0
LINE
  5
1CD
330
1F
100
AcDbEntity
  8
0
100
AcDbLine
 10
123.7017797519
 20
285.0749738328
 30
0.0
 11
108.7017797519
 21
285.0749738328
 31
0.0
  0
LINE
  5
1CE
330
1F
100
AcDbEntity
  8
0
100
AcDbLine
 10
148.7017797519
 20
246.0749738328
 30
0.0
 11
148.7017797519
 21
285.0749738328
 31
0.0
  0
CIRCLE
  5
1CF
330
1F
100
AcDbEntity
  8
0
100
AcDbCircle
 10
141.2017797519
 20
265.5749738328
 30
0.0
 40
5.199999999999932
  0
LINE
  5
1D0
330
1F
100
AcDbEntity
  8
0
100
AcDbLine
 10
148.7017797519
 20
246.0749738328
 30
0.0
 11
133.7017797519
 21
246.0749738328
 31
0.0
  0
LINE
  5
1D1
330
1F
100
AcDbEntity
  8
0
100
AcDbLine
 10
148.7017797519
 20
285.0749738328
 30
0.0
 11
133.7017797519
 21
285.0749738328
 31
0.0
  0
CIRCLE
  5
1D2
330
1F
100
AcDbEntity
  8
0
100
AcDbCircle
 10
116.2017797519
 20
265.5749738328
 30
0.0
 40
2.649999999999977
  0
CIRCLE
  5
1D3
330
1F
100
AcDbEntity
  8
0
100
AcDbCircle
 10
141.2017797519
 20
265.5749738328
 30
0.0
 40
2.649999999999977
  0
LINE
  5
1D4
330
1F
100
AcDbEntity
  8
0
  6
Continuous
 62
     8
370
     0
100
AcDbLine
 10
128.7017797519
 20
266.0749738328
 30
0.0
 11
128.7017797519
 21
266.5749738328
 31
0.0
  0
LINE
  5
1D5
330
1F
100
AcDbEntity
  8
0
  6
Continuous
 62
     8
370
     0
100
AcDbLine
 10
131.7017797519
 20
269.0749738328
 30
0.0
 11
131.2017797519
 21
269.0749738328
 31
0.0
  0
LINE
  5
1D6
330
1F
100
AcDbEntity
  8
0
  6
Continuous
 62
     8
370
     0
100
AcDbLine
 10
125.7017797519
 20
269.0749738328
 30
0.0
 11
126.2017797519
 21
269.0749738328
 31
0.0
  0
LINE
  5
1D7
330
1F
100
AcDbEntity
  8
0
100
AcDbLine
 10
173.0098777439
 20
246.0749738328
 30
0.0
 11
173.0098777439
 21
285.0749738328
 31
0.0
  0
LINE
  5
1D8
330
1F
100
AcDbEntity
  8
0
100
AcDbLine
 10
173.0098777439
 20
246.0749738328
 30
0.0
 11
169.5098777439
 21
246.0749738328
 31
0.0
  0
LINE
  5
1D9
330
1F
100
AcDbEntity
  8
0
100
AcDbLine
 10
169.5098777439
 20
246.0749738328
 30
0.0
 11
169.5098777439
 21
285.0749738328
 31
0.0
  0
LINE
  5
1DA
330
1F
100
AcDbEntity
  8
0
100
AcDbLine
 10
173.0098777439
 20
285.0749738328
 30
0.0
 11
169.5098777439
 21
285.0749738328
 31
0.0
  0
LINE
  5
1DB
330
1F
100
AcDbEntity
  8
0
100
AcDbLine
 10
178.0098777439
 20
246.0749738328
 30
0.0
 11
178.0098777439
 21
285.0749738328
 31
0.0
  0
LINE
  5
1DC
330
1F
100
AcDbEntity
  8
0
100
AcDbLine
 10
178.0098777439
 20
285.0749738328
 30
0.0
 11
173.0098777439
 21
285.0749738328
 31
0.0
  0
LINE
  5
1DD
330
1F
100
AcDbEntity
  8
0
100
AcDbLine
 10
178.0098777439
 20
246.0749738328
 30
0.0
 11
173.0098777439
 21
246.0749738328
 31
0.0
  0
LINE
  5
1DE
330
1F
100
AcDbEntity
  8
0
100
AcDbLine
 10
197.0098777439
 20
266.0749738328
 30
0.0
 11
197.0098777439
 21
269.0749738328
 31
0.0
  0
LINE
  5
1DF
330
1F
100
AcDbEntity
  8
0
100
AcDbLine
 10
197.0098777439
 20
266.0749738328
 30
0.0
 11
178.0098777439
 21
266.0749738328
 31
0.0
  0
LINE
  5
1E0
330
1F
100
AcDbEntity
  8
0
100
AcDbLine
 10
197.0098777439
 20
269.0749738328
 30
0.0
 11
197.0098777439
 21
285.0749738328
 31
0.0
  0
CIRCLE
  5
1E1
330
1F
100
AcDbEntity
  8
0
100
AcDbCircle
 10
185.5098777439
 20
276.0749738328
 30
0.0
 40
3.0
  0
LINE
  5
1E2
330
1F
100
AcDbEntity
  8
0
100
AcDbLine
 10
197.0098777439
 20
285.0749738328
 30
0.0
 11
178.0098777439
 21
285.0749738328
 31
0.0
  0
CIRCLE
  5
1E3
330
1F
100
AcDbEntity
  8
0
100
AcDbCircle
 10
185.5098777439
 20
276.0749738328
 30
0.0
 40
2.5
  0
LINE
  5
1E4
330
1F
100
AcDbEntity
  8
0
100
AcDbLine
 10
197.5098777439
 20
269.0749738328
 30
0.0
 11
197.5098777439
 21
266.5749738328
 31
0.0
  0
LINE
  5
1E5
330
1F
100
AcDbEntity
  8
0
100
AcDbLine
 10
197.0098777439
 20
266.0749738328
 30
0.0
 11
197.5098777439
 21
266.5749738328
 31
0.0
  0
LINE
  5
1E6
330
1F
100
AcDbEntity
  8
0
100
AcDbLine
 10
197.5098777439
 20
285.0749738328
 30
0.0
 11
197.5098777439
 21
269.0749738328
 31
0.0
  0
LINE
  5
1E7
330
1F
100
AcDbEntity
  8
0
100
AcDbLine
 10
197.0098777439
 20
285.0749738328
 30
0.0
 11
197.5098777439
 21
285.0749738328
 31
0.0
  0
LINE
  5
1E8
330
1F
100
AcDbEntity
  8
0
  6
Continuous
 62
     8
370
     0
100
AcDbLine
 10
178.0098777439
 20
269.0749738328
 30
0.0
 11
197.0098777439
 21
269.0749738328
 31
0.0
  0
LINE
  5
1E9
330
1F
100
AcDbEntity
  8
0
  6
Continuous
 62
     8
370
     0
100
AcDbLine
 10
197.0098777439
 20
269.0749738328
 30
0.0
 11
197.5098777439
 21
269.0749738328
 31
0.0
  0
LINE
  5
1EA
330
1F
100
AcDbEntity
  8
0
100
AcDbLine
 10
125.7017797519
 20
222.7148873693
 30
0.0
 11
123.7017797519
 21
222.7148873693
 31
0.0
  0
LINE
  5
1EB
330
1F
100
AcDbEntity
  8
0
100
AcDbLine
 10
123.7017797519
 20
222.7148873693
 30
0.0
 11
123.7017797519
 21
227.7148873693
 31
0.0
  0
LINE
  5
1EC
330
1F
100
AcDbEntity
  8
0
100
AcDbLine
 10
123.7017797519
 20
227.7148873693
 30
0.0
 11
108.7017797519
 21
227.7148873693
 31
0.0
  0
LINE
  5
1ED
330
1F
100
AcDbEntity
  8
0
100
AcDbLine
 10
108.7017797519
 20
227.7148873693
 30
0.0
 11
108.7017797519
 21
231.2148873693
 31
0.0
  0
LINE
  5
1EE
330
1F
100
AcDbEntity
  8
0
100
AcDbLine
 10
108.7017797519
 20
231.2148873693
 30
0.0
 11
148.7017797519
 21
231.2148873693
 31
0.0
  0
LINE
  5
1EF
330
1F
100
AcDbEntity
  8
0
100
AcDbLine
 10
148.7017797519
 20
231.2148873693
 30
0.0
 11
148.7017797519
 21
227.7148873693
 31
0.0
  0
LINE
  5
1F0
330
1F
100
AcDbEntity
  8
0
100
AcDbLine
 10
148.7017797519
 20
227.7148873693
 30
0.0
 11
133.7017797519
 21
227.7148873693
 31
0.0
  0
LINE
  5
1F1
330
1F
100
AcDbEntity
  8
0
100
AcDbLine
 10
133.7017797519
 20
227.7148873693
 30
0.0
 11
133.7017797519
 21
222.7148873693
 31
0.0
  0
LINE
  5
1F2
330
1F
100
AcDbEntity
  8
0
100
AcDbLine
 10
133.7017797519
 20
222.7148873693
 30
0.0
 11
131.7017797519
 21
222.7148873693
 31
0.0
  0
LINE
  5
1F3
330
1F
100
AcDbEntity
  8
0
100
AcDbLine
 10
131.7017797519
 20
222.7148873693
 30
0.0
 11
131.7017797519
 21
203.7148873693
 31
0.0
  0
LINE
  5
1F4
330
1F
100
AcDbEntity
  8
0
100
AcDbLine
 10
131.2017797519
 20
203.2148873693
 30
0.0
 11
131.7017797519
 21
203.7148873693
 31
0.0
  0
LINE
  5
1F5
330
1F
100
AcDbEntity
  8
0
100
AcDbLine
 10
131.2017797519
 20
203.2148873693
 30
0.0
 11
126.2017797519
 21
203.2148873693
 31
0.0
  0
LINE
  5
1F6
330
1F
100
AcDbEntity
  8
0
100
AcDbLine
 10
125.7017797519
 20
203.7148873693
 30
0.0
 11
126.2017797519
 21
203.2148873693
 31
0.0
  0
LINE
  5
1F7
330
1F
100
AcDbEntity
  8
0
100
AcDbLine
 10
125.7017797519
 20
203.7148873693
 30
0.0
 11
125.7017797519
 21
222.7148873693
 31
0.0
  0
LINE
  5
1F8
330
1F
100
AcDbEntity
  8
0
100
AcDbLine
 10
242.6928648461
 20
-78.9875468763
 30
0.0
 11
242.6928648461
 21
-81.4875470533
 31
0.0
  0
LINE
  5
1F9
330
1F
100
AcDbEntity
  8
0
100
AcDbLine
 10
245.6928560246
 20
-81.4875470533
 30
0.0
 11
245.6928560246
 21
-78.9875468763
 31
0.0
  0
LINE
  5
1FA
330
1F
100
AcDbEntity
  8
0
100
AcDbLine
 10
263.2121512402
 20
-63.1375470257
 30
0.0
 11
263.2928559292
 21
-63.1375470257
 31
0.0
  0
LINE
  5
1FB
330
1F
100
AcDbEntity
  8
0
100
AcDbLine
 10
263.2928559292
 20
-60.3375471255
 30
0.0
 11
263.2121512402
 21
-60.3375471255
 31
0.0
  0
LINE
  5
1FC
330
1F
100
AcDbEntity
  8
0
100
AcDbLine
 10
263.2121512402
 20
-90.1375467947
 30
0.0
 11
263.2928559292
 21
-90.1375467947
 31
0.0
  0
LINE
  5
1FD
330
1F
100
AcDbEntity
  8
0
100
AcDbLine
 10
263.2928559292
 20
-87.3375468946
 30
0.0
 11
263.2121512402
 21
-87.3375468946
 31
0.0
  0
LINE
  5
1FE
330
1F
100
AcDbEntity
  8
0
100
AcDbLine
 10
102.2928579446
 20
-80.2375468484
 30
0.0
 11
97.2928578235
 21
-80.2375468484
 31
0.0
  0
LINE
  5
1FF
330
1F
100
AcDbEntity
  8
0
100
AcDbLine
 10
97.2928578235
 20
-80.2375468484
 30
0.0
 11
97.2928578235
 21
-95.2375465131
 31
0.0
  0
LINE
  5
200
330
1F
100
AcDbEntity
  8
0
100
AcDbLine
 10
97.2928578235
 20
-95.2375465131
 30
0.0
 11
93.7928579483
 21
-95.2375465131
 31
0.0
  0
LINE
  5
201
330
1F
100
AcDbEntity
  8
0
100
AcDbLine
 10
93.7928579483
 20
-95.2375465131
 30
0.0
 11
93.7928579483
 21
-55.2375474072
 31
0.0
  0
LINE
  5
202
330
1F
100
AcDbEntity
  8
0
100
AcDbLine
 10
93.7928579483
 20
-55.2375474072
 30
0.0
 11
97.2928578235
 21
-55.2375474072
 31
0.0
  0
LINE
  5
203
330
1F
100
AcDbEntity
  8
0
100
AcDbLine
 10
97.2928578235
 20
-70.2375470719
 30
0.0
 11
101.0928578876
 21
-70.2375470719
 31
0.0
  0
LINE
  5
204
330
1F
100
AcDbEntity
  8
0
100
AcDbLine
 10
97.2928578235
 20
-55.2375474072
 30
0.0
 11
97.2928578235
 21
-70.2375470719
 31
0.0
  0
LINE
  5
205
330
1F
100
AcDbEntity
  8
0
100
AcDbLine
 10
98.9928578315
 20
-82.4375468364
 30
0.0
 11
98.9928578315
 21
-81.4875470533
 31
0.0
  0
LINE
  5
206
330
1F
100
AcDbEntity
  8
0
100
AcDbLine
 10
103.9928578507
 20
-81.4875470533
 30
0.0
 11
98.9928578315
 21
-81.4875470533
 31
0.0
  0
LINE
  5
207
330
1F
100
AcDbEntity
  8
0
100
AcDbLine
 10
261.9928637255
 20
-82.4375468364
 30
0.0
 11
261.9928637255
 21
-81.4875470533
 31
0.0
  0
LINE
  5
208
330
1F
100
AcDbEntity
  8
0
100
AcDbLine
 10
261.9928637255
 20
-81.4875470533
 30
0.0
 11
256.9928535927
 21
-81.4875470533
 31
0.0
  0
LINE
  5
209
330
1F
100
AcDbEntity
  8
0
100
AcDbLine
 10
256.9928535927
 20
-81.4875470533
 30
0.0
 11
103.9928578507
 21
-81.4875470533
 31
0.0
  0
LINE
  5
20A
330
1F
100
AcDbEntity
  8
0
100
AcDbLine
 10
99.0928578508
 20
-68.987546867
 30
0.0
 11
98.9928578315
 21
-68.987546867
 31
0.0
  0
LINE
  5
20B
330
1F
100
AcDbEntity
  8
0
100
AcDbLine
 10
98.9928578315
 20
-68.987546867
 30
0.0
 11
98.9928578315
 21
-68.0375470838
 31
0.0
  0
LINE
  5
20C
330
1F
100
AcDbEntity
  8
0
100
AcDbLine
 10
256.9928535927
 20
-68.987546867
 30
0.0
 11
103.9928578507
 21
-68.987546867
 31
0.0
  0
LINE
  5
20D
330
1F
100
AcDbEntity
  8
0
100
AcDbLine
 10
261.9928637255
 20
-68.987546867
 30
0.0
 11
261.9928637255
 21
-68.0375470838
 31
0.0
  0
LINE
  5
20E
330
1F
100
AcDbEntity
  8
0
100
AcDbLine
 10
98.8735685137
 20
-58.4875465429
 30
0.0
 11
98.7928578366
 21
-58.4875465429
 31
0.0
  0
LINE
  5
20F
330
1F
100
AcDbEntity
  8
0
100
AcDbLine
 10
98.8735685137
 20
-67.9875471687
 30
0.0
 11
98.7928578366
 21
-67.9875471687
 31
0.0
  0
LINE
  5
210
330
1F
100
AcDbEntity
  8
0
100
AcDbLine
 10
98.8735685137
 20
-82.9875468335
 30
0.0
 11
98.7928578366
 21
-82.9875468335
 31
0.0
  0
LINE
  5
211
330
1F
100
AcDbEntity
  8
0
100
AcDbLine
 10
98.8735685137
 20
-91.9875473774
 30
0.0
 11
98.7928578366
 21
-91.9875473774
 31
0.0
  0
LINE
  5
212
330
1F
100
AcDbEntity
  8
0
100
AcDbLine
 10
102.2928579446
 20
-78.9875468763
 30
0.0
 11
102.2928579446
 21
-81.4875470533
 31
0.0
  0
LINE
  5
213
330
1F
100
AcDbEntity
  8
0
100
AcDbLine
 10
252.2928634394
 20
-78.9875468763
 30
0.0
 11
252.2928634394
 21
-81.4875470533
 31
0.0
  0
LINE
  5
214
330
1F
100
AcDbEntity
  8
0
100
AcDbLine
 10
98.8735685137
 20
-82.4375468364
 30
0.0
 11
98.8735685137
 21
-92.4375475443
 31
0.0
  0
LINE
  5
215
330
1F
100
AcDbEntity
  8
0
100
AcDbLine
 10
98.8735685137
 20
-82.4375468364
 30
0.0
 11
263.2121512402
 21
-82.4375468364
 31
0.0
  0
LINE
  5
216
330
1F
100
AcDbEntity
  8
0
100
AcDbLine
 10
263.2121512402
 20
-92.4375475443
 30
0.0
 11
263.2121512402
 21
-82.4375468364
 31
0.0
  0
ELLIPSE
  5
217
330
1F
100
AcDbEntity
  8
0
100
AcDbEllipse
 10
99.2928578366
 20
-92.4375469601
 30
0.0
 11
0.0
 21
1.5
 31
0.0
210
0.0
220
0.0
230
1.0
 40
0.2795262146
 41
1.570796326794897
 42
3.14159265358991
  0
ELLIPSE
  5
218
330
1F
100
AcDbEntity
  8
0
100
AcDbEllipse
 10
262.7928578366
 20
-92.4375469601
 30
0.0
 11
0.0
 21
1.5
 31
0.0
210
0.0
220
0.0
230
1.0
 40
0.2795262146
 41
3.141592653589793
 42
4.712388980384693
  0
LINE
  5
219
330
1F
100
AcDbEntity
  8
0
100
AcDbLine
 10
99.2928578603
 20
-93.9375468588
 30
0.0
 11
262.7928623665
 21
-93.9375468588
 31
0.0
  0
LINE
  5
21A
330
1F
100
AcDbEntity
  8
0
100
AcDbLine
 10
97.7928577891
 20
-92.4375475443
 30
0.0
 11
97.7928577891
 21
-82.4375468364
 31
0.0
  0
LINE
  5
21B
330
1F
100
AcDbEntity
  8
0
100
AcDbLine
 10
98.7928578366
 20
-92.4375475443
 30
0.0
 11
98.7928578366
 21
-82.4375468364
 31
0.0
  0
LINE
  5
21C
330
1F
100
AcDbEntity
  8
0
100
AcDbLine
 10
97.7928577891
 20
-82.4375468364
 30
0.0
 11
98.7928578366
 21
-82.4375468364
 31
0.0
  0
LINE
  5
21D
330
1F
100
AcDbEntity
  8
0
100
AcDbLine
 10
264.2928579558
 20
-82.4375468364
 30
0.0
 11
263.2928559292
 21
-82.4375468364
 31
0.0
  0
LINE
  5
21E
330
1F
100
AcDbEntity
  8
0
100
AcDbLine
 10
264.2928579558
 20
-82.4375468364
 30
0.0
 11
264.2928579558
 21
-92.4375475443
 31
0.0
  0
LINE
  5
21F
330
1F
100
AcDbEntity
  8
0
100
AcDbLine
 10
263.2928559292
 20
-82.4375468364
 30
0.0
 11
263.2928559292
 21
-92.4375475443
 31
0.0
  0
ARC
  5
220
330
1F
100
AcDbEntity
  8
0
100
AcDbCircle
 10
99.2928578366
 20
-92.4375469601
 30
0.0
 40
1.5
100
AcDbArc
 50
180.0
 51
270.0
  0
ARC
  5
221
330
1F
100
AcDbEntity
  8
0
100
AcDbCircle
 10
99.2928578366
 20
-92.4375469601
 30
0.0
 40
0.5000000000000056
100
AcDbArc
 50
180.0
 51
214.5689894287
  0
ARC
  5
222
330
1F
100
AcDbEntity
  8
0
100
AcDbCircle
 10
262.7928578366
 20
-92.4375469601
 30
0.0
 40
0.5000000000000331
100
AcDbArc
 50
325.4310105711
 51
0.0
  0
ARC
  5
223
330
1F
100
AcDbEntity
  8
0
100
AcDbCircle
 10
262.7928578366
 20
-92.4375469601
 30
0.0
 40
1.5
100
AcDbArc
 50
270.0
 51
0.0
  0
LINE
  5
224
330
1F
100
AcDbEntity
  8
0
100
AcDbLine
 10
263.2121512402
 20
-68.0375470838
 30
0.0
 11
263.2121512402
 21
-58.037546376
 31
0.0
  0
LINE
  5
225
330
1F
100
AcDbEntity
  8
0
100
AcDbLine
 10
263.2121512402
 20
-68.0375470838
 30
0.0
 11
98.8735685137
 21
-68.0375470838
 31
0.0
  0
LINE
  5
226
330
1F
100
AcDbEntity
  8
0
100
AcDbLine
 10
98.8735685137
 20
-58.037546376
 30
0.0
 11
98.8735685137
 21
-68.0375470838
 31
0.0
  0
ELLIPSE
  5
227
330
1F
100
AcDbEntity
  8
0
100
AcDbEllipse
 10
262.7928578366
 20
-58.0375469601
 30
0.0
 11
0.0
 21
1.5
 31
0.0
210
0.0
220
0.0
230
1.0
 40
0.2795262146
 41
4.712388980384693
 42
6.283185307179586
  0
ELLIPSE
  5
228
330
1F
100
AcDbEntity
  8
0
100
AcDbEllipse
 10
99.2928578366
 20
-58.0375469601
 30
0.0
 11
0.0
 21
1.5
 31
0.0
210
0.0
220
0.0
230
1.0
 40
0.2795262146
 41
0.0
 42
1.570796326794897
  0
LINE
  5
229
330
1F
100
AcDbEntity
  8
0
100
AcDbLine
 10
262.7928623665
 20
-56.5375470615
 30
0.0
 11
99.2928578603
 21
-56.5375470615
 31
0.0
  0
LINE
  5
22A
330
1F
100
AcDbEntity
  8
0
100
AcDbLine
 10
263.2928559292
 20
-58.037546376
 30
0.0
 11
263.2928559292
 21
-68.0375470838
 31
0.0
  0
LINE
  5
22B
330
1F
100
AcDbEntity
  8
0
100
AcDbLine
 10
264.2928579558
 20
-58.037546376
 30
0.0
 11
264.2928579558
 21
-68.0375470838
 31
0.0
  0
LINE
  5
22C
330
1F
100
AcDbEntity
  8
0
100
AcDbLine
 10
264.2928579558
 20
-68.0375470838
 30
0.0
 11
263.2928559292
 21
-68.0375470838
 31
0.0
  0
ARC
  5
22D
330
1F
100
AcDbEntity
  8
0
100
AcDbCircle
 10
262.7928578366
 20
-58.0375469601
 30
0.0
 40
0.5000000000000139
100
AcDbArc
 50
0.0
 51
34.56898942819999
  0
ARC
  5
22E
330
1F
100
AcDbEntity
  8
0
100
AcDbCircle
 10
262.7928578366
 20
-58.0375469601
 30
0.0
 40
1.5
100
AcDbArc
 50
0.0
 51
90.0
  0
ARC
  5
22F
330
1F
100
AcDbEntity
  8
0
100
AcDbCircle
 10
99.2928578366
 20
-58.0375469601
 30
0.0
 40
1.5
100
AcDbArc
 50
90.0
 51
180.0
  0
ARC
  5
230
330
1F
100
AcDbEntity
  8
0
100
AcDbCircle
 10
99.2928578366
 20
-58.0375469601
 30
0.0
 40
0.5
100
AcDbArc
 50
145.431010571
 51
180.0
  0
LINE
  5
231
330
1F
100
AcDbEntity
  8
0
100
AcDbLine
 10
97.7928577891
 20
-68.0375470838
 30
0.0
 11
98.7928578366
 21
-68.0375470838
 31
0.0
  0
LINE
  5
232
330
1F
100
AcDbEntity
  8
0
100
AcDbLine
 10
97.7928577891
 20
-68.0375470838
 30
0.0
 11
97.7928577891
 21
-58.037546376
 31
0.0
  0
LINE
  5
233
330
1F
100
AcDbEntity
  8
0
100
AcDbLine
 10
98.7928578366
 20
-68.0375470838
 30
0.0
 11
98.7928578366
 21
-58.037546376
 31
0.0
  0
LINE
  5
234
330
1F
100
AcDbEntity
  8
0
100
AcDbLine
 10
258.5928508748
 20
-69.9875470309
 30
0.0
 11
102.5928579007
 21
-69.9875470309
 31
0.0
  0
LINE
  5
235
330
1F
100
AcDbEntity
  8
0
100
AcDbLine
 10
258.5928508748
 20
-68.987546867
 30
0.0
 11
102.5928579007
 21
-68.987546867
 31
0.0
  0
LINE
  5
236
330
1F
100
AcDbEntity
  8
0
100
AcDbLine
 10
102.5928579007
 20
-69.9875470309
 30
0.0
 11
99.0928578508
 21
-69.9875470309
 31
0.0
  0
LINE
  5
237
330
1F
100
AcDbEntity
  8
0
100
AcDbLine
 10
99.0928578508
 20
-69.9875470309
 30
0.0
 11
99.0928578508
 21
-68.987546867
 31
0.0
  0
LINE
  5
238
330
1F
100
AcDbEntity
  8
0
100
AcDbLine
 10
102.5928579007
 20
-68.987546867
 30
0.0
 11
99.0928578508
 21
-68.987546867
 31
0.0
  0
LINE
  5
239
330
1F
100
AcDbEntity
  8
0
100
AcDbLine
 10
262.0928505171
 20
-69.9875470309
 30
0.0
 11
262.0928505171
 21
-68.987546867
 31
0.0
  0
LINE
  5
23A
330
1F
100
AcDbEntity
  8
0
100
AcDbLine
 10
262.0928505171
 20
-69.9875470309
 30
0.0
 11
258.5928508748
 21
-69.9875470309
 31
0.0
  0
LINE
  5
23B
330
1F
100
AcDbEntity
  8
0
100
AcDbLine
 10
262.0928505171
 20
-68.987546867
 30
0.0
 11
258.5928508748
 21
-68.987546867
 31
0.0
  0
LINE
  5
23C
330
1F
100
AcDbEntity
  8
0
100
AcDbLine
 10
253.5928556431
 20
-78.9875468763
 30
0.0
 11
253.5928556431
 21
-69.9875470309
 31
0.0
  0
LINE
  5
23D
330
1F
100
AcDbEntity
  8
0
100
AcDbLine
 10
253.5928556431
 20
-78.9875468763
 30
0.0
 11
235.027707528
 21
-78.9875468763
 31
0.0
  0
LINE
  5
23E
330
1F
100
AcDbEntity
  8
0
100
AcDbLine
 10
235.027707528
 20
-78.9875468763
 30
0.0
 11
235.027707528
 21
-69.9875470309
 31
0.0
  0
LINE
  5
23F
330
1F
100
AcDbEntity
  8
0
100
AcDbLine
 10
235.027707528
 20
-78.9875468763
 30
0.0
 11
102.3428578597
 21
-78.9875468763
 31
0.0
  0
LINE
  5
240
330
1F
100
AcDbEntity
  8
0
100
AcDbLine
 10
101.0928578876
 20
-78.9875468763
 30
0.0
 11
101.0928578876
 21
-69.9875470309
 31
0.0
  0
LINE
  5
241
330
1F
100
AcDbEntity
  8
0
100
AcDbLine
 10
102.3428578597
 20
-78.9875468763
 30
0.0
 11
101.0928578876
 21
-78.9875468763
 31
0.0
  0
LINE
  5
242
330
1F
100
AcDbEntity
  8
0
  6
Continuous
 62
     8
370
     0
100
AcDbLine
 10
103.9928578507
 20
-82.4375468364
 30
0.0
 11
103.9928578507
 21
-81.4875470533
 31
0.0
  0
LINE
  5
243
330
1F
100
AcDbEntity
  8
0
  6
Continuous
 62
     8
370
     0
100
AcDbLine
 10
256.9928535927
 20
-82.4375468364
 30
0.0
 11
256.9928535927
 21
-81.4875470533
 31
0.0
  0
LINE
  5
244
330
1F
100
AcDbEntity
  8
0
  6
Continuous
 62
     8
370
     0
100
AcDbLine
 10
103.9928578507
 20
-68.987546867
 30
0.0
 11
103.9928578507
 21
-68.0375470838
 31
0.0
  0
LINE
  5
245
330
1F
100
AcDbEntity
  8
0
  6
Continuous
 62
     8
370
     0
100
AcDbLine
 10
256.9928535927
 20
-68.987546867
 30
0.0
 11
256.9928535927
 21
-68.0375470838
 31
0.0
  0
LINE
  5
246
330
1F
100
AcDbEntity
  8
0
  6
Continuous
 62
     8
370
     0
100
AcDbLine
 10
263.2121512402
 20
-92.4375475443
 30
0.0
 11
98.8735685137
 21
-92.4375475443
 31
0.0
  0
LINE
  5
247
330
1F
100
AcDbEntity
  8
0
  6
Continuous
 62
     8
370
     0
100
AcDbLine
 10
97.7928577891
 20
-92.4375475443
 30
0.0
 11
98.7928578366
 21
-92.4375475443
 31
0.0
  0
LINE
  5
248
330
1F
100
AcDbEntity
  8
0
  6
Continuous
 62
     8
370
     0
100
AcDbLine
 10
264.2928579558
 20
-92.4375475443
 30
0.0
 11
263.2928559292
 21
-92.4375475443
 31
0.0
  0
LINE
  5
249
330
1F
100
AcDbEntity
  8
0
  6
Continuous
 62
     8
370
     0
100
AcDbLine
 10
98.8735685137
 20
-58.037546376
 30
0.0
 11
263.2121512402
 21
-58.037546376
 31
0.0
  0
LINE
  5
24A
330
1F
100
AcDbEntity
  8
0
  6
Continuous
 62
     8
370
     0
100
AcDbLine
 10
264.2928579558
 20
-58.037546376
 30
0.0
 11
263.2928559292
 21
-58.037546376
 31
0.0
  0
LINE
  5
24B
330
1F
100
AcDbEntity
  8
0
  6
Continuous
 62
     8
370
     0
100
AcDbLine
 10
97.7928577891
 20
-58.037546376
 30
0.0
 11
98.7928578366
 21
-58.037546376
 31
0.0
  0
LINE
  5
24C
330
1F
100
AcDbEntity
  8
0
  6
Continuous
 62
     8
370
     0
100
AcDbLine
 10
258.5928508748
 20
-69.9875470309
 30
0.0
 11
258.5928508748
 21
-68.987546867
 31
0.0
  0
LINE
  5
24D
330
1F
100
AcDbEntity
  8
0
  6
Continuous
 62
     8
370
     0
100
AcDbLine
 10
102.5928579007
 20
-69.9875470309
 30
0.0
 11
102.5928579007
 21
-68.987546867
 31
0.0
  0
LINE
  5
24E
330
1F
100
AcDbEntity
  8
0
  6
Continuous
 62
     8
370
     0
100
AcDbLine
 10
102.3428578597
 20
-69.9875470309
 30
0.0
 11
102.3428578597
 21
-78.9875468763
 31
0.0
  0
LINE
  5
24F
330
1F
100
AcDbEntity
  8
0
100
AcDbLine
 10
-110.2135585202
 20
-36.5720909068
 30
0.0
 11
-110.2135585202
 21
-39.5717337393
 31
0.0
  0
LINE
  5
250
330
1F
100
AcDbEntity
  8
0
100
AcDbLine
 10
-108.4568874232
 20
-42.0205610088
 30
0.0
 11
-107.7496672564
 21
-42.4289647418
 31
0.0
  0
LINE
  5
251
330
1F
100
AcDbEntity
  8
0
100
AcDbLine
 10
-100.6774488459
 20
-42.428965721
 30
0.0
 11
-100.3728040742
 21
-42.2530378336
 31
0.0
  0
LINE
  5
252
330
1F
100
AcDbEntity
  8
0
100
AcDbLine
 10
-23.214732869
 20
-64.5422092313
 30
0.0
 11
-22.7854843391
 21
-64.2944093296
 31
0.0
  0
LINE
  5
253
330
1F
100
AcDbEntity
  8
0
100
AcDbLine
 10
-17.7575608995
 20
-27.205729171
 30
0.0
 11
-17.2855478063
 21
-27.4782165297
 31
0.0
  0
LINE
  5
254
330
1F
100
AcDbEntity
  8
0
100
AcDbLine
 10
-15.885661965
 20
-25.0532792542
 30
0.0
 11
-16.3576750581
 21
-24.7807918956
 31
0.0
  0
LINE
  5
255
330
1F
100
AcDbEntity
  8
0
100
AcDbLine
 10
-36.8494438282
 20
-66.806167124
 30
0.0
 11
-36.377430735
 21
-67.0786544827
 31
0.0
  0
LINE
  5
256
330
1F
100
AcDbEntity
  8
0
100
AcDbLine
 10
-34.9775448937
 20
-64.6537179677
 30
0.0
 11
-35.4495579869
 21
-64.381230609
 31
0.0
  0
LINE
  5
257
330
1F
100
AcDbEntity
  8
0
100
AcDbLine
 10
-17.7575608995
 20
-55.7846577087
 30
0.0
 11
-17.2855478063
 21
-56.0571450673
 31
0.0
  0
LINE
  5
258
330
1F
100
AcDbEntity
  8
0
100
AcDbLine
 10
-15.885661965
 20
-53.6322085523
 30
0.0
 11
-16.3576750581
 21
-53.3597211937
 31
0.0
  0
LINE
  5
259
330
1F
100
AcDbEntity
  8
0
100
AcDbLine
 10
-36.8494438282
 20
-38.2272385864
 30
0.0
 11
-36.377430735
 21
-38.499725945
 31
0.0
  0
LINE
  5
25A
330
1F
100
AcDbEntity
  8
0
100
AcDbLine
 10
-34.9775448937
 20
-36.0747886695
 30
0.0
 11
-35.4495579869
 21
-35.8023013109
 31
0.0
  0
LINE
  5
25B
330
1F
100
AcDbEntity
  8
0
100
AcDbLine
 10
-155.8729714327
 20
-10.2134724227
 30
0.0
 11
-39.8416883142
 21
-77.1969063845
 31
0.0
  0
LINE
  5
25C
330
1F
100
AcDbEntity
  8
0
100
AcDbLine
 10
-156.4133703086
 20
34.4833174726
 30
0.0
 11
-156.4133703086
 21
-9.2775241645
 31
0.0
  0
LINE
  5
25D
330
1F
100
AcDbEntity
  8
0
100
AcDbLine
 10
-13.4769432308
 20
-61.976665795
 30
0.0
 11
-13.4769432308
 21
-18.2158241579
 31
0.0
  0
LINE
  5
25E
330
1F
100
AcDbEntity
  8
0
100
AcDbLine
 10
-14.0173369515
 20
-17.2798773548
 30
0.0
 11
-130.04862007
 21
49.703556607
 31
0.0
  0
LINE
  5
25F
330
1F
100
AcDbEntity
  8
0
100
AcDbLine
 10
-41.5786452228
 20
-20.5557926996
 30
0.0
 11
-42.6533528167
 21
-21.1762081876
 31
0.0
  0
LINE
  5
260
330
1F
100
AcDbEntity
  8
0
100
AcDbLine
 10
-137.748121982
 20
42.6398176378
 30
0.0
 11
-138.4552288791
 21
42.231613515
 31
0.0
  0
LINE
  5
261
330
1F
100
AcDbEntity
  8
0
100
AcDbLine
 10
-156.4133706378
 20
23.5765414502
 30
0.0
 11
-158.3074829371
 21
22.4830936945
 31
0.0
  0
LINE
  5
262
330
1F
100
AcDbEntity
  8
0
100
AcDbLine
 10
-158.3074829371
 20
22.4830936945
 30
0.0
 11
-160.782356583
 21
23.9118078392
 31
0.0
  0
LINE
  5
263
330
1F
100
AcDbEntity
  8
0
100
AcDbLine
 10
-160.782356583
 20
23.9118078392
 30
0.0
 11
-156.4133708025
 21
26.4339696446
 31
0.0
  0
LINE
  5
264
330
1F
100
AcDbEntity
  8
0
100
AcDbLine
 10
-140.7694537203
 20
35.465010745
 30
0.0
 11
-139.1802448941
 21
36.3824414724
 31
0.0
  0
LINE
  5
265
330
1F
100
AcDbEntity
  8
0
100
AcDbLine
 10
-156.4133706378
 20
-8.2685508704
 30
0.0
 11
-158.3074829371
 21
-9.3619986261
 31
0.0
  0
LINE
  5
266
330
1F
100
AcDbEntity
  8
0
100
AcDbLine
 10
-158.3074829371
 20
-9.3619986261
 30
0.0
 11
-158.3074829371
 21
22.4830936945
 31
0.0
  0
ARC
  5
267
330
1F
100
AcDbEntity
  8
0
100
AcDbCircle
 10
-151.8315438248
 20
7.6539955617
 30
0.0
 40
4.850084996028667
100
AcDbArc
 50
160.8547168648
 51
199.1452831352
  0
LINE
  5
268
330
1F
100
AcDbEntity
  8
0
100
AcDbLine
 10
-158.3074829371
 20
-9.3619986261
 30
0.0
 11
-160.782356583
 21
-7.9332844814
 31
0.0
  0
LINE
  5
269
330
1F
100
AcDbEntity
  8
0
100
AcDbLine
 10
-160.782356583
 20
-7.9332844814
 30
0.0
 11
-160.782356583
 21
23.9118078392
 31
0.0
  0
LWPOLYLINE
  5
26A
330
1F
100
AcDbEntity
  8
0
100
AcDbPolyline
 90
        3
 70
   128
 43
0.0
 10
-156.5652644225
 20
8.6238456647
 10
-156.5303227095
 20
8.5995942662
 10
-156.4133711317
 20
8.5346209399
  0
LWPOLYLINE
  5
26B
330
1F
100
AcDbEntity
  8
0
100
AcDbPolyline
 90
        3
 70
   128
 43
0.0
 10
-156.5582598139
 20
8.6588555596
 10
-156.452669446
 20
8.6399162094
 10
-156.4133708025
 20
8.6357577329
  0
ARC
  5
26C
330
1F
100
AcDbEntity
  8
0
100
AcDbCircle
 10
-103.799493971
 20
-34.938905695
 30
0.0
 40
8.058926846132753
100
AcDbArc
 50
278.4227942829
 51
295.0132829083
  0
LWPOLYLINE
  5
26D
330
1F
100
AcDbEntity
  8
0
100
AcDbPolyline
 90
       12
 70
   128
 43
0.0
 10
-110.2135585202
 20
-39.5717337393
 10
-110.1868143692
 20
-39.8983986949
 10
-109.9978078149
 20
-40.4922242621
 10
-109.6330489023
 20
-41.0580815083
 10
-109.1036212647
 20
-41.5787770709
 10
-108.425610181
 20
-42.0384903799
 10
-107.6196192041
 20
-42.4232519113
 10
-106.7101369699
 20
-42.7213714484
 10
-105.7247986402
 20
-42.9237903087
 10
-104.6935400019
 20
-43.0243594381
 10
-103.6476975662
 20
-43.0200224627
 10
-102.6190498923
 20
-42.9109100659
  0
ARC
  5
26E
330
1F
100
AcDbEntity
  8
0
100
AcDbCircle
 10
-104.2430687587
 20
-35.7568685418
 30
0.0
 40
7.537446565366412
100
AcDbArc
 50
242.2753019334
 51
280.3815625005
  0
ARC
  5
26F
330
1F
100
AcDbEntity
  8
0
100
AcDbCircle
 10
-103.7881326724
 20
-36.8290206241
 30
0.0
 40
6.405914373157807
100
AcDbArc
 50
278.1065983867
 51
299.0515017979
  0
LINE
  5
270
330
1F
100
AcDbEntity
  8
0
100
AcDbLine
 10
-32.8680184053
 20
-28.8520534561
 30
0.0
 11
-32.9185946235
 21
-28.7494535067
 31
0.0
  0
LINE
  5
271
330
1F
100
AcDbEntity
  8
0
100
AcDbLine
 10
-26.8209802174
 20
-20.5601642651
 30
0.0
 11
-135.0083147281
 21
41.8950545512
 31
0.0
  0
ARC
  5
272
330
1F
100
AcDbEntity
  8
0
100
AcDbCircle
 10
-30.2544267673
 20
-26.6250014023
 30
0.0
 40
7.684038053890268
100
AcDbArc
 50
2.6055309368
 51
57.39453082790001
  0
LINE
  5
273
330
1F
100
AcDbEntity
  8
0
100
AcDbLine
 10
-22.5783325787
 20
-63.8365668965
 30
0.0
 11
-22.5783325787
 21
-26.2756894768
 31
0.0
  0
LINE
  5
274
330
1F
100
AcDbEntity
  8
0
100
AcDbLine
 10
-26.1138736496
 20
-20.1519603324
 30
0.0
 11
-134.3012081602
 21
42.3032584839
 31
0.0
  0
ARC
  5
275
330
1F
100
AcDbEntity
  8
0
100
AcDbCircle
 10
-23.0480997386
 20
-63.8998041074
 30
0.0
 40
0.4740043559166027
100
AcDbArc
 50
303.644331202
 51
7.6667232728
  0
ARC
  5
276
330
1F
100
AcDbEntity
  8
0
100
AcDbCircle
 10
-135.8171861977
 20
40.1152422015
 30
0.0
 40
2.661879911362881
100
AcDbArc
 50
55.2836533215
 51
104.5399067057
  0
LINE
  5
277
330
1F
100
AcDbEntity
  8
0
100
AcDbLine
 10
-39.3367703861
 20
-32.4733995584
 30
0.0
 11
-39.3367703861
 21
-32.5636893174
 31
0.0
  0
LINE
  5
278
330
1F
100
AcDbEntity
  8
0
100
AcDbLine
 10
-32.9728089708
 20
-28.9125448049
 30
0.0
 11
-32.9728089708
 21
-28.7807474603
 31
0.0
  0
LINE
  5
279
330
1F
100
AcDbEntity
  8
0
100
AcDbLine
 10
-137.9781634324
 20
44.4259195805
 30
0.0
 11
-137.9781634324
 21
42.5070177114
 31
0.0
  0
LINE
  5
27A
330
1F
100
AcDbEntity
  8
0
100
AcDbLine
 10
-22.3662074901
 20
-22.3154419552
 30
0.0
 11
-137.9781634324
 21
44.4259195805
 31
0.0
  0
LINE
  5
27B
330
1F
100
AcDbEntity
  8
0
100
AcDbLine
 10
-22.3662074901
 20
-22.3154419552
 30
0.0
 11
-22.3662074901
 21
-65.592105995
 31
0.0
  0
LINE
  5
27C
330
1F
100
AcDbEntity
  8
0
100
AcDbLine
 10
-23.2148448216
 20
-65.1021980916
 30
0.0
 11
-22.3662074901
 21
-65.592105995
 31
0.0
  0
LINE
  5
27D
330
1F
100
AcDbEntity
  8
0
100
AcDbLine
 10
-22.0479516979
 20
-22.1317167971
 30
0.0
 11
-22.3662074901
 21
-22.3154419552
 31
0.0
  0
LINE
  5
27E
330
1F
100
AcDbEntity
  8
0
100
AcDbLine
 10
-15.6486926263
 20
-18.9115453164
 30
0.0
 11
-15.6486926263
 21
-18.7797479718
 31
0.0
  0
LINE
  5
27F
330
1F
100
AcDbEntity
  8
0
100
AcDbLine
 10
-22.3662074901
 20
-65.592105995
 30
0.0
 11
-21.694455872
 21
-65.2043120403
 31
0.0
  0
LINE
  5
280
330
1F
100
AcDbEntity
  8
0
100
AcDbLine
 10
-137.6599076402
 20
44.6096447386
 30
0.0
 11
-137.9781634324
 21
44.4259195805
 31
0.0
  0
LWPOLYLINE
  5
281
330
1F
100
AcDbEntity
  8
0
100
AcDbPolyline
 90
       17
 70
   128
 43
0.0
 10
-17.4163169649
 20
-26.7883772777
 10
-17.3430282051
 20
-26.356916902
 10
-17.1463545464
 20
-25.9162376052
 10
-16.8562386903
 20
-25.5334291769
 10
-16.5168478999
 20
-25.2667693487
 10
-16.1798509188
 20
-25.1568570477
 10
-15.8965523155
 20
-25.2204229666
 10
-15.7100828039
 20
-25.4477922519
 10
-15.6488302621
 20
-25.8043486306
 10
-15.7221190219
 20
-26.2358090064
 10
-15.9187926806
 20
-26.6764883031
 10
-16.2089085367
 20
-27.0592967314
 10
-16.5482993271
 20
-27.3259550387
 10
-16.8852963081
 20
-27.4358673397
 10
-17.1685942529
 20
-27.3723010406
 10
-17.3550644231
 20
-27.1449321355
 10
-17.4163169649
 20
-26.7883772777
  0
LWPOLYLINE
  5
282
330
1F
100
AcDbEntity
  8
0
100
AcDbPolyline
 90
       18
 70
   128
 43
0.0
 10
-17.5753976104
 20
-26.8168044894
 10
-17.5021964371
 20
-26.3630294626
 10
-17.3052047013
 20
-25.8961161271
 10
-17.0110269427
 20
-25.4791222312
 10
-16.6593931514
 20
-25.1683677307
 10
-16.2977942646
 20
-25.0058207783
 10
-15.9750659674
 20
-25.0134332561
 10
-15.734794028
 20
-25.1901778717
 10
-15.6094288856
 20
-25.5121852127
 10
-15.6159017196
 20
-25.9359635782
 10
-15.7533379828
 20
-26.4042821339
 10
-16.0031765982
 20
-26.8538915008
 10
-16.331675721
 20
-27.2240684609
 10
-16.6944692075
 20
-27.4648175027
 10
-17.0425600294
 20
-27.543626591
 10
-17.3289360112
 20
-27.4498521356
 10
-17.5149214926
 20
-27.1961560507
 10
-17.5753976104
 20
-26.8168044894
  0
LINE
  5
283
330
1F
100
AcDbEntity
  8
0
100
AcDbLine
 10
-17.2468319747
 20
-27.1655223182
 30
0.0
 11
-16.5471007761
 21
-27.2474601715
 31
0.0
  0
LINE
  5
284
330
1F
100
AcDbEntity
  8
0
100
AcDbLine
 10
-16.5471007761
 20
-27.2474601715
 30
0.0
 11
-15.8328420856
 21
-26.3782990964
 31
0.0
  0
LINE
  5
285
330
1F
100
AcDbEntity
  8
0
100
AcDbLine
 10
-15.8328420856
 20
-26.3782990964
 30
0.0
 11
-15.8183152523
 21
-25.4272020691
 31
0.0
  0
LINE
  5
286
330
1F
100
AcDbEntity
  8
0
100
AcDbLine
 10
-15.8183152523
 20
-25.4272020691
 30
0.0
 11
-16.5180464509
 21
-25.3452657368
 31
0.0
  0
LINE
  5
287
330
1F
100
AcDbEntity
  8
0
100
AcDbLine
 10
-17.2323051414
 20
-26.214425291
 30
0.0
 11
-16.5180464509
 21
-25.3452657368
 31
0.0
  0
LINE
  5
288
330
1F
100
AcDbEntity
  8
0
100
AcDbLine
 10
-17.2323051414
 20
-26.214425291
 30
0.0
 11
-17.2468319747
 21
-27.1655223182
 31
0.0
  0
LINE
  5
289
330
1F
100
AcDbEntity
  8
0
100
AcDbLine
 10
-16.5471007761
 20
-27.2474601715
 30
0.0
 11
-17.241954794
 21
-26.8463294853
 31
0.0
  0
LINE
  5
28A
330
1F
100
AcDbEntity
  8
0
100
AcDbLine
 10
-16.8733529449
 20
-25.7776249631
 30
0.0
 11
-15.8328420856
 21
-26.3782990964
 31
0.0
  0
LWPOLYLINE
  5
28B
330
1F
100
AcDbEntity
  8
0
100
AcDbPolyline
 90
       17
 70
   128
 43
0.0
 10
-36.1135921219
 20
-67.0293133445
 10
-36.358091917
 20
-66.8895945099
 10
-36.4909025635
 20
-66.5987304675
 10
-36.4918047695
 20
-66.2010052489
 10
-36.3606608991
 20
-65.7569665421
 10
-36.1174367047
 20
-65.3342168644
 10
-35.7991608269
 20
-64.9971152785
 10
-35.4542876535
 20
-64.7969823991
 10
-35.1353216211
 20
-64.7642873291
 10
-34.8908211674
 20
-64.904006544
 10
-34.7580105209
 20
-65.1948698259
 10
-34.7571083149
 20
-65.592595805
 10
-34.8882521853
 20
-66.0366337512
 10
-35.1314763797
 20
-66.459383429
 10
-35.4497522575
 20
-66.7964850149
 10
-35.7946254309
 20
-66.9966178943
 10
-36.1135921219
 20
-67.0293133445
  0
LWPOLYLINE
  5
28C
330
1F
100
AcDbEntity
  8
0
100
AcDbPolyline
 90
       18
 70
   128
 43
0.0
 10
-36.225319466
 20
-67.1346011816
 10
-36.4861867263
 20
-66.9923720441
 10
-36.6378350385
 20
-66.6980457477
 10
-36.6597830099
 20
-66.2913724689
 10
-36.5490665316
 20
-65.8272750169
 10
-36.3206385152
 20
-65.368432382
 10
-36.0053497953
 20
-64.9768152124
 10
-35.6457812012
 20
-64.705311608
 10
-35.2904944635
 20
-64.5905907152
 10
-34.9874737692
 20
-64.6481462651
 10
-34.7776430497
 20
-64.8702043882
 10
-34.6893414508
 20
-65.2267754724
 10
-34.734494555
 20
-65.6697032268
 10
-34.9070042402
 20
-66.1391664101
 10
-35.1835718601
 20
-66.5717624745
 10
-35.5268454289
 20
-66.9090658992
 10
-35.8904640717
 20
-67.1055228431
 10
-36.225319466
 20
-67.1346011816
  0
LINE
  5
28D
330
1F
100
AcDbEntity
  8
0
100
AcDbLine
 10
-35.6757265371
 20
-66.8673975081
 30
0.0
 11
-34.9443805923
 21
-66.0259732587
 31
0.0
  0
LINE
  5
28E
330
1F
100
AcDbEntity
  8
0
100
AcDbLine
 10
-34.9443805923
 20
-66.0259732587
 30
0.0
 11
-34.8931102681
 21
-65.0553764677
 31
0.0
  0
LINE
  5
28F
330
1F
100
AcDbEntity
  8
0
100
AcDbLine
 10
-34.8931102681
 20
-65.0553764677
 30
0.0
 11
-35.5731865474
 21
-64.9262035457
 31
0.0
  0
LINE
  5
290
330
1F
100
AcDbEntity
  8
0
100
AcDbLine
 10
-35.5731865474
 20
-64.9262035457
 30
0.0
 11
-36.3045331507
 21
-65.7676274148
 31
0.0
  0
LINE
  5
291
330
1F
100
AcDbEntity
  8
0
100
AcDbLine
 10
-36.3558028163
 20
-66.7382245862
 30
0.0
 11
-36.3045331507
 21
-65.7676274148
 31
0.0
  0
LINE
  5
292
330
1F
100
AcDbEntity
  8
0
100
AcDbLine
 10
-36.3558028163
 20
-66.7382245862
 30
0.0
 11
-35.6757265371
 21
-66.8673975081
 31
0.0
  0
LINE
  5
293
330
1F
100
AcDbEntity
  8
0
100
AcDbLine
 10
-35.6757265371
 20
-66.8673975081
 30
0.0
 11
-36.3423000197
 21
-66.4825928274
 31
0.0
  0
LINE
  5
294
330
1F
100
AcDbEntity
  8
0
100
AcDbLine
 10
-34.9443805923
 20
-66.0259732587
 30
0.0
 11
-35.9996112384
 21
-65.4168015733
 31
0.0
  0
LWPOLYLINE
  5
295
330
1F
100
AcDbEntity
  8
0
100
AcDbPolyline
 90
       17
 70
   128
 43
0.0
 10
-17.4163169649
 20
-55.3673050549
 10
-17.3430282051
 20
-54.9358446792
 10
-17.1463545464
 20
-54.4951653824
 10
-16.8562386903
 20
-54.1123569541
 10
-16.5168478999
 20
-53.8456978864
 10
-16.1798509188
 20
-53.7357855853
 10
-15.8965523155
 20
-53.7993515043
 10
-15.7100828039
 20
-54.0267207896
 10
-15.6488302621
 20
-54.3832764078
 10
-15.7221190219
 20
-54.8147367836
 10
-15.9187926806
 20
-55.2554160803
 10
-16.2089085367
 20
-55.6382245086
 10
-16.5482993271
 20
-55.9048835764
 10
-16.8852963081
 20
-56.0147966379
 10
-17.1685942529
 20
-55.9512295783
 10
-17.3550644231
 20
-55.7238614336
 10
-17.4163169649
 20
-55.3673050549
  0
LWPOLYLINE
  5
296
330
1F
100
AcDbEntity
  8
0
100
AcDbPolyline
 90
       18
 70
   128
 43
0.0
 10
-17.5753976104
 20
-55.3957330271
 10
-17.5021964371
 20
-54.9419572398
 10
-17.3052047013
 20
-54.4750439043
 10
-17.0110269427
 20
-54.0580515293
 10
-16.6593931514
 20
-53.7472962684
 10
-16.2977942646
 20
-53.5847493159
 10
-15.9750659674
 20
-53.5923617938
 10
-15.734794028
 20
-53.7691071699
 10
-15.6094288856
 20
-54.0911137504
 10
-15.6159017196
 20
-54.5148928763
 10
-15.7533379828
 20
-54.9832106716
 10
-16.0031765982
 20
-55.432819278
 10
-16.331675721
 20
-55.8029962381
 10
-16.6944692075
 20
-56.0437460404
 10
-17.0425600294
 20
-56.1225558891
 10
-17.3289360112
 20
-56.0287799128
 10
-17.5149214926
 20
-55.7750845883
 10
-17.5753976104
 20
-55.3957330271
  0
LINE
  5
297
330
1F
100
AcDbEntity
  8
0
100
AcDbLine
 10
-17.2468319747
 20
-55.7444508559
 30
0.0
 11
-16.5471007761
 21
-55.8263879487
 31
0.0
  0
LINE
  5
298
330
1F
100
AcDbEntity
  8
0
100
AcDbLine
 10
-16.5471007761
 20
-55.8263879487
 30
0.0
 11
-15.8328420856
 21
-54.9572276341
 31
0.0
  0
LINE
  5
299
330
1F
100
AcDbEntity
  8
0
100
AcDbLine
 10
-15.8328420856
 20
-54.9572276341
 30
0.0
 11
-15.8183152523
 21
-54.0061306068
 31
0.0
  0
LINE
  5
29A
330
1F
100
AcDbEntity
  8
0
100
AcDbLine
 10
-15.8183152523
 20
-54.0061306068
 30
0.0
 11
-16.5180464509
 21
-53.924193514
 31
0.0
  0
LINE
  5
29B
330
1F
100
AcDbEntity
  8
0
100
AcDbLine
 10
-17.2323051414
 20
-54.7933538286
 30
0.0
 11
-16.5180464509
 21
-53.924193514
 31
0.0
  0
LINE
  5
29C
330
1F
100
AcDbEntity
  8
0
100
AcDbLine
 10
-17.2323051414
 20
-54.7933538286
 30
0.0
 11
-17.2468319747
 21
-55.7444508559
 31
0.0
  0
LINE
  5
29D
330
1F
100
AcDbEntity
  8
0
100
AcDbLine
 10
-16.5471007761
 20
-55.8263879487
 30
0.0
 11
-17.241954794
 21
-55.4252572625
 31
0.0
  0
LINE
  5
29E
330
1F
100
AcDbEntity
  8
0
100
AcDbLine
 10
-16.8733529449
 20
-54.3565535007
 30
0.0
 11
-15.8328420856
 21
-54.9572276341
 31
0.0
  0
LWPOLYLINE
  5
29F
330
1F
100
AcDbEntity
  8
0
100
AcDbPolyline
 90
       17
 70
   128
 43
0.0
 10
-36.5081998936
 20
-37.809886693
 10
-36.4349111338
 20
-37.3784263173
 10
-36.2382374751
 20
-36.9377470205
 10
-35.948121619
 20
-36.5549385922
 10
-35.6087308286
 20
-36.288278764
 10
-35.2717338476
 20
-36.178366463
 10
-34.9884359028
 20
-36.2419327621
 10
-34.8019657326
 20
-36.4693016672
 10
-34.7407131908
 20
-36.8258580459
 10
-34.8140019506
 20
-37.2573184217
 10
-35.0106756093
 20
-37.6979977184
 10
-35.3007914654
 20
-38.0808061467
 10
-35.6401822558
 20
-38.347464454
 10
-35.9771792369
 20
-38.457376755
 10
-36.2604778402
 20
-38.3938108361
 10
-36.4469473518
 20
-38.1664415508
 10
-36.5081998936
 20
-37.809886693
  0
LWPOLYLINE
  5
2A0
330
1F
100
AcDbEntity
  8
0
100
AcDbPolyline
 90
       18
 70
   128
 43
0.0
 10
-36.6672805391
 20
-37.8383139048
 10
-36.5940793658
 20
-37.3845388779
 10
-36.39708763
 20
-36.9176255425
 10
-36.1029098714
 20
-36.5006316465
 10
-35.7512767386
 20
-36.1898775262
 10
-35.3896778518
 20
-36.0273305738
 10
-35.0669488961
 20
-36.0349426714
 10
-34.8266769567
 20
-36.211687287
 10
-34.7013118144
 20
-36.5336946281
 10
-34.7077846483
 20
-36.9574729935
 10
-34.8452209115
 20
-37.4257915492
 10
-35.0950601855
 20
-37.8754012963
 10
-35.4235586497
 20
-38.2455778762
 10
-35.7863521362
 20
-38.486326918
 10
-36.1344429581
 20
-38.5651360063
 10
-36.4208195985
 20
-38.4713619311
 10
-36.6068050799
 20
-38.2176658461
 10
-36.6672805391
 20
-37.8383139048
  0
LINE
  5
2A1
330
1F
100
AcDbEntity
  8
0
100
AcDbLine
 10
-36.3387149034
 20
-38.1870317336
 30
0.0
 11
-35.6389837048
 21
-38.2689695869
 31
0.0
  0
LINE
  5
2A2
330
1F
100
AcDbEntity
  8
0
100
AcDbLine
 10
-35.6389837048
 20
-38.2689695869
 30
0.0
 11
-34.9247250143
 21
-37.3998085118
 31
0.0
  0
LINE
  5
2A3
330
1F
100
AcDbEntity
  8
0
100
AcDbLine
 10
-34.9247250143
 20
-37.3998085118
 30
0.0
 11
-34.910198181
 21
-36.4487114845
 31
0.0
  0
LINE
  5
2A4
330
1F
100
AcDbEntity
  8
0
100
AcDbLine
 10
-34.910198181
 20
-36.4487114845
 30
0.0
 11
-35.6099293796
 21
-36.3667751521
 31
0.0
  0
LINE
  5
2A5
330
1F
100
AcDbEntity
  8
0
100
AcDbLine
 10
-36.3241880701
 20
-37.2359347063
 30
0.0
 11
-35.6099293796
 21
-36.3667751521
 31
0.0
  0
LINE
  5
2A6
330
1F
100
AcDbEntity
  8
0
100
AcDbLine
 10
-36.3241880701
 20
-37.2359347063
 30
0.0
 11
-36.3387149034
 21
-38.1870317336
 31
0.0
  0
LINE
  5
2A7
330
1F
100
AcDbEntity
  8
0
100
AcDbLine
 10
-35.6389837048
 20
-38.2689695869
 30
0.0
 11
-36.3338377228
 21
-37.8678389006
 31
0.0
  0
LINE
  5
2A8
330
1F
100
AcDbEntity
  8
0
100
AcDbLine
 10
-35.9652358737
 20
-36.7991343784
 30
0.0
 11
-34.9247250143
 21
-37.3998085118
 31
0.0
  0
ELLIPSE
  5
2A9
330
1F
100
AcDbEntity
  8
0
100
AcDbEllipse
 10
-39.3014119703
 20
-75.7767981145
 30
0.0
 11
1.460378490006441
 21
-0.488681018006602
 31
0.0
210
0.0
220
0.0
230
1.0
 40
0.7008315771
 41
4.157344685381306
 42
5.728141012176225
  0
ELLIPSE
  5
2AA
330
1F
100
AcDbEntity
  8
0
100
AcDbEllipse
 10
-39.3014119703
 20
-32.5001350846
 30
0.0
 11
1.495434327794627
 21
0.2899898903568429
 31
0.0
210
0.0
220
0.0
230
1.0
 40
0.4032732427
 41
3.848948177030269
 42
5.419744503825171
  0
ELLIPSE
  5
2AB
330
1F
100
AcDbEntity
  8
0
100
AcDbEllipse
 10
-39.3014119703
 20
-32.5001350846
 30
0.0
 11
0.4996630984270212
 21
0.243635491529318
 31
0.0
210
0.0
220
0.0
230
1.0
 40
0.0753247667
 41
3.890278997963896
 42
5.461075324758776
  0
LINE
  5
2AC
330
1F
100
AcDbEntity
  8
0
100
AcDbLine
 10
-40.3620688673
 20
-33.1124425625
 30
0.0
 11
-39.6549619702
 21
-32.7042384397
 31
0.0
  0
ELLIPSE
  5
2AD
330
1F
100
AcDbEntity
  8
0
100
AcDbEllipse
 10
-39.3014119703
 20
-32.5001350846
 30
0.0
 11
0.4608158422367907
 21
0.3109208394244121
 31
0.0
210
0.0
220
0.0
230
1.0
 40
0.0754639589
 41
0.8220974581812834
 42
2.392893784976414
  0
ELLIPSE
  5
2AE
330
1F
100
AcDbEntity
  8
0
100
AcDbEllipse
 10
-39.3014119703
 20
-32.5001350846
 30
0.0
 11
0.998828429738026
 21
1.150116463053294
 31
0.0
210
0.0
220
0.0
230
1.0
 40
0.4033882451
 41
0.8633906978604319
 42
2.434187024655339
  0
ELLIPSE
  5
2AF
330
1F
100
AcDbEntity
  8
0
100
AcDbEllipse
 10
-154.9133706943
 20
34.2412280569
 30
0.0
 11
0.3068251416117959
 21
1.509104183918225
 31
0.0
210
0.0
220
0.0
230
1.0
 40
0.700889028
 41
0.5549034007178286
 42
2.125699727512786
  0
LINE
  5
2B0
330
1F
100
AcDbEntity
  8
0
100
AcDbLine
 10
-31.8767920291
 20
-28.2798288333
 30
0.0
 11
-38.9478603415
 21
-32.3618696814
 31
0.0
  0
LINE
  5
2B1
330
1F
100
AcDbEntity
  8
0
100
AcDbLine
 10
-31.1696838149
 20
-28.6880337165
 30
0.0
 11
-31.8767920291
 21
-28.2798288333
 31
0.0
  0
LINE
  5
2B2
330
1F
100
AcDbEntity
  8
0
100
AcDbLine
 10
-31.1696838149
 20
-28.6880337165
 30
0.0
 11
-38.2407521273
 21
-32.7700745645
 31
0.0
  0
LINE
  5
2B3
330
1F
100
AcDbEntity
  8
0
100
AcDbLine
 10
-31.1696838149
 20
-28.6880337165
 30
0.0
 11
-31.1696838149
 21
-72.649430711
 31
0.0
  0
LINE
  5
2B4
330
1F
100
AcDbEntity
  8
0
100
AcDbLine
 10
-38.2407521273
 20
-76.731471559
 30
0.0
 11
-31.1696838149
 21
-72.649430711
 31
0.0
  0
LWPOLYLINE
  5
2B5
330
1F
100
AcDbEntity
  8
0
100
AcDbPolyline
 90
       20
 70
   128
 43
0.0
 10
-36.8618936121
 20
-38.0322295844
 10
-36.7948458787
 20
-37.5295455698
 10
-36.6009683999
 20
-37.0039230662
 10
-36.3012707212
 20
-36.5123229553
 10
-35.9282296236
 20
-36.1080156571
 10
-35.5222698616
 20
-35.8348156305
 10
-35.1273841841
 20
-35.7223277503
 10
-34.7863634961
 20
-35.7827405029
 10
-34.5361633397
 20
-36.00951082
 10
-34.4038966509
 20
-36.3780606585
 10
-34.4038966509
 20
-36.8484541054
 10
-34.5361633397
 20
-37.3697173331
 10
-34.7863634961
 20
-37.885361081
 10
-35.1273841841
 20
-38.33950946
 10
-35.5222698616
 20
-38.6829468784
 10
-35.9282296236
 20
-38.8784580161
 10
-36.3012707212
 20
-38.9048548014
 10
-36.6009683999
 20
-38.7592767441
 10
-36.7948458787
 20
-38.4575019337
 10
-36.8618936121
 20
-38.0322295844
  0
LWPOLYLINE
  5
2B6
330
1F
100
AcDbEntity
  8
0
100
AcDbPolyline
 90
       20
 70
   128
 43
0.0
 10
-36.8618936121
 20
-66.6111573616
 10
-36.7948458787
 20
-66.108473347
 10
-36.6009683999
 20
-65.5828516039
 10
-36.3012707212
 20
-65.0912507325
 10
-35.9282296236
 20
-64.6869434344
 10
-35.5222698616
 20
-64.4137434077
 10
-35.1273841841
 20
-64.3012555275
 10
-34.7863634961
 20
-64.3616690406
 10
-34.5361633397
 20
-64.5884385972
 10
-34.4038966509
 20
-64.9569891961
 10
-34.4038966509
 20
-65.4273826431
 10
-34.5361633397
 20
-65.9486451103
 10
-34.7863634961
 20
-66.4642896186
 10
-35.1273841841
 20
-66.9184372372
 10
-35.5222698616
 20
-67.2618746556
 10
-35.9282296236
 20
-67.4573857933
 10
-36.3012707212
 20
-67.4837825786
 10
-36.6009683999
 20
-67.3382052818
 10
-36.7948458787
 20
-67.0364297109
 10
-36.8618936121
 20
-66.6111573616
  0
LINE
  5
2B7
330
1F
100
AcDbEntity
  8
0
100
AcDbLine
 10
-39.0049271744
 20
-32.263020944
 30
0.0
 11
-31.933858862
 21
-28.1809800959
 31
0.0
  0
LINE
  5
2B8
330
1F
100
AcDbEntity
  8
0
100
AcDbLine
 10
-39.0049271744
 20
-31.4464815192
 30
0.0
 11
-31.933858862
 21
-27.3644406711
 31
0.0
  0
LINE
  5
2B9
330
1F
100
AcDbEntity
  8
0
100
AcDbLine
 10
-31.933858862
 20
-27.3644406711
 30
0.0
 11
-31.933858862
 21
-28.1809800959
 31
0.0
  0
LINE
  5
2BA
330
1F
100
AcDbEntity
  8
0
100
AcDbLine
 10
-148.1387851185
 20
39.7192353406
 30
0.0
 11
-155.2098534308
 21
35.6371944925
 31
0.0
  0
LINE
  5
2BB
330
1F
100
AcDbEntity
  8
0
100
AcDbLine
 10
-148.1387851185
 20
39.7192353406
 30
0.0
 11
-31.933858862
 21
-27.3644406711
 31
0.0
  0
LWPOLYLINE
  5
2BC
330
1F
100
AcDbEntity
  8
0
100
AcDbPolyline
 90
        3
 70
   128
 43
0.0
 10
-35.1776732769
 20
-35.7273926569
 10
-35.1110048651
 20
-35.9698557753
 10
-35.1065787875
 20
-36.0002986609
  0
LWPOLYLINE
  5
2BD
330
1F
100
AcDbEntity
  8
0
100
AcDbPolyline
 90
        3
 70
   128
 43
0.0
 10
-36.5064652874
 20
-38.4252363165
 10
-36.6353378378
 20
-38.4702531329
 10
-36.7783493387
 20
-38.5001452971
  0
LWPOLYLINE
  5
2BE
330
1F
100
AcDbEntity
  8
0
100
AcDbPolyline
 90
        3
 70
   128
 43
0.0
 10
-35.1776732769
 20
-64.3063211946
 10
-35.1110048651
 20
-64.548784313
 10
-35.1065787875
 20
-64.5792271985
  0
LWPOLYLINE
  5
2BF
330
1F
100
AcDbEntity
  8
0
100
AcDbPolyline
 90
        3
 70
   128
 43
0.0
 10
-36.5064652874
 20
-67.0041648542
 10
-36.6353378378
 20
-67.0491809101
 10
-36.7783493387
 20
-67.0790738348
  0
ELLIPSE
  5
2C0
330
1F
100
AcDbEntity
  8
0
100
AcDbEllipse
 10
-154.9133706943
 20
-9.035434973
 30
0.0
 11
0.9988284297380405
 21
1.150116463053293
 31
0.0
210
0.0
220
0.0
230
1.0
 40
0.4033882451
 41
2.434187024655354
 42
3.219666452114939
  0
ELLIPSE
  5
2C1
330
1F
100
AcDbEntity
  8
0
100
AcDbEllipse
 10
-39.3014119703
 20
-75.7767981145
 30
0.0
 11
0.3068251416117959
 21
1.509104183918225
 31
0.0
210
0.0
220
0.0
230
1.0
 40
0.700889028
 41
2.125699727512762
 42
3.696496054307689
  0
LINE
  5
2C2
330
1F
100
AcDbEntity
  8
0
100
AcDbLine
 10
-31.933858862
 20
-73.0907260272
 30
0.0
 11
-31.933858862
 21
-73.0905830602
 31
0.0
  0
LINE
  5
2C3
330
1F
100
AcDbEntity
  8
0
100
AcDbLine
 10
-31.933858862
 20
-73.0907260272
 30
0.0
 11
-39.0049271744
 21
-77.1727668753
 31
0.0
  0
ELLIPSE
  5
2C4
330
1F
100
AcDbEntity
  8
0
100
AcDbEllipse
 10
-154.9133706943
 20
34.2412280569
 30
0.0
 11
1.460378490006405
 21
-0.4886810180066021
 31
0.0
210
0.0
220
0.0
230
1.0
 40
0.7008315771
 41
2.586548358586425
 42
4.1573446853813
  0
ELLIPSE
  5
2C5
330
1F
100
AcDbEntity
  8
0
100
AcDbEllipse
 10
-154.9133706943
 20
-9.035434973
 30
0.0
 11
1.495434327794612
 21
0.2899898903568356
 31
0.0
210
0.0
220
0.0
230
1.0
 40
0.4032732427
 41
3.063550013632801
 42
3.848948177030275
  0
LINE
  5
2C6
330
1F
100
AcDbEntity
  8
0
100
AcDbLine
 10
-155.9740313127
 20
35.1959008128
 30
0.0
 11
-155.2241743404
 21
35.6287840287
 31
0.0
  0
LINE
  5
2C7
330
1F
100
AcDbEntity
  8
0
100
AcDbLine
 10
-21.6944545549
 20
-66.3630875237
 30
0.0
 11
-21.6944545549
 21
-22.4016905292
 31
0.0
  0
LINE
  5
2C8
330
1F
100
AcDbEntity
  8
0
100
AcDbLine
 10
-20.9873463408
 20
-22.8098954123
 30
0.0
 11
-21.6944545549
 21
-22.4016905292
 31
0.0
  0
LINE
  5
2C9
330
1F
100
AcDbEntity
  8
0
100
AcDbLine
 10
-20.9873463408
 20
-66.7712924068
 30
0.0
 11
-20.9873463408
 21
-22.8098954123
 31
0.0
  0
LINE
  5
2CA
330
1F
100
AcDbEntity
  8
0
100
AcDbLine
 10
-20.9873463408
 20
-66.7712924068
 30
0.0
 11
-21.6944545549
 21
-66.3630875237
 31
0.0
  0
LINE
  5
2CB
330
1F
100
AcDbEntity
  8
0
100
AcDbLine
 10
-14.6233862426
 20
-18.3196496811
 30
0.0
 11
-21.6944545549
 21
-22.4016905292
 31
0.0
  0
LINE
  5
2CC
330
1F
100
AcDbEntity
  8
0
100
AcDbLine
 10
-13.9162780284
 20
-18.7278545643
 30
0.0
 11
-20.9873463408
 21
-22.8098954123
 31
0.0
  0
LINE
  5
2CD
330
1F
100
AcDbEntity
  8
0
100
AcDbLine
 10
-20.9873463408
 20
-66.7712924068
 30
0.0
 11
-13.9162780284
 21
-62.6892515588
 31
0.0
  0
LWPOLYLINE
  5
2CE
330
1F
100
AcDbEntity
  8
0
100
AcDbPolyline
 90
       20
 70
   128
 43
0.0
 10
-15.2951365436
 20
-25.5820057392
 10
-15.362184277
 20
-25.1567333899
 10
-15.5560617558
 20
-24.8549570586
 10
-15.8557594345
 20
-24.7093805222
 10
-16.2288005321
 20
-24.7357773075
 10
-16.6347602941
 20
-24.9312884452
 10
-17.0296459716
 20
-25.2747258636
 10
-17.3706666596
 20
-25.7288727217
 10
-17.6208668159
 20
-26.2445179905
 10
-17.7531335047
 20
-26.7657796973
 10
-17.7531335047
 20
-27.2361731442
 10
-17.6208668159
 20
-27.6047245036
 10
-17.3706666596
 20
-27.8314932998
 10
-17.0296459716
 20
-27.8919075733
 10
-16.6347602941
 20
-27.7794196931
 10
-16.2288005321
 20
-27.5062196665
 10
-15.8557594345
 20
-27.1019123683
 10
-15.5560617558
 20
-26.6103107365
 10
-15.362184277
 20
-26.0846897538
 10
-15.2951365436
 20
-25.5820057392
  0
LWPOLYLINE
  5
2CF
330
1F
100
AcDbEntity
  8
0
100
AcDbPolyline
 90
       20
 70
   128
 43
0.0
 10
-15.2951365436
 20
-54.1609335164
 10
-15.362184277
 20
-53.7356611671
 10
-15.5560617558
 20
-53.4338855963
 10
-15.8557594345
 20
-53.2883082994
 10
-16.2288005321
 20
-53.3147050848
 10
-16.6347602941
 20
-53.5102162224
 10
-17.0296459716
 20
-53.8536536408
 10
-17.3706666596
 20
-54.3078012594
 10
-17.6208668159
 20
-54.8234457677
 10
-17.7531335047
 20
-55.344708235
 10
-17.7531335047
 20
-55.8151016819
 10
-17.6208668159
 20
-56.1836522809
 10
-17.3706666596
 20
-56.4104218375
 10
-17.0296459716
 20
-56.4708353506
 10
-16.6347602941
 20
-56.3583474704
 10
-16.2288005321
 20
-56.0851474437
 10
-15.8557594345
 20
-55.6808401455
 10
-15.5560617558
 20
-55.1892392742
 10
-15.362184277
 20
-54.663617531
 10
-15.2951365436
 20
-54.1609335164
  0
LINE
  5
2D0
330
1F
100
AcDbEntity
  8
0
100
AcDbLine
 10
-21.7515213878
 20
-22.3028417918
 30
0.0
 11
-137.9564476443
 21
44.7808342199
 31
0.0
  0
LINE
  5
2D1
330
1F
100
AcDbEntity
  8
0
100
AcDbLine
 10
-137.9564476443
 20
45.5973736447
 30
0.0
 11
-137.9564476443
 21
44.7808342199
 31
0.0
  0
LINE
  5
2D2
330
1F
100
AcDbEntity
  8
0
100
AcDbLine
 10
-21.7515213878
 20
-21.486302367
 30
0.0
 11
-137.9564476443
 21
45.5973736447
 31
0.0
  0
LINE
  5
2D3
330
1F
100
AcDbEntity
  8
0
100
AcDbLine
 10
-21.7515213878
 20
-21.486302367
 30
0.0
 11
-21.7515213878
 21
-22.3028417918
 31
0.0
  0
LINE
  5
2D4
330
1F
100
AcDbEntity
  8
0
100
AcDbLine
 10
-21.7515213878
 20
-22.3028417918
 30
0.0
 11
-14.6804530755
 21
-18.2208009437
 31
0.0
  0
LINE
  5
2D5
330
1F
100
AcDbEntity
  8
0
100
AcDbLine
 10
-21.7515213878
 20
-21.486302367
 30
0.0
 11
-14.6804530755
 21
-17.4042615189
 31
0.0
  0
LINE
  5
2D6
330
1F
100
AcDbEntity
  8
0
100
AcDbLine
 10
-130.8853793319
 20
49.6794144927
 30
0.0
 11
-137.9564476443
 21
45.5973736447
 31
0.0
  0
ELLIPSE
  5
2D7
330
1F
100
AcDbEntity
  8
0
100
AcDbEllipse
 10
-14.9769386975
 20
-18.4579155612
 30
0.0
 11
0.4996630984270141
 21
0.2436354915293109
 31
0.0
210
0.0
220
0.0
230
1.0
 40
0.0753247667
 41
5.461075324758799
 42
7.031871651553502
  0
LINE
  5
2D8
330
1F
100
AcDbEntity
  8
0
100
AcDbLine
 10
-13.9162753942
 20
-17.8456109542
 30
0.0
 11
-14.6233822913
 21
-18.253815077
 31
0.0
  0
ELLIPSE
  5
2D9
330
1F
100
AcDbEntity
  8
0
100
AcDbEllipse
 10
-14.9769386975
 20
-18.4579155612
 30
0.0
 11
1.495434327794628
 21
0.2899898903568356
 31
0.0
210
0.0
220
0.0
230
1.0
 40
0.4032732427
 41
5.419744503825153
 42
6.990540830620044
  0
ELLIPSE
  5
2DA
330
1F
100
AcDbEntity
  8
0
100
AcDbEllipse
 10
-14.9769386975
 20
-61.7345785912
 30
0.0
 11
1.460378490006436
 21
-0.4886810180066021
 31
0.0
210
0.0
220
0.0
230
1.0
 40
0.7008315771
 41
5.728141012176204
 42
6.513539175573636
  0
ELLIPSE
  5
2DB
330
1F
100
AcDbEntity
  8
0
100
AcDbEllipse
 10
-14.9769386975
 20
-18.4579155612
 30
0.0
 11
0.9988284297380314
 21
1.150116463053294
 31
0.0
210
0.0
220
0.0
230
1.0
 40
0.4033882451
 41
5.575779678245181
 42
7.146576005040076
  0
ELLIPSE
  5
2DC
330
1F
100
AcDbEntity
  8
0
100
AcDbEllipse
 10
-130.5888974215
 20
48.2834475803
 30
0.0
 11
0.3068251416117959
 21
1.509104183918225
 31
0.0
210
0.0
220
0.0
230
1.0
 40
0.700889028
 41
6.052771808562151
 42
6.838088707897497
  0
ELLIPSE
  5
2DD
330
1F
100
AcDbEntity
  8
0
100
AcDbEllipse
 10
-14.9769386975
 20
-18.4579155612
 30
0.0
 11
0.4608158422367978
 21
0.3109208394244086
 31
0.0
210
0.0
220
0.0
230
1.0
 40
0.0754639589
 41
5.53448643856669
 42
7.105282765361527
  0
LWPOLYLINE
  5
2DE
330
1F
100
AcDbEntity
  8
0
100
AcDbPolyline
 90
        3
 70
   128
 43
0.0
 10
-16.0857903482
 20
-24.7058832416
 10
-16.0191219364
 20
-24.94834636
 10
-16.0146958588
 20
-24.9787892455
  0
LWPOLYLINE
  5
2DF
330
1F
100
AcDbEntity
  8
0
100
AcDbPolyline
 90
        3
 70
   128
 43
0.0
 10
-17.4145823586
 20
-27.4037269012
 10
-17.5434542505
 20
-27.4487433374
 10
-17.68646641
 20
-27.4786358818
  0
LWPOLYLINE
  5
2E0
330
1F
100
AcDbEntity
  8
0
100
AcDbPolyline
 90
        3
 70
   128
 43
0.0
 10
-16.0857903482
 20
-53.2848117793
 10
-16.0191219364
 20
-53.5272748977
 10
-16.0146958588
 20
-53.5577177832
  0
LWPOLYLINE
  5
2E1
330
1F
100
AcDbEntity
  8
0
100
AcDbPolyline
 90
        3
 70
   128
 43
0.0
 10
-17.4145823586
 20
-55.9826554388
 10
-17.5434542505
 20
-56.0276711146
 10
-17.68646641
 20
-56.0575644195
  0
LINE
  5
2E2
330
1F
100
AcDbEntity
  8
0
100
AcDbLine
 10
-21.6944410548
 20
-66.3630950025
 30
0.0
 11
-21.7515213878
 21
-66.3960467773
 31
0.0
  0
LINE
  5
2E3
330
1F
100
AcDbEntity
  8
0
100
AcDbLine
 10
-23.6038121596
 20
-65.3267420756
 30
0.0
 11
-21.7515213878
 21
-66.3960467773
 31
0.0
  0
LINE
  5
2E4
330
1F
100
AcDbEntity
  8
0
100
AcDbLine
 10
-14.6804530755
 20
-63.130546875
 30
0.0
 11
-21.7515213878
 21
-67.2125877231
 31
0.0
  0
LINE
  5
2E5
330
1F
100
AcDbEntity
  8
0
100
AcDbLine
 10
-21.7515213878
 20
-67.2125877231
 30
0.0
 11
-21.7515213878
 21
-66.3960467773
 31
0.0
  0
LINE
  5
2E6
330
1F
100
AcDbEntity
  8
0
100
AcDbLine
 10
-30.3214402931
 20
-62.2652788455
 30
0.0
 11
-21.7515213878
 21
-67.2125877231
 31
0.0
  0
LINE
  5
2E7
330
1F
100
AcDbEntity
  8
0
100
AcDbLine
 10
-138.0135187114
 20
44.7478758897
 30
0.0
 11
-137.9564383784
 21
44.7808276645
 31
0.0
  0
LINE
  5
2E8
330
1F
100
AcDbEntity
  8
0
100
AcDbLine
 10
-138.7206255262
 20
45.156079965
 30
0.0
 11
-138.0135187114
 21
44.7478758897
 31
0.0
  0
LINE
  5
2E9
330
1F
100
AcDbEntity
  8
0
100
AcDbLine
 10
-138.7206255262
 20
45.156079965
 30
0.0
 11
-137.956447845
 21
45.5972303502
 31
0.0
  0
LINE
  5
2EA
330
1F
100
AcDbEntity
  8
0
100
AcDbLine
 10
-138.0135187114
 20
44.7478758897
 30
0.0
 11
-138.0135187114
 21
42.4866075432
 31
0.0
  0
LINE
  5
2EB
330
1F
100
AcDbEntity
  8
0
100
AcDbLine
 10
-138.7206255262
 20
45.156079965
 30
0.0
 11
-138.7206255262
 21
42.0227295051
 31
0.0
  0
LINE
  5
2EC
330
1F
100
AcDbEntity
  8
0
100
AcDbLine
 10
-139.1802448529
 20
40.6291577527
 30
0.0
 11
-139.1802448529
 21
34.5475793564
 31
0.0
  0
ARC
  5
2ED
330
1F
100
AcDbEntity
  8
0
100
AcDbCircle
 10
-137.6714842923
 20
40.8739022313
 30
0.0
 40
1.528482348272148
100
AcDbArc
 50
50.7967311518
 51
189.2140090506
  0
LINE
  5
2EE
330
1F
100
AcDbEntity
  8
0
100
AcDbLine
 10
-26.3967181865
 20
-21.6214937679
 30
0.0
 11
-136.7053710835
 21
42.0583360863
 31
0.0
  0
ARC
  5
2EF
330
1F
100
AcDbEntity
  8
0
100
AcDbCircle
 10
-29.2950833946
 20
-26.152603443
 30
0.0
 40
5.378798729049223
100
AcDbArc
 50
2.6053816169
 51
57.3946185287
  0
LINE
  5
2F0
330
1F
100
AcDbEntity
  8
0
100
AcDbLine
 10
-23.9218447052
 20
-65.5103309117
 30
0.0
 11
-23.9218447052
 21
-25.9081003672
 31
0.0
  0
LINE
  5
2F1
330
1F
100
AcDbEntity
  8
0
100
AcDbLine
 10
-29.9322487207
 20
-62.0405985289
 30
0.0
 11
-23.9218447052
 21
-65.5103309117
 31
0.0
  0
LINE
  5
2F2
330
1F
100
AcDbEntity
  8
0
100
AcDbLine
 10
-29.9322487207
 20
-62.0405985289
 30
0.0
 11
-29.9322487207
 21
-30.2675707137
 31
0.0
  0
LWPOLYLINE
  5
2F3
330
1F
100
AcDbEntity
  8
0
100
AcDbPolyline
 90
       16
 70
   128
 43
0.0
 10
-29.9322487207
 20
-30.2675707137
 10
-30.3342980453
 20
-28.9908581657
 10
-30.858741818
 20
-27.7185632243
 10
-31.4952962078
 20
-26.4756250655
 10
-32.2314857475
 20
-25.2864031871
 10
-33.0528962148
 20
-24.1741983403
 10
-33.9434064403
 20
-23.1608206092
 10
-34.8855781653
 20
-22.2661240435
 10
-35.8609405336
 20
-21.5076462262
 10
-36.8503799492
 20
-20.9002524133
 10
-37.8344983252
 20
-20.4558481125
 10
-38.7940134784
 20
-20.1831418567
 10
-39.7101068409
 20
-20.0874855385
 10
-40.5648449287
 20
-20.1707406095
 10
-41.3414638328
 20
-20.4312826688
 10
-41.5786452228
 20
-20.5557926996
  0
ARC
  5
2F4
330
1F
100
AcDbEntity
  8
0
100
AcDbCircle
 10
-28.5879764975
 20
-25.7443993202
 30
0.0
 40
5.378798729049151
100
AcDbArc
 50
2.6053816169
 51
57.3946185287
  0
LINE
  5
2F5
330
1F
100
AcDbEntity
  8
0
100
AcDbLine
 10
-23.9218447052
 20
-65.5103309117
 30
0.0
 11
-23.2147378081
 21
-65.1021267889
 31
0.0
  0
LINE
  5
2F6
330
1F
100
AcDbEntity
  8
0
100
AcDbLine
 10
-23.2147378081
 20
-65.1021267889
 30
0.0
 11
-23.2147378081
 21
-25.4998962443
 31
0.0
  0
LINE
  5
2F7
330
1F
100
AcDbEntity
  8
0
100
AcDbLine
 10
-25.6896112894
 20
-21.2132896451
 30
0.0
 11
-135.9982641864
 21
42.4665402091
 31
0.0
  0
LINE
  5
2F8
330
1F
100
AcDbEntity
  8
0
100
AcDbLine
 10
-31.1696854613
 20
-30.9819277386
 30
0.0
 11
-29.9322487207
 21
-30.2675707137
 31
0.0
  0
LINE
  5
2F9
330
1F
100
AcDbEntity
  8
0
100
AcDbLine
 10
-31.1696854613
 20
-62.7549555538
 30
0.0
 11
-29.9322487207
 21
-62.0405985289
 31
0.0
  0
ARC
  5
2FA
330
1F
100
AcDbEntity
  8
0
100
AcDbCircle
 10
-137.0234838166
 20
41.0354543613
 30
0.0
 40
1.760420970616658
100
AcDbArc
 50
54.3824600563
 51
114.3071301093
  0
LINE
  5
2FB
330
1F
100
AcDbEntity
  8
0
  6
Continuous
 62
     8
370
     0
100
AcDbLine
 10
-23.2147285885
 20
-26.6430730733
 30
0.0
 11
-22.5783325787
 21
-26.2756894768
 31
0.0
  0
LINE
  5
2FC
330
1F
100
AcDbEntity
  8
0
  6
Continuous
 62
     8
370
     0
100
AcDbLine
 10
-26.8209802174
 20
-20.5601642651
 30
0.0
 11
-26.1138736496
 21
-20.1519603324
 31
0.0
  0
LINE
  5
2FD
330
1F
100
AcDbEntity
  8
0
  6
Continuous
 62
     8
370
     0
100
AcDbLine
 10
-23.2147285885
 20
-64.203950493
 30
0.0
 11
-22.5783325787
 21
-63.8365668965
 31
0.0
  0
LINE
  5
2FE
330
1F
100
AcDbEntity
  8
0
  6
Continuous
 62
     8
370
     0
100
AcDbLine
 10
-135.0083147281
 20
41.8950545512
 30
0.0
 11
-134.3012081602
 21
42.3032584839
 31
0.0
  0
LINE
  5
2FF
330
1F
100
AcDbEntity
  8
0
  6
Continuous
 62
     8
370
     0
100
AcDbLine
 10
-40.3620688673
 20
-33.1124425625
 30
0.0
 11
-40.3620688673
 21
-76.3891066024
 31
0.0
  0
LINE
  5
300
330
1F
100
AcDbEntity
  8
0
  6
Continuous
 62
     8
370
     0
100
AcDbLine
 10
-38.2407521273
 20
-76.731471559
 30
0.0
 11
-38.2407521273
 21
-32.7700745645
 31
0.0
  0
LINE
  5
301
330
1F
100
AcDbEntity
  8
0
  6
Continuous
 62
     8
370
     0
100
AcDbLine
 10
-38.2407521273
 20
-32.7700745645
 30
0.0
 11
-38.9478603415
 21
-32.3618696814
 31
0.0
  0
LINE
  5
302
330
1F
100
AcDbEntity
  8
0
  6
Continuous
 62
     8
370
     0
100
AcDbLine
 10
-39.0049271744
 20
-31.4464815192
 30
0.0
 11
-39.0049271744
 21
-32.263020944
 31
0.0
  0
LINE
  5
303
330
1F
100
AcDbEntity
  8
0
  6
Continuous
 62
     8
370
     0
100
AcDbLine
 10
-39.0049271744
 20
-31.4464815192
 30
0.0
 11
-155.2098534308
 21
35.6371944925
 31
0.0
  0
LINE
  5
304
330
1F
100
AcDbEntity
  8
0
  6
Continuous
 62
     8
370
     0
100
AcDbLine
 10
-155.9740307777
 20
33.6289224184
 30
0.0
 11
-40.3620688673
 21
-33.1124425625
 31
0.0
  0
LINE
  5
305
330
1F
100
AcDbEntity
  8
0
  6
Continuous
 62
     8
370
     0
100
AcDbLine
 10
-40.3620688673
 20
-76.3891066024
 30
0.0
 11
-155.9740307777
 21
-9.6477416214
 31
0.0
  0
LINE
  5
306
330
1F
100
AcDbEntity
  8
0
  6
Continuous
 62
     8
370
     0
100
AcDbLine
 10
-155.9740307777
 20
-9.6477416214
 30
0.0
 11
-155.9740307777
 21
33.6289224184
 31
0.0
  0
LINE
  5
307
330
1F
100
AcDbEntity
  8
0
  6
Continuous
 62
     8
370
     0
100
AcDbLine
 10
-39.0049271744
 20
-77.1727668753
 30
0.0
 11
-39.0049271744
 21
-76.9108117441
 31
0.0
  0
LINE
  5
308
330
1F
100
AcDbEntity
  8
0
  6
Continuous
 62
     8
370
     0
100
AcDbLine
 10
-155.9740313127
 20
35.1959008128
 30
0.0
 11
-155.747326378
 21
35.0650268397
 31
0.0
  0
LINE
  5
309
330
1F
100
AcDbEntity
  8
0
  6
Continuous
 62
     8
370
     0
100
AcDbLine
 10
-13.9162780284
 20
-18.7278545643
 30
0.0
 11
-14.6233862426
 21
-18.3196496811
 31
0.0
  0
LINE
  5
30A
330
1F
100
AcDbEntity
  8
0
  6
Continuous
 62
     8
370
     0
100
AcDbLine
 10
-13.9162780284
 20
-18.7278545643
 30
0.0
 11
-13.9162780284
 21
-62.6892515588
 31
0.0
  0
LINE
  5
30B
330
1F
100
AcDbEntity
  8
0
  6
Continuous
 62
     8
370
     0
100
AcDbLine
 10
-14.6804530755
 20
-17.4042615189
 30
0.0
 11
-14.6804530755
 21
-18.2208009437
 31
0.0
  0
LINE
  5
30C
330
1F
100
AcDbEntity
  8
0
  6
Continuous
 62
     8
370
     0
100
AcDbLine
 10
-130.8853793319
 20
49.6794144927
 30
0.0
 11
-14.6804530755
 21
-17.4042615189
 31
0.0
  0
LINE
  5
30D
330
1F
100
AcDbEntity
  8
0
  6
Continuous
 62
     8
370
     0
100
AcDbLine
 10
-14.6233822913
 20
-18.3196529123
 30
0.0
 11
-14.6233822913
 21
-18.253815077
 31
0.0
  0
LINE
  5
30E
330
1F
100
AcDbEntity
  8
0
  6
Continuous
 62
     8
370
     0
100
AcDbLine
 10
-14.6233822913
 20
-18.253815077
 30
0.0
 11
-14.6805123445
 21
-18.2208345993
 31
0.0
  0
LINE
  5
30F
330
1F
100
AcDbEntity
  8
0
  6
Continuous
 62
     8
370
     0
100
AcDbLine
 10
-14.6804530755
 20
-63.130546875
 30
0.0
 11
-14.6804530755
 21
-63.130403908
 31
0.0
  0
LINE
  5
310
330
1F
100
AcDbEntity
  8
0
  6
Continuous
 62
     8
370
     0
100
AcDbLine
 10
-23.9218447052
 20
-25.9081003672
 30
0.0
 11
-23.2147378081
 21
-25.4998962443
 31
0.0
  0
LINE
  5
311
330
1F
100
AcDbEntity
  8
0
  6
Continuous
 62
     8
370
     0
100
AcDbLine
 10
-26.3967181865
 20
-21.6214937679
 30
0.0
 11
-25.6896112894
 21
-21.2132896451
 31
0.0
  0
LINE
  5
312
330
1F
100
AcDbEntity
  8
0
  6
Continuous
 62
     8
370
     0
100
AcDbLine
 10
-136.7053710835
 20
42.0583360863
 30
0.0
 11
-135.9982641864
 21
42.4665402091
 31
0.0
  0
LINE
  5
313
330
1F
100
AcDbEntity
  8
0
100
AcDbLine
 10
430.9386137137998
 20
-34.21606816330001
 30
0.0
 11
431.6458338804998
 21
-34.62447189630001
 31
0.0
  0
LINE
  5
314
330
1F
100
AcDbEntity
  8
0
100
AcDbLine
 10
438.7180522910998
 20
-34.6244728755
 30
0.0
 11
439.4252727770997
 21
-34.21606743749999
 31
0.0
  0
LINE
  5
315
330
1F
100
AcDbEntity
  8
0
100
AcDbLine
 10
429.1819426166998
 20
-15.43642502110001
 30
0.0
 11
429.1819426166998
 21
-31.76724089379999
 31
0.0
  0
LINE
  5
316
330
1F
100
AcDbEntity
  8
0
100
AcDbLine
 10
441.1819439338998
 20
-31.76724203430001
 30
0.0
 11
441.1819439338998
 21
-15.4364261616
 31
0.0
  0
ARC
  5
317
330
1F
100
AcDbEntity
  8
0
100
AcDbCircle
 10
420.3327006173998
 20
-11.76245619330001
 30
0.0
 40
1.000000000000028
100
AcDbArc
 50
180.0
 51
240.0026882662987
  0
LINE
  5
318
330
1F
100
AcDbEntity
  8
0
100
AcDbLine
 10
419.3326992595997
 20
-10.70675496440001
 30
0.0
 11
419.3326992595997
 21
-11.7624554057
 31
0.0
  0
LINE
  5
319
330
1F
100
AcDbEntity
  8
0
100
AcDbLine
 10
419.8327413240997
 20
-12.6285050029
 30
0.0
 11
429.1819422874997
 21
-18.0256838368
 31
0.0
  0
LINE
  5
31A
330
1F
100
AcDbEntity
  8
0
100
AcDbLine
 10
441.1819455802998
 20
-24.95313828280001
 30
0.0
 11
447.0563522522998
 21
-28.34436107030001
 31
0.0
  0
ARC
  5
31B
330
1F
100
AcDbEntity
  8
0
100
AcDbCircle
 10
418.1406695956998
 20
-11.39480714289999
 30
0.0
 40
1.0
100
AcDbArc
 50
180.0
 51
240.0026882662979
  0
LINE
  5
31C
330
1F
100
AcDbEntity
  8
0
100
AcDbLine
 10
417.1406680102998
 20
-9.106622809399994
 30
0.0
 11
417.1406680102998
 21
-11.39480621889999
 31
0.0
  0
LINE
  5
31D
330
1F
100
AcDbEntity
  8
0
100
AcDbLine
 10
417.6407100748997
 20
-12.26085581609999
 30
0.0
 11
429.1819422874997
 21
-18.92346735480001
 31
0.0
  0
LINE
  5
31E
330
1F
100
AcDbEntity
  8
0
100
AcDbLine
 10
441.1819403118998
 20
-25.8509187594
 30
0.0
 11
456.8851343022998
 21
-34.9161796905
 31
0.0
  0
LINE
  5
31F
330
1F
100
AcDbEntity
  8
0
100
AcDbLine
 10
448.0562730622997
 20
-28.34436259099999
 30
0.0
 11
455.9452299459998
 21
-23.79016472090001
 31
0.0
  0
ARC
  5
320
330
1F
100
AcDbEntity
  8
0
100
AcDbCircle
 10
447.5563116930998
 20
-27.47831234590001
 30
0.0
 40
1.000000000000021
100
AcDbArc
 50
240.0026882664001
 51
299.9973117336984
  0
LINE
  5
321
330
1F
100
AcDbEntity
  8
0
100
AcDbLine
 10
459.2992702235998
 20
-34.91618197150001
 30
0.0
 11
460.5767214455998
 21
-34.1787250783
 31
0.0
  0
SPLINE
  5
322
330
1F
100
AcDbEntity
  8
0
100
AcDbSpline
210
0.0
220
0.0
230
1.0
 70
     8
 71
     3
 72
    12
 73
     8
 74
     0
 42
0.000000001
 43
0.00000001
 40
0.0
 40
0.0
 40
0.0
 40
0.0
 40
0.1394914907956265
 40
0.3559417473784108
 40
0.5774123418393536
 40
0.8060717732165098
 40
1.0
 40
1.0
 40
1.0
 40
1.0
 10
456.8851343022934
 20
-34.916179690505
 30
0.0
 10
456.986360807202
 20
-34.9678457370068
 30
0.0
 10
457.2446614306499
 20
-35.09968247319131
 30
0.0
 10
457.723476487983
 20
-35.21315263789711
 30
0.0
 10
458.2987015071412
 20
-35.23093755229939
 30
0.0
 10
458.8459201849315
 20
-35.13707662715709
 30
0.0
 10
459.1566666488004
 20
-34.98566551593629
 30
0.0
 10
459.299270223594
 20
-34.91618197152289
 30
0.0
  0
LINE
  5
323
330
1F
100
AcDbEntity
  8
0
100
AcDbLine
 10
506.3569687656998
 20
-62.40887512450001
 30
0.0
 11
506.8569755980998
 21
-62.12022732419999
 31
0.0
  0
LINE
  5
324
330
1F
100
AcDbEntity
  8
0
100
AcDbLine
 10
412.3293648840997
 20
-6.847282076099987
 30
0.0
 11
412.7781583563998
 21
-6.588199119199999
 31
0.0
  0
LINE
  5
325
330
1F
100
AcDbEntity
  8
0
100
AcDbLine
 10
525.3781641853998
 20
-9.4753845093
 30
0.0
 11
409.3468810668998
 21
57.5080494525
 31
0.0
  0
LINE
  5
326
330
1F
100
AcDbEntity
  8
0
100
AcDbLine
 10
525.9185579061998
 20
-54.17217294950001
 30
0.0
 11
525.9185579061998
 21
-10.41133131239999
 31
0.0
  0
LINE
  5
327
330
1F
100
AcDbEntity
  8
0
100
AcDbLine
 10
382.9821308283998
 20
42.2878103181
 30
0.0
 11
382.9821308283998
 21
34.2384627073
 31
0.0
  0
LINE
  5
328
330
1F
100
AcDbEntity
  8
0
100
AcDbLine
 10
382.9821308283998
 20
17.04914487729999
 30
0.0
 11
382.9821308283998
 21
16.4402509856
 31
0.0
  0
LINE
  5
329
330
1F
100
AcDbEntity
  8
0
100
AcDbLine
 10
382.9821308283998
 20
-0.4640567595999983
 30
0.0
 11
382.9821308283998
 21
-1.473031319
 31
0.0
  0
LINE
  5
32A
330
1F
100
AcDbEntity
  8
0
100
AcDbLine
 10
383.5225297042998
 20
-2.4089795772
 30
0.0
 11
429.1819416288998
 21
-28.7675970224
 31
0.0
  0
LINE
  5
32B
330
1F
100
AcDbEntity
  8
0
100
AcDbLine
 10
439.0226986521998
 20
-34.44854512949999
 30
0.0
 11
499.5538128227998
 21
-69.39241353899999
 31
0.0
  0
LINE
  5
32C
330
1F
100
AcDbEntity
  8
0
100
AcDbLine
 10
393.5156511554998
 20
45.74996383120001
 30
0.0
 11
392.8085442583998
 21
45.34175970840001
 31
0.0
  0
LINE
  5
32D
330
1F
100
AcDbEntity
  8
0
100
AcDbLine
 10
406.8974151691998
 20
16.1993702356
 30
0.0
 11
406.8974151691998
 21
48.0444625562
 31
0.0
  0
LINE
  5
32E
330
1F
100
AcDbEntity
  8
0
100
AcDbLine
 10
406.8974151691998
 20
16.1993702356
 30
0.0
 11
378.6131445538998
 21
-0.1287916359000008
 31
0.0
  0
LINE
  5
32F
330
1F
100
AcDbEntity
  8
0
100
AcDbLine
 10
378.6131445538998
 20
-0.1287916359000008
 30
0.0
 11
378.6131445538998
 21
31.7163006847
 31
0.0
  0
LINE
  5
330
330
1F
100
AcDbEntity
  8
0
100
AcDbLine
 10
406.8974151691998
 20
48.0444625562
 30
0.0
 11
378.6131445538998
 21
31.7163006847
 31
0.0
  0
LWPOLYLINE
  5
331
330
1F
100
AcDbEntity
  8
0
100
AcDbPolyline
 90
       24
 70
   128
 43
0.0
 10
401.5941147580997
 20
26.89655333730001
 10
401.0885606759998
 20
26.68494418029999
 10
400.6205008254998
 20
26.64951022459999
 10
400.2246503802997
 20
26.7928803648
 10
399.9303659374998
 20
27.1044207652
 10
399.7594742961998
 20
27.561026325
 10
399.7246498040998
 20
28.1288325374
 10
399.8284752725998
 20
28.7657281473
 10
400.0632496824998
 20
29.424476893
 10
400.4115611166998
 20
30.0562226222
 10
400.8475775085998
 20
30.61411193870001
 10
401.3389610298998
 20
31.056768471
 10
401.8492684861998
 20
31.3513626949
 10
402.3406520075998
 20
31.4760455002
 10
402.7766677408998
 20
31.42156961400001
 10
403.1249798336997
 20
31.191976087
 10
403.3597542434998
 20
30.8042921051
 10
403.4635790534998
 20
30.2872704495
 10
403.4287545613998
 20
29.6792567343
 10
403.2578629200998
 20
29.0253438853
 10
402.9635791357998
 20
28.37403027960001
 10
402.5677280320998
 20
27.77362056360001
 10
402.0996688400998
 20
27.26864449910001
 10
401.5941147580997
 20
26.89655333730001
  0
LWPOLYLINE
  5
332
330
1F
100
AcDbEntity
  8
0
100
AcDbPolyline
 90
       24
 70
   128
 43
0.0
 10
383.9164449649998
 20
16.6914517874
 10
383.4108908828998
 20
16.4798426305
 10
382.9428316909998
 20
16.44440905490001
 10
382.5469805871998
 20
16.58777881490001
 10
382.2526968028998
 20
16.8993195955
 10
382.0818051616998
 20
17.3559251553
 10
382.0469806694998
 20
17.9237313677
 10
382.1508054795997
 20
18.5606265974
 10
382.3855798893998
 20
19.2193753431
 10
382.7338919821998
 20
19.8511214525
 10
383.1699077154998
 20
20.4090103889
 10
383.6612912367998
 20
20.85166692120001
 10
384.1715986930998
 20
21.1462611451
 10
384.6629822144998
 20
21.2709439504
 10
385.0989986062998
 20
21.21646844439999
 10
385.4473100405997
 20
20.98687453709999
 10
385.6820844503998
 20
20.5991905552
 10
385.7859099189998
 20
20.0821692798
 10
385.7510854268997
 20
19.4741555646
 10
385.5801937855998
 20
18.8202427156
 10
385.2859093427998
 20
18.1689287298
 10
384.8900588975998
 20
17.5685193939
 10
384.4219990470998
 20
17.0635429492
 10
383.9164449649998
 20
16.6914517874
  0
LINE
  5
333
330
1F
100
AcDbEntity
  8
0
100
AcDbLine
 10
409.3722888150998
 20
14.7706560908
 30
0.0
 11
409.3722888150998
 21
46.61574841140001
 31
0.0
  0
LINE
  5
334
330
1F
100
AcDbEntity
  8
0
100
AcDbLine
 10
409.3722888150998
 20
14.7706560908
 30
0.0
 11
406.8974151691998
 21
16.1993702356
 31
0.0
  0
LINE
  5
335
330
1F
100
AcDbEntity
  8
0
100
AcDbLine
 10
409.3722888150998
 20
46.61574841140001
 30
0.0
 11
406.8974151691998
 21
48.0444625562
 31
0.0
  0
LINE
  5
336
330
1F
100
AcDbEntity
  8
0
100
AcDbLine
 10
391.6946196804998
 20
4.565554921200004
 30
0.0
 11
395.2301536720997
 21
2.524534592200013
 31
0.0
  0
LINE
  5
337
330
1F
100
AcDbEntity
  8
0
100
AcDbLine
 10
381.0880181997998
 20
-1.557505780599996
 30
0.0
 11
391.6946196804998
 21
4.565554921200004
 31
0.0
  0
LINE
  5
338
330
1F
100
AcDbEntity
  8
0
100
AcDbLine
 10
378.6131445538998
 20
-0.1287916359000008
 30
0.0
 11
381.0880181997998
 21
-1.557505780599996
 31
0.0
  0
LINE
  5
339
330
1F
100
AcDbEntity
  8
0
100
AcDbLine
 10
398.7656873342997
 20
8.647595389000003
 30
0.0
 11
409.3722888150998
 21
14.7706560908
 31
0.0
  0
LINE
  5
33A
330
1F
100
AcDbEntity
  8
0
100
AcDbLine
 10
402.3012213258997
 20
6.606575060099999
 30
0.0
 11
398.7656873342997
 21
8.647595389000003
 31
0.0
  0
LINE
  5
33B
330
1F
100
AcDbEntity
  8
0
100
AcDbLine
 10
395.2301536720997
 20
2.524534592200013
 30
0.0
 11
402.3012213258997
 21
6.606575060099999
 31
0.0
  0
ARC
  5
33C
330
1F
100
AcDbEntity
  8
0
100
AcDbCircle
 10
408.4738898799998
 20
25.0887770266
 30
0.0
 40
8.503183463815947
100
AcDbArc
 50
133.1508945031998
 51
166.8544870321
  0
LWPOLYLINE
  5
33D
330
1F
100
AcDbEntity
  8
0
100
AcDbPolyline
 90
       12
 70
   128
 43
0.0
 10
400.4379052019998
 20
26.6901132812
 10
400.2485637776998
 20
26.92072906200001
 10
400.0776721364998
 20
27.3773346218
 10
400.0428476442997
 20
27.9451408342
 10
400.1466731128997
 20
28.5820364441
 10
400.3814475226998
 20
29.24078518979999
 10
400.7297589569998
 20
29.872530919
 10
401.1657753487998
 20
30.43042023549999
 10
401.6571588701997
 20
30.8730767678
 10
402.1674663264998
 20
31.16767099170001
 10
402.6588498477998
 20
31.292353797
 10
403.0685218251998
 20
31.2469681223
  0
LINE
  5
33E
330
1F
100
AcDbEntity
  8
0
100
AcDbLine
 10
402.3012213258997
 20
6.606575060099999
 30
0.0
 11
402.3012213258997
 21
7.1778621606
 31
0.0
  0
LINE
  5
33F
330
1F
100
AcDbEntity
  8
0
100
AcDbLine
 10
402.3012213258997
 20
8.989841426300003
 30
0.0
 11
402.3012213258997
 21
9.121637250000006
 31
0.0
  0
ARC
  5
340
330
1F
100
AcDbEntity
  8
0
100
AcDbCircle
 10
408.7717565316998
 20
24.9174478721
 30
0.0
 40
8.440133188776235
100
AcDbArc
 50
131.9855177258002
 51
168.2692168280001
  0
ARC
  5
341
330
1F
100
AcDbEntity
  8
0
100
AcDbCircle
 10
390.7962207454998
 20
14.8836758569
 30
0.0
 40
8.503183463814924
100
AcDbArc
 50
133.1508945032002
 51
166.8544870321001
  0
LWPOLYLINE
  5
342
330
1F
100
AcDbEntity
  8
0
100
AcDbPolyline
 90
       12
 70
   128
 43
0.0
 10
382.7602360673998
 20
16.4850121116
 10
382.5708946431998
 20
16.71562789230001
 10
382.4000030018998
 20
17.1722334521
 10
382.3651785097998
 20
17.7400396645
 10
382.4690033197998
 20
18.37693489420001
 10
382.7037777296998
 20
19.0356836399
 10
383.0520898224997
 20
19.6674297493
 10
383.4881055557997
 20
20.2253186857
 10
383.9794890770997
 20
20.667975218
 10
384.4897965333998
 20
20.9625694419
 10
384.9811800547998
 20
21.0872522472
 10
385.3908520320998
 20
21.0418665724
  0
ARC
  5
343
330
1F
100
AcDbEntity
  8
0
100
AcDbCircle
 10
391.0940854574998
 20
14.71234810910001
 30
0.0
 40
8.44013100356755
100
AcDbArc
 50
131.9855193750999
 51
168.2692235004
  0
ARC
  5
344
330
1F
100
AcDbEntity
  8
0
100
AcDbCircle
 10
437.6984882358997
 20
-30.93409473720001
 30
0.0
 40
3.708521222404875
100
AcDbArc
 50
297.7507543654006
 51
331.7794514052
  0
LWPOLYLINE
  5
345
330
1F
100
AcDbEntity
  8
0
100
AcDbPolyline
 90
       27
 70
   128
 43
0.0
 10
430.9386137137998
 20
-34.21606816330001
 10
430.9089334420997
 20
-34.19880751069999
 10
430.2424347041998
 20
-33.73351882360001
 10
429.7260205646998
 20
-33.2084859055
 10
429.3753828219998
 20
-32.63966219549999
 10
429.2011731041998
 20
-32.04432925559999
 10
429.2086857798998
 20
-31.4405772687
 10
429.3976944744998
 20
-30.84675160649999
 10
429.7624520700998
 20
-30.28089321979999
 10
430.2918798722998
 20
-29.76019756220001
 10
430.9698897236998
 20
-29.30048496449999
 10
431.7758822620998
 20
-28.91572443250001
 10
432.6853640023998
 20
-28.61760442010001
 10
433.6707031552997
 20
-28.41518470450001
 10
434.7019621228998
 20
-28.31461652550001
 10
435.7478038999998
 20
-28.31895388109999
 10
436.7764514092997
 20
-28.42806504239999
 10
437.7566511161998
 20
-28.6386358805
 10
438.6586200160998
 20
-28.9442679501
 10
439.4549531085997
 20
-29.33567541740001
 10
440.1214518463997
 20
-29.80096410440001
 10
440.6378659858998
 20
-30.32599702260001
 10
440.9885037286998
 20
-30.89482073260001
 10
441.1627134464998
 20
-31.4901536724
 10
441.1552007706998
 20
-32.09390565929999
 10
440.9661920760998
 20
-32.6877313215
 10
440.9661920760998
 20
-32.6877313215
  0
LWPOLYLINE
  5
346
330
1F
100
AcDbEntity
  8
0
100
AcDbPolyline
 90
       33
 70
   128
 43
0.0
 10
440.0021509110998
 20
-33.35085889109999
 10
440.1687593788998
 20
-32.79325227679999
 10
440.1437287606998
 20
-32.22759671060001
 10
439.9280185558998
 20
-31.6756283924
 10
439.5299181933998
 20
-31.15855945819999
 10
438.9647279669998
 20
-30.6962615658
 10
438.2541679917998
 20
-30.30650004309999
 10
437.4255441571997
 20
-30.00425357430001
 10
436.5106993950998
 20
-29.80113653250001
 10
435.5447938905997
 20
-29.7049565568
 10
434.5649415658997
 20
-29.71940680520001
 10
433.6088007947998
 20
-29.8439336559
 10
432.7131153148998
 20
-30.0737517707
 10
431.9123045313997
 20
-30.4000283355
 10
431.2371437929997
 20
-30.81022521259999
 10
430.7135823052998
 20
-31.2885806157
 10
430.3617356394998
 20
-31.81670897020001
 10
430.1951271716998
 20
-32.37431558450001
 10
430.2201577898998
 20
-32.93997115069999
 10
430.4358679947998
 20
-33.4919394689
 10
430.8339683572998
 20
-34.00900840310001
 10
431.3991585835998
 20
-34.4713062955
 10
432.1097185587998
 20
-34.8610678183
 10
432.9383423933998
 20
-35.16331428699999
 10
433.8531871555998
 20
-35.36643132890001
 10
434.8190926599998
 20
-35.46261130459999
 10
435.7989449846998
 20
-35.44816105609999
 10
436.7550857558998
 20
-35.32363420550001
 10
437.6507712356998
 20
-35.09381609069999
 10
438.4515820191998
 20
-34.76753952589999
 10
439.1267401233998
 20
-34.35734112809999
 10
439.6503042452998
 20
-33.8789872456
 10
440.0021509110998
 20
-33.35085889109999
  0
LWPOLYLINE
  5
347
330
1F
100
AcDbEntity
  8
0
100
AcDbPolyline
 90
       18
 70
   128
 43
0.0
 10
429.3976944744998
 20
-14.51593573380001
 10
429.7624520700998
 20
-13.95007734710001
 10
430.2918798722998
 20
-13.42938168949999
 10
430.9698897236998
 20
-12.9696690918
 10
431.7758822620998
 20
-12.5849085598
 10
432.6853640023998
 20
-12.28678854739999
 10
433.6707031552997
 20
-12.08436883179999
 10
434.7019621228998
 20
-11.9838006528
 10
435.7478038999998
 20
-11.9881380084
 10
436.7764514092997
 20
-12.09724916970001
 10
437.7566511161998
 20
-12.30782000779999
 10
438.6586200160998
 20
-12.61345207740001
 10
439.4549531085997
 20
-13.0048595447
 10
440.1214518463997
 20
-13.47014823169999
 10
440.6378659858998
 20
-13.99518114989999
 10
440.9885037286998
 20
-14.5640048599
 10
441.1627134464998
 20
-15.15933779970001
 10
441.1819439338998
 20
-15.4364261616
  0
LWPOLYLINE
  5
348
330
1F
100
AcDbEntity
  8
0
100
AcDbPolyline
 90
        3
 70
   128
 43
0.0
 10
429.1819426166998
 20
-15.43642502110001
 10
429.2086857798998
 20
-15.10976139600001
 10
429.3976944744998
 20
-14.51593573380001
  0
LINE
  5
349
330
1F
100
AcDbEntity
  8
0
100
AcDbLine
 10
437.2927265958998
 20
-8.490607768899991
 30
0.0
 11
451.8100663198998
 21
-16.87128960370001
 31
0.0
  0
ELLIPSE
  5
34A
330
1F
100
AcDbEntity
  8
0
100
AcDbEllipse
 10
420.3327006173998
 20
-10.1293745696
 30
0.0
 11
0.7071355117875271
 21
1.224728280626238
 31
0.0
210
0.0
220
0.0
230
1.0
 40
0.5773346305
 41
2.096908729508
 42
2.356235122223396
  0
LWPOLYLINE
  5
34B
330
1F
100
AcDbEntity
  8
0
100
AcDbPolyline
 90
        3
 70
   128
 43
0.0
 10
392.0835282845998
 20
43.3269399015
 10
392.0807518814997
 20
43.3125912153
 10
392.0128175927998
 20
42.5553121805
  0
LINE
  5
34C
330
1F
100
AcDbEntity
  8
0
100
AcDbLine
 10
501.2608125416998
 20
-58.88963123889999
 30
0.0
 11
506.5641188796998
 21
-61.95116482130001
 31
0.0
  0
LINE
  5
34D
330
1F
100
AcDbEntity
  8
0
100
AcDbLine
 10
501.1314427901998
 20
-58.8011650416
 30
0.0
 11
501.2608125416998
 21
-58.88963123889999
 31
0.0
  0
LINE
  5
34E
330
1F
100
AcDbEntity
  8
0
100
AcDbLine
 10
392.0128175927998
 20
42.5553121805
 30
0.0
 11
392.0128175927998
 21
39.4517673032
 31
0.0
  0
LINE
  5
34F
330
1F
100
AcDbEntity
  8
0
100
AcDbLine
 10
391.3057110249998
 20
42.14710824780001
 30
0.0
 11
391.3057110249998
 21
39.0435633705
 31
0.0
  0
ARC
  5
350
330
1F
100
AcDbEntity
  8
0
100
AcDbCircle
 10
393.9143868009998
 20
42.3743249115
 30
0.0
 40
2.618552408626953
100
AcDbArc
 50
132.7625735400997
 51
184.9779215090001
  0
LINE
  5
351
330
1F
100
AcDbEntity
  8
0
100
AcDbLine
 10
500.5537059738998
 20
-59.2978351717
 30
0.0
 11
500.4243362223998
 21
-59.20936897440001
 31
0.0
  0
LINE
  5
352
330
1F
100
AcDbEntity
  8
0
100
AcDbLine
 10
500.5537059738998
 20
-59.2978351717
 30
0.0
 11
505.8570123118998
 21
-62.359368754
 31
0.0
  0
ARC
  5
353
330
1F
100
AcDbEntity
  8
0
100
AcDbCircle
 10
506.1499310731998
 20
-61.9504727522
 30
0.0
 40
0.502988410374314
100
AcDbArc
 50
234.3835156735
 51
294.3063417671025
  0
LINE
  5
354
330
1F
100
AcDbEntity
  8
0
100
AcDbLine
 10
408.5452729402998
 20
12.59475653520001
 30
0.0
 11
408.4313830800997
 21
12.660503752
 31
0.0
  0
ARC
  5
355
330
1F
100
AcDbEntity
  8
0
100
AcDbCircle
 10
401.3971575999998
 20
-10.6899317413
 30
0.0
 40
9.251710548436087
100
AcDbArc
 50
62.58192861980025
 51
105.7848765449999
  0
LINE
  5
356
330
1F
100
AcDbEntity
  8
0
100
AcDbLine
 10
384.8574567461998
 20
-1.080230677099991
 30
0.0
 11
384.7433053202998
 21
-1.014332461599992
 31
0.0
  0
LINE
  5
357
330
1F
100
AcDbEntity
  8
0
100
AcDbLine
 10
393.6391634828998
 20
1.606075505900009
 30
0.0
 11
391.1996450104998
 21
3.014379543399997
 31
0.0
  0
LINE
  5
358
330
1F
100
AcDbEntity
  8
0
100
AcDbLine
 10
402.7960236809998
 20
6.892218379599996
 30
0.0
 11
393.6391634828998
 21
1.606075505900009
 31
0.0
  0
LINE
  5
359
330
1F
100
AcDbEntity
  8
0
100
AcDbLine
 10
403.9493403334998
 20
9.941279118400004
 30
0.0
 11
403.8351889075998
 21
10.0071773339
 31
0.0
  0
ARC
  5
35A
330
1F
100
AcDbEntity
  8
0
100
AcDbCircle
 10
412.0952927740998
 20
3.237992847100003
 30
0.0
 40
2.883890927227629
100
AcDbArc
 50
180.9842677565998
 51
246.8880046859998
  0
LINE
  5
35B
330
1F
100
AcDbEntity
  8
0
100
AcDbLine
 10
410.9632799920998
 20
0.5855649137000114
 30
0.0
 11
426.1660749867998
 21
-8.190821826100006
 31
0.0
  0
LINE
  5
35C
330
1F
100
AcDbEntity
  8
0
100
AcDbLine
 10
426.1660749867998
 20
-8.190821826100006
 30
0.0
 11
420.8601782639998
 21
-11.25385080570001
 31
0.0
  0
LINE
  5
35D
330
1F
100
AcDbEntity
  8
0
100
AcDbLine
 10
420.8601782639998
 20
-11.25385080570001
 30
0.0
 11
405.6573832692998
 21
-2.477464065899994
 31
0.0
  0
LINE
  5
35E
330
1F
100
AcDbEntity
  8
0
100
AcDbLine
 10
393.6391634828998
 20
1.606075505900009
 30
0.0
 11
393.6391634828998
 21
3.239025076800004
 31
0.0
  0
LINE
  5
35F
330
1F
100
AcDbEntity
  8
0
100
AcDbLine
 10
392.8262869291998
 20
45.35200319170001
 30
0.0
 11
391.1996450104998
 21
46.2910435833
 31
0.0
  0
LINE
  5
360
330
1F
100
AcDbEntity
  8
0
100
AcDbLine
 10
506.7762456146997
 20
-62.16682759279999
 30
0.0
 11
506.7762456146997
 21
-63.70657179
 31
0.0
  0
LINE
  5
361
330
1F
100
AcDbEntity
  8
0
100
AcDbLine
 10
499.7051845462998
 20
-59.6245351238
 30
0.0
 11
506.7762456146997
 21
-63.70657179
 31
0.0
  0
LINE
  5
362
330
1F
100
AcDbEntity
  8
0
100
AcDbLine
 10
426.1660749867998
 20
-8.190821826100006
 30
0.0
 11
426.1660749867998
 21
-6.59902394400001
 31
0.0
  0
ARC
  5
363
330
1F
100
AcDbEntity
  8
0
100
AcDbCircle
 10
407.3741095987998
 20
48.1784059407
 30
0.0
 40
2.3447112622851
100
AcDbArc
 50
115.5303980010003
 51
184.4749697832
  0
ARC
  5
364
330
1F
100
AcDbEntity
  8
0
100
AcDbCircle
 10
388.2822216303998
 20
37.15689943469999
 30
0.0
 40
2.344706464993006
100
AcDbArc
 50
115.5303175161006
 51
184.4750502682002
  0
ARC
  5
365
330
1F
100
AcDbEntity
  8
0
100
AcDbCircle
 10
475.8705404374998
 20
-26.80631310160001
 30
0.0
 40
8.73558026687392
100
AcDbArc
 50
242.0235401965
 51
272.7193262861001
  0
LINE
  5
366
330
1F
100
AcDbEntity
  8
0
100
AcDbLine
 10
508.8620447443998
 20
-54.33839225009999
 30
0.0
 11
499.7051845462998
 21
-59.6245351238
 31
0.0
  0
LINE
  5
367
330
1F
100
AcDbEntity
  8
0
100
AcDbLine
 10
506.7762456146997
 20
-63.70657179
 30
0.0
 11
506.4579898224998
 21
-63.8902969481
 31
0.0
  0
LWPOLYLINE
  5
368
330
1F
100
AcDbEntity
  8
0
100
AcDbPolyline
 90
        9
 70
   128
 43
0.0
 10
466.4711618647998
 20
-37.58151391710001
 10
467.1434334036998
 20
-38.04402660529999
 10
467.6663679570997
 20
-38.56690424670001
 10
468.0240751750998
 20
-39.1342593613
 10
468.2056895673998
 20
-39.72885477200001
 10
468.2056869331998
 20
-40.332620445
 10
468.0240771507998
 20
-40.92721737639999
 10
467.6663653228998
 20
-41.49457097039999
 10
467.6653771768998
 20
-41.49579834810001
  0
LINE
  5
369
330
1F
100
AcDbEntity
  8
0
100
AcDbLine
 10
466.4711618647998
 20
-37.58151391710001
 30
0.0
 11
451.2683668699998
 21
-28.80512717729999
 31
0.0
  0
LINE
  5
36A
330
1F
100
AcDbEntity
  8
0
100
AcDbLine
 10
456.5698082099998
 20
-25.74467023540001
 30
0.0
 11
451.2683668699998
 21
-28.80512717729999
 31
0.0
  0
LINE
  5
36B
330
1F
100
AcDbEntity
  8
0
100
AcDbLine
 10
456.5698082099998
 20
-25.74467023540001
 30
0.0
 11
471.7726032046997
 21
-34.5210569752
 31
0.0
  0
LINE
  5
36C
330
1F
100
AcDbEntity
  8
0
100
AcDbLine
 10
456.5698082099998
 20
-24.15072632709999
 30
0.0
 11
456.5698082099998
 21
-25.74467023540001
 31
0.0
  0
LINE
  5
36D
330
1F
100
AcDbEntity
  8
0
100
AcDbLine
 10
451.2683668699998
 20
-28.80512717729999
 30
0.0
 11
451.2683668699998
 21
-26.4900591231
 31
0.0
  0
LINE
  5
36E
330
1F
100
AcDbEntity
  8
0
100
AcDbLine
 10
461.5214121033998
 20
-34.72408402100001
 30
0.0
 11
461.5214121033998
 21
-37.94896227359999
 31
0.0
  0
LWPOLYLINE
  5
36F
330
1F
100
AcDbEntity
  8
0
100
AcDbPolyline
 90
        3
 70
   128
 43
0.0
 10
411.3264174034998
 20
-7.079899882099994
 10
411.9225371604998
 20
-7.015747571100007
 10
412.3293648840997
 20
-6.847282076099987
  0
ARC
  5
370
330
1F
100
AcDbEntity
  8
0
100
AcDbCircle
 10
412.7508203388998
 20
-1.051947113799997
 30
0.0
 40
6.193959823933513
100
AcDbArc
 50
200.5257586408
 51
256.7049036316001
  0
ELLIPSE
  5
371
330
1F
100
AcDbEntity
  8
0
100
AcDbEllipse
 10
408.8066037153998
 20
56.0879404258
 30
0.0
 11
1.460378490006434
 21
-0.4886810180066021
 31
0.0
210
0.0
220
0.0
230
1.0
 40
0.7008315771
 41
1.015752031791516
 42
2.58654835858642
  0
ELLIPSE
  5
372
330
1F
100
AcDbEntity
  8
0
100
AcDbEllipse
 10
408.8066037153998
 20
12.8112773958
 30
0.0
 11
1.495434327794612
 21
0.2899898903568356
 31
0.0
210
0.0
220
0.0
230
1.0
 40
0.4032732426999999
 41
0.7073555234404577
 42
2.278151850235385
  0
ELLIPSE
  5
373
330
1F
100
AcDbEntity
  8
0
100
AcDbEllipse
 10
408.8066037153998
 20
12.8112773958
 30
0.0
 11
0.4996630984269927
 21
0.2436354915293037
 31
0.0
210
0.0
220
0.0
230
1.0
 40
0.0753247667
 41
0.7486863443734434
 42
2.319482671169402
  0
LINE
  5
374
330
1F
100
AcDbEntity
  8
0
100
AcDbLine
 10
409.8672638323998
 20
13.4235828324
 30
0.0
 11
409.1601569352998
 21
13.0153787096
 31
0.0
  0
ELLIPSE
  5
375
330
1F
100
AcDbEntity
  8
0
100
AcDbEllipse
 10
408.8066037153998
 20
12.8112773958
 30
0.0
 11
0.9988284297380404
 21
1.150116463053294
 31
0.0
210
0.0
220
0.0
230
1.0
 40
0.4033882451
 41
4.004983351450241
 42
5.575779678245169
  0
ELLIPSE
  5
376
330
1F
100
AcDbEntity
  8
0
100
AcDbEllipse
 10
524.4185624393998
 20
-53.93008574570001
 30
0.0
 11
0.3068251416117889
 21
1.509104183918225
 31
0.0
210
0.0
220
0.0
230
1.0
 40
0.700889028
 41
3.696496054307692
 42
5.267292381102564
  0
ELLIPSE
  5
377
330
1F
100
AcDbEntity
  8
0
100
AcDbEllipse
 10
408.8066037153998
 20
12.8112773958
 30
0.0
 11
0.4608158422367978
 21
0.3109208394244121
 31
0.0
210
0.0
220
0.0
230
1.0
 40
0.0754639589
 41
3.963690111771251
 42
5.534486438566091
  0
LINE
  5
378
330
1F
100
AcDbEntity
  8
0
100
AcDbLine
 10
400.6748756107997
 20
8.999175816000005
 30
0.0
 11
407.7459439230997
 21
13.081216664
 31
0.0
  0
LINE
  5
379
330
1F
100
AcDbEntity
  8
0
100
AcDbLine
 10
400.6748756107997
 20
8.999175816000005
 30
0.0
 11
400.6748756107997
 21
9.7497466059
 31
0.0
  0
LINE
  5
37A
330
1F
100
AcDbEntity
  8
0
100
AcDbLine
 10
400.6748756107997
 20
26.6441482764
 30
0.0
 11
400.6748756107997
 21
27.30537442000001
 31
0.0
  0
LINE
  5
37B
330
1F
100
AcDbEntity
  8
0
100
AcDbLine
 10
400.6748756107997
 20
44.4522675937
 30
0.0
 11
400.6748756107997
 21
52.9605728105
 31
0.0
  0
LINE
  5
37C
330
1F
100
AcDbEntity
  8
0
100
AcDbLine
 10
407.7459439230997
 20
57.0426136585
 30
0.0
 11
400.6748756107997
 21
52.9605728105
 31
0.0
  0
LWPOLYLINE
  5
37D
330
1F
100
AcDbEntity
  8
0
100
AcDbPolyline
 90
       20
 70
   128
 43
0.0
 10
406.3670854078998
 20
50.18846248360001
 10
406.3000376744998
 20
50.61373483289999
 10
406.1061601956998
 20
50.9155111642
 10
405.8064625169998
 20
51.0610877006
 10
405.4334214193998
 20
51.0346909152
 10
405.0274616573998
 20
50.83917977749999
 10
404.6325759798998
 20
50.49574235910001
 10
404.2915552918998
 20
50.041595501
 10
404.0413551355998
 20
49.5259502323
 10
403.9090884467998
 20
49.0046885255
 10
403.9090884467998
 20
48.53429507849999
 10
404.0413551355998
 20
48.16574371910001
 10
404.2915552918998
 20
47.938974923
 10
404.6325759798998
 20
47.8785606494
 10
405.0274616573998
 20
47.99104852959999
 10
405.4334214193998
 20
48.2642485563
 10
405.8064625169998
 20
48.6685558545
 10
406.1061601956998
 20
49.16015748629999
 10
406.3000376744998
 20
49.685778469
 10
406.3670854078998
 20
50.18846248360001
  0
LINE
  5
37E
330
1F
100
AcDbEntity
  8
0
100
AcDbLine
 10
401.3819824254998
 20
8.590971740699999
 30
0.0
 11
408.4530507378998
 21
12.6730125887
 31
0.0
  0
LINE
  5
37F
330
1F
100
AcDbEntity
  8
0
100
AcDbLine
 10
400.6748756107997
 20
8.999175816000005
 30
0.0
 11
401.3819824254998
 21
8.590971740699999
 31
0.0
  0
LINE
  5
380
330
1F
100
AcDbEntity
  8
0
100
AcDbLine
 10
408.5101218049998
 20
11.75762198210001
 30
0.0
 11
401.4390534925998
 21
7.6755811341
 31
0.0
  0
LINE
  5
381
330
1F
100
AcDbEntity
  8
0
100
AcDbLine
 10
517.6439797490998
 20
-59.40809487760001
 30
0.0
 11
524.7150480614998
 21
-55.3260540295
 31
0.0
  0
LINE
  5
382
330
1F
100
AcDbEntity
  8
0
100
AcDbLine
 10
517.6439797490998
 20
-59.40809487760001
 30
0.0
 11
451.2330114263998
 21
-21.06985891720001
 31
0.0
  0
LWPOLYLINE
  5
383
330
1F
100
AcDbEntity
  8
0
100
AcDbPolyline
 90
       21
 70
   128
 43
0.0
 10
430.0198071478998
 20
-8.823736753199995
 10
431.8030877235998
 20
-8.570282208000009
 10
433.6233238413998
 20
-8.429359020499987
 10
435.4592708555998
 20
-8.402611044100013
 10
437.2895049961998
 20
-8.490353059299991
 10
439.0926591279998
 20
-8.691556327099988
 10
440.8476980224998
 20
-9.0038782421
 10
442.5341323842998
 20
-9.42366955579999
 10
444.1322822693998
 20
-9.946032162300014
 10
445.6234944044998
 20
-10.5648700413
 10
446.9903707023998
 20
-11.27296111000001
 10
448.2169506782998
 20
-12.06204048000001
 10
449.2889281112998
 20
-12.92290044239999
 10
450.1937847288998
 20
-13.8454927331
 10
450.9209634039997
 20
-14.81905056740001
 10
451.4619794492997
 20
-15.8322129554
 10
451.8105141300998
 20
-16.87315319940001
 10
451.9625015927998
 20
-17.9297233584
 10
451.9161650840998
 20
-18.98959148899999
 10
451.6720525131998
 20
-20.04039143290001
 10
451.2330114263998
 20
-21.06985891720001
  0
LINE
  5
384
330
1F
100
AcDbEntity
  8
0
100
AcDbLine
 10
430.0198071478998
 20
-8.823736753199995
 30
0.0
 11
401.4390534925998
 21
7.6755811341
 31
0.0
  0
LINE
  5
385
330
1F
100
AcDbEntity
  8
0
100
AcDbLine
 10
408.5101218049998
 20
12.57416292790001
 30
0.0
 11
401.4390534925998
 21
8.492122079799998
 31
0.0
  0
LINE
  5
386
330
1F
100
AcDbEntity
  8
0
100
AcDbLine
 10
401.4390534925998
 20
7.6755811341
 30
0.0
 11
401.4390534925998
 21
8.492122079799998
 31
0.0
  0
LINE
  5
387
330
1F
100
AcDbEntity
  8
0
100
AcDbLine
 10
451.2330114263998
 20
-20.25331797140001
 30
0.0
 11
451.2330114263998
 21
-21.06985891720001
 31
0.0
  0
ARC
  5
388
330
1F
100
AcDbEntity
  8
0
100
AcDbCircle
 10
445.8381959464998
 20
-17.33239208719999
 30
0.0
 40
6.134805790170805
100
AcDbArc
 50
331.5674665480997
 51
355.5896077446001
  0
ARC
  5
389
330
1F
100
AcDbEntity
  8
0
100
AcDbCircle
 10
406.9937862093998
 20
48.3696025154
 30
0.0
 40
2.394536222257019
100
AcDbArc
 50
107.2541824637998
 51
180.4321036172999
  0
LWPOLYLINE
  5
38A
330
1F
100
AcDbEntity
  8
0
100
AcDbPolyline
 90
        3
 70
   128
 43
0.0
 10
404.6828636732998
 20
47.88362788489999
 10
404.6663658162997
 20
47.9262716291
 10
404.5993180828998
 20
48.3515439784
  0
ELLIPSE
  5
38B
330
1F
100
AcDbEntity
  8
0
100
AcDbEllipse
 10
408.8066037153998
 20
56.0879404258
 30
0.0
 11
0.3068251416117959
 21
1.509104183918225
 31
0.0
210
0.0
220
0.0
230
1.0
 40
0.700889028
 41
5.267292381102575
 42
6.838088707897428
  0
ELLIPSE
  5
38C
330
1F
100
AcDbEntity
  8
0
100
AcDbEllipse
 10
524.4185624393998
 20
-10.6534227157
 30
0.0
 11
0.9988284297380333
 21
1.150116463053308
 31
0.0
210
0.0
220
0.0
230
1.0
 40
0.4033882451
 41
5.575779678245155
 42
6.361259105704693
  0
LINE
  5
38D
330
1F
100
AcDbEntity
  8
0
100
AcDbLine
 10
401.4390534925998
 20
53.40186649020001
 30
0.0
 11
401.4390534925998
 21
53.4017235232
 31
0.0
  0
LINE
  5
38E
330
1F
100
AcDbEntity
  8
0
100
AcDbLine
 10
401.4390534925998
 20
53.40186649020001
 30
0.0
 11
408.5101218049998
 21
57.4839073382
 31
0.0
  0
ELLIPSE
  5
38F
330
1F
100
AcDbEntity
  8
0
100
AcDbEllipse
 10
524.4185624393998
 20
-53.93008574570001
 30
0.0
 11
1.460378490006434
 21
-0.4886810180065879
 31
0.0
210
0.0
220
0.0
230
1.0
 40
0.7008315771000001
 41
5.728141012176224
 42
7.29893733897107
  0
ELLIPSE
  5
390
330
1F
100
AcDbEntity
  8
0
100
AcDbEllipse
 10
524.4185624393998
 20
-10.6534227157
 30
0.0
 11
1.495434327794626
 21
0.2899898903568499
 31
0.0
210
0.0
220
0.0
230
1.0
 40
0.4032732426999999
 41
6.205142667222626
 42
6.990540830620054
  0
LINE
  5
391
330
1F
100
AcDbEntity
  8
0
100
AcDbLine
 10
525.4792231084998
 20
-54.88475871329999
 30
0.0
 11
524.7293661361998
 21
-55.31764192930001
 31
0.0
  0
LINE
  5
392
330
1F
100
AcDbEntity
  8
0
100
AcDbLine
 10
391.1996449512998
 20
46.674230431
 30
0.0
 11
391.1996449512998
 21
38.9823323185
 31
0.0
  0
LINE
  5
393
330
1F
100
AcDbEntity
  8
0
100
AcDbLine
 10
391.1996449512998
 20
4.279812851599999
 30
0.0
 11
391.1996449512998
 21
2.712833436500006
 31
0.0
  0
LINE
  5
394
330
1F
100
AcDbEntity
  8
0
100
AcDbLine
 10
390.4925381365998
 20
3.121037511800012
 30
0.0
 11
391.1996449512998
 21
2.712833436500006
 31
0.0
  0
LINE
  5
395
330
1F
100
AcDbEntity
  8
0
100
AcDbLine
 10
390.4925381365998
 20
47.0824345063
 30
0.0
 11
390.4925381365998
 21
38.57412928949999
 31
0.0
  0
LINE
  5
396
330
1F
100
AcDbEntity
  8
0
100
AcDbLine
 10
390.4925381365998
 20
3.871608301699993
 30
0.0
 11
390.4925381365998
 21
3.121037511800012
 31
0.0
  0
LINE
  5
397
330
1F
100
AcDbEntity
  8
0
100
AcDbLine
 10
390.4925381365998
 20
47.0824345063
 30
0.0
 11
391.1996449512998
 21
46.674230431
 31
0.0
  0
LINE
  5
398
330
1F
100
AcDbEntity
  8
0
100
AcDbLine
 10
390.4925381365998
 20
47.0824345063
 30
0.0
 11
383.4214698241998
 21
43.0003936583
 31
0.0
  0
LINE
  5
399
330
1F
100
AcDbEntity
  8
0
100
AcDbLine
 10
383.4214698241998
 20
-0.9610033362000081
 30
0.0
 11
390.4925381365998
 21
3.121037511800012
 31
0.0
  0
LWPOLYLINE
  5
39A
330
1F
100
AcDbEntity
  8
0
100
AcDbPolyline
 90
       20
 70
   128
 43
0.0
 10
384.8003283393998
 20
37.73823863840001
 10
384.8673760727997
 20
38.240922653
 10
385.0612535515997
 20
38.7665451566
 10
385.3609512302997
 20
39.2581452674
 10
385.7339923278998
 20
39.66245256560001
 10
386.1399520898998
 20
39.9356525923
 10
386.5348377673998
 20
40.04814047249999
 10
386.8758584553998
 20
39.98772771989999
 10
387.1260586117997
 20
39.7609574028
 10
387.2583253005998
 20
39.3924075643
 10
387.2583253005998
 20
38.9220141174
 10
387.1260586117997
 20
38.40075088970001
 10
386.8758584553998
 20
37.88510714180001
 10
386.5348377673998
 20
37.4309587628
 10
386.1399520898998
 20
37.0875213444
 10
385.7339923278998
 20
36.89201020669999
 10
385.3609512302997
 20
36.8656134214
 10
385.0612535515997
 20
37.0111914787
 10
384.8673760727997
 20
37.312966289
 10
384.8003283393998
 20
37.73823863840001
  0
LINE
  5
39B
330
1F
100
AcDbEntity
  8
0
100
AcDbLine
 10
384.1285766389998
 20
-1.369207411500014
 30
0.0
 11
391.1996449512998
 21
2.712833436500006
 31
0.0
  0
LINE
  5
39C
330
1F
100
AcDbEntity
  8
0
100
AcDbLine
 10
391.2567160184998
 20
1.797442829900007
 30
0.0
 11
419.8374696736998
 21
-14.7018750574
 31
0.0
  0
LINE
  5
39D
330
1F
100
AcDbEntity
  8
0
100
AcDbLine
 10
391.2567160184998
 20
1.797442829900007
 30
0.0
 11
391.2567160184998
 21
2.613983775700007
 31
0.0
  0
LINE
  5
39E
330
1F
100
AcDbEntity
  8
0
100
AcDbLine
 10
391.2567160184998
 20
2.613983775700007
 30
0.0
 11
419.8374696736998
 21
-13.8853341116
 31
0.0
  0
LINE
  5
39F
330
1F
100
AcDbEntity
  8
0
100
AcDbLine
 10
419.8374696736998
 20
-13.8853341116
 30
0.0
 11
419.8374696736998
 21
-14.7018750574
 31
0.0
  0
LINE
  5
3A0
330
1F
100
AcDbEntity
  8
0
100
AcDbLine
 10
500.3905739625998
 20
-69.3682740298
 30
0.0
 11
507.4616422748998
 21
-65.2862331817
 31
0.0
  0
LINE
  5
3A1
330
1F
100
AcDbEntity
  8
0
100
AcDbLine
 10
391.2567160184998
 20
1.797442829900007
 30
0.0
 11
384.1856477060998
 21
-2.284598018100013
 31
0.0
  0
LWPOLYLINE
  5
3A2
330
1F
100
AcDbEntity
  8
0
100
AcDbPolyline
 90
       15
 70
   128
 43
0.0
 10
429.1819442630998
 20
-26.5235929291
 10
428.5363487157998
 20
-26.34806441879999
 10
426.9381988306998
 20
-25.82570181220001
 10
425.4469840613998
 20
-25.20686241249999
 10
424.0801103976997
 20
-24.4987728646
 10
422.8535277875998
 20
-23.70969197389999
 10
421.7815529887998
 20
-22.8488335321
 10
420.8766963711998
 20
-21.92624124139999
 10
420.1495176960998
 20
-20.95268340710001
 10
419.6085016507998
 20
-19.9395210191
 10
419.2599696040998
 20
-18.8985822958
 10
419.1079795072998
 20
-17.84201061620001
 10
419.1543133817997
 20
-16.78214096479999
 10
419.3984259527998
 20
-15.7313410209
 10
419.8374696736998
 20
-14.7018750574
  0
LINE
  5
3A3
330
1F
100
AcDbEntity
  8
0
100
AcDbLine
 10
441.1819455802998
 20
-27.02377871909999
 30
0.0
 11
507.4616422748998
 21
-65.2862331817
 31
0.0
  0
LINE
  5
3A4
330
1F
100
AcDbEntity
  8
0
100
AcDbLine
 10
391.2567160184998
 20
2.613983775700007
 30
0.0
 11
384.1856477060998
 21
-1.468057072400001
 31
0.0
  0
ELLIPSE
  5
3A5
330
1F
100
AcDbEntity
  8
0
100
AcDbEllipse
 10
384.4821304425998
 20
-1.230942127499986
 30
0.0
 11
0.4996630984269928
 21
0.243635491529318
 31
0.0
210
0.0
220
0.0
230
1.0
 40
0.0753247667
 41
2.319482671168886
 42
3.890278997963761
  0
LINE
  5
3A6
330
1F
100
AcDbEntity
  8
0
100
AcDbLine
 10
383.4214703592997
 20
-1.843248775900008
 30
0.0
 11
384.1285772563998
 21
-1.435044653099993
 31
0.0
  0
ELLIPSE
  5
3A7
330
1F
100
AcDbEntity
  8
0
100
AcDbEllipse
 10
384.4821304425998
 20
-1.230942127499986
 30
0.0
 11
1.495434327794612
 21
0.2899898903568214
 31
0.0
210
0.0
220
0.0
230
1.0
 40
0.4032732427
 41
2.27815185023537
 42
3.84894817703028
  0
ELLIPSE
  5
3A8
330
1F
100
AcDbEntity
  8
0
100
AcDbEllipse
 10
384.4821304425998
 20
42.04572090240001
 30
0.0
 11
1.460378490006405
 21
-0.4886810180066021
 31
0.0
210
0.0
220
0.0
230
1.0
 40
0.7008315771000001
 41
2.586548358586414
 42
3.371946521983884
  0
ELLIPSE
  5
3A9
330
1F
100
AcDbEntity
  8
0
100
AcDbEllipse
 10
500.0940891665998
 20
-67.972305269
 30
0.0
 11
0.3068251416117959
 21
1.509104183918225
 31
0.0
210
0.0
220
0.0
230
1.0
 40
0.700889028
 41
2.911179154972328
 42
3.696496054307678
  0
ELLIPSE
  5
3AA
330
1F
100
AcDbEntity
  8
0
100
AcDbEllipse
 10
384.4821304425998
 20
-1.230942127499986
 30
0.0
 11
0.9988284297380406
 21
1.150116463053308
 31
0.0
210
0.0
220
0.0
230
1.0
 40
0.4033882451
 41
2.434187024655329
 42
4.004983351450261
  0
ELLIPSE
  5
3AB
330
1F
100
AcDbEntity
  8
0
100
AcDbEllipse
 10
384.4821304425998
 20
-1.230942127499986
 30
0.0
 11
0.4608158422367694
 21
0.3109208394243979
 31
0.0
210
0.0
220
0.0
230
1.0
 40
0.0754639589
 41
2.392893784976436
 42
3.963690111771418
  0
LWPOLYLINE
  5
3AC
330
1F
100
AcDbEntity
  8
0
100
AcDbPolyline
 90
       12
 70
   128
 43
0.0
 10
429.1819442630998
 20
-25.70705198339999
 10
428.5363487157998
 20
-25.53152347299999
 10
426.9381988306998
 20
-25.0091608665
 10
425.4469840613998
 20
-24.3903214668
 10
424.0801103976997
 20
-23.6822319188
 10
422.8535277875998
 20
-22.89315102809999
 10
421.7815529887998
 20
-22.03229258639999
 10
420.8766963711998
 20
-21.10970029570001
 10
420.1495176960998
 20
-20.1361424614
 10
419.6085016507998
 20
-19.12298007339999
 10
419.2599696040998
 20
-18.08204135
 10
419.1156429897998
 20
-17.1510332437
  0
ARC
  5
3AD
330
1F
100
AcDbEntity
  8
0
100
AcDbCircle
 10
387.9019028705998
 20
37.34809339970001
 30
0.0
 40
2.394535814481138
100
AcDbArc
 50
107.2541752203994
 51
180.4321108607
  0
LWPOLYLINE
  5
3AE
330
1F
100
AcDbEntity
  8
0
100
AcDbPolyline
 90
        3
 70
   128
 43
0.0
 10
385.5909807445997
 20
36.8621184695
 10
385.5744828875997
 20
36.9047622137
 10
385.5074351541998
 20
37.3300345631
  0
LINE
  5
3AF
330
1F
100
AcDbEntity
  8
0
100
AcDbLine
 10
391.1996356853998
 20
46.6742369864
 30
0.0
 11
391.2567160184998
 21
46.7071887612
 31
0.0
  0
LINE
  5
3B0
330
1F
100
AcDbEntity
  8
0
100
AcDbLine
 10
384.1856477060998
 20
43.44168733799999
 30
0.0
 11
391.2567160184998
 21
47.523728186
 31
0.0
  0
LINE
  5
3B1
330
1F
100
AcDbEntity
  8
0
100
AcDbLine
 10
391.2567160184998
 20
47.523728186
 30
0.0
 11
391.2567160184998
 21
46.7071887612
 31
0.0
  0
LINE
  5
3B2
330
1F
100
AcDbEntity
  8
0
100
AcDbLine
 10
393.2152531146997
 20
45.57654936190001
 30
0.0
 11
391.2567160184998
 21
46.7071887612
 31
0.0
  0
LINE
  5
3B3
330
1F
100
AcDbEntity
  8
0
100
AcDbLine
 10
394.0519260095998
 20
45.9100878055
 30
0.0
 11
391.2567160184998
 21
47.523728186
 31
0.0
  0
LINE
  5
3B4
330
1F
100
AcDbEntity
  8
0
100
AcDbLine
 10
507.4616422748998
 20
-65.2862331817
 30
0.0
 11
507.4616422748998
 21
-64.46969223599999
 31
0.0
  0
LINE
  5
3B5
330
1F
100
AcDbEntity
  8
0
100
AcDbLine
 10
441.1819455802998
 20
-26.20723777340001
 30
0.0
 11
507.4616422748998
 21
-64.46969223599999
 31
0.0
  0
LINE
  5
3B6
330
1F
100
AcDbEntity
  8
0
100
AcDbLine
 10
507.5187091077998
 20
-64.43673298229999
 30
0.0
 11
507.5187091077998
 21
-62.2981349049
 31
0.0
  0
LINE
  5
3B7
330
1F
100
AcDbEntity
  8
0
100
AcDbLine
 10
507.5187091077998
 20
-64.43673298229999
 30
0.0
 11
507.4616287747998
 21
-64.46968475720001
 31
0.0
  0
LINE
  5
3B8
330
1F
100
AcDbEntity
  8
0
100
AcDbLine
 10
508.2258173219998
 20
-64.84493786549999
 30
0.0
 11
507.5187091077998
 21
-64.43673298229999
 31
0.0
  0
LINE
  5
3B9
330
1F
100
AcDbEntity
  8
0
100
AcDbLine
 10
508.2258173219998
 20
-64.84493786549999
 30
0.0
 11
507.4616396407998
 21
-65.2860882507
 31
0.0
  0
LINE
  5
3BA
330
1F
100
AcDbEntity
  8
0
100
AcDbLine
 10
508.2258173219998
 20
-64.84493786549999
 30
0.0
 11
508.2258173219998
 21
-54.95046317200001
 31
0.0
  0
LINE
  5
3BB
330
1F
100
AcDbEntity
  8
0
100
AcDbLine
 10
392.2601900928997
 20
4.239058092700006
 30
0.0
 11
392.0835282845998
 21
4.137073401600006
 31
0.0
  0
LINE
  5
3BC
330
1F
100
AcDbEntity
  8
0
100
AcDbLine
 10
394.3815104136997
 20
3.01444593810001
 30
0.0
 11
394.2048486053998
 21
2.91246124700001
 31
0.0
  0
LINE
  5
3BD
330
1F
100
AcDbEntity
  8
0
100
AcDbLine
 10
392.0835282845998
 20
4.137073401600006
 30
0.0
 11
394.2048486053998
 21
2.91246124700001
 31
0.0
  0
LINE
  5
3BE
330
1F
100
AcDbEntity
  8
0
100
AcDbLine
 10
508.4025922352998
 20
-54.8484117726
 30
0.0
 11
508.4025922352998
 21
-54.60362180979999
 31
0.0
  0
LINE
  5
3BF
330
1F
100
AcDbEntity
  8
0
100
AcDbLine
 10
508.1905725138998
 20
-54.72601539269999
 30
0.0
 11
508.4025922352998
 21
-54.8484117726
 31
0.0
  0
LINE
  5
3C0
330
1F
100
AcDbEntity
  8
0
100
AcDbLine
 10
392.7906351816998
 20
44.1475080689
 30
0.0
 11
392.7906351816998
 21
39.9007912667
 31
0.0
  0
ARC
  5
3C1
330
1F
100
AcDbEntity
  8
0
100
AcDbCircle
 10
394.2993957422998
 20
44.39225254749999
 30
0.0
 40
1.528482348272174
100
AcDbArc
 50
50.79673115180079
 51
189.2140090505999
  0
LINE
  5
3C2
330
1F
100
AcDbEntity
  8
0
100
AcDbLine
 10
398.9440733767998
 20
43.4530963614
 30
0.0
 11
395.2655089510998
 21
45.5766864025
 31
0.0
  0
LINE
  5
3C3
330
1F
100
AcDbEntity
  8
0
100
AcDbLine
 10
508.0490353293998
 20
-61.9919805955
 30
0.0
 11
508.0490353293998
 21
-55.05251108370001
 31
0.0
  0
LINE
  5
3C4
330
1F
100
AcDbEntity
  8
0
100
AcDbLine
 10
502.0386313138998
 20
-58.52224821269999
 30
0.0
 11
508.0490353293998
 21
-61.9919805955
 31
0.0
  0
LINE
  5
3C5
330
1F
100
AcDbEntity
  8
0
100
AcDbLine
 10
392.0835282845998
 20
43.73930394609999
 30
0.0
 11
392.0835282845998
 21
39.4925871439
 31
0.0
  0
LINE
  5
3C6
330
1F
100
AcDbEntity
  8
0
100
AcDbLine
 10
392.0835282845998
 20
4.341043237299999
 30
0.0
 11
392.0835282845998
 21
4.137073401600006
 31
0.0
  0
ARC
  5
3C7
330
1F
100
AcDbEntity
  8
0
100
AcDbCircle
 10
393.7985891374998
 20
43.9285820584
 30
0.0
 40
1.725473828540335
100
AcDbArc
 50
125.0143411383006
 51
186.2978094843
  0
LINE
  5
3C8
330
1F
100
AcDbEntity
  8
0
100
AcDbLine
 10
508.4025922352998
 20
-54.8484117726
 30
0.0
 11
502.0386313138998
 21
-58.52224821269999
 31
0.0
  0
LINE
  5
3C9
330
1F
100
AcDbEntity
  8
0
100
AcDbLine
 10
508.0490353293998
 20
-61.9919805955
 30
0.0
 11
507.3419284322998
 21
-62.40018471830001
 31
0.0
  0
LINE
  5
3CA
330
1F
100
AcDbEntity
  8
0
100
AcDbLine
 10
501.1195046953998
 20
-58.8080559556
 30
0.0
 11
507.3419284322998
 21
-62.40018471830001
 31
0.0
  0
LINE
  5
3CB
330
1F
100
AcDbEntity
  8
0
  6
Continuous
 62
     8
370
     0
100
AcDbLine
 10
450.7295798332998
 20
-14.53308162850001
 30
0.0
 11
441.3430631039998
 21
-9.114360861400002
 31
0.0
  0
LINE
  5
3CC
330
1F
100
AcDbEntity
  8
0
  6
Continuous
 62
     8
370
     0
100
AcDbLine
 10
419.6255948320998
 20
-11.3542528035
 30
0.0
 11
420.3298472679998
 21
-10.9476965261
 31
0.0
  0
LINE
  5
3CD
330
1F
100
AcDbEntity
  8
0
  6
Continuous
 62
     8
370
     0
100
AcDbLine
 10
426.1660763038998
 20
-7.57851321870001
 30
0.0
 11
427.0144298026997
 21
-7.088769168400006
 31
0.0
  0
LINE
  5
3CE
330
1F
100
AcDbEntity
  8
0
  6
Continuous
 62
     8
370
     0
100
AcDbLine
 10
428.4287570310997
 20
-7.905243109200001
 30
0.0
 11
420.3327004120998
 21
-12.57899711179999
 31
0.0
  0
ARC
  5
3CF
330
1F
100
AcDbEntity
  8
0
  6
Continuous
 62
     8
370
     0
100
AcDbCircle
 10
421.1608027559998
 20
-11.28439689320001
 30
0.0
 40
1.536796413991538
100
AcDbArc
 50
182.6053082889004
 51
237.3946302375999
  0
LINE
  5
3D0
330
1F
100
AcDbEntity
  8
0
  6
Continuous
 62
     8
370
     0
100
AcDbLine
 10
435.7360880638998
 20
-8.408520417999995
 30
0.0
 11
451.9522645183998
 21
-17.76991982219999
 31
0.0
  0
LINE
  5
3D1
330
1F
100
AcDbEntity
  8
0
  6
Continuous
 62
     8
370
     0
100
AcDbLine
 10
451.6672741141998
 20
-19.23834755510001
 30
0.0
 11
433.0041359288998
 21
-8.464347211800003
 31
0.0
  0
LINE
  5
3D2
330
1F
100
AcDbEntity
  8
0
  6
Continuous
 62
     8
370
     0
100
AcDbLine
 10
419.6255948320998
 20
-10.54114002450001
 30
0.0
 11
419.6255948320998
 21
-11.3542528035
 31
0.0
  0
LINE
  5
3D3
330
1F
100
AcDbEntity
  8
0
  6
Continuous
 62
     8
370
     0
100
AcDbLine
 10
417.4335642412998
 20
-10.98660323659999
 30
0.0
 11
418.9154039709998
 21
-10.13115536940001
 31
0.0
  0
LINE
  5
3D4
330
1F
100
AcDbEntity
  8
0
  6
Continuous
 62
     8
370
     0
100
AcDbLine
 10
417.4335642412998
 20
-9.275707740299993
 30
0.0
 11
417.4335642412998
 21
-10.98660323659999
 31
0.0
  0
LINE
  5
3D5
330
1F
100
AcDbEntity
  8
0
  6
Continuous
 62
     8
370
     0
100
AcDbLine
 10
420.3327004120998
 20
-12.57899711179999
 30
0.0
 11
429.1819422874997
 21
-17.6875557077
 31
0.0
  0
LINE
  5
3D6
330
1F
100
AcDbEntity
  8
0
  6
Continuous
 62
     8
370
     0
100
AcDbLine
 10
441.1819429460998
 20
-24.61500863289999
 30
0.0
 11
447.5563113401998
 21
-28.2948531792
 31
0.0
  0
LINE
  5
3D7
330
1F
100
AcDbEntity
  8
0
  6
Continuous
 62
     8
370
     0
100
AcDbLine
 10
447.5563113401998
 20
-28.2948531792
 30
0.0
 11
455.6523679592998
 21
-23.62109917660001
 31
0.0
  0
LINE
  5
3D8
330
1F
100
AcDbEntity
  8
0
  6
Continuous
 62
     8
370
     0
100
AcDbLine
 10
458.7993085014998
 20
-34.86667255969999
 30
0.0
 11
460.2838594588998
 21
-34.00965953400001
 31
0.0
  0
ARC
  5
3D9
330
1F
100
AcDbEntity
  8
0
  6
Continuous
 62
     8
370
     0
100
AcDbCircle
 10
458.0922023756998
 20
-33.50196260519999
 30
0.0
 40
1.537020602717261
100
AcDbArc
 50
242.6095821301988
 51
297.3903254561988
  0
LINE
  5
3DA
330
1F
100
AcDbEntity
  8
0
  6
Continuous
 62
     8
370
     0
100
AcDbLine
 10
418.1406698212998
 20
-12.21134754479999
 30
0.0
 11
429.1819429459998
 21
-18.58533884549999
 31
0.0
  0
LINE
  5
3DB
330
1F
100
AcDbEntity
  8
0
  6
Continuous
 62
     8
370
     0
100
AcDbLine
 10
441.1819436045998
 20
-25.51279177070001
 30
0.0
 11
457.3850940487998
 21
-34.8666714192
 31
0.0
  0
LINE
  5
3DC
330
1F
100
AcDbEntity
  8
0
  6
Continuous
 62
     8
370
     0
100
AcDbLine
 10
419.3327005766998
 20
-11.5232028373
 30
0.0
 11
418.1406698212998
 21
-12.21134754479999
 31
0.0
  0
ARC
  5
3DD
330
1F
100
AcDbEntity
  8
0
  6
Continuous
 62
     8
370
     0
100
AcDbCircle
 10
420.0397806016998
 20
-12.17011561230001
 30
0.0
 40
0.5029772319221592
100
AcDbArc
 50
245.692884980101
 51
305.6175435327004
  0
ARC
  5
3DE
330
1F
100
AcDbEntity
  8
0
  6
Continuous
 62
     8
370
     0
100
AcDbCircle
 10
419.8331526886998
 20
-11.81236200379999
 30
0.0
 40
0.5029356849873425
100
AcDbArc
 50
114.3740949774011
 51
174.3051345954983
  0
ARC
  5
3DF
330
1F
100
AcDbEntity
  8
0
  6
Continuous
 62
     8
370
     0
100
AcDbCircle
 10
447.2633915298998
 20
-27.88597167980001
 30
0.0
 40
0.5029772319221195
100
AcDbArc
 50
245.6928849800997
 51
305.6175435327023
  0
ARC
  5
3E0
330
1F
100
AcDbEntity
  8
0
  6
Continuous
 62
     8
370
     0
100
AcDbCircle
 10
418.9687721652998
 20
-10.9167473263
 30
0.0
 40
1.536796413991447
100
AcDbArc
 50
182.6053082889005
 51
237.3946302376
  0
ARC
  5
3E1
330
1F
100
AcDbEntity
  8
0
  6
Continuous
 62
     8
370
     0
100
AcDbCircle
 10
417.8477492132998
 20
-11.8024642634
 30
0.0
 40
0.5029791451607558
100
AcDbArc
 50
245.6930008154993
 51
305.6174991852005
  0
ARC
  5
3E2
330
1F
100
AcDbEntity
  8
0
  6
Continuous
 62
     8
370
     0
100
AcDbCircle
 10
417.6411232416998
 20
-11.44471401850001
 30
0.0
 40
0.5029375976145095
100
AcDbArc
 50
114.3741393062988
 51
174.3050187791017
  0
ARC
  5
3E3
330
1F
100
AcDbEntity
  8
0
  6
Continuous
 62
     8
370
     0
100
AcDbCircle
 10
457.0921734406998
 20
-34.45778813780001
 30
0.0
 40
0.5029791451608471
100
AcDbArc
 50
245.6930008155019
 51
305.6174991852054
  0
ARC
  5
3E4
330
1F
100
AcDbEntity
  8
0
  6
Continuous
 62
     8
370
     0
100
AcDbCircle
 10
447.8492349779998
 20
-27.88595812380001
 30
0.0
 40
0.5029904808748612
100
AcDbArc
 50
234.3830013168952
 51
294.3062842198967
  0
ARC
  5
3E5
330
1F
100
AcDbEntity
  8
0
  6
Continuous
 62
     8
370
     0
100
AcDbCircle
 10
459.0922308821998
 20
-34.45779019840001
 30
0.0
 40
0.5029794295267593
100
AcDbArc
 50
234.3822756171993
 51
294.307009919601
  0
LINE
  5
3E6
330
1F
100
AcDbEntity
  8
0
  6
Continuous
 62
     8
370
     0
100
AcDbLine
 10
392.0128175927998
 20
42.5553121805
 30
0.0
 11
391.3057110249998
 21
42.14710824780001
 31
0.0
  0
LINE
  5
3E7
330
1F
100
AcDbEntity
  8
0
  6
Continuous
 62
     8
370
     0
100
AcDbLine
 10
501.2608125416998
 20
-58.88963123889999
 30
0.0
 11
500.5537059738998
 21
-59.2978351717
 31
0.0
  0
LINE
  5
3E8
330
1F
100
AcDbEntity
  8
0
  6
Continuous
 62
     8
370
     0
100
AcDbLine
 10
505.8570123118998
 20
-62.359368754
 30
0.0
 11
506.5641188796998
 21
-61.95116482130001
 31
0.0
  0
LINE
  5
3E9
330
1F
100
AcDbEntity
  8
0
  6
Continuous
 62
     8
370
     0
100
AcDbLine
 10
410.9632799920998
 20
2.177362795800008
 30
0.0
 11
410.9632799920998
 21
0.5855649137000114
 31
0.0
  0
LINE
  5
3EA
330
1F
100
AcDbEntity
  8
0
  6
Continuous
 62
     8
370
     0
100
AcDbLine
 10
471.7726032046997
 20
-34.5210569752
 30
0.0
 11
471.7726032046997
 21
-32.92711306690001
 31
0.0
  0
LINE
  5
3EB
330
1F
100
AcDbEntity
  8
0
  6
Continuous
 62
     8
370
     0
100
AcDbLine
 10
466.4711597244998
 20
-40.80639112840001
 30
0.0
 11
466.4711597244998
 21
-37.58151211539999
 31
0.0
  0
LINE
  5
3EC
330
1F
100
AcDbEntity
  8
0
  6
Continuous
 62
     8
370
     0
100
AcDbLine
 10
409.8672638323998
 20
13.4235828324
 30
0.0
 11
409.8672638323998
 21
56.7002468723
 31
0.0
  0
LINE
  5
3ED
330
1F
100
AcDbEntity
  8
0
  6
Continuous
 62
     8
370
     0
100
AcDbLine
 10
407.7459439230997
 20
57.0426136585
 30
0.0
 11
407.7459439230997
 21
47.5546177873
 31
0.0
  0
LINE
  5
3EE
330
1F
100
AcDbEntity
  8
0
  6
Continuous
 62
     8
370
     0
100
AcDbLine
 10
407.7459439230997
 20
13.83178745390001
 30
0.0
 11
407.7459439230997
 21
13.081216664
 31
0.0
  0
LINE
  5
3EF
330
1F
100
AcDbEntity
  8
0
  6
Continuous
 62
     8
370
     0
100
AcDbLine
 10
407.7459439230997
 20
13.081216664
 30
0.0
 11
408.4530507378998
 21
12.6730125887
 31
0.0
  0
LINE
  5
3F0
330
1F
100
AcDbEntity
  8
0
  6
Continuous
 62
     8
370
     0
100
AcDbLine
 10
525.4792257426998
 20
-53.31778214849999
 30
0.0
 11
409.8672638323998
 21
13.4235828324
 31
0.0
  0
LINE
  5
3F1
330
1F
100
AcDbEntity
  8
0
  6
Continuous
 62
     8
370
     0
100
AcDbLine
 10
408.5101218049998
 20
11.75762198210001
 30
0.0
 11
524.7150480614998
 21
-55.3260540295
 31
0.0
  0
LINE
  5
3F2
330
1F
100
AcDbEntity
  8
0
  6
Continuous
 62
     8
370
     0
100
AcDbLine
 10
408.5101218049998
 20
11.75762198210001
 30
0.0
 11
408.5101218049998
 21
12.57416292790001
 31
0.0
  0
LINE
  5
3F3
330
1F
100
AcDbEntity
  8
0
  6
Continuous
 62
     8
370
     0
100
AcDbLine
 10
525.4792257426998
 20
-10.0411181087
 30
0.0
 11
525.4792257426998
 21
-53.31778214849999
 31
0.0
  0
LINE
  5
3F4
330
1F
100
AcDbEntity
  8
0
  6
Continuous
 62
     8
370
     0
100
AcDbLine
 10
409.8672638323998
 20
56.7002468723
 30
0.0
 11
525.4792257426998
 21
-10.0411181087
 31
0.0
  0
LINE
  5
3F5
330
1F
100
AcDbEntity
  8
0
  6
Continuous
 62
     8
370
     0
100
AcDbLine
 10
408.5101218049998
 20
57.4839073382
 30
0.0
 11
408.5101218049998
 21
57.221952207
 31
0.0
  0
LINE
  5
3F6
330
1F
100
AcDbEntity
  8
0
  6
Continuous
 62
     8
370
     0
100
AcDbLine
 10
525.4792231084998
 20
-54.88475871329999
 30
0.0
 11
525.2525152103998
 21
-54.7538830295
 31
0.0
  0
LINE
  5
3F7
330
1F
100
AcDbEntity
  8
0
  6
Continuous
 62
     8
370
     0
100
AcDbLine
 10
383.4214698241998
 20
-0.9610033362000081
 30
0.0
 11
383.4214698241998
 21
-0.2104325463000123
 31
0.0
  0
LINE
  5
3F8
330
1F
100
AcDbEntity
  8
0
  6
Continuous
 62
     8
370
     0
100
AcDbLine
 10
383.4214698241998
 20
16.48256528029999
 30
0.0
 11
383.4214698241998
 21
18.2155803608
 31
0.0
  0
LINE
  5
3F9
330
1F
100
AcDbEntity
  8
0
  6
Continuous
 62
     8
370
     0
100
AcDbLine
 10
383.4214698241998
 20
34.4920884415
 30
0.0
 11
383.4214698241998
 21
43.0003936583
 31
0.0
  0
LINE
  5
3FA
330
1F
100
AcDbEntity
  8
0
  6
Continuous
 62
     8
370
     0
100
AcDbLine
 10
383.4214698241998
 20
-0.9610033362000081
 30
0.0
 11
384.1285766389998
 21
-1.369207411500014
 31
0.0
  0
LINE
  5
3FB
330
1F
100
AcDbEntity
  8
0
  6
Continuous
 62
     8
370
     0
100
AcDbLine
 10
500.3905739625998
 20
-69.3682740298
 30
0.0
 11
439.4617568611998
 21
-34.1948166052
 31
0.0
  0
LINE
  5
3FC
330
1F
100
AcDbEntity
  8
0
  6
Continuous
 62
     8
370
     0
100
AcDbLine
 10
429.1819403117997
 20
-28.26040482880001
 30
0.0
 11
384.1856477060998
 21
-2.284598018100013
 31
0.0
  0
LINE
  5
3FD
330
1F
100
AcDbEntity
  8
0
  6
Continuous
 62
     8
370
     0
100
AcDbLine
 10
384.1856477060998
 20
-2.284598018100013
 30
0.0
 11
384.1856477060998
 21
-1.468057072400001
 31
0.0
  0
LINE
  5
3FE
330
1F
100
AcDbEntity
  8
0
  6
Continuous
 62
     8
370
     0
100
AcDbLine
 10
384.1285772563998
 20
-1.369206817800006
 30
0.0
 11
384.1285772563998
 21
-1.435044653099993
 31
0.0
  0
LINE
  5
3FF
330
1F
100
AcDbEntity
  8
0
  6
Continuous
 62
     8
370
     0
100
AcDbLine
 10
384.1285772563998
 20
-1.435044653099993
 30
0.0
 11
384.1857057865998
 21
-1.468024251600013
 31
0.0
  0
LINE
  5
400
330
1F
100
AcDbEntity
  8
0
  6
Continuous
 62
     8
370
     0
100
AcDbLine
 10
384.1856477060998
 20
43.44168733799999
 30
0.0
 11
384.1856477060998
 21
43.44154437100001
 31
0.0
  0
LINE
  5
401
330
1F
100
AcDbEntity
  8
0
  6
Continuous
 62
     8
370
     0
100
AcDbLine
 10
392.7906351816998
 20
44.1475080689
 30
0.0
 11
392.0835282845998
 21
43.73930394609999
 31
0.0
  0
LINE
  5
402
330
1F
100
AcDbEntity
  8
0
100
AcDbLine
 10
-23.7166670888
 20
129.7295373098
 30
0.0
 11
-42.4666659712
 21
129.7295373098
 31
0.0
  0
LINE
  5
403
330
1F
100
AcDbEntity
  8
0
100
AcDbLine
 10
-42.4666659712
 20
117.7295372054
 30
0.0
 11
-23.7166670888
 21
117.7295372054
 31
0.0
  0
LINE
  5
404
330
1F
100
AcDbEntity
  8
0
100
AcDbLine
 10
-42.4666659712
 20
129.7295373098
 30
0.0
 11
-43.4666679978
 21
128.7295371458
 31
0.0
  0
LINE
  5
405
330
1F
100
AcDbEntity
  8
0
100
AcDbLine
 10
-43.4666679978
 20
118.7295373694
 30
0.0
 11
-42.4666659712
 21
117.7295372054
 31
0.0
  0
LINE
  5
406
330
1F
100
AcDbEntity
  8
0
100
AcDbLine
 10
20.783333686
 20
127.4795371738
 30
0.0
 11
20.783333686
 21
129.9795373507
 31
0.0
  0
LINE
  5
407
330
1F
100
AcDbEntity
  8
0
100
AcDbLine
 10
17.7833331943
 20
129.9795373507
 30
0.0
 11
17.7833331943
 21
127.4795371738
 31
0.0
  0
LINE
  5
408
330
1F
100
AcDbEntity
  8
0
100
AcDbLine
 10
3.2833336115
 20
129.9795373507
 30
0.0
 11
3.2833336115
 21
127.4795371738
 31
0.0
  0
LINE
  5
409
330
1F
100
AcDbEntity
  8
0
100
AcDbLine
 10
9.2833336637
 20
127.4795371738
 30
0.0
 11
9.2833336637
 21
129.9795373507
 31
0.0
  0
LINE
  5
40A
330
1F
100
AcDbEntity
  8
0
100
AcDbLine
 10
22.7833340139
 20
118.4795373284
 30
0.0
 11
22.7833340139
 21
127.4795371738
 31
0.0
  0
LINE
  5
40B
330
1F
100
AcDbEntity
  8
0
100
AcDbLine
 10
1.2833337494
 20
128.7295371458
 30
0.0
 11
3.2833336115
 21
128.7295371458
 31
0.0
  0
LINE
  5
40C
330
1F
100
AcDbEntity
  8
0
100
AcDbLine
 10
9.2833336637
 20
128.7295371458
 30
0.0
 11
11.2833339915
 21
128.7295371458
 31
0.0
  0
LINE
  5
40D
330
1F
100
AcDbEntity
  8
0
100
AcDbLine
 10
-23.7166670888
 20
143.7295368106
 30
0.0
 11
15.2833337158
 21
143.7295368106
 31
0.0
  0
LINE
  5
40E
330
1F
100
AcDbEntity
  8
0
100
AcDbLine
 10
-23.7166670888
 20
142.4295371563
 30
0.0
 11
-23.7166670888
 21
143.7295368106
 31
0.0
  0
LINE
  5
40F
330
1F
100
AcDbEntity
  8
0
100
AcDbLine
 10
15.2833337158
 20
142.4295371563
 30
0.0
 11
15.2833337158
 21
143.7295368106
 31
0.0
  0
LINE
  5
410
330
1F
100
AcDbEntity
  8
0
100
AcDbLine
 10
-23.7166670888
 20
103.7295377046
 30
0.0
 11
15.2833337158
 21
103.7295377046
 31
0.0
  0
LINE
  5
411
330
1F
100
AcDbEntity
  8
0
100
AcDbLine
 10
-23.7166670888
 20
103.7295377046
 30
0.0
 11
-23.7166670888
 21
105.0295373589
 31
0.0
  0
LINE
  5
412
330
1F
100
AcDbEntity
  8
0
100
AcDbLine
 10
15.2833337158
 20
103.7295377046
 30
0.0
 11
15.2833337158
 21
105.0295373589
 31
0.0
  0
LINE
  5
413
330
1F
100
AcDbEntity
  8
0
100
AcDbLine
 10
-42.4666659712
 20
126.692131411
 30
0.0
 11
-42.4666659712
 21
117.7295372054
 31
0.0
  0
LINE
  5
414
330
1F
100
AcDbEntity
  8
0
100
AcDbLine
 10
-42.4666659712
 20
129.7295373098
 30
0.0
 11
-42.4666659712
 21
126.692131411
 31
0.0
  0
LINE
  5
415
330
1F
100
AcDbEntity
  8
0
100
AcDbLine
 10
-43.4666679978
 20
126.1983658351
 30
0.0
 11
-43.4666679978
 21
128.7295371458
 31
0.0
  0
LINE
  5
416
330
1F
100
AcDbEntity
  8
0
100
AcDbLine
 10
-43.4666679978
 20
118.7295373694
 30
0.0
 11
-43.4666679978
 21
126.1983658351
 31
0.0
  0
LINE
  5
417
330
1F
100
AcDbEntity
  8
0
100
AcDbLine
 10
29.283334148
 20
130.9295371339
 30
0.0
 11
29.283334148
 21
129.9795373507
 31
0.0
  0
LINE
  5
418
330
1F
100
AcDbEntity
  8
0
100
AcDbLine
 10
24.2833333284
 20
129.9795373507
 30
0.0
 11
29.283334148
 21
129.9795373507
 31
0.0
  0
LINE
  5
419
330
1F
100
AcDbEntity
  8
0
100
AcDbLine
 10
-21.716666761
 20
129.9795373507
 30
0.0
 11
24.2833333284
 21
129.9795373507
 31
0.0
  0
LINE
  5
41A
330
1F
100
AcDbEntity
  8
0
100
AcDbLine
 10
-22.7166669249
 20
129.9795373507
 30
0.0
 11
-22.7166669249
 21
130.9295371339
 31
0.0
  0
LINE
  5
41B
330
1F
100
AcDbEntity
  8
0
100
AcDbLine
 10
-21.716666761
 20
129.9795373507
 30
0.0
 11
-22.7166669249
 21
129.9795373507
 31
0.0
  0
LINE
  5
41C
330
1F
100
AcDbEntity
  8
0
100
AcDbLine
 10
29.283334148
 20
117.4795371645
 30
0.0
 11
29.283334148
 21
116.5295373813
 31
0.0
  0
LINE
  5
41D
330
1F
100
AcDbEntity
  8
0
100
AcDbLine
 10
-22.7166669249
 20
116.5295373813
 30
0.0
 11
-22.7166669249
 21
117.4795371645
 31
0.0
  0
LINE
  5
41E
330
1F
100
AcDbEntity
  8
0
100
AcDbLine
 10
15.7833328665
 20
127.4795371738
 30
0.0
 11
15.7833328665
 21
129.9795373507
 31
0.0
  0
LINE
  5
41F
330
1F
100
AcDbEntity
  8
0
100
AcDbLine
 10
1.2833337494
 20
129.9795373507
 30
0.0
 11
1.2833337494
 21
127.4795371738
 31
0.0
  0
LINE
  5
420
330
1F
100
AcDbEntity
  8
0
100
AcDbLine
 10
11.2833339915
 20
127.4795371738
 30
0.0
 11
11.2833339915
 21
129.9795373507
 31
0.0
  0
LINE
  5
421
330
1F
100
AcDbEntity
  8
0
100
AcDbLine
 10
-23.7166670888
 20
130.9295371339
 30
0.0
 11
-23.7166670888
 21
116.5295373813
 31
0.0
  0
CIRCLE
  5
422
330
1F
100
AcDbEntity
  8
0
100
AcDbCircle
 10
22.2833336413
 20
110.2295372576
 30
0.0
 40
1.250000000027287
  0
LINE
  5
423
330
1F
100
AcDbEntity
  8
0
100
AcDbLine
 10
21.7238670409
 20
111.2396512345
 30
0.0
 11
21.1288152457
 21
110.2500818834
 31
0.0
  0
LINE
  5
424
330
1F
100
AcDbEntity
  8
0
100
AcDbLine
 10
21.1288152457
 20
110.2500818834
 30
0.0
 11
21.688283068
 21
109.2399675563
 31
0.0
  0
LINE
  5
425
330
1F
100
AcDbEntity
  8
0
100
AcDbLine
 10
22.8428008229
 20
109.2194235117
 30
0.0
 11
23.4378507555
 21
110.2089928628
 31
0.0
  0
LINE
  5
426
330
1F
100
AcDbEntity
  8
0
100
AcDbLine
 10
22.8783847958
 20
111.2191071898
 30
0.0
 11
23.4378507555
 21
110.2089928628
 31
0.0
  0
LINE
  5
427
330
1F
100
AcDbEntity
  8
0
100
AcDbLine
 10
22.8783847958
 20
111.2191071898
 30
0.0
 11
21.7238670409
 21
111.2396512345
 31
0.0
  0
LINE
  5
428
330
1F
100
AcDbEntity
  8
0
100
AcDbLine
 10
21.688283068
 20
109.2399675563
 30
0.0
 11
22.8428008229
 21
109.2194235117
 31
0.0
  0
CIRCLE
  5
429
330
1F
100
AcDbEntity
  8
0
100
AcDbCircle
 10
22.2833336413
 20
110.2295372576
 30
0.0
 40
1.400000000000007
  0
CIRCLE
  5
42A
330
1F
100
AcDbEntity
  8
0
100
AcDbCircle
 10
-12.7166663587
 20
137.2295372576
 30
0.0
 40
1.250000000027308
  0
LINE
  5
42B
330
1F
100
AcDbEntity
  8
0
100
AcDbLine
 10
-13.8690884962
 20
137.3020438642
 30
0.0
 11
-13.3556699186
 21
136.2677645103
 31
0.0
  0
LINE
  5
42C
330
1F
100
AcDbEntity
  8
0
100
AcDbLine
 10
-13.3556699186
 20
136.2677645103
 30
0.0
 11
-12.2032485708
 21
136.1952573225
 31
0.0
  0
LINE
  5
42D
330
1F
100
AcDbEntity
  8
0
100
AcDbLine
 10
-12.2032485708
 20
136.1952573225
 30
0.0
 11
-11.5642448693
 21
137.1570304201
 31
0.0
  0
LINE
  5
42E
330
1F
100
AcDbEntity
  8
0
100
AcDbLine
 10
-11.5642448693
 20
137.1570304201
 30
0.0
 11
-12.0776625156
 21
138.1913107053
 31
0.0
  0
LINE
  5
42F
330
1F
100
AcDbEntity
  8
0
100
AcDbLine
 10
-13.2300847947
 20
138.2638169617
 30
0.0
 11
-12.0776625156
 21
138.1913107053
 31
0.0
  0
LINE
  5
430
330
1F
100
AcDbEntity
  8
0
100
AcDbLine
 10
-13.2300847947
 20
138.2638169617
 30
0.0
 11
-13.8690884962
 21
137.3020438642
 31
0.0
  0
CIRCLE
  5
431
330
1F
100
AcDbEntity
  8
0
100
AcDbCircle
 10
-12.7166663587
 20
137.2295372576
 30
0.0
 40
1.399999999999994
  0
CIRCLE
  5
432
330
1F
100
AcDbEntity
  8
0
100
AcDbCircle
 10
-12.7166663587
 20
110.2295372576
 30
0.0
 40
1.250000000027301
  0
LINE
  5
433
330
1F
100
AcDbEntity
  8
0
100
AcDbLine
 10
-13.2761331081
 20
111.2396512345
 30
0.0
 11
-13.871183972
 21
110.2500818834
 31
0.0
  0
LINE
  5
434
330
1F
100
AcDbEntity
  8
0
100
AcDbLine
 10
-13.871183972
 20
110.2500818834
 30
0.0
 11
-13.311717081
 21
109.2399675563
 31
0.0
  0
LINE
  5
435
330
1F
100
AcDbEntity
  8
0
100
AcDbLine
 10
-13.311717081
 20
109.2399675563
 30
0.0
 11
-12.1571993261
 21
109.2194235117
 31
0.0
  0
LINE
  5
436
330
1F
100
AcDbEntity
  8
0
100
AcDbLine
 10
-12.1216153532
 20
111.2191071898
 30
0.0
 11
-11.5621484622
 21
110.2089928628
 31
0.0
  0
LINE
  5
437
330
1F
100
AcDbEntity
  8
0
100
AcDbLine
 10
-12.1216153532
 20
111.2191071898
 30
0.0
 11
-13.2761331081
 21
111.2396512345
 31
0.0
  0
LINE
  5
438
330
1F
100
AcDbEntity
  8
0
100
AcDbLine
 10
-12.1571993261
 20
109.2194235117
 30
0.0
 11
-11.5621484622
 21
110.2089928628
 31
0.0
  0
CIRCLE
  5
439
330
1F
100
AcDbEntity
  8
0
100
AcDbCircle
 10
-12.7166663587
 20
110.2295372576
 30
0.0
 40
1.399999999999993
  0
CIRCLE
  5
43A
330
1F
100
AcDbEntity
  8
0
100
AcDbCircle
 10
22.2833336413
 20
137.2295372576
 30
0.0
 40
1.250000000027315
  0
LINE
  5
43B
330
1F
100
AcDbEntity
  8
0
100
AcDbLine
 10
21.7238670409
 20
138.2396510035
 30
0.0
 11
21.1288152457
 21
137.2500816525
 31
0.0
  0
LINE
  5
43C
330
1F
100
AcDbEntity
  8
0
100
AcDbLine
 10
21.1288152457
 20
137.2500816525
 30
0.0
 11
21.688283068
 21
136.2399673254
 31
0.0
  0
LINE
  5
43D
330
1F
100
AcDbEntity
  8
0
100
AcDbLine
 10
21.688283068
 20
136.2399673254
 30
0.0
 11
22.8428008229
 21
136.2194232807
 31
0.0
  0
LINE
  5
43E
330
1F
100
AcDbEntity
  8
0
100
AcDbLine
 10
22.8428008229
 20
136.2194232807
 30
0.0
 11
23.4378507555
 21
137.2089926318
 31
0.0
  0
LINE
  5
43F
330
1F
100
AcDbEntity
  8
0
100
AcDbLine
 10
22.8783847958
 20
138.2191069589
 30
0.0
 11
23.4378507555
 21
137.2089926318
 31
0.0
  0
LINE
  5
440
330
1F
100
AcDbEntity
  8
0
100
AcDbLine
 10
22.8783847958
 20
138.2191069589
 30
0.0
 11
21.7238670409
 21
138.2396510035
 31
0.0
  0
CIRCLE
  5
441
330
1F
100
AcDbEntity
  8
0
100
AcDbCircle
 10
22.2833336413
 20
137.2295372576
 30
0.0
 40
1.399999999999993
  0
ELLIPSE
  5
442
330
1F
100
AcDbEntity
  8
0
100
AcDbEllipse
 10
-23.7166663587
 20
140.9295372576
 30
0.0
 11
0.0
 21
1.5
 31
0.0
210
0.0
220
0.0
230
1.0
 40
0.2795262146
 41
0.0
 42
1.570796326794897
  0
LINE
  5
443
330
1F
100
AcDbEntity
  8
0
100
AcDbLine
 10
29.283334148
 20
142.4295371563
 30
0.0
 11
-23.7166670888
 21
142.4295371563
 31
0.0
  0
ELLIPSE
  5
444
330
1F
100
AcDbEntity
  8
0
100
AcDbEllipse
 10
29.2833336413
 20
140.9295372576
 30
0.0
 11
0.0
 21
1.5
 31
0.0
210
0.0
220
0.0
230
1.0
 40
0.2795262146
 41
4.712388980384693
 42
6.283185307179586
  0
LINE
  5
445
330
1F
100
AcDbEntity
  8
0
100
AcDbLine
 10
-24.1359559625
 20
140.9295378417
 30
0.0
 11
-24.1359559625
 21
130.9295371339
 31
0.0
  0
CIRCLE
  5
446
330
1F
100
AcDbEntity
  8
0
100
AcDbCircle
 10
22.2833336413
 20
137.2295372576
 30
0.0
 40
1.749999999999972
  0
CIRCLE
  5
447
330
1F
100
AcDbEntity
  8
0
100
AcDbCircle
 10
-12.7166663587
 20
137.2295372576
 30
0.0
 40
1.749999999999943
  0
LINE
  5
448
330
1F
100
AcDbEntity
  8
0
100
AcDbLine
 10
29.7026230216
 20
130.9295371339
 30
0.0
 11
29.7026230216
 21
140.9295378417
 31
0.0
  0
LINE
  5
449
330
1F
100
AcDbEntity
  8
0
100
AcDbLine
 10
29.7026230216
 20
130.9295371339
 30
0.0
 11
-24.1359559625
 21
130.9295371339
 31
0.0
  0
LINE
  5
44A
330
1F
100
AcDbEntity
  8
0
100
AcDbLine
 10
29.7833351613
 20
140.9295378417
 30
0.0
 11
29.7833351613
 21
130.9295371339
 31
0.0
  0
LINE
  5
44B
330
1F
100
AcDbEntity
  8
0
100
AcDbLine
 10
30.7833334625
 20
140.9295378417
 30
0.0
 11
30.7833334625
 21
130.9295371339
 31
0.0
  0
LINE
  5
44C
330
1F
100
AcDbEntity
  8
0
100
AcDbLine
 10
30.7833334625
 20
130.9295371339
 30
0.0
 11
29.7833351613
 21
130.9295371339
 31
0.0
  0
ARC
  5
44D
330
1F
100
AcDbEntity
  8
0
100
AcDbCircle
 10
29.2833336413
 20
140.9295372576
 30
0.0
 40
0.5
100
AcDbArc
 50
0.0
 51
34.5689894383
  0
ARC
  5
44E
330
1F
100
AcDbEntity
  8
0
100
AcDbCircle
 10
29.2833336413
 20
140.9295372576
 30
0.0
 40
1.500000000000004
100
AcDbArc
 50
0.0
 51
90.0
  0
LINE
  5
44F
330
1F
100
AcDbEntity
  8
0
100
AcDbLine
 10
-25.2166664034
 20
130.9295371339
 30
0.0
 11
-24.2166662395
 21
130.9295371339
 31
0.0
  0
LINE
  5
450
330
1F
100
AcDbEntity
  8
0
100
AcDbLine
 10
-24.2166662395
 20
130.9295371339
 30
0.0
 11
-24.2166662395
 21
140.9295378417
 31
0.0
  0
LINE
  5
451
330
1F
100
AcDbEntity
  8
0
100
AcDbLine
 10
-25.2166664034
 20
130.9295371339
 30
0.0
 11
-25.2166664034
 21
140.9295378417
 31
0.0
  0
ARC
  5
452
330
1F
100
AcDbEntity
  8
0
100
AcDbCircle
 10
-23.7166663587
 20
140.9295372576
 30
0.0
 40
0.5000000000000147
100
AcDbArc
 50
145.4310105744
 51
180.0
  0
ARC
  5
453
330
1F
100
AcDbEntity
  8
0
100
AcDbCircle
 10
-23.7166663587
 20
140.9295372576
 30
0.0
 40
1.500000000000004
100
AcDbArc
 50
90.0
 51
180.0
  0
LINE
  5
454
330
1F
100
AcDbEntity
  8
0
100
AcDbLine
 10
-24.1359559625
 20
116.5295373813
 30
0.0
 11
-24.1359559625
 21
106.5295366735
 31
0.0
  0
LINE
  5
455
330
1F
100
AcDbEntity
  8
0
100
AcDbLine
 10
-24.1359559625
 20
116.5295373813
 30
0.0
 11
29.7026230216
 21
116.5295373813
 31
0.0
  0
LINE
  5
456
330
1F
100
AcDbEntity
  8
0
100
AcDbLine
 10
29.7026230216
 20
106.5295366735
 30
0.0
 11
29.7026230216
 21
116.5295373813
 31
0.0
  0
CIRCLE
  5
457
330
1F
100
AcDbEntity
  8
0
100
AcDbCircle
 10
22.2833336413
 20
110.2295372576
 30
0.0
 40
1.749999999999986
  0
CIRCLE
  5
458
330
1F
100
AcDbEntity
  8
0
100
AcDbCircle
 10
-12.7166663587
 20
110.2295372576
 30
0.0
 40
1.749999999999986
  0
ELLIPSE
  5
459
330
1F
100
AcDbEntity
  8
0
100
AcDbEllipse
 10
29.2833336413
 20
106.5295372576
 30
0.0
 11
0.0
 21
1.5
 31
0.0
210
0.0
220
0.0
230
1.0
 40
0.2795262146
 41
3.141592653589793
 42
4.712388980384693
  0
LINE
  5
45A
330
1F
100
AcDbEntity
  8
0
100
AcDbLine
 10
-23.7166670888
 20
105.0295373589
 30
0.0
 11
29.283334148
 21
105.0295373589
 31
0.0
  0
ELLIPSE
  5
45B
330
1F
100
AcDbEntity
  8
0
100
AcDbEllipse
 10
-23.7166663587
 20
106.5295372576
 30
0.0
 11
0.0
 21
1.5
 31
0.0
210
0.0
220
0.0
230
1.0
 40
0.2795262146
 41
1.570796326794897
 42
3.141592653589785
  0
ARC
  5
45C
330
1F
100
AcDbEntity
  8
0
100
AcDbCircle
 10
29.2833336413
 20
106.5295372576
 30
0.0
 40
1.5
100
AcDbArc
 50
270.0
 51
0.0
  0
ARC
  5
45D
330
1F
100
AcDbEntity
  8
0
100
AcDbCircle
 10
29.2833336413
 20
106.5295372576
 30
0.0
 40
0.5000000000000037
100
AcDbArc
 50
325.4310105626
 51
0.0
  0
LINE
  5
45E
330
1F
100
AcDbEntity
  8
0
100
AcDbLine
 10
29.7833351613
 20
116.5295373813
 30
0.0
 11
29.7833351613
 21
106.5295366735
 31
0.0
  0
LINE
  5
45F
330
1F
100
AcDbEntity
  8
0
100
AcDbLine
 10
30.7833334625
 20
116.5295373813
 30
0.0
 11
30.7833334625
 21
106.5295366735
 31
0.0
  0
LINE
  5
460
330
1F
100
AcDbEntity
  8
0
100
AcDbLine
 10
30.7833334625
 20
116.5295373813
 30
0.0
 11
29.7833351613
 21
116.5295373813
 31
0.0
  0
LINE
  5
461
330
1F
100
AcDbEntity
  8
0
100
AcDbLine
 10
-25.2166664034
 20
116.5295373813
 30
0.0
 11
-24.2166662395
 21
116.5295373813
 31
0.0
  0
LINE
  5
462
330
1F
100
AcDbEntity
  8
0
100
AcDbLine
 10
-24.2166662395
 20
106.5295366735
 30
0.0
 11
-24.2166662395
 21
116.5295373813
 31
0.0
  0
LINE
  5
463
330
1F
100
AcDbEntity
  8
0
100
AcDbLine
 10
-25.2166664034
 20
106.5295366735
 30
0.0
 11
-25.2166664034
 21
116.5295373813
 31
0.0
  0
ARC
  5
464
330
1F
100
AcDbEntity
  8
0
100
AcDbCircle
 10
-23.7166663587
 20
106.5295372576
 30
0.0
 40
0.5000000000000036
100
AcDbArc
 50
180.0
 51
214.5689894271
  0
ARC
  5
465
330
1F
100
AcDbEntity
  8
0
100
AcDbCircle
 10
-23.7166663587
 20
106.5295372576
 30
0.0
 40
1.500000000000004
100
AcDbArc
 50
180.0
 51
270.0
  0
LINE
  5
466
330
1F
100
AcDbEntity
  8
0
100
AcDbLine
 10
29.283334148
 20
118.4795373284
 30
0.0
 11
29.283334148
 21
117.4795371645
 31
0.0
  0
LINE
  5
467
330
1F
100
AcDbEntity
  8
0
100
AcDbLine
 10
25.7833345056
 20
117.4795371645
 30
0.0
 11
29.283334148
 21
117.4795371645
 31
0.0
  0
LINE
  5
468
330
1F
100
AcDbEntity
  8
0
100
AcDbLine
 10
25.7833345056
 20
118.4795373284
 30
0.0
 11
29.283334148
 21
118.4795373284
 31
0.0
  0
LINE
  5
469
330
1F
100
AcDbEntity
  8
0
100
AcDbLine
 10
-22.7166669249
 20
117.4795371645
 30
0.0
 11
25.7833345056
 21
117.4795371645
 31
0.0
  0
LINE
  5
46A
330
1F
100
AcDbEntity
  8
0
100
AcDbLine
 10
-22.7166669249
 20
118.4795373284
 30
0.0
 11
-22.7166669249
 21
117.4795371645
 31
0.0
  0
LINE
  5
46B
330
1F
100
AcDbEntity
  8
0
100
AcDbLine
 10
-22.7166669249
 20
118.4795373284
 30
0.0
 11
25.7833345056
 21
118.4795373284
 31
0.0
  0
LINE
  5
46C
330
1F
100
AcDbEntity
  8
0
100
AcDbLine
 10
-22.7166669249
 20
127.4795371738
 30
0.0
 11
16.1950780273
 21
127.4795371738
 31
0.0
  0
LINE
  5
46D
330
1F
100
AcDbEntity
  8
0
100
AcDbLine
 10
16.1950780273
 20
127.4795371738
 30
0.0
 11
16.1950780273
 21
118.4795373284
 31
0.0
  0
LINE
  5
46E
330
1F
100
AcDbEntity
  8
0
100
AcDbLine
 10
-22.7166669249
 20
127.4795371738
 30
0.0
 11
-22.7166669249
 21
118.4795373284
 31
0.0
  0
LINE
  5
46F
330
1F
100
AcDbEntity
  8
0
100
AcDbLine
 10
16.1950780273
 20
127.4795371738
 30
0.0
 11
22.7833340139
 21
127.4795371738
 31
0.0
  0
LINE
  5
470
330
1F
100
AcDbEntity
  8
0
  6
Continuous
 62
     8
370
     0
100
AcDbLine
 10
24.2833333284
 20
130.9295371339
 30
0.0
 11
24.2833333284
 21
129.9795373507
 31
0.0
  0
LINE
  5
471
330
1F
100
AcDbEntity
  8
0
  6
Continuous
 62
     8
370
     0
100
AcDbLine
 10
-21.716666761
 20
130.9295371339
 30
0.0
 11
-21.716666761
 21
129.9795373507
 31
0.0
  0
LINE
  5
472
330
1F
100
AcDbEntity
  8
0
  6
Continuous
 62
     8
370
     0
100
AcDbLine
 10
24.2833333284
 20
117.4795371645
 30
0.0
 11
24.2833333284
 21
116.5295373813
 31
0.0
  0
LINE
  5
473
330
1F
100
AcDbEntity
  8
0
  6
Continuous
 62
     8
370
     0
100
AcDbLine
 10
-21.716666761
 20
117.4795371645
 30
0.0
 11
-21.716666761
 21
116.5295373813
 31
0.0
  0
LINE
  5
474
330
1F
100
AcDbEntity
  8
0
  6
Continuous
 62
     8
370
     0
100
AcDbLine
 10
-24.1359559625
 20
140.9295378417
 30
0.0
 11
29.7026230216
 21
140.9295378417
 31
0.0
  0
LINE
  5
475
330
1F
100
AcDbEntity
  8
0
  6
Continuous
 62
     8
370
     0
100
AcDbLine
 10
30.7833334625
 20
140.9295378417
 30
0.0
 11
29.7833351613
 21
140.9295378417
 31
0.0
  0
LINE
  5
476
330
1F
100
AcDbEntity
  8
0
  6
Continuous
 62
     8
370
     0
100
AcDbLine
 10
-25.2166664034
 20
140.9295378417
 30
0.0
 11
-24.2166662395
 21
140.9295378417
 31
0.0
  0
LINE
  5
477
330
1F
100
AcDbEntity
  8
0
  6
Continuous
 62
     8
370
     0
100
AcDbLine
 10
29.7026230216
 20
106.5295366735
 30
0.0
 11
-24.1359559625
 21
106.5295366735
 31
0.0
  0
LINE
  5
478
330
1F
100
AcDbEntity
  8
0
  6
Continuous
 62
     8
370
     0
100
AcDbLine
 10
30.7833334625
 20
106.5295366735
 30
0.0
 11
29.7833351613
 21
106.5295366735
 31
0.0
  0
LINE
  5
479
330
1F
100
AcDbEntity
  8
0
  6
Continuous
 62
     8
370
     0
100
AcDbLine
 10
-25.2166664034
 20
106.5295366735
 30
0.0
 11
-24.2166662395
 21
106.5295366735
 31
0.0
  0
LINE
  5
47A
330
1F
100
AcDbEntity
  8
0
  6
Continuous
 62
     8
370
     0
100
AcDbLine
 10
25.7833345056
 20
118.4795373284
 30
0.0
 11
25.7833345056
 21
117.4795371645
 31
0.0
  0
LINE
  5
47B
330
1F
100
AcDbEntity
  8
0
  6
CENTERX2
 62
     7
370
     0
100
AcDbLine
 10
-4.9666663587
 20
123.7295372576
 30
0.0
 11
-45.4666663587
 21
123.7295372576
 31
0.0
  0
INSERT
  5
4DA
330
1F
100
AcDbEntity
  8
0
100
AcDbBlockReference
  2
A$C18726
 10
153.7932203966
 20
-2.770637603899999
 30
0.0
  0
LINE
  5
533
330
1F
100
AcDbEntity
  8
0
100
AcDbLine
 10
254.0208230011249
 20
250.3017559957862
 30
0.0
 11
267.4558518436248
 21
242.5458789334862
 31
0.0
  0
LINE
  5
534
330
1F
100
AcDbEntity
  8
0
100
AcDbLine
 10
253.3993807564248
 20
264.7399434053862
 30
0.0
 11
251.9851671941248
 21
263.9235352935862
 31
0.0
  0
LINE
  5
535
330
1F
100
AcDbEntity
  8
0
100
AcDbLine
 10
251.9851671941248
 20
263.9235352935862
 30
0.0
 11
248.4496332881249
 21
265.9645555730862
 31
0.0
  0
LINE
  5
536
330
1F
100
AcDbEntity
  8
0
100
AcDbLine
 10
248.4496332881249
 20
265.9645555730862
 30
0.0
 11
237.8430315703249
 21
259.8414947344862
 31
0.0
  0
LINE
  5
537
330
1F
100
AcDbEntity
  8
0
100
AcDbLine
 10
237.8430315703249
 20
259.8414947344862
 30
0.0
 11
235.3681578362249
 21
261.2702089301862
 31
0.0
  0
LINE
  5
538
330
1F
100
AcDbEntity
  8
0
100
AcDbLine
 10
235.3681578362249
 20
261.2702089301862
 30
0.0
 11
263.6524290837249
 21
277.5983711665862
 31
0.0
  0
LINE
  5
539
330
1F
100
AcDbEntity
  8
0
100
AcDbLine
 10
263.6524290837249
 20
277.5983711665862
 30
0.0
 11
266.1273028178249
 21
276.1696569708862
 31
0.0
  0
LINE
  5
53A
330
1F
100
AcDbEntity
  8
0
100
AcDbLine
 10
266.1273028178249
 20
276.1696569708862
 30
0.0
 11
255.5207011000249
 21
270.0465961322861
 31
0.0
  0
LINE
  5
53B
330
1F
100
AcDbEntity
  8
0
100
AcDbLine
 10
255.5207011000249
 20
270.0465961322861
 30
0.0
 11
259.0562350059248
 21
268.0055758526862
 31
0.0
  0
LINE
  5
53C
330
1F
100
AcDbEntity
  8
0
100
AcDbLine
 10
259.0562350059248
 20
268.0055758526862
 30
0.0
 11
257.6420214436249
 21
267.1891677408862
 31
0.0
  0
LINE
  5
53D
330
1F
100
AcDbEntity
  8
0
100
AcDbLine
 10
257.6420214436249
 20
267.1891677408862
 30
0.0
 11
271.0770502861249
 21
259.4332906785862
 31
0.0
  0
LINE
  5
53E
330
1F
100
AcDbEntity
  8
0
100
AcDbLine
 10
271.0770502861249
 20
259.0250866226862
 30
0.0
 11
271.0770502861249
 21
259.4332906785862
 31
0.0
  0
LINE
  5
53F
330
1F
100
AcDbEntity
  8
0
100
AcDbLine
 10
271.0770502861249
 20
259.0250866226862
 30
0.0
 11
267.5415163802248
 21
256.9840663430862
 31
0.0
  0
LINE
  5
540
330
1F
100
AcDbEntity
  8
0
100
AcDbLine
 10
266.8344095990249
 20
256.9840663430862
 30
0.0
 11
267.5415163802248
 21
256.9840663430862
 31
0.0
  0
LINE
  5
541
330
1F
100
AcDbEntity
  8
0
100
AcDbLine
 10
266.8344095990249
 20
256.9840663430862
 30
0.0
 11
253.3993807564248
 21
264.7399434053862
 31
0.0
  0
LINE
  5
542
330
1F
100
AcDbEntity
  8
0
100
AcDbLine
 10
266.8344095990249
 20
243.9194133528862
 30
0.0
 11
266.8344095990249
 21
256.9840663430862
 31
0.0
  0
LINE
  5
543
330
1F
100
AcDbEntity
  8
0
100
AcDbLine
 10
267.5415163802248
 20
256.9840663430862
 30
0.0
 11
267.5415163802248
 21
243.9194133528862
 31
0.0
  0
LINE
  5
544
330
1F
100
AcDbEntity
  8
0
100
AcDbLine
 10
253.3993807564248
 20
251.6752904151862
 30
0.0
 11
253.3993807564248
 21
264.7399434053862
 31
0.0
  0
LWPOLYLINE
  5
545
330
1F
100
AcDbEntity
  8
0
100
AcDbPolyline
 90
       42
 70
   128
 43
0.0
 10
258.7026816153249
 20
256.7791681147862
 10
259.0264996474249
 20
256.5635234070862
 10
259.3427276592248
 20
256.2955161548862
 10
259.6439535343249
 20
255.9814282209861
 10
259.9231167933249
 20
255.6286215603862
 10
260.1736740862249
 20
255.2453656621861
 10
260.3897525623248
 20
254.8406437197862
 10
260.5662875253248
 20
254.4239420724862
 10
260.6991411453249
 20
254.0050278537861
 10
260.7851994460249
 20
253.5937200577862
 10
260.8224452938249
 20
253.1996593907862
 10
260.8100056777249
 20
252.8320823006862
 10
260.7481721716249
 20
252.4996044829861
 10
260.6383941005248
 20
252.2100189358862
 10
260.4832445695249
 20
251.9701132992862
 10
260.2863601519249
 20
251.7855107578862
 10
260.0523556517248
 20
251.6605382387862
 10
259.7867159360248
 20
251.5981249919862
 10
259.4956673746249
 20
251.5997339310861
 10
259.1860318991248
 20
251.6653273437861
 10
258.8650671027249
 20
251.7933677761862
 10
258.5402961280248
 20
251.9808540691862
 10
258.2193313316249
 20
252.2233917026861
 10
257.9096958561248
 20
252.5152958003862
 10
257.6186472947248
 20
252.8497243775861
 10
257.3530075790248
 20
253.2188387117862
 10
257.1190030788249
 20
253.6139870759862
 10
256.9221186612249
 20
254.0259075272862
 10
256.7669691301248
 20
254.4449449995862
 10
256.6571910591249
 20
254.8612776095862
 10
256.5953575530249
 20
255.2651468737862
 10
256.5829179369249
 20
255.6470864389862
 10
256.6201637847248
 20
255.9981439654862
 10
256.7062220854249
 20
256.3100909623862
 10
256.8390757054249
 20
256.5756156564861
 10
257.0156106684249
 20
256.7884943738861
 10
257.2316891445248
 20
256.9437374180861
 10
257.4822464374248
 20
257.0377060235862
 10
257.7614096964248
 20
257.0681976459862
 10
258.0626355715249
 20
257.0344975874862
 10
258.3788635833249
 20
256.9373957487861
 10
258.7026816153249
 20
256.7791681147862
  0
LINE
  5
546
330
1F
100
AcDbEntity
  8
0
100
AcDbLine
 10
271.0770502861249
 20
245.9604336324861
 30
0.0
 11
271.0770502861249
 21
259.0250866226862
 31
0.0
  0
ARC
  5
547
330
1F
100
AcDbEntity
  8
0
100
AcDbCircle
 10
267.2552310364249
 20
246.1257205622861
 30
0.0
 40
3.825391763835347
100
AcDbArc
 50
302.4763978921997
 51
357.5236019622
  0
ARC
  5
548
330
1F
100
AcDbEntity
  8
0
100
AcDbCircle
 10
268.6246104717248
 20
243.7539605614862
 30
0.0
 40
1.095658449143125
100
AcDbArc
 50
171.3146750033
 51
308.6745732420017
  0
LINE
  5
549
330
1F
100
AcDbEntity
  8
0
100
AcDbLine
 10
248.4496332881249
 20
234.1194639095862
 30
0.0
 11
248.4496332881249
 21
265.9645555730862
 31
0.0
  0
LINE
  5
54A
330
1F
100
AcDbEntity
  8
0
100
AcDbLine
 10
248.4496332881249
 20
234.1194639095862
 30
0.0
 11
237.8430315703249
 21
227.9964030708861
 31
0.0
  0
LINE
  5
54B
330
1F
100
AcDbEntity
  8
0
100
AcDbLine
 10
237.8430315703249
 20
227.9964030708861
 30
0.0
 11
237.8430315703249
 21
259.8414947344862
 31
0.0
  0
LWPOLYLINE
  5
54C
330
1F
100
AcDbEntity
  8
0
100
AcDbPolyline
 90
       56
 70
   128
 43
0.0
 10
243.1463324292249
 20
242.7344671001862
 10
243.5654737437249
 20
243.0041088620862
 10
243.9791509101249
 20
243.3255886938861
 10
244.3819710140249
 20
243.6947156144861
 10
244.7686826792248
 20
244.1066774899862
 10
245.1342445279248
 20
244.5561037672861
 10
245.4738909023249
 20
245.0371354874862
 10
245.7831939924249
 20
245.5435016665862
 10
246.0581215595248
 20
246.0686010469861
 10
246.2950895023249
 20
246.6055881551862
 10
246.4910085812249
 20
247.1474625430862
 10
246.6433246915248
 20
247.6871600493862
 10
246.7500521596249
 20
248.2176448916861
 10
246.8097996299249
 20
248.7320013886861
 10
246.8217882027249
 20
249.2235241169862
 10
246.7858615886248
 20
249.6858053260862
 10
246.7024881459249
 20
250.1128184734862
 10
246.5727547751249
 20
250.4989967897862
 10
246.3983527489249
 20
250.8393058499861
 10
246.1815556646249
 20
251.1293092049862
 10
245.9251898035249
 20
251.3652262177862
 10
245.6325972870249
 20
251.5439813490862
 10
245.3075925057248
 20
251.6632442525862
 10
244.9544123941249
 20
251.7214601537862
 10
244.5776611951249
 20
251.7178701193862
 10
244.1822504366249
 20
251.6525209510862
 10
243.7733349028249
 20
251.5262645752861
 10
243.3562454328249
 20
251.3407469366861
 10
242.9364194257249
 20
251.0983865415862
 10
242.5193299557249
 20
250.8023429283862
 10
242.1104144218249
 20
250.4564754782862
 10
241.7150036634249
 20
250.0652931024862
 10
241.3382524644249
 20
249.6338954613861
 10
240.9850723528249
 20
249.1679064830861
 10
240.6600675715248
 20
248.6734010463861
 10
240.3674750549249
 20
248.1568257860862
 10
240.1111091939249
 20
247.6249150506862
 10
239.8943121096248
 20
247.0846031099861
 10
239.7199100834248
 20
246.5429337564861
 10
239.5901767126249
 20
246.0069684784862
 10
239.5068032699249
 20
245.4836944031861
 10
239.4708766558249
 20
244.9799332083861
 10
239.4828652286249
 20
244.5022521915862
 10
239.5426126989249
 20
244.0568786553862
 10
239.6493401670249
 20
243.6496187248862
 10
239.8016562773249
 20
243.2857816562862
 10
239.9975753562249
 20
242.9701106219862
 10
240.2345432990249
 20
242.7067208767862
 10
240.5094708661249
 20
242.4990461087862
 10
240.8187739562249
 20
242.3497936761862
 10
241.1584203306249
 20
242.2609093126862
 10
241.5239821792249
 20
242.2335517619861
 10
241.9106938445249
 20
242.2680776713862
 10
242.3135139484249
 20
242.3640369430861
 10
242.7271911148248
 20
242.5201786011862
 10
243.1463324292249
 20
242.7344671001862
  0
LINE
  5
54D
330
1F
100
AcDbEntity
  8
0
100
AcDbLine
 10
237.8430315703249
 20
227.9964030708861
 30
0.0
 11
235.3681578362249
 21
229.4251172665862
 31
0.0
  0
LINE
  5
54E
330
1F
100
AcDbEntity
  8
0
100
AcDbLine
 10
235.3681578362249
 20
229.4251172665862
 30
0.0
 11
235.3681578362249
 21
261.2702089301862
 31
0.0
  0
LWPOLYLINE
  5
54F
330
1F
100
AcDbEntity
  8
0
100
AcDbPolyline
 90
       29
 70
   128
 43
0.0
 10
258.8878405112249
 20
256.6629289397862
 10
258.7652701286248
 20
256.7151288040861
 10
258.4822420146248
 20
256.7957527537861
 10
258.2148709332249
 20
256.8146723747861
 10
257.9704500704248
 20
256.7713715888862
 10
257.7556465901249
 20
256.6670315288861
 10
257.5763197715248
 20
256.5044983194862
 10
257.4373611827249
 20
256.2882054430862
 10
257.3425612516248
 20
256.0240528053862
 10
257.2945058734249
 20
255.7192458017861
 10
257.2945058734249
 20
255.3820987727862
 10
257.3425612516248
 20
255.0218082104861
 10
257.4373611827249
 20
254.6482019021861
 10
257.5763197715248
 20
254.2714708540861
 10
257.7556465901249
 20
253.9018913070861
 10
257.9704500704248
 20
253.5495444277861
 10
258.2148709332249
 20
253.2240413204862
 10
258.4822420146248
 20
252.9342608616862
 10
258.7652701286248
 20
252.6881075066862
 10
259.0562350059248
 20
252.4922956772862
 10
259.3471998833248
 20
252.3521666099861
 10
259.6302279972249
 20
252.2715426602861
 10
259.8975990787249
 20
252.2526230393862
 10
260.1420199415248
 20
252.2959238251862
 10
260.3568234217248
 20
252.4002638851861
 10
260.5361502403249
 20
252.5627970945862
 10
260.6751088292249
 20
252.7790899709861
 10
260.7699087603248
 20
253.0432426086861
 10
260.8159358014249
 20
253.3230080478862
  0
LWPOLYLINE
  5
550
330
1F
100
AcDbEntity
  8
0
100
AcDbPolyline
 90
       11
 70
   128
 43
0.0
 10
268.9557299425248
 20
242.6944030849862
 10
268.6238823294249
 20
242.5329904527862
 10
268.3002059059248
 20
242.4358701693862
 10
267.9926706597248
 20
242.4054336586861
 10
267.7088491292249
 20
242.4424303683862
 10
267.4557299425248
 20
242.5459493168862
 10
267.2395457341248
 20
242.7134415240862
 10
267.0656196765249
 20
242.9407827758862
 10
266.9382344067249
 20
243.2223751761861
 10
266.8605265725248
 20
243.5512849855862
 10
266.8344095990249
 20
243.9194133528862
  0
LINE
  5
551
330
1F
100
AcDbEntity
  8
0
100
AcDbLine
 10
268.9557299425248
 20
242.6944030849862
 30
0.0
 11
269.3092833331249
 21
242.8985714629862
 31
0.0
  0
ARC
  5
552
330
1F
100
AcDbEntity
  8
0
100
AcDbCircle
 10
254.8624003379249
 20
251.5098693987862
 30
0.0
 40
1.47234181103424
100
AcDbArc
 50
173.5490657253004
 51
235.1387538814011
  0
LINE
  5
553
330
1F
100
AcDbEntity
  8
0
100
AcDbLine
 10
251.9851671941248
 20
232.0784436299862
 30
0.0
 11
251.9851671941248
 21
263.9235352935862
 31
0.0
  0
LINE
  5
554
330
1F
100
AcDbEntity
  8
0
100
AcDbLine
 10
251.9851671941248
 20
232.0784436299862
 30
0.0
 11
248.4496332881249
 21
234.1194639095862
 31
0.0
  0
LINE
  5
555
330
1F
100
AcDbEntity
  8
0
100
AcDbLine
 10
259.0562350059248
 20
236.1604841891861
 30
0.0
 11
259.0562350059248
 21
247.3948745200861
 31
0.0
  0
LINE
  5
556
330
1F
100
AcDbEntity
  8
0
100
AcDbLine
 10
259.0562350059248
 20
266.3727596290862
 30
0.0
 11
259.0562350059248
 21
268.0055758526862
 31
0.0
  0
LINE
  5
557
330
1F
100
AcDbEntity
  8
0
100
AcDbLine
 10
259.0562350059248
 20
236.1604841891861
 30
0.0
 11
251.9851671941248
 21
232.0784436299862
 31
0.0
  0
LWPOLYLINE
  5
558
330
1F
100
AcDbEntity
  8
0
100
AcDbPolyline
 90
       22
 70
   128
 43
0.0
 10
242.7927790386249
 20
242.9385691281861
 10
243.2119203531249
 20
243.2082108899862
 10
243.6255975195249
 20
243.5296907218862
 10
244.0284176234249
 20
243.8988176424862
 10
244.4151292886249
 20
244.3107795179862
 10
244.7806911373249
 20
244.7602057951862
 10
245.1203375117248
 20
245.2412375154861
 10
245.4296406018248
 20
245.7476036944861
 10
245.7045681689249
 20
246.2727030748862
 10
245.9415361117248
 20
246.8096901831861
 10
246.1374551906249
 20
247.3515645710862
 10
246.2897713009249
 20
247.8912620773862
 10
246.3964987690249
 20
248.4217469195862
 10
246.4562462393249
 20
248.9361034166862
 10
246.4682348121248
 20
249.4276261449862
 10
246.4323081980249
 20
249.8899073540861
 10
246.3489347553248
 20
250.3169205014862
 10
246.2192013845248
 20
250.7030988176862
 10
246.0447993583249
 20
251.0434078778862
 10
245.8280022740248
 20
251.3334112329862
 10
245.5716364130248
 20
251.5693282456862
 10
245.5633293297248
 20
251.5755648168862
  0
ARC
  5
559
330
1F
100
AcDbEntity
  8
0
100
AcDbCircle
 10
241.2286995944249
 20
245.2260891048861
 30
0.0
 40
2.771117491527512
100
AcDbArc
 50
252.0740082424001
 51
304.3621577568
  0
LWPOLYLINE
  5
55A
330
1F
100
AcDbEntity
  8
0
100
AcDbPolyline
 90
       17
 70
   128
 43
0.0
 10
240.9896567466249
 20
246.0616685410862
 10
241.2902406935249
 20
246.2632130309862
 10
241.5830396740249
 20
246.5155797665861
 10
241.8604703484249
 20
246.8122325818861
 10
242.1153474079249
 20
247.1454883247862
 10
242.3410696706248
 20
247.5067158465862
 10
242.5317910484249
 20
247.8865595441862
 10
242.6825719579249
 20
248.2751816654861
 10
242.7895072526249
 20
248.6625171014861
 10
242.8498273647249
 20
249.0385340679861
 10
242.8619700348249
 20
249.3934939230862
 10
242.8256207743249
 20
249.7182033928862
 10
242.7417210098249
 20
250.0042526726862
 10
242.6124437012249
 20
250.2442332364862
 10
242.4411370629249
 20
250.4319297136861
 10
242.2322378469249
 20
250.5624808641861
 10
242.2299499310249
 20
250.5634968463862
  0
ARC
  5
55B
330
1F
100
AcDbEntity
  8
0
100
AcDbCircle
 10
240.2281942964249
 20
247.0698367497862
 30
0.0
 40
1.263419249616717
100
AcDbArc
 50
239.4099607608993
 51
307.0634977920004
  0
ARC
  5
55C
330
1F
100
AcDbEntity
  8
0
100
AcDbCircle
 10
239.1877519885249
 20
249.1949526400861
 30
0.0
 40
3.301738962041428
100
AcDbArc
 50
296.7033539161998
 51
24.03861786019992
  0
ARC
  5
55D
330
1F
100
AcDbEntity
  8
0
100
AcDbCircle
 10
239.8434405759249
 20
247.4958636857862
 30
0.0
 40
1.499790838046551
100
AcDbArc
 50
260.3586372621996
 51
303.5104498281004
  0
LINE
  5
55E
330
1F
100
AcDbEntity
  8
0
100
AcDbLine
 10
266.1273028178249
 20
262.2907190698862
 30
0.0
 11
266.1273028178249
 21
276.1696569708862
 31
0.0
  0
LINE
  5
55F
330
1F
100
AcDbEntity
  8
0
100
AcDbLine
 10
265.2510228233249
 20
243.8186996341861
 30
0.0
 11
259.0562350059248
 21
240.2425247482861
 31
0.0
  0
LINE
  5
560
330
1F
100
AcDbEntity
  8
0
  6
Continuous
 62
     8
370
     0
100
AcDbLine
 10
266.8344095990249
 20
243.9194133528862
 30
0.0
 11
267.5415163802248
 21
243.9194133528862
 31
0.0
  0
LINE
  5
561
330
1F
100
AcDbEntity
  8
0
  6
Continuous
 62
     8
370
     0
100
AcDbLine
 10
253.3993807564248
 20
251.6752904151862
 30
0.0
 11
266.8344095990249
 21
243.9194133528862
 31
0.0
  0
ENDSEC
  0
SECTION
  2
OBJECTS
  0
DICTIONARY
  5
C
330
0
100
AcDbDictionary
281
     1
  3
ACAD_DETAILVIEWSTYLE
350
4DE
  3
ACAD_GROUP
350
D
  3
ACAD_IMAGE_VARS
350
49D
  3
ACAD_LAYOUT
350
1A
  3
ACAD_MLINESTYLE
350
17
  3
ACAD_PLOTSETTINGS
350
19
  3
ACAD_PLOTSTYLENAME
350
E
  3
ACAD_SCALELIST
350
47
  3
ACAD_SECTIONVIEWSTYLE
350
4DF
  3
AcDbVariableDictionary
350
4DB
  3
APPDATA
350
49B
  3
DWGPROPS
350
563
  0
DICTIONARY
  5
4C0
330
49E
100
AcDbDictionary
280
     1
281
     1
  3
ACAD_SORTENTS
360
4C1
  0
DICTIONARY
  5
4DE
102
{ACAD_REACTORS
330
C
102
}
330
C
100
AcDbDictionary
281
     1
  0
DICTIONARY
  5
D
102
{ACAD_REACTORS
330
C
102
}
330
C
100
AcDbDictionary
281
     1
  0
RASTERVARIABLES
  5
49D
102
{ACAD_REACTORS
330
C
102
}
330
C
100
AcDbRasterVariables
 90
        0
 70
     1
 71
     1
 72
     1
  0
DICTIONARY
  5
1A
102
{ACAD_REACTORS
330
C
102
}
330
C
100
AcDbDictionary
281
     1
  3
Layout1
350
1E
  3
Layout2
350
26
  3
Model
350
22
  0
DICTIONARY
  5
17
102
{ACAD_REACTORS
330
C
102
}
330
C
100
AcDbDictionary
281
     1
  3
Standard
350
18
  0
DICTIONARY
  5
19
102
{ACAD_REACTORS
330
C
102
}
330
C
100
AcDbDictionary
281
     1
  0
ACDBDICTIONARYWDFLT
  5
E
102
{ACAD_REACTORS
330
C
102
}
330
C
100
AcDbDictionary
281
     1
  3
Normal
350
F
100
AcDbDictionaryWithDefault
340
F
  0
DICTIONARY
  5
47
102
{ACAD_REACTORS
330
C
102
}
330
C
100
AcDbDictionary
281
     1
  3
A0
350
48
  3
A1
350
49
  3
A2
350
4A
  3
A3
350
4B
  3
A4
350
4C
  3
A5
350
4D
  3
A6
350
4E
  3
A7
350
4F
  3
A8
350
50
  3
A9
350
51
  3
B0
350
52
  3
B1
350
53
  3
B2
350
54
  3
B3
350
55
  3
B4
350
56
  3
B5
350
57
  3
B6
350
58
  3
B7
350
59
  3
B8
350
5A
  3
B9
350
5B
  3
C0
350
5C
  3
C1
350
5D
  3
C2
350
5E
  3
C3
350
5F
  3
C4
350
60
  3
C5
350
61
  3
C6
350
62
  3
C7
350
63
  3
C8
350
64
  3
C9
350
65
  3
D0
350
66
  3
D1
350
67
  3
D2
350
68
  0
DICTIONARY
  5
4DF
102
{ACAD_REACTORS
330
C
102
}
330
C
100
AcDbDictionary
281
     1
  0
DICTIONARY
  5
4DB
102
{ACAD_REACTORS
330
C
102
}
330
C
100
AcDbDictionary
281
     1
  0
DICTIONARY
  5
49B
102
{ACAD_REACTORS
330
C
102
}
330
C
100
AcDbDictionary
281
     1
  0
XRECORD
  5
563
102
{ACAD_REACTORS
330
C
102
}
330
C
100
AcDbXrecord
280
     1
  1
DWGPROPS COOKIE
  2

  3

  4

  6

  7

  8
emilio
  9

300
=
301
=
302
=
303
=
304
=
305
=
306
=
307
=
308
=
309
=
 40
0.0
 41
2456832.307648438
 42
2456832.310940822
  1

 90
        0
  0
SORTENTSTABLE
  5
4C1
102
{ACAD_REACTORS
330
4C0
330
4C0
102
}
330
4C0
100
AcDbSortentsTable
330
49E
  0
LAYOUT
  5
1E
102
{ACAD_REACTORS
330
1A
102
}
330
1A
100
AcDbPlotSettings
  1

  2
none_device
  4

  6

 40
0.0
 41
0.0
 42
0.0
 43
0.0
 44
0.0
 45
0.0
 46
0.0
 47
0.0
 48
0.0
 49
0.0
140
0.0
141
0.0
142
1.0
143
1.0
 70
   688
 72
     1
 73
     0
 74
     5
  7

 75
    16
147
1.0
148
0.0
149
0.0
100
AcDbLayout
  1
Layout1
 70
     1
 71
     1
 10
0.0
 20
0.0
 11
420.0
 21
297.0
 12
0.0
 22
0.0
 32
0.0
 14
1.000000000000000E+20
 24
1.000000000000000E+20
 34
1.000000000000000E+20
 15
-1.000000000000000E+20
 25
-1.000000000000000E+20
 35
-1.000000000000000E+20
146
0.0
 13
0.0
 23
0.0
 33
0.0
 16
1.0
 26
0.0
 36
0.0
 17
0.0
 27
1.0
 37
0.0
 76
     0
330
1B
  0
LAYOUT
  5
26
102
{ACAD_REACTORS
330
1A
102
}
330
1A
100
AcDbPlotSettings
  1

  2
none_device
  4

  6

 40
0.0
 41
0.0
 42
0.0
 43
0.0
 44
0.0
 45
0.0
 46
0.0
 47
0.0
 48
0.0
 49
0.0
140
0.0
141
0.0
142
1.0
143
1.0
 70
   688
 72
     1
 73
     0
 74
     5
  7

 75
    16
147
1.0
148
0.0
149
0.0
100
AcDbLayout
  1
Layout2
 70
     1
 71
     2
 10
0.0
 20
0.0
 11
0.0
 21
0.0
 12
0.0
 22
0.0
 32
0.0
 14
0.0
 24
0.0
 34
0.0
 15
0.0
 25
0.0
 35
0.0
146
0.0
 13
0.0
 23
0.0
 33
0.0
 16
1.0
 26
0.0
 36
0.0
 17
0.0
 27
1.0
 37
0.0
 76
     0
330
23
  0
LAYOUT
  5
22
102
{ACAD_REACTORS
330
1A
102
}
330
1A
100
AcDbPlotSettings
  1

  2
none_device
  4
Letter_(8.50_x_11.00_Inches)
  6

 40
6.35
 41
6.35
 42
6.35000508
 43
6.35000508
 44
215.9
 45
279.4
 46
0.0
 47
0.0
 48
0.0
 49
0.0
140
0.0
141
0.0
142
1.0
143
1.0
 70
  1712
 72
     1
 73
     0
 74
     0
  7

 75
     0
147
1.0
148
0.0
149
0.0
100
AcDbLayout
  1
Model
 70
     1
 71
     0
 10
0.0
 20
0.0
 11
420.0
 21
297.0
 12
0.0
 22
0.0
 32
0.0
 14
-160.782356583
 24
-95.2375465131
 34
0.0
 15
525.9185624394048
 25
285.0749738328
 35
0.0
146
0.0
 13
0.0
 23
0.0
 33
0.0
 16
1.0
 26
0.0
 36
0.0
 17
0.0
 27
1.0
 37
0.0
 76
     0
330
1F
331
29
  0
MLINESTYLE
  5
18
102
{ACAD_REACTORS
330
17
102
}
330
17
100
AcDbMlineStyle
  2
Standard
 70
     0
  3

 62
   256
 51
90.0
 52
90.0
 71
     2
 49
0.5
 62
   256
  6
BYLAYER
 49
-0.5
 62
   256
  6
BYLAYER
  0
ACDBPLACEHOLDER
  5
F
102
{ACAD_REACTORS
330
E
102
}
330
E
  0
SCALE
  5
48
102
{ACAD_REACTORS
330
47
102
}
330
47
100
AcDbScale
 70
     0
300
1:1
140
1.0
141
1.0
290
     1
  0
SCALE
  5
49
102
{ACAD_REACTORS
330
47
102
}
330
47
100
AcDbScale
 70
     0
300
1:2
140
1.0
141
2.0
290
     0
  0
SCALE
  5
4A
102
{ACAD_REACTORS
330
47
102
}
330
47
100
AcDbScale
 70
     0
300
1:4
140
1.0
141
4.0
290
     0
  0
SCALE
  5
4B
102
{ACAD_REACTORS
330
47
102
}
330
47
100
AcDbScale
 70
     0
300
1:5
140
1.0
141
5.0
290
     0
  0
SCALE
  5
4C
102
{ACAD_REACTORS
330
47
102
}
330
47
100
AcDbScale
 70
     0
300
1:8
140
1.0
141
8.0
290
     0
  0
SCALE
  5
4D
102
{ACAD_REACTORS
330
47
102
}
330
47
100
AcDbScale
 70
     0
300
1:10
140
1.0
141
10.0
290
     0
  0
SCALE
  5
4E
102
{ACAD_REACTORS
330
47
102
}
330
47
100
AcDbScale
 70
     0
300
1:16
140
1.0
141
16.0
290
     0
  0
SCALE
  5
4F
102
{ACAD_REACTORS
330
47
102
}
330
47
100
AcDbScale
 70
     0
300
1:20
140
1.0
141
20.0
290
     0
  0
SCALE
  5
50
102
{ACAD_REACTORS
330
47
102
}
330
47
100
AcDbScale
 70
     0
300
1:30
140
1.0
141
30.0
290
     0
  0
SCALE
  5
51
102
{ACAD_REACTORS
330
47
102
}
330
47
100
AcDbScale
 70
     0
300
1:40
140
1.0
141
40.0
290
     0
  0
SCALE
  5
52
102
{ACAD_REACTORS
330
47
102
}
330
47
100
AcDbScale
 70
     0
300
1:50
140
1.0
141
50.0
290
     0
  0
SCALE
  5
53
102
{ACAD_REACTORS
330
47
102
}
330
47
100
AcDbScale
 70
     0
300
1:100
140
1.0
141
100.0
290
     0
  0
SCALE
  5
54
102
{ACAD_REACTORS
330
47
102
}
330
47
100
AcDbScale
 70
     0
300
2:1
140
2.0
141
1.0
290
     0
  0
SCALE
  5
55
102
{ACAD_REACTORS
330
47
102
}
330
47
100
AcDbScale
 70
     0
300
4:1
140
4.0
141
1.0
290
     0
  0
SCALE
  5
56
102
{ACAD_REACTORS
330
47
102
}
330
47
100
AcDbScale
 70
     0
300
8:1
140
8.0
141
1.0
290
     0
  0
SCALE
  5
57
102
{ACAD_REACTORS
330
47
102
}
330
47
100
AcDbScale
 70
     0
300
10:1
140
10.0
141
1.0
290
     0
  0
SCALE
  5
58
102
{ACAD_REACTORS
330
47
102
}
330
47
100
AcDbScale
 70
     0
300
100:1
140
100.0
141
1.0
290
     0
  0
SCALE
  5
59
102
{ACAD_REACTORS
330
47
102
}
330
47
100
AcDbScale
 70
     0
300
1/128" = 1'-0"
140
0.0078125
141
12.0
290
     0
  0
SCALE
  5
5A
102
{ACAD_REACTORS
330
47
102
}
330
47
100
AcDbScale
 70
     0
300
1/64" = 1'-0"
140
0.015625
141
12.0
290
     0
  0
SCALE
  5
5B
102
{ACAD_REACTORS
330
47
102
}
330
47
100
AcDbScale
 70
     0
300
1/32" = 1'-0"
140
0.03125
141
12.0
290
     0
  0
SCALE
  5
5C
102
{ACAD_REACTORS
330
47
102
}
330
47
100
AcDbScale
 70
     0
300
1/16" = 1'-0"
140
0.0625
141
12.0
290
     0
  0
SCALE
  5
5D
102
{ACAD_REACTORS
330
47
102
}
330
47
100
AcDbScale
 70
     0
300
3/32" = 1'-0"
140
0.09375
141
12.0
290
     0
  0
SCALE
  5
5E
102
{ACAD_REACTORS
330
47
102
}
330
47
100
AcDbScale
 70
     0
300
1/8" = 1'-0"
140
0.125
141
12.0
290
     0
  0
SCALE
  5
5F
102
{ACAD_REACTORS
330
47
102
}
330
47
100
AcDbScale
 70
     0
300
3/16" = 1'-0"
140
0.1875
141
12.0
290
     0
  0
SCALE
  5
60
102
{ACAD_REACTORS
330
47
102
}
330
47
100
AcDbScale
 70
     0
300
1/4" = 1'-0"
140
0.25
141
12.0
290
     0
  0
SCALE
  5
61
102
{ACAD_REACTORS
330
47
102
}
330
47
100
AcDbScale
 70
     0
300
3/8" = 1'-0"
140
0.375
141
12.0
290
     0
  0
SCALE
  5
62
102
{ACAD_REACTORS
330
47
102
}
330
47
100
AcDbScale
 70
     0
300
1/2" = 1'-0"
140
0.5
141
12.0
290
     0
  0
SCALE
  5
63
102
{ACAD_REACTORS
330
47
102
}
330
47
100
AcDbScale
 70
     0
300
3/4" = 1'-0"
140
0.75
141
12.0
290
     0
  0
SCALE
  5
64
102
{ACAD_REACTORS
330
47
102
}
330
47
100
AcDbScale
 70
     0
300
1" = 1'-0"
140
1.0
141
12.0
290
     0
  0
SCALE
  5
65
102
{ACAD_REACTORS
330
47
102
}
330
47
100
AcDbScale
 70
     0
300
1-1/2" = 1'-0"
140
1.5
141
12.0
290
     0
  0
SCALE
  5
66
102
{ACAD_REACTORS
330
47
102
}
330
47
100
AcDbScale
 70
     0
300
3" = 1'-0"
140
3.0
141
12.0
290
     0
  0
SCALE
  5
67
102
{ACAD_REACTORS
330
47
102
}
330
47
100
AcDbScale
 70
     0
300
6" = 1'-0"
140
6.0
141
12.0
290
     0
  0
SCALE
  5
68
102
{ACAD_REACTORS
330
47
102
}
330
47
100
AcDbScale
 70
     0
300
1'-0" = 1'-0"
140
12.0
141
12.0
290
     0
  0
ENDSEC
  0
EOF
