  0
SECTION
  2
HEADER
  9
$ACADVER
  1
AC1015
  9
$ACADMAINTVER
 70
    20
  9
$DWGCODEPAGE
  3
ANSI_1252
  9
$INSBASE
 10
0.0
 20
0.0
 30
0.0
  9
$EXTMIN
 10
-68.50000000109957
 20
-63.34494070343743
 30
-0.0000000000000006
  9
$EXTMAX
 10
94.47739820181027
 20
55.00000000072984
 30
0.0000000000000006
  9
$LIMMIN
 10
-20.0
 20
-108.35
  9
$LIMMAX
 10
1350.85
 20
342.0054945054945
  9
$ORTHOMODE
 70
     0
  9
$REGENMODE
 70
     1
  9
$FILLMODE
 70
     1
  9
$QTEXTMODE
 70
     0
  9
$MIRRTEXT
 70
     1
  9
$LTSCALE
 40
10.0
  9
$ATTMODE
 70
     1
  9
$TEXTSIZE
 40
0.0
  9
$TRACEWID
 40
0.05
  9
$TEXTSTYLE
  7
Standard
  9
$CLAYER
  8
0
  9
$CELTYPE
  6
Continuous
  9
$CECOLOR
 62
   256
  9
$CELTSCALE
 40
1.0
  9
$DISPSILH
 70
     0
  9
$DIMSCALE
 40
1.0
  9
$DIMASZ
 40
1.25
  9
$DIMEXO
 40
0.0
  9
$DIMDLI
 40
0.38
  9
$DIMRND
 40
0.0
  9
$DIMDLE
 40
0.0
  9
$DIMEXE
 40
0.75
  9
$DIMTP
 40
0.0
  9
$DIMTM
 40
0.0
  9
$DIMTXT
 40
2.5
  9
$DIMCEN
 40
0.09
  9
$DIMTSZ
 40
0.0
  9
$DIMTOL
 70
     0
  9
$DIMLIM
 70
     0
  9
$DIMTIH
 70
     0
  9
$DIMTOH
 70
     0
  9
$DIMSE1
 70
     0
  9
$DIMSE2
 70
     0
  9
$DIMTAD
 70
     1
  9
$DIMZIN
 70
     0
  9
$DIMBLK
  1

  9
$DIMASO
 70
     1
  9
$DIMSHO
 70
     1
  9
$DIMPOST
  1

  9
$DIMAPOST
  1

  9
$DIMALT
 70
     0
  9
$DIMALTD
 70
     2
  9
$DIMALTF
 40
25.4
  9
$DIMLFAC
 40
1.0
  9
$DIMTOFL
 70
     0
  9
$DIMTVP
 40
0.0
  9
$DIMTIX
 70
     0
  9
$DIMSOXD
 70
     0
  9
$DIMSAH
 70
     0
  9
$DIMBLK1
  1

  9
$DIMBLK2
  1

  9
$DIMSTYLE
  2
Standard
  9
$DIMCLRD
 70
     7
  9
$DIMCLRE
 70
     7
  9
$DIMCLRT
 70
     7
  9
$DIMTFAC
 40
0.8
  9
$DIMGAP
 40
1.25
  9
$DIMJUST
 70
     0
  9
$DIMSD1
 70
     0
  9
$DIMSD2
 70
     0
  9
$DIMTOLJ
 70
     1
  9
$DIMTZIN
 70
     0
  9
$DIMALTZ
 70
     0
  9
$DIMALTTZ
 70
     0
  9
$DIMUPT
 70
     0
  9
$DIMDEC
 70
     2
  9
$DIMTDEC
 70
     4
  9
$DIMALTU
 70
     2
  9
$DIMALTTD
 70
     2
  9
$DIMTXSTY
  7
Standard
  9
$DIMAUNIT
 70
     0
  9
$DIMADEC
 70
     0
  9
$DIMALTRND
 40
0.0
  9
$DIMAZIN
 70
     0
  9
$DIMDSEP
 70
     0
  9
$DIMATFIT
 70
     3
  9
$DIMFRAC
 70
     0
  9
$DIMLDRBLK
  1

  9
$DIMLUNIT
 70
     2
  9
$DIMLWD
 70
     0
  9
$DIMLWE
 70
     0
  9
$DIMTMOVE
 70
     0
  9
$LUNITS
 70
     2
  9
$LUPREC
 70
     4
  9
$SKETCHINC
 40
0.1
  9
$FILLETRAD
 40
0.0
  9
$AUNITS
 70
     0
  9
$AUPREC
 70
     0
  9
$MENU
  1
acad
  9
$ELEVATION
 40
0.0
  9
$PELEVATION
 40
0.0
  9
$THICKNESS
 40
0.0
  9
$LIMCHECK
 70
     0
  9
$CHAMFERA
 40
0.0
  9
$CHAMFERB
 40
0.0
  9
$CHAMFERC
 40
0.0
  9
$CHAMFERD
 40
0.0
  9
$SKPOLY
 70
     0
  9
$TDCREATE
 40
2455307.697361111
  9
$TDUCREATE
 40
2455307.614027778
  9
$TDUPDATE
 40
2455307.621749178
  9
$TDUUPDATE
 40
2455307.538415845
  9
$TDINDWG
 40
0.0017950579
  9
$TDUSRTIMER
 40
0.0017945139
  9
$USRTIMER
 70
     1
  9
$ANGBASE
 50
0.0
  9
$ANGDIR
 70
     0
  9
$PDMODE
 70
     0
  9
$PDSIZE
 40
0.0
  9
$PLINEWID
 40
0.0
  9
$SPLFRAME
 70
     0
  9
$SPLINETYPE
 70
     6
  9
$SPLINESEGS
 70
     8
  9
$HANDSEED
  5
1033
  9
$SURFTAB1
 70
     6
  9
$SURFTAB2
 70
     6
  9
$SURFTYPE
 70
     6
  9
$SURFU
 70
     6
  9
$SURFV
 70
     6
  9
$UCSBASE
  2

  9
$UCSNAME
  2

  9
$UCSORG
 10
0.0
 20
0.0
 30
0.0
  9
$UCSXDIR
 10
1.0
 20
0.0
 30
0.0
  9
$UCSYDIR
 10
0.0
 20
1.0
 30
0.0
  9
$UCSORTHOREF
  2

  9
$UCSORTHOVIEW
 70
     0
  9
$UCSORGTOP
 10
0.0
 20
0.0
 30
0.0
  9
$UCSORGBOTTOM
 10
0.0
 20
0.0
 30
0.0
  9
$UCSORGLEFT
 10
0.0
 20
0.0
 30
0.0
  9
$UCSORGRIGHT
 10
0.0
 20
0.0
 30
0.0
  9
$UCSORGFRONT
 10
0.0
 20
0.0
 30
0.0
  9
$UCSORGBACK
 10
0.0
 20
0.0
 30
0.0
  9
$PUCSBASE
  2

  9
$PUCSNAME
  2

  9
$PUCSORG
 10
0.0
 20
0.0
 30
0.0
  9
$PUCSXDIR
 10
1.0
 20
0.0
 30
0.0
  9
$PUCSYDIR
 10
0.0
 20
1.0
 30
0.0
  9
$PUCSORTHOREF
  2

  9
$PUCSORTHOVIEW
 70
     0
  9
$PUCSORGTOP
 10
0.0
 20
0.0
 30
0.0
  9
$PUCSORGBOTTOM
 10
0.0
 20
0.0
 30
0.0
  9
$PUCSORGLEFT
 10
0.0
 20
0.0
 30
0.0
  9
$PUCSORGRIGHT
 10
0.0
 20
0.0
 30
0.0
  9
$PUCSORGFRONT
 10
0.0
 20
0.0
 30
0.0
  9
$PUCSORGBACK
 10
0.0
 20
0.0
 30
0.0
  9
$USERI1
 70
     0
  9
$USERI2
 70
     0
  9
$USERI3
 70
     0
  9
$USERI4
 70
     0
  9
$USERI5
 70
     0
  9
$USERR1
 40
0.0
  9
$USERR2
 40
0.0
  9
$USERR3
 40
0.0
  9
$USERR4
 40
0.0
  9
$USERR5
 40
0.0
  9
$WORLDVIEW
 70
     1
  9
$SHADEDGE
 70
     3
  9
$SHADEDIF
 70
    70
  9
$TILEMODE
 70
     1
  9
$MAXACTVP
 70
    16
  9
$PINSBASE
 10
0.0
 20
0.0
 30
0.0
  9
$PLIMCHECK
 70
     0
  9
$PEXTMIN
 10
1.000000000000000E+20
 20
1.000000000000000E+20
 30
1.000000000000000E+20
  9
$PEXTMAX
 10
-1.000000000000000E+20
 20
-1.000000000000000E+20
 30
-1.000000000000000E+20
  9
$PLIMMIN
 10
0.0
 20
0.0
  9
$PLIMMAX
 10
12.0
 20
9.0
  9
$UNITMODE
 70
     0
  9
$VISRETAIN
 70
     0
  9
$PLINEGEN
 70
     1
  9
$PSLTSCALE
 70
     0
  9
$TREEDEPTH
 70
  3020
  9
$CMLSTYLE
  2
Standard
  9
$CMLJUST
 70
     0
  9
$CMLSCALE
 40
1.0
  9
$PROXYGRAPHICS
 70
     0
  9
$MEASUREMENT
 70
     1
  9
$CELWEIGHT
370
     0
  9
$ENDCAPS
280
     0
  9
$JOINSTYLE
280
     0
  9
$LWDISPLAY
290
     0
  9
$INSUNITS
 70
     0
  9
$HYPERLINKBASE
  1

  9
$STYLESHEET
  1

  9
$XEDIT
290
     1
  9
$CEPSNTYPE
380
     0
  9
$PSTYLEMODE
290
     1
  9
$FINGERPRINTGUID
  2

  9
$VERSIONGUID
  2
{848DD928-E83B-4A7E-AA75-073071059EF6}
  9
$EXTNAMES
290
     1
  9
$PSVPSCALE
 40
0.0
  9
$OLESTARTUP
290
     0
  0
ENDSEC
  0
SECTION
  2
CLASSES
  0
CLASS
  1
IMAGE
  2
AcDbRasterImage
  3
ISM
 90
    34943
280
     0
281
     1
  0
CLASS
  1
DICTIONARYVAR
  2
AcDbDictionaryVar
  3
ObjectDBX Classes
 90
        0
280
     0
281
     0
  0
CLASS
  1
RASTERVARIABLES
  2
AcDbRasterVariables
  3
ISM
 90
    32768
280
     0
281
     0
  0
CLASS
  1
IMAGEDEF
  2
AcDbRasterImageDef
  3
ISM
 90
    32768
280
     0
281
     0
  0
CLASS
  1
IMAGEDEF_REACTOR
  2
AcDbRasterImageDefReactor
  3
ISM
 90
    32769
280
     0
281
     0
  0
CLASS
  1
IDBUFFER
  2
AcDbIdBuffer
  3
ObjectDBX Classes
 90
    32768
280
     0
281
     0
  0
CLASS
  1
SPATIAL_FILTER
  2
AcDbSpatialFilter
  3
ObjectDBX Classes
 90
    32768
280
     0
281
     0
  0
CLASS
  1
SORTENTSTABLE
  2
AcDbSortentsTable
  3
ObjectDBX Classes
 90
        0
280
     0
281
     0
  0
CLASS
  1
LAYER_INDEX
  2
AcDbLayerIndex
  3
ObjectDBX Classes
 90
    32768
280
     0
281
     0
  0
CLASS
  1
SPATIAL_INDEX
  2
AcDbSpatialIndex
  3
ObjectDBX Classes
 90
    32768
280
     0
281
     0
  0
CLASS
  1
OBJECT_PTR
  2
CAseDLPNTableRecord
  3
ASE-LPNTableRecord
 90
    32769
280
     0
281
     0
  0
CLASS
  1
LAYOUT
  2
AcDbLayout
  3
ObjectDBX Classes
 90
        0
280
     0
281
     0
  0
CLASS
  1
PLOTSETTINGS
  2
AcDbPlotSettings
  3
ObjectDBX Classes
 90
    32768
280
     0
281
     0
  0
CLASS
  1
ACDBDICTIONARYWDFLT
  2
AcDbDictionaryWithDefault
  3
ObjectDBX Classes
 90
        0
280
     0
281
     0
  0
CLASS
  1
ACDBPLACEHOLDER
  2
AcDbPlaceHolder
  3
ObjectDBX Classes
 90
        0
280
     0
281
     0
  0
CLASS
  1
VBA_PROJECT
  2
AcDbVbaProject
  3
acad
 90
    32768
280
     0
281
     0
  0
CLASS
  1
WIPEOUT
  2
AcDbWipeout
  3
"WipeOut|Product Desc: Object Enabler for WipeOut entity                        |Company: Autodesk, Inc.                        |WEB Address: www.autodesk.com"
 90
    34943
280
     0
281
     1
  0
CLASS
  1
WIPEOUTVARIABLES
  2
AcDbWipeoutVariables
  3
"WipeOut|Product Desc:     WipeOut Dbx Application|Company:          Autodesk, Inc.|WEB Address:      www.autodesk.com"
 90
        0
280
     0
281
     0
  0
CLASS
  1
RTEXT
  2
RText
  3
RText|AutoCAD Express Tool|expresstools@autodesk.com
 90
    35839
280
     0
281
     1
  0
CLASS
  1
ARCALIGNEDTEXT
  2
AcDbArcAlignedText
  3
ATEXT|AutoCAD Express Tool|expresstools@autodesk.com
 90
    32768
280
     0
281
     1
  0
CLASS
  1
MATERIAL
  2
AcDbMaterial
  3
ObjectDBX Classes
 90
     1153
280
     0
281
     0
  0
CLASS
  1
VISUALSTYLE
  2
AcDbVisualStyle
  3
ObjectDBX Classes
 90
     4095
280
     0
281
     0
  0
CLASS
  1
TABLESTYLE
  2
AcDbTableStyle
  3
ObjectDBX Classes
 90
     4095
280
     0
281
     0
  0
CLASS
  1
SCALE
  2
AcDbScale
  3
ObjectDBX Classes
 90
     1153
280
     0
281
     0
  0
CLASS
  1
MLEADERSTYLE
  2
AcDbMLeaderStyle
  3
ACDB_MLEADERSTYLE_CLASS
 90
     4095
280
     0
281
     0
  0
CLASS
  1
CELLSTYLEMAP
  2
AcDbCellStyleMap
  3
ObjectDBX Classes
 90
     1152
280
     0
281
     0
  0
ENDSEC
  0
SECTION
  2
TABLES
  0
TABLE
  2
VPORT
  5
7
330
0
100
AcDbSymbolTable
 70
     1
  0
VPORT
  5
15
330
7
100
AcDbSymbolTableRecord
100
AcDbViewportTableRecord
  2
*ACTIVE
 70
     0
 10
0.0
 20
0.0
 11
1.0
 21
1.0
 12
13.32500090353272
 22
-2.665886665752623
 13
0.0
 23
0.0
 14
1.0
 24
1.0
 15
0.0
 25
0.0
 16
0.0
 26
0.0
 36
1.0
 17
0.0
 27
0.0
 37
0.0
 40
133.9658984374864
 41
1.611330698287219
 42
50.0
 43
0.0
 44
0.0
 50
0.0
 51
0.0
 71
     0
 72
   100
 73
     1
 74
     1
 75
     0
 76
     0
 77
     0
 78
     0
281
     0
 65
     0
110
0.0
120
0.0
130
0.0
111
1.0
121
0.0
131
0.0
112
0.0
122
1.0
132
0.0
 79
     0
146
0.0
  0
ENDTAB
  0
TABLE
  2
LTYPE
  5
4
330
0
100
AcDbSymbolTable
 70
     3
  0
LTYPE
  5
11
330
4
100
AcDbSymbolTableRecord
100
AcDbLinetypeTableRecord
  2
ByBlock
 70
     0
  3

 72
    65
 73
     0
 40
0.0
  0
LTYPE
  5
12
330
4
100
AcDbSymbolTableRecord
100
AcDbLinetypeTableRecord
  2
ByLayer
 70
     0
  3

 72
    65
 73
     0
 40
0.0
  0
LTYPE
  5
13
330
4
100
AcDbSymbolTableRecord
100
AcDbLinetypeTableRecord
  2
Continuous
 70
     0
  3
Solid line
 72
    65
 73
     0
 40
0.0
  0
LTYPE
  5
4E0
330
4
100
AcDbSymbolTableRecord
100
AcDbLinetypeTableRecord
  2
CENTER
 70
     0
  3
____ _ ____ _ ____ _ ____ _ ____ _ ____ _ ____
 72
    65
 73
     4
 40
2.0
 49
1.25
 74
     0
 49
-0.25
 74
     0
 49
0.25
 74
     0
 49
-0.25
 74
     0
  0
ENDTAB
  0
TABLE
  2
LAYER
  5
2
330
0
100
AcDbSymbolTable
 70
     1
  0
LAYER
  5
14
102
{ACAD_XDICTIONARY
360
875
102
}
330
2
100
AcDbSymbolTableRecord
100
AcDbLayerTableRecord
  2
0
 70
     0
 62
     7
  6
Continuous
370
    -3
390
1D
  0
ENDTAB
  0
TABLE
  2
STYLE
  5
3
330
0
100
AcDbSymbolTable
 70
     1
  0
STYLE
  5
17
330
3
100
AcDbSymbolTableRecord
100
AcDbTextStyleTableRecord
  2
Standard
 70
     0
 40
0.0
 41
1.0
 50
0.0
 71
     0
 42
0.0
  3
IsonormD
  4

1001
ACAD
1000
IsonormD
1071
        0
  0
ENDTAB
  0
TABLE
  2
VIEW
  5
5
330
0
100
AcDbSymbolTable
 70
     0
  0
ENDTAB
  0
TABLE
  2
UCS
  5
6
330
0
100
AcDbSymbolTable
 70
     0
  0
ENDTAB
  0
TABLE
  2
APPID
  5
8
330
0
100
AcDbSymbolTable
 70
     5
  0
APPID
  5
16
330
8
100
AcDbSymbolTableRecord
100
AcDbRegAppTableRecord
  2
ACAD
 70
     0
  0
APPID
  5
26
330
8
100
AcDbSymbolTableRecord
100
AcDbRegAppTableRecord
  2
TopSolid'Draft
 70
     0
  0
APPID
  5
86D
330
8
100
AcDbSymbolTableRecord
100
AcDbRegAppTableRecord
  2
ACAD_MLEADERVER
 70
     0
  0
APPID
  5
873
330
8
100
AcDbSymbolTableRecord
100
AcDbRegAppTableRecord
  2
DCO15
 70
     0
  0
APPID
  5
1004
330
8
100
AcDbSymbolTableRecord
100
AcDbRegAppTableRecord
  2
ACAD_EXEMPT_FROM_CAD_STANDARDS
 70
     0
  0
ENDTAB
  0
TABLE
  2
DIMSTYLE
  5
9
330
0
100
AcDbSymbolTable
 70
     2
100
AcDbDimStyleTable
 71
     1
340
18
  0
DIMSTYLE
105
18
330
9
100
AcDbSymbolTableRecord
100
AcDbDimStyleTableRecord
  2
Standard
 70
     0
 41
1.25
 42
0.0
 44
0.75
 73
     0
 74
     0
 77
     1
140
2.5
146
0.8
147
1.25
176
     7
177
     7
178
     7
271
     2
340
17
  0
ENDTAB
  0
TABLE
  2
BLOCK_RECORD
  5
1
330
0
100
AcDbSymbolTable
 70
    48
  0
BLOCK_RECORD
  5
A
102
{ACAD_XDICTIONARY
360
8AF
102
}
330
1
100
AcDbSymbolTableRecord
100
AcDbBlockTableRecord
  2
*MODEL_SPACE
340
20
  0
BLOCK_RECORD
  5
B
330
1
100
AcDbSymbolTableRecord
100
AcDbBlockTableRecord
  2
*PAPER_SPACE
340
21
  0
ENDTAB
  0
ENDSEC
  0
SECTION
  2
BLOCKS
  0
BLOCK
  5
D
330
A
100
AcDbEntity
  8
0
100
AcDbBlockBegin
  2
*MODEL_SPACE
 70
     0
 10
0.0
 20
0.0
 30
0.0
  3
*MODEL_SPACE
  1

  0
ENDBLK
  5
E
330
A
100
AcDbEntity
  8
0
100
AcDbBlockEnd
  0
BLOCK
  5
F
330
B
100
AcDbEntity
 67
     1
  8
0
100
AcDbBlockBegin
  2
*PAPER_SPACE
 70
     0
 10
0.0
 20
0.0
 30
0.0
  3
*PAPER_SPACE
  1

  0
ENDBLK
  5
10
330
B
100
AcDbEntity
 67
     1
  8
0
100
AcDbBlockEnd
  0
ENDSEC
  0
SECTION
  2
ENTITIES
  0
LINE
  5
5C6
330
A
100
AcDbEntity
  8
0
  6
CENTER
 62
     1
100
AcDbLine
 10
-10.00000000074646
 20
35.85857157182918
 30
0.0
 11
-10.00000000074646
 21
54.14142842891485
 31
0.0
  0
LINE
  5
5C7
330
A
100
AcDbEntity
  8
0
  6
CENTER
 62
     1
100
AcDbLine
 10
17.99999999962722
 20
35.85857157055784
 30
0.0
 11
17.99999999962722
 21
54.14142842764357
 31
0.0
  0
LINE
  5
5C8
330
A
100
AcDbEntity
  8
0
  6
CENTER
 62
     1
100
AcDbLine
 10
-19.14142842928902
 20
45.00000000037206
 30
0.0
 11
27.14142842817023
 21
45.00000000037206
 31
0.0
  0
LINE
  5
5C9
330
A
100
AcDbEntity
  8
0
  6
CENTER
 62
     1
100
AcDbLine
 10
-4.000000000372779
 20
0.0
 30
0.0
 11
21.59999999962725
 21
0.0
 31
0.0
  0
LINE
  5
5CA
330
A
100
AcDbEntity
  8
0
  6
CENTER
 62
     1
100
AcDbLine
 10
-9.999999999999545
 20
-59.14142842921134
 30
0.0
 11
-9.999999999999545
 21
-40.85857157212564
 31
0.0
  0
LINE
  5
5CB
330
A
100
AcDbEntity
  8
0
  6
CENTER
 62
     1
100
AcDbLine
 10
17.99999999962722
 20
-59.14142842919824
 30
0.0
 11
17.99999999962722
 21
-40.85857157211253
 31
0.0
  0
LINE
  5
5CC
330
A
100
AcDbEntity
  8
0
  6
CENTER
 62
     1
100
AcDbLine
 10
-19.14142842854244
 20
-50.00000000066854
 30
0.0
 11
27.14142842817023
 21
-50.00000000066854
 31
0.0
  0
ELLIPSE
  5
A2D
330
A
100
AcDbEntity
  8
0
  6
Continuous
 62
     9
100
AcDbEllipse
 10
87.23752242630416
 20
-49.41576260606793
 30
0.0
 11
-0.1599999999928325
 21
-0.7838367176920827
 31
0.0
210
0.0
220
0.0
230
1.0
 40
0.4082482904486335
 41
3.605240262671868
 42
5.176036589466613
  0
ELLIPSE
  5
A2E
330
A
100
AcDbEntity
  8
0
  6
Continuous
 62
     9
100
AcDbEllipse
 10
87.23752242630416
 20
-49.41576260606793
 30
0.0
 11
0.5059644257054963
 21
-0.6196773353289721
 31
0.0
210
0.0000000000000001
220
0.0000000000000001
230
1.0
 40
0.8164965809006668
 41
0.7853981632938859
 42
2.356194490088757
  0
ELLIPSE
  5
A2F
330
A
100
AcDbEntity
  8
0
  6
Continuous
 62
     9
100
AcDbEllipse
 10
87.23752242630416
 20
-49.41576260606793
 30
0.0
 11
-0.7999999999999119
 21
-0.0000000000332789
 31
-0.0000000000000001
210
-0.0000000000000001
220
0.0000000000000001
230
1.0
 40
0.4082482905332164
 41
1.10714871779559
 42
2.677945044590673
  0
LINE
  5
A30
330
A
100
AcDbEntity
  8
0
  6
Continuous
 62
     9
100
AcDbLine
 10
86.87975154991727
 20
-49.70788130346882
 30
0.0
 11
73.28445824659207
 21
-46.93275367887955
 31
0.0
  0
ELLIPSE
  5
A31
330
A
100
AcDbEntity
  8
0
  6
Continuous
 62
     7
100
AcDbEllipse
 10
73.64222912297828
 20
-46.64063498147863
 30
0.0
 11
-0.1599999999928325
 21
-0.7838367176921378
 31
0.0000000000000001
210
0.0
220
0.0000000000000001
230
1.0
 40
0.4082482904486322
 41
3.605240262672133
 42
5.176036589466883
  0
LINE
  5
A32
330
A
100
AcDbEntity
  8
0
  6
Continuous
 62
     9
100
AcDbLine
 10
73.64222912294827
 20
-45.91033823816323
 30
0.0
 11
87.23752242627416
 21
-48.68546586275255
 31
0.0
  0
LINE
  5
A33
330
A
100
AcDbEntity
  8
0
  6
Continuous
 62
     9
100
AcDbLine
 10
86.87975155046411
 20
-62.85322268314613
 30
0.0
 11
86.87975154991727
 21
-49.70788130346882
 31
0.0
  0
LINE
  5
A34
330
A
100
AcDbEntity
  8
0
  6
Continuous
 62
     9
100
AcDbLine
 10
87.95306417911115
 20
-49.56182195473054
 30
0.0
 11
87.95306417965822
 21
-62.70716333440794
 31
0.0
  0
ELLIPSE
  5
A35
330
A
100
AcDbEntity
  8
0
  6
Continuous
 62
     9
100
AcDbEllipse
 10
87.23752242685122
 20
-62.56110398574534
 30
0.0
 11
-0.7999999999999119
 21
-0.0000000000332928
 31
-0.0000000000000001
210
-0.0000000000000001
220
0.0000000000000001
230
1.0
 40
0.4082482905332164
 41
1.107148717795879
 42
2.677945044590673
  0
LINE
  5
A36
330
A
100
AcDbEntity
  8
0
  6
Continuous
 62
     9
100
AcDbLine
 10
94.39293995407025
 20
-44.30368540151533
 30
0.0
 11
87.95306417911115
 21
-49.56182195473054
 31
0.0
  0
LINE
  5
A37
330
A
100
AcDbEntity
  8
0
  6
Continuous
 62
     9
100
AcDbLine
 10
87.23752242627416
 20
-48.68546586275255
 30
0.0
 11
93.67739820123324
 21
-43.42732930953736
 31
0.0
  0
ELLIPSE
  5
A38
330
A
100
AcDbEntity
  8
0
  6
Continuous
 62
     9
100
AcDbEllipse
 10
93.67739820126326
 20
-44.15762605285275
 30
0.0
 11
0.5059644257057184
 21
-0.619677335329083
 31
0.0
210
0.0
220
0.0
230
1.0
 40
0.8164965809006632
 41
0.7853981632936713
 42
2.356194490088546
  0
LINE
  5
A39
330
A
100
AcDbEntity
  8
0
  6
Continuous
 62
     9
100
AcDbLine
 10
73.28445824713913
 20
-60.07809505855684
 30
0.0
 11
86.87975155046411
 21
-62.85322268314613
 31
0.0
  0
LINE
  5
A3A
330
A
100
AcDbEntity
  8
0
  6
Continuous
 62
     7
100
AcDbLine
 10
73.28445824659207
 20
-46.93275367887955
 30
0.0
 11
73.28445824713913
 21
-60.07809505855684
 31
0.0
  0
LINE
  5
A3B
330
A
100
AcDbEntity
  8
0
  6
Continuous
 62
     9
100
AcDbLine
 10
93.67739820123324
 20
-43.42732930953736
 30
0.0
 11
80.08210489790712
 21
-40.65220168494803
 31
0.0
  0
LINE
  5
A3C
330
A
100
AcDbEntity
  8
0
  6
Continuous
 62
     7
100
AcDbLine
 10
80.08210489790712
 20
-40.65220168494803
 30
0.0
 11
73.64222912294827
 21
-45.91033823816323
 31
0.0
  0
ELLIPSE
  5
A3D
330
A
100
AcDbEntity
  8
0
  6
Continuous
 62
     7
100
AcDbEllipse
 10
84.01758453849424
 20
-44.74186344818164
 30
0.0
 11
5.713142742834294
 21
0.0000000002377265
 31
0.0
210
0.0
220
0.0
230
1.0
 40
0.4082482905332183
 41
3.595362523706093
 42
5.819537698180472
  0
LINE
  5
A3E
330
A
100
AcDbEntity
  8
0
  6
Continuous
 62
     9
100
AcDbLine
 10
87.95306417965822
 20
-62.70716333440794
 30
0.0
 11
94.39293995461708
 21
-57.44902678119264
 31
0.0
  0
LINE
  5
A3F
330
A
100
AcDbEntity
  8
0
  6
Continuous
 62
     9
100
AcDbLine
 10
94.39293995461708
 20
-57.44902678119264
 30
0.0
 11
94.39293995407025
 21
-44.30368540151533
 31
0.0
  0
ELLIPSE
  5
A40
330
A
100
AcDbEntity
  8
0
  6
Continuous
 62
     7
100
AcDbEllipse
 10
84.01758453849424
 20
-44.74186344818164
 30
0.0
 11
5.713142742834294
 21
0.0000000002377265
 31
0.0
210
0.0
220
0.0
230
1.0
 40
0.4082482905332183
 41
5.819537698180472
 42
5.829415437063293
  0
ELLIPSE
  5
A41
330
A
100
AcDbEntity
  8
0
  6
Continuous
 62
     7
100
AcDbEllipse
 10
84.01758453849424
 20
-44.74186344818164
 30
0.0
 11
5.713142742834294
 21
0.0000000002377265
 31
0.0
210
0.0
220
0.0
230
1.0
 40
0.408248290533218
 41
5.829415437063293
 42
9.878547830885679
  0
ELLIPSE
  5
A42
330
A
100
AcDbEntity
  8
0
  6
Continuous
 62
     9
100
AcDbEllipse
 10
87.23752242685122
 20
-62.56110398574534
 30
0.0
 11
0.5059644257057184
 21
-0.619677335329083
 31
0.0
210
0.0
220
0.0
230
1.0
 40
0.8164965809006627
 41
0.000000000000226
 42
0.7853981632936887
  0
ELLIPSE
  5
A43
330
A
100
AcDbEntity
  8
0
  6
Continuous
 62
     9
100
AcDbEllipse
 10
87.23752242685122
 20
-62.56110398574534
 30
0.0
 11
0.1599999999928325
 21
0.7838367176920684
 31
0.0
210
0.0
220
0.0
230
1.0
 40
0.4082482904486337
 41
2.03444393587705
 42
3.141592653589796
  0
ELLIPSE
  5
A44
330
A
100
AcDbEntity
  8
0
  6
Continuous
 62
     7
100
AcDbEllipse
 10
73.64222912352511
 20
-59.78597636115603
 30
0.0
 11
-0.1599999999928325
 21
-0.7838367176920827
 31
0.0
210
0.0
220
0.0
230
1.0
 40
0.4082482904486325
 41
5.176036589466646
 42
6.283185307179584
  0
ELLIPSE
  5
A45
330
A
100
AcDbEntity
  8
0
  6
Continuous
 62
     9
100
AcDbEllipse
 10
93.67739820181009
 20
-57.30296743253012
 30
0.0
 11
0.5059644257054963
 21
-0.6196773353289721
 31
0.0000000000000001
210
0.0
220
0.0000000000000001
230
1.0
 40
0.8164965809006638
 41
6.283185307179584
 42
7.068583470473506
  0
ELLIPSE
  5
A46
330
A
100
AcDbEntity
  8
0
  6
Continuous
 62
     9
100
AcDbEllipse
 10
93.67739820126326
 20
-44.15762605285275
 30
0.0
 11
0.1599999999928325
 21
0.7838367176920827
 31
0.0
210
-0.0000000000000001
220
0.0
230
1.0
 40
0.4082482904486325
 41
0.0
 42
0.463647609082078
  0
ELLIPSE
  5
A47
330
A
100
AcDbEntity
  8
0
  6
Continuous
 62
     9
100
AcDbEllipse
 10
93.67739820126326
 20
-44.15762605285275
 30
0.0
 11
-0.7999999999999119
 21
-0.0000000000332789
 31
-0.0000000000000001
210
-0.0000000000000001
220
0.0
230
1.0
 40
0.4082482905332178
 41
2.677945044590706
 42
3.141592653589826
  0
ELLIPSE
  5
A48
330
A
100
AcDbEntity
  8
0
  6
Continuous
 62
     7
100
AcDbEllipse
 10
80.08210489793805
 20
-41.38249842826343
 30
0.0
 11
-0.1599999999928324
 21
-0.7838367176920546
 31
0.0
210
0.0
220
0.0
230
1.0
 40
0.4082482904486321
 41
3.1415926535898
 42
3.605240262671868
  0
ELLIPSE
  5
A49
330
A
100
AcDbEntity
  8
0
  6
Continuous
 62
     9
100
AcDbEllipse
 10
93.67739820181009
 20
-57.30296743253012
 30
0.0
 11
-0.8000000000001339
 21
-0.0000000000332928
 31
-0.0000000000000001
210
-0.0000000000000001
220
0.0
230
1.0
 40
0.4082482905332178
 41
2.677945044590738
 42
3.141592653589792
  0
ELLIPSE
  5
A4A
330
A
100
AcDbEntity
  8
0
  6
Continuous
 62
     7
100
AcDbEllipse
 10
71.13783298830322
 20
-49.41576260538624
 30
0.0
 11
1.440000000129113
 21
7.054530459189189
 31
-0.0000000000000006
210
0.0
220
0.0000000000000001
230
1.0
 40
0.40824829041816
 41
5.400129681579736
 42
6.283185307179588
  0
ELLIPSE
  5
A4B
330
A
100
AcDbEntity
  8
0
  6
Continuous
 62
     7
100
AcDbEllipse
 10
67.91789510111221
 20
-45.47216019164983
 30
0.0
 11
0.1600000000143709
 21
0.7838367176876973
 31
-0.0000000000000001
210
0.0
220
0.0000000000000001
230
1.0
 40
0.40824829041816
 41
0.4636476090302509
 42
2.034443935825149
  0
LINE
  5
A4C
330
A
100
AcDbEntity
  8
0
  6
Continuous
 62
     7
100
AcDbLine
 10
67.91789510113108
 20
-44.74186344832154
 30
0.0
 11
74.35777087585029
 21
-39.48372689588424
 31
0.0
  0
ELLIPSE
  5
A4D
330
A
100
AcDbEntity
  8
0
  6
Continuous
 62
     7
100
AcDbEllipse
 10
74.35777087583232
 20
-40.21402363921254
 30
0.0
 11
0.1600000000143709
 21
0.7838367176876973
 31
-0.0000000000000001
210
0.0
220
0.0000000000000001
230
1.0
 40
0.40824829041816
 41
5.176036589414978
 42
6.283185307179584
  0
LINE
  5
A4E
330
A
100
AcDbEntity
  8
0
  6
Continuous
 62
     7
100
AcDbLine
 10
74.71554175220513
 20
-39.92190494185493
 30
0.0
 11
74.71554175207325
 21
-45.03398214598933
 31
0.0
  0
LINE
  5
A4F
330
A
100
AcDbEntity
  8
0
  6
Continuous
 62
     7
100
AcDbLine
 10
73.28445824692607
 20
-54.96601785405643
 30
0.0
 11
67.91789510075523
 21
-59.34779831488824
 31
0.0
  0
ELLIPSE
  5
A50
330
A
100
AcDbEntity
  8
0
  6
Continuous
 62
     7
100
AcDbEllipse
 10
67.91789510077319
 20
-58.61750157155984
 30
0.0
 11
0.1600000000143709
 21
0.7838367176876831
 31
-0.0000000000000001
210
0.0
220
0.0000000000000001
230
1.0
 40
0.4082482904181602
 41
2.034443935825382
 42
3.141592653589792
  0
LINE
  5
A51
330
A
100
AcDbEntity
  8
0
  6
Continuous
 62
     7
100
AcDbLine
 10
67.56012422440017
 20
-58.90962026891753
 30
0.0
 11
67.56012422473919
 21
-45.76427888900752
 31
0.0
  0
LINE
  5
A52
330
A
100
AcDbEntity
  8
0
  6
Continuous
 62
     9
100
AcDbLine
 10
67.56012422473919
 20
-45.76427888900752
 30
0.0
 11
53.9648309212871
 21
-42.98915126400362
 31
0.0
  0
ELLIPSE
  5
A53
330
A
100
AcDbEntity
  8
0
  6
Continuous
 62
     9
100
AcDbEllipse
 10
54.32260179766036
 20
-42.69703256664604
 30
0.0
 11
-0.1600000000143709
 21
-0.7838367176876973
 31
0.0
210
0.0
220
0.0
230
1.0
 40
0.4082482904181587
 41
3.605240262620561
 42
5.176036589414978
  0
LINE
  5
A54
330
A
100
AcDbEntity
  8
0
  6
Continuous
 62
     9
100
AcDbLine
 10
54.32260179767922
 20
-41.96673582331775
 30
0.0
 11
67.91789510113108
 21
-44.74186344832154
 31
0.0
  0
LINE
  5
A55
330
A
100
AcDbEntity
  8
0
  6
Continuous
 62
     9
100
AcDbLine
 10
53.96483092094832
 20
-56.13449264391364
 30
0.0
 11
67.56012422440017
 21
-58.90962026891753
 31
0.0
  0
LINE
  5
A56
330
A
100
AcDbEntity
  8
0
  6
Continuous
 62
     9
100
AcDbLine
 10
53.9648309212871
 20
-42.98915126400362
 30
0.0
 11
53.96483092094832
 21
-56.13449264391364
 31
0.0
  0
LINE
  5
A57
330
A
100
AcDbEntity
  8
0
  6
Continuous
 62
     9
100
AcDbLine
 10
60.76247757239821
 20
-36.70859927088043
 30
0.0
 11
54.32260179767922
 21
-41.96673582331775
 31
0.0
  0
LINE
  5
A58
330
A
100
AcDbEntity
  8
0
  6
Continuous
 62
     9
100
AcDbLine
 10
74.35777087585029
 20
-39.48372689588424
 30
0.0
 11
60.76247757239821
 21
-36.70859927088043
 31
0.0
  0
ELLIPSE
  5
A59
330
A
100
AcDbEntity
  8
0
  6
Continuous
 62
     7
100
AcDbEllipse
 10
63.98241546035819
 20
-40.65220168525875
 30
0.0
 11
5.713142742834294
 21
-0.0000000001473544
 31
0.0
210
0.0
220
0.0000000000000001
230
1.0
 40
0.4082482904970951
 41
3.595362523654319
 42
5.819537698226616
  0
ELLIPSE
  5
A5A
330
A
100
AcDbEntity
  8
0
  6
Continuous
 62
     7
100
AcDbEllipse
 10
71.13783298830322
 20
-49.41576260538624
 30
0.0
 11
1.440000000129113
 21
7.054530459189189
 31
-0.0000000000000006
210
0.0
220
0.0000000000000001
230
1.0
 40
0.40824829041816
 41
3.141592653589794
 42
4.334967919018013
  0
ELLIPSE
  5
A5B
330
A
100
AcDbEntity
  8
0
  6
Continuous
 62
     7
100
AcDbEllipse
 10
71.13783298830322
 20
-49.41576260538624
 30
0.0
 11
1.440000000129113
 21
7.054530459189189
 31
-0.0000000000000006
210
0.0
220
0.0000000000000001
230
1.0
 40
0.40824829041816
 41
0.0000000000000008
 42
3.141592653589794
  0
ELLIPSE
  5
A5C
330
A
100
AcDbEntity
  8
0
  6
Continuous
 62
     7
100
AcDbEllipse
 10
63.98241546035819
 20
-40.65220168525875
 30
0.0
 11
5.713142742834294
 21
-0.0000000001473544
 31
0.0
210
0.0
220
0.0
230
1.0
 40
0.4082482904970951
 41
5.819537698226616
 42
5.829415437115074
  0
ELLIPSE
  5
A5D
330
A
100
AcDbEntity
  8
0
  6
Continuous
 62
     7
100
AcDbEllipse
 10
63.98241546035819
 20
-40.65220168525875
 30
0.0
 11
5.713142742834294
 21
-0.0000000001473544
 31
0.0
210
0.0
220
0.0000000000000001
230
1.0
 40
0.4082482904970951
 41
5.829415437115074
 42
9.878547830833904
  0
ELLIPSE
  5
A5E
330
A
100
AcDbEntity
  8
0
  6
Continuous
 62
     9
100
AcDbEllipse
 10
54.32260179766036
 20
-42.69703256664604
 30
0.0
 11
0.7999999999999119
 21
-0.0000000000206224
 31
0.0
210
0.0
220
0.0
230
1.0
 40
0.4082482904971004
 41
3.141592653589722
 42
4.248741371431663
  0
ELLIPSE
  5
A5F
330
A
100
AcDbEntity
  8
0
  6
Continuous
 62
     9
100
AcDbEllipse
 10
54.32260179766036
 20
-42.69703256664604
 30
0.0
 11
0.5059644256719677
 21
-0.619677335356422
 31
0.0
210
0.0000000000000001
220
0.0000000000000001
230
1.0
 40
0.8164965809339625
 41
2.356194490096029
 42
3.141592653589813
  0
ELLIPSE
  5
A60
330
A
100
AcDbEntity
  8
0
  6
Continuous
 62
     7
100
AcDbEllipse
 10
67.91789510077319
 20
-58.61750157155984
 30
0.0
 11
0.1600000000143709
 21
0.7838367176876831
 31
-0.0000000000000001
210
0.0
220
0.0000000000000001
230
1.0
 40
0.4082482904181603
 41
3.141592653589792
 42
3.605240262620045
  0
ELLIPSE
  5
A61
330
A
100
AcDbEntity
  8
0
  6
Continuous
 62
     9
100
AcDbEllipse
 10
54.32260179732111
 20
-55.84237394655594
 30
0.0
 11
0.1600000000143709
 21
0.7838367176876973
 31
0.0
210
0.0
220
0.0
230
1.0
 40
0.4082482904181589
 41
2.034443935825149
 42
3.141592653589786
  0
ELLIPSE
  5
A62
330
A
100
AcDbEntity
  8
0
  6
Continuous
 62
     9
100
AcDbEllipse
 10
54.32260179732111
 20
-55.84237394655594
 30
0.0
 11
0.7999999999999119
 21
-0.0000000000206363
 31
0.0
210
0.0
220
0.0
230
1.0
 40
0.4082482904970976
 41
3.141592653589758
 42
4.248741371431663
  0
ELLIPSE
  5
A63
330
A
100
AcDbEntity
  8
0
  6
Continuous
 62
     9
100
AcDbEllipse
 10
60.76247757237911
 20
-37.43889601420875
 30
0.0
 11
0.5059644256719677
 21
-0.619677335356422
 31
0.0000000000000001
210
0.0
220
0.0000000000000002
230
1.0
 40
0.8164965809339602
 41
2.35619449009548
 42
3.141592653589813
  0
ELLIPSE
  5
A64
330
A
100
AcDbEntity
  8
0
  6
Continuous
 62
     7
100
AcDbEllipse
 10
74.35777087583232
 20
-40.21402363921254
 30
0.0
 11
0.1600000000143709
 21
0.7838367176876973
 31
0.0
210
-0.0000000000000001
220
0.0
230
1.0
 40
0.4082482904181596
 41
0.0
 42
0.4636476090302509
  0
ELLIPSE
  5
A65
330
A
100
AcDbEntity
  8
0
  6
Continuous
 62
     9
100
AcDbEllipse
 10
60.76247757237911
 20
-37.43889601420875
 30
0.0
 11
-0.1600000000143709
 21
-0.7838367176876693
 31
0.0000000000000001
210
0.0
220
0.0000000000000001
230
1.0
 40
0.4082482904181596
 41
3.1415926535898
 42
3.605240262620049
  0
ELLIPSE
  5
A66
330
A
100
AcDbEntity
  8
0
  6
Continuous
 62
     7
100
AcDbEllipse
 10
71.13783298833232
 20
-49.41576260536534
 30
0.0
 11
0.4800000000000362
 21
2.351510153071861
 31
0.0
210
0.0000000000000001
220
0.0
230
1.0
 40
0.4082482904638631
 41
3.605240262590606
 42
3.727278197039586
  0
ELLIPSE
  5
A67
330
A
100
AcDbEntity
  8
0
  6
Continuous
 62
     7
100
AcDbEllipse
 10
71.13783298833232
 20
-49.41576260536534
 30
0.0
 11
0.4800000000000362
 21
2.351510153071861
 31
0.0
210
0.0
220
0.0
230
1.0
 40
0.4082482904638631
 41
5.697499763714996
 42
6.28318530717958
  0
ELLIPSE
  5
A68
330
A
100
AcDbEntity
  8
0
  6
Continuous
 62
     7
100
AcDbEllipse
 10
71.13783298833232
 20
-49.41576260536534
 30
0.0
 11
-1.360000000000027
 21
-6.662612100370237
 31
0.0
210
0.0000000000000001
220
0.0
230
1.0
 40
0.4082482904638633
 41
0.0
 42
0.4636476090008257
  0
ELLIPSE
  5
A69
330
A
100
AcDbEntity
  8
0
  6
Continuous
 62
     7
100
AcDbEllipse
 10
70.42229123553216
 20
-49.26970325669734
 30
0.0
 11
-1.360000000000027
 21
-6.662612100370237
 31
0.0
210
0.0000000000000001
220
0.0
230
1.0
 40
0.4082482904638633
 41
6.184374536851392
 42
6.283185307179584
  0
ELLIPSE
  5
A6A
330
A
100
AcDbEntity
  8
0
  6
Continuous
 62
     7
100
AcDbEllipse
 10
70.42229123553216
 20
-49.26970325669734
 30
0.0
 11
-1.360000000000027
 21
-6.662612100370237
 31
0.0000000000000005
210
-0.0000000000000001
220
0.0000000000000001
230
1.0
 40
0.408248290463863
 41
3.141592653589794
 42
3.240403423785584
  0
ELLIPSE
  5
A6B
330
A
100
AcDbEntity
  8
0
  6
Continuous
 62
     7
100
AcDbEllipse
 10
71.13783298833232
 20
-49.41576260536534
 30
0.0
 11
-1.360000000000027
 21
-6.662612100370237
 31
0.0
210
0.0000000000000001
220
0.0
230
1.0
 40
0.4082482904638633
 41
2.271965106480134
 42
3.141592653589794
  0
ELLIPSE
  5
A6C
330
A
100
AcDbEntity
  8
0
  6
Continuous
 62
     7
100
AcDbEllipse
 10
71.13783298833232
 20
-49.41576260536534
 30
0.0
 11
-1.360000000000027
 21
-6.662612100370237
 31
0.0
210
0.0
220
0.0
230
1.0
 40
0.4082482904638633
 41
0.4636476090008257
 42
1.247315665173635
  0
ELLIPSE
  5
A6D
330
A
100
AcDbEntity
  8
0
  6
Continuous
 62
     7
100
AcDbEllipse
 10
71.13783298833232
 20
-49.41576260536534
 30
0.0
 11
-1.360000000000027
 21
-6.662612100370237
 31
0.0
210
0.0000000000000001
220
0.0
230
1.0
 40
0.4082482904638633
 41
3.141592653589794
 42
6.283185307179584
  0
ELLIPSE
  5
A6E
330
A
100
AcDbEntity
  8
0
  6
Continuous
 62
     7
100
AcDbEllipse
 10
71.13783298833232
 20
-49.41576260536534
 30
0.0
 11
0.4800000000000362
 21
2.351510153071861
 31
0.0
210
0.0000000000000001
220
0.0
230
1.0
 40
0.4082482904638633
 41
3.141592653589788
 42
3.605240262590606
  0
ELLIPSE
  5
A6F
330
A
100
AcDbEntity
  8
0
  6
Continuous
 62
     7
100
AcDbEllipse
 10
71.13783298833232
 20
-49.41576260536534
 30
0.0
 11
0.4800000000000362
 21
2.351510153071861
 31
0.0
210
0.0
220
0.0
230
1.0
 40
0.4082482904638631
 41
6.28318530717958
 42
9.424777960769377
  0
ELLIPSE
  5
A70
330
A
100
AcDbEntity
  8
0
  6
Continuous
 62
     7
100
AcDbEllipse
 10
70.42228408011419
 20
-49.26970179610383
 30
0.0
 11
-0.4800000000000362
 21
-2.351510153071805
 31
0.0
210
0.0
220
0.0
230
1.0
 40
0.4082482904638631
 41
2.555907110125115
 42
2.759695389290826
  0
ELLIPSE
  5
A71
330
A
100
AcDbEntity
  8
0
  6
Continuous
 62
     7
100
AcDbEllipse
 10
70.42228408011419
 20
-49.26970179610383
 30
0.0
 11
-0.4800000000000362
 21
-2.351510153071805
 31
0.0
210
0.0000000000000001
220
0.0
230
1.0
 40
0.4082482904638628
 41
0.4636476090007286
 42
0.585685543449706
  0
ELLIPSE
  5
A72
330
A
100
AcDbEntity
  8
0
  6
Continuous
 62
     7
100
AcDbEllipse
 10
70.42228408011419
 20
-49.26970179610383
 30
0.0
 11
-0.4800000000000362
 21
-2.351510153071805
 31
0.0
210
0.0000000000000001
220
0.0
230
1.0
 40
0.4082482904638631
 41
0.3818972642987255
 42
0.4636476090007286
  0
ELLIPSE
  5
A73
330
A
100
AcDbEntity
  8
0
  6
Continuous
 62
     7
100
AcDbEllipse
 10
70.42229123553216
 20
-49.26970325669734
 30
0.0
 11
-0.4159999999999722
 21
-2.0379754659956
 31
0.0
210
0.0000000000000001
220
0.0
230
1.0
 40
0.4082482904638633
 41
0.2396547070131781
 42
0.2782468227173887
  0
ELLIPSE
  5
A74
330
A
100
AcDbEntity
  8
0
  6
Continuous
 62
     7
100
AcDbEllipse
 10
70.42229123553216
 20
-49.26970325669734
 30
0.0
 11
-1.400000000000066
 21
-6.858571279792902
 31
0.0
210
0.0000000000000001
220
0.0
230
1.0
 40
0.4082482904638633
 41
0.0143752177737552
 42
0.2396185686291064
  0
ELLIPSE
  5
A75
330
A
100
AcDbEntity
  8
0
  6
Continuous
 62
     7
100
AcDbEllipse
 10
70.42229123553216
 20
-49.26970325669734
 30
0.0
 11
-1.400000000000066
 21
-6.858571279792902
 31
0.0
210
0.0000000000000001
220
0.0
230
1.0
 40
0.4082482904638633
 41
2.901974084960668
 42
3.127217435716156
  0
ELLIPSE
  5
A76
330
A
100
AcDbEntity
  8
0
  6
Continuous
 62
     7
100
AcDbEllipse
 10
70.42229123553216
 20
-49.26970325669734
 30
0.0
 11
-0.4159999999999722
 21
-2.0379754659956
 31
0.0
210
0.0000000000000001
220
0.0
230
1.0
 40
0.4082482904638633
 41
2.863345830837756
 42
2.901937946576497
  0
ARC
  5
A77
330
A
100
AcDbEntity
  8
0
  6
Continuous
 62
     7
100
AcDbCircle
 10
87.23752242685122
 20
-62.56110398574534
 30
0.0
 40
0.8000000000000023
100
AcDbArc
 50
258.4630409677072
 51
309.231520490863
  0
LINE
  5
A78
330
A
100
AcDbEntity
  8
0
  6
Continuous
 62
     7
100
AcDbLine
 10
73.48222912353321
 20
-60.56981307884813
 30
0.0
 11
87.07752242685819
 21
-63.34494070343743
 31
0.0
  0
LINE
  5
A79
330
A
100
AcDbEntity
  8
0
  6
Continuous
 62
     7
100
AcDbLine
 10
87.74348685255722
 20
-63.18078132107435
 30
0.0
 11
94.18336262751608
 21
-57.92264476785913
 31
0.0
  0
ARC
  5
A7A
330
A
100
AcDbEntity
  8
0
  6
Continuous
 62
     7
100
AcDbCircle
 10
93.67739820126326
 20
-44.15762605285275
 30
0.0
 40
0.8000000000001339
100
AcDbArc
 50
0.000000002384042
 51
78.4630409677069
  0
LINE
  5
A7B
330
A
100
AcDbEntity
  8
0
  6
Continuous
 62
     7
100
AcDbLine
 10
93.83739820125606
 20
-43.37378933516075
 30
0.0
 11
80.24210489793018
 21
-40.59866171057135
 31
0.0
  0
LINE
  5
A7C
330
A
100
AcDbEntity
  8
0
  6
Continuous
 62
     7
100
AcDbLine
 10
94.47739820181027
 20
-57.30296743249684
 30
0.0
 11
94.4773982012632
 21
-44.15762605281943
 31
0.0
  0
ARC
  5
A7D
330
A
100
AcDbEntity
  8
0
  6
Continuous
 62
     7
100
AcDbCircle
 10
93.67739820181009
 20
-57.30296743253012
 30
0.0
 40
0.7999999999999316
100
AcDbArc
 50
309.231520490857
 51
0.0000000023824136
  0
ARC
  5
A7E
330
A
100
AcDbEntity
  8
0
  6
Continuous
 62
     7
100
AcDbCircle
 10
54.32260179766036
 20
-42.69703256664604
 30
0.0
 40
0.7999999999999785
100
AcDbArc
 50
129.2315204877541
 51
179.999999998523
  0
LINE
  5
A7F
330
A
100
AcDbEntity
  8
0
  6
Continuous
 62
     7
100
AcDbLine
 10
54.16260179730716
 20
-56.62621066424363
 30
0.0
 11
67.75789510075924
 21
-59.40133828924754
 31
0.0
  0
LINE
  5
A80
330
A
100
AcDbEntity
  8
0
  6
Continuous
 62
     7
100
AcDbLine
 10
53.52260179766017
 20
-42.69703256662535
 30
0.0
 11
53.52260179732116
 21
-55.84237394653533
 31
0.0
  0
LINE
  5
A81
330
A
100
AcDbEntity
  8
0
  6
Continuous
 62
     7
100
AcDbLine
 10
60.25651314670722
 20
-36.81921867885234
 30
0.0
 11
53.81663737198824
 21
-42.07735523128962
 31
0.0
  0
ARC
  5
A82
330
A
100
AcDbEntity
  8
0
  6
Continuous
 62
     7
100
AcDbCircle
 10
54.32260179732111
 20
-55.84237394655594
 30
0.0
 40
0.8000000000001339
100
AcDbArc
 50
179.9999999985213
 51
258.4630409661378
  0
LINE
  5
A83
330
A
100
AcDbEntity
  8
0
  6
Continuous
 62
     7
100
AcDbLine
 10
74.51777087584606
 20
-39.43018692152495
 30
0.0
 11
60.92247757239329
 21
-36.65505929652105
 31
0.0
  0
ARC
  5
A84
330
A
100
AcDbEntity
  8
0
  6
Continuous
 62
     7
100
AcDbCircle
 10
60.76247757237911
 20
-37.43889601420875
 30
0.0
 40
0.8000000000000131
100
AcDbArc
 50
78.46304096613147
 51
129.2315204877531
  0
LINE
  5
A85
330
A
100
AcDbEntity
  8
0
  6
Continuous
 62
     7
100
AcDbLine
 10
73.28445824662821
 20
-47.81269919903912
 30
0.0
 11
71.00717302186717
 21
-47.34785029908545
 31
0.0
  0
LINE
  5
A86
330
A
100
AcDbEntity
  8
0
  6
Continuous
 62
     7
100
AcDbLine
 10
70.20717302187904
 20
-51.26703388754103
 30
0.0
 11
73.28445824679807
 21
-51.89518210371244
 31
0.0
  0
LINE
  5
A87
330
A
100
AcDbEntity
  8
0
  6
Continuous
 62
     7
100
AcDbLine
 10
69.06229123553226
 20
-55.93231535706753
 30
0.0
 11
69.7778329883322
 21
-56.07837470573564
 31
0.0
  0
LINE
  5
A88
330
A
100
AcDbEntity
  8
0
  6
Continuous
 62
     7
100
AcDbLine
 10
72.49783298833222
 20
-42.75315050499512
 30
0.0
 11
71.78229123553228
 21
-42.60709115632704
 31
0.0
  0
ARC
  5
A89
330
A
100
AcDbEntity
  8
0
  6
Continuous
 62
     7
100
AcDbCircle
 10
-67.50000000109958
 20
8.999999999233779
 30
0.0
 40
1.0
100
AcDbArc
 50
90.00000000486579
 51
180.0000000048658
  0
LINE
  5
A8A
330
A
100
AcDbEntity
  8
0
  6
Continuous
 62
     9
100
AcDbLine
 10
-67.50000000109958
 20
8.999999999233779
 30
0.0
 11
-67.50000000118451
 21
9.999999999233779
 31
0.0
  0
LINE
  5
A8B
330
A
100
AcDbEntity
  8
0
  6
Continuous
 62
     9
100
AcDbLine
 10
-68.50000000109957
 20
8.999999999148741
 30
0.0
 11
-67.5000000010807
 21
8.999999999233779
 31
0.0
  0
LINE
  5
A8C
330
A
100
AcDbEntity
  8
0
  6
Continuous
 62
     7
100
AcDbLine
 10
-68.4999999995706
 20
-9.00000000085123
 30
0.0
 11
-68.50000000109957
 21
8.999999999148741
 31
0.0
  0
LINE
  5
A8D
330
A
100
AcDbEntity
  8
0
  6
Continuous
 62
     9
100
AcDbLine
 10
-67.5000000010807
 20
8.999999999233779
 30
0.0
 11
-67.49999999955207
 21
-9.000000000766334
 31
0.0
  0
LINE
  5
A8E
330
A
100
AcDbEntity
  8
0
  6
Continuous
 62
     9
100
AcDbLine
 10
-68.4999999995706
 20
-9.00000000085123
 30
0.0
 11
-67.49999999955207
 21
-9.000000000766334
 31
0.0
  0
LINE
  5
A8F
330
A
100
AcDbEntity
  8
0
  6
Continuous
 62
     9
100
AcDbLine
 10
-67.49999999948556
 20
-10.00000000076633
 30
0.0
 11
-67.49999999957061
 21
-9.000000000766334
 31
0.0
  0
ARC
  5
A90
330
A
100
AcDbEntity
  8
0
  6
Continuous
 62
     7
100
AcDbCircle
 10
-67.49999999957061
 20
-9.000000000766334
 30
0.0
 40
1.0
100
AcDbArc
 50
180.0000000048658
 51
270.0000000048658
  0
LINE
  5
A91
330
A
100
AcDbEntity
  8
0
  6
Continuous
 62
     9
100
AcDbLine
 10
-49.50000000108071
 20
9.000000000762668
 30
0.0
 11
-67.5000000010807
 21
8.999999999233779
 31
0.0
  0
LINE
  5
A92
330
A
100
AcDbEntity
  8
0
  6
Continuous
 62
     7
100
AcDbLine
 10
-67.50000000118451
 20
9.999999999233779
 30
0.0
 11
-49.5000000011845
 21
10.00000000076266
 31
0.0
  0
LINE
  5
A93
330
A
100
AcDbEntity
  8
0
  6
Continuous
 62
     9
100
AcDbLine
 10
-49.50000000109958
 20
9.000000000762668
 30
0.0
 11
-49.5000000011845
 21
10.00000000076266
 31
0.0
  0
LINE
  5
A94
330
A
100
AcDbEntity
  8
0
  6
Continuous
 62
     9
100
AcDbLine
 10
-67.49999999955207
 20
-9.000000000766334
 30
0.0
 11
-49.49999999955207
 21
-8.999999999237331
 31
0.0
  0
LINE
  5
A95
330
A
100
AcDbEntity
  8
0
  6
Continuous
 62
     9
100
AcDbLine
 10
-49.49999999955207
 20
-8.999999999237331
 30
0.0
 11
-49.50000000108071
 21
9.000000000762668
 31
0.0
  0
LINE
  5
A96
330
A
100
AcDbEntity
  8
0
  6
Continuous
 62
     7
100
AcDbLine
 10
-49.49999999948556
 20
-9.999999999237331
 30
0.0
 11
-67.49999999948556
 21
-10.00000000076633
 31
0.0
  0
LINE
  5
A97
330
A
100
AcDbEntity
  8
0
  6
Continuous
 62
     9
100
AcDbLine
 10
-49.49999999948556
 20
-9.999999999237331
 30
0.0
 11
-49.49999999957061
 21
-8.999999999237331
 31
0.0
  0
ARC
  5
A98
330
A
100
AcDbEntity
  8
0
  6
Continuous
 62
     7
100
AcDbCircle
 10
-49.50000000109958
 20
9.000000000762668
 30
0.0
 40
1.0
100
AcDbArc
 50
0.0000000048657907
 51
90.00000000486579
  0
LINE
  5
A99
330
A
100
AcDbEntity
  8
0
  6
Continuous
 62
     9
100
AcDbLine
 10
-49.50000000108071
 20
9.000000000762668
 30
0.0
 11
-48.50000000109957
 21
9.000000000847563
 31
0.0
  0
LINE
  5
A9A
330
A
100
AcDbEntity
  8
0
  6
Continuous
 62
     7
100
AcDbLine
 10
-48.50000000109957
 20
9.000000000847563
 30
0.0
 11
-48.4999999995706
 21
-8.999999999152322
 31
0.0
  0
LINE
  5
A9B
330
A
100
AcDbEntity
  8
0
  6
Continuous
 62
     9
100
AcDbLine
 10
-49.49999999955207
 20
-8.999999999237331
 30
0.0
 11
-48.4999999995706
 21
-8.999999999152322
 31
0.0
  0
ARC
  5
A9C
330
A
100
AcDbEntity
  8
0
  6
Continuous
 62
     7
100
AcDbCircle
 10
-49.49999999957061
 20
-8.999999999237331
 30
0.0
 40
1.0
100
AcDbArc
 50
270.0000000048658
 51
0.0000000048657907
  0
LINE
  5
A9D
330
A
100
AcDbEntity
  8
0
  6
Continuous
 62
     9
100
AcDbLine
 10
57.5000000000332
 20
-8.999999999052249
 30
0.0
 11
57.50000000001114
 21
-9.99999999908951
 31
0.0
  0
ARC
  5
A9E
330
A
100
AcDbEntity
  8
0
  6
Continuous
 62
     7
100
AcDbCircle
 10
57.5000000000332
 20
-8.99999999908951
 30
0.0
 40
0.9999999999998896
100
AcDbArc
 50
179.9999999987379
 51
269.9999999987363
  0
LINE
  5
A9F
330
A
100
AcDbEntity
  8
0
  6
Continuous
 62
     9
100
AcDbLine
 10
57.50000000007026
 20
-8.99999999908951
 30
0.0
 11
56.5000000000332
 21
-8.99999999906754
 31
0.0
  0
LINE
  5
AA0
330
A
100
AcDbEntity
  8
0
  6
Continuous
 62
     9
100
AcDbLine
 10
57.50000000007026
 20
-8.999999999052249
 30
0.0
 11
75.50000000007026
 21
-8.999999999448846
 31
0.0
  0
LINE
  5
AA1
330
A
100
AcDbEntity
  8
0
  6
Continuous
 62
     9
100
AcDbLine
 10
75.50000000003229
 20
-8.999999999448846
 30
0.0
 11
75.50000000001023
 21
-9.999999999486163
 31
0.0
  0
LINE
  5
AA2
330
A
100
AcDbEntity
  8
0
  6
Continuous
 62
     7
100
AcDbLine
 10
75.50000000001114
 20
-9.999999999486163
 30
0.0
 11
57.50000000001114
 21
-9.99999999908951
 31
0.0
  0
LINE
  5
AA3
330
A
100
AcDbEntity
  8
0
  6
Continuous
 62
     9
100
AcDbLine
 10
57.50000000046725
 20
9.00000000094775
 30
0.0
 11
57.50000000007026
 21
-8.999999999052249
 31
0.0
  0
LINE
  5
AA4
330
A
100
AcDbEntity
  8
0
  6
Continuous
 62
     7
100
AcDbLine
 10
56.5000000000332
 20
-8.99999999906754
 30
0.0
 11
56.50000000042905
 21
9.000000000932487
 31
0.0
  0
LINE
  5
AA5
330
A
100
AcDbEntity
  8
0
  6
Continuous
 62
     9
100
AcDbLine
 10
57.50000000046725
 20
9.000000000910375
 30
0.0
 11
56.50000000042905
 21
9.000000000932487
 31
0.0
  0
LINE
  5
AA6
330
A
100
AcDbEntity
  8
0
  6
Continuous
 62
     9
100
AcDbLine
 10
75.50000000046726
 20
9.000000000551182
 30
0.0
 11
57.50000000046611
 21
9.00000000094775
 31
0.0
  0
LINE
  5
AA7
330
A
100
AcDbEntity
  8
0
  6
Continuous
 62
     9
100
AcDbLine
 10
75.50000000007026
 20
-8.999999999448846
 30
0.0
 11
75.50000000046726
 21
9.000000000551182
 31
0.0
  0
ARC
  5
AA8
330
A
100
AcDbEntity
  8
0
  6
Continuous
 62
     7
100
AcDbCircle
 10
75.50000000003229
 20
-8.999999999486163
 30
0.0
 40
1.000000000000111
100
AcDbArc
 50
269.9999999987363
 51
359.9999999987379
  0
LINE
  5
AA9
330
A
100
AcDbEntity
  8
0
  6
Continuous
 62
     9
100
AcDbLine
 10
76.5000000000332
 20
-8.999999999508133
 30
0.0
 11
75.50000000007026
 21
-8.999999999486163
 31
0.0
  0
ARC
  5
AAA
330
A
100
AcDbEntity
  8
0
  6
Continuous
 62
     7
100
AcDbCircle
 10
57.50000000042906
 20
9.000000000910375
 30
0.0
 40
1.0
100
AcDbArc
 50
89.99999999874283
 51
179.9999999987396
  0
LINE
  5
AAB
330
A
100
AcDbEntity
  8
0
  6
Continuous
 62
     9
100
AcDbLine
 10
57.50000000045133
 20
10.00000000091037
 30
0.0
 11
57.50000000042906
 21
9.00000000094775
 31
0.0
  0
LINE
  5
AAC
330
A
100
AcDbEntity
  8
0
  6
Continuous
 62
     7
100
AcDbLine
 10
76.50000000042905
 20
9.000000000491866
 30
0.0
 11
76.5000000000332
 21
-8.999999999508133
 31
0.0
  0
LINE
  5
AAD
330
A
100
AcDbEntity
  8
0
  6
Continuous
 62
     9
100
AcDbLine
 10
76.50000000042905
 20
9.000000000491866
 30
0.0
 11
75.50000000046726
 21
9.000000000513864
 31
0.0
  0
LINE
  5
AAE
330
A
100
AcDbEntity
  8
0
  6
Continuous
 62
     7
100
AcDbLine
 10
57.50000000045133
 20
10.00000000091037
 30
0.0
 11
75.50000000045134
 21
10.00000000051386
 31
0.0
  0
LINE
  5
AAF
330
A
100
AcDbEntity
  8
0
  6
Continuous
 62
     9
100
AcDbLine
 10
75.50000000045134
 20
10.00000000051386
 30
0.0
 11
75.50000000042905
 21
9.000000000551182
 31
0.0
  0
ARC
  5
AB0
330
A
100
AcDbEntity
  8
0
  6
Continuous
 62
     7
100
AcDbCircle
 10
75.50000000042905
 20
9.000000000513864
 30
0.0
 40
1.000000000000111
100
AcDbArc
 50
359.9999999987379
 51
89.99999999873633
  0
LINE
  5
AB1
330
A
100
AcDbEntity
  8
0
  6
Continuous
 62
     7
100
AcDbLine
 10
7.999999999440433
 20
-40.00000000075703
 30
0.0
 11
26.99999999944021
 21
-40.00000000040254
 31
0.0
  0
LINE
  5
AB2
330
A
100
AcDbEntity
  8
0
  6
Continuous
 62
     9
100
AcDbLine
 10
26.99999999944021
 20
-40.00000000040254
 30
0.0
 11
26.9999999994593
 21
-41.00000000048754
 31
0.0
  0
LINE
  5
AB3
330
A
100
AcDbEntity
  8
0
  6
Continuous
 62
     9
100
AcDbLine
 10
26.9999999994593
 20
-41.00000000048754
 30
0.0
 11
7.999999999459532
 21
-41.00000000084193
 31
0.0
  0
LINE
  5
AB4
330
A
100
AcDbEntity
  8
0
  6
Continuous
 62
     7
100
AcDbLine
 10
7.999999999459305
 20
-41.00000000084193
 30
0.0
 11
7.999999999440433
 21
-40.00000000075703
 31
0.0
  0
LINE
  5
AB5
330
A
100
AcDbEntity
  8
0
  6
Continuous
 62
     9
100
AcDbLine
 10
27.99999999945931
 20
-41.00000000038392
 30
0.0
 11
26.9999999994593
 21
-41.00000000040253
 31
0.0
  0
ARC
  5
AB6
330
A
100
AcDbEntity
  8
0
  6
Continuous
 62
     7
100
AcDbCircle
 10
26.9999999994593
 20
-41.00000000040253
 30
0.0
 40
1.000000000000111
100
AcDbArc
 50
0.0000000010682593
 51
90.00000000106826
  0
LINE
  5
AB7
330
A
100
AcDbEntity
  8
0
  6
Continuous
 62
     9
100
AcDbLine
 10
26.99999999979514
 20
-59.00000000048755
 30
0.0
 11
26.9999999994593
 21
-41.00000000048754
 31
0.0
  0
LINE
  5
AB8
330
A
100
AcDbEntity
  8
0
  6
Continuous
 62
     9
100
AcDbLine
 10
7.999999999794908
 20
-59.00000000084194
 30
0.0
 11
26.99999999979423
 21
-59.00000000048755
 31
0.0
  0
CIRCLE
  5
AB9
330
A
100
AcDbEntity
  8
0
  6
Continuous
 62
     7
100
AcDbCircle
 10
17.99999999962722
 20
-50.00000000065544
 30
0.0
 40
7.141428428542845
  0
LINE
  5
ABA
330
A
100
AcDbEntity
  8
0
  6
Continuous
 62
     7
100
AcDbLine
 10
7.999999999459305
 20
-41.00000000084193
 30
0.0
 11
7.999999999794908
 21
-59.00000000084194
 31
0.0
  0
LINE
  5
ABB
330
A
100
AcDbEntity
  8
0
  6
Continuous
 62
     7
100
AcDbLine
 10
27.99999999945931
 20
-41.00000000038392
 30
0.0
 11
27.99999999979514
 21
-59.00000000038392
 31
0.0
  0
LINE
  5
ABC
330
A
100
AcDbEntity
  8
0
  6
Continuous
 62
     9
100
AcDbLine
 10
27.99999999979514
 20
-59.00000000038392
 30
0.0
 11
26.99999999979423
 21
-59.00000000040264
 31
0.0
  0
LINE
  5
ABD
330
A
100
AcDbEntity
  8
0
  6
Continuous
 62
     7
100
AcDbLine
 10
26.9999999998131
 20
-60.00000000040254
 30
0.0
 11
7.999999999813894
 21
-60.00000000075693
 31
0.0
  0
LINE
  5
ABE
330
A
100
AcDbEntity
  8
0
  6
Continuous
 62
     9
100
AcDbLine
 10
26.9999999998131
 20
-60.00000000040254
 30
0.0
 11
26.99999999979514
 21
-59.00000000048755
 31
0.0
  0
LINE
  5
ABF
330
A
100
AcDbEntity
  8
0
  6
Continuous
 62
     7
100
AcDbLine
 10
7.999999999813553
 20
-60.00000000075704
 30
0.0
 11
7.999999999794908
 21
-59.00000000084194
 31
0.0
  0
ARC
  5
AC0
330
A
100
AcDbEntity
  8
0
  6
Continuous
 62
     7
100
AcDbCircle
 10
26.99999999979514
 20
-59.00000000040254
 30
0.0
 40
1.0
100
AcDbArc
 50
270.0000000010683
 51
0.0000000010682593
  0
ARC
  5
AC1
330
A
100
AcDbEntity
  8
0
  6
Continuous
 62
     7
100
AcDbCircle
 10
-19.00000000037244
 20
-41.00000000098222
 30
0.0
 40
1.0
100
AcDbArc
 50
90.00000000213651
 51
180.0000000021365
  0
LINE
  5
AC2
330
A
100
AcDbEntity
  8
0
  6
Continuous
 62
     9
100
AcDbLine
 10
-19.00000000037244
 20
-41.00000000100425
 30
0.0
 11
-19.00000000040984
 21
-40.00000000098222
 31
0.0
  0
LINE
  5
AC3
330
A
100
AcDbEntity
  8
0
  6
Continuous
 62
     9
100
AcDbLine
 10
-19.00000000033526
 20
-41.00000000098222
 30
0.0
 11
-20.00000000037244
 21
-41.00000000101954
 31
0.0
  0
LINE
  5
AC4
330
A
100
AcDbEntity
  8
0
  6
Continuous
 62
     9
100
AcDbLine
 10
-19.00000000033526
 20
-41.00000000100425
 30
0.0
 11
-18.99999999966417
 21
-59.00000000100425
 31
0.0
  0
LINE
  5
AC5
330
A
100
AcDbEntity
  8
0
  6
Continuous
 62
     9
100
AcDbLine
 10
-18.99999999966417
 20
-59.00000000098224
 30
0.0
 11
-19.99999999970123
 21
-59.00000000101954
 31
0.0
  0
LINE
  5
AC6
330
A
100
AcDbEntity
  8
0
  6
Continuous
 62
     7
100
AcDbLine
 10
-19.99999999970123
 20
-59.00000000101954
 30
0.0
 11
-20.00000000037244
 21
-41.00000000101954
 31
0.0
  0
LINE
  5
AC7
330
A
100
AcDbEntity
  8
0
  6
Continuous
 62
     7
100
AcDbLine
 10
-19.00000000040984
 20
-40.00000000098222
 30
0.0
 11
-0.0000000004101821
 21
-40.00000000027341
 31
0.0
  0
LINE
  5
AC8
330
A
100
AcDbEntity
  8
0
  6
Continuous
 62
     7
100
AcDbLine
 10
-0.0000000004101821
 20
-40.00000000027341
 30
0.0
 11
-0.0000000003727791
 21
-41.00000000029541
 31
0.0
  0
LINE
  5
AC9
330
A
100
AcDbEntity
  8
0
  6
Continuous
 62
     9
100
AcDbLine
 10
-0.0000000003352625
 20
-41.00000000029541
 30
0.0
 11
-19.00000000033526
 21
-41.00000000100425
 31
0.0
  0
LINE
  5
ACA
330
A
100
AcDbEntity
  8
0
  6
Continuous
 62
     9
100
AcDbLine
 10
-18.99999999966417
 20
-59.00000000100425
 30
0.0
 11
0.000000000336172
 21
-59.00000000029542
 31
0.0
  0
LINE
  5
ACB
330
A
100
AcDbEntity
  8
0
  6
Continuous
 62
     7
100
AcDbLine
 10
0.000000000336172
 20
-59.00000000029542
 30
0.0
 11
-0.0000000003352625
 21
-41.00000000029541
 31
0.0
  0
CIRCLE
  5
ACC
330
A
100
AcDbEntity
  8
0
  6
Continuous
 62
     7
100
AcDbCircle
 10
-9.999999999999545
 20
-50.00000000066854
 30
0.0
 40
7.141428428542845
  0
ARC
  5
ACD
330
A
100
AcDbEntity
  8
0
  6
Continuous
 62
     7
100
AcDbCircle
 10
-18.999999999701
 20
-59.00000000098224
 30
0.0
 40
1.0
100
AcDbArc
 50
180.0000000021365
 51
270.0000000021365
  0
LINE
  5
ACE
330
A
100
AcDbEntity
  8
0
  6
Continuous
 62
     9
100
AcDbLine
 10
-18.99999999966417
 20
-60.00000000098224
 30
0.0
 11
-18.999999999701
 21
-59.00000000100425
 31
0.0
  0
LINE
  5
ACF
330
A
100
AcDbEntity
  8
0
  6
Continuous
 62
     7
100
AcDbLine
 10
0.000000000336172
 20
-60.00000000027343
 30
0.0
 11
-18.99999999966417
 21
-60.00000000098224
 31
0.0
  0
LINE
  5
AD0
330
A
100
AcDbEntity
  8
0
  6
Continuous
 62
     7
100
AcDbLine
 10
0.000000000298769
 20
-59.00000000029542
 30
0.0
 11
0.000000000336172
 21
-60.00000000027343
 31
0.0
  0
LINE
  5
AD1
330
A
100
AcDbEntity
  8
0
  6
Continuous
 62
     9
100
AcDbLine
 10
7.99999999962722
 20
-47.90000000002343
 30
0.0
 11
-0.0000000003727791
 21
-47.90000000002343
 31
0.0
  0
LINE
  5
AD2
330
A
100
AcDbEntity
  8
0
  6
Continuous
 62
     9
100
AcDbLine
 10
-0.0000000003727791
 20
-52.10000000002354
 30
0.0
 11
7.99999999962722
 21
-52.10000000002354
 31
0.0
  0
LINE
  5
AD3
330
A
100
AcDbEntity
  8
0
  6
Continuous
 62
     7
100
AcDbLine
 10
7.99999999962722
 20
-47.50000000002365
 30
0.0
 11
-0.0000000003727791
 21
-47.50000000002365
 31
0.0
  0
LINE
  5
AD4
330
A
100
AcDbEntity
  8
0
  6
Continuous
 62
     7
100
AcDbLine
 10
-0.0000000003727791
 20
-52.50000000002355
 30
0.0
 11
7.99999999962722
 21
-52.50000000002355
 31
0.0
  0
LINE
  5
AD5
330
A
100
AcDbEntity
  8
0
  6
Continuous
 62
     7
100
AcDbLine
 10
7.999999999813553
 20
54.99999999937216
 30
0.0
 11
26.9999999998131
 21
54.99999999901774
 31
0.0
  0
LINE
  5
AD6
330
A
100
AcDbEntity
  8
0
  6
Continuous
 62
     9
100
AcDbLine
 10
26.9999999998131
 20
54.99999999901774
 30
0.0
 11
26.99999999979514
 21
53.99999999893276
 31
0.0
  0
LINE
  5
AD7
330
A
100
AcDbEntity
  8
0
  6
Continuous
 62
     9
100
AcDbLine
 10
26.99999999979514
 20
53.99999999893276
 30
0.0
 11
7.99999999979525
 21
53.99999999928724
 31
0.0
  0
LINE
  5
AD8
330
A
100
AcDbEntity
  8
0
  6
Continuous
 62
     7
100
AcDbLine
 10
7.999999999794908
 20
53.99999999928724
 30
0.0
 11
7.999999999813553
 21
54.99999999937216
 31
0.0
  0
ARC
  5
AD9
330
A
100
AcDbEntity
  8
0
  6
Continuous
 62
     7
100
AcDbCircle
 10
26.99999999979514
 20
53.99999999901774
 30
0.0
 40
1.0
100
AcDbArc
 50
359.9999999989317
 51
89.99999999893175
  0
LINE
  5
ADA
330
A
100
AcDbEntity
  8
0
  6
Continuous
 62
     9
100
AcDbLine
 10
26.99999999979514
 20
53.99999999901774
 30
0.0
 11
27.99999999979514
 21
53.99999999899904
 31
0.0
  0
LINE
  5
ADB
330
A
100
AcDbEntity
  8
0
  6
Continuous
 62
     9
100
AcDbLine
 10
26.9999999994593
 20
35.99999999893288
 30
0.0
 11
26.99999999979514
 21
53.99999999893276
 31
0.0
  0
LINE
  5
ADC
330
A
100
AcDbEntity
  8
0
  6
Continuous
 62
     7
100
AcDbLine
 10
27.99999999979514
 20
53.99999999899904
 30
0.0
 11
27.99999999945931
 21
35.99999999899916
 31
0.0
  0
LINE
  5
ADD
330
A
100
AcDbEntity
  8
0
  6
Continuous
 62
     9
100
AcDbLine
 10
26.9999999994593
 20
35.99999999901775
 30
0.0
 11
27.99999999945931
 21
35.99999999899916
 31
0.0
  0
LINE
  5
ADE
330
A
100
AcDbEntity
  8
0
  6
Continuous
 62
     9
100
AcDbLine
 10
7.999999999459305
 20
35.99999999928724
 30
0.0
 11
26.9999999994593
 21
35.99999999893288
 31
0.0
  0
CIRCLE
  5
ADF
330
A
100
AcDbEntity
  8
0
  6
Continuous
 62
     7
100
AcDbCircle
 10
17.99999999962722
 20
44.99999999910068
 30
0.0
 40
7.141428428542845
  0
LINE
  5
AE0
330
A
100
AcDbEntity
  8
0
  6
Continuous
 62
     7
100
AcDbLine
 10
7.999999999794908
 20
53.99999999928724
 30
0.0
 11
7.999999999459305
 21
35.99999999928724
 31
0.0
  0
ARC
  5
AE1
330
A
100
AcDbEntity
  8
0
  6
Continuous
 62
     7
100
AcDbCircle
 10
26.9999999994593
 20
35.99999999901775
 30
0.0
 40
1.000000000000111
100
AcDbArc
 50
269.9999999989318
 51
359.9999999989317
  0
LINE
  5
AE2
330
A
100
AcDbEntity
  8
0
  6
Continuous
 62
     9
100
AcDbLine
 10
26.9999999994593
 20
35.99999999893288
 30
0.0
 11
26.99999999944021
 21
34.99999999901775
 31
0.0
  0
LINE
  5
AE3
330
A
100
AcDbEntity
  8
0
  6
Continuous
 62
     7
100
AcDbLine
 10
26.99999999944021
 20
34.99999999901775
 30
0.0
 11
7.999999999440774
 21
34.99999999937216
 31
0.0
  0
LINE
  5
AE4
330
A
100
AcDbEntity
  8
0
  6
Continuous
 62
     7
100
AcDbLine
 10
7.999999999440433
 20
34.99999999937216
 30
0.0
 11
7.999999999459305
 21
35.99999999928724
 31
0.0
  0
LINE
  5
AE5
330
A
100
AcDbEntity
  8
0
  6
Continuous
 62
     7
100
AcDbLine
 10
-19.0000000003364
 20
55.00000000072972
 30
0.0
 11
-0.000000000336172
 21
55.00000000002097
 31
0.0
  0
LINE
  5
AE6
330
A
100
AcDbEntity
  8
0
  6
Continuous
 62
     7
100
AcDbLine
 10
-0.000000000336172
 20
55.00000000002097
 30
0.0
 11
-0.0000000003732339
 21
53.99999999999895
 31
0.0
  0
LINE
  5
AE7
330
A
100
AcDbEntity
  8
0
  6
Continuous
 62
     9
100
AcDbLine
 10
-0.0000000004106369
 20
53.99999999999895
 30
0.0
 11
-19.00000000041041
 21
54.00000000070775
 31
0.0
  0
LINE
  5
AE8
330
A
100
AcDbEntity
  8
0
  6
Continuous
 62
     9
100
AcDbLine
 10
-19.0000000003364
 20
55.00000000072972
 30
0.0
 11
-19.00000000037323
 21
54.00000000070775
 31
0.0
  0
LINE
  5
AE9
330
A
100
AcDbEntity
  8
0
  6
Continuous
 62
     9
100
AcDbLine
 10
-19.00000000108218
 20
36.00000000070776
 30
0.0
 11
-0.000000001082185
 21
35.99999999999895
 31
0.0
  0
LINE
  5
AEA
330
A
100
AcDbEntity
  8
0
  6
Continuous
 62
     9
100
AcDbLine
 10
-19.00000000041041
 20
54.00000000070775
 30
0.0
 11
-19.00000000108218
 21
36.00000000070776
 31
0.0
  0
CIRCLE
  5
AEB
330
A
100
AcDbEntity
  8
0
  6
Continuous
 62
     7
100
AcDbCircle
 10
-10.00000000074646
 20
45.00000000037206
 30
0.0
 40
7.141428428542871
  0
LINE
  5
AEC
330
A
100
AcDbEntity
  8
0
  6
Continuous
 62
     7
100
AcDbLine
 10
-0.000000001082185
 20
35.99999999999895
 30
0.0
 11
-0.0000000004106369
 21
53.99999999999895
 31
0.0
  0
LINE
  5
AED
330
A
100
AcDbEntity
  8
0
  6
Continuous
 62
     7
100
AcDbLine
 10
-0.000000001082185
 20
35.00000000002098
 30
0.0
 11
-19.00000000108218
 21
35.00000000072973
 31
0.0
  0
LINE
  5
AEE
330
A
100
AcDbEntity
  8
0
  6
Continuous
 62
     9
100
AcDbLine
 10
-19.00000000108218
 20
35.00000000072973
 30
0.0
 11
-19.00000000104489
 21
36.00000000070776
 31
0.0
  0
LINE
  5
AEF
330
A
100
AcDbEntity
  8
0
  6
Continuous
 62
     7
100
AcDbLine
 10
-0.0000000010448957
 20
35.99999999999895
 30
0.0
 11
-0.000000001082185
 21
35.00000000002098
 31
0.0
  0
LINE
  5
AF0
330
A
100
AcDbEntity
  8
0
  6
Continuous
 62
     9
100
AcDbLine
 10
-20.00000000037323
 20
54.00000000076715
 30
0.0
 11
-19.00000000041041
 21
54.00000000072984
 31
0.0
  0
ARC
  5
AF1
330
A
100
AcDbEntity
  8
0
  6
Continuous
 62
     7
100
AcDbCircle
 10
-19.00000000037323
 20
54.00000000072984
 30
0.0
 40
1.0
100
AcDbArc
 50
89.99999999786348
 51
179.9999999978618
  0
LINE
  5
AF2
330
A
100
AcDbEntity
  8
0
  6
Continuous
 62
     7
100
AcDbLine
 10
-20.00000000104478
 20
36.00000000076708
 30
0.0
 11
-20.00000000037323
 21
54.00000000076715
 31
0.0
  0
LINE
  5
AF3
330
A
100
AcDbEntity
  8
0
  6
Continuous
 62
     9
100
AcDbLine
 10
-20.00000000104478
 20
36.00000000076708
 30
0.0
 11
-19.00000000108218
 21
36.00000000072967
 31
0.0
  0
ARC
  5
AF4
330
A
100
AcDbEntity
  8
0
  6
Continuous
 62
     7
100
AcDbCircle
 10
-19.00000000104489
 20
36.00000000072967
 30
0.0
 40
1.0
100
AcDbArc
 50
179.9999999978618
 51
269.9999999978635
  0
LINE
  5
AF5
330
A
100
AcDbEntity
  8
0
  6
Continuous
 62
     9
100
AcDbLine
 10
7.99999999962722
 20
47.10000000016765
 30
0.0
 11
-0.0000000003727791
 21
47.10000000016765
 31
0.0
  0
LINE
  5
AF6
330
A
100
AcDbEntity
  8
0
  6
Continuous
 62
     9
100
AcDbLine
 10
-0.0000000003727791
 20
42.90000000016763
 30
0.0
 11
7.99999999962722
 21
42.90000000016763
 31
0.0
  0
LINE
  5
AF7
330
A
100
AcDbEntity
  8
0
  6
Continuous
 62
     7
100
AcDbLine
 10
7.99999999962722
 20
47.50000000016763
 30
0.0
 11
-0.0000000003727791
 21
47.50000000016763
 31
0.0
  0
LINE
  5
AF8
330
A
100
AcDbEntity
  8
0
  6
Continuous
 62
     7
100
AcDbLine
 10
-0.0000000003727791
 20
42.50000000016763
 30
0.0
 11
7.99999999962722
 21
42.50000000016763
 31
0.0
  0
LINE
  5
AF9
330
A
100
AcDbEntity
  8
0
  6
Continuous
 62
     9
100
AcDbLine
 10
26.9999999998131
 20
8.999999999148741
 30
0.0
 11
7.999999999813894
 21
8.999999999148741
 31
0.0
  0
LINE
  5
AFA
330
A
100
AcDbEntity
  8
0
  6
Continuous
 62
     7
100
AcDbLine
 10
7.999999999794908
 20
8.999999999148741
 30
0.0
 11
7.999999999794908
 21
9.999999999233779
 31
0.0
  0
LINE
  5
AFB
330
A
100
AcDbEntity
  8
0
  6
Continuous
 62
     7
100
AcDbLine
 10
7.999999999794908
 20
9.999999999233779
 30
0.0
 11
26.99999999979423
 21
9.999999999233779
 31
0.0
  0
LINE
  5
AFC
330
A
100
AcDbEntity
  8
0
  6
Continuous
 62
     9
100
AcDbLine
 10
26.99999999979514
 20
8.999999999148741
 30
0.0
 11
26.99999999979514
 21
9.999999999233779
 31
0.0
  0
LINE
  5
AFD
330
A
100
AcDbEntity
  8
0
  6
Continuous
 62
     9
100
AcDbLine
 10
7.999999999813553
 20
-9.00000000085123
 30
0.0
 11
26.9999999998131
 21
-9.00000000085123
 31
0.0
  0
LINE
  5
AFE
330
A
100
AcDbEntity
  8
0
  6
Continuous
 62
     9
100
AcDbLine
 10
26.9999999998131
 20
-9.00000000085123
 30
0.0
 11
26.9999999998131
 21
8.999999999148741
 31
0.0
  0
LINE
  5
AFF
330
A
100
AcDbEntity
  8
0
  6
Continuous
 62
     7
100
AcDbLine
 10
7.999999999813553
 20
8.999999999148741
 30
0.0
 11
7.999999999813553
 21
-9.00000000085123
 31
0.0
  0
ARC
  5
B00
330
A
100
AcDbEntity
  8
0
  6
Continuous
 62
     7
100
AcDbCircle
 10
26.99999999979514
 20
8.999999999233779
 30
0.0
 40
1.000000000000111
100
AcDbArc
 50
0.0
 51
90.0
  0
LINE
  5
B01
330
A
100
AcDbEntity
  8
0
  6
Continuous
 62
     9
100
AcDbLine
 10
26.9999999998131
 20
8.999999999233779
 30
0.0
 11
27.99999999979514
 21
8.999999999233779
 31
0.0
  0
LINE
  5
B02
330
A
100
AcDbEntity
  8
0
  6
Continuous
 62
     7
100
AcDbLine
 10
27.99999999979514
 20
8.999999999233779
 30
0.0
 11
27.99999999979514
 21
-9.000000000766334
 31
0.0
  0
LINE
  5
B03
330
A
100
AcDbEntity
  8
0
  6
Continuous
 62
     9
100
AcDbLine
 10
26.9999999998131
 20
-9.000000000766334
 30
0.0
 11
27.99999999979514
 21
-9.000000000766334
 31
0.0
  0
LINE
  5
B04
330
A
100
AcDbEntity
  8
0
  6
Continuous
 62
     9
100
AcDbLine
 10
26.99999999979514
 20
-9.00000000085123
 30
0.0
 11
26.99999999979514
 21
-10.00000000076633
 31
0.0
  0
LINE
  5
B05
330
A
100
AcDbEntity
  8
0
  6
Continuous
 62
     7
100
AcDbLine
 10
26.99999999979514
 20
-10.00000000076633
 30
0.0
 11
7.99999999979525
 21
-10.00000000076625
 31
0.0
  0
LINE
  5
B06
330
A
100
AcDbEntity
  8
0
  6
Continuous
 62
     7
100
AcDbLine
 10
7.999999999794908
 20
-10.00000000076625
 30
0.0
 11
7.999999999794908
 21
-9.00000000085123
 31
0.0
  0
ARC
  5
B07
330
A
100
AcDbEntity
  8
0
  6
Continuous
 62
     7
100
AcDbCircle
 10
26.99999999979514
 20
-9.000000000766334
 30
0.0
 40
1.0
100
AcDbArc
 50
270.0
 51
0.0
  0
LINE
  5
B08
330
A
100
AcDbEntity
  8
0
  6
Continuous
 62
     9
100
AcDbLine
 10
-18.99999999966417
 20
9.000000000513864
 30
0.0
 11
-19.99999999970123
 21
9.000000000551182
 31
0.0
  0
ARC
  5
B09
330
A
100
AcDbEntity
  8
0
  6
Continuous
 62
     7
100
AcDbCircle
 10
-18.999999999701
 20
9.000000000513864
 30
0.0
 40
1.0
100
AcDbArc
 50
89.99999999786348
 51
179.9999999978635
  0
LINE
  5
B0A
330
A
100
AcDbEntity
  8
0
  6
Continuous
 62
     9
100
AcDbLine
 10
-18.999999999701
 20
9.000000000491866
 30
0.0
 11
-18.99999999966417
 21
10.00000000051386
 31
0.0
  0
LINE
  5
B0B
330
A
100
AcDbEntity
  8
0
  6
Continuous
 62
     9
100
AcDbLine
 10
-18.99999999966417
 20
9.000000000491866
 30
0.0
 11
-19.0000000003364
 21
-8.999999999508133
 31
0.0
  0
LINE
  5
B0C
330
A
100
AcDbEntity
  8
0
  6
Continuous
 62
     9
100
AcDbLine
 10
-19.0000000003364
 20
-8.999999999486163
 30
0.0
 11
-20.00000000037323
 21
-8.999999999448846
 31
0.0
  0
LINE
  5
B0D
330
A
100
AcDbEntity
  8
0
  6
Continuous
 62
     7
100
AcDbLine
 10
-20.00000000037323
 20
-8.999999999448846
 30
0.0
 11
-19.99999999970123
 21
9.000000000551182
 31
0.0
  0
LINE
  5
B0E
330
A
100
AcDbEntity
  8
0
  6
Continuous
 62
     9
100
AcDbLine
 10
0.000000000336172
 20
8.999999999782346
 30
0.0
 11
-18.99999999966417
 21
9.000000000491866
 31
0.0
  0
LINE
  5
B0F
330
A
100
AcDbEntity
  8
0
  6
Continuous
 62
     7
100
AcDbLine
 10
-18.99999999966417
 20
10.00000000051386
 30
0.0
 11
0.000000000336172
 21
9.999999999804487
 31
0.0
  0
LINE
  5
B10
330
A
100
AcDbEntity
  8
0
  6
Continuous
 62
     7
100
AcDbLine
 10
0.000000000336172
 20
9.999999999804487
 30
0.0
 11
0.000000000298769
 21
8.999999999782346
 31
0.0
  0
LINE
  5
B11
330
A
100
AcDbEntity
  8
0
  6
Continuous
 62
     7
100
AcDbLine
 10
-0.000000000336172
 20
-9.000000000217653
 30
0.0
 11
0.000000000336172
 21
8.999999999782346
 31
0.0
  0
LINE
  5
B12
330
A
100
AcDbEntity
  8
0
  6
Continuous
 62
     9
100
AcDbLine
 10
-19.0000000003364
 20
-8.999999999508133
 30
0.0
 11
-0.000000000336172
 21
-9.000000000217653
 31
0.0
  0
LINE
  5
B13
330
A
100
AcDbEntity
  8
0
  6
Continuous
 62
     9
100
AcDbLine
 10
-19.00000000037323
 20
-8.999999999508133
 30
0.0
 11
-19.00000000041041
 21
-9.999999999486163
 31
0.0
  0
ARC
  5
B14
330
A
100
AcDbEntity
  8
0
  6
Continuous
 62
     7
100
AcDbCircle
 10
-19.00000000037323
 20
-8.999999999486163
 30
0.0
 40
1.0
100
AcDbArc
 50
179.9999999978602
 51
269.9999999978635
  0
LINE
  5
B15
330
A
100
AcDbEntity
  8
0
  6
Continuous
 62
     7
100
AcDbLine
 10
-0.0000000003732339
 20
-9.000000000217653
 30
0.0
 11
-0.0000000004106369
 21
-10.00000000019565
 31
0.0
  0
LINE
  5
B16
330
A
100
AcDbEntity
  8
0
  6
Continuous
 62
     7
100
AcDbLine
 10
-0.0000000004106369
 20
-10.00000000019554
 30
0.0
 11
-19.00000000041041
 21
-9.999999999486163
 31
0.0
  0
LINE
  5
B17
330
A
100
AcDbEntity
  8
0
  6
Continuous
 62
     9
100
AcDbLine
 10
7.99999999962722
 20
2.099999999999994
 30
0.0
 11
-0.0000000003727791
 21
2.099999999999994
 31
0.0
  0
LINE
  5
B18
330
A
100
AcDbEntity
  8
0
  6
Continuous
 62
     9
100
AcDbLine
 10
-0.0000000003727791
 20
-2.10000000000025
 30
0.0
 11
7.99999999962722
 21
-2.10000000000025
 31
0.0
  0
LINE
  5
B19
330
A
100
AcDbEntity
  8
0
  6
Continuous
 62
     7
100
AcDbLine
 10
7.99999999962722
 20
2.5
 30
0.0
 11
-0.0000000003727791
 21
2.5
 31
0.0
  0
LINE
  5
B1A
330
A
100
AcDbEntity
  8
0
  6
Continuous
 62
     7
100
AcDbLine
 10
-0.0000000003727791
 20
-2.5
 30
0.0
 11
7.99999999962722
 21
-2.5
 31
0.0
  0
TEXT
  5
F8A
330
A
100
AcDbEntity
  8
0
  6
Continuous
 62
     7
370
     0
100
AcDbText
 10
38.94961895045822
 20
40.00732064428873
 30
0.0
 40
10.0
  1
5Q12
100
AcDbText
1001
ACAD
1000
MTEXTBEGIN
1070
    73
1070
     1
1070
    44
1040
1.0
1070
    74
1070
     0
1000
MTEXTEND
  0
ENDSEC
  0
SECTION
  2
OBJECTS
  0
DICTIONARY
  5
19
330
0
100
AcDbDictionary
281
     1
  3
ACAD_COLOR
350
846
  3
ACAD_GROUP
350
1A
  3
ACAD_LAYOUT
350
1E
  3
ACAD_MATERIAL
350
81C
  3
ACAD_MLEADERSTYLE
350
86B
  3
ACAD_MLINESTYLE
350
1B
  3
ACAD_PLOTSETTINGS
350
22
  3
ACAD_PLOTSTYLENAME
350
1F
  3
ACAD_SCALELIST
350
849
  3
ACAD_TABLESTYLE
350
847
  3
ACAD_VISUALSTYLE
350
835
  3
ACAD_WIPEOUT_VARS
350
23
  3
ACDB_RECOMPOSE_DATA
350
895
  3
AcDbVariableDictionary
350
880
  3
ASE_INDEX_DICTIONARY
350
872
  3
DWGPROPS
350
102C
  0
DICTIONARY
  5
875
330
14
100
AcDbDictionary
280
     1
281
     1
  3
ADSK_XREC_LAYER_RECONCILED
360
876
  0
DICTIONARY
  5
8AF
330
A
100
AcDbDictionary
280
     1
281
     1
  3
ACAD_SORTENTS
360
8B0
  0
DICTIONARY
  5
846
102
{ACAD_REACTORS
330
19
102
}
330
19
100
AcDbDictionary
281
     1
  0
DICTIONARY
  5
1A
102
{ACAD_REACTORS
330
19
102
}
330
19
100
AcDbDictionary
281
     1
  0
DICTIONARY
  5
1E
102
{ACAD_REACTORS
330
19
102
}
330
19
100
AcDbDictionary
281
     1
  3
Layout1
350
21
  3
Model
350
20
  0
DICTIONARY
  5
81C
102
{ACAD_REACTORS
330
19
102
}
330
19
100
AcDbDictionary
281
     1
  3
ByBlock
350
825
  3
ByLayer
350
81D
  3
Global
350
82D
  0
DICTIONARY
  5
86B
102
{ACAD_REACTORS
330
19
102
}
330
19
100
AcDbDictionary
281
     1
  3
Standard
350
86C
  0
DICTIONARY
  5
1B
102
{ACAD_REACTORS
330
19
102
}
330
19
100
AcDbDictionary
281
     1
  3
Standard
350
1C
  0
DICTIONARY
  5
22
102
{ACAD_REACTORS
330
19
102
}
330
19
100
AcDbDictionary
281
     1
  0
ACDBDICTIONARYWDFLT
  5
1F
102
{ACAD_REACTORS
330
19
102
}
330
19
100
AcDbDictionary
281
     1
  3
Normal
350
1D
100
AcDbDictionaryWithDefault
340
1D
  0
DICTIONARY
  5
849
102
{ACAD_REACTORS
330
19
102
}
330
19
100
AcDbDictionary
281
     1
  3
A0
350
84A
  3
A1
350
84B
  3
A2
350
84C
  3
A3
350
84D
  3
A4
350
84E
  3
A5
350
84F
  3
A6
350
850
  3
A7
350
851
  3
A8
350
852
  3
A9
350
853
  3
B0
350
854
  3
B1
350
855
  3
B2
350
856
  3
B3
350
857
  3
B4
350
858
  3
B5
350
859
  3
B6
350
85A
  3
B7
350
85B
  3
B8
350
85C
  3
B9
350
85D
  3
C0
350
85E
  3
C1
350
85F
  3
C2
350
860
  3
C3
350
861
  3
C4
350
862
  3
C5
350
863
  3
C6
350
864
  3
C7
350
865
  3
C8
350
866
  3
C9
350
867
  3
D0
350
868
  3
D1
350
869
  3
D2
350
86A
  0
DICTIONARY
  5
847
102
{ACAD_REACTORS
330
19
102
}
330
19
100
AcDbDictionary
281
     1
  3
Standard
350
848
  0
DICTIONARY
  5
835
102
{ACAD_REACTORS
330
19
102
}
330
19
100
AcDbDictionary
281
     1
  3
2dWireframe
350
83B
  3
3D Hidden
350
83D
  3
3dWireframe
350
83C
  3
Basic
350
83A
  3
Brighten
350
841
  3
ColorChange
350
845
  3
Conceptual
350
83E
  3
Dim
350
840
  3
Facepattern
350
844
  3
Flat
350
836
  3
FlatWithEdges
350
837
  3
Gouraud
350
838
  3
GouraudWithEdges
350
839
  3
Linepattern
350
843
  3
Realistic
350
83F
  3
Thicken
350
842
  0
WIPEOUTVARIABLES
  5
23
330
19
100
AcDbWipeoutVariables
 70
     1
  0
XRECORD
  5
895
102
{ACAD_REACTORS
330
19
102
}
330
19
100
AcDbXrecord
280
     1
 90
        1
330
848
  0
DICTIONARY
  5
880
102
{ACAD_REACTORS
330
19
102
}
330
19
100
AcDbDictionary
281
     1
  3
CANNOSCALE
350
883
  3
CMLEADERSTYLE
350
882
  3
CTABLESTYLE
350
881
  3
DIMASSOC
350
886
  3
INDEXCTL
350
885
  3
SORTENTS
350
884
  0
DICTIONARY
  5
872
102
{ACAD_REACTORS
330
19
102
}
330
19
100
AcDbDictionary
281
     1
  3
ASEBlockHierarchyIndexRecord
350
874
1001
DCO15
1040
1685180420.18
  0
XRECORD
  5
102C
102
{ACAD_REACTORS
330
19
102
}
330
19
100
AcDbXrecord
280
     1
  1
DWGPROPS COOKIE
  2

  3

  4

  6

  7

  8
renzo.ceresoli
  9

300
=
301
=
302
=
303
=
304
=
305
=
306
=
307
=
308
=
309
=
 40
0.0017948842592593
 41
2455307.697361111
 42
2455307.621749178
  1

 90
        0
  0
XRECORD
  5
876
102
{ACAD_REACTORS
330
875
102
}
330
875
100
AcDbXrecord
280
     1
290
     1
  0
SORTENTSTABLE
  5
8B0
102
{ACAD_REACTORS
330
8AF
102
}
330
8AF
100
AcDbSortentsTable
330
A
331
B03
  5
D20
331
AAE
  5
D91
331
ACD
  5
D78
331
A70
  5
DF2
331
A8F
  5
D9A
331
A3A
  5
DBC
331
A59
  5
DDB
331
AE4
  5
D47
331
ACE
  5
D79
331
AE5
  5
D48
331
A90
  5
D9B
331
AAF
  5
D92
331
A3B
  5
DBD
331
A5A
  5
DDC
331
A71
  5
DF3
331
B04
  5
D21
331
AE6
  5
D49
331
B05
  5
D22
331
AB0
  5
D93
331
ACF
  5
D7A
331
A72
  5
DF4
331
A91
  5
D9C
331
A3C
  5
DBE
331
A5B
  5
DDD
331
F8A
  5
F19
331
AD0
  5
D7B
331
AE7
  5
D4A
331
A92
  5
D9D
331
AB1
  5
D5C
331
A3D
  5
DBF
331
A5C
  5
DDE
331
A73
  5
DF5
331
B06
  5
D23
331
AE8
  5
D4B
331
B07
  5
D24
331
AB2
  5
D5D
331
AD1
  5
D7C
331
A5D
  5
DDF
331
A74
  5
DF6
331
A3E
  5
DC0
331
A93
  5
D9E
331
B08
  5
D25
331
AD2
  5
D7D
331
AE9
  5
D4C
331
A94
  5
D9F
331
AB3
  5
D5E
331
A3F
  5
DC1
331
A5E
  5
DE0
331
A75
  5
DF7
331
AEA
  5
D4D
331
B09
  5
D26
331
AB4
  5
D5F
331
AD3
  5
D7E
331
A5F
  5
DE1
331
A76
  5
DF8
331
A40
  5
DC2
331
A95
  5
DA0
331
B0A
  5
D27
331
AD4
  5
D7F
331
AEB
  5
D4E
331
A77
  5
DF9
331
A96
  5
DA1
331
A41
  5
DC3
331
A60
  5
DE2
331
AB5
  5
D60
331
AEC
  5
D4F
331
B0B
  5
D28
331
AB6
  5
D61
331
AD5
  5
D38
331
A61
  5
DE3
331
A78
  5
DFA
331
A42
  5
DC4
331
A97
  5
DA2
331
B0C
  5
D29
331
AD6
  5
D39
331
AED
  5
D50
331
A79
  5
DFB
331
A98
  5
DA3
331
A43
  5
DC5
331
A62
  5
DE4
331
AB7
  5
D62
331
AEE
  5
D51
331
B0D
  5
D2A
331
A99
  5
DA4
331
AB8
  5
D63
331
A63
  5
DE5
331
A7A
  5
DFC
331
A44
  5
DC6
331
AD7
  5
D3A
331
B0E
  5
D2B
331
AD8
  5
D3B
331
AEF
  5
D52
331
A7B
  5
DFD
331
A9A
  5
DA5
331
A45
  5
DC7
331
A64
  5
DE6
331
AB9
  5
D64
331
AF0
  5
D53
331
B0F
  5
D2C
331
A9B
  5
DA6
331
ABA
  5
D65
331
A65
  5
DE7
331
A7C
  5
DFE
331
A46
  5
DC8
331
AD9
  5
D3C
331
B10
  5
D2D
331
ABB
  5
D66
331
ADA
  5
D3D
331
A7D
  5
DFF
331
A9C
  5
DA7
331
A47
  5
DC9
331
A66
  5
DE8
331
AF1
  5
D54
331
AF2
  5
D55
331
B11
  5
D2E
331
A9D
  5
D80
331
ABC
  5
D67
331
A67
  5
DE9
331
A7E
  5
E00
331
A48
  5
DCA
331
ADB
  5
D3E
331
B12
  5
D2F
331
ABD
  5
D68
331
ADC
  5
D3F
331
A7F
  5
E01
331
A49
  5
DCB
331
A9E
  5
D81
331
AF3
  5
D56
331
ADD
  5
D40
331
AF4
  5
D57
331
A9F
  5
D82
331
ABE
  5
D69
331
A80
  5
E02
331
B13
  5
D30
331
A4A
  5
DCC
331
B14
  5
D31
331
ABF
  5
D6A
331
ADE
  5
D41
331
A81
  5
E03
331
A4B
  5
DCD
331
AA0
  5
D83
331
AF5
  5
D58
331
ADF
  5
D42
331
AF6
  5
D59
331
AA1
  5
D84
331
AC0
  5
D6B
331
A4C
  5
DCE
331
A2D
  5
DAF
331
A82
  5
E04
331
B15
  5
D32
331
AF7
  5
D5A
331
AC1
  5
D6C
331
B16
  5
D33
331
A83
  5
E05
331
A2E
  5
DB0
331
A4D
  5
DCF
331
AA2
  5
D85
331
AF8
  5
D5B
331
AA3
  5
D86
331
AC2
  5
D6D
331
A4E
  5
DD0
331
A2F
  5
DB1
331
A84
  5
E06
331
B17
  5
D34
331
AF9
  5
D16
331
AC3
  5
D6E
331
B18
  5
D35
331
A85
  5
E07
331
A4F
  5
DD1
331
AA4
  5
D87
331
5C8
  5
DAA
331
B19
  5
D36
331
AFA
  5
D17
331
AA5
  5
D88
331
AC4
  5
D6F
331
A86
  5
E08
331
5C9
  5
DAB
331
AFB
  5
D18
331
AC5
  5
D70
331
B1A
  5
D37
331
A87
  5
E09
331
AA6
  5
D89
331
5CA
  5
DAC
331
AFC
  5
D19
331
AA7
  5
D8A
331
AC6
  5
D71
331
5C6
  5
DA8
331
5CB
  5
DAD
331
AFD
  5
D1A
331
AC7
  5
D72
331
5C7
  5
DA9
331
5CC
  5
DAE
331
AFE
  5
D1B
331
AFF
  5
D1C
331
A30
  5
DB2
331
A50
  5
DD2
331
A31
  5
DB3
331
A68
  5
DEA
331
A32
  5
DB4
331
A51
  5
DD3
331
A88
  5
E0A
331
A52
  5
DD4
331
A69
  5
DEB
331
A33
  5
DB5
331
A6A
  5
DEC
331
A89
  5
D94
331
A34
  5
DB6
331
A53
  5
DD5
331
AA8
  5
D8B
331
A8A
  5
D95
331
AA9
  5
D8C
331
A54
  5
DD6
331
A6B
  5
DED
331
A35
  5
DB7
331
AC8
  5
D73
331
AAA
  5
D8D
331
AC9
  5
D74
331
A6C
  5
DEE
331
A8B
  5
D96
331
A36
  5
DB8
331
A55
  5
DD7
331
AE0
  5
D43
331
AE1
  5
D44
331
B00
  5
D1D
331
A8C
  5
D97
331
AAB
  5
D8E
331
A56
  5
DD8
331
A6D
  5
DEF
331
A37
  5
DB9
331
ACA
  5
D75
331
B01
  5
D1E
331
AAC
  5
D8F
331
ACB
  5
D76
331
A6E
  5
DF0
331
A8D
  5
D98
331
A38
  5
DBA
331
A57
  5
DD9
331
AE2
  5
D45
331
ACC
  5
D77
331
AE3
  5
D46
331
A8E
  5
D99
331
AAD
  5
D90
331
A58
  5
DDA
331
A6F
  5
DF1
331
B02
  5
D1F
331
A39
  5
DBB
  0
LAYOUT
  5
21
102
{ACAD_XDICTIONARY
360
102F
102
}
102
{ACAD_REACTORS
330
1E
102
}
330
1E
100
AcDbPlotSettings
  1

  2

  4

  6

 40
0.0
 41
0.0
 42
0.0
 43
0.0
 44
0.0
 45
0.0
 46
0.0
 47
0.0
 48
0.0
 49
0.0
140
0.0
141
0.0
142
1.0
143
1.0
 70
     0
 72
     0
 73
     0
 74
     0
  7

 75
     0
147
1.0
148
0.0
149
0.0
100
AcDbLayout
  1
Layout1
 70
     0
 71
     1
 10
0.0
 20
0.0
 11
12.0
 21
9.0
 12
0.0
 22
0.0
 32
0.0
 14
1.000000000000000E+20
 24
1.000000000000000E+20
 34
1.000000000000000E+20
 15
-1.000000000000000E+20
 25
-1.000000000000000E+20
 35
-1.000000000000000E+20
146
0.0
 13
0.0
 23
0.0
 33
0.0
 16
1.0
 26
0.0
 36
0.0
 17
0.0
 27
1.0
 37
0.0
 76
     0
330
B
  0
LAYOUT
  5
20
102
{ACAD_XDICTIONARY
360
102D
102
}
102
{ACAD_REACTORS
330
1E
102
}
330
1E
100
AcDbPlotSettings
  1

  2

  4

  6

 40
0.0
 41
0.0
 42
0.0
 43
0.0
 44
0.0
 45
0.0
 46
0.0
 47
0.0
 48
0.0
 49
0.0
140
0.0
141
0.0
142
1.0
143
1.0
 70
  1024
 72
     0
 73
     0
 74
     0
  7

 75
     0
147
1.0
148
0.0
149
0.0
100
AcDbLayout
  1
Model
 70
     0
 71
     0
 10
0.0
 20
0.0
 11
0.0
 21
0.0
 12
0.0
 22
0.0
 32
0.0
 14
0.0
 24
0.0
 34
0.0
 15
0.0
 25
0.0
 35
0.0
146
0.0
 13
0.0
 23
0.0
 33
0.0
 16
0.0
 26
0.0
 36
0.0
 17
0.0
 27
0.0
 37
0.0
 76
     0
330
A
331
15
  0
MATERIAL
  5
825
102
{ACAD_XDICTIONARY
360
826
102
}
102
{ACAD_REACTORS
330
81C
102
}
330
81C
100
AcDbMaterial
  1
ByBlock
 72
     0
 43
0.0208333333333333
 43
0.0
 43
0.0
 43
0.0
 43
0.0
 43
0.0208333333333333
 43
0.0
 43
0.0
 43
0.0
 43
0.0
 43
1.0
 43
0.0
 43
0.0
 43
0.0
 43
0.0
 43
1.0
 77
     0
 47
0.0208333333333333
 47
0.0
 47
0.0
 47
0.0
 47
0.0
 47
0.0208333333333333
 47
0.0
 47
0.0
 47
0.0
 47
0.0
 47
1.0
 47
0.0
 47
0.0
 47
0.0
 47
0.0
 47
1.0
171
     0
 49
0.0208333333333333
 49
0.0
 49
0.0
 49
0.0
 49
0.0
 49
0.0208333333333333
 49
0.0
 49
0.0
 49
0.0
 49
0.0
 49
1.0
 49
0.0
 49
0.0
 49
0.0
 49
0.0
 49
1.0
175
     0
142
0.0208333333333333
142
0.0
142
0.0
142
0.0
142
0.0
142
0.0208333333333333
142
0.0
142
0.0
142
0.0
142
0.0
142
1.0
142
0.0
142
0.0
142
0.0
142
0.0
142
1.0
179
     0
144
0.0208333333333333
144
0.0
144
0.0
144
0.0
144
0.0
144
0.0208333333333333
144
0.0
144
0.0
144
0.0
144
0.0
144
1.0
144
0.0
144
0.0
144
0.0
144
0.0
144
1.0
147
0.0208333333333333
147
0.0
147
0.0
147
0.0
147
0.0
147
0.0208333333333333
147
0.0
147
0.0
147
0.0
147
0.0
147
1.0
147
0.0
147
0.0
147
0.0
147
0.0
147
1.0
  0
MATERIAL
  5
81D
102
{ACAD_XDICTIONARY
360
81E
102
}
102
{ACAD_REACTORS
330
81C
102
}
330
81C
100
AcDbMaterial
  1
ByLayer
 72
     0
 43
0.0208333333333333
 43
0.0
 43
0.0
 43
0.0
 43
0.0
 43
0.0208333333333333
 43
0.0
 43
0.0
 43
0.0
 43
0.0
 43
1.0
 43
0.0
 43
0.0
 43
0.0
 43
0.0
 43
1.0
 77
     0
 47
0.0208333333333333
 47
0.0
 47
0.0
 47
0.0
 47
0.0
 47
0.0208333333333333
 47
0.0
 47
0.0
 47
0.0
 47
0.0
 47
1.0
 47
0.0
 47
0.0
 47
0.0
 47
0.0
 47
1.0
171
     0
 49
0.0208333333333333
 49
0.0
 49
0.0
 49
0.0
 49
0.0
 49
0.0208333333333333
 49
0.0
 49
0.0
 49
0.0
 49
0.0
 49
1.0
 49
0.0
 49
0.0
 49
0.0
 49
0.0
 49
1.0
175
     0
142
0.0208333333333333
142
0.0
142
0.0
142
0.0
142
0.0
142
0.0208333333333333
142
0.0
142
0.0
142
0.0
142
0.0
142
1.0
142
0.0
142
0.0
142
0.0
142
0.0
142
1.0
179
     0
144
0.0208333333333333
144
0.0
144
0.0
144
0.0
144
0.0
144
0.0208333333333333
144
0.0
144
0.0
144
0.0
144
0.0
144
1.0
144
0.0
144
0.0
144
0.0
144
0.0
144
1.0
147
0.0208333333333333
147
0.0
147
0.0
147
0.0
147
0.0
147
0.0208333333333333
147
0.0
147
0.0
147
0.0
147
0.0
147
1.0
147
0.0
147
0.0
147
0.0
147
0.0
147
1.0
  0
MATERIAL
  5
82D
102
{ACAD_XDICTIONARY
360
82E
102
}
102
{ACAD_REACTORS
330
81C
102
}
330
81C
100
AcDbMaterial
  1
Global
 72
     0
 43
0.0208333333333333
 43
0.0
 43
0.0
 43
0.0
 43
0.0
 43
0.0208333333333333
 43
0.0
 43
0.0
 43
0.0
 43
0.0
 43
1.0
 43
0.0
 43
0.0
 43
0.0
 43
0.0
 43
1.0
 77
     0
 47
0.0208333333333333
 47
0.0
 47
0.0
 47
0.0
 47
0.0
 47
0.0208333333333333
 47
0.0
 47
0.0
 47
0.0
 47
0.0
 47
1.0
 47
0.0
 47
0.0
 47
0.0
 47
0.0
 47
1.0
171
     0
 49
0.0208333333333333
 49
0.0
 49
0.0
 49
0.0
 49
0.0
 49
0.0208333333333333
 49
0.0
 49
0.0
 49
0.0
 49
0.0
 49
1.0
 49
0.0
 49
0.0
 49
0.0
 49
0.0
 49
1.0
175
     0
142
0.0208333333333333
142
0.0
142
0.0
142
0.0
142
0.0
142
0.0208333333333333
142
0.0
142
0.0
142
0.0
142
0.0
142
1.0
142
0.0
142
0.0
142
0.0
142
0.0
142
1.0
179
     0
144
0.0208333333333333
144
0.0
144
0.0
144
0.0
144
0.0
144
0.0208333333333333
144
0.0
144
0.0
144
0.0
144
0.0
144
1.0
144
0.0
144
0.0
144
0.0
144
0.0
144
1.0
147
0.0208333333333333
147
0.0
147
0.0
147
0.0
147
0.0
147
0.0208333333333333
147
0.0
147
0.0
147
0.0
147
0.0
147
1.0
147
0.0
147
0.0
147
0.0
147
0.0
147
1.0
  0
MLEADERSTYLE
  5
86C
102
{ACAD_REACTORS
330
86B
102
}
330
86B
100
AcDbMLeaderStyle
170
     2
171
     1
172
     0
 90
        2
 40
0.0
 41
0.0
173
     1
 91
-1056964608
340
11
 92
       -2
290
     1
 42
2.0
291
     1
 43
0.36
  3
Standard
 44
4.0
300

342
17
174
     1
178
     6
175
     1
176
     0
 93
-1056964608
 45
4.0
292
     0
297
     0
 46
4.0
 94
-1056964608
 47
1.0
 49
1.0
140
1.0
293
     1
141
0.0
294
     1
177
     0
142
1.0
295
     0
296
     0
143
0.125
1001
ACAD_MLEADERVER
1070
     2
  0
MLINESTYLE
  5
1C
102
{ACAD_REACTORS
330
1B
102
}
330
1B
100
AcDbMlineStyle
  2
STANDARD
 70
     0
  3

 62
     0
 51
90.0
 52
90.0
 71
     2
 49
0.5
 62
   256
  6
BYLAYER
 49
-0.5
 62
   256
  6
BYLAYER
  0
ACDBPLACEHOLDER
  5
1D
102
{ACAD_REACTORS
330
1F
102
}
330
1F
  0
SCALE
  5
84A
102
{ACAD_REACTORS
330
849
102
}
330
849
100
AcDbScale
 70
     0
300
1:1
140
1.0
141
1.0
290
     1
  0
SCALE
  5
84B
102
{ACAD_REACTORS
330
849
102
}
330
849
100
AcDbScale
 70
     0
300
1:2
140
1.0
141
2.0
290
     0
  0
SCALE
  5
84C
102
{ACAD_REACTORS
330
849
102
}
330
849
100
AcDbScale
 70
     0
300
1:4
140
1.0
141
4.0
290
     0
  0
SCALE
  5
84D
102
{ACAD_REACTORS
330
849
102
}
330
849
100
AcDbScale
 70
     0
300
1:5
140
1.0
141
5.0
290
     0
  0
SCALE
  5
84E
102
{ACAD_REACTORS
330
849
102
}
330
849
100
AcDbScale
 70
     0
300
1:8
140
1.0
141
8.0
290
     0
  0
SCALE
  5
84F
102
{ACAD_REACTORS
330
849
102
}
330
849
100
AcDbScale
 70
     0
300
1:10
140
1.0
141
10.0
290
     0
  0
SCALE
  5
850
102
{ACAD_REACTORS
330
849
102
}
330
849
100
AcDbScale
 70
     0
300
1:16
140
1.0
141
16.0
290
     0
  0
SCALE
  5
851
102
{ACAD_REACTORS
330
849
102
}
330
849
100
AcDbScale
 70
     0
300
1:20
140
1.0
141
20.0
290
     0
  0
SCALE
  5
852
102
{ACAD_REACTORS
330
849
102
}
330
849
100
AcDbScale
 70
     0
300
1:30
140
1.0
141
30.0
290
     0
  0
SCALE
  5
853
102
{ACAD_REACTORS
330
849
102
}
330
849
100
AcDbScale
 70
     0
300
1:40
140
1.0
141
40.0
290
     0
  0
SCALE
  5
854
102
{ACAD_REACTORS
330
849
102
}
330
849
100
AcDbScale
 70
     0
300
1:50
140
1.0
141
50.0
290
     0
  0
SCALE
  5
855
102
{ACAD_REACTORS
330
849
102
}
330
849
100
AcDbScale
 70
     0
300
1:100
140
1.0
141
100.0
290
     0
  0
SCALE
  5
856
102
{ACAD_REACTORS
330
849
102
}
330
849
100
AcDbScale
 70
     0
300
2:1
140
2.0
141
1.0
290
     0
  0
SCALE
  5
857
102
{ACAD_REACTORS
330
849
102
}
330
849
100
AcDbScale
 70
     0
300
4:1
140
4.0
141
1.0
290
     0
  0
SCALE
  5
858
102
{ACAD_REACTORS
330
849
102
}
330
849
100
AcDbScale
 70
     0
300
8:1
140
8.0
141
1.0
290
     0
  0
SCALE
  5
859
102
{ACAD_REACTORS
330
849
102
}
330
849
100
AcDbScale
 70
     0
300
10:1
140
10.0
141
1.0
290
     0
  0
SCALE
  5
85A
102
{ACAD_REACTORS
330
849
102
}
330
849
100
AcDbScale
 70
     0
300
100:1
140
100.0
141
1.0
290
     0
  0
SCALE
  5
85B
102
{ACAD_REACTORS
330
849
102
}
330
849
100
AcDbScale
 70
     0
300
1/128" = 1'-0"
140
0.0078125
141
12.0
290
     0
  0
SCALE
  5
85C
102
{ACAD_REACTORS
330
849
102
}
330
849
100
AcDbScale
 70
     0
300
1/64" = 1'-0"
140
0.015625
141
12.0
290
     0
  0
SCALE
  5
85D
102
{ACAD_REACTORS
330
849
102
}
330
849
100
AcDbScale
 70
     0
300
1/32" = 1'-0"
140
0.03125
141
12.0
290
     0
  0
SCALE
  5
85E
102
{ACAD_REACTORS
330
849
102
}
330
849
100
AcDbScale
 70
     0
300
1/16" = 1'-0"
140
0.0625
141
12.0
290
     0
  0
SCALE
  5
85F
102
{ACAD_REACTORS
330
849
102
}
330
849
100
AcDbScale
 70
     0
300
3/32" = 1'-0"
140
0.09375
141
12.0
290
     0
  0
SCALE
  5
860
102
{ACAD_REACTORS
330
849
102
}
330
849
100
AcDbScale
 70
     0
300
1/8" = 1'-0"
140
0.125
141
12.0
290
     0
  0
SCALE
  5
861
102
{ACAD_REACTORS
330
849
102
}
330
849
100
AcDbScale
 70
     0
300
3/16" = 1'-0"
140
0.1875
141
12.0
290
     0
  0
SCALE
  5
862
102
{ACAD_REACTORS
330
849
102
}
330
849
100
AcDbScale
 70
     0
300
1/4" = 1'-0"
140
0.25
141
12.0
290
     0
  0
SCALE
  5
863
102
{ACAD_REACTORS
330
849
102
}
330
849
100
AcDbScale
 70
     0
300
3/8" = 1'-0"
140
0.375
141
12.0
290
     0
  0
SCALE
  5
864
102
{ACAD_REACTORS
330
849
102
}
330
849
100
AcDbScale
 70
     0
300
1/2" = 1'-0"
140
0.5
141
12.0
290
     0
  0
SCALE
  5
865
102
{ACAD_REACTORS
330
849
102
}
330
849
100
AcDbScale
 70
     0
300
3/4" = 1'-0"
140
0.75
141
12.0
290
     0
  0
SCALE
  5
866
102
{ACAD_REACTORS
330
849
102
}
330
849
100
AcDbScale
 70
     0
300
1" = 1'-0"
140
1.0
141
12.0
290
     0
  0
SCALE
  5
867
102
{ACAD_REACTORS
330
849
102
}
330
849
100
AcDbScale
 70
     0
300
1-1/2" = 1'-0"
140
1.5
141
12.0
290
     0
  0
SCALE
  5
868
102
{ACAD_REACTORS
330
849
102
}
330
849
100
AcDbScale
 70
     0
300
3" = 1'-0"
140
3.0
141
12.0
290
     0
  0
SCALE
  5
869
102
{ACAD_REACTORS
330
849
102
}
330
849
100
AcDbScale
 70
     0
300
6" = 1'-0"
140
6.0
141
12.0
290
     0
  0
SCALE
  5
86A
102
{ACAD_REACTORS
330
849
102
}
330
849
100
AcDbScale
 70
     0
300
1'-0" = 1'-0"
140
12.0
141
12.0
290
     0
  0
TABLESTYLE
  5
848
102
{ACAD_XDICTIONARY
360
893
102
}
102
{ACAD_REACTORS
330
847
102
}
330
847
100
AcDbTableStyle
  3
Standard
 70
     0
 71
     0
 40
1.5
 41
1.5
280
     0
281
     0
  7
Standard
140
4.5
170
     2
 62
     0
 63
     7
283
     0
274
    -2
284
     1
 64
     0
275
    -2
285
     1
 65
     0
276
    -2
286
     1
 66
     0
277
    -2
287
     1
 67
     0
278
    -2
288
     1
 68
     0
279
    -2
289
     1
 69
     0
  7
Standard
140
6.0
170
     5
 62
     0
 63
     7
283
     0
274
    -2
284
     1
 64
     0
275
    -2
285
     1
 65
     0
276
    -2
286
     1
 66
     0
277
    -2
287
     1
 67
     0
278
    -2
288
     1
 68
     0
279
    -2
289
     1
 69
     0
  7
Standard
140
4.5
170
     5
 62
     0
 63
     7
283
     0
274
    -2
284
     1
 64
     0
275
    -2
285
     1
 65
     0
276
    -2
286
     1
 66
     0
277
    -2
287
     1
 67
     0
278
    -2
288
     1
 68
     0
279
    -2
289
     1
 69
     0
  0
VISUALSTYLE
  5
83B
102
{ACAD_REACTORS
330
835
102
}
330
835
100
AcDbVisualStyle
  2
2dWireframe
 70
     4
 71
     0
 72
     2
 73
     0
 90
        0
 40
-0.6
 41
-30.0
 62
     5
 63
     7
 74
     1
 91
        4
 64
     7
 65
   257
 75
     1
175
     1
 42
1.0
 92
        0
 66
   257
 43
1.0
 76
     1
 77
     6
 78
     2
 67
     7
 79
     5
170
     0
171
     0
290
     0
174
     0
 93
        1
 44
0.0
173
     0
291
     0
 45
0.0
1001
ACAD
1000
AcDbSavedByObjectVersion
1070
     0
1000
AcDbSavedByObjectVersion
1070
     0
1000
AcDbSavedByObjectVersion
1070
     0
  0
VISUALSTYLE
  5
83D
102
{ACAD_REACTORS
330
835
102
}
330
835
100
AcDbVisualStyle
  2
3D Hidden
 70
     6
 71
     1
 72
     2
 73
     2
 90
        0
 40
-0.6
 41
-30.0
 62
     5
 63
     7
 74
     2
 91
        2
 64
     7
 65
   257
 75
     2
175
     1
 42
40.0
 92
        0
 66
   257
 43
1.0
 76
     1
 77
     6
 78
     2
 67
     7
 79
     3
170
     0
171
     0
290
     0
174
     0
 93
        1
 44
0.0
173
     0
291
     0
 45
0.0
1001
ACAD
1000
AcDbSavedByObjectVersion
1070
     0
1000
AcDbSavedByObjectVersion
1070
     0
1000
AcDbSavedByObjectVersion
1070
     0
  0
VISUALSTYLE
  5
83C
102
{ACAD_REACTORS
330
835
102
}
330
835
100
AcDbVisualStyle
  2
3dWireframe
 70
     5
 71
     0
 72
     2
 73
     0
 90
        0
 40
-0.6
 41
-30.0
 62
     5
 63
     7
 74
     1
 91
        4
 64
     7
 65
   257
 75
     1
175
     1
 42
1.0
 92
        0
 66
   257
 43
1.0
 76
     1
 77
     6
 78
     2
 67
     7
 79
     5
170
     0
171
     0
290
     0
174
     0
 93
        1
 44
0.0
173
     0
291
     0
 45
0.0
1001
ACAD
1000
AcDbSavedByObjectVersion
1070
     0
1000
AcDbSavedByObjectVersion
1070
     0
1000
AcDbSavedByObjectVersion
1070
     0
  0
VISUALSTYLE
  5
83A
102
{ACAD_REACTORS
330
835
102
}
330
835
100
AcDbVisualStyle
  2
Basic
 70
     7
 71
     1
 72
     0
 73
     1
 90
        0
 40
-0.6
 41
-30.0
 62
     5
 63
     7
 74
     0
 91
        4
 64
     7
 65
   257
 75
     1
175
     1
 42
1.0
 92
        8
 66
     7
 43
1.0
 76
     1
 77
     6
 78
     2
 67
     7
 79
     5
170
     0
171
     0
290
     0
174
     0
 93
        1
 44
0.0
173
     0
291
     1
 45
0.0
1001
ACAD
1000
AcDbSavedByObjectVersion
1070
     0
1000
AcDbSavedByObjectVersion
1070
     0
1000
AcDbSavedByObjectVersion
1070
     0
  0
VISUALSTYLE
  5
841
102
{ACAD_REACTORS
330
835
102
}
330
835
100
AcDbVisualStyle
  2
Brighten
 70
    12
 71
     2
 72
     2
 73
     0
 90
        0
 40
-0.6
 41
-30.0
 62
     5
 63
     7
 74
     1
 91
        4
 64
     7
 65
   257
 75
     1
175
     1
 42
1.0
 92
        8
 66
     7
 43
1.0
 76
     1
 77
     6
 78
     2
 67
     7
 79
     5
170
     0
171
     0
290
     0
174
     0
 93
        1
 44
50.0
173
     0
291
     1
 45
0.0
1001
ACAD
1000
AcDbSavedByObjectVersion
1070
     0
1000
AcDbSavedByObjectVersion
1070
     0
1000
AcDbSavedByObjectVersion
1070
     0
  0
VISUALSTYLE
  5
845
102
{ACAD_REACTORS
330
835
102
}
330
835
100
AcDbVisualStyle
  2
ColorChange
 70
    16
 71
     2
 72
     2
 73
     3
 90
        0
 40
-0.6
 41
-30.0
 62
     5
 63
     8
 74
     1
 91
        4
 64
     7
 65
   257
 75
     1
175
     1
 42
1.0
 92
        8
 66
     8
 43
1.0
 76
     1
 77
     6
 78
     2
 67
     7
 79
     5
170
     0
171
     0
290
     0
174
     0
 93
        1
 44
0.0
173
     0
291
     1
 45
0.0
1001
ACAD
1000
AcDbSavedByObjectVersion
1070
     0
1000
AcDbSavedByObjectVersion
1070
     0
1000
AcDbSavedByObjectVersion
1070
     0
  0
VISUALSTYLE
  5
83E
102
{ACAD_REACTORS
330
835
102
}
330
835
100
AcDbVisualStyle
  2
Conceptual
 70
     9
 71
     3
 72
     2
 73
     0
 90
        0
 40
-0.6
 41
-30.0
 62
     5
 63
     7
 74
     2
 91
        2
 64
     7
 65
   257
 75
     1
175
     1
 42
40.0
 92
        8
 66
     7
 43
1.0
 76
     1
 77
     6
 78
     2
 67
     7
 79
     3
170
     0
171
     0
290
     0
174
     0
 93
        1
 44
0.0
173
     0
291
     0
 45
0.0
1001
ACAD
1000
AcDbSavedByObjectVersion
1070
     0
1000
AcDbSavedByObjectVersion
1070
     0
1000
AcDbSavedByObjectVersion
1070
     0
  0
VISUALSTYLE
  5
840
102
{ACAD_REACTORS
330
835
102
}
330
835
100
AcDbVisualStyle
  2
Dim
 70
    11
 71
     2
 72
     2
 73
     0
 90
        0
 40
-0.6
 41
-30.0
 62
     5
 63
     7
 74
     1
 91
        4
 64
     7
 65
   257
 75
     1
175
     1
 42
1.0
 92
        8
 66
     7
 43
1.0
 76
     1
 77
     6
 78
     2
 67
     7
 79
     5
170
     0
171
     0
290
     0
174
     0
 93
        1
 44
-50.0
173
     0
291
     1
 45
0.0
1001
ACAD
1000
AcDbSavedByObjectVersion
1070
     0
1000
AcDbSavedByObjectVersion
1070
     0
1000
AcDbSavedByObjectVersion
1070
     0
  0
VISUALSTYLE
  5
844
102
{ACAD_REACTORS
330
835
102
}
330
835
100
AcDbVisualStyle
  2
Facepattern
 70
    15
 71
     2
 72
     2
 73
     0
 90
        0
 40
-0.6
 41
-30.0
 62
     5
 63
     7
 74
     1
 91
        4
 64
     7
 65
   257
 75
     1
175
     1
 42
1.0
 92
        8
 66
     7
 43
1.0
 76
     1
 77
     6
 78
     2
 67
     7
 79
     5
170
     0
171
     0
290
     0
174
     0
 93
        1
 44
0.0
173
     0
291
     1
 45
0.0
1001
ACAD
1000
AcDbSavedByObjectVersion
1070
     0
1000
AcDbSavedByObjectVersion
1070
     0
1000
AcDbSavedByObjectVersion
1070
     0
  0
VISUALSTYLE
  5
836
102
{ACAD_REACTORS
330
835
102
}
330
835
100
AcDbVisualStyle
  2
Flat
 70
     0
 71
     2
 72
     1
 73
     1
 90
        2
 40
-0.6
 41
30.0
 62
     5
 63
     7
 74
     0
 91
        4
 64
     7
 65
   257
 75
     1
175
     1
 42
1.0
 92
        8
 66
     7
 43
1.0
 76
     1
 77
     6
 78
     2
 67
     7
 79
     5
170
     0
171
     0
290
     0
174
     0
 93
       13
 44
0.0
173
     0
291
     1
 45
0.0
1001
ACAD
1000
AcDbSavedByObjectVersion
1070
     0
1000
AcDbSavedByObjectVersion
1070
     0
1000
AcDbSavedByObjectVersion
1070
     0
  0
VISUALSTYLE
  5
837
102
{ACAD_REACTORS
330
835
102
}
330
835
100
AcDbVisualStyle
  2
FlatWithEdges
 70
     1
 71
     2
 72
     1
 73
     1
 90
        2
 40
-0.6
 41
30.0
 62
     5
 63
     7
 74
     1
 91
        4
 64
     7
 65
   257
 75
     1
175
     1
 42
1.0
 92
        0
 66
   257
 43
1.0
 76
     1
 77
     6
 78
     2
 67
     7
 79
     5
170
     0
171
     0
290
     0
174
     0
 93
       13
 44
0.0
173
     0
291
     1
 45
0.0
1001
ACAD
1000
AcDbSavedByObjectVersion
1070
     0
1000
AcDbSavedByObjectVersion
1070
     0
1000
AcDbSavedByObjectVersion
1070
     0
  0
VISUALSTYLE
  5
838
102
{ACAD_REACTORS
330
835
102
}
330
835
100
AcDbVisualStyle
  2
Gouraud
 70
     2
 71
     2
 72
     2
 73
     1
 90
        2
 40
-0.6
 41
30.0
 62
     5
 63
     7
 74
     0
 91
        4
 64
     7
 65
   257
 75
     1
175
     1
 42
1.0
 92
        0
 66
     7
 43
1.0
 76
     1
 77
     6
 78
     2
 67
     7
 79
     5
170
     0
171
     0
290
     0
174
     0
 93
       13
 44
0.0
173
     0
291
     1
 45
0.0
1001
ACAD
1000
AcDbSavedByObjectVersion
1070
     0
1000
AcDbSavedByObjectVersion
1070
     0
1000
AcDbSavedByObjectVersion
1070
     0
  0
VISUALSTYLE
  5
839
102
{ACAD_REACTORS
330
835
102
}
330
835
100
AcDbVisualStyle
  2
GouraudWithEdges
 70
     3
 71
     2
 72
     2
 73
     1
 90
        2
 40
-0.6
 41
30.0
 62
     5
 63
     7
 74
     1
 91
        4
 64
     7
 65
   257
 75
     1
175
     1
 42
1.0
 92
        0
 66
   257
 43
1.0
 76
     1
 77
     6
 78
     2
 67
     7
 79
     5
170
     0
171
     0
290
     0
174
     0
 93
       13
 44
0.0
173
     0
291
     1
 45
0.0
1001
ACAD
1000
AcDbSavedByObjectVersion
1070
     0
1000
AcDbSavedByObjectVersion
1070
     0
1000
AcDbSavedByObjectVersion
1070
     0
  0
VISUALSTYLE
  5
843
102
{ACAD_REACTORS
330
835
102
}
330
835
100
AcDbVisualStyle
  2
Linepattern
 70
    14
 71
     2
 72
     2
 73
     0
 90
        0
 40
-0.6
 41
-30.0
 62
     5
 63
     7
 74
     1
 91
        4
 64
     7
 65
   257
 75
     7
175
     7
 42
1.0
 92
        8
 66
     7
 43
1.0
 76
     1
 77
     6
 78
     2
 67
     7
 79
     5
170
     0
171
     0
290
     0
174
     0
 93
        1
 44
0.0
173
     0
291
     1
 45
0.0
1001
ACAD
1000
AcDbSavedByObjectVersion
1070
     0
1000
AcDbSavedByObjectVersion
1070
     0
1000
AcDbSavedByObjectVersion
1070
     0
  0
VISUALSTYLE
  5
83F
102
{ACAD_REACTORS
330
835
102
}
330
835
100
AcDbVisualStyle
  2
Realistic
 70
     8
 71
     2
 72
     2
 73
     0
 90
        0
 40
-0.6
 41
-30.0
 62
     5
 63
     7
 74
     1
 91
        0
 64
     7
 65
   257
 75
     1
175
     1
 42
1.0
 92
        8
 66
     8
 43
1.0
 76
     1
 77
     6
 78
     2
 67
     7
 79
     5
170
     0
171
     0
290
     0
174
     0
 93
       13
 44
0.0
173
     0
291
     0
 45
0.0
1001
ACAD
1000
AcDbSavedByObjectVersion
1070
     0
1000
AcDbSavedByObjectVersion
1070
     0
1000
AcDbSavedByObjectVersion
1070
     0
  0
VISUALSTYLE
  5
842
102
{ACAD_REACTORS
330
835
102
}
330
835
100
AcDbVisualStyle
  2
Thicken
 70
    13
 71
     2
 72
     2
 73
     0
 90
        0
 40
-0.6
 41
-30.0
 62
     5
 63
     7
 74
     1
 91
        4
 64
     7
 65
   257
 75
     1
175
     1
 42
1.0
 92
       12
 66
     7
 43
1.0
 76
     1
 77
     6
 78
     2
 67
     7
 79
     5
170
     0
171
     0
290
     0
174
     0
 93
        1
 44
0.0
173
     0
291
     1
 45
0.0
1001
ACAD
1000
AcDbSavedByObjectVersion
1070
     0
1000
AcDbSavedByObjectVersion
1070
     0
1000
AcDbSavedByObjectVersion
1070
     0
  0
DICTIONARYVAR
  5
883
102
{ACAD_REACTORS
330
880
102
}
330
880
100
DictionaryVariables
280
     0
  1
1:1
  0
DICTIONARYVAR
  5
882
102
{ACAD_REACTORS
330
880
102
}
330
880
100
DictionaryVariables
280
     0
  1
STANDARD
  0
DICTIONARYVAR
  5
881
102
{ACAD_REACTORS
330
880
102
}
330
880
100
DictionaryVariables
280
     0
  1
STANDARD
  0
DICTIONARYVAR
  5
886
102
{ACAD_REACTORS
330
880
102
}
330
880
100
DictionaryVariables
280
     0
  1
1
  0
DICTIONARYVAR
  5
885
102
{ACAD_REACTORS
330
880
102
}
330
880
100
DictionaryVariables
280
     0
  1
0
  0
DICTIONARYVAR
  5
884
102
{ACAD_REACTORS
330
880
102
}
330
880
100
DictionaryVariables
280
     0
  1
127
  0
XRECORD
  5
874
102
{ACAD_REACTORS
330
872
102
}
330
872
100
AcDbXrecord
280
     1
330
2F
330
6B
330
9A
330
CD
330
EA
330
FE
330
13D
330
1E5
330
211
330
244
330
290
330
2C1
330
319
330
31E
330
381
330
3BD
330
3F0
330
428
330
46B
330
4DF
330
51F
330
545
330
56D
330
595
330
5AD
330
5C5
330
62C
330
654
330
670
330
687
330
6A8
330
6C6
330
6F1
330
709
330
70E
330
715
330
727
330
73B
330
743
330
755
330
77E
330
798
330
79D
330
7BD
330
7D9
330
80C
330
814
  0
DICTIONARY
  5
102F
330
21
100
AcDbDictionary
280
     1
281
     1
  3
ACAD_XREC_ROUNDTRIP
360
1030
  0
DICTIONARY
  5
102D
330
20
100
AcDbDictionary
280
     1
281
     1
  3
ACAD_XREC_ROUNDTRIP
360
102E
  0
DICTIONARY
  5
826
330
825
100
AcDbDictionary
280
     1
281
     1
  3
ACAD_XREC_ROUNDTRIP
360
89C
  3
BUMPTILE
360
828
  3
DIFFUSETILE
360
827
  3
OPACITYTILE
360
82B
  3
REFLECTIONTILE
360
82A
  3
REFRACTIONTILE
360
82C
  3
SPECULARTILE
360
829
  0
DICTIONARY
  5
81E
330
81D
100
AcDbDictionary
280
     1
281
     1
  3
ACAD_XREC_ROUNDTRIP
360
89B
  3
BUMPTILE
360
820
  3
DIFFUSETILE
360
81F
  3
OPACITYTILE
360
823
  3
REFLECTIONTILE
360
822
  3
REFRACTIONTILE
360
824
  3
SPECULARTILE
360
821
  0
DICTIONARY
  5
82E
330
82D
100
AcDbDictionary
280
     1
281
     1
  3
ACAD_XREC_ROUNDTRIP
360
89D
  3
BUMPTILE
360
830
  3
DIFFUSETILE
360
82F
  3
OPACITYTILE
360
833
  3
REFLECTIONTILE
360
832
  3
REFRACTIONTILE
360
834
  3
SPECULARTILE
360
831
  0
DICTIONARY
  5
893
330
848
100
AcDbDictionary
280
     1
281
     1
  3
ACAD_ROUNDTRIP_2008_TABLESTYLE_CELLSTYLEMAP
360
102B
  3
ACAD_XREC_ROUNDTRIP
360
1032
  0
XRECORD
  5
1030
102
{ACAD_REACTORS
330
102F
102
}
330
102F
100
AcDbXrecord
280
     1
102
SHADEPLOT
 70
     0
102
SHADEPLOTRESLEVEL
 70
     2
102
SHADEPLOTCUSTOMDPI
 70
   300
  0
XRECORD
  5
102E
102
{ACAD_REACTORS
330
102D
102
}
330
102D
100
AcDbXrecord
280
     1
102
SHADEPLOT
 70
     0
102
SHADEPLOTRESLEVEL
 70
     2
102
SHADEPLOTCUSTOMDPI
 70
   300
  0
XRECORD
  5
89C
102
{ACAD_REACTORS
330
826
102
}
330
826
100
AcDbXrecord
280
     1
102
MATERIAL
148
0.0
149
0.0
149
0.0
 93
        0
 94
      127
282
     0
 72
     0
 77
     0
171
     0
175
     0
179
     0
273
     0
  0
XRECORD
  5
828
102
{ACAD_REACTORS
330
826
102
}
330
826
100
AcDbXrecord
280
     1
270
     1
271
     1
  0
XRECORD
  5
827
102
{ACAD_REACTORS
330
826
102
}
330
826
100
AcDbXrecord
280
     1
270
     1
271
     1
  0
XRECORD
  5
82B
102
{ACAD_REACTORS
330
826
102
}
330
826
100
AcDbXrecord
280
     1
270
     1
271
     1
  0
XRECORD
  5
82A
102
{ACAD_REACTORS
330
826
102
}
330
826
100
AcDbXrecord
280
     1
270
     1
271
     1
  0
XRECORD
  5
82C
102
{ACAD_REACTORS
330
826
102
}
330
826
100
AcDbXrecord
280
     1
270
     1
271
     1
  0
XRECORD
  5
829
102
{ACAD_REACTORS
330
826
102
}
330
826
100
AcDbXrecord
280
     1
270
     1
271
     1
  0
XRECORD
  5
89B
102
{ACAD_REACTORS
330
81E
102
}
330
81E
100
AcDbXrecord
280
     1
102
MATERIAL
148
0.0
149
0.0
149
0.0
 93
        0
 94
      127
282
     0
 72
     0
 77
     0
171
     0
175
     0
179
     0
273
     0
  0
XRECORD
  5
820
102
{ACAD_REACTORS
330
81E
102
}
330
81E
100
AcDbXrecord
280
     1
270
     1
271
     1
  0
XRECORD
  5
81F
102
{ACAD_REACTORS
330
81E
102
}
330
81E
100
AcDbXrecord
280
     1
270
     1
271
     1
  0
XRECORD
  5
823
102
{ACAD_REACTORS
330
81E
102
}
330
81E
100
AcDbXrecord
280
     1
270
     1
271
     1
  0
XRECORD
  5
822
102
{ACAD_REACTORS
330
81E
102
}
330
81E
100
AcDbXrecord
280
     1
270
     1
271
     1
  0
XRECORD
  5
824
102
{ACAD_REACTORS
330
81E
102
}
330
81E
100
AcDbXrecord
280
     1
270
     1
271
     1
  0
XRECORD
  5
821
102
{ACAD_REACTORS
330
81E
102
}
330
81E
100
AcDbXrecord
280
     1
270
     1
271
     1
  0
XRECORD
  5
89D
102
{ACAD_REACTORS
330
82E
102
}
330
82E
100
AcDbXrecord
280
     1
102
MATERIAL
148
0.0
149
0.0
149
0.0
 93
        0
 94
      127
282
     0
 72
     0
 77
     0
171
     0
175
     0
179
     0
273
     0
  0
XRECORD
  5
830
102
{ACAD_REACTORS
330
82E
102
}
330
82E
100
AcDbXrecord
280
     1
270
     1
271
     1
  0
XRECORD
  5
82F
102
{ACAD_REACTORS
330
82E
102
}
330
82E
100
AcDbXrecord
280
     1
270
     1
271
     1
  0
XRECORD
  5
833
102
{ACAD_REACTORS
330
82E
102
}
330
82E
100
AcDbXrecord
280
     1
270
     1
271
     1
  0
XRECORD
  5
832
102
{ACAD_REACTORS
330
82E
102
}
330
82E
100
AcDbXrecord
280
     1
270
     1
271
     1
  0
XRECORD
  5
834
102
{ACAD_REACTORS
330
82E
102
}
330
82E
100
AcDbXrecord
280
     1
270
     1
271
     1
  0
XRECORD
  5
831
102
{ACAD_REACTORS
330
82E
102
}
330
82E
100
AcDbXrecord
280
     1
270
     1
271
     1
  0
CELLSTYLEMAP
  5
102B
102
{ACAD_REACTORS
330
893
102
}
330
893
100
AcDbCellStyleMap
 90
        3
300
CELLSTYLE
  1
TABLEFORMAT_BEGIN
 90
        5
170
     1
 91
        0
 92
    32768
 62
   257
 93
        1
300
CONTENTFORMAT
  1
CONTENTFORMAT_BEGIN
 90
        0
 91
        0
 92
      512
 93
        0
300

 40
0.0
140
1.0
 94
        5
 62
     0
340
17
144
6.0
309
CONTENTFORMAT_END
171
     1
301
MARGIN
  1
CELLMARGIN_BEGIN
 40
1.5
 40
1.5
 40
1.5
 40
1.5
 40
0.18
 40
0.18
309
CELLMARGIN_END
 94
        6
 95
        1
302
GRIDFORMAT
  1
GRIDFORMAT_BEGIN
 90
        0
 91
        1
 62
     0
 92
       -2
340
0
 93
        0
 40
1.125
309
GRIDFORMAT_END
 95
        2
302
GRIDFORMAT
  1
GRIDFORMAT_BEGIN
 90
        0
 91
        1
 62
     0
 92
       -2
340
0
 93
        0
 40
1.125
309
GRIDFORMAT_END
 95
        4
302
GRIDFORMAT
  1
GRIDFORMAT_BEGIN
 90
        0
 91
        1
 62
     0
 92
       -2
340
0
 93
        0
 40
1.125
309
GRIDFORMAT_END
 95
        8
302
GRIDFORMAT
  1
GRIDFORMAT_BEGIN
 90
        0
 91
        1
 62
     0
 92
       -2
340
0
 93
        0
 40
1.125
309
GRIDFORMAT_END
 95
       16
302
GRIDFORMAT
  1
GRIDFORMAT_BEGIN
 90
        0
 91
        1
 62
     0
 92
       -2
340
0
 93
        0
 40
1.125
309
GRIDFORMAT_END
 95
       32
302
GRIDFORMAT
  1
GRIDFORMAT_BEGIN
 90
        0
 91
        1
 62
     0
 92
       -2
340
0
 93
        0
 40
1.125
309
GRIDFORMAT_END
309
TABLEFORMAT_END
  1
CELLSTYLE_BEGIN
 90
        1
 91
        1
300
_TITLE
309
CELLSTYLE_END
300
CELLSTYLE
  1
TABLEFORMAT_BEGIN
 90
        5
170
     1
 91
        0
 92
        0
 62
   257
 93
        1
300
CONTENTFORMAT
  1
CONTENTFORMAT_BEGIN
 90
        0
 91
        0
 92
      512
 93
        0
300

 40
0.0
140
1.0
 94
        5
 62
     0
340
17
144
4.5
309
CONTENTFORMAT_END
171
     1
301
MARGIN
  1
CELLMARGIN_BEGIN
 40
1.5
 40
1.5
 40
1.5
 40
1.5
 40
0.18
 40
0.18
309
CELLMARGIN_END
 94
        6
 95
        1
302
GRIDFORMAT
  1
GRIDFORMAT_BEGIN
 90
        0
 91
        1
 62
     0
 92
       -2
340
0
 93
        0
 40
1.125
309
GRIDFORMAT_END
 95
        2
302
GRIDFORMAT
  1
GRIDFORMAT_BEGIN
 90
        0
 91
        1
 62
     0
 92
       -2
340
0
 93
        0
 40
1.125
309
GRIDFORMAT_END
 95
        4
302
GRIDFORMAT
  1
GRIDFORMAT_BEGIN
 90
        0
 91
        1
 62
     0
 92
       -2
340
0
 93
        0
 40
1.125
309
GRIDFORMAT_END
 95
        8
302
GRIDFORMAT
  1
GRIDFORMAT_BEGIN
 90
        0
 91
        1
 62
     0
 92
       -2
340
0
 93
        0
 40
1.125
309
GRIDFORMAT_END
 95
       16
302
GRIDFORMAT
  1
GRIDFORMAT_BEGIN
 90
        0
 91
        1
 62
     0
 92
       -2
340
0
 93
        0
 40
1.125
309
GRIDFORMAT_END
 95
       32
302
GRIDFORMAT
  1
GRIDFORMAT_BEGIN
 90
        0
 91
        1
 62
     0
 92
       -2
340
0
 93
        0
 40
1.125
309
GRIDFORMAT_END
309
TABLEFORMAT_END
  1
CELLSTYLE_BEGIN
 90
        2
 91
        1
300
_HEADER
309
CELLSTYLE_END
300
CELLSTYLE
  1
TABLEFORMAT_BEGIN
 90
        5
170
     1
 91
        0
 92
        0
 62
   257
 93
        1
300
CONTENTFORMAT
  1
CONTENTFORMAT_BEGIN
 90
        0
 91
        0
 92
      512
 93
        0
300

 40
0.0
140
1.0
 94
        2
 62
     0
340
17
144
4.5
309
CONTENTFORMAT_END
171
     1
301
MARGIN
  1
CELLMARGIN_BEGIN
 40
1.5
 40
1.5
 40
1.5
 40
1.5
 40
0.18
 40
0.18
309
CELLMARGIN_END
 94
        6
 95
        1
302
GRIDFORMAT
  1
GRIDFORMAT_BEGIN
 90
        0
 91
        1
 62
     0
 92
       -2
340
0
 93
        0
 40
1.125
309
GRIDFORMAT_END
 95
        2
302
GRIDFORMAT
  1
GRIDFORMAT_BEGIN
 90
        0
 91
        1
 62
     0
 92
       -2
340
0
 93
        0
 40
1.125
309
GRIDFORMAT_END
 95
        4
302
GRIDFORMAT
  1
GRIDFORMAT_BEGIN
 90
        0
 91
        1
 62
     0
 92
       -2
340
0
 93
        0
 40
1.125
309
GRIDFORMAT_END
 95
        8
302
GRIDFORMAT
  1
GRIDFORMAT_BEGIN
 90
        0
 91
        1
 62
     0
 92
       -2
340
0
 93
        0
 40
1.125
309
GRIDFORMAT_END
 95
       16
302
GRIDFORMAT
  1
GRIDFORMAT_BEGIN
 90
        0
 91
        1
 62
     0
 92
       -2
340
0
 93
        0
 40
1.125
309
GRIDFORMAT_END
 95
       32
302
GRIDFORMAT
  1
GRIDFORMAT_BEGIN
 90
        0
 91
        1
 62
     0
 92
       -2
340
0
 93
        0
 40
1.125
309
GRIDFORMAT_END
309
TABLEFORMAT_END
  1
CELLSTYLE_BEGIN
 90
        3
 91
        2
300
_DATA
309
CELLSTYLE_END
  0
XRECORD
  5
1032
102
{ACAD_REACTORS
330
893
102
}
330
893
100
AcDbXrecord
280
     1
102
ACAD_ROUNDTRIP_PRE2007_TABLESTYLE
 90
      512
 91
        0
  1

 92
      512
 93
        0
  2

 94
      512
 95
        0
  3

  0
ENDSEC
  0
EOF
