  0
SECTION
  2
HEADER
  9
$ACADVER
  1
AC1015
  9
$ACADMAINTVER
 70
     6
  9
$DWGCODEPAGE
  3
ANSI_1252
  9
$INSBASE
 10
0.0
 20
0.0
 30
0.0
  9
$EXTMIN
 10
-117.5730809321544
 20
-157.6811415367187
 30
-0.0000000000000115
  9
$EXTMAX
 10
124.9822570617457
 20
87.52772733741176
 30
0.0000000000000343
  9
$LIMMIN
 10
-20.0
 20
-575.8499999999997
  9
$LIMMAX
 10
1785.35
 20
579.8499999999997
  9
$ORTHOMODE
 70
     0
  9
$REGENMODE
 70
     1
  9
$FILLMODE
 70
     1
  9
$QTEXTMODE
 70
     0
  9
$MIRRTEXT
 70
     1
  9
$LTSCALE
 40
10.0
  9
$ATTMODE
 70
     1
  9
$TEXTSIZE
 40
0.0
  9
$TRACEWID
 40
0.05
  9
$TEXTSTYLE
  7
Standard
  9
$CLAYER
  8
0
  9
$CELTYPE
  6
Continuous
  9
$CECOLOR
 62
   256
  9
$CELTSCALE
 40
1.0
  9
$DISPSILH
 70
     0
  9
$DIMSCALE
 40
1.0
  9
$DIMASZ
 40
1.25
  9
$DIMEXO
 40
0.0
  9
$DIMDLI
 40
0.38
  9
$DIMRND
 40
0.0
  9
$DIMDLE
 40
0.0
  9
$DIMEXE
 40
0.75
  9
$DIMTP
 40
0.0
  9
$DIMTM
 40
0.0
  9
$DIMTXT
 40
2.5
  9
$DIMCEN
 40
0.09
  9
$DIMTSZ
 40
0.0
  9
$DIMTOL
 70
     0
  9
$DIMLIM
 70
     0
  9
$DIMTIH
 70
     0
  9
$DIMTOH
 70
     0
  9
$DIMSE1
 70
     0
  9
$DIMSE2
 70
     0
  9
$DIMTAD
 70
     1
  9
$DIMZIN
 70
     0
  9
$DIMBLK
  1

  9
$DIMASO
 70
     1
  9
$DIMSHO
 70
     1
  9
$DIMPOST
  1

  9
$DIMAPOST
  1

  9
$DIMALT
 70
     0
  9
$DIMALTD
 70
     2
  9
$DIMALTF
 40
25.4
  9
$DIMLFAC
 40
1.0
  9
$DIMTOFL
 70
     0
  9
$DIMTVP
 40
0.0
  9
$DIMTIX
 70
     0
  9
$DIMSOXD
 70
     0
  9
$DIMSAH
 70
     0
  9
$DIMBLK1
  1

  9
$DIMBLK2
  1

  9
$DIMSTYLE
  2
Standard
  9
$DIMCLRD
 70
     7
  9
$DIMCLRE
 70
     7
  9
$DIMCLRT
 70
     7
  9
$DIMTFAC
 40
0.8
  9
$DIMGAP
 40
1.25
  9
$DIMJUST
 70
     0
  9
$DIMSD1
 70
     0
  9
$DIMSD2
 70
     0
  9
$DIMTOLJ
 70
     1
  9
$DIMTZIN
 70
     0
  9
$DIMALTZ
 70
     0
  9
$DIMALTTZ
 70
     0
  9
$DIMUPT
 70
     0
  9
$DIMDEC
 70
     2
  9
$DIMTDEC
 70
     4
  9
$DIMALTU
 70
     2
  9
$DIMALTTD
 70
     2
  9
$DIMTXSTY
  7
Standard
  9
$DIMAUNIT
 70
     0
  9
$DIMADEC
 70
     0
  9
$DIMALTRND
 40
0.0
  9
$DIMAZIN
 70
     0
  9
$DIMDSEP
 70
    46
  9
$DIMATFIT
 70
     3
  9
$DIMFRAC
 70
     0
  9
$DIMLDRBLK
  1

  9
$DIMLUNIT
 70
     2
  9
$DIMLWD
 70
     0
  9
$DIMLWE
 70
     0
  9
$DIMTMOVE
 70
     0
  9
$LUNITS
 70
     2
  9
$LUPREC
 70
     4
  9
$SKETCHINC
 40
0.1
  9
$FILLETRAD
 40
0.0
  9
$AUNITS
 70
     0
  9
$AUPREC
 70
     0
  9
$MENU
  1
acad
  9
$ELEVATION
 40
0.0
  9
$PELEVATION
 40
0.0
  9
$THICKNESS
 40
0.0
  9
$LIMCHECK
 70
     0
  9
$CHAMFERA
 40
0.0
  9
$CHAMFERB
 40
0.0
  9
$CHAMFERC
 40
0.0
  9
$CHAMFERD
 40
0.0
  9
$SKPOLY
 70
     0
  9
$TDCREATE
 40
2455301.760694445
  9
$TDUCREATE
 40
2455301.719027778
  9
$TDUPDATE
 40
2456349.694752778
  9
$TDUUPDATE
 40
2456349.653086111
  9
$TDINDWG
 40
0.1754613079
  9
$TDUSRTIMER
 40
2456349.65255941
  9
$USRTIMER
 70
     1
  9
$ANGBASE
 50
0.0
  9
$ANGDIR
 70
     0
  9
$PDMODE
 70
     0
  9
$PDSIZE
 40
0.0
  9
$PLINEWID
 40
0.0
  9
$SPLFRAME
 70
     0
  9
$SPLINETYPE
 70
     6
  9
$SPLINESEGS
 70
     8
  9
$HANDSEED
  5
C435
  9
$SURFTAB1
 70
     6
  9
$SURFTAB2
 70
     6
  9
$SURFTYPE
 70
     6
  9
$SURFU
 70
     6
  9
$SURFV
 70
     6
  9
$UCSBASE
  2

  9
$UCSNAME
  2

  9
$UCSORG
 10
0.0
 20
0.0
 30
0.0
  9
$UCSXDIR
 10
1.0
 20
0.0
 30
0.0
  9
$UCSYDIR
 10
0.0
 20
1.0
 30
0.0
  9
$UCSORTHOREF
  2

  9
$UCSORTHOVIEW
 70
     0
  9
$UCSORGTOP
 10
0.0
 20
0.0
 30
0.0
  9
$UCSORGBOTTOM
 10
0.0
 20
0.0
 30
0.0
  9
$UCSORGLEFT
 10
0.0
 20
0.0
 30
0.0
  9
$UCSORGRIGHT
 10
0.0
 20
0.0
 30
0.0
  9
$UCSORGFRONT
 10
0.0
 20
0.0
 30
0.0
  9
$UCSORGBACK
 10
0.0
 20
0.0
 30
0.0
  9
$PUCSBASE
  2

  9
$PUCSNAME
  2

  9
$PUCSORG
 10
0.0
 20
0.0
 30
0.0
  9
$PUCSXDIR
 10
1.0
 20
0.0
 30
0.0
  9
$PUCSYDIR
 10
0.0
 20
1.0
 30
0.0
  9
$PUCSORTHOREF
  2

  9
$PUCSORTHOVIEW
 70
     0
  9
$PUCSORGTOP
 10
0.0
 20
0.0
 30
0.0
  9
$PUCSORGBOTTOM
 10
0.0
 20
0.0
 30
0.0
  9
$PUCSORGLEFT
 10
0.0
 20
0.0
 30
0.0
  9
$PUCSORGRIGHT
 10
0.0
 20
0.0
 30
0.0
  9
$PUCSORGFRONT
 10
0.0
 20
0.0
 30
0.0
  9
$PUCSORGBACK
 10
0.0
 20
0.0
 30
0.0
  9
$USERI1
 70
     0
  9
$USERI2
 70
     0
  9
$USERI3
 70
     0
  9
$USERI4
 70
     0
  9
$USERI5
 70
     0
  9
$USERR1
 40
0.0
  9
$USERR2
 40
0.0
  9
$USERR3
 40
0.0
  9
$USERR4
 40
0.0
  9
$USERR5
 40
0.0
  9
$WORLDVIEW
 70
     1
  9
$SHADEDGE
 70
     3
  9
$SHADEDIF
 70
    70
  9
$TILEMODE
 70
     1
  9
$MAXACTVP
 70
    16
  9
$PINSBASE
 10
0.0
 20
0.0
 30
0.0
  9
$PLIMCHECK
 70
     0
  9
$PEXTMIN
 10
1.000000000000000E+20
 20
1.000000000000000E+20
 30
1.000000000000000E+20
  9
$PEXTMAX
 10
-1.000000000000000E+20
 20
-1.000000000000000E+20
 30
-1.000000000000000E+20
  9
$PLIMMIN
 10
0.0
 20
0.0
  9
$PLIMMAX
 10
0.0
 20
0.0
  9
$UNITMODE
 70
     0
  9
$VISRETAIN
 70
     0
  9
$PLINEGEN
 70
     1
  9
$PSLTSCALE
 70
     0
  9
$TREEDEPTH
 70
  3020
  9
$CMLSTYLE
  2
Standard
  9
$CMLJUST
 70
     0
  9
$CMLSCALE
 40
1.0
  9
$PROXYGRAPHICS
 70
     0
  9
$MEASUREMENT
 70
     1
  9
$CELWEIGHT
370
     0
  9
$ENDCAPS
280
     0
  9
$JOINSTYLE
280
     0
  9
$LWDISPLAY
290
     0
  9
$INSUNITS
 70
     0
  9
$HYPERLINKBASE
  1

  9
$STYLESHEET
  1

  9
$XEDIT
290
     1
  9
$CEPSNTYPE
380
     0
  9
$PSTYLEMODE
290
     1
  9
$FINGERPRINTGUID
  2

  9
$VERSIONGUID
  2
{1F94FF31-F676-456F-8864-32B3D6F53222}
  9
$EXTNAMES
290
     1
  9
$PSVPSCALE
 40
0.0
  9
$OLESTARTUP
290
     0
  0
ENDSEC
  0
SECTION
  2
CLASSES
  0
CLASS
  1
IMAGE
  2
AcDbRasterImage
  3
ISM
 90
      127
280
     0
281
     1
  0
CLASS
  1
DICTIONARYVAR
  2
AcDbDictionaryVar
  3
ObjectDBX Classes
 90
        0
280
     0
281
     0
  0
CLASS
  1
RASTERVARIABLES
  2
AcDbRasterVariables
  3
ISM
 90
        0
280
     0
281
     0
  0
CLASS
  1
IMAGEDEF
  2
AcDbRasterImageDef
  3
ISM
 90
        0
280
     0
281
     0
  0
CLASS
  1
IMAGEDEF_REACTOR
  2
AcDbRasterImageDefReactor
  3
ISM
 90
        1
280
     0
281
     0
  0
CLASS
  1
IDBUFFER
  2
AcDbIdBuffer
  3
ObjectDBX Classes
 90
        0
280
     0
281
     0
  0
CLASS
  1
SPATIAL_FILTER
  2
AcDbSpatialFilter
  3
ObjectDBX Classes
 90
        0
280
     0
281
     0
  0
CLASS
  1
SORTENTSTABLE
  2
AcDbSortentsTable
  3
ObjectDBX Classes
 90
        0
280
     0
281
     0
  0
CLASS
  1
LAYER_INDEX
  2
AcDbLayerIndex
  3
ObjectDBX Classes
 90
        0
280
     0
281
     0
  0
CLASS
  1
SPATIAL_INDEX
  2
AcDbSpatialIndex
  3
AutoCAD 2000
 90
        0
280
     0
281
     0
  0
CLASS
  1
OBJECT_PTR
  2
CAseDLPNTableRecord
  3
ASE-LPNTableRecord
 90
        1
280
     0
281
     0
  0
CLASS
  1
LAYOUT
  2
AcDbLayout
  3
ObjectDBX Classes
 90
        0
280
     0
281
     0
  0
CLASS
  1
PLOTSETTINGS
  2
AcDbPlotSettings
  3
ObjectDBX Classes
 90
        0
280
     0
281
     0
  0
CLASS
  1
ACDBDICTIONARYWDFLT
  2
AcDbDictionaryWithDefault
  3
ObjectDBX Classes
 90
        0
280
     0
281
     0
  0
CLASS
  1
ACDBPLACEHOLDER
  2
AcDbPlaceHolder
  3
ObjectDBX Classes
 90
        0
280
     0
281
     0
  0
CLASS
  1
VBA_PROJECT
  2
AcDbVbaProject
  3
ObjectDBX Classes
 90
        0
280
     0
281
     0
  0
CLASS
  1
WIPEOUT
  2
AcDbWipeout
  3
WipeOut|AutoCAD Express Tool|expresstools@autodesk.com
 90
      127
280
     0
281
     1
  0
CLASS
  1
WIPEOUTVARIABLES
  2
AcDbWipeoutVariables
  3
WipeOut|AutoCAD Express Tool|expresstools@autodesk.com
 90
        0
280
     0
281
     0
  0
CLASS
  1
RTEXT
  2
RText
  3
RText|AutoCAD Express Tool|expresstools@autodesk.com
 90
        0
280
     0
281
     1
  0
CLASS
  1
ARCALIGNEDTEXT
  2
AcDbArcAlignedText
  3
ATEXT|AutoCAD Express Tool|expresstools@autodesk.com
 90
        0
280
     0
281
     1
  0
CLASS
  1
MATERIAL
  2
AcDbMaterial
  3
ObjectDBX Classes
 90
     1153
280
     0
281
     0
  0
CLASS
  1
VISUALSTYLE
  2
AcDbVisualStyle
  3
ObjectDBX Classes
 90
     4095
280
     0
281
     0
  0
CLASS
  1
TABLESTYLE
  2
AcDbTableStyle
  3
ObjectDBX Classes
 90
     4095
280
     0
281
     0
  0
CLASS
  1
SCALE
  2
AcDbScale
  3
ObjectDBX Classes
 90
     1153
280
     0
281
     0
  0
CLASS
  1
MLEADERSTYLE
  2
AcDbMLeaderStyle
  3
ACDB_MLEADERSTYLE_CLASS
 90
     4095
280
     0
281
     0
  0
CLASS
  1
CELLSTYLEMAP
  2
AcDbCellStyleMap
  3
ObjectDBX Classes
 90
     1152
280
     0
281
     0
  0
ENDSEC
  0
SECTION
  2
TABLES
  0
TABLE
  2
VPORT
  5
7
330
0
100
AcDbSymbolTable
 70
     1
  0
VPORT
  5
15
330
7
100
AcDbSymbolTableRecord
100
AcDbViewportTableRecord
  2
*ACTIVE
 70
     0
 10
0.0
 20
0.0
 11
1.0
 21
1.0
 12
-298.6264007230729
 22
-50.71538057203711
 13
0.0
 23
0.0
 14
1.0
 24
1.0
 15
0.0
 25
0.0
 16
0.0
 26
0.0
 36
1.0
 17
0.0
 27
0.0
 37
0.0
 40
245.3806236330443
 41
2.099206349206349
 42
50.0
 43
0.0
 44
0.0
 50
0.0
 51
0.0
 71
    16
 72
   100
 73
     1
 74
     1
 75
     1
 76
     0
 77
     0
 78
     0
281
     0
 65
     0
110
0.0
120
0.0
130
0.0
111
1.0
121
0.0
131
0.0
112
0.0
122
1.0
132
0.0
 79
     0
146
0.0
  0
ENDTAB
  0
TABLE
  2
LTYPE
  5
4
330
0
100
AcDbSymbolTable
 70
     3
  0
LTYPE
  5
11
330
4
100
AcDbSymbolTableRecord
100
AcDbLinetypeTableRecord
  2
ByBlock
 70
     0
  3

 72
    65
 73
     0
 40
0.0
  0
LTYPE
  5
12
330
4
100
AcDbSymbolTableRecord
100
AcDbLinetypeTableRecord
  2
ByLayer
 70
     0
  3

 72
    65
 73
     0
 40
0.0
  0
LTYPE
  5
13
330
4
100
AcDbSymbolTableRecord
100
AcDbLinetypeTableRecord
  2
Continuous
 70
     0
  3
Solid line
 72
    65
 73
     0
 40
0.0
  0
LTYPE
  5
108
330
4
100
AcDbSymbolTableRecord
100
AcDbLinetypeTableRecord
  2
CENTER
 70
     0
  3
____ _ ____ _ ____ _ ____ _ ____ _ ____ _ ____
 72
    65
 73
     4
 40
2.0
 49
1.25
 74
     0
 49
-0.25
 74
     0
 49
0.25
 74
     0
 49
-0.25
 74
     0
  0
LTYPE
  5
BD17
330
4
100
AcDbSymbolTableRecord
100
AcDbLinetypeTableRecord
  2
HIDDEN
 70
     0
  3
Hidden __ __ __ __ __ __ __ __ __ __ __ __ __ __
 72
    65
 73
     2
 40
1.905
 49
1.27
 74
     0
 49
-0.635
 74
     0
  0
ENDTAB
  0
TABLE
  2
LAYER
  5
2
330
0
100
AcDbSymbolTable
 70
     2
  0
LAYER
  5
14
102
{ACAD_XDICTIONARY
360
5858
102
}
330
2
100
AcDbSymbolTableRecord
100
AcDbLayerTableRecord
  2
0
 70
     0
 62
     7
  6
Continuous
370
    -3
390
1D
  0
LAYER
  5
B7CE
330
2
100
AcDbSymbolTableRecord
100
AcDbLayerTableRecord
  2
Defpoints
 70
     0
 62
     7
  6
Continuous
290
     0
370
    -3
390
1D
  0
ENDTAB
  0
TABLE
  2
STYLE
  5
3
330
0
100
AcDbSymbolTable
 70
     1
  0
STYLE
  5
17
330
3
100
AcDbSymbolTableRecord
100
AcDbTextStyleTableRecord
  2
Standard
 70
     0
 40
0.0
 41
1.0
 50
0.0
 71
     0
 42
0.0
  3
I011000D.TTF
  4

1001
ACAD
1000
IsonormD
1071
        0
  0
ENDTAB
  0
TABLE
  2
VIEW
  5
5
330
0
100
AcDbSymbolTable
 70
     0
  0
ENDTAB
  0
TABLE
  2
UCS
  5
6
330
0
100
AcDbSymbolTable
 70
     0
  0
ENDTAB
  0
TABLE
  2
APPID
  5
8
330
0
100
AcDbSymbolTable
 70
     5
  0
APPID
  5
16
330
8
100
AcDbSymbolTableRecord
100
AcDbRegAppTableRecord
  2
ACAD
 70
     0
  0
APPID
  5
26
330
8
100
AcDbSymbolTableRecord
100
AcDbRegAppTableRecord
  2
TopSolid'Draft
 70
     0
  0
APPID
  5
5850
330
8
100
AcDbSymbolTableRecord
100
AcDbRegAppTableRecord
  2
ACAD_MLEADERVER
 70
     0
  0
APPID
  5
5856
330
8
100
AcDbSymbolTableRecord
100
AcDbRegAppTableRecord
  2
DCO15
 70
     0
  0
APPID
  5
B631
330
8
100
AcDbSymbolTableRecord
100
AcDbRegAppTableRecord
  2
ACAD_EXEMPT_FROM_CAD_STANDARDS
 70
     0
  0
ENDTAB
  0
TABLE
  2
DIMSTYLE
  5
9
330
0
100
AcDbSymbolTable
 70
     2
100
AcDbDimStyleTable
  0
DIMSTYLE
105
18
330
9
100
AcDbSymbolTableRecord
100
AcDbDimStyleTableRecord
  2
Standard
 70
     0
 41
1.25
 42
0.0
 44
0.75
 73
     0
 74
     0
 77
     1
140
2.5
146
0.8
147
1.25
176
     7
177
     7
271
     2
178
     7
271
     2
340
17
  0
DIMSTYLE
105
BD18
330
9
100
AcDbSymbolTableRecord
100
AcDbDimStyleTableRecord
  2
ISO-25
 70
     0
 41
2.5
 42
0.625
 43
3.75
 44
1.25
 73
     0
 74
     0
 77
     1
 78
     8
140
2.5
141
2.5
143
0.0393700787
147
0.625
171
     3
172
     1
178
     0
271
     2
272
     2
274
     3
278
    44
283
     0
284
     8
340
17
  0
ENDTAB
  0
TABLE
  2
BLOCK_RECORD
  5
1
330
0
100
AcDbSymbolTable
 70
     8
  0
BLOCK_RECORD
  5
A
102
{ACAD_XDICTIONARY
360
5864
102
}
330
1
100
AcDbSymbolTableRecord
100
AcDbBlockTableRecord
  2
*MODEL_SPACE
340
20
  0
BLOCK_RECORD
  5
B
330
1
100
AcDbSymbolTableRecord
100
AcDbBlockTableRecord
  2
*PAPER_SPACE
340
21
  0
BLOCK_RECORD
  5
BD8F
330
1
100
AcDbSymbolTableRecord
100
AcDbBlockTableRecord
  2
SW_CENTERMARKSYMBOL_0
340
0
102
{BLKREFS
331
C07A
102
}
  0
BLOCK_RECORD
  5
BD9B
330
1
100
AcDbSymbolTableRecord
100
AcDbBlockTableRecord
  2
SW_CENTERMARKSYMBOL_1
340
0
102
{BLKREFS
331
C07B
102
}
  0
BLOCK_RECORD
  5
BE2F
330
1
100
AcDbSymbolTableRecord
100
AcDbBlockTableRecord
  2
SW_CENTERMARKSYMBOL_2
340
0
102
{BLKREFS
331
C104
102
}
  0
BLOCK_RECORD
  5
BF1D
330
1
100
AcDbSymbolTableRecord
100
AcDbBlockTableRecord
  2
SW_CENTERMARKSYMBOL_3
340
0
102
{BLKREFS
331
C1E7
102
}
  0
BLOCK_RECORD
  5
BF29
330
1
100
AcDbSymbolTableRecord
100
AcDbBlockTableRecord
  2
SW_CENTERMARKSYMBOL_4
340
0
102
{BLKREFS
331
C1E8
102
}
  0
BLOCK_RECORD
  5
BF54
330
1
100
AcDbSymbolTableRecord
100
AcDbBlockTableRecord
  2
SW_CENTERMARKSYMBOL_5
340
0
102
{BLKREFS
331
C208
102
}
  0
BLOCK_RECORD
  5
BF60
330
1
100
AcDbSymbolTableRecord
100
AcDbBlockTableRecord
  2
SW_CENTERMARKSYMBOL_6
340
0
102
{BLKREFS
331
C209
102
}
  0
ENDTAB
  0
ENDSEC
  0
SECTION
  2
BLOCKS
  0
BLOCK
  5
D
330
A
100
AcDbEntity
  8
0
100
AcDbBlockBegin
  2
*MODEL_SPACE
 70
     0
 10
0.0
 20
0.0
 30
0.0
  3
*MODEL_SPACE
  1

  0
ENDBLK
  5
E
330
A
100
AcDbEntity
  8
0
100
AcDbBlockEnd
  0
BLOCK
  5
F
330
B
100
AcDbEntity
 67
     1
  8
0
100
AcDbBlockBegin
  2
*PAPER_SPACE
 70
     0
 10
0.0
 20
0.0
 30
0.0
  3
*PAPER_SPACE
  1

  0
ENDBLK
  5
10
330
B
100
AcDbEntity
 67
     1
  8
0
100
AcDbBlockEnd
  0
BLOCK
  5
BD90
330
BD8F
100
AcDbEntity
  8
0
100
AcDbBlockBegin
  2
SW_CENTERMARKSYMBOL_0
 70
     0
 10
0.0
 20
0.0
 30
0.0
  3
SW_CENTERMARKSYMBOL_0
  1

  0
LINE
  5
BD91
330
BD8F
100
AcDbEntity
  8
0
  6
Continuous
 62
     0
370
     0
100
AcDbLine
 10
0.0
 20
0.0
 30
0.0
 11
0.0
 21
2.5
 31
0.0
  0
LINE
  5
BD92
330
BD8F
100
AcDbEntity
  8
0
  6
Continuous
 62
     0
370
     0
100
AcDbLine
 10
0.0
 20
0.0
 30
0.0
 11
-2.5
 21
0.0
 31
0.0
  0
LINE
  5
BD93
330
BD8F
100
AcDbEntity
  8
0
  6
Continuous
 62
     0
370
     0
100
AcDbLine
 10
0.0
 20
0.0
 30
0.0
 11
0.0
 21
-2.5
 31
0.0
  0
LINE
  5
BD94
330
BD8F
100
AcDbEntity
  8
0
  6
Continuous
 62
     0
370
     0
100
AcDbLine
 10
0.0
 20
0.0
 30
0.0
 11
2.5
 21
0.0
 31
0.0
  0
LINE
  5
BD95
330
BD8F
100
AcDbEntity
  8
0
  6
Continuous
 62
     0
370
     0
100
AcDbLine
 10
0.0
 20
5.0
 30
0.0
 11
0.0
 21
12.5
 31
0.0
  0
LINE
  5
BD96
330
BD8F
100
AcDbEntity
  8
0
  6
Continuous
 62
     0
370
     0
100
AcDbLine
 10
-5.0
 20
0.0
 30
0.0
 11
-12.5
 21
0.0
 31
0.0
  0
LINE
  5
BD97
330
BD8F
100
AcDbEntity
  8
0
  6
Continuous
 62
     0
370
     0
100
AcDbLine
 10
0.0
 20
-5.0
 30
0.0
 11
0.0
 21
-12.5
 31
0.0
  0
LINE
  5
BD98
330
BD8F
100
AcDbEntity
  8
0
  6
Continuous
 62
     0
370
     0
100
AcDbLine
 10
5.0
 20
0.0
 30
0.0
 11
12.5
 21
0.0
 31
0.0
  0
ENDBLK
  5
BD99
330
BD8F
100
AcDbEntity
  8
0
100
AcDbBlockEnd
  0
BLOCK
  5
BD9C
330
BD9B
100
AcDbEntity
  8
0
100
AcDbBlockBegin
  2
SW_CENTERMARKSYMBOL_1
 70
     0
 10
0.0
 20
0.0
 30
0.0
  3
SW_CENTERMARKSYMBOL_1
  1

  0
LINE
  5
BD9D
330
BD9B
100
AcDbEntity
  8
0
  6
Continuous
 62
     0
370
     0
100
AcDbLine
 10
0.0
 20
0.0
 30
0.0
 11
0.0
 21
2.5
 31
0.0
  0
LINE
  5
BD9E
330
BD9B
100
AcDbEntity
  8
0
  6
Continuous
 62
     0
370
     0
100
AcDbLine
 10
0.0
 20
0.0
 30
0.0
 11
-2.5
 21
0.0
 31
0.0
  0
LINE
  5
BD9F
330
BD9B
100
AcDbEntity
  8
0
  6
Continuous
 62
     0
370
     0
100
AcDbLine
 10
0.0
 20
0.0
 30
0.0
 11
0.0
 21
-2.5
 31
0.0
  0
LINE
  5
BDA0
330
BD9B
100
AcDbEntity
  8
0
  6
Continuous
 62
     0
370
     0
100
AcDbLine
 10
0.0
 20
0.0
 30
0.0
 11
2.5
 21
0.0
 31
0.0
  0
LINE
  5
BDA1
330
BD9B
100
AcDbEntity
  8
0
  6
Continuous
 62
     0
370
     0
100
AcDbLine
 10
0.0
 20
5.0
 30
0.0
 11
0.0
 21
12.5
 31
0.0
  0
LINE
  5
BDA2
330
BD9B
100
AcDbEntity
  8
0
  6
Continuous
 62
     0
370
     0
100
AcDbLine
 10
-5.0
 20
0.0
 30
0.0
 11
-12.5
 21
0.0
 31
0.0
  0
LINE
  5
BDA3
330
BD9B
100
AcDbEntity
  8
0
  6
Continuous
 62
     0
370
     0
100
AcDbLine
 10
0.0
 20
-5.0
 30
0.0
 11
0.0
 21
-12.5
 31
0.0
  0
LINE
  5
BDA4
330
BD9B
100
AcDbEntity
  8
0
  6
Continuous
 62
     0
370
     0
100
AcDbLine
 10
5.0
 20
0.0
 30
0.0
 11
12.5
 21
0.0
 31
0.0
  0
ENDBLK
  5
BDA5
330
BD9B
100
AcDbEntity
  8
0
100
AcDbBlockEnd
  0
BLOCK
  5
BE30
330
BE2F
100
AcDbEntity
  8
0
100
AcDbBlockBegin
  2
SW_CENTERMARKSYMBOL_2
 70
     0
 10
0.0
 20
0.0
 30
0.0
  3
SW_CENTERMARKSYMBOL_2
  1

  0
LINE
  5
BE31
330
BE2F
100
AcDbEntity
  8
0
  6
Continuous
 62
     0
370
     0
100
AcDbLine
 10
0.0
 20
0.0
 30
0.0
 11
0.0
 21
2.5
 31
0.0
  0
LINE
  5
BE32
330
BE2F
100
AcDbEntity
  8
0
  6
Continuous
 62
     0
370
     0
100
AcDbLine
 10
0.0
 20
0.0
 30
0.0
 11
-2.5
 21
0.0
 31
0.0
  0
LINE
  5
BE33
330
BE2F
100
AcDbEntity
  8
0
  6
Continuous
 62
     0
370
     0
100
AcDbLine
 10
0.0
 20
0.0
 30
0.0
 11
0.0
 21
-2.5
 31
0.0
  0
LINE
  5
BE34
330
BE2F
100
AcDbEntity
  8
0
  6
Continuous
 62
     0
370
     0
100
AcDbLine
 10
0.0
 20
0.0
 30
0.0
 11
2.5
 21
0.0
 31
0.0
  0
LINE
  5
BE35
330
BE2F
100
AcDbEntity
  8
0
  6
Continuous
 62
     0
370
     0
100
AcDbLine
 10
0.0
 20
5.0
 30
0.0
 11
0.0
 21
8.7
 31
0.0
  0
LINE
  5
BE36
330
BE2F
100
AcDbEntity
  8
0
  6
Continuous
 62
     0
370
     0
100
AcDbLine
 10
-5.0
 20
0.0
 30
0.0
 11
-8.7
 21
0.0
 31
0.0
  0
LINE
  5
BE37
330
BE2F
100
AcDbEntity
  8
0
  6
Continuous
 62
     0
370
     0
100
AcDbLine
 10
0.0
 20
-5.0
 30
0.0
 11
0.0
 21
-8.7
 31
0.0
  0
LINE
  5
BE38
330
BE2F
100
AcDbEntity
  8
0
  6
Continuous
 62
     0
370
     0
100
AcDbLine
 10
5.0
 20
0.0
 30
0.0
 11
8.7
 21
0.0
 31
0.0
  0
ENDBLK
  5
BE39
330
BE2F
100
AcDbEntity
  8
0
100
AcDbBlockEnd
  0
BLOCK
  5
BF1E
330
BF1D
100
AcDbEntity
  8
0
100
AcDbBlockBegin
  2
SW_CENTERMARKSYMBOL_3
 70
     0
 10
0.0
 20
0.0
 30
0.0
  3
SW_CENTERMARKSYMBOL_3
  1

  0
LINE
  5
BF1F
330
BF1D
100
AcDbEntity
  8
0
  6
Continuous
 62
     0
370
     0
100
AcDbLine
 10
0.0
 20
0.0
 30
0.0
 11
0.0
 21
2.5
 31
0.0
  0
LINE
  5
BF20
330
BF1D
100
AcDbEntity
  8
0
  6
Continuous
 62
     0
370
     0
100
AcDbLine
 10
0.0
 20
0.0
 30
0.0
 11
-2.5
 21
0.0
 31
0.0
  0
LINE
  5
BF21
330
BF1D
100
AcDbEntity
  8
0
  6
Continuous
 62
     0
370
     0
100
AcDbLine
 10
0.0
 20
0.0
 30
0.0
 11
0.0
 21
-2.5
 31
0.0
  0
LINE
  5
BF22
330
BF1D
100
AcDbEntity
  8
0
  6
Continuous
 62
     0
370
     0
100
AcDbLine
 10
0.0
 20
0.0
 30
0.0
 11
2.5
 21
0.0
 31
0.0
  0
LINE
  5
BF23
330
BF1D
100
AcDbEntity
  8
0
  6
Continuous
 62
     0
370
     0
100
AcDbLine
 10
0.0
 20
5.0
 30
0.0
 11
0.0
 21
5.7
 31
0.0
  0
LINE
  5
BF24
330
BF1D
100
AcDbEntity
  8
0
  6
Continuous
 62
     0
370
     0
100
AcDbLine
 10
-5.0
 20
0.0
 30
0.0
 11
-5.7
 21
0.0
 31
0.0
  0
LINE
  5
BF25
330
BF1D
100
AcDbEntity
  8
0
  6
Continuous
 62
     0
370
     0
100
AcDbLine
 10
0.0
 20
-5.0
 30
0.0
 11
0.0
 21
-5.7
 31
0.0
  0
LINE
  5
BF26
330
BF1D
100
AcDbEntity
  8
0
  6
Continuous
 62
     0
370
     0
100
AcDbLine
 10
5.0
 20
0.0
 30
0.0
 11
5.7
 21
0.0
 31
0.0
  0
ENDBLK
  5
BF27
330
BF1D
100
AcDbEntity
  8
0
100
AcDbBlockEnd
  0
BLOCK
  5
BF2A
330
BF29
100
AcDbEntity
  8
0
100
AcDbBlockBegin
  2
SW_CENTERMARKSYMBOL_4
 70
     0
 10
0.0
 20
0.0
 30
0.0
  3
SW_CENTERMARKSYMBOL_4
  1

  0
LINE
  5
BF2B
330
BF29
100
AcDbEntity
  8
0
  6
Continuous
 62
     0
370
     0
100
AcDbLine
 10
0.0
 20
0.0
 30
0.0
 11
0.0
 21
2.5
 31
0.0
  0
LINE
  5
BF2C
330
BF29
100
AcDbEntity
  8
0
  6
Continuous
 62
     0
370
     0
100
AcDbLine
 10
0.0
 20
0.0
 30
0.0
 11
-2.5
 21
0.0
 31
0.0
  0
LINE
  5
BF2D
330
BF29
100
AcDbEntity
  8
0
  6
Continuous
 62
     0
370
     0
100
AcDbLine
 10
0.0
 20
0.0
 30
0.0
 11
0.0
 21
-2.5
 31
0.0
  0
LINE
  5
BF2E
330
BF29
100
AcDbEntity
  8
0
  6
Continuous
 62
     0
370
     0
100
AcDbLine
 10
0.0
 20
0.0
 30
0.0
 11
2.5
 21
0.0
 31
0.0
  0
LINE
  5
BF2F
330
BF29
100
AcDbEntity
  8
0
  6
Continuous
 62
     0
370
     0
100
AcDbLine
 10
0.0
 20
5.0
 30
0.0
 11
0.0
 21
5.7
 31
0.0
  0
LINE
  5
BF30
330
BF29
100
AcDbEntity
  8
0
  6
Continuous
 62
     0
370
     0
100
AcDbLine
 10
-5.0
 20
0.0
 30
0.0
 11
-5.7
 21
0.0
 31
0.0
  0
LINE
  5
BF31
330
BF29
100
AcDbEntity
  8
0
  6
Continuous
 62
     0
370
     0
100
AcDbLine
 10
0.0
 20
-5.0
 30
0.0
 11
0.0
 21
-5.7
 31
0.0
  0
LINE
  5
BF32
330
BF29
100
AcDbEntity
  8
0
  6
Continuous
 62
     0
370
     0
100
AcDbLine
 10
5.0
 20
0.0
 30
0.0
 11
5.7
 21
0.0
 31
0.0
  0
ENDBLK
  5
BF33
330
BF29
100
AcDbEntity
  8
0
100
AcDbBlockEnd
  0
BLOCK
  5
BF55
330
BF54
100
AcDbEntity
  8
0
100
AcDbBlockBegin
  2
SW_CENTERMARKSYMBOL_5
 70
     0
 10
0.0
 20
0.0
 30
0.0
  3
SW_CENTERMARKSYMBOL_5
  1

  0
LINE
  5
BF56
330
BF54
100
AcDbEntity
  8
0
  6
Continuous
 62
     0
370
     0
100
AcDbLine
 10
0.0
 20
0.0
 30
0.0
 11
0.0
 21
2.5
 31
0.0
  0
LINE
  5
BF57
330
BF54
100
AcDbEntity
  8
0
  6
Continuous
 62
     0
370
     0
100
AcDbLine
 10
0.0
 20
0.0
 30
0.0
 11
-2.5
 21
0.0
 31
0.0
  0
LINE
  5
BF58
330
BF54
100
AcDbEntity
  8
0
  6
Continuous
 62
     0
370
     0
100
AcDbLine
 10
0.0
 20
0.0
 30
0.0
 11
0.0
 21
-2.5
 31
0.0
  0
LINE
  5
BF59
330
BF54
100
AcDbEntity
  8
0
  6
Continuous
 62
     0
370
     0
100
AcDbLine
 10
0.0
 20
0.0
 30
0.0
 11
2.5
 21
0.0
 31
0.0
  0
LINE
  5
BF5A
330
BF54
100
AcDbEntity
  8
0
  6
Continuous
 62
     0
370
     0
100
AcDbLine
 10
0.0
 20
5.0
 30
0.0
 11
0.0
 21
5.7
 31
0.0
  0
LINE
  5
BF5B
330
BF54
100
AcDbEntity
  8
0
  6
Continuous
 62
     0
370
     0
100
AcDbLine
 10
-5.0
 20
0.0
 30
0.0
 11
-5.7
 21
0.0
 31
0.0
  0
LINE
  5
BF5C
330
BF54
100
AcDbEntity
  8
0
  6
Continuous
 62
     0
370
     0
100
AcDbLine
 10
0.0
 20
-5.0
 30
0.0
 11
0.0
 21
-5.7
 31
0.0
  0
LINE
  5
BF5D
330
BF54
100
AcDbEntity
  8
0
  6
Continuous
 62
     0
370
     0
100
AcDbLine
 10
5.0
 20
0.0
 30
0.0
 11
5.7
 21
0.0
 31
0.0
  0
ENDBLK
  5
BF5E
330
BF54
100
AcDbEntity
  8
0
100
AcDbBlockEnd
  0
BLOCK
  5
BF61
330
BF60
100
AcDbEntity
  8
0
100
AcDbBlockBegin
  2
SW_CENTERMARKSYMBOL_6
 70
     0
 10
0.0
 20
0.0
 30
0.0
  3
SW_CENTERMARKSYMBOL_6
  1

  0
LINE
  5
BF62
330
BF60
100
AcDbEntity
  8
0
  6
Continuous
 62
     0
370
     0
100
AcDbLine
 10
0.0
 20
0.0
 30
0.0
 11
0.0
 21
2.5
 31
0.0
  0
LINE
  5
BF63
330
BF60
100
AcDbEntity
  8
0
  6
Continuous
 62
     0
370
     0
100
AcDbLine
 10
0.0
 20
0.0
 30
0.0
 11
-2.5
 21
0.0
 31
0.0
  0
LINE
  5
BF64
330
BF60
100
AcDbEntity
  8
0
  6
Continuous
 62
     0
370
     0
100
AcDbLine
 10
0.0
 20
0.0
 30
0.0
 11
0.0
 21
-2.5
 31
0.0
  0
LINE
  5
BF65
330
BF60
100
AcDbEntity
  8
0
  6
Continuous
 62
     0
370
     0
100
AcDbLine
 10
0.0
 20
0.0
 30
0.0
 11
2.5
 21
0.0
 31
0.0
  0
LINE
  5
BF66
330
BF60
100
AcDbEntity
  8
0
  6
Continuous
 62
     0
370
     0
100
AcDbLine
 10
0.0
 20
5.0
 30
0.0
 11
0.0
 21
5.7
 31
0.0
  0
LINE
  5
BF67
330
BF60
100
AcDbEntity
  8
0
  6
Continuous
 62
     0
370
     0
100
AcDbLine
 10
-5.0
 20
0.0
 30
0.0
 11
-5.7
 21
0.0
 31
0.0
  0
LINE
  5
BF68
330
BF60
100
AcDbEntity
  8
0
  6
Continuous
 62
     0
370
     0
100
AcDbLine
 10
0.0
 20
-5.0
 30
0.0
 11
0.0
 21
-5.7
 31
0.0
  0
LINE
  5
BF69
330
BF60
100
AcDbEntity
  8
0
  6
Continuous
 62
     0
370
     0
100
AcDbLine
 10
5.0
 20
0.0
 30
0.0
 11
5.7
 21
0.0
 31
0.0
  0
ENDBLK
  5
BF6A
330
BF60
100
AcDbEntity
  8
0
100
AcDbBlockEnd
  0
ENDSEC
  0
SECTION
  2
ENTITIES
  0
LINE
  5
C01C
330
A
100
AcDbEntity
  8
0
  6
Continuous
 62
     7
370
    15
100
AcDbLine
 10
-349.4250723801963
 20
-20.4347259151742
 30
0.0
 11
-350.8536438087963
 21
-19.6847259151742
 31
0.0
  0
LINE
  5
C01D
330
A
100
AcDbEntity
  8
0
  6
Continuous
 62
     7
370
    15
100
AcDbLine
 10
-367.9488819039963
 20
-19.73472591517421
 30
0.0
 11
-369.2822152372963
 21
-20.4347259151742
 31
0.0
  0
LINE
  5
C01E
330
A
100
AcDbEntity
  8
0
  6
Continuous
 62
     7
370
    15
100
AcDbLine
 10
-369.2822152372963
 20
-50.43472591517421
 30
0.0
 11
-367.9488819039963
 21
-51.13472591517423
 31
0.0
  0
LINE
  5
C01F
330
A
100
AcDbEntity
  8
0
  6
Continuous
 62
     7
370
    15
100
AcDbLine
 10
-350.8536438087963
 20
-51.18472591517421
 30
0.0
 11
-349.4250723801963
 21
-50.43472591517421
 31
0.0
  0
LINE
  5
C020
330
A
100
AcDbEntity
  8
0
  6
Continuous
 62
     7
370
    15
100
AcDbLine
 10
-372.5710681137963
 20
-23.4347259151742
 30
0.0
 11
-373.3536438087963
 21
-23.4347259151742
 31
0.0
  0
LINE
  5
C021
330
A
100
AcDbEntity
  8
0
  6
Continuous
 62
     7
370
    15
100
AcDbLine
 10
-373.3536438087963
 20
-27.4347259151742
 30
0.0
 11
-372.5710681137963
 21
-27.4347259151742
 31
0.0
  0
ARC
  5
C022
330
A
100
AcDbEntity
  8
0
  6
Continuous
 62
     7
370
    15
100
AcDbCircle
 10
-377.1536438087963
 20
-25.4347259151742
 30
0.0
 40
4.999999999999996
100
AcDbArc
 50
336.4218215217999
 51
23.5781784782001
  0
LINE
  5
C023
330
A
100
AcDbEntity
  8
0
  6
Continuous
 62
     7
370
    15
100
AcDbLine
 10
-372.5710681137963
 20
-43.4347259151742
 30
0.0
 11
-373.3536438087963
 21
-43.4347259151742
 31
0.0
  0
LINE
  5
C024
330
A
100
AcDbEntity
  8
0
  6
Continuous
 62
     7
370
    15
100
AcDbLine
 10
-373.3536438087963
 20
-47.4347259151742
 30
0.0
 11
-372.5710681137963
 21
-47.4347259151742
 31
0.0
  0
ARC
  5
C025
330
A
100
AcDbEntity
  8
0
  6
Continuous
 62
     7
370
    15
100
AcDbCircle
 10
-377.1536438087963
 20
-45.4347259151742
 30
0.0
 40
4.999999999999996
100
AcDbArc
 50
336.4218215217999
 51
23.5781784782001
  0
ARC
  5
C026
330
A
100
AcDbEntity
  8
0
  6
Continuous
 62
     7
370
    15
100
AcDbCircle
 10
-352.3536438087963
 20
-13.4347259151742
 30
0.0
 40
3.0
100
AcDbArc
 50
0.0
 51
90.0
  0
ARC
  5
C027
330
A
100
AcDbEntity
  8
0
  6
Continuous
 62
     7
370
    15
100
AcDbCircle
 10
-352.3536438087963
 20
-57.43472591517421
 30
0.0
 40
3.0
100
AcDbArc
 50
270.0
 51
0.0
  0
LINE
  5
C028
330
A
100
AcDbEntity
  8
0
  6
Continuous
 62
     7
370
    15
100
AcDbLine
 10
-350.8536438087963
 20
-19.6847259151742
 30
0.0
 11
-351.3036438087963
 21
-19.6847259151742
 31
0.0
  0
LINE
  5
C029
330
A
100
AcDbEntity
  8
0
  6
Continuous
 62
     7
370
    15
100
AcDbLine
 10
-351.3036438087963
 20
-51.18472591517421
 30
0.0
 11
-350.8536438087963
 21
-51.18472591517421
 31
0.0
  0
LINE
  5
C02A
330
A
100
AcDbEntity
  8
0
  6
Continuous
 62
     7
370
    15
100
AcDbLine
 10
-372.5710681137963
 20
-25.4347259151742
 30
0.0
 11
-372.5710681137963
 21
-27.4347259151742
 31
0.0
  0
LINE
  5
C02B
330
A
100
AcDbEntity
  8
0
  6
Continuous
 62
     7
370
    15
100
AcDbLine
 10
-372.5710681137963
 20
-23.4347259151742
 30
0.0
 11
-372.5710681137963
 21
-25.4347259151742
 31
0.0
  0
LINE
  5
C02C
330
A
100
AcDbEntity
  8
0
  6
Continuous
 62
     7
370
    15
100
AcDbLine
 10
-372.5710681137963
 20
-45.4347259151742
 30
0.0
 11
-372.5710681137963
 21
-47.4347259151742
 31
0.0
  0
LINE
  5
C02D
330
A
100
AcDbEntity
  8
0
  6
Continuous
 62
     7
370
    15
100
AcDbLine
 10
-372.5710681137963
 20
-43.4347259151742
 30
0.0
 11
-372.5710681137963
 21
-45.4347259151742
 31
0.0
  0
LINE
  5
C02E
330
A
100
AcDbEntity
  8
0
  6
Continuous
 62
     7
370
    15
100
AcDbLine
 10
-346.3536438087963
 20
-56.93472591517421
 30
0.0
 11
-349.3536438087963
 21
-56.93472591517421
 31
0.0
  0
LINE
  5
C02F
330
A
100
AcDbEntity
  8
0
  6
Continuous
 62
     7
370
    15
100
AcDbLine
 10
-349.3536438087963
 20
-13.9347259151742
 30
0.0
 11
-346.3536438087963
 21
-13.9347259151742
 31
0.0
  0
LINE
  5
C030
330
A
100
AcDbEntity
  8
0
  6
Continuous
 62
     7
370
    15
100
AcDbLine
 10
-346.4213988063963
 20
-10.4347259151742
 30
0.0
 11
-352.3536438087963
 21
-10.4347259151742
 31
0.0
  0
ARC
  5
C031
330
A
100
AcDbEntity
  8
0
  6
Continuous
 62
     7
370
    15
100
AcDbCircle
 10
-285.3590702892963
 20
-30.4347259151742
 30
0.0
 40
20.00000000000001
100
AcDbArc
 50
0.0
 51
47.16429241060001
  0
ARC
  5
C032
330
A
100
AcDbEntity
  8
0
  6
Continuous
 62
     7
370
    15
100
AcDbCircle
 10
-285.3590702892963
 20
-30.4347259151742
 30
0.0
 40
20.00000000000003
100
AcDbArc
 50
75.47854412760012
 51
90.0
  0
LWPOLYLINE
  5
C033
330
A
100
AcDbEntity
  8
0
  6
Continuous
 62
     7
370
    15
100
AcDbPolyline
 90
        3
 70
   128
 43
0.0
 10
-285.3590702892963
 20
-60.43472591517421
 10
-283.7074833798963
 20
-60.36641577527423
 10
-282.2704666036963
 20
-60.19479998567421
  0
LWPOLYLINE
  5
C034
330
A
100
AcDbEntity
  8
0
  6
Continuous
 62
     7
370
    15
100
AcDbPolyline
 90
        3
 70
   128
 43
0.0
 10
-265.4324600131963
 20
-42.14650945957422
 10
-265.4273804291963
 20
-42.08631282457421
 10
-265.3590702892963
 20
-40.4347259151742
  0
LINE
  5
C035
330
A
100
AcDbEntity
  8
0
  6
Continuous
 62
     7
370
    15
100
AcDbLine
 10
-352.3536438087963
 20
-60.43472591517421
 30
0.0
 11
-346.4213988063963
 21
-60.43472591517421
 31
0.0
  0
LINE
  5
C036
330
A
100
AcDbEntity
  8
0
  6
Continuous
 62
     7
370
    15
100
AcDbLine
 10
-346.3536438087963
 20
-12.6847259151742
 30
0.0
 11
-347.6090702892963
 21
-12.6847259151742
 31
0.0
  0
ARC
  5
C037
330
A
100
AcDbEntity
  8
0
  6
Continuous
 62
     7
370
    15
100
AcDbCircle
 10
-349.1090702892963
 20
-14.6847259151742
 30
0.0
 40
2.5
100
AcDbArc
 50
53.13010235420119
 51
90.0
  0
LINE
  5
C038
330
A
100
AcDbEntity
  8
0
  6
Continuous
 62
     7
370
    15
100
AcDbLine
 10
-349.1090702892963
 20
-12.1847259151742
 30
0.0
 11
-349.6264657800963
 21
-12.1847259151742
 31
0.0
  0
LINE
  5
C039
330
A
100
AcDbEntity
  8
0
  6
Continuous
 62
     7
370
    15
100
AcDbLine
 10
-349.6264657800963
 20
-58.68472591517421
 30
0.0
 11
-349.1090702892963
 21
-58.68472591517421
 31
0.0
  0
ARC
  5
C03A
330
A
100
AcDbEntity
  8
0
  6
Continuous
 62
     7
370
    15
100
AcDbCircle
 10
-349.1090702892963
 20
-56.18472591517421
 30
0.0
 40
2.5
100
AcDbArc
 50
270.0
 51
306.869897645799
  0
LINE
  5
C03B
330
A
100
AcDbEntity
  8
0
  6
Continuous
 62
     7
370
    15
100
AcDbLine
 10
-347.6090702892963
 20
-58.18472591517421
 30
0.0
 11
-346.3536438087963
 21
-58.18472591517421
 31
0.0
  0
LINE
  5
C03C
330
A
100
AcDbEntity
  8
0
  6
Continuous
 62
     7
370
    15
100
AcDbLine
 10
-346.3536438087963
 20
-57.93472591517421
 30
0.0
 11
-349.3956039171963
 21
-57.93472591517421
 31
0.0
  0
LINE
  5
C03D
330
A
100
AcDbEntity
  8
0
  6
Continuous
 62
     7
370
    15
100
AcDbLine
 10
-346.3536438087963
 20
-12.9347259151742
 30
0.0
 11
-349.3956039171963
 21
-12.9347259151742
 31
0.0
  0
LINE
  5
C03E
330
A
100
AcDbEntity
  8
0
  6
Continuous
 62
     7
370
    15
100
AcDbLine
 10
-284.5626505264963
 20
-18.85586098387421
 30
0.0
 11
-346.3536438087963
 21
-14.4347259151742
 31
0.0
  0
SPLINE
  5
C03F
330
A
100
AcDbEntity
  8
0
  6
Continuous
 62
     7
370
    15
100
AcDbSpline
210
0.0
220
0.0
230
1.0
 70
    24
 71
     3
 72
    14
 73
    10
 74
     0
 42
0.00000001
 43
0.00000001
 40
0.0
 40
0.0
 40
0.0
 40
0.0
 40
0.1014867039801094
 40
0.2030067634382709
 40
0.3048775486934141
 40
0.4067512595160448
 40
0.5550237698684533
 40
0.7032987448154375
 40
0.9999999999999999
 40
0.9999999999999999
 40
0.9999999999999999
 40
0.9999999999999999
 10
-285.353643808769
 20
-10.43472591512972
 30
0.0
 10
-287.3905641987495
 20
-10.43472591512972
 30
0.0
 10
-291.4650744501852
 20
-10.43472591512972
 30
0.0
 10
-297.6439380070605
 20
-10.4347259151296
 30
0.0
 10
-303.8398813545045
 20
-10.4347259151296
 30
0.0
 10
-311.0003974699999
 20
-10.43472591512972
 30
0.0
 10
-319.1154651494586
 20
-10.4347259151296
 30
0.0
 10
-331.2119114985679
 20
-10.4347259151296
 30
0.0
 10
-340.2963330894198
 20
-10.4347259151296
 30
0.0
 10
-346.3536438087692
 20
-10.4347259151296
 30
0.0
  0
SPLINE
  5
C040
330
A
100
AcDbEntity
  8
0
  6
Continuous
 62
     7
370
    15
100
AcDbSpline
210
0.0
220
0.0
230
1.0
 70
     8
 71
     3
 72
    11
 73
     7
 74
     0
 42
0.00000001
 43
0.00000001
 40
0.0
 40
0.0
 40
0.0
 40
0.0
 40
0.2462031613405495
 40
0.4937554467535168
 40
0.7459916230375833
 40
1.0
 40
1.0
 40
1.0
 40
1.0
 10
-285.3536438087689
 20
-10.43472591512972
 30
0.0
 10
-285.1922855448156
 20
-10.4358341336812
 30
0.0
 10
-284.8686848190091
 20
-10.43805664351001
 30
0.0
 10
-284.373108280963
 20
-10.45697658116822
 30
0.0
 10
-283.8702853536838
 20
-10.48705415120682
 30
0.0
 10
-283.5342438895792
 20
-10.51816552338911
 30
0.0
 10
-283.3656349705461
 20
-10.5337756649746
 30
0.0
  0
LINE
  5
C041
330
A
100
AcDbEntity
  8
0
  6
Continuous
 62
     7
370
    15
100
AcDbLine
 10
-284.5626505264963
 20
-18.85586098387421
 30
0.0
 11
-283.3656349704963
 21
-10.5337756649742
 31
0.0
  0
SPLINE
  5
C042
330
A
100
AcDbEntity
  8
0
  6
Continuous
 62
     7
370
    15
100
AcDbSpline
210
0.0
220
0.0
230
1.0
 70
    24
 71
     3
 72
    10
 73
     6
 74
     0
 42
0.00000001
 43
0.00000001
 40
0.0
 40
0.0
 40
0.0
 40
0.0
 40
0.4916099581662218
 40
0.7447419147307933
 40
1.0
 40
1.0
 40
1.0
 40
1.0
 10
-346.3536438087691
 20
-10.4347259151304
 30
0.0
 10
-346.3536438087691
 20
-11.04660634830461
 30
0.0
 10
-346.353643808769
 20
-11.9735464922517
 30
0.0
 10
-346.3536438087689
 20
-13.34586739455079
 30
0.0
 10
-346.3536438087689
 20
-14.07076255134001
 30
0.0
 10
-346.353643808769
 20
-14.4347259151296
 30
0.0
  0
ARC
  5
C043
330
A
100
AcDbEntity
  8
0
  6
Continuous
 62
     7
370
    15
100
AcDbCircle
 10
-284.3536438087963
 20
-29.9347259151742
 30
0.0
 40
11.08083624883919
100
AcDbArc
 50
5.173306065999968
 51
91.08077700470014
  0
SPLINE
  5
C044
330
A
100
AcDbEntity
  8
0
  6
Continuous
 62
     7
370
    15
100
AcDbSpline
210
0.0
220
0.0
230
1.0
 70
     8
 71
     3
 72
    24
 73
    20
 74
     0
 42
0.00000001
 43
0.00000001
 40
0.0
 40
0.0
 40
0.0
 40
0.0
 40
0.1071317730864689
 40
0.161379583890849
 40
0.2162896559736359
 40
0.2743830529854805
 40
0.3330232161146579
 40
0.4073220752327722
 40
0.452301849994676
 40
0.5101691362608269
 40
0.5685803387707526
 40
0.6277052250715766
 40
0.6873957687370675
 40
0.7270522245830593
 40
0.7997017523058094
 40
0.8622815987664587
 40
0.9217923654619262
 40
0.9608343476995357
 40
0.9999999999999999
 40
0.9999999999999999
 40
0.9999999999999999
 40
0.9999999999999999
 10
-283.3656349705461
 20
-10.5337756649746
 30
0.0
 10
-282.364237390447
 20
-10.67624722662632
 30
0.0
 10
-280.855766839369
 20
-10.8908614411886
 30
0.0
 10
-278.8950104096451
 20
-11.48702973000582
 30
0.0
 10
-277.4151916534671
 20
-12.05368543272982
 30
0.0
 10
-275.9465413449482
 20
-12.759267013
 30
0.0
 10
-274.3811598662142
 20
-13.67734914853801
 30
0.0
 10
-273.00793748091
 20
-14.66868417666922
 30
0.0
 10
-271.7306029261278
 20
-15.7672685444592
 30
0.0
 10
-270.642993742531
 20
-16.85105538219921
 30
0.0
 10
-269.5614149513965
 20
-18.1243613007164
 30
0.0
 10
-268.5799368602558
 20
-19.49836756782841
 30
0.0
 10
-267.8093873734212
 20
-20.79734407252931
 30
0.0
 10
-267.0756904913354
 20
-22.26160253528931
 30
0.0
 10
-266.4505210947347
 20
-23.8078906781368
 30
0.0
 10
-265.9235294888569
 20
-25.58705973245281
 30
0.0
 10
-265.6193232496613
 20
-27.09116558978332
 30
0.0
 10
-265.445256614895
 20
-28.39012966393091
 30
0.0
 10
-265.3986551575404
 20
-29.1322361758364
 30
0.0
 10
-265.3753175833223
 20
-29.50387617987022
 30
0.0
  0
LINE
  5
C045
330
A
100
AcDbEntity
  8
0
  6
Continuous
 62
     7
370
    15
100
AcDbLine
 10
-273.3179451692963
 20
-28.9355825258742
 30
0.0
 11
-265.3753175832963
 21
-29.5038761798742
 31
0.0
  0
LINE
  5
C046
330
A
100
AcDbEntity
  8
0
  6
Continuous
 62
     7
370
    15
100
AcDbLine
 10
-273.3179451692963
 20
-39.9355825258742
 30
0.0
 11
-273.3179451692963
 21
-28.9355825258742
 31
0.0
  0
ARC
  5
C047
330
A
100
AcDbEntity
  8
0
  6
Continuous
 62
     7
370
    15
100
AcDbCircle
 10
-284.3536438087963
 20
-40.9347259151742
 30
0.0
 40
11.0808362488392
100
AcDbArc
 50
279.2658351271998
 51
5.173306065999942
  0
LINE
  5
C048
330
A
100
AcDbEntity
  8
0
  6
Continuous
 62
     7
370
    15
100
AcDbLine
 10
-282.5694591850963
 20
-51.87097834467421
 30
0.0
 11
-346.3536438087963
 21
-56.43472591517421
 31
0.0
  0
LINE
  5
C049
330
A
100
AcDbEntity
  8
0
  6
Continuous
 62
     7
370
    15
100
AcDbLine
 10
-346.3536438087963
 20
-56.43472591517421
 30
0.0
 11
-346.3536438087963
 21
-50.43472591517421
 31
0.0
  0
LINE
  5
C04A
330
A
100
AcDbEntity
  8
0
  6
Continuous
 62
     7
370
    15
100
AcDbLine
 10
-346.3536438087963
 20
-50.43472591517421
 30
0.0
 11
-364.2526232942963
 21
-50.43472591517421
 31
0.0
  0
LINE
  5
C04B
330
A
100
AcDbEntity
  8
0
  6
Continuous
 62
     7
370
    15
100
AcDbLine
 10
-364.2526232942963
 20
-50.43472591517421
 30
0.0
 11
-364.2526232942963
 21
-20.4347259151742
 31
0.0
  0
LINE
  5
C04C
330
A
100
AcDbEntity
  8
0
  6
Continuous
 62
     7
370
    15
100
AcDbLine
 10
-364.2526232942963
 20
-20.4347259151742
 30
0.0
 11
-346.3536438087963
 21
-20.4347259151742
 31
0.0
  0
LINE
  5
C04D
330
A
100
AcDbEntity
  8
0
  6
Continuous
 62
     7
370
    15
100
AcDbLine
 10
-346.3536438087963
 20
-20.4347259151742
 30
0.0
 11
-346.3536438087963
 21
-14.4347259151742
 31
0.0
  0
LINE
  5
C04E
330
A
100
AcDbEntity
  8
0
  6
Continuous
 62
     7
370
    15
100
AcDbLine
 10
-364.2526232942963
 20
-50.43472591517421
 30
0.0
 11
-371.8536438087963
 21
-50.43472591517421
 31
0.0
  0
LINE
  5
C04F
330
A
100
AcDbEntity
  8
0
  6
Continuous
 62
     7
370
    15
100
AcDbLine
 10
-371.8536438087963
 20
-50.43472591517421
 30
0.0
 11
-371.8536438087963
 21
-20.4347259151742
 31
0.0
  0
LINE
  5
C050
330
A
100
AcDbEntity
  8
0
  6
Continuous
 62
     7
370
    15
100
AcDbLine
 10
-371.8536438087963
 20
-20.4347259151742
 30
0.0
 11
-364.2526232942963
 21
-20.4347259151742
 31
0.0
  0
LINE
  5
C051
330
A
100
AcDbEntity
  8
0
  6
Continuous
 62
     7
370
    15
100
AcDbLine
 10
-265.3753175832963
 20
-29.5038761798742
 30
0.0
 11
-265.3536438087963
 21
-30.4347259151742
 31
0.0
  0
LINE
  5
C052
330
A
100
AcDbEntity
  8
0
  6
Continuous
 62
     7
370
    15
100
AcDbLine
 10
-265.3536438087963
 20
-40.4347259151742
 30
0.0
 11
-265.3536438087963
 21
-30.4347259151742
 31
0.0
  0
LINE
  5
C053
330
A
100
AcDbEntity
  8
0
  6
Continuous
 62
     7
370
    15
100
AcDbLine
 10
-265.3536438087963
 20
-40.4347259151742
 30
0.0
 11
-265.3537687433963
 21
-40.50541799567421
 31
0.0
  0
LINE
  5
C054
330
A
100
AcDbEntity
  8
0
  6
Continuous
 62
     7
370
    15
100
AcDbLine
 10
-273.3179451692963
 20
-39.9355825258742
 30
0.0
 11
-265.3537687433963
 21
-40.50541799567421
 31
0.0
  0
SPLINE
  5
C055
330
A
100
AcDbEntity
  8
0
  6
Continuous
 62
     7
370
    15
100
AcDbSpline
210
0.0
220
0.0
230
1.0
 70
     8
 71
     3
 72
    24
 73
    20
 74
     0
 42
0.00000001
 43
0.00000001
 40
0.0
 40
0.0
 40
0.0
 40
0.0
 40
0.0462496787592487
 40
0.0927059614212612
 40
0.1733854304755114
 40
0.2141476121326847
 40
0.2509404212473778
 40
0.3217874251428763
 40
0.3869414464492872
 40
0.4482767710146437
 40
0.4850279167434851
 40
0.555793032282502
 40
0.6208685325661627
 40
0.6821269216876087
 40
0.7189293124736559
 40
0.7897914700996842
 40
0.8549531520301094
 40
0.9162899263286455
 40
1.0
 40
1.0
 40
1.0
 40
1.0
 10
-265.3537687434156
 20
-40.5054179957036
 30
0.0
 10
-265.3637494590022
 20
-40.945741919987
 30
0.0
 10
-265.3837554754534
 20
-41.8283567582429
 30
0.0
 10
-265.559029099933
 20
-43.4721321922809
 30
0.0
 10
-265.865500346878
 20
-45.04637838247112
 30
0.0
 10
-266.2836866477332
 20
-46.49650302248662
 30
0.0
 10
-266.7502440905218
 20
-47.8328394194036
 30
0.0
 10
-267.4127831607228
 20
-49.34486522227202
 30
0.0
 10
-268.3331024802246
 20
-50.98910507379001
 30
0.0
 10
-269.2141290093011
 20
-52.27474358535933
 30
0.0
 10
-270.2150771396832
 20
-53.53581760764582
 30
0.0
 10
-271.3356104110292
 20
-54.74398520829932
 30
0.0
 10
-272.741431578316
 20
-55.99169724957251
 30
0.0
 10
-273.992512021181
 20
-56.91478741853403
 30
0.0
 10
-275.3492510822197
 20
-57.77606353678912
 30
0.0
 10
-276.8018130668067
 20
-58.54956893904121
 30
0.0
 10
-278.5354406007081
 20
-59.26309232824151
 30
0.0
 10
-280.4380752890641
 20
-59.86715048716552
 30
0.0
 10
-281.7895120618107
 20
-60.10355240717242
 30
0.0
 10
-282.5694591850483
 20
-60.23998572107611
 30
0.0
  0
LINE
  5
C056
330
A
100
AcDbEntity
  8
0
  6
Continuous
 62
     7
370
    15
100
AcDbLine
 10
-282.5694591850963
 20
-51.87097834467421
 30
0.0
 11
-282.5694591850963
 21
-60.23998572107423
 31
0.0
  0
SPLINE
  5
C057
330
A
100
AcDbEntity
  8
0
  6
Continuous
 62
     7
370
    15
100
AcDbSpline
210
0.0
220
0.0
230
1.0
 70
     8
 71
     3
 72
    12
 73
     8
 74
     0
 42
0.00000001
 43
0.00000001
 40
0.0
 40
0.0
 40
0.0
 40
0.0
 40
0.1886563413018559
 40
0.3785251254648222
 40
0.5726237701107951
 40
0.7683145328474845
 40
1.0
 40
1.0
 40
1.0
 40
1.0
 10
-285.353643808769
 20
-60.43472591512973
 30
0.0
 10
-285.1798945331181
 20
-60.43342411197612
 30
0.0
 10
-284.8312793426012
 20
-60.43081213933503
 30
0.0
 10
-284.2962049049286
 20
-60.40907041502463
 30
0.0
 10
-283.7533293253864
 20
-60.37298075577523
 30
0.0
 10
-283.1729881235791
 20
-60.31923420814492
 30
0.0
 10
-282.7816227574289
 20
-60.26784460413681
 30
0.0
 10
-282.5694591850483
 20
-60.23998572107611
 30
0.0
  0
SPLINE
  5
C058
330
A
100
AcDbEntity
  8
0
  6
Continuous
 62
     7
370
    15
100
AcDbSpline
210
0.0
220
0.0
230
1.0
 70
    24
 71
     3
 72
    15
 73
    11
 74
     0
 42
0.00000001
 43
0.00000001
 40
0.0
 40
0.0
 40
0.0
 40
0.0
 40
0.1014056553614519
 40
0.203003054631361
 40
0.3048600016036846
 40
0.4067476974897302
 40
0.5550071227644451
 40
0.7032955284228323
 40
0.8516419913042533
 40
1.0
 40
1.0
 40
1.0
 40
1.0
 10
-285.353643808769
 20
-60.43472591512973
 30
0.0
 10
-287.3895183248407
 20
-60.43472591512973
 30
0.0
 10
-291.4651169108917
 20
-60.43472591512973
 30
0.0
 10
-297.6416412201885
 20
-60.43472591512973
 30
0.0
 10
-303.8398509525487
 20
-60.43472591512973
 30
0.0
 10
-310.999737588854
 20
-60.43472591512973
 30
0.0
 10
-319.1152651473246
 20
-60.43472591512973
 30
0.0
 10
-328.1868690768777
 20
-60.43472591512962
 30
0.0
 10
-337.2667290132671
 20
-60.43472591512973
 30
0.0
 10
-343.3245936326636
 20
-60.43472591512973
 30
0.0
 10
-346.353643808769
 20
-60.43472591512973
 30
0.0
  0
LINE
  5
C059
330
A
100
AcDbEntity
  8
0
  6
Continuous
 62
     7
370
    15
100
AcDbLine
 10
-346.3536438087963
 20
-56.43472591517421
 30
0.0
 11
-346.3536438087963
 21
-60.43472591517421
 31
0.0
  0
LINE
  5
C05A
330
A
100
AcDbEntity
  8
0
  6
Continuous
 62
     7
370
    15
100
AcDbLine
 10
-359.6036438087963
 20
-10.4347259151742
 30
0.0
 11
-379.3536438087963
 21
-10.4347259151742
 31
0.0
  0
LINE
  5
C05B
330
A
100
AcDbEntity
  8
0
  6
Continuous
 62
     7
370
    15
100
AcDbLine
 10
-379.3536438087963
 20
-13.4347259151742
 30
0.0
 11
-379.3536438087963
 21
-10.4347259151742
 31
0.0
  0
LINE
  5
C05C
330
A
100
AcDbEntity
  8
0
  6
Continuous
 62
     7
370
    15
100
AcDbLine
 10
-359.6036438087963
 20
-10.4347259151742
 30
0.0
 11
-352.3536438087963
 21
-10.4347259151742
 31
0.0
  0
LINE
  5
C05D
330
A
100
AcDbEntity
  8
0
  6
Continuous
 62
     7
370
    15
100
AcDbLine
 10
-373.3536438087963
 20
-19.73472591517421
 30
0.0
 11
-359.6036438087963
 21
-19.73472591517421
 31
0.0
  0
LINE
  5
C05E
330
A
100
AcDbEntity
  8
0
  6
Continuous
 62
     7
370
    15
100
AcDbLine
 10
-373.3536438087963
 20
-51.13472591517423
 30
0.0
 11
-373.3536438087963
 21
-19.73472591517421
 31
0.0
  0
LINE
  5
C05F
330
A
100
AcDbEntity
  8
0
  6
Continuous
 62
     7
370
    15
100
AcDbLine
 10
-359.6036438087963
 20
-51.13472591517423
 30
0.0
 11
-373.3536438087963
 21
-51.13472591517423
 31
0.0
  0
LINE
  5
C060
330
A
100
AcDbEntity
  8
0
  6
Continuous
 62
     7
370
    15
100
AcDbLine
 10
-379.3536438087963
 20
-57.43472591517421
 30
0.0
 11
-379.3536438087963
 21
-13.4347259151742
 31
0.0
  0
LINE
  5
C061
330
A
100
AcDbEntity
  8
0
  6
Continuous
 62
     7
370
    15
100
AcDbLine
 10
-349.3536438087963
 20
-13.4347259151742
 30
0.0
 11
-349.3536438087963
 21
-15.81865034917422
 31
0.0
  0
LINE
  5
C062
330
A
100
AcDbEntity
  8
0
  6
Continuous
 62
     7
370
    15
100
AcDbLine
 10
-349.3536438087963
 20
-15.81865034917422
 30
0.0
 11
-349.8024959167963
 21
-16.2675024571742
 31
0.0
  0
SPLINE
  5
C063
330
A
100
AcDbEntity
  8
0
  6
Continuous
 62
     7
370
    15
100
AcDbSpline
210
0.0
220
0.0
230
1.0
 70
     8
 71
     3
 72
    12
 73
     8
 74
     0
 42
0.00000001
 43
0.00000001
 40
0.0
 40
0.0
 40
0.0
 40
0.0
 40
0.4999999999999974
 40
0.4999999999999974
 40
0.7499999999999987
 40
0.7499999999999987
 40
1.0
 40
1.0
 40
1.0
 40
1.0
 10
-349.8024959168126
 20
-16.26750245717162
 30
0.0
 10
-349.8769386514982
 20
-16.34194519185712
 30
0.0
 10
-349.9544210686407
 20
-16.4964007702248
 30
0.0
 10
-350.0416224539905
 20
-16.80464690234342
 30
0.0
 10
-350.0662409527396
 20
-16.9223756950438
 30
0.0
 10
-350.099547880668
 20
-17.1695957464519
 30
0.0
 10
-350.1086598886004
 20
-17.3034055907261
 30
0.0
 10
-350.1086598886004
 20
-17.43472591512932
 30
0.0
  0
LINE
  5
C064
330
A
100
AcDbEntity
  8
0
  6
Continuous
 62
     7
370
    15
100
AcDbLine
 10
-350.1086598885963
 20
-18.4897419949742
 30
0.0
 11
-350.1086598885963
 21
-17.4347259151742
 31
0.0
  0
LINE
  5
C065
330
A
100
AcDbEntity
  8
0
  6
Continuous
 62
     7
370
    15
100
AcDbLine
 10
-351.3536438087963
 20
-19.73472591517421
 30
0.0
 11
-350.1086598885963
 21
-18.4897419949742
 31
0.0
  0
LINE
  5
C066
330
A
100
AcDbEntity
  8
0
  6
Continuous
 62
     7
370
    15
100
AcDbLine
 10
-351.3536438087963
 20
-19.73472591517421
 30
0.0
 11
-359.6036438087963
 21
-19.73472591517421
 31
0.0
  0
LINE
  5
C067
330
A
100
AcDbEntity
  8
0
  6
Continuous
 62
     7
370
    15
100
AcDbLine
 10
-350.1086598885963
 20
-52.37970983527423
 30
0.0
 11
-350.1086598885963
 21
-53.43472591517421
 31
0.0
  0
SPLINE
  5
C068
330
A
100
AcDbEntity
  8
0
  6
Continuous
 62
     7
370
    15
100
AcDbSpline
210
0.0
220
0.0
230
1.0
 70
     8
 71
     3
 72
    12
 73
     8
 74
     0
 42
0.00000001
 43
0.00000001
 40
0.0
 40
0.0
 40
0.0
 40
0.0
 40
0.4999999999999974
 40
0.4999999999999974
 40
0.7499999999999987
 40
0.7499999999999987
 40
1.0
 40
1.0
 40
1.0
 40
1.0
 10
-349.8024959168126
 20
-54.60194937308701
 30
0.0
 10
-349.8769386514982
 20
-54.52750663840153
 30
0.0
 10
-349.9544210686407
 20
-54.37305106003383
 30
0.0
 10
-350.0416224539905
 20
-54.06480492791532
 30
0.0
 10
-350.0662409527396
 20
-53.94707613521483
 30
0.0
 10
-350.099547880668
 20
-53.69985608380684
 30
0.0
 10
-350.1086598886004
 20
-53.56604623953253
 30
0.0
 10
-350.1086598886004
 20
-53.43472591512933
 30
0.0
  0
LINE
  5
C069
330
A
100
AcDbEntity
  8
0
  6
Continuous
 62
     7
370
    15
100
AcDbLine
 10
-349.3536438087963
 20
-55.05080148117422
 30
0.0
 11
-349.8024959167963
 21
-54.60194937307422
 31
0.0
  0
LINE
  5
C06A
330
A
100
AcDbEntity
  8
0
  6
Continuous
 62
     7
370
    15
100
AcDbLine
 10
-349.3536438087963
 20
-55.05080148117422
 30
0.0
 11
-349.3536438087963
 21
-57.43472591517421
 31
0.0
  0
LINE
  5
C06B
330
A
100
AcDbEntity
  8
0
  6
Continuous
 62
     7
370
    15
100
AcDbLine
 10
-351.3536438087963
 20
-51.13472591517423
 30
0.0
 11
-350.1086598885963
 21
-52.37970983527423
 31
0.0
  0
LINE
  5
C06C
330
A
100
AcDbEntity
  8
0
  6
Continuous
 62
     7
370
    15
100
AcDbLine
 10
-359.6036438087963
 20
-51.13472591517423
 30
0.0
 11
-351.3536438087963
 21
-51.13472591517423
 31
0.0
  0
LINE
  5
C06D
330
A
100
AcDbEntity
  8
0
  6
Continuous
 62
     7
370
    15
100
AcDbLine
 10
-359.6036438087963
 20
-60.43472591517421
 30
0.0
 11
-379.3536438087963
 21
-60.43472591517421
 31
0.0
  0
LINE
  5
C06E
330
A
100
AcDbEntity
  8
0
  6
Continuous
 62
     7
370
    15
100
AcDbLine
 10
-379.3536438087963
 20
-57.43472591517421
 30
0.0
 11
-379.3536438087963
 21
-60.43472591517421
 31
0.0
  0
LINE
  5
C06F
330
A
100
AcDbEntity
  8
0
  6
Continuous
 62
     7
370
    15
100
AcDbLine
 10
-359.6036438087963
 20
-60.43472591517421
 30
0.0
 11
-352.3536438087963
 21
-60.43472591517421
 31
0.0
  0
LINE
  5
C070
330
A
100
AcDbEntity
  8
0
  6
Continuous
 62
     8
370
     0
100
AcDbLine
 10
-359.6036438087963
 20
-13.4347259151742
 30
0.0
 11
-359.6036438087963
 21
-10.4347259151742
 31
0.0
  0
LINE
  5
C071
330
A
100
AcDbEntity
  8
0
  6
Continuous
 62
     8
370
     0
100
AcDbLine
 10
-359.6036438087963
 20
-13.4347259151742
 30
0.0
 11
-379.3536438087963
 21
-13.4347259151742
 31
0.0
  0
LINE
  5
C072
330
A
100
AcDbEntity
  8
0
  6
Continuous
 62
     8
370
     0
100
AcDbLine
 10
-359.6036438087963
 20
-13.4347259151742
 30
0.0
 11
-349.3536438087963
 21
-13.4347259151742
 31
0.0
  0
LINE
  5
C073
330
A
100
AcDbEntity
  8
0
  6
Continuous
 62
     8
370
     0
100
AcDbLine
 10
-359.6036438087963
 20
-57.43472591517421
 30
0.0
 11
-359.6036438087963
 21
-51.13472591517423
 31
0.0
  0
LINE
  5
C074
330
A
100
AcDbEntity
  8
0
  6
Continuous
 62
     8
370
     0
100
AcDbLine
 10
-359.6036438087963
 20
-57.43472591517421
 30
0.0
 11
-379.3536438087963
 21
-57.43472591517421
 31
0.0
  0
LINE
  5
C075
330
A
100
AcDbEntity
  8
0
  6
Continuous
 62
     8
370
     0
100
AcDbLine
 10
-359.6036438087963
 20
-19.73472591517421
 30
0.0
 11
-359.6036438087963
 21
-13.4347259151742
 31
0.0
  0
LINE
  5
C076
330
A
100
AcDbEntity
  8
0
  6
Continuous
 62
     8
370
     0
100
AcDbLine
 10
-359.6036438087963
 20
-57.43472591517421
 30
0.0
 11
-349.3536438087963
 21
-57.43472591517421
 31
0.0
  0
LINE
  5
C077
330
A
100
AcDbEntity
  8
0
  6
Continuous
 62
     8
370
     0
100
AcDbLine
 10
-359.6036438087963
 20
-57.43472591517421
 30
0.0
 11
-359.6036438087963
 21
-60.43472591517421
 31
0.0
  0
CIRCLE
  5
C078
330
A
100
AcDbEntity
  8
0
  6
CENTER
 62
     1
370
     0
100
AcDbCircle
 10
-335.3536438087963
 20
-35.4347259151742
 30
0.0
 40
10.00000000000001
  0
CIRCLE
  5
C079
330
A
100
AcDbEntity
  8
0
  6
CENTER
 62
     1
370
     0
100
AcDbCircle
 10
-287.3536438087963
 20
-35.4347259151742
 30
0.0
 40
9.999999999999986
  0
INSERT
  5
C07A
330
A
100
AcDbEntity
  8
0
  6
Continuous
 62
     7
370
     0
100
AcDbBlockReference
  2
SW_CENTERMARKSYMBOL_0
 10
-335.3536438087963
 20
-35.4347259151742
 30
0.0
  0
INSERT
  5
C07B
330
A
100
AcDbEntity
  8
0
  6
Continuous
 62
     7
370
     0
100
AcDbBlockReference
  2
SW_CENTERMARKSYMBOL_1
 10
-287.3536438087963
 20
-35.4347259151742
 30
0.0
  0
LINE
  5
C07C
330
A
100
AcDbEntity
  8
0
  6
Continuous
 62
     7
370
    15
100
AcDbLine
 10
-351.4340477476963
 20
-133.2463538450742
 30
0.0
 11
-352.6698774138963
 21
-134.4821844426742
 31
0.0
  0
LINE
  5
C07D
330
A
100
AcDbEntity
  8
0
  6
Continuous
 62
     7
370
    15
100
AcDbLine
 10
-351.2556640843963
 20
-135.8963977721742
 30
0.0
 11
-350.0198344180963
 21
-134.6605681059742
 31
0.0
  0
LINE
  5
C07E
330
A
100
AcDbEntity
  8
0
  6
Continuous
 62
     7
370
    15
100
AcDbLine
 10
-350.0198344180963
 20
-134.6605681059742
 30
0.0
 11
-350.0198344180963
 21
-134.2363041070742
 31
0.0
  0
LINE
  5
C07F
330
A
100
AcDbEntity
  8
0
  6
Continuous
 62
     7
370
    15
100
AcDbLine
 10
-351.0097837487963
 20
-133.2463538450742
 30
0.0
 11
-351.4340477476963
 21
-133.2463538450742
 31
0.0
  0
LINE
  5
C080
330
A
100
AcDbEntity
  8
0
  6
Continuous
 62
     7
370
    15
100
AcDbLine
 10
-338.3536426762963
 20
-121.5801639658742
 30
0.0
 11
-338.3536426762963
 21
-122.4301634532742
 31
0.0
  0
LINE
  5
C081
330
A
100
AcDbEntity
  8
0
  6
Continuous
 62
     7
370
    15
100
AcDbLine
 10
-332.3536454180963
 20
-122.4301634532742
 30
0.0
 11
-332.3536454180963
 21
-121.5801639658742
 31
0.0
  0
LINE
  5
C082
330
A
100
AcDbEntity
  8
0
  6
Continuous
 62
     7
370
    15
100
AcDbLine
 10
-290.3536422590963
 20
-121.5801639658742
 30
0.0
 11
-290.3536422590963
 21
-122.4301634532742
 31
0.0
  0
LINE
  5
C083
330
A
100
AcDbEntity
  8
0
  6
Continuous
 62
     7
370
    15
100
AcDbLine
 10
-284.3536450008963
 20
-122.4301634532742
 30
0.0
 11
-284.3536450008963
 21
-121.5801639658742
 31
0.0
  0
LINE
  5
C084
330
A
100
AcDbEntity
  8
0
  6
Continuous
 62
     7
370
    15
100
AcDbLine
 10
-296.8536405304962
 20
-123.6301632774742
 30
0.0
 11
-296.8536405304962
 21
-128.5801632506742
 31
0.0
  0
LINE
  5
C085
330
A
100
AcDbEntity
  8
0
  6
Continuous
 62
     7
370
    15
100
AcDbLine
 10
-277.8536467293963
 20
-128.5801632506742
 30
0.0
 11
-277.8536467293963
 21
-123.6301632774742
 31
0.0
  0
LINE
  5
C086
330
A
100
AcDbEntity
  8
0
  6
Continuous
 62
     7
370
    15
100
AcDbLine
 10
-344.8536446729963
 20
-123.5801642936742
 30
0.0
 11
-344.8536446729963
 21
-128.5801632506742
 31
0.0
  0
LINE
  5
C087
330
A
100
AcDbEntity
  8
0
  6
Continuous
 62
     7
370
    15
100
AcDbLine
 10
-325.8536434212963
 20
-128.5801632506742
 30
0.0
 11
-325.8536434212963
 21
-123.5801642936742
 31
0.0
  0
LINE
  5
C088
330
A
100
AcDbEntity
  8
0
  6
Continuous
 62
     7
370
    15
100
AcDbLine
 10
-279.4536440113962
 20
-123.4301636171742
 30
0.0
 11
-280.4536460379963
 21
-122.4301634532742
 31
0.0
  0
LINE
  5
C089
330
A
100
AcDbEntity
  8
0
  6
Continuous
 62
     7
370
    15
100
AcDbLine
 10
-294.2536412218963
 20
-122.4301634532742
 30
0.0
 11
-295.2536432484963
 21
-123.4301636171742
 31
0.0
  0
LINE
  5
C08A
330
A
100
AcDbEntity
  8
0
  6
Continuous
 62
     7
370
    15
100
AcDbLine
 10
-279.4536440113962
 20
-123.6301632774742
 30
0.0
 11
-279.4536440113962
 21
-123.4301636171742
 31
0.0
  0
LINE
  5
C08B
330
A
100
AcDbEntity
  8
0
  6
Continuous
 62
     7
370
    15
100
AcDbLine
 10
-295.2536432484963
 20
-123.4301636171742
 30
0.0
 11
-295.2536432484963
 21
-123.6301632774742
 31
0.0
  0
LINE
  5
C08C
330
A
100
AcDbEntity
  8
0
  6
Continuous
 62
     7
370
    15
100
AcDbLine
 10
-327.4536444286963
 20
-123.4301636171742
 30
0.0
 11
-328.4536427298963
 21
-122.4301634532742
 31
0.0
  0
LINE
  5
C08D
330
A
100
AcDbEntity
  8
0
  6
Continuous
 62
     7
370
    15
100
AcDbLine
 10
-342.2536453644963
 20
-122.4301634532742
 30
0.0
 11
-343.2536436656963
 21
-123.4301636171742
 31
0.0
  0
LINE
  5
C08E
330
A
100
AcDbEntity
  8
0
  6
Continuous
 62
     7
370
    15
100
AcDbLine
 10
-327.4536444286963
 20
-123.5801642936742
 30
0.0
 11
-327.4536444286963
 21
-123.4301636171742
 31
0.0
  0
LINE
  5
C08F
330
A
100
AcDbEntity
  8
0
  6
Continuous
 62
     7
370
    15
100
AcDbLine
 10
-343.2536436656963
 20
-123.4301636171742
 30
0.0
 11
-343.2536436656963
 21
-123.5801642936742
 31
0.0
  0
LINE
  5
C090
330
A
100
AcDbEntity
  8
0
  6
Continuous
 62
     7
370
    15
100
AcDbLine
 10
-290.3536422590963
 20
-121.5801639658742
 30
0.0
 11
-290.3536422590963
 21
-122.4301634532742
 31
0.0
  0
LINE
  5
C091
330
A
100
AcDbEntity
  8
0
  6
Continuous
 62
     7
370
    15
100
AcDbLine
 10
-284.3536450008963
 20
-122.4301634532742
 30
0.0
 11
-284.3536450008963
 21
-121.5801639658742
 31
0.0
  0
LINE
  5
C092
330
A
100
AcDbEntity
  8
0
  6
Continuous
 62
     7
370
    15
100
AcDbLine
 10
-338.3536426762963
 20
-121.5801639658742
 30
0.0
 11
-338.3536426762963
 21
-122.4301634532742
 31
0.0
  0
LINE
  5
C093
330
A
100
AcDbEntity
  8
0
  6
Continuous
 62
     7
370
    15
100
AcDbLine
 10
-332.3536454180963
 20
-122.4301634532742
 30
0.0
 11
-332.3536454180963
 21
-121.5801639658742
 31
0.0
  0
LWPOLYLINE
  5
C094
330
A
100
AcDbEntity
  8
0
  6
Continuous
 62
     7
370
    15
100
AcDbPolyline
 90
       10
 70
   128
 43
0.0
 10
-350.0198344180963
 20
-134.6605681059742
 10
-350.0201045016963
 20
-134.6602970910742
 10
-350.0813948402963
 20
-134.5990076837742
 10
-350.2409639248963
 20
-134.4394385990742
 10
-350.4745172748963
 20
-134.2058843177742
 10
-350.7465007195963
 20
-133.9339018044742
 10
-351.0155057946963
 20
-133.6648957980742
 10
-351.2405803838963
 20
-133.4398212087742
 10
-351.3874574044963
 20
-133.2929441881742
 10
-351.4340477476963
 20
-133.2463538450742
  0
LWPOLYLINE
  5
C095
330
A
100
AcDbEntity
  8
0
  6
Continuous
 62
     7
370
    15
100
AcDbPolyline
 90
       10
 70
   128
 43
0.0
 10
-351.0097837487963
 20
-133.2463538450742
 10
-350.9771706948963
 20
-133.2789668989742
 10
-350.8743564078963
 20
-133.3817811859742
 10
-350.7168045679963
 20
-133.5393330258742
 10
-350.5285004565962
 20
-133.7276371372742
 10
-350.3381120452963
 20
-133.9180255484742
 10
-350.1746239552963
 20
-134.0815136385742
 10
-350.0629267135963
 20
-134.1932118115742
 10
-350.0200244078963
 20
-134.2361141172742
 10
-350.0198344180963
 20
-134.2363041070742
  0
ARC
  5
C096
330
A
100
AcDbEntity
  8
0
  6
Continuous
 62
     7
370
    15
100
AcDbCircle
 10
-359.3536438087963
 20
-142.5801636827742
 30
0.0
 40
10.5
100
AcDbArc
 50
257.4720945600999
 51
102.5279054398
  0
LINE
  5
C097
330
A
100
AcDbEntity
  8
0
  6
Continuous
 62
     7
370
    15
100
AcDbLine
 10
-344.8536446729963
 20
-130.5801635784742
 30
0.0
 11
-344.8536446729963
 21
-129.5801634145742
 31
0.0
  0
LINE
  5
C098
330
A
100
AcDbEntity
  8
0
  6
Continuous
 62
     7
370
    15
100
AcDbLine
 10
-344.8536446729963
 20
-129.5801634145742
 30
0.0
 11
-342.8536443451963
 21
-129.5801634145742
 31
0.0
  0
LINE
  5
C099
330
A
100
AcDbEntity
  8
0
  6
Continuous
 62
     7
370
    15
100
AcDbLine
 10
-285.3536470273963
 20
-129.5801634145742
 30
0.0
 11
-342.8536443451963
 21
-129.5801634145742
 31
0.0
  0
LINE
  5
C09A
330
A
100
AcDbEntity
  8
0
  6
Continuous
 62
     7
370
    15
100
AcDbLine
 10
-266.3536457756963
 20
-130.5801635784742
 30
0.0
 11
-266.3536457756963
 21
-129.5801634145742
 31
0.0
  0
LINE
  5
C09B
330
A
100
AcDbEntity
  8
0
  6
Continuous
 62
     7
370
    15
100
AcDbLine
 10
-266.3536457756963
 20
-129.5801634145742
 30
0.0
 11
-285.3536470273963
 21
-129.5801634145742
 31
0.0
  0
LINE
  5
C09C
330
A
100
AcDbEntity
  8
0
  6
Continuous
 62
     7
370
    15
100
AcDbLine
 10
-346.8536450008963
 20
-129.5801634145742
 30
0.0
 11
-344.8536446729963
 21
-129.5801634145742
 31
0.0
  0
LINE
  5
C09D
330
A
100
AcDbEntity
  8
0
  6
Continuous
 62
     7
370
    15
100
AcDbLine
 10
-356.8536429146963
 20
-130.5801635784742
 30
0.0
 11
-356.8536429146963
 21
-129.5801634145742
 31
0.0
  0
LINE
  5
C09E
330
A
100
AcDbEntity
  8
0
  6
Continuous
 62
     7
370
    15
100
AcDbLine
 10
-356.8536429146963
 20
-129.5801634145742
 30
0.0
 11
-354.8536444494963
 21
-129.5801634145742
 31
0.0
  0
LINE
  5
C09F
330
A
100
AcDbEntity
  8
0
  6
Continuous
 62
     7
370
    15
100
AcDbLine
 10
-346.8536450008963
 20
-129.5801634145742
 30
0.0
 11
-354.8536444494963
 21
-129.5801634145742
 31
0.0
  0
LINE
  5
C0A0
330
A
100
AcDbEntity
  8
0
  6
Continuous
 62
     7
370
    15
100
AcDbLine
 10
-344.8536446729963
 20
-129.5801634145742
 30
0.0
 11
-344.8536446729963
 21
-128.5801632506742
 31
0.0
  0
LINE
  5
C0A1
330
A
100
AcDbEntity
  8
0
  6
Continuous
 62
     7
370
    15
100
AcDbLine
 10
-344.8536446729963
 20
-128.5801632506742
 30
0.0
 11
-342.8536443451963
 21
-128.5801632506742
 31
0.0
  0
LINE
  5
C0A2
330
A
100
AcDbEntity
  8
0
  6
Continuous
 62
     7
370
    15
100
AcDbLine
 10
-285.3536470273963
 20
-128.5801632506742
 30
0.0
 11
-342.8536443451963
 21
-128.5801632506742
 31
0.0
  0
LINE
  5
C0A3
330
A
100
AcDbEntity
  8
0
  6
Continuous
 62
     7
370
    15
100
AcDbLine
 10
-266.3536457756963
 20
-129.5801634145742
 30
0.0
 11
-266.3536457756963
 21
-128.5801632506742
 31
0.0
  0
LINE
  5
C0A4
330
A
100
AcDbEntity
  8
0
  6
Continuous
 62
     7
370
    15
100
AcDbLine
 10
-266.3536457756963
 20
-128.5801632506742
 30
0.0
 11
-285.3536470273963
 21
-128.5801632506742
 31
0.0
  0
LINE
  5
C0A5
330
A
100
AcDbEntity
  8
0
  6
Continuous
 62
     7
370
    15
100
AcDbLine
 10
-346.8536450008963
 20
-128.5801632506742
 30
0.0
 11
-344.8536446729963
 21
-128.5801632506742
 31
0.0
  0
LINE
  5
C0A6
330
A
100
AcDbEntity
  8
0
  6
Continuous
 62
     7
370
    15
100
AcDbLine
 10
-356.8536429146963
 20
-129.5801634145742
 30
0.0
 11
-356.8536429146963
 21
-128.5801632506742
 31
0.0
  0
LINE
  5
C0A7
330
A
100
AcDbEntity
  8
0
  6
Continuous
 62
     7
370
    15
100
AcDbLine
 10
-356.8536429146963
 20
-128.5801632506742
 30
0.0
 11
-354.8536444494963
 21
-128.5801632506742
 31
0.0
  0
LINE
  5
C0A8
330
A
100
AcDbEntity
  8
0
  6
Continuous
 62
     7
370
    15
100
AcDbLine
 10
-346.8536450008963
 20
-128.5801632506742
 30
0.0
 11
-354.8536444494963
 21
-128.5801632506742
 31
0.0
  0
LINE
  5
C0A9
330
A
100
AcDbEntity
  8
0
  6
Continuous
 62
     7
370
    15
100
AcDbLine
 10
-350.8536437938963
 20
-121.5801639658742
 30
0.0
 11
-290.3477861026963
 21
-121.5801639658742
 31
0.0
  0
LINE
  5
C0AA
330
A
100
AcDbEntity
  8
0
  6
Continuous
 62
     7
370
    15
100
AcDbLine
 10
-352.8536441216963
 20
-121.5801639658742
 30
0.0
 11
-352.8536441216963
 21
-120.7801634621742
 31
0.0
  0
LINE
  5
C0AB
330
A
100
AcDbEntity
  8
0
  6
Continuous
 62
     7
370
    15
100
AcDbLine
 10
-350.8536437938963
 20
-121.5801639658742
 30
0.0
 11
-352.8536441216963
 21
-121.5801639658742
 31
0.0
  0
LINE
  5
C0AC
330
A
100
AcDbEntity
  8
0
  6
Continuous
 62
     7
370
    15
100
AcDbLine
 10
-290.3477861026963
 20
-121.5801639658742
 30
0.0
 11
-273.2644988635963
 21
-121.5801639658742
 31
0.0
  0
LINE
  5
C0AD
330
A
100
AcDbEntity
  8
0
  6
Continuous
 62
     7
370
    15
100
AcDbLine
 10
-272.8536440471963
 20
-120.7801634621742
 30
0.0
 11
-272.8536440471963
 21
-121.5801639658742
 31
0.0
  0
LINE
  5
C0AE
330
A
100
AcDbEntity
  8
0
  6
Continuous
 62
     7
370
    15
100
AcDbLine
 10
-272.8536440471963
 20
-121.5801639658742
 30
0.0
 11
-273.2644988635963
 21
-121.5801639658742
 31
0.0
  0
LINE
  5
C0AF
330
A
100
AcDbEntity
  8
0
  6
Continuous
 62
     7
370
    15
100
AcDbLine
 10
-281.8241952399963
 20
-123.6301632774742
 30
0.0
 11
-277.8536467293963
 21
-123.6301632774742
 31
0.0
  0
LINE
  5
C0B0
330
A
100
AcDbEntity
  8
0
  6
Continuous
 62
     7
370
    15
100
AcDbLine
 10
-296.8536405304962
 20
-123.6301632774742
 30
0.0
 11
-281.8241952399963
 21
-123.6301632774742
 31
0.0
  0
LINE
  5
C0B1
330
A
100
AcDbEntity
  8
0
  6
Continuous
 62
     7
370
    15
100
AcDbLine
 10
-328.4983648399963
 20
-123.5801642936742
 30
0.0
 11
-325.8536434212963
 21
-123.5801642936742
 31
0.0
  0
LINE
  5
C0B2
330
A
100
AcDbEntity
  8
0
  6
Continuous
 62
     7
370
    15
100
AcDbLine
 10
-344.8536446729963
 20
-123.5801642936742
 30
0.0
 11
-328.4983648399963
 21
-123.5801642936742
 31
0.0
  0
LINE
  5
C0B3
330
A
100
AcDbEntity
  8
0
  6
Continuous
 62
     7
370
    15
100
AcDbLine
 10
-287.3536436299963
 20
-122.4301634532742
 30
0.0
 11
-280.4536460379963
 21
-122.4301634532742
 31
0.0
  0
LINE
  5
C0B4
330
A
100
AcDbEntity
  8
0
  6
Continuous
 62
     7
370
    15
100
AcDbLine
 10
-294.2536412218963
 20
-122.4301634532742
 30
0.0
 11
-287.3536436299963
 21
-122.4301634532742
 31
0.0
  0
LINE
  5
C0B5
330
A
100
AcDbEntity
  8
0
  6
Continuous
 62
     7
370
    15
100
AcDbLine
 10
-287.3536436299963
 20
-123.4301636171742
 30
0.0
 11
-295.2536432484963
 21
-123.4301636171742
 31
0.0
  0
LINE
  5
C0B6
330
A
100
AcDbEntity
  8
0
  6
Continuous
 62
     7
370
    15
100
AcDbLine
 10
-279.4536440113962
 20
-123.4301636171742
 30
0.0
 11
-287.3536436299963
 21
-123.4301636171742
 31
0.0
  0
LINE
  5
C0B7
330
A
100
AcDbEntity
  8
0
  6
Continuous
 62
     7
370
    15
100
AcDbLine
 10
-335.3536440471963
 20
-122.4301634532742
 30
0.0
 11
-328.4536427298963
 21
-122.4301634532742
 31
0.0
  0
LINE
  5
C0B8
330
A
100
AcDbEntity
  8
0
  6
Continuous
 62
     7
370
    15
100
AcDbLine
 10
-342.2536453644963
 20
-122.4301634532742
 30
0.0
 11
-335.3536440471963
 21
-122.4301634532742
 31
0.0
  0
LINE
  5
C0B9
330
A
100
AcDbEntity
  8
0
  6
Continuous
 62
     7
370
    15
100
AcDbLine
 10
-335.3536440471963
 20
-123.4301636171742
 30
0.0
 11
-343.2536436656963
 21
-123.4301636171742
 31
0.0
  0
LINE
  5
C0BA
330
A
100
AcDbEntity
  8
0
  6
Continuous
 62
     7
370
    15
100
AcDbLine
 10
-327.4536444286963
 20
-123.4301636171742
 30
0.0
 11
-335.3536440471963
 21
-123.4301636171742
 31
0.0
  0
LINE
  5
C0BB
330
A
100
AcDbEntity
  8
0
  6
Continuous
 62
     7
370
    15
100
AcDbLine
 10
-358.8590709904963
 20
-114.7801643413742
 30
0.0
 11
-358.8590709904963
 21
-120.7801634621742
 31
0.0
  0
LINE
  5
C0BC
330
A
100
AcDbEntity
  8
0
  6
Continuous
 62
     7
370
    15
100
AcDbLine
 10
-285.3590710500963
 20
-114.7801643413742
 30
0.0
 11
-358.8590709904963
 21
-114.7801643413742
 31
0.0
  0
LINE
  5
C0BD
330
A
100
AcDbEntity
  8
0
  6
Continuous
 62
     7
370
    15
100
AcDbLine
 10
-285.3590710500963
 20
-120.7801634621742
 30
0.0
 11
-358.8590709904963
 21
-120.7801634621742
 31
0.0
  0
LINE
  5
C0BE
330
A
100
AcDbEntity
  8
0
  6
Continuous
 62
     7
370
    15
100
AcDbLine
 10
-265.3590677717963
 20
-114.7801643413742
 30
0.0
 11
-265.3590677717963
 21
-120.7801634621742
 31
0.0
  0
LINE
  5
C0BF
330
A
100
AcDbEntity
  8
0
  6
Continuous
 62
     7
370
    15
100
AcDbLine
 10
-265.3590677717963
 20
-120.7801634621742
 30
0.0
 11
-285.3590710500963
 21
-120.7801634621742
 31
0.0
  0
LINE
  5
C0C0
330
A
100
AcDbEntity
  8
0
  6
Continuous
 62
     7
370
    15
100
AcDbLine
 10
-285.3590710500963
 20
-114.7801643413742
 30
0.0
 11
-265.3590677717963
 21
-114.7801643413742
 31
0.0
  0
SPLINE
  5
C0C1
330
A
100
AcDbEntity
  8
0
  6
Continuous
 62
     7
370
    15
100
AcDbSpline
210
0.0
220
0.0
230
1.0
 70
     8
 71
     3
 72
    14
 73
    10
 74
     0
 42
0.00000001
 43
0.00000001
 40
0.0
 40
0.0
 40
0.0
 40
0.0
 40
0.1014866722672231
 40
0.203006791200453
 40
0.304877543909252
 40
0.4067512659176415
 40
0.555010473705732
 40
0.7032986791872111
 40
1.0
 40
1.0
 40
1.0
 40
1.0
 10
-285.3536470274198
 20
-146.5149698955419
 30
0.0
 10
-287.3905664163443
 20
-146.9143394041181
 30
0.0
 10
-291.4650764957639
 20
-147.7132100403124
 30
0.0
 10
-297.6439373667089
 20
-148.5599905488958
 30
0.0
 10
-303.8398854976449
 20
-149.3173340674543
 30
0.0
 10
-311.00010566313
 20
-150.0588216241047
 30
0.0
 10
-319.1152975918758
 20
-150.7827330653033
 30
0.0
 10
-331.2115871250505
 20
-151.7084321702667
 30
0.0
 10
-340.2963112208928
 20
-152.2314415816001
 30
0.0
 10
-346.3536439875829
 20
-152.5801634592416
 30
0.0
  0
LINE
  5
C0C2
330
A
100
AcDbEntity
  8
0
  6
Continuous
 62
     7
370
    15
100
AcDbLine
 10
-346.3536439875963
 20
-130.5801635784742
 30
0.0
 11
-346.3536439875963
 21
-152.5801634592742
 31
0.0
  0
LINE
  5
C0C3
330
A
100
AcDbEntity
  8
0
  6
Continuous
 62
     7
370
    15
100
AcDbLine
 10
-346.3536439875963
 20
-130.5801635784742
 30
0.0
 11
-285.3536470273963
 21
-130.5801635784742
 31
0.0
  0
LINE
  5
C0C4
330
A
100
AcDbEntity
  8
0
  6
Continuous
 62
     7
370
    15
100
AcDbLine
 10
-284.5626486877963
 20
-154.5801637870742
 30
0.0
 11
-346.3536439875963
 21
-154.5801637870742
 31
0.0
  0
SPLINE
  5
C0C5
330
A
100
AcDbEntity
  8
0
  6
Continuous
 62
     7
370
    15
100
AcDbSpline
210
0.0
220
0.0
230
1.0
 70
     8
 71
     3
 72
     9
 73
     5
 74
     0
 42
0.00000001
 43
0.00000001
 40
0.0
 40
0.0
 40
0.0
 40
0.0
 40
0.4937999122688
 40
1.0
 40
1.0
 40
1.0
 40
1.0
 10
-285.3536470274198
 20
-146.5149698955419
 30
0.0
 10
-285.0283630960093
 20
-146.4553755901847
 30
0.0
 10
-284.3696267873777
 20
-146.3346904627141
 30
0.0
 10
-283.7030563984295
 20
-146.3662722741013
 30
0.0
 10
-283.365638409065
 20
-146.3822589897962
 30
0.0
  0
ARC
  5
C0C6
330
A
100
AcDbEntity
  8
0
  6
Continuous
 62
     7
370
    15
100
AcDbCircle
 10
-311.3714107383963
 20
-146.4793619709742
 30
0.0
 40
28.00594066896323
100
AcDbArc
 50
343.1867616417
 51
0.1986579280000167
  0
SPLINE
  5
C0C7
330
A
100
AcDbEntity
  8
0
  6
Continuous
 62
     7
370
    15
100
AcDbSpline
210
0.0
220
0.0
230
1.0
 70
    24
 71
     3
 72
     9
 73
     5
 74
     0
 42
0.00000001
 43
0.00000001
 40
0.0
 40
0.0
 40
0.0
 40
0.0
 40
0.4918708131196827
 40
1.0
 40
1.0
 40
1.0
 40
1.0
 10
-346.3536439875829
 20
-152.5801634592416
 30
0.0
 10
-346.3536439875829
 20
-152.9971966260704
 30
0.0
 10
-346.3536439875829
 20
-153.8450476383795
 30
0.0
 10
-346.3536439875829
 20
-154.3324834330598
 30
0.0
 10
-346.3536439875829
 20
-154.5801637870671
 30
0.0
  0
LINE
  5
C0C8
330
A
100
AcDbEntity
  8
0
  6
Continuous
 62
     7
370
    15
100
AcDbLine
 10
-265.3536437491963
 20
-130.5801635784742
 30
0.0
 11
-265.3536437491963
 21
-147.5149942738742
 31
0.0
  0
LINE
  5
C0C9
330
A
100
AcDbEntity
  8
0
  6
Continuous
 62
     7
370
    15
100
AcDbLine
 10
-265.3753174880963
 20
-147.5652596158742
 30
0.0
 11
-265.3536437491963
 21
-147.5149942738742
 31
0.0
  0
SPLINE
  5
C0CA
330
A
100
AcDbEntity
  8
0
  6
Continuous
 62
     7
370
    15
100
AcDbSpline
210
0.0
220
0.0
230
1.0
 70
     8
 71
     3
 72
    22
 73
    18
 74
     0
 42
0.00000001
 43
0.00000001
 40
0.0
 40
0.0
 40
0.0
 40
0.0
 40
0.1068171337061406
 40
0.2162283931189778
 40
0.2743875277345958
 40
0.332546730052668
 40
0.3924085897693857
 40
0.4522704542558946
 40
0.5102033082595505
 40
0.5681359490231831
 40
0.6277617503210704
 40
0.6873873459700887
 40
0.7451546572355257
 40
0.8029218508741401
 40
0.862368547474097
 40
0.9218153449006804
 40
1.0
 40
1.0
 40
1.0
 40
1.0
 10
-283.365638409065
 20
-146.3822589897962
 30
0.0
 10
-282.3677287001484
 20
-146.5267127150225
 30
0.0
 10
-280.3476743759942
 20
-146.8191283210401
 30
0.0
 10
-277.8807341103236
 20
-147.0966869424142
 30
0.0
 10
-275.9498362600057
 20
-147.2900986619695
 30
0.0
 10
-274.5058023463661
 20
-147.4198217399828
 30
0.0
 10
-273.1238813461125
 20
-147.5306993390307
 30
0.0
 10
-271.830323880868
 20
-147.6214846047501
 30
0.0
 10
-270.6456642830725
 20
-147.6922956970929
 30
0.0
 10
-269.5630398642761
 20
-147.7447273730909
 30
0.0
 10
-268.5818502886209
 20
-147.7790653485771
 30
0.0
 10
-267.7209595947737
 20
-147.7947649545038
 30
0.0
 10
-266.9931805301488
 20
-147.7921042176995
 30
0.0
 10
-266.3908194856395
 20
-147.7717806633166
 30
0.0
 10
-265.9198318102878
 20
-147.7324585075868
 30
0.0
 10
-265.5355713293059
 20
-147.6694770177006
 30
0.0
 10
-265.4333733554018
 20
-147.6030149145955
 30
0.0
 10
-265.3753174881208
 20
-147.5652596158387
 30
0.0
  0
LINE
  5
C0CB
330
A
100
AcDbEntity
  8
0
  6
Continuous
 62
     7
370
    15
100
AcDbLine
 10
-285.3536470273963
 20
-130.5801635784742
 30
0.0
 11
-265.3536437491963
 21
-130.5801635784742
 31
0.0
  0
LINE
  5
C0CC
330
A
100
AcDbEntity
  8
0
  6
Continuous
 62
     7
370
    15
100
AcDbLine
 10
-273.3179418781963
 20
-154.5801637870742
 30
0.0
 11
-284.5626486877963
 21
-154.5801637870742
 31
0.0
  0
ARC
  5
C0CD
330
A
100
AcDbEntity
  8
0
  6
Continuous
 62
     7
370
    15
100
AcDbCircle
 10
-276.8255084370963
 20
-142.6047521468742
 30
0.0
 40
12.47852183223472
100
AcDbArc
 50
286.3251689229999
 51
336.5765394989999
  0
ARC
  5
C0CE
330
A
100
AcDbEntity
  8
0
  6
Continuous
 62
     7
370
    15
100
AcDbCircle
 10
-359.3536438087963
 20
-142.5801636827742
 30
0.0
 40
10.75000000000003
100
AcDbArc
 50
252.4564995272999
 51
38.16023035159987
  0
ARC
  5
C0CF
330
A
100
AcDbEntity
  8
0
  6
Continuous
 62
     7
370
    15
100
AcDbCircle
 10
-359.3536438087963
 20
-142.5801636827742
 30
0.0
 40
10.75000000000002
100
AcDbArc
 50
51.83976964839992
 51
107.5435004726998
  0
ARC
  5
C0D0
330
A
100
AcDbEntity
  8
0
  6
Continuous
 62
     7
370
    15
100
AcDbCircle
 10
-351.2536438087963
 20
-134.4801636827742
 30
0.0
 40
1.500000000000004
100
AcDbArc
 50
283.594528541899
 51
166.4054714580999
  0
ARC
  5
C0D1
330
A
100
AcDbEntity
  8
0
  6
Continuous
 62
     7
370
    15
100
AcDbCircle
 10
-359.3536438087963
 20
-143.0801636827742
 30
0.0
 40
12.50000000000002
100
AcDbArc
 50
231.2605754021002
 51
246.9260819343999
  0
LINE
  5
C0D2
330
A
100
AcDbEntity
  8
0
  6
Continuous
 62
     7
370
    15
100
AcDbLine
 10
-371.8536439763963
 20
-131.7801634025742
 30
0.0
 11
-371.8536439763963
 21
-132.3301633996742
 31
0.0
  0
LINE
  5
C0D3
330
A
100
AcDbEntity
  8
0
  6
Continuous
 62
     7
370
    15
100
AcDbLine
 10
-358.8536432424963
 20
-131.7801634025742
 30
0.0
 11
-371.8536439763963
 21
-131.7801634025742
 31
0.0
  0
LINE
  5
C0D4
330
A
100
AcDbEntity
  8
0
  6
Continuous
 62
     7
370
    15
100
AcDbLine
 10
-358.8536432424963
 20
-130.5801635784742
 30
0.0
 11
-358.8536432424963
 21
-131.7801634025742
 31
0.0
  0
LINE
  5
C0D5
330
A
100
AcDbEntity
  8
0
  6
Continuous
 62
     7
370
    15
100
AcDbLine
 10
-364.2526235843963
 20
-154.5801637870742
 30
0.0
 11
-346.3536439875963
 21
-154.5801637870742
 31
0.0
  0
LINE
  5
C0D6
330
A
100
AcDbEntity
  8
0
  6
Continuous
 62
     7
370
    15
100
AcDbLine
 10
-358.8536432424963
 20
-130.5801635784742
 30
0.0
 11
-346.3536439875963
 21
-130.5801635784742
 31
0.0
  0
ARC
  5
C0D7
330
A
100
AcDbEntity
  8
0
  6
Continuous
 62
     7
370
    15
100
AcDbCircle
 10
-359.3536438087963
 20
-142.5801636827742
 30
0.0
 40
10.50000000000001
100
AcDbArc
 50
51.04523484459993
 51
102.5279054398
  0
ARC
  5
C0D8
330
A
100
AcDbEntity
  8
0
  6
Continuous
 62
     7
370
    15
100
AcDbCircle
 10
-359.3536438087963
 20
-142.5801636827742
 30
0.0
 40
10.5
100
AcDbArc
 50
257.4720945600999
 51
38.95476515539995
  0
LINE
  5
C0D9
330
A
100
AcDbEntity
  8
0
  6
Continuous
 62
     7
370
    15
100
AcDbLine
 10
-351.1883965173963
 20
-135.9787439172742
 30
0.0
 11
-350.9010704646963
 21
-135.9381387186742
 31
0.0
  0
LINE
  5
C0DA
330
A
100
AcDbEntity
  8
0
  6
Continuous
 62
     7
370
    15
100
AcDbLine
 10
-352.7116192916963
 20
-134.1275898915742
 30
0.0
 11
-352.7522249559963
 21
-134.4149168756742
 31
0.0
  0
LINE
  5
C0DB
330
A
100
AcDbEntity
  8
0
  6
Continuous
 62
     7
370
    15
100
AcDbLine
 10
-273.2728062609963
 20
-154.5801637870742
 30
0.0
 11
-273.3179418781963
 21
-154.5801637870742
 31
0.0
  0
SPLINE
  5
C0DC
330
A
100
AcDbEntity
  8
0
  6
Continuous
 62
     7
370
    15
100
AcDbSpline
210
0.0
220
0.0
230
1.0
 70
    24
 71
     3
 72
    14
 73
    10
 74
     0
 42
0.00000001
 43
0.00000001
 40
0.0
 40
0.0
 40
0.0
 40
0.0
 40
0.4999999999999998
 40
0.4999999999999998
 40
0.75
 40
0.75
 40
0.875
 40
0.875
 40
1.0
 40
1.0
 40
1.0
 40
1.0
 10
-367.8536438087689
 20
-132.330163682759
 30
0.0
 10
-368.5790872466755
 20
-132.330163682759
 30
0.0
 10
-369.3089213180975
 20
-132.330163682759
 30
0.0
 10
-370.5984985078885
 20
-132.330163682759
 30
0.0
 10
-371.0511223121138
 20
-132.330163682759
 30
0.0
 10
-371.7807347837292
 20
-132.330163682759
 30
0.0
 10
-372.031336673692
 20
-132.330163682759
 30
0.0
 10
-372.5354854422552
 20
-132.330163682759
 30
0.0
 10
-372.7907693735904
 20
-132.330163682759
 30
0.0
 10
-373.0497962314756
 20
-132.330163682759
 30
0.0
  0
CIRCLE
  5
C0DD
330
A
100
AcDbEntity
  8
0
  6
Continuous
 62
     7
370
    15
100
AcDbCircle
 10
-359.3536438087963
 20
-142.5801636827742
 30
0.0
 40
6.200000000000003
  0
LINE
  5
C0DE
330
A
100
AcDbEntity
  8
0
  6
Continuous
 62
     7
370
    15
100
AcDbLine
 10
-379.3536438087963
 20
-149.8301634741742
 30
0.0
 11
-379.3536438087963
 21
-112.8301629972742
 31
0.0
  0
LINE
  5
C0DF
330
A
100
AcDbEntity
  8
0
  6
Continuous
 62
     7
370
    15
100
AcDbLine
 10
-379.3536438087963
 20
-112.8301629972742
 30
0.0
 11
-377.8536437956963
 21
-112.8301629972742
 31
0.0
  0
ARC
  5
C0E0
330
A
100
AcDbEntity
  8
0
  6
Continuous
 62
     7
370
    15
100
AcDbCircle
 10
-377.8536438087963
 20
-115.8301636827742
 30
0.0
 40
3.0
100
AcDbArc
 50
0.0
 51
90.0
  0
LINE
  5
C0E1
330
A
100
AcDbEntity
  8
0
  6
Continuous
 62
     7
370
    15
100
AcDbLine
 10
-374.8536440024963
 20
-115.8301634890742
 30
0.0
 11
-374.8536440024963
 21
-131.3301632356742
 31
0.0
  0
ARC
  5
C0E2
330
A
100
AcDbEntity
  8
0
  6
Continuous
 62
     7
370
    15
100
AcDbCircle
 10
-373.8536438087963
 20
-131.3301636827742
 30
0.0
 40
1.0
100
AcDbArc
 50
180.0
 51
270.0
  0
LINE
  5
C0E3
330
A
100
AcDbEntity
  8
0
  6
Continuous
 62
     7
370
    15
100
AcDbLine
 10
-373.8536438385963
 20
-132.3301633996742
 30
0.0
 11
-373.0497960413963
 21
-132.3301633996742
 31
0.0
  0
LINE
  5
C0E4
330
A
100
AcDbEntity
  8
0
  6
Continuous
 62
     7
370
    15
100
AcDbLine
 10
-359.6036428997963
 20
-132.3301633996742
 30
0.0
 11
-367.8536437863963
 21
-132.3301633996742
 31
0.0
  0
ARC
  5
C0E5
330
A
100
AcDbEntity
  8
0
  6
Continuous
 62
     7
370
    15
100
AcDbCircle
 10
-359.6036438087963
 20
-142.5801636827742
 30
0.0
 40
10.25
100
AcDbArc
 50
0.0
 51
90.0
  0
ARC
  5
C0E6
330
A
100
AcDbEntity
  8
0
  6
Continuous
 62
     7
370
    15
100
AcDbCircle
 10
-359.6036438087963
 20
-142.5801636827742
 30
0.0
 40
10.25
100
AcDbArc
 50
270.0
 51
0.0
  0
LINE
  5
C0E7
330
A
100
AcDbEntity
  8
0
  6
Continuous
 62
     7
370
    15
100
AcDbLine
 10
-359.6036428997963
 20
-152.8301639658742
 30
0.0
 11
-379.3536438087963
 21
-152.8301639658742
 31
0.0
  0
LINE
  5
C0E8
330
A
100
AcDbEntity
  8
0
  6
Continuous
 62
     7
370
    15
100
AcDbLine
 10
-379.3536438087963
 20
-152.8301639658742
 30
0.0
 11
-379.3536438087963
 21
-149.8301634741742
 31
0.0
  0
LINE
  5
C0E9
330
A
100
AcDbEntity
  8
0
  6
Continuous
 62
     7
370
    15
100
AcDbLine
 10
-357.8153042534963
 20
-144.3026162627742
 30
0.0
 11
-357.0927860627963
 21
-142.1091482510742
 31
0.0
  0
LINE
  5
C0EA
330
A
100
AcDbEntity
  8
0
  6
Continuous
 62
     7
370
    15
100
AcDbLine
 10
-357.0927860627963
 20
-142.1091482510742
 30
0.0
 11
-358.6311260650963
 21
-140.3866957583742
 31
0.0
  0
LINE
  5
C0EB
330
A
100
AcDbEntity
  8
0
  6
Continuous
 62
     7
370
    15
100
AcDbLine
 10
-358.6311260650963
 20
-140.3866957583742
 30
0.0
 11
-360.8919842580963
 21
-140.8577111027742
 31
0.0
  0
LINE
  5
C0EC
330
A
100
AcDbEntity
  8
0
  6
Continuous
 62
     7
370
    15
100
AcDbLine
 10
-360.8919842580963
 20
-140.8577111027742
 30
0.0
 11
-361.6145024487963
 21
-143.0511791144742
 31
0.0
  0
LINE
  5
C0ED
330
A
100
AcDbEntity
  8
0
  6
Continuous
 62
     7
370
    15
100
AcDbLine
 10
-361.6145024487963
 20
-143.0511791144742
 30
0.0
 11
-360.0761605838963
 21
-144.7736316071742
 31
0.0
  0
LINE
  5
C0EE
330
A
100
AcDbEntity
  8
0
  6
Continuous
 62
     7
370
    15
100
AcDbLine
 10
-360.0761605838963
 20
-144.7736316071742
 30
0.0
 11
-357.8153042534963
 21
-144.3026162627742
 31
0.0
  0
CIRCLE
  5
C0EF
330
A
100
AcDbEntity
  8
0
  6
Continuous
 62
     7
370
    15
100
AcDbCircle
 10
-359.3536438087963
 20
-142.5801636827742
 30
0.0
 40
6.000000000000028
  0
LINE
  5
C0F0
330
A
100
AcDbEntity
  8
0
  6
Continuous
 62
     8
370
     0
100
AcDbLine
 10
-342.8536443451963
 20
-129.5801634145742
 30
0.0
 11
-342.8536443451963
 21
-130.5801635784742
 31
0.0
  0
LINE
  5
C0F1
330
A
100
AcDbEntity
  8
0
  6
Continuous
 62
     8
370
     0
100
AcDbLine
 10
-285.3536470273963
 20
-130.5801635784742
 30
0.0
 11
-285.3536470273963
 21
-129.5801634145742
 31
0.0
  0
LINE
  5
C0F2
330
A
100
AcDbEntity
  8
0
  6
Continuous
 62
     8
370
     0
100
AcDbLine
 10
-346.8536450008963
 20
-130.5801635784742
 30
0.0
 11
-346.8536450008963
 21
-129.5801634145742
 31
0.0
  0
LINE
  5
C0F3
330
A
100
AcDbEntity
  8
0
  6
Continuous
 62
     8
370
     0
100
AcDbLine
 10
-354.8536444494963
 20
-129.5801634145742
 30
0.0
 11
-354.8536444494963
 21
-130.5801635784742
 31
0.0
  0
LINE
  5
C0F4
330
A
100
AcDbEntity
  8
0
  6
Continuous
 62
     8
370
     0
100
AcDbLine
 10
-342.8536443451963
 20
-128.5801632506742
 30
0.0
 11
-342.8536443451963
 21
-129.5801634145742
 31
0.0
  0
LINE
  5
C0F5
330
A
100
AcDbEntity
  8
0
  6
Continuous
 62
     8
370
     0
100
AcDbLine
 10
-285.3536470273963
 20
-129.5801634145742
 30
0.0
 11
-285.3536470273963
 21
-128.5801632506742
 31
0.0
  0
LINE
  5
C0F6
330
A
100
AcDbEntity
  8
0
  6
Continuous
 62
     8
370
     0
100
AcDbLine
 10
-346.8536450008963
 20
-129.5801634145742
 30
0.0
 11
-346.8536450008963
 21
-128.5801632506742
 31
0.0
  0
LINE
  5
C0F7
330
A
100
AcDbEntity
  8
0
  6
Continuous
 62
     8
370
     0
100
AcDbLine
 10
-354.8536444494963
 20
-128.5801632506742
 30
0.0
 11
-354.8536444494963
 21
-129.5801634145742
 31
0.0
  0
LINE
  5
C0F8
330
A
100
AcDbEntity
  8
0
  6
Continuous
 62
     8
370
     0
100
AcDbLine
 10
-290.3477861026963
 20
-120.7801634621742
 30
0.0
 11
-290.3477861026963
 21
-121.5801639658742
 31
0.0
  0
LINE
  5
C0F9
330
A
100
AcDbEntity
  8
0
  6
Continuous
 62
     8
370
     0
100
AcDbLine
 10
-350.8536437938963
 20
-120.7801634621742
 30
0.0
 11
-350.8536437938963
 21
-121.5801639658742
 31
0.0
  0
LINE
  5
C0FA
330
A
100
AcDbEntity
  8
0
  6
Continuous
 62
     8
370
     0
100
AcDbLine
 10
-273.2644988635963
 20
-121.5801639658742
 30
0.0
 11
-273.2644988635963
 21
-120.7801634621742
 31
0.0
  0
LINE
  5
C0FB
330
A
100
AcDbEntity
  8
0
  6
Continuous
 62
     8
370
     0
100
AcDbLine
 10
-285.3590710500963
 20
-120.7801634621742
 30
0.0
 11
-285.3590710500963
 21
-114.7801643413742
 31
0.0
  0
LINE
  5
C0FC
330
A
100
AcDbEntity
  8
0
  6
Continuous
 62
     8
370
     0
100
AcDbLine
 10
-285.3536470273963
 20
-146.5149698955742
 30
0.0
 11
-285.3536470273963
 21
-130.5801635784742
 31
0.0
  0
LINE
  5
C0FD
330
A
100
AcDbEntity
  8
0
  6
Continuous
 62
     8
370
     0
100
AcDbLine
 10
-367.8536437863963
 20
-132.3301633996742
 30
0.0
 11
-367.8536437863963
 21
-135.3301638913742
 31
0.0
  0
ARC
  5
C0FE
330
A
100
AcDbEntity
  8
0
  6
Continuous
 62
     8
370
     0
100
AcDbCircle
 10
-367.8536438087963
 20
-129.3301636827742
 30
0.0
 40
6.000000000000025
100
AcDbArc
 50
210.0
 51
270.0
  0
LINE
  5
C0FF
330
A
100
AcDbEntity
  8
0
  6
Continuous
 62
     8
370
     0
100
AcDbLine
 10
-359.6036428997963
 20
-135.3301638913742
 30
0.0
 11
-367.8536437863963
 21
-135.3301638913742
 31
0.0
  0
ARC
  5
C100
330
A
100
AcDbEntity
  8
0
  6
Continuous
 62
     8
370
     0
100
AcDbCircle
 10
-359.6036438087963
 20
-142.5801636827742
 30
0.0
 40
7.250000000000007
100
AcDbArc
 50
270.0
 51
90.0
  0
LINE
  5
C101
330
A
100
AcDbEntity
  8
0
  6
Continuous
 62
     8
370
     0
100
AcDbLine
 10
-359.6036428997963
 20
-149.8301634741742
 30
0.0
 11
-379.3536438087963
 21
-149.8301634741742
 31
0.0
  0
LINE
  5
C102
330
A
100
AcDbEntity
  8
0
  6
Continuous
 62
     8
370
     0
100
AcDbLine
 10
-359.6036428997963
 20
-132.3301633996742
 30
0.0
 11
-359.6036428997963
 21
-135.3301638913742
 31
0.0
  0
LINE
  5
C103
330
A
100
AcDbEntity
  8
0
  6
Continuous
 62
     8
370
     0
100
AcDbLine
 10
-359.6036428997963
 20
-152.8301639658742
 30
0.0
 11
-359.6036428997963
 21
-149.8301634741742
 31
0.0
  0
INSERT
  5
C104
330
A
100
AcDbEntity
  8
0
  6
Continuous
 62
     7
370
     0
100
AcDbBlockReference
  2
SW_CENTERMARKSYMBOL_2
 10
-359.3536438087963
 20
-142.5801636827742
 30
0.0
  0
LINE
  5
C105
330
A
100
AcDbEntity
  8
0
  6
Continuous
 62
     7
370
    15
100
AcDbLine
 10
-352.6698774138963
 20
49.47125951142579
 30
0.0
 11
-351.4340477476963
 21
48.2354289139258
 31
0.0
  0
LINE
  5
C106
330
A
100
AcDbEntity
  8
0
  6
Continuous
 62
     7
370
    15
100
AcDbLine
 10
-350.0198344180963
 20
49.64964317472578
 30
0.0
 11
-351.2556640843963
 21
50.8854728410258
 31
0.0
  0
LINE
  5
C107
330
A
100
AcDbEntity
  8
0
  6
Continuous
 62
     7
370
    15
100
AcDbLine
 10
-351.4340477476963
 20
48.2354289139258
 30
0.0
 11
-351.0097837487963
 21
48.2354289139258
 31
0.0
  0
LINE
  5
C108
330
A
100
AcDbEntity
  8
0
  6
Continuous
 62
     7
370
    15
100
AcDbLine
 10
-350.0198344180963
 20
49.22537917592578
 30
0.0
 11
-350.0198344180963
 21
49.64964317472578
 31
0.0
  0
LINE
  5
C109
330
A
100
AcDbEntity
  8
0
  6
Continuous
 62
     7
370
    15
100
AcDbLine
 10
-332.3536454180963
 20
36.5692390347258
 30
0.0
 11
-332.3536454180963
 21
37.4192385221258
 31
0.0
  0
LINE
  5
C10A
330
A
100
AcDbEntity
  8
0
  6
Continuous
 62
     7
370
    15
100
AcDbLine
 10
-338.3536426762963
 20
37.4192385221258
 30
0.0
 11
-338.3536426762963
 21
36.5692390347258
 31
0.0
  0
LINE
  5
C10B
330
A
100
AcDbEntity
  8
0
  6
Continuous
 62
     7
370
    15
100
AcDbLine
 10
-284.3536450008963
 20
36.5692390347258
 30
0.0
 11
-284.3536450008963
 21
37.4192385221258
 31
0.0
  0
LINE
  5
C10C
330
A
100
AcDbEntity
  8
0
  6
Continuous
 62
     7
370
    15
100
AcDbLine
 10
-290.3536422590963
 20
37.4192385221258
 30
0.0
 11
-290.3536422590963
 21
36.5692390347258
 31
0.0
  0
LINE
  5
C10D
330
A
100
AcDbEntity
  8
0
  6
Continuous
 62
     7
370
    15
100
AcDbLine
 10
-277.8536467293963
 20
38.61923834622579
 30
0.0
 11
-277.8536467293963
 21
43.56923831942578
 31
0.0
  0
LINE
  5
C10E
330
A
100
AcDbEntity
  8
0
  6
Continuous
 62
     7
370
    15
100
AcDbLine
 10
-296.8536405304962
 20
43.56923831942578
 30
0.0
 11
-296.8536405304962
 21
38.61923834622579
 31
0.0
  0
LINE
  5
C10F
330
A
100
AcDbEntity
  8
0
  6
Continuous
 62
     7
370
    15
100
AcDbLine
 10
-325.8536434212963
 20
38.56923936252579
 30
0.0
 11
-325.8536434212963
 21
43.56923831942578
 31
0.0
  0
LINE
  5
C110
330
A
100
AcDbEntity
  8
0
  6
Continuous
 62
     7
370
    15
100
AcDbLine
 10
-344.8536446729963
 20
43.56923831942578
 30
0.0
 11
-344.8536446729963
 21
38.56923936252579
 31
0.0
  0
LINE
  5
C111
330
A
100
AcDbEntity
  8
0
  6
Continuous
 62
     7
370
    15
100
AcDbLine
 10
-295.2536432484963
 20
38.61923834622579
 30
0.0
 11
-295.2536432484963
 21
38.41923868602578
 31
0.0
  0
LINE
  5
C112
330
A
100
AcDbEntity
  8
0
  6
Continuous
 62
     7
370
    15
100
AcDbLine
 10
-279.4536440113962
 20
38.41923868602578
 30
0.0
 11
-279.4536440113962
 21
38.61923834622579
 31
0.0
  0
LINE
  5
C113
330
A
100
AcDbEntity
  8
0
  6
Continuous
 62
     7
370
    15
100
AcDbLine
 10
-295.2536432484963
 20
38.41923868602578
 30
0.0
 11
-294.2536412218963
 21
37.4192385221258
 31
0.0
  0
LINE
  5
C114
330
A
100
AcDbEntity
  8
0
  6
Continuous
 62
     7
370
    15
100
AcDbLine
 10
-280.4536460379963
 20
37.4192385221258
 30
0.0
 11
-279.4536440113962
 21
38.41923868602578
 31
0.0
  0
LINE
  5
C115
330
A
100
AcDbEntity
  8
0
  6
Continuous
 62
     7
370
    15
100
AcDbLine
 10
-343.2536436656963
 20
38.56923936252579
 30
0.0
 11
-343.2536436656963
 21
38.41923868602578
 31
0.0
  0
LINE
  5
C116
330
A
100
AcDbEntity
  8
0
  6
Continuous
 62
     7
370
    15
100
AcDbLine
 10
-327.4536444286963
 20
38.41923868602578
 30
0.0
 11
-327.4536444286963
 21
38.56923936252579
 31
0.0
  0
LINE
  5
C117
330
A
100
AcDbEntity
  8
0
  6
Continuous
 62
     7
370
    15
100
AcDbLine
 10
-343.2536436656963
 20
38.41923868602578
 30
0.0
 11
-342.2536453644963
 21
37.4192385221258
 31
0.0
  0
LINE
  5
C118
330
A
100
AcDbEntity
  8
0
  6
Continuous
 62
     7
370
    15
100
AcDbLine
 10
-328.4536427298963
 20
37.4192385221258
 30
0.0
 11
-327.4536444286963
 21
38.41923868602578
 31
0.0
  0
SPLINE
  5
C119
330
A
100
AcDbEntity
  8
0
  6
Continuous
 62
     7
370
    15
100
AcDbSpline
210
0.0
220
0.0
230
1.0
 70
     8
 71
     3
 72
    15
 73
    11
 74
     0
 42
0.00000001
 43
0.00000001
 40
0.0
 40
0.0
 40
0.0
 40
0.0
 40
0.0279445367706071
 40
0.1682356475107896
 40
0.3100385139676333
 40
0.4511225514031985
 40
0.5908794031837812
 40
0.7290317852080834
 40
0.8654177628837187
 40
1.0
 40
1.0
 40
1.0
 40
1.0
 10
-265.3756602148282
 20
62.53014870306089
 30
0.0
 10
-265.4118248358699
 20
62.62531595293518
 30
0.0
 10
-265.6295481958199
 20
63.19825527326987
 30
0.0
 10
-266.1966060899876
 20
64.18275297956637
 30
0.0
 10
-267.0770919479347
 20
65.4491940582339
 30
0.0
 10
-268.1196226194048
 20
66.5880933290627
 30
0.0
 10
-269.2795242866402
 20
67.58482381837712
 30
0.0
 10
-270.5396482846112
 20
68.4199988283911
 30
0.0
 10
-271.870897779014
 20
69.10172629952132
 30
0.0
 10
-272.8075818262769
 20
69.41409444557121
 30
0.0
 10
-273.2728062609899
 20
69.56923885589077
 30
0.0
  0
LINE
  5
C11A
330
A
100
AcDbEntity
  8
0
  6
Continuous
 62
     7
370
    15
100
AcDbLine
 10
-284.3536450008963
 20
36.5692390347258
 30
0.0
 11
-284.3536450008963
 21
37.4192385221258
 31
0.0
  0
LINE
  5
C11B
330
A
100
AcDbEntity
  8
0
  6
Continuous
 62
     7
370
    15
100
AcDbLine
 10
-290.3536422590963
 20
37.4192385221258
 30
0.0
 11
-290.3536422590963
 21
36.5692390347258
 31
0.0
  0
LINE
  5
C11C
330
A
100
AcDbEntity
  8
0
  6
Continuous
 62
     7
370
    15
100
AcDbLine
 10
-332.3536454180963
 20
36.5692390347258
 30
0.0
 11
-332.3536454180963
 21
37.4192385221258
 31
0.0
  0
LINE
  5
C11D
330
A
100
AcDbEntity
  8
0
  6
Continuous
 62
     7
370
    15
100
AcDbLine
 10
-338.3536426762963
 20
37.4192385221258
 30
0.0
 11
-338.3536426762963
 21
36.5692390347258
 31
0.0
  0
LWPOLYLINE
  5
C11E
330
A
100
AcDbEntity
  8
0
  6
Continuous
 62
     7
370
    15
100
AcDbPolyline
 90
       10
 70
   128
 43
0.0
 10
-351.4340477476963
 20
48.2354289139258
 10
-351.4340104947963
 20
48.2354661668258
 10
-351.3774177471963
 20
48.29205984572579
 10
-351.2217956075963
 20
48.44768198522578
 10
-350.9908350596963
 20
48.6786416018258
 10
-350.7197009811963
 20
48.94977661172578
 10
-350.4496677259963
 20
49.2198089355258
 10
-350.2218475977963
 20
49.44762906382579
 10
-350.0709230492963
 20
49.59855361232579
 10
-350.0198344180963
 20
49.64964317472578
  0
LWPOLYLINE
  5
C11F
330
A
100
AcDbEntity
  8
0
  6
Continuous
 62
     7
370
    15
100
AcDbPolyline
 90
       10
 70
   128
 43
0.0
 10
-350.0198344180963
 20
49.22537917592578
 10
-350.0555972049963
 20
49.18961638902579
 10
-350.1612445751963
 20
49.0839690188258
 10
-350.3207186648963
 20
48.9244949290258
 10
-350.5097417572963
 20
48.73547183672579
 10
-350.6995359847963
 20
48.54567760922581
 10
-350.8612061331963
 20
48.3840055982258
 10
-350.9701429346963
 20
48.2750706592258
 10
-351.0097576717963
 20
48.2354549909258
 10
-351.0097837487963
 20
48.2354289139258
  0
ARC
  5
C120
330
A
100
AcDbEntity
  8
0
  6
Continuous
 62
     7
370
    15
100
AcDbCircle
 10
-359.3536438087963
 20
57.56923875162579
 30
0.0
 40
10.50000000000003
100
AcDbArc
 50
257.4720945600999
 51
102.5279054399001
  0
LINE
  5
C121
330
A
100
AcDbEntity
  8
0
  6
Continuous
 62
     7
370
    15
100
AcDbLine
 10
-266.3536457756963
 20
45.5692386472258
 30
0.0
 11
-266.3536457756963
 21
44.56923848332579
 31
0.0
  0
LINE
  5
C122
330
A
100
AcDbEntity
  8
0
  6
Continuous
 62
     7
370
    15
100
AcDbLine
 10
-285.3536470273963
 20
45.5692386472258
 30
0.0
 11
-266.3536457756963
 21
45.5692386472258
 31
0.0
  0
LINE
  5
C123
330
A
100
AcDbEntity
  8
0
  6
Continuous
 62
     7
370
    15
100
AcDbLine
 10
-285.3536470273963
 20
44.56923848332579
 30
0.0
 11
-266.3536457756963
 21
44.56923848332579
 31
0.0
  0
LINE
  5
C124
330
A
100
AcDbEntity
  8
0
  6
Continuous
 62
     7
370
    15
100
AcDbLine
 10
-342.8536443451963
 20
44.56923848332579
 30
0.0
 11
-285.3536470273963
 21
44.56923848332579
 31
0.0
  0
LINE
  5
C125
330
A
100
AcDbEntity
  8
0
  6
Continuous
 62
     7
370
    15
100
AcDbLine
 10
-344.8536446729963
 20
44.56923848332579
 30
0.0
 11
-344.8536446729963
 21
45.5692386472258
 31
0.0
  0
LINE
  5
C126
330
A
100
AcDbEntity
  8
0
  6
Continuous
 62
     7
370
    15
100
AcDbLine
 10
-342.8536443451963
 20
44.56923848332579
 30
0.0
 11
-344.8536446729963
 21
44.56923848332579
 31
0.0
  0
LINE
  5
C127
330
A
100
AcDbEntity
  8
0
  6
Continuous
 62
     7
370
    15
100
AcDbLine
 10
-344.8536446729963
 20
44.56923848332579
 30
0.0
 11
-346.8536450008963
 21
44.56923848332579
 31
0.0
  0
LINE
  5
C128
330
A
100
AcDbEntity
  8
0
  6
Continuous
 62
     7
370
    15
100
AcDbLine
 10
-354.8536444494963
 20
44.56923848332579
 30
0.0
 11
-346.8536450008963
 21
44.56923848332579
 31
0.0
  0
LINE
  5
C129
330
A
100
AcDbEntity
  8
0
  6
Continuous
 62
     7
370
    15
100
AcDbLine
 10
-356.8536429146963
 20
44.56923848332579
 30
0.0
 11
-356.8536429146963
 21
45.5692386472258
 31
0.0
  0
LINE
  5
C12A
330
A
100
AcDbEntity
  8
0
  6
Continuous
 62
     7
370
    15
100
AcDbLine
 10
-354.8536444494963
 20
44.56923848332579
 30
0.0
 11
-356.8536429146963
 21
44.56923848332579
 31
0.0
  0
LINE
  5
C12B
330
A
100
AcDbEntity
  8
0
  6
Continuous
 62
     7
370
    15
100
AcDbLine
 10
-266.3536457756963
 20
44.56923848332579
 30
0.0
 11
-266.3536457756963
 21
43.56923831942578
 31
0.0
  0
LINE
  5
C12C
330
A
100
AcDbEntity
  8
0
  6
Continuous
 62
     7
370
    15
100
AcDbLine
 10
-285.3536470273963
 20
43.56923831942578
 30
0.0
 11
-266.3536457756963
 21
43.56923831942578
 31
0.0
  0
LINE
  5
C12D
330
A
100
AcDbEntity
  8
0
  6
Continuous
 62
     7
370
    15
100
AcDbLine
 10
-342.8536443451963
 20
43.56923831942578
 30
0.0
 11
-285.3536470273963
 21
43.56923831942578
 31
0.0
  0
LINE
  5
C12E
330
A
100
AcDbEntity
  8
0
  6
Continuous
 62
     7
370
    15
100
AcDbLine
 10
-344.8536446729963
 20
43.56923831942578
 30
0.0
 11
-344.8536446729963
 21
44.56923848332579
 31
0.0
  0
LINE
  5
C12F
330
A
100
AcDbEntity
  8
0
  6
Continuous
 62
     7
370
    15
100
AcDbLine
 10
-342.8536443451963
 20
43.56923831942578
 30
0.0
 11
-344.8536446729963
 21
43.56923831942578
 31
0.0
  0
LINE
  5
C130
330
A
100
AcDbEntity
  8
0
  6
Continuous
 62
     7
370
    15
100
AcDbLine
 10
-344.8536446729963
 20
43.56923831942578
 30
0.0
 11
-346.8536450008963
 21
43.56923831942578
 31
0.0
  0
LINE
  5
C131
330
A
100
AcDbEntity
  8
0
  6
Continuous
 62
     7
370
    15
100
AcDbLine
 10
-354.8536444494963
 20
43.56923831942578
 30
0.0
 11
-346.8536450008963
 21
43.56923831942578
 31
0.0
  0
LINE
  5
C132
330
A
100
AcDbEntity
  8
0
  6
Continuous
 62
     7
370
    15
100
AcDbLine
 10
-356.8536429146963
 20
43.56923831942578
 30
0.0
 11
-356.8536429146963
 21
44.56923848332579
 31
0.0
  0
LINE
  5
C133
330
A
100
AcDbEntity
  8
0
  6
Continuous
 62
     7
370
    15
100
AcDbLine
 10
-354.8536444494963
 20
43.56923831942578
 30
0.0
 11
-356.8536429146963
 21
43.56923831942578
 31
0.0
  0
LINE
  5
C134
330
A
100
AcDbEntity
  8
0
  6
Continuous
 62
     7
370
    15
100
AcDbLine
 10
-273.2644988635963
 20
36.5692390347258
 30
0.0
 11
-290.3477861026963
 21
36.5692390347258
 31
0.0
  0
LINE
  5
C135
330
A
100
AcDbEntity
  8
0
  6
Continuous
 62
     7
370
    15
100
AcDbLine
 10
-290.3477861026963
 20
36.5692390347258
 30
0.0
 11
-350.8536437938963
 21
36.5692390347258
 31
0.0
  0
LINE
  5
C136
330
A
100
AcDbEntity
  8
0
  6
Continuous
 62
     7
370
    15
100
AcDbLine
 10
-352.8536441216963
 20
35.76923853102579
 30
0.0
 11
-352.8536441216963
 21
36.5692390347258
 31
0.0
  0
LINE
  5
C137
330
A
100
AcDbEntity
  8
0
  6
Continuous
 62
     7
370
    15
100
AcDbLine
 10
-352.8536441216963
 20
36.5692390347258
 30
0.0
 11
-350.8536437938963
 21
36.5692390347258
 31
0.0
  0
LINE
  5
C138
330
A
100
AcDbEntity
  8
0
  6
Continuous
 62
     7
370
    15
100
AcDbLine
 10
-272.8536440471963
 20
36.5692390347258
 30
0.0
 11
-272.8536440471963
 21
35.76923853102579
 31
0.0
  0
LINE
  5
C139
330
A
100
AcDbEntity
  8
0
  6
Continuous
 62
     7
370
    15
100
AcDbLine
 10
-273.2644988635963
 20
36.5692390347258
 30
0.0
 11
-272.8536440471963
 21
36.5692390347258
 31
0.0
  0
LINE
  5
C13A
330
A
100
AcDbEntity
  8
0
  6
Continuous
 62
     7
370
    15
100
AcDbLine
 10
-277.8536467293963
 20
38.61923834622579
 30
0.0
 11
-296.8536405304962
 21
38.61923834622579
 31
0.0
  0
LINE
  5
C13B
330
A
100
AcDbEntity
  8
0
  6
Continuous
 62
     7
370
    15
100
AcDbLine
 10
-325.8536434212963
 20
38.56923936252579
 30
0.0
 11
-344.8536446729963
 21
38.56923936252579
 31
0.0
  0
LINE
  5
C13C
330
A
100
AcDbEntity
  8
0
  6
Continuous
 62
     7
370
    15
100
AcDbLine
 10
-295.2536432484963
 20
38.41923868602578
 30
0.0
 11
-279.4536440113962
 21
38.41923868602578
 31
0.0
  0
LINE
  5
C13D
330
A
100
AcDbEntity
  8
0
  6
Continuous
 62
     7
370
    15
100
AcDbLine
 10
-280.4536460379963
 20
37.4192385221258
 30
0.0
 11
-294.2536412218963
 21
37.4192385221258
 31
0.0
  0
LINE
  5
C13E
330
A
100
AcDbEntity
  8
0
  6
Continuous
 62
     7
370
    15
100
AcDbLine
 10
-343.2536436656963
 20
38.41923868602578
 30
0.0
 11
-327.4536444286963
 21
38.41923868602578
 31
0.0
  0
LINE
  5
C13F
330
A
100
AcDbEntity
  8
0
  6
Continuous
 62
     7
370
    15
100
AcDbLine
 10
-328.4536427298963
 20
37.4192385221258
 30
0.0
 11
-342.2536453644963
 21
37.4192385221258
 31
0.0
  0
LINE
  5
C140
330
A
100
AcDbEntity
  8
0
  6
Continuous
 62
     7
370
    15
100
AcDbLine
 10
-265.3590677717963
 20
35.76923853102579
 30
0.0
 11
-265.3590677717963
 21
29.76923941022579
 31
0.0
  0
LINE
  5
C141
330
A
100
AcDbEntity
  8
0
  6
Continuous
 62
     7
370
    15
100
AcDbLine
 10
-265.3590677717963
 20
29.76923941022579
 30
0.0
 11
-285.3590710500963
 21
29.76923941022579
 31
0.0
  0
LINE
  5
C142
330
A
100
AcDbEntity
  8
0
  6
Continuous
 62
     7
370
    15
100
AcDbLine
 10
-285.3590710500963
 20
35.76923853102579
 30
0.0
 11
-265.3590677717963
 21
35.76923853102579
 31
0.0
  0
LINE
  5
C143
330
A
100
AcDbEntity
  8
0
  6
Continuous
 62
     7
370
    15
100
AcDbLine
 10
-358.8590709904963
 20
29.76923941022579
 30
0.0
 11
-358.8590709904963
 21
35.76923853102579
 31
0.0
  0
LINE
  5
C144
330
A
100
AcDbEntity
  8
0
  6
Continuous
 62
     7
370
    15
100
AcDbLine
 10
-358.8590709904963
 20
29.76923941022579
 30
0.0
 11
-285.3590710500963
 21
29.76923941022579
 31
0.0
  0
LINE
  5
C145
330
A
100
AcDbEntity
  8
0
  6
Continuous
 62
     7
370
    15
100
AcDbLine
 10
-358.8590709904963
 20
35.76923853102579
 30
0.0
 11
-285.3590710500963
 21
35.76923853102579
 31
0.0
  0
LINE
  5
C146
330
A
100
AcDbEntity
  8
0
  6
Continuous
 62
     7
370
    15
100
AcDbLine
 10
-265.3536437491963
 20
45.5692386472258
 30
0.0
 11
-285.3536470273963
 21
45.5692386472258
 31
0.0
  0
SPLINE
  5
C147
330
A
100
AcDbEntity
  8
0
  6
Continuous
 62
     7
370
    15
100
AcDbSpline
210
0.0
220
0.0
230
1.0
 70
     8
 71
     3
 72
    10
 73
     6
 74
     0
 42
0.00000001
 43
0.00000001
 40
0.0
 40
0.0
 40
0.0
 40
0.0
 40
0.3784827591352652
 40
0.7681499731663298
 40
1.0
 40
1.0
 40
1.0
 40
1.0
 10
-285.3536470274198
 20
61.50404496436551
 30
0.0
 10
-285.0035088518929
 20
61.44342845138888
 30
0.0
 10
-284.2928856500592
 20
61.32040416113369
 30
0.0
 10
-283.350206613624
 20
61.34930754953669
 30
0.0
 10
-282.7815812295502
 20
61.452174435411
 30
0.0
 10
-282.5694619158971
 20
61.49054777195289
 30
0.0
  0
SPLINE
  5
C148
330
A
100
AcDbEntity
  8
0
  6
Continuous
 62
     7
370
    15
100
AcDbSpline
210
0.0
220
0.0
230
1.0
 70
     8
 71
     3
 72
    22
 73
    18
 74
     0
 42
0.00000001
 43
0.00000001
 40
0.0
 40
0.0
 40
0.0
 40
0.0
 40
0.1057360987963624
 40
0.2140288585050557
 40
0.2717300254807908
 40
0.3294312159404049
 40
0.3888127063036926
 40
0.4481943707352821
 40
0.5058307890255422
 40
0.5634673167755168
 40
0.6227740366523635
 40
0.6820806937816737
 40
0.739798302919728
 40
0.7975158631862612
 40
0.856897942599963
 40
0.9162800744366864
 40
1.0
 40
1.0
 40
1.0
 40
1.0
 10
-265.3537704090344
 20
62.5043608466311
 30
0.0
 10
-265.4012665430605
 20
62.55977873669238
 30
0.0
 10
-265.4974072505835
 20
62.67195450150319
 30
0.0
 10
-266.1200768835274
 20
62.74670924998171
 30
0.0
 10
-266.8508439703911
 20
62.7783509290347
 30
0.0
 10
-267.5520130672131
 20
62.78479284055848
 30
0.0
 10
-268.3850628472093
 20
62.77311154398478
 30
0.0
 10
-269.3384718474408
 20
62.74287959759428
 30
0.0
 10
-270.3941388763366
 20
62.69467792635498
 30
0.0
 10
-271.550920400416
 20
62.62839233948259
 30
0.0
 10
-272.8155679395375
 20
62.54256148980929
 30
0.0
 10
-274.1685384936318
 20
62.43718017677929
 30
0.0
 10
-275.5861331116524
 20
62.3130226507474
 30
0.0
 10
-277.0692173023692
 20
62.16889573693228
 30
0.0
 10
-278.6233030600903
 20
62.00124803347379
 30
0.0
 10
-280.4562872951877
 20
61.7850801952043
 30
0.0
 10
-281.789489800158
 20
61.5992596006233
 30
0.0
 10
-282.5694619158971
 20
61.49054777195289
 30
0.0
  0
LINE
  5
C149
330
A
100
AcDbEntity
  8
0
  6
Continuous
 62
     7
370
    15
100
AcDbLine
 10
-265.3536437491963
 20
62.5040693426258
 30
0.0
 11
-265.3537704089963
 21
62.50436084662579
 31
0.0
  0
LINE
  5
C14A
330
A
100
AcDbEntity
  8
0
  6
Continuous
 62
     7
370
    15
100
AcDbLine
 10
-265.3536437491963
 20
62.5040693426258
 30
0.0
 11
-265.3536437491963
 21
45.5692386472258
 31
0.0
  0
LINE
  5
C14B
330
A
100
AcDbEntity
  8
0
  6
Continuous
 62
     7
370
    15
100
AcDbLine
 10
-282.5694619158963
 20
69.56923885592579
 30
0.0
 11
-282.5694619158963
 21
61.4905477719258
 31
0.0
  0
SPLINE
  5
C14C
330
A
100
AcDbEntity
  8
0
  6
Continuous
 62
     7
370
    15
100
AcDbSpline
210
0.0
220
0.0
230
1.0
 70
     8
 71
     3
 72
    14
 73
    10
 74
     0
 42
0.00000001
 43
0.00000001
 40
0.0
 40
0.0
 40
0.0
 40
0.0
 40
0.1014866722672231
 40
0.203006791200453
 40
0.304877543909252
 40
0.4067512659176415
 40
0.555010473705732
 40
0.7032986791872111
 40
1.0
 40
1.0
 40
1.0
 40
1.0
 10
-285.3536470274198
 20
61.50404496436551
 30
0.0
 10
-287.3905664163443
 20
61.90341447294179
 30
0.0
 10
-291.4650764957639
 20
62.70228510913608
 30
0.0
 10
-297.6439373667089
 20
63.54906561771952
 30
0.0
 10
-303.8398854976449
 20
64.30640913627798
 30
0.0
 10
-311.00010566313
 20
65.04789669292842
 30
0.0
 10
-319.1152975918758
 20
65.77180813412701
 30
0.0
 10
-331.2115871250505
 20
66.69750723909038
 30
0.0
 10
-340.2963112208928
 20
67.2205166504238
 30
0.0
 10
-346.3536439875829
 20
67.56923852806517
 30
0.0
  0
LINE
  5
C14D
330
A
100
AcDbEntity
  8
0
  6
Continuous
 62
     7
370
    15
100
AcDbLine
 10
-346.3536439875963
 20
69.56923885592579
 30
0.0
 11
-346.3536439875963
 21
67.56923852802578
 31
0.0
  0
LINE
  5
C14E
330
A
100
AcDbEntity
  8
0
  6
Continuous
 62
     7
370
    15
100
AcDbLine
 10
-282.5694619158963
 20
69.56923885592579
 30
0.0
 11
-346.3536439875963
 21
69.56923885592579
 31
0.0
  0
LINE
  5
C14F
330
A
100
AcDbEntity
  8
0
  6
Continuous
 62
     7
370
    15
100
AcDbLine
 10
-346.3536439875963
 20
45.5692386472258
 30
0.0
 11
-346.3536439875963
 21
67.56923852802578
 31
0.0
  0
LINE
  5
C150
330
A
100
AcDbEntity
  8
0
  6
Continuous
 62
     7
370
    15
100
AcDbLine
 10
-285.3536470273963
 20
45.5692386472258
 30
0.0
 11
-346.3536439875963
 21
45.5692386472258
 31
0.0
  0
LINE
  5
C151
330
A
100
AcDbEntity
  8
0
  6
Continuous
 62
     7
370
    15
100
AcDbLine
 10
-282.5694619158963
 20
69.56923885592579
 30
0.0
 11
-273.2728062609963
 21
69.56923885592579
 31
0.0
  0
LINE
  5
C152
330
A
100
AcDbEntity
  8
0
  6
Continuous
 62
     7
370
    15
100
AcDbLine
 10
-371.8536439763963
 20
46.76923847142578
 30
0.0
 11
-371.8536439763963
 21
47.31923846842579
 31
0.0
  0
ARC
  5
C153
330
A
100
AcDbEntity
  8
0
  6
Continuous
 62
     7
370
    15
100
AcDbCircle
 10
-359.3536438087963
 20
58.06923875162579
 30
0.0
 40
12.50000000000001
100
AcDbArc
 50
113.0739180656001
 51
128.7394245978998
  0
LINE
  5
C154
330
A
100
AcDbEntity
  8
0
  6
Continuous
 62
     7
370
    15
100
AcDbLine
 10
-358.8536432424963
 20
46.76923847142578
 30
0.0
 11
-358.8536432424963
 21
45.5692386472258
 31
0.0
  0
LINE
  5
C155
330
A
100
AcDbEntity
  8
0
  6
Continuous
 62
     7
370
    15
100
AcDbLine
 10
-371.8536439763963
 20
46.76923847142578
 30
0.0
 11
-358.8536432424963
 21
46.76923847142578
 31
0.0
  0
ARC
  5
C156
330
A
100
AcDbEntity
  8
0
  6
Continuous
 62
     7
370
    15
100
AcDbCircle
 10
-351.2536438087963
 20
49.4692387516258
 30
0.0
 40
1.500000000000004
100
AcDbArc
 50
193.5945285417995
 51
76.40547145810099
  0
ARC
  5
C157
330
A
100
AcDbEntity
  8
0
  6
Continuous
 62
     7
370
    15
100
AcDbCircle
 10
-359.3536438087963
 20
57.56923875162579
 30
0.0
 40
10.74999999999999
100
AcDbArc
 50
252.4564995273001
 51
308.1602303516001
  0
ARC
  5
C158
330
A
100
AcDbEntity
  8
0
  6
Continuous
 62
     7
370
    15
100
AcDbCircle
 10
-359.3536438087963
 20
57.56923875162579
 30
0.0
 40
10.75000000000004
100
AcDbArc
 50
321.8397696484
 51
107.5435004727001
  0
LINE
  5
C159
330
A
100
AcDbEntity
  8
0
  6
Continuous
 62
     7
370
    15
100
AcDbLine
 10
-346.3536439875963
 20
69.56923885592579
 30
0.0
 11
-364.2526235843963
 21
69.56923885592579
 31
0.0
  0
LINE
  5
C15A
330
A
100
AcDbEntity
  8
0
  6
Continuous
 62
     7
370
    15
100
AcDbLine
 10
-346.3536439875963
 20
45.5692386472258
 30
0.0
 11
-358.8536432424963
 21
45.5692386472258
 31
0.0
  0
LINE
  5
C15B
330
A
100
AcDbEntity
  8
0
  6
Continuous
 62
     7
370
    15
100
AcDbLine
 10
-350.9010704646963
 20
50.9272137875258
 30
0.0
 11
-351.1883965173963
 21
50.96781898612579
 31
0.0
  0
ARC
  5
C15C
330
A
100
AcDbEntity
  8
0
  6
Continuous
 62
     7
370
    15
100
AcDbCircle
 10
-359.3536438087963
 20
57.56923875162579
 30
0.0
 40
10.50000000000002
100
AcDbArc
 50
321.0452348445999
 51
102.5279054399001
  0
ARC
  5
C15D
330
A
100
AcDbEntity
  8
0
  6
Continuous
 62
     7
370
    15
100
AcDbCircle
 10
-359.3536438087963
 20
57.56923875162579
 30
0.0
 40
10.49999999999998
100
AcDbArc
 50
257.4720945600999
 51
308.9547651554001
  0
LINE
  5
C15E
330
A
100
AcDbEntity
  8
0
  6
Continuous
 62
     7
370
    15
100
AcDbLine
 10
-352.7522249559963
 20
49.40399194452579
 30
0.0
 11
-352.7116192916963
 21
49.11666496042579
 31
0.0
  0
SPLINE
  5
C15F
330
A
100
AcDbEntity
  8
0
  6
Continuous
 62
     7
370
    15
100
AcDbSpline
210
0.0
220
0.0
230
1.0
 70
    24
 71
     3
 72
    14
 73
    10
 74
     0
 42
0.00000001
 43
0.00000001
 40
0.0
 40
0.0
 40
0.0
 40
0.0
 40
0.4999999999999998
 40
0.4999999999999998
 40
0.75
 40
0.75
 40
0.875
 40
0.875
 40
1.0
 40
1.0
 40
1.0
 40
1.0
 10
-367.8536438087689
 20
47.3192387515827
 30
0.0
 10
-368.5790872466755
 20
47.3192387515827
 30
0.0
 10
-369.3089213180975
 20
47.3192387515827
 30
0.0
 10
-370.5984985078885
 20
47.3192387515827
 30
0.0
 10
-371.0511223121138
 20
47.3192387515827
 30
0.0
 10
-371.7807347837292
 20
47.3192387515827
 30
0.0
 10
-372.031336673692
 20
47.3192387515827
 30
0.0
 10
-372.5354854422552
 20
47.3192387515827
 30
0.0
 10
-372.7907693735904
 20
47.3192387515827
 30
0.0
 10
-373.0497962314756
 20
47.3192387515827
 30
0.0
  0
ARC
  5
C160
330
A
100
AcDbEntity
  8
0
  6
Continuous
 62
     7
370
    15
100
AcDbCircle
 10
-359.6036438087963
 20
57.56923875162579
 30
0.0
 40
10.25000000000003
100
AcDbArc
 50
0.0
 51
90.0
  0
ARC
  5
C161
330
A
100
AcDbEntity
  8
0
  6
Continuous
 62
     7
370
    15
100
AcDbCircle
 10
-359.6036438087963
 20
57.56923875162579
 30
0.0
 40
10.25
100
AcDbArc
 50
270.0
 51
0.0
  0
LINE
  5
C162
330
A
100
AcDbEntity
  8
0
  6
Continuous
 62
     7
370
    15
100
AcDbLine
 10
-379.3536438087963
 20
64.8192385429258
 30
0.0
 11
-379.3536438087963
 21
27.81923806612579
 31
0.0
  0
ARC
  5
C163
330
A
100
AcDbEntity
  8
0
  6
Continuous
 62
     7
370
    15
100
AcDbCircle
 10
-373.8536438087963
 20
46.31923875162579
 30
0.0
 40
1.0
100
AcDbArc
 50
90.0
 51
180.0
  0
LINE
  5
C164
330
A
100
AcDbEntity
  8
0
  6
Continuous
 62
     7
370
    15
100
AcDbLine
 10
-374.8536440024963
 20
30.8192385578258
 30
0.0
 11
-374.8536440024963
 21
46.31923830452578
 31
0.0
  0
ARC
  5
C165
330
A
100
AcDbEntity
  8
0
  6
Continuous
 62
     7
370
    15
100
AcDbCircle
 10
-377.8536438087963
 20
30.81923875162579
 30
0.0
 40
3.0
100
AcDbArc
 50
270.0
 51
0.0
  0
LINE
  5
C166
330
A
100
AcDbEntity
  8
0
  6
Continuous
 62
     7
370
    15
100
AcDbLine
 10
-379.3536438087963
 20
27.81923806612579
 30
0.0
 11
-377.8536437956963
 21
27.81923806612579
 31
0.0
  0
CIRCLE
  5
C167
330
A
100
AcDbEntity
  8
0
  6
Continuous
 62
     7
370
    15
100
AcDbCircle
 10
-359.3536438087963
 20
57.56923875162579
 30
0.0
 40
6.199999999999989
  0
LINE
  5
C168
330
A
100
AcDbEntity
  8
0
  6
Continuous
 62
     7
370
    15
100
AcDbLine
 10
-373.8536438385963
 20
47.31923846842579
 30
0.0
 11
-373.0497960413963
 21
47.31923846842579
 31
0.0
  0
LINE
  5
C169
330
A
100
AcDbEntity
  8
0
  6
Continuous
 62
     7
370
    15
100
AcDbLine
 10
-359.6036428997963
 20
47.31923846842579
 30
0.0
 11
-367.8536437863963
 21
47.31923846842579
 31
0.0
  0
LINE
  5
C16A
330
A
100
AcDbEntity
  8
0
  6
Continuous
 62
     7
370
    15
100
AcDbLine
 10
-359.6036428997963
 20
67.8192390347258
 30
0.0
 11
-379.3536438087963
 21
67.8192390347258
 31
0.0
  0
LINE
  5
C16B
330
A
100
AcDbEntity
  8
0
  6
Continuous
 62
     7
370
    15
100
AcDbLine
 10
-379.3536438087963
 20
67.8192390347258
 30
0.0
 11
-379.3536438087963
 21
64.8192385429258
 31
0.0
  0
LINE
  5
C16C
330
A
100
AcDbEntity
  8
0
  6
Continuous
 62
     7
370
    15
100
AcDbLine
 10
-357.3214145789963
 20
56.47225426362579
 30
0.0
 11
-357.3875124046963
 21
58.78070921022578
 31
0.0
  0
LINE
  5
C16D
330
A
100
AcDbEntity
  8
0
  6
Continuous
 62
     7
370
    15
100
AcDbLine
 10
-357.3875124046963
 20
58.78070921022578
 30
0.0
 11
-359.4197420815963
 21
59.87769381462579
 31
0.0
  0
LINE
  5
C16E
330
A
100
AcDbEntity
  8
0
  6
Continuous
 62
     7
370
    15
100
AcDbLine
 10
-359.4197420815963
 20
59.87769381462579
 30
0.0
 11
-361.3858739326963
 21
58.66622323952581
 31
0.0
  0
LINE
  5
C16F
330
A
100
AcDbEntity
  8
0
  6
Continuous
 62
     7
370
    15
100
AcDbLine
 10
-361.3858739326963
 20
58.66622323952581
 30
0.0
 11
-361.3197761068963
 21
56.35776829292578
 31
0.0
  0
LINE
  5
C170
330
A
100
AcDbEntity
  8
0
  6
Continuous
 62
     7
370
    15
100
AcDbLine
 10
-361.3197761068963
 20
56.35776829292578
 30
0.0
 11
-359.2875445673963
 21
55.26078368852581
 31
0.0
  0
LINE
  5
C171
330
A
100
AcDbEntity
  8
0
  6
Continuous
 62
     7
370
    15
100
AcDbLine
 10
-359.2875445673963
 20
55.26078368852581
 30
0.0
 11
-357.3214145789963
 21
56.47225426362579
 31
0.0
  0
CIRCLE
  5
C172
330
A
100
AcDbEntity
  8
0
  6
Continuous
 62
     7
370
    15
100
AcDbCircle
 10
-359.3536438087963
 20
57.56923875162579
 30
0.0
 40
6.0
  0
LINE
  5
C173
330
A
100
AcDbEntity
  8
0
  6
Continuous
 62
     8
370
     0
100
AcDbLine
 10
-285.3536470273963
 20
45.5692386472258
 30
0.0
 11
-285.3536470273963
 21
44.56923848332579
 31
0.0
  0
LINE
  5
C174
330
A
100
AcDbEntity
  8
0
  6
Continuous
 62
     8
370
     0
100
AcDbLine
 10
-342.8536443451963
 20
45.5692386472258
 30
0.0
 11
-342.8536443451963
 21
44.56923848332579
 31
0.0
  0
LINE
  5
C175
330
A
100
AcDbEntity
  8
0
  6
Continuous
 62
     8
370
     0
100
AcDbLine
 10
-346.8536450008963
 20
44.56923848332579
 30
0.0
 11
-346.8536450008963
 21
45.5692386472258
 31
0.0
  0
LINE
  5
C176
330
A
100
AcDbEntity
  8
0
  6
Continuous
 62
     8
370
     0
100
AcDbLine
 10
-354.8536444494963
 20
45.5692386472258
 30
0.0
 11
-354.8536444494963
 21
44.56923848332579
 31
0.0
  0
LINE
  5
C177
330
A
100
AcDbEntity
  8
0
  6
Continuous
 62
     8
370
     0
100
AcDbLine
 10
-285.3536470273963
 20
44.56923848332579
 30
0.0
 11
-285.3536470273963
 21
43.56923831942578
 31
0.0
  0
LINE
  5
C178
330
A
100
AcDbEntity
  8
0
  6
Continuous
 62
     8
370
     0
100
AcDbLine
 10
-342.8536443451963
 20
44.56923848332579
 30
0.0
 11
-342.8536443451963
 21
43.56923831942578
 31
0.0
  0
LINE
  5
C179
330
A
100
AcDbEntity
  8
0
  6
Continuous
 62
     8
370
     0
100
AcDbLine
 10
-346.8536450008963
 20
43.56923831942578
 30
0.0
 11
-346.8536450008963
 21
44.56923848332579
 31
0.0
  0
LINE
  5
C17A
330
A
100
AcDbEntity
  8
0
  6
Continuous
 62
     8
370
     0
100
AcDbLine
 10
-354.8536444494963
 20
44.56923848332579
 30
0.0
 11
-354.8536444494963
 21
43.56923831942578
 31
0.0
  0
LINE
  5
C17B
330
A
100
AcDbEntity
  8
0
  6
Continuous
 62
     8
370
     0
100
AcDbLine
 10
-290.3477861026963
 20
35.76923853102579
 30
0.0
 11
-290.3477861026963
 21
36.5692390347258
 31
0.0
  0
LINE
  5
C17C
330
A
100
AcDbEntity
  8
0
  6
Continuous
 62
     8
370
     0
100
AcDbLine
 10
-273.2644988635963
 20
35.76923853102579
 30
0.0
 11
-273.2644988635963
 21
36.5692390347258
 31
0.0
  0
LINE
  5
C17D
330
A
100
AcDbEntity
  8
0
  6
Continuous
 62
     8
370
     0
100
AcDbLine
 10
-350.8536437938963
 20
36.5692390347258
 30
0.0
 11
-350.8536437938963
 21
35.76923853102579
 31
0.0
  0
LINE
  5
C17E
330
A
100
AcDbEntity
  8
0
  6
Continuous
 62
     8
370
     0
100
AcDbLine
 10
-285.3590710500963
 20
29.76923941022579
 30
0.0
 11
-285.3590710500963
 21
35.76923853102579
 31
0.0
  0
LINE
  5
C17F
330
A
100
AcDbEntity
  8
0
  6
Continuous
 62
     8
370
     0
100
AcDbLine
 10
-285.3536470273963
 20
45.5692386472258
 30
0.0
 11
-285.3536470273963
 21
61.5040449643258
 31
0.0
  0
ARC
  5
C180
330
A
100
AcDbEntity
  8
0
  6
Continuous
 62
     8
370
     0
100
AcDbCircle
 10
-367.8536438087963
 20
44.31923875162579
 30
0.0
 40
6.000000000000025
100
AcDbArc
 50
90.0
 51
150.0
  0
LINE
  5
C181
330
A
100
AcDbEntity
  8
0
  6
Continuous
 62
     8
370
     0
100
AcDbLine
 10
-367.8536437863963
 20
47.31923846842579
 30
0.0
 11
-367.8536437863963
 21
50.31923896022579
 31
0.0
  0
LINE
  5
C182
330
A
100
AcDbEntity
  8
0
  6
Continuous
 62
     8
370
     0
100
AcDbLine
 10
-359.6036428997963
 20
47.31923846842579
 30
0.0
 11
-359.6036428997963
 21
50.31923896022579
 31
0.0
  0
ARC
  5
C183
330
A
100
AcDbEntity
  8
0
  6
Continuous
 62
     8
370
     0
100
AcDbCircle
 10
-359.6036438087963
 20
57.56923875162579
 30
0.0
 40
7.250000000000028
100
AcDbArc
 50
270.0
 51
90.0
  0
LINE
  5
C184
330
A
100
AcDbEntity
  8
0
  6
Continuous
 62
     8
370
     0
100
AcDbLine
 10
-359.6036428997963
 20
67.8192390347258
 30
0.0
 11
-359.6036428997963
 21
64.8192385429258
 31
0.0
  0
LINE
  5
C185
330
A
100
AcDbEntity
  8
0
  6
Continuous
 62
     8
370
     0
100
AcDbLine
 10
-359.6036428997963
 20
64.8192385429258
 30
0.0
 11
-379.3536438087963
 21
64.8192385429258
 31
0.0
  0
LINE
  5
C186
330
A
100
AcDbEntity
  8
0
  6
Continuous
 62
     8
370
     0
100
AcDbLine
 10
-359.6036428997963
 20
50.31923896022579
 30
0.0
 11
-367.8536437863963
 21
50.31923896022579
 31
0.0
  0
LINE
  5
C187
330
A
100
AcDbEntity
  8
0
  6
Continuous
 62
     7
370
    15
100
AcDbLine
 10
-443.0000001787963
 20
-32.4347258890742
 30
0.0
 11
-443.8499996661963
 21
-32.4347258890742
 31
0.0
  0
LINE
  5
C188
330
A
100
AcDbEntity
  8
0
  6
Continuous
 62
     7
370
    15
100
AcDbLine
 10
-443.8499996661963
 20
-38.43472594117421
 30
0.0
 11
-443.0000001787963
 21
-38.43472594117421
 31
0.0
  0
LINE
  5
C189
330
A
100
AcDbEntity
  8
0
  6
Continuous
 62
     7
370
    15
100
AcDbLine
 10
-445.0499994903963
 20
-25.93472622057422
 30
0.0
 11
-449.9999994634963
 21
-25.93472622057422
 31
0.0
  0
LINE
  5
C18A
330
A
100
AcDbEntity
  8
0
  6
Continuous
 62
     7
370
    15
100
AcDbLine
 10
-449.9999994634963
 20
-44.93472560967422
 30
0.0
 11
-445.0499994903963
 21
-44.93472560967422
 31
0.0
  0
LINE
  5
C18B
330
A
100
AcDbEntity
  8
0
  6
Continuous
 62
     7
370
    15
100
AcDbLine
 10
-445.0000005065963
 20
-25.93472622057422
 30
0.0
 11
-445.0499994903963
 21
-25.93472622057422
 31
0.0
  0
LINE
  5
C18C
330
A
100
AcDbEntity
  8
0
  6
Continuous
 62
     7
370
    15
100
AcDbLine
 10
-445.0499994903963
 20
-44.93472560967422
 30
0.0
 11
-445.0000005065963
 21
-44.93472560967422
 31
0.0
  0
LINE
  5
C18D
330
A
100
AcDbEntity
  8
0
  6
Continuous
 62
     7
370
    15
100
AcDbLine
 10
-444.8499998300963
 20
-43.3347255336742
 30
0.0
 11
-443.8499996661963
 21
-42.3347258353742
 31
0.0
  0
LINE
  5
C18E
330
A
100
AcDbEntity
  8
0
  6
Continuous
 62
     7
370
    15
100
AcDbLine
 10
-443.8499996661963
 20
-28.53472599487421
 30
0.0
 11
-444.8499998300963
 21
-27.53472629657421
 31
0.0
  0
LINE
  5
C18F
330
A
100
AcDbEntity
  8
0
  6
Continuous
 62
     7
370
    15
100
AcDbLine
 10
-445.0499994903963
 20
-43.3347255336742
 30
0.0
 11
-444.8499998300963
 21
-43.3347255336742
 31
0.0
  0
LINE
  5
C190
330
A
100
AcDbEntity
  8
0
  6
Continuous
 62
     7
370
    15
100
AcDbLine
 10
-444.8499998300963
 20
-27.53472629657421
 30
0.0
 11
-445.0499994903963
 21
-27.53472629657421
 31
0.0
  0
LINE
  5
C191
330
A
100
AcDbEntity
  8
0
  6
Continuous
 62
     7
370
    15
100
AcDbLine
 10
-475.4703317060963
 20
-17.40276928717421
 30
0.0
 11
-475.9999999999963
 21
-18.8538890676742
 31
0.0
  0
LINE
  5
C192
330
A
100
AcDbEntity
  8
0
  6
Continuous
 62
     7
370
    15
100
AcDbLine
 10
-443.0000001787963
 20
-32.4347258890742
 30
0.0
 11
-443.8499996661963
 21
-32.4347258890742
 31
0.0
  0
LINE
  5
C193
330
A
100
AcDbEntity
  8
0
  6
Continuous
 62
     7
370
    15
100
AcDbLine
 10
-443.8499996661963
 20
-38.43472594117421
 30
0.0
 11
-443.0000001787963
 21
-38.43472594117421
 31
0.0
  0
LINE
  5
C194
330
A
100
AcDbEntity
  8
0
  6
Continuous
 62
     7
370
    15
100
AcDbLine
 10
-451.9999997913963
 20
-11.43472570647421
 30
0.0
 11
-450.9999996274963
 21
-11.43472570647421
 31
0.0
  0
LINE
  5
C195
330
A
100
AcDbEntity
  8
0
  6
Continuous
 62
     7
370
    15
100
AcDbLine
 10
-450.9999996274963
 20
-30.43472602687422
 30
0.0
 11
-450.9999996274963
 21
-11.43472570647421
 31
0.0
  0
LINE
  5
C196
330
A
100
AcDbEntity
  8
0
  6
Continuous
 62
     7
370
    15
100
AcDbLine
 10
-450.9999996274963
 20
-40.43472580337422
 30
0.0
 11
-450.9999996274963
 21
-30.43472602687422
 31
0.0
  0
LINE
  5
C197
330
A
100
AcDbEntity
  8
0
  6
Continuous
 62
     7
370
    15
100
AcDbLine
 10
-451.9999997913963
 20
-59.43472612377421
 30
0.0
 11
-450.9999996274963
 21
-59.43472612377421
 31
0.0
  0
LINE
  5
C198
330
A
100
AcDbEntity
  8
0
  6
Continuous
 62
     7
370
    15
100
AcDbLine
 10
-450.9999996274963
 20
-59.43472612377421
 30
0.0
 11
-450.9999996274963
 21
-40.43472580337422
 31
0.0
  0
LINE
  5
C199
330
A
100
AcDbEntity
  8
0
  6
Continuous
 62
     7
370
    15
100
AcDbLine
 10
-450.9999996274963
 20
-11.43472570647421
 30
0.0
 11
-449.9999994634963
 21
-11.43472570647421
 31
0.0
  0
LINE
  5
C19A
330
A
100
AcDbEntity
  8
0
  6
Continuous
 62
     7
370
    15
100
AcDbLine
 10
-449.9999994634963
 20
-30.43472602687422
 30
0.0
 11
-449.9999994634963
 21
-11.43472570647421
 31
0.0
  0
LINE
  5
C19B
330
A
100
AcDbEntity
  8
0
  6
Continuous
 62
     7
370
    15
100
AcDbLine
 10
-449.9999994634963
 20
-40.43472580337422
 30
0.0
 11
-449.9999994634963
 21
-30.43472602687422
 31
0.0
  0
LINE
  5
C19C
330
A
100
AcDbEntity
  8
0
  6
Continuous
 62
     7
370
    15
100
AcDbLine
 10
-450.9999996274963
 20
-59.43472612377421
 30
0.0
 11
-449.9999994634963
 21
-59.43472612377421
 31
0.0
  0
LINE
  5
C19D
330
A
100
AcDbEntity
  8
0
  6
Continuous
 62
     7
370
    15
100
AcDbLine
 10
-449.9999994634963
 20
-59.43472612377421
 30
0.0
 11
-449.9999994634963
 21
-40.43472580337422
 31
0.0
  0
LINE
  5
C19E
330
A
100
AcDbEntity
  8
0
  6
Continuous
 62
     7
370
    15
100
AcDbLine
 10
-443.0000001787963
 20
-23.59489746117421
 30
0.0
 11
-443.0000001787963
 21
-22.38055620067422
 31
0.0
  0
LINE
  5
C19F
330
A
100
AcDbEntity
  8
0
  6
Continuous
 62
     7
370
    15
100
AcDbLine
 10
-443.0000001787963
 20
-23.59489746117421
 30
0.0
 11
-443.0000001787963
 21
-47.2745543690742
 31
0.0
  0
LINE
  5
C1A0
330
A
100
AcDbEntity
  8
0
  6
Continuous
 62
     7
370
    15
100
AcDbLine
 10
-443.0000001787963
 20
-48.48889562957422
 30
0.0
 11
-443.0000001787963
 21
-47.2745543690742
 31
0.0
  0
LINE
  5
C1A1
330
A
100
AcDbEntity
  8
0
  6
Continuous
 62
     7
370
    15
100
AcDbLine
 10
-442.1999996750963
 20
-13.93472518497421
 30
0.0
 11
-443.0000001787963
 21
-13.93472518497421
 31
0.0
  0
LINE
  5
C1A2
330
A
100
AcDbEntity
  8
0
  6
Continuous
 62
     7
370
    15
100
AcDbLine
 10
-443.0000001787963
 20
-13.93472518497421
 30
0.0
 11
-443.0000001787963
 21
-22.38055620067422
 31
0.0
  0
LINE
  5
C1A3
330
A
100
AcDbEntity
  8
0
  6
Continuous
 62
     7
370
    15
100
AcDbLine
 10
-442.1999996750963
 20
-56.93472664527421
 30
0.0
 11
-443.0000001787963
 21
-56.93472664527421
 31
0.0
  0
LINE
  5
C1A4
330
A
100
AcDbEntity
  8
0
  6
Continuous
 62
     7
370
    15
100
AcDbLine
 10
-443.0000001787963
 20
-48.48889562957422
 30
0.0
 11
-443.0000001787963
 21
-56.93472664527421
 31
0.0
  0
LINE
  5
C1A5
330
A
100
AcDbEntity
  8
0
  6
Continuous
 62
     7
370
    15
100
AcDbLine
 10
-445.0499994903963
 20
-27.7097548702742
 30
0.0
 11
-445.0499994903963
 21
-44.93472560967422
 31
0.0
  0
LINE
  5
C1A6
330
A
100
AcDbEntity
  8
0
  6
Continuous
 62
     7
370
    15
100
AcDbLine
 10
-445.0499994903963
 20
-25.93472622057422
 30
0.0
 11
-445.0499994903963
 21
-27.7097548702742
 31
0.0
  0
LINE
  5
C1A7
330
A
100
AcDbEntity
  8
0
  6
Continuous
 62
     7
370
    15
100
AcDbLine
 10
-445.0000005065963
 20
-43.3347255336742
 30
0.0
 11
-445.0000005065963
 21
-44.93472560967422
 31
0.0
  0
LINE
  5
C1A8
330
A
100
AcDbEntity
  8
0
  6
Continuous
 62
     7
370
    15
100
AcDbLine
 10
-445.0000005065963
 20
-25.93472622057422
 30
0.0
 11
-445.0000005065963
 21
-27.53472629657421
 31
0.0
  0
LINE
  5
C1A9
330
A
100
AcDbEntity
  8
0
  6
Continuous
 62
     7
370
    15
100
AcDbLine
 10
-443.8499996661963
 20
-28.53472599487421
 30
0.0
 11
-443.8499996661963
 21
-42.3347258353742
 31
0.0
  0
LINE
  5
C1AA
330
A
100
AcDbEntity
  8
0
  6
Continuous
 62
     7
370
    15
100
AcDbLine
 10
-444.8499998300963
 20
-43.3347255336742
 30
0.0
 11
-444.8499998300963
 21
-27.53472629657421
 31
0.0
  0
LINE
  5
C1AB
330
A
100
AcDbEntity
  8
0
  6
Continuous
 62
     7
370
    15
100
AcDbLine
 10
-442.1999996750963
 20
-30.43472602687422
 30
0.0
 11
-442.1999996750963
 21
-10.4347255425742
 31
0.0
  0
LINE
  5
C1AC
330
A
100
AcDbEntity
  8
0
  6
Continuous
 62
     7
370
    15
100
AcDbLine
 10
-442.1999996750963
 20
-10.4347255425742
 30
0.0
 11
-436.2000005542963
 21
-10.4347255425742
 31
0.0
  0
LINE
  5
C1AD
330
A
100
AcDbEntity
  8
0
  6
Continuous
 62
     7
370
    15
100
AcDbLine
 10
-436.2000005542963
 20
-10.4347255425742
 30
0.0
 11
-436.2000005542963
 21
-30.43472602687422
 31
0.0
  0
LINE
  5
C1AE
330
A
100
AcDbEntity
  8
0
  6
Continuous
 62
     7
370
    15
100
AcDbLine
 10
-442.1999996750963
 20
-40.43472580337422
 30
0.0
 11
-442.1999996750963
 21
-30.43472602687422
 31
0.0
  0
LINE
  5
C1AF
330
A
100
AcDbEntity
  8
0
  6
Continuous
 62
     7
370
    15
100
AcDbLine
 10
-436.2000005542963
 20
-40.43472580337422
 30
0.0
 11
-436.2000005542963
 21
-30.43472602687422
 31
0.0
  0
LINE
  5
C1B0
330
A
100
AcDbEntity
  8
0
  6
Continuous
 62
     7
370
    15
100
AcDbLine
 10
-436.2000005542963
 20
-60.43472628767422
 30
0.0
 11
-442.1999996750963
 21
-60.43472628767422
 31
0.0
  0
LINE
  5
C1B1
330
A
100
AcDbEntity
  8
0
  6
Continuous
 62
     7
370
    15
100
AcDbLine
 10
-442.1999996750963
 20
-60.43472628767422
 30
0.0
 11
-442.1999996750963
 21
-40.43472580337422
 31
0.0
  0
LINE
  5
C1B2
330
A
100
AcDbEntity
  8
0
  6
Continuous
 62
     7
370
    15
100
AcDbLine
 10
-436.2000005542963
 20
-40.43472580337422
 30
0.0
 11
-436.2000005542963
 21
-60.43472628767422
 31
0.0
  0
LINE
  5
C1B3
330
A
100
AcDbEntity
  8
0
  6
Continuous
 62
     7
370
    15
100
AcDbLine
 10
-475.9999999999963
 20
-28.93558259777421
 30
0.0
 11
-475.9999999999963
 21
-18.85389093037421
 31
0.0
  0
ARC
  5
C1B4
330
A
100
AcDbEntity
  8
0
  6
Continuous
 62
     7
370
    15
100
AcDbCircle
 10
-464.0703211339963
 20
-22.4141332303742
 30
0.0
 40
12.45267197484524
100
AcDbArc
 50
107.4381784221
 51
156.7982394634001
  0
SPLINE
  5
C1B5
330
A
100
AcDbEntity
  8
0
  6
Continuous
 62
     7
370
    15
100
AcDbSpline
210
0.0
220
0.0
230
1.0
 70
     8
 71
     3
 72
    19
 73
    15
 74
     0
 42
0.00000001
 43
0.00000001
 40
0.0
 40
0.0
 40
0.0
 40
0.0
 40
0.1081334267159332
 40
0.2162654371471822
 40
0.2948565607196478
 40
0.3736998522951554
 40
0.4522894121034167
 40
0.5305723724684053
 40
0.6091060977626339
 40
0.6873884773768868
 40
0.7654422527638298
 40
0.8437451405131298
 40
0.9217991794716468
 40
1.0
 40
1.0
 40
1.0
 40
1.0
 10
-467.8020952027118
 20
-10.533775423701
 30
0.0
 10
-467.9482961362471
 20
-10.6806568373332
 30
0.0
 10
-468.2406960884411
 20
-10.9744177408088
 30
0.0
 10
-468.5383412724956
 20
-11.90148091298872
 30
0.0
 10
-468.760416412104
 20
-13.0240779486561
 30
0.0
 10
-468.9198873393541
 20
-14.24439823477502
 30
0.0
 10
-469.0445796010643
 20
-15.66375676640581
 30
0.0
 10
-469.1348934479556
 20
-17.27232830707672
 30
0.0
 10
-469.1922249987663
 20
-19.04164095787959
 30
0.0
 10
-469.2170312250257
 20
-20.95080613172962
 30
0.0
 10
-469.2092774563991
 20
-22.9792760657046
 30
0.0
 10
-469.1687462111813
 20
-25.09676638464811
 30
0.0
 10
-469.0981193634069
 20
-27.2802769253525
 30
0.0
 10
-469.0227939265282
 20
-28.7622123441466
 30
0.0
 10
-468.9850958287543
 20
-29.5038760984792
 30
0.0
  0
ARC
  5
C1B6
330
A
100
AcDbEntity
  8
0
  6
Continuous
 62
     7
370
    15
100
AcDbCircle
 10
-468.8035615428963
 20
16.31639917262578
 30
0.0
 40
45.82063487790775
100
AcDbArc
 50
260.9639014087
 51
269.7730023677
  0
LINE
  5
C1B7
330
A
100
AcDbEntity
  8
0
  6
Continuous
 62
     7
370
    15
100
AcDbLine
 10
-475.9999999999963
 20
-51.87097865817422
 30
0.0
 11
-475.9999999999963
 21
-39.9355825381742
 31
0.0
  0
ARC
  5
C1B8
330
A
100
AcDbEntity
  8
0
  6
Continuous
 62
     7
370
    15
100
AcDbCircle
 10
-468.7701275213963
 20
5.620668655625792
 30
0.0
 40
46.12638159329231
100
AcDbArc
 50
260.9822460241999
 51
269.7950520598
  0
SPLINE
  5
C1B9
330
A
100
AcDbEntity
  8
0
  6
Continuous
 62
     7
370
    15
100
AcDbSpline
210
0.0
220
0.0
230
1.0
 70
     8
 71
     3
 72
    19
 73
    15
 74
     0
 42
0.00000001
 43
0.00000001
 40
0.0
 40
0.0
 40
0.0
 40
0.0
 40
0.107032970237965
 40
0.2140649851182724
 40
0.2920309881539433
 40
0.3702463457812684
 40
0.4482123905944508
 40
0.5260855753650094
 40
0.6042068062959459
 40
0.682081008721804
 40
0.7600584839586362
 40
0.8382838309930303
 40
0.9162629989352223
 40
1.0
 40
1.0
 40
1.0
 40
1.0
 10
-468.935121990723
 20
-40.5054178433968
 30
0.0
 10
-468.9910938421232
 20
-41.52488086722951
 30
0.0
 10
-469.1030370453286
 20
-43.5637978153454
 30
0.0
 10
-469.1833505208173
 20
-46.28335514500341
 30
0.0
 10
-469.2157900180165
 20
-48.63009980674971
 30
0.0
 10
-469.2117194104957
 20
-50.61684448798901
 30
0.0
 10
-469.1756988058875
 20
-52.47768387181212
 30
0.0
 10
-469.1067344787944
 20
-54.18375795362921
 30
0.0
 10
-469.00498433659
 20
-55.71944399042802
 30
0.0
 10
-468.8693482793996
 20
-57.06745596802843
 30
0.0
 10
-468.698704495658
 20
-58.20484085125652
 30
0.0
 10
-468.4901335899502
 20
-59.11933293029581
 30
0.0
 10
-468.2396292151776
 20
-59.83932738463021
 30
0.0
 10
-468.0299047317747
 20
-60.10329950751132
 30
0.0
 10
-467.9213089160448
 20
-60.23998487466112
 30
0.0
  0
ARC
  5
C1BA
330
A
100
AcDbEntity
  8
0
  6
Continuous
 62
     7
370
    15
100
AcDbCircle
 10
-463.9999998956963
 20
-48.3709783446742
 30
0.0
 40
12.50000000000001
100
AcDbArc
 50
196.2602047083001
 51
251.7173636061002
  0
LINE
  5
C1BB
330
A
100
AcDbEntity
  8
0
  6
Continuous
 62
     7
370
    15
100
AcDbLine
 10
-451.9999997913963
 20
-10.4347255425742
 30
0.0
 11
-451.9999997913963
 21
-30.43472602687422
 31
0.0
  0
LINE
  5
C1BC
330
A
100
AcDbEntity
  8
0
  6
Continuous
 62
     7
370
    15
100
AcDbLine
 10
-468.9850958287963
 20
-29.50387609847419
 30
0.0
 11
-468.9348304867963
 21
-30.43472602687422
 31
0.0
  0
SPLINE
  5
C1BD
330
A
100
AcDbEntity
  8
0
  6
Continuous
 62
     7
370
    15
100
AcDbSpline
210
0.0
220
0.0
230
1.0
 70
     8
 71
     3
 72
     9
 73
     5
 74
     0
 42
0.00000001
 43
0.00000001
 40
0.0
 40
0.0
 40
0.0
 40
0.0
 40
0.4937999122688
 40
1.0
 40
1.0
 40
1.0
 40
1.0
 10
-467.9348061084575
 20
-10.43472554260032
 30
0.0
 10
-467.8752118031003
 20
-10.4386330434717
 30
0.0
 10
-467.7545266756297
 20
-10.4465461693639
 30
0.0
 10
-467.7861084870169
 20
-10.5044596265783
 30
0.0
 10
-467.8020952027118
 20
-10.533775423701
 30
0.0
  0
LINE
  5
C1BE
330
A
100
AcDbEntity
  8
0
  6
Continuous
 62
     7
370
    15
100
AcDbLine
 10
-467.9348061084963
 20
-10.4347255425742
 30
0.0
 11
-451.9999997913963
 21
-10.4347255425742
 31
0.0
  0
LINE
  5
C1BF
330
A
100
AcDbEntity
  8
0
  6
Continuous
 62
     7
370
    15
100
AcDbLine
 10
-468.9348304867963
 20
-40.43472580337422
 30
0.0
 11
-468.9348304867963
 21
-30.43472602687422
 31
0.0
  0
LINE
  5
C1C0
330
A
100
AcDbEntity
  8
0
  6
Continuous
 62
     7
370
    15
100
AcDbLine
 10
-451.9999997913963
 20
-30.43472602687422
 30
0.0
 11
-451.9999997913963
 21
-40.43472580337422
 31
0.0
  0
LINE
  5
C1C1
330
A
100
AcDbEntity
  8
0
  6
Continuous
 62
     7
370
    15
100
AcDbLine
 10
-451.9999997913963
 20
-60.43472628767422
 30
0.0
 11
-467.9348061084963
 21
-60.43472628767422
 31
0.0
  0
SPLINE
  5
C1C2
330
A
100
AcDbEntity
  8
0
  6
Continuous
 62
     7
370
    15
100
AcDbSpline
210
0.0
220
0.0
230
1.0
 70
     8
 71
     3
 72
    10
 73
     6
 74
     0
 42
0.00000001
 43
0.00000001
 40
0.0
 40
0.0
 40
0.0
 40
0.0
 40
0.3784827591352652
 40
0.7681499731663298
 40
1.0
 40
1.0
 40
1.0
 40
1.0
 10
-467.9348061084575
 20
-60.43472628765842
 30
0.0
 10
-467.8741895954809
 20
-60.42934119523603
 30
0.0
 10
-467.7511653052256
 20
-60.41841187679323
 30
0.0
 10
-467.7800686936287
 20
-60.34187084447213
 30
0.0
 10
-467.882935579503
 20
-60.26766611546891
 30
0.0
 10
-467.9213089160448
 20
-60.23998487466112
 30
0.0
  0
LINE
  5
C1C3
330
A
100
AcDbEntity
  8
0
  6
Continuous
 62
     7
370
    15
100
AcDbLine
 10
-468.9348304867963
 20
-40.43472580337422
 30
0.0
 11
-468.9351219906963
 21
-40.5054178433742
 31
0.0
  0
LINE
  5
C1C4
330
A
100
AcDbEntity
  8
0
  6
Continuous
 62
     7
370
    15
100
AcDbLine
 10
-451.9999997913963
 20
-40.43472580337422
 30
0.0
 11
-451.9999997913963
 21
-60.43472628767422
 31
0.0
  0
LINE
  5
C1C5
330
A
100
AcDbEntity
  8
0
  6
Continuous
 62
     7
370
    15
100
AcDbLine
 10
-475.9999999999963
 20
-39.9355825381742
 30
0.0
 11
-475.9999999999963
 21
-28.93558259777421
 31
0.0
  0
SPLINE
  5
C1C6
330
A
100
AcDbEntity
  8
0
  6
Continuous
 62
     7
370
    15
100
AcDbSpline
210
0.0
220
0.0
230
1.0
 70
    24
 71
     3
 72
    14
 73
    10
 74
     0
 42
0.00000001
 43
0.00000001
 40
0.0
 40
0.0
 40
0.0
 40
0.0
 40
0.1014866722672231
 40
0.203006791200453
 40
0.304877543909252
 40
0.4067512659176415
 40
0.555010473705732
 40
0.7032986791872111
 40
1.0
 40
1.0
 40
1.0
 40
1.0
 10
-467.9348061084575
 20
-60.43472628765842
 30
0.0
 10
-468.3341756170337
 20
-60.43472628765842
 30
0.0
 10
-469.133046253228
 20
-60.43472628765842
 30
0.0
 10
-469.9798267618114
 20
-60.43472628765842
 30
0.0
 10
-470.73717028037
 20
-60.43472628765842
 30
0.0
 10
-471.4786578370203
 20
-60.43472628765842
 30
0.0
 10
-472.202569278219
 20
-60.43472628765842
 30
0.0
 10
-473.1282683831823
 20
-60.43472628765842
 30
0.0
 10
-473.6512777945157
 20
-60.43472628765842
 30
0.0
 10
-473.9999996721572
 20
-60.43472628765842
 30
0.0
  0
ARC
  5
C1C7
330
A
100
AcDbEntity
  8
0
  6
Continuous
 62
     7
370
    15
100
AcDbCircle
 10
-463.9999998956963
 20
-52.93472591517421
 30
0.0
 40
12.5
100
AcDbArc
 50
196.2602047083
 51
216.8698976458001
  0
LINE
  5
C1C8
330
A
100
AcDbEntity
  8
0
  6
Continuous
 62
     7
370
    15
100
AcDbLine
 10
-475.9999999999963
 20
-51.87097865817422
 30
0.0
 11
-475.9999999999963
 21
-56.43472563197422
 31
0.0
  0
SPLINE
  5
C1C9
330
A
100
AcDbEntity
  8
0
  6
Continuous
 62
     7
370
    15
100
AcDbSpline
210
0.0
220
0.0
230
1.0
 70
     8
 71
     3
 72
     9
 73
     5
 74
     0
 42
0.00000001
 43
0.00000001
 40
0.0
 40
0.0
 40
0.0
 40
0.0
 40
0.4918708131196827
 40
1.0
 40
1.0
 40
1.0
 40
1.0
 10
-473.9999996721572
 20
-10.43472554260032
 30
0.0
 10
-474.417032838986
 20
-11.0458303491919
 30
0.0
 10
-475.2648838512951
 20
-12.28823951495562
 30
0.0
 10
-475.7523196459754
 20
-13.7115172433947
 30
0.0
 10
-475.9999999999827
 20
-14.43472619825141
 30
0.0
  0
SPLINE
  5
C1CA
330
A
100
AcDbEntity
  8
0
  6
Continuous
 62
     7
370
    15
100
AcDbSpline
210
0.0
220
0.0
230
1.0
 70
    24
 71
     3
 72
    14
 73
    10
 74
     0
 42
0.00000001
 43
0.00000001
 40
0.0
 40
0.0
 40
0.0
 40
0.0
 40
0.1014866722672231
 40
0.203006791200453
 40
0.304877543909252
 40
0.4067512659176415
 40
0.555010473705732
 40
0.7032986791872111
 40
1.0
 40
1.0
 40
1.0
 40
1.0
 10
-467.9348061084575
 20
-10.43472554260032
 30
0.0
 10
-468.3341756170337
 20
-10.43472554260032
 30
0.0
 10
-469.133046253228
 20
-10.43472554260032
 30
0.0
 10
-469.9798267618114
 20
-10.43472554260032
 30
0.0
 10
-470.73717028037
 20
-10.43472554260032
 30
0.0
 10
-471.4786578370203
 20
-10.43472554260032
 30
0.0
 10
-472.202569278219
 20
-10.43472554260032
 30
0.0
 10
-473.1282683831823
 20
-10.43472554260032
 30
0.0
 10
-473.6512777945157
 20
-10.43472554260032
 30
0.0
 10
-473.9999996721572
 20
-10.43472554260032
 30
0.0
  0
LINE
  5
C1CB
330
A
100
AcDbEntity
  8
0
  6
Continuous
 62
     7
370
    15
100
AcDbLine
 10
-475.9999999999963
 20
-18.85389093037421
 30
0.0
 11
-475.9999999999963
 21
-14.43472619827421
 31
0.0
  0
LINE
  5
C1CC
330
A
100
AcDbEntity
  8
0
  6
Continuous
 62
     7
370
    15
100
AcDbLine
 10
-434.2499992101963
 20
-10.4347255425742
 30
0.0
 11
-434.2499992101963
 21
-60.43472628767422
 31
0.0
  0
LINE
  5
C1CD
330
A
100
AcDbEntity
  8
0
  6
Continuous
 62
     7
370
    15
100
AcDbLine
 10
-434.2499992101963
 20
-60.43472628767422
 30
0.0
 11
-436.2000005542963
 21
-60.43472628767422
 31
0.0
  0
LINE
  5
C1CE
330
A
100
AcDbEntity
  8
0
  6
Continuous
 62
     7
370
    15
100
AcDbLine
 10
-436.2000005542963
 20
-10.4347255425742
 30
0.0
 11
-434.2499992101963
 21
-10.4347255425742
 31
0.0
  0
ARC
  5
C1CF
330
A
100
AcDbEntity
  8
0
  6
Continuous
 62
     7
370
    15
100
AcDbCircle
 10
-444.2499998956963
 20
-52.93472591517421
 30
0.0
 40
6.200000000000029
100
AcDbArc
 50
270.0
 51
289.3079388237002
  0
ARC
  5
C1D0
330
A
100
AcDbEntity
  8
0
  6
Continuous
 62
     7
370
    15
100
AcDbCircle
 10
-444.2499998956963
 20
-52.93472591517421
 30
0.0
 40
6.200000000000008
100
AcDbArc
 50
78.36870691129985
 51
158.0360476478
  0
ARC
  5
C1D1
330
A
100
AcDbEntity
  8
0
  6
Continuous
 62
     7
370
    15
100
AcDbCircle
 10
-444.2499998956963
 20
-52.93472591517421
 30
0.0
 40
6.200000000000017
100
AcDbArc
 50
201.9639523522999
 51
270.0
  0
LWPOLYLINE
  5
C1D2
330
A
100
AcDbEntity
  8
0
  6
Continuous
 62
     7
370
    15
100
AcDbPolyline
 90
        3
 70
   128
 43
0.0
 10
-444.2499989866963
 20
-24.13472555307422
 10
-443.3259370028963
 20
-24.0654770629742
 10
-443.0000001787963
 20
-24.00741096307422
  0
ARC
  5
C1D3
330
A
100
AcDbEntity
  8
0
  6
Continuous
 62
     7
370
    15
100
AcDbCircle
 10
-444.2499998956963
 20
-17.9347259151742
 30
0.0
 40
6.200000000000008
100
AcDbArc
 50
70.69206117629977
 51
158.0360476478
  0
ARC
  5
C1D4
330
A
100
AcDbEntity
  8
0
  6
Continuous
 62
     7
370
    15
100
AcDbCircle
 10
-444.2499998956963
 20
-17.9347259151742
 30
0.0
 40
6.200000000000017
100
AcDbArc
 50
201.9639523522999
 51
270.0
  0
LINE
  5
C1D5
330
A
100
AcDbEntity
  8
0
  6
Continuous
 62
     7
370
    15
100
AcDbLine
 10
-442.1999996750963
 20
-60.43472628767422
 30
0.0
 11
-451.9999997913963
 21
-60.43472628767422
 31
0.0
  0
LINE
  5
C1D6
330
A
100
AcDbEntity
  8
0
  6
Continuous
 62
     7
370
    15
100
AcDbLine
 10
-442.1999996750963
 20
-10.4347255425742
 30
0.0
 11
-451.9999997913963
 21
-10.4347255425742
 31
0.0
  0
LWPOLYLINE
  5
C1D7
330
A
100
AcDbEntity
  8
0
  6
Continuous
 62
     7
370
    15
100
AcDbPolyline
 90
        3
 70
   128
 43
0.0
 10
-444.2499989866963
 20
-21.1347259925742
 10
-443.5846826284963
 20
-21.06479856837421
 10
-443.0000001787963
 20
-20.88048517427421
  0
ARC
  5
C1D8
330
A
100
AcDbEntity
  8
0
  6
Continuous
 62
     7
370
    15
100
AcDbCircle
 10
-444.2499998956963
 20
-17.9347259151742
 30
0.0
 40
3.200000000000017
100
AcDbArc
 50
67.00660568570017
 51
270.0
  0
LWPOLYLINE
  5
C1D9
330
A
100
AcDbEntity
  8
0
  6
Continuous
 62
     7
370
    15
100
AcDbPolyline
 90
        3
 70
   128
 43
0.0
 10
-444.2499989866963
 20
-56.13472614167422
 10
-443.5846826284963
 20
-56.06479871747423
 10
-443.0000001787963
 20
-55.88048625467421
  0
ARC
  5
C1DA
330
A
100
AcDbEntity
  8
0
  6
Continuous
 62
     7
370
    15
100
AcDbCircle
 10
-444.2499998956963
 20
-52.93472591517421
 30
0.0
 40
3.200000000000017
100
AcDbArc
 50
67.00660568570017
 51
270.0
  0
LINE
  5
C1DB
330
A
100
AcDbEntity
  8
0
  6
Continuous
 62
     8
370
     0
100
AcDbLine
 10
-451.9999997913963
 20
-30.43472602687422
 30
0.0
 11
-450.9999996274963
 21
-30.43472602687422
 31
0.0
  0
LINE
  5
C1DC
330
A
100
AcDbEntity
  8
0
  6
Continuous
 62
     8
370
     0
100
AcDbLine
 10
-451.9999997913963
 20
-40.43472580337422
 30
0.0
 11
-450.9999996274963
 21
-40.43472580337422
 31
0.0
  0
LINE
  5
C1DD
330
A
100
AcDbEntity
  8
0
  6
Continuous
 62
     8
370
     0
100
AcDbLine
 10
-450.9999996274963
 20
-30.43472602687422
 30
0.0
 11
-449.9999994634963
 21
-30.43472602687422
 31
0.0
  0
LINE
  5
C1DE
330
A
100
AcDbEntity
  8
0
  6
Continuous
 62
     8
370
     0
100
AcDbLine
 10
-450.9999996274963
 20
-40.43472580337422
 30
0.0
 11
-449.9999994634963
 21
-40.43472580337422
 31
0.0
  0
LINE
  5
C1DF
330
A
100
AcDbEntity
  8
0
  6
Continuous
 62
     8
370
     0
100
AcDbLine
 10
-442.1999996750963
 20
-23.59489746117421
 30
0.0
 11
-443.0000001787963
 21
-23.59489746117421
 31
0.0
  0
LINE
  5
C1E0
330
A
100
AcDbEntity
  8
0
  6
Continuous
 62
     8
370
     0
100
AcDbLine
 10
-443.0000001787963
 20
-22.38055620067422
 30
0.0
 11
-442.1999996750963
 21
-22.38055620067422
 31
0.0
  0
LINE
  5
C1E1
330
A
100
AcDbEntity
  8
0
  6
Continuous
 62
     8
370
     0
100
AcDbLine
 10
-443.0000001787963
 20
-47.2745543690742
 30
0.0
 11
-442.1999996750963
 21
-47.2745543690742
 31
0.0
  0
LINE
  5
C1E2
330
A
100
AcDbEntity
  8
0
  6
Continuous
 62
     8
370
     0
100
AcDbLine
 10
-442.1999996750963
 20
-48.48889562957422
 30
0.0
 11
-443.0000001787963
 21
-48.48889562957422
 31
0.0
  0
LINE
  5
C1E3
330
A
100
AcDbEntity
  8
0
  6
Continuous
 62
     8
370
     0
100
AcDbLine
 10
-436.2000005542963
 20
-30.43472602687422
 30
0.0
 11
-442.1999996750963
 21
-30.43472602687422
 31
0.0
  0
LINE
  5
C1E4
330
A
100
AcDbEntity
  8
0
  6
Continuous
 62
     8
370
     0
100
AcDbLine
 10
-442.1999996750963
 20
-40.43472580337422
 30
0.0
 11
-436.2000005542963
 21
-40.43472580337422
 31
0.0
  0
LINE
  5
C1E5
330
A
100
AcDbEntity
  8
0
  6
Continuous
 62
     8
370
     0
100
AcDbLine
 10
-451.9999997913963
 20
-30.43472602687422
 30
0.0
 11
-468.9348304867963
 21
-30.43472602687422
 31
0.0
  0
LINE
  5
C1E6
330
A
100
AcDbEntity
  8
0
  6
Continuous
 62
     8
370
     0
100
AcDbLine
 10
-468.9348304867963
 20
-40.43472580337422
 30
0.0
 11
-451.9999997913963
 21
-40.43472580337422
 31
0.0
  0
INSERT
  5
C1E7
330
A
100
AcDbEntity
  8
0
  6
CENTER
 62
     1
370
     0
100
AcDbBlockReference
  2
SW_CENTERMARKSYMBOL_3
 10
-444.2499998956963
 20
-17.9347259151742
 30
0.0
  0
INSERT
  5
C1E8
330
A
100
AcDbEntity
  8
0
  6
CENTER
 62
     1
370
     0
100
AcDbBlockReference
  2
SW_CENTERMARKSYMBOL_4
 10
-444.2499998956963
 20
-52.93472591517421
 30
0.0
  0
LINE
  5
C1EF
330
A
100
AcDbEntity
  8
0
  6
Continuous
 62
     7
370
    15
100
AcDbLine
 10
-178.6090325683963
 20
-20.43472625037421
 30
0.0
 11
-176.8590327471963
 21
-20.43472625037421
 31
0.0
  0
LINE
  5
C1F0
330
A
100
AcDbEntity
  8
0
  6
Continuous
 62
     7
370
    15
100
AcDbLine
 10
-176.8590327471963
 20
-50.43472557987421
 30
0.0
 11
-176.8590327471963
 21
-20.43472625037421
 31
0.0
  0
LINE
  5
C1F1
330
A
100
AcDbEntity
  8
0
  6
Continuous
 62
     7
370
    15
100
AcDbLine
 10
-176.8590327471963
 20
-50.43472557987421
 30
0.0
 11
-178.6090325683963
 21
-50.43472557987421
 31
0.0
  0
ARC
  5
C1F2
330
A
100
AcDbEntity
  8
0
  6
Continuous
 62
     7
370
    15
100
AcDbCircle
 10
-188.8590328514963
 20
-52.93472591517421
 30
0.0
 40
12.50000000000003
100
AcDbArc
 50
323.1301023542001
 51
343.7397952916999
  0
LINE
  5
C1F3
330
A
100
AcDbEntity
  8
0
  6
Continuous
 62
     7
370
    15
100
AcDbLine
 10
-181.6090330601963
 20
-60.43472628767422
 30
0.0
 11
-178.8590330750963
 21
-60.43472628767422
 31
0.0
  0
LINE
  5
C1F4
330
A
100
AcDbEntity
  8
0
  6
Continuous
 62
     7
370
    15
100
AcDbLine
 10
-176.8590327471963
 20
-56.43472563197422
 30
0.0
 11
-176.8590327471963
 21
-50.43472557987421
 31
0.0
  0
LINE
  5
C1F5
330
A
100
AcDbEntity
  8
0
  6
Continuous
 62
     7
370
    15
100
AcDbLine
 10
-181.6090330601963
 20
-10.4347255425742
 30
0.0
 11
-178.8590330750963
 21
-10.4347255425742
 31
0.0
  0
SPLINE
  5
C1F6
330
A
100
AcDbEntity
  8
0
  6
Continuous
 62
     7
370
    15
100
AcDbSpline
210
0.0
220
0.0
230
1.0
 70
     8
 71
     3
 72
     9
 73
     5
 74
     0
 42
0.00000001
 43
0.00000001
 40
0.0
 40
0.0
 40
0.0
 40
0.0
 40
0.4918708131196827
 40
1.0
 40
1.0
 40
1.0
 40
1.0
 10
-178.8590330750581
 20
-10.43472554260032
 30
0.0
 10
-178.4419999082292
 20
-11.0458303491919
 30
0.0
 10
-177.5941488959201
 20
-12.28823951495562
 30
0.0
 10
-177.1067131012398
 20
-13.7115172433947
 30
0.0
 10
-176.8590327472325
 20
-14.43472619825141
 30
0.0
  0
LINE
  5
C1F7
330
A
100
AcDbEntity
  8
0
  6
Continuous
 62
     7
370
    15
100
AcDbLine
 10
-176.8590327471963
 20
-20.43472625037421
 30
0.0
 11
-176.8590327471963
 21
-14.43472619827421
 31
0.0
  0
LINE
  5
C1F8
330
A
100
AcDbEntity
  8
0
  6
Continuous
 62
     7
370
    15
100
AcDbLine
 10
-178.6090325683963
 20
-57.43472579587423
 30
0.0
 11
-178.6090325683963
 21
-13.43472603437419
 31
0.0
  0
ARC
  5
C1F9
330
A
100
AcDbEntity
  8
0
  6
Continuous
 62
     7
370
    15
100
AcDbCircle
 10
-181.6090328514963
 20
-57.43472591517421
 30
0.0
 40
3.0
100
AcDbArc
 50
270.0
 51
0.0
  0
LINE
  5
C1FA
330
A
100
AcDbEntity
  8
0
  6
Continuous
 62
     7
370
    15
100
AcDbLine
 10
-181.6090330601963
 20
-60.43472628767422
 30
0.0
 11
-218.6090335369963
 21
-60.43472628767422
 31
0.0
  0
LINE
  5
C1FB
330
A
100
AcDbEntity
  8
0
  6
Continuous
 62
     7
370
    15
100
AcDbLine
 10
-218.6090335369963
 20
-60.43472628767422
 30
0.0
 11
-218.6090335369963
 21
-10.4347255425742
 31
0.0
  0
LINE
  5
C1FC
330
A
100
AcDbEntity
  8
0
  6
Continuous
 62
     7
370
    15
100
AcDbLine
 10
-181.6090330601963
 20
-10.4347255425742
 30
0.0
 11
-218.6090335369963
 21
-10.4347255425742
 31
0.0
  0
ARC
  5
C1FD
330
A
100
AcDbEntity
  8
0
  6
Continuous
 62
     7
370
    15
100
AcDbCircle
 10
-181.6090328514963
 20
-13.4347259151742
 30
0.0
 40
3.0
100
AcDbArc
 50
0.0
 51
90.0
  0
CIRCLE
  5
C1FE
330
A
100
AcDbEntity
  8
0
  6
Continuous
 62
     7
370
    15
100
AcDbCircle
 10
-208.6090328514963
 20
-17.9347259151742
 30
0.0
 40
3.200000000000017
  0
CIRCLE
  5
C1FF
330
A
100
AcDbEntity
  8
0
  6
Continuous
 62
     7
370
    15
100
AcDbCircle
 10
-208.6090328514963
 20
-52.93472591517421
 30
0.0
 40
3.200000000000017
  0
INSERT
  5
C208
330
A
100
AcDbEntity
  8
0
  6
CENTER
 62
     1
370
     0
100
AcDbBlockReference
  2
SW_CENTERMARKSYMBOL_5
 10
-208.6090328514963
 20
-17.9347259151742
 30
0.0
  0
INSERT
  5
C209
330
A
100
AcDbEntity
  8
0
  6
CENTER
 62
     1
370
     0
100
AcDbBlockReference
  2
SW_CENTERMARKSYMBOL_6
 10
-208.6090328514963
 20
-52.93472591517421
 30
0.0
  0
TEXT
  5
C2B8
330
A
100
AcDbEntity
  8
0
  6
Continuous
 62
     7
370
     0
100
AcDbText
 10
-232.7119
 20
59.0073
 30
0.0
 40
10.0
  1
815E10
100
AcDbText
  0
LINE
  5
C384
330
A
100
AcDbEntity
  8
0
  6
Continuous
 62
     7
370
    15
100
AcDbLine
 10
-231.0714169097809
 20
-117.4642665650742
 30
0.0
 11
-231.7491471370809
 21
-117.2686227004742
 31
0.0
  0
LINE
  5
C385
330
A
100
AcDbEntity
  8
0
  6
Continuous
 62
     7
370
    15
100
AcDbLine
 10
-232.8585476682809
 20
-121.1116986710742
 30
0.0
 11
-232.1808174410809
 21
-121.3073425356742
 31
0.0
  0
LINE
  5
C386
330
A
100
AcDbEntity
  8
0
  6
Continuous
 62
     7
370
    15
100
AcDbLine
 10
-231.0714169097809
 20
-134.7847750601742
 30
0.0
 11
-231.7491471370809
 21
-134.5891311955742
 31
0.0
  0
LINE
  5
C387
330
A
100
AcDbEntity
  8
0
  6
Continuous
 62
     7
370
    15
100
AcDbLine
 10
-232.8585476682809
 20
-138.4322071661742
 30
0.0
 11
-232.1808174410809
 21
-138.6278510307742
 31
0.0
  0
LINE
  5
C388
330
A
100
AcDbEntity
  8
0
  6
Continuous
 62
     7
370
    15
100
AcDbLine
 10
-199.5025840043809
 20
-102.4104396421742
 30
0.0
 11
-200.0025840863809
 21
-102.8434524150742
 31
0.0
  0
LINE
  5
C389
330
A
100
AcDbEntity
  8
0
  6
Continuous
 62
     7
370
    15
100
AcDbLine
 10
-128.4802405285809
 20
-156.7187446524742
 30
0.0
 11
-125.4802409680809
 21
-154.1206688218742
 31
0.0
  0
LINE
  5
C38A
330
A
100
AcDbEntity
  8
0
  6
Continuous
 62
     7
370
    15
100
AcDbLine
 10
-129.0839141772809
 20
-151.2227082177742
 30
0.0
 11
-128.9201783553809
 21
-151.0809088365742
 31
0.0
  0
SPLINE
  5
C38B
330
A
100
AcDbEntity
  8
0
  6
Continuous
 62
     7
370
    15
100
AcDbSpline
210
0.0
220
0.0
230
1.0
 70
     8
 71
     3
 72
    10
 73
     6
 74
     0
 42
0.00000001
 43
0.00000001
 40
0.0
 40
0.0
 40
0.0
 40
0.0
 40
0.3378771189768175
 40
0.6810993807992596
 40
1.0
 40
1.0
 40
1.0
 40
1.0
 10
-153.298677140498
 20
-170.6730796190195
 30
0.0
 10
-152.6744934996718
 20
-170.7717691502824
 30
0.0
 10
-151.4162517680056
 20
-170.9707094598189
 30
0.0
 10
-149.5602427332647
 20
-171.0392305171026
 30
0.0
 10
-148.3571180553721
 20
-170.9323985630232
 30
0.0
 10
-147.777652799372
 20
-170.8809447056157
 30
0.0
  0
LINE
  5
C38C
330
A
100
AcDbEntity
  8
0
  6
Continuous
 62
     7
370
    15
100
AcDbLine
 10
-141.9368539032809
 20
-168.3779451571742
 30
0.0
 11
-133.3755367928809
 21
-160.9636270496742
 31
0.0
  0
LINE
  5
C38D
330
A
100
AcDbEntity
  8
0
  6
Continuous
 62
     7
370
    15
100
AcDbLine
 10
-171.3894769496809
 20
-166.7462972675742
 30
0.0
 11
-153.3694170438809
 21
-170.6589089849742
 31
0.0
  0
LINE
  5
C38E
330
A
100
AcDbEntity
  8
0
  6
Continuous
 62
     7
370
    15
100
AcDbLine
 10
-229.3044920891809
 20
-116.8517063256742
 30
0.0
 11
-229.3044920891809
 21
-141.4179599510742
 31
0.0
  0
SPLINE
  5
C38F
330
A
100
AcDbEntity
  8
0
  6
Continuous
 62
     7
370
    15
100
AcDbSpline
210
0.0
220
0.0
230
1.0
 70
     8
 71
     3
 72
    17
 73
    13
 74
     0
 42
0.00000001
 43
0.00000001
 40
0.0
 40
0.0
 40
0.0
 40
0.0
 40
0.0190586222770454
 40
0.1241609556596602
 40
0.2276497752054012
 40
0.3318617464355713
 40
0.4393239969391416
 40
0.5523736227878999
 40
0.6725273315674314
 40
0.7993217726822575
 40
0.9299336129356567
 40
1.0
 40
1.0
 40
1.0
 40
1.0
 10
-206.534683807407
 20
-109.0918347234319
 30
0.0
 10
-206.5303898906769
 20
-109.0360817096241
 30
0.0
 10
-206.5024163678814
 20
-108.6728682845054
 30
0.0
 10
-206.6263288531457
 20
-108.005798490723
 30
0.0
 10
-206.9013066049494
 20
-107.1351337769162
 30
0.0
 10
-207.3405460510189
 20
-106.326676762328
 30
0.0
 10
-207.9156927726233
 20
-105.5806886159452
 30
0.0
 10
-208.6341888333634
 20
-104.8950917429773
 30
0.0
 10
-209.4994925710982
 20
-104.2722490319926
 30
0.0
 10
-210.5114581438234
 20
-103.7242781636311
 30
0.0
 10
-211.4690883070871
 20
-103.3323632017719
 30
0.0
 10
-212.0953047165172
 20
-103.1411326795456
 30
0.0
 10
-212.3139468777304
 20
-103.0743649391289
 30
0.0
  0
LINE
  5
C390
330
A
100
AcDbEntity
  8
0
  6
Continuous
 62
     7
370
    15
100
AcDbLine
 10
-206.5209979943809
 20
-110.8711767486742
 30
0.0
 11
-206.5209979943809
 21
-109.0960139995742
 31
0.0
  0
LINE
  5
C391
330
A
100
AcDbEntity
  8
0
  6
Continuous
 62
     7
370
    15
100
AcDbLine
 10
-212.3139468776809
 20
-103.0743649391742
 30
0.0
 11
-219.4586572267809
 21
-101.0118647174742
 31
0.0
  0
SPLINE
  5
C392
330
A
100
AcDbEntity
  8
0
  6
Continuous
 62
     7
370
    15
100
AcDbSpline
210
0.0
220
0.0
230
1.0
 70
     8
 71
     3
 72
    12
 73
     8
 74
     0
 42
0.00000001
 43
0.00000001
 40
0.0
 40
0.0
 40
0.0
 40
0.0
 40
0.1530789260270355
 40
0.434794386692378
 40
0.7074307200901507
 40
0.9747829760575775
 40
1.0
 40
1.0
 40
1.0
 40
1.0
 10
-219.4586572267866
 20
-101.0118647174742
 30
0.0
 10
-219.5582695465126
 20
-100.9813225250749
 30
0.0
 10
-219.8412012248718
 20
-100.8945726754574
 30
0.0
 10
-220.2093139946857
 20
-100.7331229993276
 30
0.0
 10
-220.4668582393962
 20
-100.5841487072651
 30
0.0
 10
-220.5513678043116
 20
-100.4965809901066
 30
0.0
 10
-220.5327279322063
 20
-100.5204916248168
 30
0.0
 10
-220.5311213311944
 20
-100.5225525214638
 30
0.0
  0
SPLINE
  5
C393
330
A
100
AcDbEntity
  8
0
  6
Continuous
 62
     7
370
    15
100
AcDbSpline
210
0.0
220
0.0
230
1.0
 70
     8
 71
     3
 72
    16
 73
    12
 74
     0
 42
0.00000001
 43
0.00000001
 40
0.0
 40
0.0
 40
0.0
 40
0.0
 40
0.0706255764006696
 40
0.2013146230532674
 40
0.3307390129490688
 40
0.4594812158601865
 40
0.5881936304168096
 40
0.7174313148567962
 40
0.8478580829731175
 40
0.9802891154443201
 40
1.0
 40
1.0
 40
1.0
 40
1.0
 10
-221.2280478152757
 20
-153.2227811575597
 30
0.0
 10
-221.0056501894099
 20
-153.2833561823768
 30
0.0
 10
-220.371717037982
 20
-153.4560222179547
 30
0.0
 10
-219.2769622909047
 20
-153.6607059185684
 30
0.0
 10
-217.9495182762469
 20
-153.8038519073016
 30
0.0
 10
-216.6064421594062
 20
-153.8425109715707
 30
0.0
 10
-215.2679095434275
 20
-153.7781306553462
 30
0.0
 10
-213.9479956958442
 20
-153.6134074949803
 30
0.0
 10
-212.6747147237618
 20
-153.3341103621169
 30
0.0
 10
-211.783661848021
 20
-153.086444539144
 30
0.0
 10
-211.3520760827716
 20
-152.8981986542248
 30
0.0
 10
-211.2961615960809
 20
-152.8738102872433
 30
0.0
  0
LINE
  5
C394
330
A
100
AcDbEntity
  8
0
  6
Continuous
 62
     7
370
    15
100
AcDbLine
 10
-238.3320503271809
 20
-148.2852809302742
 30
0.0
 11
-221.2280478152809
 21
-153.2227811575742
 31
0.0
  0
LINE
  5
C395
330
A
100
AcDbEntity
  8
0
  6
Continuous
 62
     7
370
    15
100
AcDbLine
 10
-216.2009618583809
 20
-101.9522809041742
 30
0.0
 11
-216.2009618583809
 21
-90.35234788167422
 31
0.0
  0
LINE
  5
C396
330
A
100
AcDbEntity
  8
0
  6
Continuous
 62
     7
370
    15
100
AcDbLine
 10
-222.5544920376809
 20
-106.9068485314742
 30
0.0
 11
-222.5544920376809
 21
-107.1666557112742
 31
0.0
  0
LINE
  5
C397
330
A
100
AcDbEntity
  8
0
  6
Continuous
 62
     7
370
    15
100
AcDbLine
 10
-210.5544923021809
 20
-107.1666556047742
 30
0.0
 11
-210.5544923021809
 21
-106.9068484250742
 31
0.0
  0
LWPOLYLINE
  5
C398
330
A
100
AcDbEntity
  8
0
  6
Continuous
 62
     7
370
    15
100
AcDbPolyline
 90
       20
 70
   128
 43
0.0
 10
-232.6261172228809
 20
-120.2518303985742
 10
-232.5719342724809
 20
-120.7673027256742
 10
-232.4152578757809
 20
-121.1330686684742
 10
-232.1730651119809
 20
-121.3094903756742
 10
-231.8716027465809
 20
-121.2774520310742
 10
-231.5435378504809
 20
-121.0404242148742
 10
-231.2244218000809
 20
-120.6240922869742
 10
-230.9488355339809
 20
-120.0735729857742
 10
-230.7466433075809
 20
-119.4485231119742
 10
-230.6397558813809
 20
-118.8166770544742
 10
-230.6397558813809
 20
-118.2465049768742
 10
-230.7466433075809
 20
-117.7997933723742
 10
-230.9488355339809
 20
-117.5249507075742
 10
-231.2244218000809
 20
-117.4517608210742
 10
-231.5435378504809
 20
-117.5881541058742
 10
-231.8716027465809
 20
-117.9193513580742
 10
-232.1730651119809
 20
-118.4094603401742
 10
-232.4152578757809
 20
-119.0053730261742
 10
-232.5719342724809
 20
-119.6425104483742
 10
-232.6261172228809
 20
-120.2518303985742
  0
ARC
  5
C399
330
A
100
AcDbEntity
  8
0
  6
Continuous
 62
     7
370
    15
100
AcDbCircle
 10
-232.3071440422809
 20
-120.2573846690742
 30
0.0
 40
1.016807933141711
100
AcDbArc
 50
168.5874349532001
 51
237.1604114440018
  0
LWPOLYLINE
  5
C39A
330
A
100
AcDbEntity
  8
0
  6
Continuous
 62
     7
370
    15
100
AcDbPolyline
 90
        8
 70
   128
 43
0.0
 10
-231.7491471370809
 20
-117.2686227004742
 10
-231.9021520273809
 20
-117.2561169564742
 10
-232.2212680776809
 20
-117.3925102413742
 10
-232.5493329738809
 20
-117.7237074935742
 10
-232.8507953391809
 20
-118.2138164756742
 10
-233.0929881030809
 20
-118.8097291616742
 10
-233.2496644997809
 20
-119.4468665838742
 10
-233.3038474501809
 20
-120.0561865339742
  0
LWPOLYLINE
  5
C39B
330
A
100
AcDbEntity
  8
0
  6
Continuous
 62
     7
370
    15
100
AcDbPolyline
 90
       20
 70
   128
 43
0.0
 10
-232.6261172228809
 20
-137.5723380870742
 10
-232.5719342724809
 20
-138.0878104142742
 10
-232.4152578757809
 20
-138.4535763569742
 10
-232.1730651119809
 20
-138.6299988707742
 10
-231.8716027465809
 20
-138.5979597195742
 10
-231.5435378504809
 20
-138.3609319034742
 10
-231.2244218000809
 20
-137.9445999755742
 10
-230.9488355339809
 20
-137.3940806742742
 10
-230.7466433075809
 20
-136.7690308004742
 10
-230.6397558813809
 20
-136.1371847430742
 10
-230.6397558813809
 20
-135.5670126653742
 10
-230.7466433075809
 20
-135.1203010608742
 10
-230.9488355339809
 20
-134.8454583960742
 10
-231.2244218000809
 20
-134.7722685095742
 10
-231.5435378504809
 20
-134.9086617944742
 10
-231.8716027465809
 20
-135.2398590466742
 10
-232.1730651119809
 20
-135.7299688352742
 10
-232.4152578757809
 20
-136.3258807147742
 10
-232.5719342724809
 20
-136.9630181369742
 10
-232.6261172228809
 20
-137.5723380870742
  0
ARC
  5
C39C
330
A
100
AcDbEntity
  8
0
  6
Continuous
 62
     7
370
    15
100
AcDbCircle
 10
-232.3071412778809
 20
-137.5778918441742
 30
0.0
 40
1.016810541251548
100
AcDbArc
 50
168.5874941336996
 51
237.1603209038991
  0
LWPOLYLINE
  5
C39D
330
A
100
AcDbEntity
  8
0
  6
Continuous
 62
     7
370
    15
100
AcDbPolyline
 90
        8
 70
   128
 43
0.0
 10
-231.7491471370809
 20
-134.5891311955742
 10
-231.9021520273809
 20
-134.5766246450742
 10
-232.2212680776809
 20
-134.7130179298742
 10
-232.5493329738809
 20
-135.0442151820742
 10
-232.8507953391809
 20
-135.5343249707742
 10
-233.0929881030809
 20
-136.1302368501742
 10
-233.2496644997809
 20
-136.7673742723742
 10
-233.3038474501809
 20
-137.3766942225742
  0
ARC
  5
C39E
330
A
100
AcDbEntity
  8
0
  6
Continuous
 62
     7
370
    15
100
AcDbCircle
 10
-152.3894693124809
 20
-142.2213093273742
 30
0.0
 40
23.40373490083911
100
AcDbArc
 50
2.822733608899999
 51
72.79953350789997
  0
LINE
  5
C39F
330
A
100
AcDbEntity
  8
0
  6
Continuous
 62
     7
370
    15
100
AcDbLine
 10
-145.4686144740809
 20
-119.8642841313742
 30
0.0
 11
-195.2650728687809
 21
-105.4892848018742
 31
0.0
  0
LINE
  5
C3A0
330
A
100
AcDbEntity
  8
0
  6
Continuous
 62
     7
370
    15
100
AcDbLine
 10
-129.0141307181809
 20
-149.7290212378742
 30
0.0
 11
-129.0141307181809
 21
-141.0687673935742
 31
0.0
  0
LWPOLYLINE
  5
C3A1
330
A
100
AcDbEntity
  8
0
  6
Continuous
 62
     7
370
    15
100
AcDbPolyline
 90
        3
 70
   128
 43
0.0
 10
-129.1956752214809
 20
-152.1141331996742
 10
-129.1042706353809
 20
-151.4229618135742
 10
-129.0141307181809
 20
-149.7290212378742
  0
ARC
  5
C3A2
330
A
100
AcDbEntity
  8
0
  6
Continuous
 62
     7
370
    15
100
AcDbCircle
 10
-195.7252092819809
 20
-106.9425342275742
 30
0.0
 40
1.524355408692111
100
AcDbArc
 50
72.43086391730091
 51
109.040047776201
  0
LINE
  5
C3A3
330
A
100
AcDbEntity
  8
0
  6
Continuous
 62
     7
370
    15
100
AcDbLine
 10
-200.4253270706809
 20
-105.5921717532742
 30
0.0
 11
-200.4253270706809
 21
-103.8553104034742
 31
0.0
  0
ARC
  5
C3A4
330
A
100
AcDbEntity
  8
0
  6
Continuous
 62
     7
370
    15
100
AcDbCircle
 10
-199.1563362488809
 20
-103.8057845329742
 30
0.0
 40
1.269956896016665
100
AcDbArc
 50
68.61538525029904
 51
182.2349916947002
  0
LINE
  5
C3A5
330
A
100
AcDbEntity
  8
0
  6
Continuous
 62
     7
370
    15
100
AcDbLine
 10
-198.6932759792809
 20
-102.6232593939742
 30
0.0
 11
-146.2936661408809
 21
-117.7497238167742
 31
0.0
  0
ARC
  5
C3A6
330
A
100
AcDbEntity
  8
0
  6
Continuous
 62
     7
370
    15
100
AcDbCircle
 10
-154.3881011343809
 20
-143.3256817757742
 30
0.0
 40
26.82628381610704
100
AcDbArc
 50
31.43523765890001
 51
72.43814492139998
  0
ARC
  5
C3A7
330
A
100
AcDbEntity
  8
0
  6
Continuous
 62
     7
370
    15
100
AcDbCircle
 10
-133.3520397722809
 20
-130.5379994860742
 30
0.0
 40
2.209283777556493
100
AcDbArc
 50
1.265312265700363
 51
32.99651998280034
  0
LINE
  5
C3A8
330
A
100
AcDbEntity
  8
0
  6
Continuous
 62
     7
370
    15
100
AcDbLine
 10
-131.1432947034809
 20
-130.4892139267742
 30
0.0
 11
-131.1432947034809
 21
-132.3587445229742
 31
0.0
  0
ARC
  5
C3A9
330
A
100
AcDbEntity
  8
0
  6
Continuous
 62
     7
370
    15
100
AcDbCircle
 10
-153.8881010523809
 20
-142.8926690028742
 30
0.0
 40
26.82628381610716
100
AcDbArc
 50
31.43523765890002
 51
72.43814492139995
  0
ARC
  5
C3AA
330
A
100
AcDbEntity
  8
0
  6
Continuous
 62
     7
370
    15
100
AcDbCircle
 10
-132.8520396902809
 20
-130.1049867131742
 30
0.0
 40
2.209283777556436
100
AcDbArc
 50
1.265312265699658
 51
32.99651998279951
  0
LINE
  5
C3AB
330
A
100
AcDbEntity
  8
0
  6
Continuous
 62
     7
370
    15
100
AcDbLine
 10
-130.6432946214809
 20
-130.0562011538742
 30
0.0
 11
-130.6432946214809
 21
-133.4598436165742
 31
0.0
  0
LINE
  5
C3AC
330
A
100
AcDbEntity
  8
0
  6
Continuous
 62
     7
370
    15
100
AcDbLine
 10
-198.1932758972809
 20
-102.1902466210742
 30
0.0
 11
-145.7936660589809
 21
-117.3167110438742
 31
0.0
  0
ARC
  5
C3AD
330
A
100
AcDbEntity
  8
0
  6
Continuous
 62
     7
370
    15
100
AcDbCircle
 10
-198.6475840278809
 20
-103.4916367517742
 30
0.0
 40
1.378409282334005
100
AcDbArc
 50
70.75618652140007
 51
128.3365985861989
  0
ARC
  5
C3AE
330
A
100
AcDbEntity
  8
0
  6
Continuous
 62
     7
370
    15
100
AcDbCircle
 10
-148.8584330468809
 20
-139.1531245245742
 30
0.0
 40
24.63552334577514
100
AcDbArc
 50
2.822754429000022
 51
72.7995165933
  0
ARC
  5
C3AF
330
A
100
AcDbEntity
  8
0
  6
Continuous
 62
     7
370
    15
100
AcDbCircle
 10
-145.7935693534809
 20
-136.5047147204742
 30
0.0
 40
24.56830425337894
100
AcDbArc
 50
2.712962348100009
 51
72.90930867429994
  0
LINE
  5
C3B0
330
A
100
AcDbEntity
  8
0
  6
Continuous
 62
     7
370
    15
100
AcDbLine
 10
-205.2261790477809
 20
-97.24440361167422
 30
0.0
 11
-205.2261790477809
 21
-109.7498306555742
 31
0.0
  0
LINE
  5
C3B1
330
A
100
AcDbEntity
  8
0
  6
Continuous
 62
     7
370
    15
100
AcDbLine
 10
-141.5733119212809
 20
-115.6194035967742
 30
0.0
 11
-205.2261790477809
 21
-97.24440361167422
 31
0.0
  0
LINE
  5
C3B2
330
A
100
AcDbEntity
  8
0
  6
Continuous
 62
     7
370
    15
100
AcDbLine
 10
-124.2528010065809
 20
-146.6001667557742
 30
0.0
 11
-124.2528010065809
 21
-137.9399129114742
 31
0.0
  0
ARC
  5
C3B3
330
A
100
AcDbEntity
  8
0
  6
Continuous
 62
     7
370
    15
100
AcDbCircle
 10
-136.7669332815809
 20
-147.2382881757742
 30
0.0
 40
12.53039127658131
100
AcDbArc
 50
296.2154376728
 51
2.91910167079997
  0
LINE
  5
C3B4
330
A
100
AcDbEntity
  8
0
  6
Continuous
 62
     7
370
    15
100
AcDbLine
 10
-129.8819710865809
 20
-135.5450523865742
 30
0.0
 11
-129.8819710865809
 21
-135.4488859351742
 31
0.0
  0
LWPOLYLINE
  5
C3B5
330
A
100
AcDbEntity
  8
0
  6
Continuous
 62
     7
370
    15
100
AcDbPolyline
 90
        9
 70
   128
 43
0.0
 10
-129.8819710865809
 20
-135.4488859351742
 10
-129.2376674764809
 20
-135.5374746525742
 10
-128.6378724667809
 20
-135.4559587573742
 10
-128.1203067416809
 20
-135.2094680957742
 10
-127.7175355238809
 20
-134.8135061147742
 10
-127.4548844522809
 20
-134.2929843715742
 10
-127.3488845553809
 20
-133.6806425572742
 10
-127.4062011541809
 20
-133.0150021691742
 10
-127.6232273613809
 20
-132.3379351629742
  0
ARC
  5
C3B6
330
A
100
AcDbEntity
  8
0
  6
Continuous
 62
     7
370
    15
100
AcDbCircle
 10
-153.6020059043809
 20
-143.5254177791742
 30
0.0
 40
28.28527358669134
100
AcDbArc
 50
23.29861022979994
 51
72.37453259129998
  0
LINE
  5
C3B7
330
A
100
AcDbEntity
  8
0
  6
Continuous
 62
     7
370
    15
100
AcDbLine
 10
-145.0374076518809
 20
-116.5679631766742
 30
0.0
 11
-195.4833928680809
 21
-102.0054616046742
 31
0.0
  0
ARC
  5
C3B8
330
A
100
AcDbEntity
  8
0
  6
Continuous
 62
     7
370
    15
100
AcDbCircle
 10
-197.6570261847809
 20
-104.0517632335742
 30
0.0
 40
2.985302690129569
100
AcDbArc
 50
43.27169008630056
 51
72.96431757260012
  0
LINE
  5
C3B9
330
A
100
AcDbEntity
  8
0
  6
Continuous
 62
     7
370
    15
100
AcDbLine
 10
-196.7824303801809
 20
-101.1974481965742
 30
0.0
 11
-201.1125581088809
 21
-99.94744799167422
 31
0.0
  0
ARC
  5
C3BA
330
A
100
AcDbEntity
  8
0
  6
Continuous
 62
     7
370
    15
100
AcDbCircle
 10
-201.6913838571809
 20
-101.4256030482742
 30
0.0
 40
1.587444996944768
100
AcDbArc
 50
68.6153534343006
 51
182.2350802028
  0
LINE
  5
C3BB
330
A
100
AcDbEntity
  8
0
  6
Continuous
 62
     7
370
    15
100
AcDbLine
 10
-203.2776211666809
 20
-101.4875127929742
 30
0.0
 11
-203.2776211666809
 21
-105.2416774220742
 31
0.0
  0
ARC
  5
C3BC
330
A
100
AcDbEntity
  8
0
  6
Continuous
 62
     7
370
    15
100
AcDbCircle
 10
-200.2994206419809
 20
-105.1223939882742
 30
0.0
 40
2.98058834841524
100
AcDbArc
 50
182.2935951539999
 51
226.1427208720998
  0
LWPOLYLINE
  5
C3BD
330
A
100
AcDbEntity
  8
0
  6
Continuous
 62
     7
370
    15
100
AcDbPolyline
 90
        3
 70
   128
 43
0.0
 10
-129.2233431660809
 20
-152.4359953919742
 10
-128.5882729289809
 20
-151.6807352311742
 10
-127.6232273613809
 20
-150.2562279409742
  0
ARC
  5
C3BE
330
A
100
AcDbEntity
  8
0
  6
Continuous
 62
     7
370
    15
100
AcDbCircle
 10
-130.7023890444809
 20
-149.0902375501742
 30
0.0
 40
3.292532499749743
100
AcDbArc
 50
339.2597575056997
 51
59.15257262909992
  0
ARC
  5
C3BF
330
A
100
AcDbEntity
  8
0
  6
Continuous
 62
     7
370
    15
100
AcDbCircle
 10
-198.4029587236809
 20
-103.2558626893742
 30
0.0
 40
2.624926966824992
100
AcDbArc
 50
180.8132714841001
 51
204.5099037141
  0
LINE
  5
C3C0
330
A
100
AcDbEntity
  8
0
  6
Continuous
 62
     7
370
    15
100
AcDbLine
 10
-201.0276212634809
 20
-99.97196768467423
 30
0.0
 11
-201.0276212634809
 21
-103.2931203474742
 31
0.0
  0
LINE
  5
C3C1
330
A
100
AcDbEntity
  8
0
  6
Continuous
 62
     7
370
    15
100
AcDbLine
 10
-202.2261794873809
 20
-94.64632778107422
 30
0.0
 11
-205.2261790477809
 21
-97.24440361167422
 31
0.0
  0
LINE
  5
C3C2
330
A
100
AcDbEntity
  8
0
  6
Continuous
 62
     7
370
    15
100
AcDbLine
 10
-138.5733123608809
 20
-113.0213277661742
 30
0.0
 11
-202.2261794873809
 21
-94.64632778107422
 31
0.0
  0
LINE
  5
C3C3
330
A
100
AcDbEntity
  8
0
  6
Continuous
 62
     7
370
    15
100
AcDbLine
 10
-129.6187215849809
 20
-135.2209051792742
 30
0.0
 11
-129.8819710865809
 21
-135.4488859351742
 31
0.0
  0
ELLIPSE
  5
C3C4
330
A
100
AcDbEntity
  8
0
  6
Continuous
 62
     7
370
    15
100
AcDbEllipse
 10
-129.7450204675809
 20
-132.6600575094742
 30
0.0
 11
5.124090257212686
 21
1.91038737844692
 31
0.0
210
0.0
220
0.0
230
1.0
 40
0.4514162296
 41
4.56996157505151
 42
4.998695967402796
  0
LINE
  5
C3C5
330
A
100
AcDbEntity
  8
0
  6
Continuous
 62
     7
370
    15
100
AcDbLine
 10
-121.2528014461809
 20
-144.0020909250742
 30
0.0
 11
-121.2528014461809
 21
-135.3418370807742
 31
0.0
  0
ARC
  5
C3C6
330
A
100
AcDbEntity
  8
0
  6
Continuous
 62
     7
370
    15
100
AcDbCircle
 10
-134.1926328354809
 20
-144.5383399132742
 30
0.0
 40
12.95093816528874
100
AcDbArc
 50
312.2775641228001
 51
2.373078278500074
  0
ARC
  5
C3C7
330
A
100
AcDbEntity
  8
0
  6
Continuous
 62
     7
370
    15
100
AcDbCircle
 10
-154.2719242158809
 20
-143.2334042106742
 30
0.0
 40
28.09244800923598
100
AcDbArc
 50
30.00842709870003
 51
72.44764998279997
  0
ELLIPSE
  5
C3C8
330
A
100
AcDbEntity
  8
0
  6
Continuous
 62
     7
370
    15
100
AcDbEllipse
 10
-161.6545544333809
 20
-149.6650075449742
 30
0.0
 11
38.43067692909523
 21
14.32790533835221
 31
0.0
210
0.0
220
0.0
230
1.0
 40
0.4514162296000002
 41
0.4110694218377688
 42
0.4536359414828073
  0
LINE
  5
C3C9
330
A
100
AcDbEntity
  8
0
  6
Continuous
 62
     7
370
    15
100
AcDbLine
 10
-200.7913525344809
 20
-100.5742209524742
 30
0.0
 11
-200.7913525344809
 21
-105.9091587278742
 31
0.0
  0
LINE
  5
C3CA
330
A
100
AcDbEntity
  8
0
  6
Continuous
 62
     7
370
    15
100
AcDbLine
 10
-145.7998861648809
 20
-116.4488899082742
 30
0.0
 11
-200.7913525344809
 21
-100.5742209524742
 31
0.0
  0
LINE
  5
C3CB
330
A
100
AcDbEntity
  8
0
  6
Continuous
 62
     7
370
    15
100
AcDbLine
 10
-129.9452167757809
 20
-129.1836020668742
 30
0.0
 11
-129.9452167757809
 21
-135.3434079986742
 31
0.0
  0
ELLIPSE
  5
C3CC
330
A
100
AcDbEntity
  8
0
  6
Continuous
 62
     7
370
    15
100
AcDbEllipse
 10
-161.6545544333809
 20
-149.6650075449742
 30
0.0
 11
38.43067692909523
 21
14.32790533835221
 31
0.0
210
0.0
220
0.0
230
1.0
 40
0.4514162296000002
 41
5.536317736326702
 42
5.621950421852529
  0
LINE
  5
C3CD
330
A
100
AcDbEntity
  8
0
  6
Continuous
 62
     7
370
    15
100
AcDbLine
 10
-200.7913525344809
 20
-100.5742209524742
 30
0.0
 11
-200.6663522811809
 21
-100.4659675575742
 31
0.0
  0
LINE
  5
C3CE
330
A
100
AcDbEntity
  8
0
  6
Continuous
 62
     7
370
    15
100
AcDbLine
 10
-200.6663522811809
 20
-100.4659675575742
 30
0.0
 11
-199.7442847916809
 21
-100.3424339379742
 31
0.0
  0
ARC
  5
C3CF
330
A
100
AcDbEntity
  8
0
  6
Continuous
 62
     7
370
    15
100
AcDbCircle
 10
-137.2554636845809
 20
-141.4602054533742
 30
0.0
 40
12.72929358233457
100
AcDbArc
 50
310.9053435709
 51
320.9816320915999
  0
ARC
  5
C3D0
330
A
100
AcDbEntity
  8
0
  6
Continuous
 62
     7
370
    15
100
AcDbCircle
 10
-161.7033461637809
 20
-150.9337977128742
 30
0.0
 40
13.7567931994802
100
AcDbArc
 50
6.87219654919999
 51
73.44519225390007
  0
ARC
  5
C3D1
330
A
100
AcDbEntity
  8
0
  6
Continuous
 62
     7
370
    15
100
AcDbCircle
 10
-126.8753208682809
 20
-146.4359493560742
 30
0.0
 40
32.10629986562373
100
AcDbArc
 50
143.3915510367001
 51
164.2986766596
  0
SPLINE
  5
C3D2
330
A
100
AcDbEntity
  8
0
  6
Continuous
 62
     7
370
    15
100
AcDbSpline
210
0.0
220
0.0
230
1.0
 70
     8
 71
     3
 72
    16
 73
    12
 74
     0
 42
0.00000001
 43
0.00000001
 40
0.0
 40
0.0
 40
0.0
 40
0.0
 40
0.1081837447303958
 40
0.2163660725170638
 40
0.3343559570413248
 40
0.4523437031357241
 40
0.5698707620914601
 40
0.6873969561707194
 40
0.804579614645646
 40
0.921762790076269
 40
1.0
 40
1.0
 40
1.0
 40
1.0
 10
-152.6479963772147
 20
-127.2895740288241
 30
0.0
 10
-151.846530373328
 20
-127.7326351898753
 30
0.0
 10
-150.2436088628087
 20
-128.6187517089552
 30
0.0
 10
-147.811441972944
 20
-130.4242985917085
 30
0.0
 10
-145.4457217267363
 20
-132.5988481711804
 30
0.0
 10
-143.2316105101442
 20
-135.137165084782
 30
0.0
 10
-141.3185264922434
 20
-137.9105160220685
 30
0.0
 10
-139.7480286838816
 20
-140.8332029448475
 30
0.0
 10
-138.5876106561167
 20
-143.8276819235768
 30
0.0
 10
-137.9040018982584
 20
-146.4870275891685
 30
0.0
 10
-137.7293458771693
 20
-148.0873165672014
 30
0.0
 10
-137.6594217504636
 20
-148.7279976531892
 30
0.0
  0
ARC
  5
C3D3
330
A
100
AcDbEntity
  8
0
  6
Continuous
 62
     7
370
    15
100
AcDbCircle
 10
-143.9664899274809
 20
-128.3356627699742
 30
0.0
 40
21.34540772578357
100
AcDbArc
 50
258.9835856747
 51
287.1861176783
  0
ARC
  5
C3D4
330
A
100
AcDbEntity
  8
0
  6
Continuous
 62
     7
370
    15
100
AcDbCircle
 10
-153.6888609860809
 20
-143.3476628256742
 30
0.0
 40
24.56829322988665
100
AcDbArc
 50
2.712944281499967
 51
72.90932674090006
  0
LINE
  5
C3D5
330
A
100
AcDbEntity
  8
0
  6
Continuous
 62
     7
370
    15
100
AcDbLine
 10
-137.6594217504809
 20
-148.7279976531742
 30
0.0
 11
-137.6155190709809
 21
-149.5177902414742
 31
0.0
  0
LINE
  5
C3D6
330
A
100
AcDbEntity
  8
0
  6
Continuous
 62
     7
370
    15
100
AcDbLine
 10
-154.4360177964809
 20
-126.7642576688742
 30
0.0
 11
-152.6479963771809
 21
-127.2895740287742
 31
0.0
  0
LINE
  5
C3D7
330
A
100
AcDbEntity
  8
0
  6
Continuous
 62
     7
370
    15
100
AcDbLine
 10
-148.0453883306809
 20
-158.8140069459742
 30
0.0
 11
-148.0453883306809
 21
-149.2877275559742
 31
0.0
  0
ARC
  5
C3D8
330
A
100
AcDbEntity
  8
0
  6
Continuous
 62
     7
370
    15
100
AcDbCircle
 10
-154.9425166278809
 20
-159.9387591782742
 30
0.0
 40
6.988236281996508
100
AcDbArc
 50
260.8196378423999
 51
9.262005378499918
  0
LINE
  5
C3D9
330
A
100
AcDbEntity
  8
0
  6
Continuous
 62
     7
370
    15
100
AcDbLine
 10
-156.0574397068809
 20
-166.8374831806742
 30
0.0
 11
-211.2961617405809
 21
-154.8437584785742
 31
0.0
  0
LINE
  5
C3DA
330
A
100
AcDbEntity
  8
0
  6
Continuous
 62
     7
370
    15
100
AcDbLine
 10
-211.2961617405809
 20
-154.8437584785742
 30
0.0
 11
-211.2961617405809
 21
-149.6476060106742
 31
0.0
  0
LINE
  5
C3DB
330
A
100
AcDbEntity
  8
0
  6
Continuous
 62
     7
370
    15
100
AcDbLine
 10
-211.2961617405809
 20
-149.6476060106742
 30
0.0
 11
-226.7971327731809
 21
-145.1728611114742
 31
0.0
  0
LINE
  5
C3DC
330
A
100
AcDbEntity
  8
0
  6
Continuous
 62
     7
370
    15
100
AcDbLine
 10
-226.7971327731809
 20
-145.1728611114742
 30
0.0
 11
-226.7971327731809
 21
-119.1920995786742
 31
0.0
  0
LINE
  5
C3DD
330
A
100
AcDbEntity
  8
0
  6
Continuous
 62
     7
370
    15
100
AcDbLine
 10
-226.7971327731809
 20
-119.1920995786742
 30
0.0
 11
-211.2961617405809
 21
-123.6668444778742
 31
0.0
  0
LINE
  5
C3DE
330
A
100
AcDbEntity
  8
0
  6
Continuous
 62
     7
370
    15
100
AcDbLine
 10
-211.2961617405809
 20
-123.6668444778742
 30
0.0
 11
-211.2961617405809
 21
-118.4706920099742
 31
0.0
  0
LINE
  5
C3DF
330
A
100
AcDbEntity
  8
0
  6
Continuous
 62
     7
370
    15
100
AcDbLine
 10
-157.7835900857809
 20
-137.7472564141742
 30
0.0
 11
-211.2961617405809
 21
-118.4706920099742
 31
0.0
  0
SPLINE
  5
C3E0
330
A
100
AcDbEntity
  8
0
  6
Continuous
 62
     7
370
    15
100
AcDbSpline
210
0.0
220
0.0
230
1.0
 70
     8
 71
     3
 72
     9
 73
     5
 74
     0
 42
0.00000001
 43
0.00000001
 40
0.0
 40
0.0
 40
0.0
 40
0.0
 40
0.4918708131196827
 40
1.0
 40
1.0
 40
1.0
 40
1.0
 10
-210.2961615766497
 20
-114.1405642813039
 30
0.0
 10
-210.5046781600642
 20
-114.8503772265342
 30
0.0
 10
-210.9286036662187
 20
-116.2934653836223
 30
0.0
 10
-211.1723215635589
 20
-117.7371259435447
 30
0.0
 10
-211.2961617405625
 20
-118.4706920099892
 30
0.0
  0
SPLINE
  5
C3E1
330
A
100
AcDbEntity
  8
0
  6
Continuous
 62
     7
370
    15
100
AcDbSpline
210
0.0
220
0.0
230
1.0
 70
     8
 71
     3
 72
    12
 73
     8
 74
     0
 42
0.00000001
 43
0.00000001
 40
0.0
 40
0.0
 40
0.0
 40
0.0
 40
0.1014880547880107
 40
0.2030095566976617
 40
0.4067497406903752
 40
0.7032946373191057
 40
1.0
 40
1.0
 40
1.0
 40
1.0
 10
-154.4360177965252
 20
-126.7642576688278
 30
0.0
 10
-156.3996510500954
 20
-126.4278560857745
 30
0.0
 10
-160.3275647061089
 20
-125.7549420527812
 30
0.0
 10
-168.0328919704935
 20
-124.1853608398295
 30
0.0
 10
-179.3069480795629
 20
-121.7180736026194
 30
0.0
 10
-194.0361309504158
 20
-118.2269081180354
 30
0.0
 10
-204.8751740971072
 20
-115.502924493608
 30
0.0
 10
-210.2961615766497
 20
-114.1405642813039
 30
0.0
  0
LINE
  5
C3E2
330
A
100
AcDbEntity
  8
0
  6
Continuous
 62
     7
370
    15
100
AcDbLine
 10
-199.2961616362809
 20
-104.6142848912742
 30
0.0
 11
-210.2961615766809
 21
-114.1405642812742
 31
0.0
  0
LINE
  5
C3E3
330
A
100
AcDbEntity
  8
0
  6
Continuous
 62
     7
370
    15
100
AcDbLine
 10
-199.2961616362809
 20
-104.6142848912742
 30
0.0
 11
-146.4686146379809
 21
-119.8642841313742
 31
0.0
  0
LINE
  5
C3E4
330
A
100
AcDbEntity
  8
0
  6
Continuous
 62
     7
370
    15
100
AcDbLine
 10
-137.6155190709809
 20
-158.1780440857742
 30
0.0
 11
-137.6155190709809
 21
-149.5177902414742
 31
0.0
  0
LINE
  5
C3E5
330
A
100
AcDbEntity
  8
0
  6
Continuous
 62
     7
370
    15
100
AcDbLine
 10
-137.6155190709809
 20
-158.1780440857742
 30
0.0
 11
-137.6157745135809
 21
-158.2393597482742
 31
0.0
  0
ARC
  5
C3E6
330
A
100
AcDbEntity
  8
0
  6
Continuous
 62
     7
370
    15
100
AcDbCircle
 10
-143.9673577258809
 20
-137.8946540052742
 30
0.0
 40
21.31313353472522
100
AcDbArc
 50
258.9690713374
 51
287.3382767672
  0
SPLINE
  5
C3E7
330
A
100
AcDbEntity
  8
0
  6
Continuous
 62
     7
370
    15
100
AcDbSpline
210
0.0
220
0.0
230
1.0
 70
     8
 71
     3
 72
    15
 73
    11
 74
     0
 42
0.00000001
 43
0.00000001
 40
0.0
 40
0.0
 40
0.0
 40
0.0
 40
0.1312226303987478
 40
0.2656181768949567
 40
0.4087134442354007
 40
0.5559685096135615
 40
0.698903775109204
 40
0.8459740399321016
 40
0.9891109212544115
 40
1.0
 40
1.0
 40
1.0
 40
1.0
 10
-137.6157745135819
 20
-158.2393597482246
 30
0.0
 10
-137.684753199756
 20
-159.1239028683599
 30
0.0
 10
-137.8243784519746
 20
-160.9143770437471
 30
0.0
 10
-138.5210745167146
 20
-163.4215417632016
 30
0.0
 10
-139.6147894616756
 20
-165.7481072070286
 30
0.0
 10
-141.1346206863036
 20
-167.7368732416395
 30
0.0
 10
-143.0150806266727
 20
-169.3212922524249
 30
0.0
 10
-145.1858732194807
 20
-170.3516677365796
 30
0.0
 10
-146.8170564327472
 20
-170.8640893108308
 30
0.0
 10
-147.7152017301108
 20
-170.8690499798419
 30
0.0
 10
-147.7786973568458
 20
-170.8694006812136
 30
0.0
  0
LWPOLYLINE
  5
C3E8
330
A
100
AcDbEntity
  8
0
  6
Continuous
 62
     7
370
    15
100
AcDbPolyline
 90
        8
 70
   128
 43
0.0
 10
-156.0574397068809
 20
-166.8374831806742
 10
-155.8023644234809
 20
-167.8487093247742
 10
-155.4632954854809
 20
-168.7248663358742
 10
-155.0451907884809
 20
-169.4531425862742
 10
-154.5541630681809
 20
-170.0228912256742
 10
-153.9973914246809
 20
-170.4257826192742
 10
-153.3830158501809
 20
-170.6559243215742
 10
-153.2978724777809
 20
-170.6732280240742
  0
LINE
  5
C3E9
330
A
100
AcDbEntity
  8
0
  6
Continuous
 62
     7
370
    15
100
AcDbLine
 10
-129.1481037232809
 20
-142.1847934459742
 30
0.0
 11
-129.1481037232809
 21
-150.8450472902742
 31
0.0
  0
ARC
  5
C3EA
330
A
100
AcDbEntity
  8
0
  6
Continuous
 62
     7
370
    15
100
AcDbCircle
 10
-142.0879952615809
 20
-151.3812784685742
 30
0.0
 40
12.95099752526385
100
AcDbArc
 50
312.2777235820998
 51
2.372988535700004
  0
SPLINE
  5
C3EB
330
A
100
AcDbEntity
  8
0
  6
Continuous
 62
     7
370
    15
100
AcDbSpline
210
0.0
220
0.0
230
1.0
 70
     8
 71
     3
 72
    10
 73
     6
 74
     0
 42
0.00000001
 43
0.00000001
 40
0.0
 40
0.0
 40
0.0
 40
0.0
 40
0.1559387658139179
 40
0.5778552294178464
 40
1.0
 40
1.0
 40
1.0
 40
1.0
 10
-171.3835840629651
 20
-166.7194777490978
 30
0.0
 10
-173.4414903992093
 20
-166.2755233317033
 30
0.0
 10
-181.067380804613
 20
-164.6303815327698
 30
0.0
 10
-194.0291207368299
 20
-161.5202387890109
 30
0.0
 10
-204.8728369379128
 20
-158.8015481296825
 30
0.0
 10
-210.2961615766497
 20
-157.441835115765
 30
0.0
  0
ARC
  5
C3EC
330
A
100
AcDbEntity
  8
0
  6
Continuous
 62
     7
370
    15
100
AcDbCircle
 10
-204.4489024754809
 20
-153.6997355984742
 30
0.0
 40
6.942171691447627
100
AcDbArc
 50
189.4852228579001
 51
212.6182260127999
  0
LWPOLYLINE
  5
C3ED
330
A
100
AcDbEntity
  8
0
  6
Continuous
 62
     7
370
    15
100
AcDbPolyline
 90
       14
 70
   128
 43
0.0
 10
-211.2961608047809
 20
-119.9087745396742
 10
-211.6203494797809
 20
-119.9960646667742
 10
-212.9747288671809
 20
-120.2889215918742
 10
-214.3965589437809
 20
-120.4862840213742
 10
-215.8590476534809
 20
-120.5844326221742
 10
-217.3346403196809
 20
-120.5815189475742
 10
-218.7955326028809
 20
-120.4775980261742
 10
-220.2142002519809
 20
-120.2746270674742
 10
-221.5639119249809
 20
-119.9764308772742
 10
-222.8192377343809
 20
-119.5886281809742
 10
-223.9565242305809
 20
-119.1185251558742
 10
-224.9543425603809
 20
-118.5749801448742
 10
-225.7938933522809
 20
-117.9682346187742
 10
-225.9702859058809
 20
-117.8142090132742
  0
ARC
  5
C3EE
330
A
100
AcDbEntity
  8
0
  6
Continuous
 62
     7
370
    15
100
AcDbCircle
 10
-223.7892844941809
 20
-114.1879472613742
 30
0.0
 40
5.838552190806851
100
AcDbArc
 50
208.3511975587998
 51
238.9911658795002
  0
LWPOLYLINE
  5
C3EF
330
A
100
AcDbEntity
  8
0
  6
Continuous
 62
     7
370
    15
100
AcDbPolyline
 90
        3
 70
   128
 43
0.0
 10
-225.8941647638809
 20
-117.8361830253742
 10
-225.5722504557809
 20
-118.1265301447742
 10
-225.2279667218809
 20
-118.3961180336742
  0
ARC
  5
C3F0
330
A
100
AcDbEntity
  8
0
  6
Continuous
 62
     7
370
    15
100
AcDbCircle
 10
-224.5923937125809
 20
-140.9860292660742
 30
0.0
 40
4.731853255020503
100
AcDbArc
 50
185.2373353964001
 51
242.2292083113003
  0
ELLIPSE
  5
C3F1
330
A
100
AcDbEntity
  8
0
  6
Continuous
 62
     7
370
    15
100
AcDbEllipse
 10
-216.7709981336809
 20
-121.6966835628742
 30
0.0
 11
10.24468602249749
 21
7.705621167693464
 31
0.0
210
0.0
220
0.0
230
1.0
 40
0.0428275111
 41
5.092058231642177
 42
5.255094006081006
  0
ARC
  5
C3F2
330
A
100
AcDbEntity
  8
0
  6
Continuous
 62
     7
370
    15
100
AcDbCircle
 10
-216.7531547521809
 20
-100.2116458904742
 30
0.0
 40
19.47020155806475
100
AcDbArc
 50
254.6841920158001
 51
282.1125504376
  0
LWPOLYLINE
  5
C3F3
330
A
100
AcDbEntity
  8
0
  6
Continuous
 62
     7
370
    15
100
AcDbPolyline
 90
       36
 70
   128
 43
0.0
 10
-219.6544922588809
 20
-109.2451161209742
 10
-218.6459372105809
 20
-109.4787356591742
 10
-217.5701633487809
 20
-109.6185580243742
 10
-216.4617427096809
 20
-109.6600906200742
 10
-215.3563049328809
 20
-109.6019975228742
 10
-214.2893778793809
 20
-109.4461459610742
 10
-213.2952528244809
 20
-109.1975455511742
 10
-212.4058814421809
 20
-108.8641865459742
 10
-211.6498518203809
 20
-108.4567826115742
 10
-211.0514602359809
 20
-107.9884288966742
 10
-210.6299402890809
 20
-107.4741784500742
 10
-210.3988409313809
 20
-106.9305594567742
 10
-210.3655897606809
 20
-106.3750443029742
 10
-210.5312534050809
 20
-105.8254881600742
 10
-210.8905099320809
 20
-105.2995537473742
 10
-211.4318105003809
 20
-104.8141453840742
 10
-212.1377605630809
 20
-104.3848636778742
 10
-212.9856652954809
 20
-104.0255074409742
 10
-213.9482766980809
 20
-103.7476254646742
 10
-214.9946539378809
 20
-103.5601495983742
 10
-216.0911650819809
 20
-103.4691055730742
 10
-217.2025689268809
 20
-103.4774192674742
 10
-218.2931415080809
 20
-103.5848240672742
 10
-219.3278332978809
 20
-103.7878674435742
 10
-220.2733873767809
 20
-104.0800234325742
 10
-221.0994134142809
 20
-104.4519018864742
 10
-221.7793613421809
 20
-104.8915506008742
 10
-222.2913787866809
 20
-105.3848383822742
 10
-222.6190066762809
 20
-105.9159112443742
 10
-222.7517165257809
 20
-106.4676996193742
 10
-222.6852433455809
 20
-107.0224683675742
 10
-222.4217210292809
 20
-107.5623875802742
 10
-221.9696223366809
 20
-108.0701027273742
 10
-221.3434770644809
 20
-108.5292961796742
 10
-220.5634090798809
 20
-108.9252092092742
 10
-219.6544922588809
 20
-109.2451161209742
  0
LINE
  5
C3F4
330
A
100
AcDbEntity
  8
0
  6
Continuous
 62
     7
370
    15
100
AcDbLine
 10
-237.4999997540809
 20
-104.6997794022742
 30
0.0
 11
-218.9999995156809
 21
-88.67830922577423
 31
0.0
  0
LINE
  5
C3F5
330
A
100
AcDbEntity
  8
0
  6
Continuous
 62
     7
370
    15
100
AcDbLine
 10
-218.9999995156809
 20
-88.67830922577423
 30
0.0
 11
-217.7009613987809
 21
-89.05330922907422
 31
0.0
  0
LWPOLYLINE
  5
C3F6
330
A
100
AcDbEntity
  8
0
  6
Continuous
 62
     7
370
    15
100
AcDbPolyline
 90
        9
 70
   128
 43
0.0
 10
-216.6028856122809
 20
-91.10234749597423
 10
-216.3601710371809
 20
-90.83450676287423
 10
-216.2266269102809
 20
-90.54813667497422
 10
-216.2073852085809
 20
-90.25424328767423
 10
-216.3031844411809
 20
-89.96411910207422
 10
-216.5103439183809
 20
-89.68891495687423
 10
-216.8209018523809
 20
-89.43920549037422
 10
-217.2229243761809
 20
-89.22458806917422
 10
-217.7009613987809
 20
-89.05330922907422
  0
LINE
  5
C3F7
330
A
100
AcDbEntity
  8
0
  6
Continuous
 62
     7
370
    15
100
AcDbLine
 10
-216.6028856122809
 20
-91.10234749597423
 30
0.0
 11
-224.3528854856809
 21
-97.81404426557422
 31
0.0
  0
LWPOLYLINE
  5
C3F8
330
A
100
AcDbEntity
  8
0
  6
Continuous
 62
     7
370
    15
100
AcDbPolyline
 90
        9
 70
   128
 43
0.0
 10
-223.9868600218809
 20
-98.49705707947422
 10
-224.1462060272809
 20
-98.43996457477422
 10
-224.2802135351809
 20
-98.36842543437422
 10
-224.3837328257809
 20
-98.28518877237423
 10
-224.4527860728809
 20
-98.19345421107423
 10
-224.4847187054809
 20
-98.09674591917423
 10
-224.4783050945809
 20
-97.99878155237423
 10
-224.4337900959809
 20
-97.90332476077423
 10
-224.3528854856809
 20
-97.81404426557422
  0
LINE
  5
C3F9
330
A
100
AcDbEntity
  8
0
  6
Continuous
 62
     7
370
    15
100
AcDbLine
 10
-223.9868600218809
 20
-98.49705707947422
 30
0.0
 11
-223.2907074086809
 21
-98.69801902877423
 31
0.0
  0
ARC
  5
C3FA
330
A
100
AcDbEntity
  8
0
  6
Continuous
 62
     7
370
    15
100
AcDbCircle
 10
-233.3127437392809
 20
-108.5486876536742
 30
0.0
 40
5.687460563506456
100
AcDbArc
 50
137.4109084156997
 51
180.4856427135
  0
LWPOLYLINE
  5
C3FB
330
A
100
AcDbEntity
  8
0
  6
Continuous
 62
     7
370
    15
100
AcDbPolyline
 90
       18
 70
   128
 43
0.0
 10
-210.3696314214809
 20
-106.7769445284742
 10
-210.5312534050809
 20
-106.2585017394742
 10
-210.8905099320809
 20
-105.7325673267742
 10
-211.4318105003809
 20
-105.2471589634742
 10
-212.1377605630809
 20
-104.8178772572742
 10
-212.9856652954809
 20
-104.4585210203742
 10
-213.9482766980809
 20
-104.1806390441742
 10
-214.9946539378809
 20
-103.9931631778742
 10
-216.0911650819809
 20
-103.9021191525742
 10
-217.2025689268809
 20
-103.9104328468742
 10
-218.2931415080809
 20
-104.0178376466742
 10
-219.3278332978809
 20
-104.2208810229742
 10
-220.2733873767809
 20
-104.5130370119742
 10
-221.0994134142809
 20
-104.8849154658742
 10
-221.7793613421809
 20
-105.3245641803742
 10
-222.2913787866809
 20
-105.8178519616742
 10
-222.6190066762809
 20
-106.3489248238742
 10
-222.7393521726809
 20
-106.7769446569742
  0
LINE
  5
C3FC
330
A
100
AcDbEntity
  8
0
  6
Continuous
 62
     7
370
    15
100
AcDbLine
 10
-233.8038475320809
 20
-142.7460514769742
 30
0.0
 11
-233.8038475320809
 21
-115.5528548253742
 31
0.0
  0
LINE
  5
C3FD
330
A
100
AcDbEntity
  8
0
  6
Continuous
 62
     7
370
    15
100
AcDbLine
 10
-227.6549509821809
 20
-144.5210850160742
 30
0.0
 11
-233.8038475320809
 21
-142.7460514769742
 31
0.0
  0
LINE
  5
C3FE
330
A
100
AcDbEntity
  8
0
  6
Continuous
 62
     7
370
    15
100
AcDbLine
 10
-238.9999999999809
 20
-146.7020119180742
 30
0.0
 11
-238.9999999999809
 21
-108.5968943580742
 31
0.0
  0
LINE
  5
C3FF
330
A
100
AcDbEntity
  8
0
  6
Continuous
 62
     7
370
    15
100
AcDbLine
 10
-233.8038475320809
 20
-115.5528548253742
 30
0.0
 11
-221.8959974880809
 21
-118.9903550395742
 31
0.0
  0
LINE
  5
C400
330
A
100
AcDbEntity
  8
0
  6
Continuous
 62
     7
370
    15
100
AcDbLine
 10
-233.8038475320809
 20
-142.7460514769742
 30
0.0
 11
-229.3044917353809
 21
-138.8494950562742
 31
0.0
  0
SPLINE
  5
C401
330
A
100
AcDbEntity
  8
0
  6
Continuous
 62
     7
370
    15
100
AcDbSpline
210
0.0
220
0.0
230
1.0
 70
     8
 71
     3
 72
    10
 73
     6
 74
     0
 42
0.00000001
 43
0.00000001
 40
0.0
 40
0.0
 40
0.0
 40
0.0
 40
0.3938028350691509
 40
0.9116071167978932
 40
0.9999999999999999
 40
0.9999999999999999
 40
0.9999999999999999
 40
0.9999999999999999
 10
-223.2907074087072
 20
-98.6980190287335
 30
0.0
 10
-222.8994033178937
 20
-98.8526825511823
 30
0.0
 10
-221.9935804993375
 20
-99.21071036413241
 30
0.0
 10
-221.0737493282029
 20
-99.94095420472789
 30
0.0
 10
-220.6069898652101
 20
-100.4576949302147
 30
0.0
 10
-220.5389291465485
 20
-100.5330436867516
 30
0.0
  0
LWPOLYLINE
  5
C402
330
A
100
AcDbEntity
  8
0
  6
Continuous
 62
     7
370
    15
100
AcDbPolyline
 90
       19
 70
   128
 43
0.0
 10
-217.5773004824809
 20
-101.5549661665742
 10
-217.3730400213809
 20
-100.8088817173742
 10
-217.1546104187809
 20
-99.73456892287422
 10
-217.0309410253809
 20
-98.68899185647422
 10
-217.0060076573809
 20
-97.70575699567422
 10
-217.0806093895809
 20
-96.81646493067421
 10
-217.2523499289809
 20
-96.04969895177422
 10
-217.5157083952809
 20
-95.43010397057422
 10
-217.8622218603809
 20
-94.97759287537423
 10
-218.2807517060809
 20
-94.70671097117422
 10
-218.7578459093809
 20
-94.62616414787422
 10
-219.2781711751809
 20
-94.73854304087422
 10
-219.8250037440809
 20
-95.04023189107423
 10
-220.3807676965809
 20
-95.52153759237422
 10
-220.9276002654809
 20
-96.16699053487422
 10
-221.4479255312809
 20
-96.95584143867423
 10
-221.9250197345809
 20
-97.86273966197422
 10
-222.3435495803809
 20
-98.85853652357422
 10
-222.4264503279809
 20
-99.08658019027422
  0
LWPOLYLINE
  5
C403
330
A
100
AcDbEntity
  8
0
  6
Continuous
 62
     7
370
    15
100
AcDbPolyline
 90
        7
 70
   128
 43
0.0
 10
-238.9999999999809
 20
-146.7020119180742
 10
-238.9711778945809
 20
-147.1839108361742
 10
-238.8858193866809
 20
-147.5973696348742
 10
-238.7472041286809
 20
-147.9264988954742
 10
-238.5606602169809
 20
-148.1586495097742
 10
-238.3333551101809
 20
-148.2849026588742
 10
-238.3320503271809
 20
-148.2852809302742
  0
ARC
  5
C404
330
A
100
AcDbEntity
  8
0
  6
Continuous
 62
     7
370
    15
100
AcDbCircle
 10
-224.5130646837809
 20
-98.68907313987422
 30
0.0
 40
3.454937833081195
100
AcDbArc
 50
339.7946368501001
 51
28.84278787270015
  0
LINE
  5
C405
330
A
100
AcDbEntity
  8
0
  6
Continuous
 62
     7
370
    15
100
AcDbLine
 10
-216.0834769382809
 20
-108.0372773243742
 30
0.0
 11
-214.3610238244809
 21
-107.2681073617742
 31
0.0
  0
LINE
  5
C406
330
A
100
AcDbEntity
  8
0
  6
Continuous
 62
     7
370
    15
100
AcDbLine
 10
-214.3610238244809
 20
-107.2681073617742
 30
0.0
 11
-214.8320390997809
 21
-106.1376785534742
 31
0.0
  0
LINE
  5
C407
330
A
100
AcDbEntity
  8
0
  6
Continuous
 62
     7
370
    15
100
AcDbLine
 10
-214.8320390997809
 20
-106.1376785534742
 30
0.0
 11
-217.0255074015809
 21
-105.7764196321742
 31
0.0
  0
LINE
  5
C408
330
A
100
AcDbEntity
  8
0
  6
Continuous
 62
     7
370
    15
100
AcDbLine
 10
-217.0255074015809
 20
-105.7764196321742
 30
0.0
 11
-218.7479605152809
 21
-106.5455895946742
 31
0.0
  0
LINE
  5
C409
330
A
100
AcDbEntity
  8
0
  6
Continuous
 62
     7
370
    15
100
AcDbLine
 10
-218.7479605152809
 20
-106.5455895946742
 30
0.0
 11
-218.2769436268809
 21
-107.6760188686742
 31
0.0
  0
LINE
  5
C40A
330
A
100
AcDbEntity
  8
0
  6
Continuous
 62
     7
370
    15
100
AcDbLine
 10
-218.2769436268809
 20
-107.6760188686742
 30
0.0
 11
-216.0834769382809
 21
-108.0372773243742
 31
0.0
  0
LWPOLYLINE
  5
C40B
330
A
100
AcDbEntity
  8
0
  6
Continuous
 62
     7
370
    15
100
AcDbPolyline
 90
       22
 70
   128
 43
0.0
 10
-222.3853729320809
 20
-107.6141025542742
 10
-222.4283727599809
 20
-107.5187155750742
 10
-222.5532187208809
 20
-106.9686361576742
 10
-222.4737865216809
 20
-106.4164521861742
 10
-222.1927791193809
 20
-105.8809684104742
 10
-221.7197661792809
 20
-105.3804198601742
 10
-221.0708564115809
 20
-104.9318518724742
 10
-220.2681472073809
 20
-104.5505400861742
 10
-219.3389745199809
 20
-104.2494693418742
 10
-218.3149788703809
 20
-104.0388926920742
 10
-217.2310316161809
 20
-103.9259808050742
 10
-216.1240472272809
 20
-103.9145784703742
 10
-215.0317194088809
 20
-104.0050748994742
 10
-213.9912482996809
 20
-104.1943873694742
 10
-213.0380662373809
 20
-104.4760693536742
 10
-212.2046313879809
 20
-104.8405286480742
 10
-211.5193253850809
 20
-105.2753541983742
 10
-211.0054851283809
 20
-105.7657386235742
 10
-210.6806115797809
 20
-106.2949813814742
 10
-210.5557640057809
 20
-106.8450612645742
 10
-210.6351978180809
 20
-107.3972447703742
 10
-210.7236119411809
 20
-107.6141024917742
  0
LINE
  5
C40C
330
A
100
AcDbEntity
  8
0
  6
Continuous
 62
     7
370
    15
100
AcDbLine
 10
-210.5544923021809
 20
-107.1666556047742
 30
0.0
 11
-210.5678420881809
 21
-107.3666662563742
 31
0.0
  0
LWPOLYLINE
  5
C40D
330
A
100
AcDbEntity
  8
0
  6
Continuous
 62
     7
370
    15
100
AcDbPolyline
 90
        3
 70
   128
 43
0.0
 10
-222.5411419195809
 20
-107.3666664444742
 10
-222.5532187208809
 20
-107.2284433374742
 10
-222.5544920376809
 20
-107.1666557112742
  0
LINE
  5
C40E
330
A
100
AcDbEntity
  8
0
  6
Continuous
 62
     7
370
    15
100
AcDbLine
 10
-214.8320390997809
 20
-106.1376785534742
 30
0.0
 11
-214.8320390997809
 21
-107.4784404588742
 31
0.0
  0
LINE
  5
C40F
330
A
100
AcDbEntity
  8
0
  6
Continuous
 62
     7
370
    15
100
AcDbLine
 10
-217.0255074015809
 20
-105.7764196321742
 30
0.0
 11
-217.0255074015809
 21
-107.8821271352742
 31
0.0
  0
LINE
  5
C410
330
A
100
AcDbEntity
  8
0
  6
Continuous
 62
     8
370
     0
100
AcDbLine
 10
-129.1752150646809
 20
-141.2082705297742
 30
0.0
 11
-129.0141307181809
 21
-141.0687673935742
 31
0.0
  0
LINE
  5
C411
330
A
100
AcDbEntity
  8
0
  6
Continuous
 62
     8
370
     0
100
AcDbLine
 10
-145.7321792283809
 20
-120.0925379040742
 30
0.0
 11
-145.4686144740809
 21
-119.8642841313742
 31
0.0
  0
LINE
  5
C412
330
A
100
AcDbEntity
  8
0
  6
Continuous
 62
     8
370
     0
100
AcDbLine
 10
-195.2650728687809
 20
-105.4892848018742
 30
0.0
 11
-195.5150729097809
 21
-105.7057911882742
 31
0.0
  0
LINE
  5
C413
330
A
100
AcDbEntity
  8
0
  6
Continuous
 62
     8
370
     0
100
AcDbLine
 10
-129.1481056614809
 20
-149.8450469422742
 30
0.0
 11
-129.0141307181809
 21
-149.7290212378742
 31
0.0
  0
LINE
  5
C414
330
A
100
AcDbEntity
  8
0
  6
Continuous
 62
     8
370
     0
100
AcDbLine
 10
-145.7936660589809
 20
-117.3167110438742
 30
0.0
 11
-146.2936661408809
 21
-117.7497238167742
 31
0.0
  0
LINE
  5
C415
330
A
100
AcDbEntity
  8
0
  6
Continuous
 62
     8
370
     0
100
AcDbLine
 10
-131.4991054117809
 20
-129.3348498421742
 30
0.0
 11
-130.9991053297809
 21
-128.9018370693742
 31
0.0
  0
LINE
  5
C416
330
A
100
AcDbEntity
  8
0
  6
Continuous
 62
     8
370
     0
100
AcDbLine
 10
-130.6432946214809
 20
-130.0562011538742
 30
0.0
 11
-131.1432947034809
 21
-130.4892139267742
 31
0.0
  0
LINE
  5
C417
330
A
100
AcDbEntity
  8
0
  6
Continuous
 62
     8
370
     0
100
AcDbLine
 10
-198.1932758972809
 20
-102.1902466210742
 30
0.0
 11
-198.6932759792809
 21
-102.6232593939742
 31
0.0
  0
LINE
  5
C418
330
A
100
AcDbEntity
  8
0
  6
Continuous
 62
     8
370
     0
100
AcDbLine
 10
-121.2528014461809
 20
-135.3418370807742
 30
0.0
 11
-124.2528010065809
 21
-137.9399129114742
 31
0.0
  0
LINE
  5
C419
330
A
100
AcDbEntity
  8
0
  6
Continuous
 62
     8
370
     0
100
AcDbLine
 10
-141.5733119212809
 20
-115.6194035967742
 30
0.0
 11
-138.5733123608809
 21
-113.0213277661742
 31
0.0
  0
LINE
  5
C41A
330
A
100
AcDbEntity
  8
0
  6
Continuous
 62
     8
370
     0
100
AcDbLine
 10
-124.2528010065809
 20
-146.6001667557742
 30
0.0
 11
-121.2528014461809
 21
-144.0020909250742
 31
0.0
  0
LINE
  5
C41B
330
A
100
AcDbEntity
  8
0
  6
Continuous
 62
     8
370
     0
100
AcDbLine
 10
-201.4218529032809
 20
-99.88037033337422
 30
0.0
 11
-203.2776211666809
 21
-101.4875127929742
 31
0.0
  0
LINE
  5
C41C
330
A
100
AcDbEntity
  8
0
  6
Continuous
 62
     8
370
     0
100
AcDbLine
 10
-201.0276212634809
 20
-103.2931203474742
 30
0.0
 11
-203.2776211666809
 21
-105.2416774220742
 31
0.0
  0
LINE
  5
C41D
330
A
100
AcDbEntity
  8
0
  6
Continuous
 62
     8
370
     0
100
AcDbLine
 10
-145.7998861648809
 20
-116.4488899082742
 30
0.0
 11
-145.7123865463809
 21
-116.3731130157742
 31
0.0
  0
LINE
  5
C41E
330
A
100
AcDbEntity
  8
0
  6
Continuous
 62
     8
370
     0
100
AcDbLine
 10
-129.1481037232809
 20
-142.1847934459742
 30
0.0
 11
-137.6155190709809
 21
-149.5177902414742
 31
0.0
  0
LINE
  5
C41F
330
A
100
AcDbEntity
  8
0
  6
Continuous
 62
     8
370
     0
100
AcDbLine
 10
-154.4360177964809
 20
-126.7642576688742
 30
0.0
 11
-146.4686146379809
 21
-119.8642841313742
 31
0.0
  0
LINE
  5
C420
330
A
100
AcDbEntity
  8
0
  6
Continuous
 62
     8
370
     0
100
AcDbLine
 10
-137.6155190709809
 20
-158.1780440857742
 30
0.0
 11
-129.1481037232809
 21
-150.8450472902742
 31
0.0
  0
LWPOLYLINE
  5
C421
330
A
100
AcDbEntity
  8
0
  6
Continuous
 62
     8
370
     0
100
AcDbPolyline
 90
       19
 70
   128
 43
0.0
 10
-220.3959972421809
 20
-109.6372796294742
 10
-219.2506436860809
 20
-109.9043231714742
 10
-218.0299478821809
 20
-110.0678652693742
 10
-216.7709975294809
 20
-110.1229376852742
 10
-215.5120484270809
 20
-110.0678655256742
 10
-214.2913522375809
 20
-109.9043230761742
 10
-213.1459987469809
 20
-109.6372792553742
 10
-212.1107885869809
 20
-109.2748483780742
 10
-211.2171753165809
 20
-108.8280426608742
 10
-210.4923133497809
 20
-108.3104375789742
 10
-209.9582260330809
 20
-107.7377605992742
 10
-209.6311424648809
 20
-107.1274118439742
 10
-209.5209988512809
 20
-106.4979372569742
 10
-209.6311421309809
 20
-105.8684627369742
 10
-209.9582263939809
 20
-105.2581145569742
 10
-210.4923131667809
 20
-104.6854375247742
 10
-211.2171765655809
 20
-104.1678322389742
 10
-212.1107876902809
 20
-103.7210264997742
 10
-213.1459974507809
 20
-103.3585956327742
  0
ARC
  5
C422
330
A
100
AcDbEntity
  8
0
  6
Continuous
 62
     8
370
     0
100
AcDbCircle
 10
-212.4675390582809
 20
-103.9847967101742
 30
0.0
 40
0.9232732964122732
100
AcDbArc
 50
80.4115789516994
 51
137.2937203170997
  0
ARC
  5
C423
330
A
100
AcDbEntity
  8
0
  6
Continuous
 62
     8
370
     0
100
AcDbCircle
 10
-209.9476999073809
 20
-108.9090044462742
 30
0.0
 40
3.431691500983856
100
AcDbArc
 50
306.7540870633002
 51
356.9094936907999
  0
LWPOLYLINE
  5
C424
330
A
100
AcDbEntity
  8
0
  6
Continuous
 62
     8
370
     0
100
AcDbPolyline
 90
       12
 70
   128
 43
0.0
 10
-221.8959974880809
 20
-113.5343945852742
 10
-220.5805377617809
 20
-113.8538998680742
 10
-219.1875273505809
 20
-114.0765481358742
 10
-217.7453226401809
 20
-114.1978078100742
 10
-216.2832839705809
 20
-114.2152088542742
 10
-214.8311731297809
 20
-114.1283984097742
 10
-213.4185517605809
 20
-113.9391432026742
 10
-212.0741764388809
 20
-113.6512955427742
 10
-210.8254146210809
 20
-113.2707159273742
 10
-209.6976884949809
 20
-112.8051508922742
 10
-208.7139546998809
 20
-112.2640785973742
 10
-207.8942383255809
 20
-111.6585138734742
  0
ARC
  5
C425
330
A
100
AcDbEntity
  8
0
  6
Continuous
 62
     8
370
     0
100
AcDbCircle
 10
-216.2087412273809
 20
-113.4861878808742
 30
0.0
 40
5.68746056350629
100
AcDbArc
 50
137.4109084156998
 51
180.4856427134998
  0
LINE
  5
C426
330
A
100
AcDbEntity
  8
0
  6
Continuous
 62
     8
370
     0
100
AcDbLine
 10
-221.8959974880809
 20
-118.9903550395742
 30
0.0
 11
-221.8959974880809
 21
-113.5343945852742
 31
0.0
  0
LINE
  5
C427
330
A
100
AcDbEntity
  8
0
  6
Continuous
 62
     8
370
     0
100
AcDbLine
 10
-207.8942383255809
 20
-111.6585138734742
 30
0.0
 11
-207.8942383255809
 21
-112.0604382147742
 31
0.0
  0
LINE
  5
C428
330
A
100
AcDbEntity
  8
0
  6
Continuous
 62
     8
370
     0
100
AcDbLine
 10
-213.1459974507809
 20
-103.3585956327742
 30
0.0
 11
-220.2907077998809
 21
-101.2960954110742
 31
0.0
  0
LINE
  5
C429
330
A
100
AcDbEntity
  8
0
  6
Continuous
 62
     8
370
     0
100
AcDbLine
 10
-220.3959972421809
 20
-109.6372796294742
 30
0.0
 11
-237.4999997540809
 21
-104.6997794022742
 31
0.0
  0
ARC
  5
C42A
330
A
100
AcDbEntity
  8
0
  6
Continuous
 62
     8
370
     0
100
AcDbCircle
 10
-219.9303549445809
 20
-97.84890742367422
 30
0.0
 40
3.465971609924537
100
AcDbArc
 50
194.1809566585999
 51
264.0322429171003
  0
LINE
  5
C42B
330
A
100
AcDbEntity
  8
0
  6
Continuous
 62
     8
370
     0
100
AcDbLine
 10
-221.8959974880809
 20
-113.5343945852742
 30
0.0
 11
-238.9999999999809
 21
-108.5968943580742
 31
0.0
  0
LINE
  5
C42C
330
A
100
AcDbEntity
  8
0
  6
Continuous
 62
     8
370
     0
100
AcDbLine
 10
-221.8959974880809
 20
-151.6395121453742
 30
0.0
 11
-221.8959974880809
 21
-146.5876972684742
 31
0.0
  0
LINE
  5
C42D
330
A
100
AcDbEntity
  8
0
  6
Continuous
 62
     8
370
     0
100
AcDbLine
 10
-221.8959974880809
 20
-151.6395121453742
 30
0.0
 11
-238.9999999999809
 21
-146.7020119180742
 31
0.0
  0
ARC
  5
C42E
330
A
100
AcDbEntity
  8
0
  6
Continuous
 62
     8
370
     0
100
AcDbCircle
 10
-219.6121916721809
 20
-101.9223898795742
 30
0.0
 40
0.9233790644730755
100
AcDbArc
 50
80.42871588799915
 51
137.2918917482984
  0
ARC
  5
C42F
330
A
100
AcDbEntity
  8
0
  6
Continuous
 62
     8
370
     0
100
AcDbCircle
 10
-216.7798038988809
 20
-133.1614604843742
 30
0.0
 40
19.17325820060607
100
AcDbArc
 50
254.5236811360998
 51
286.6189144000999
  0
LWPOLYLINE
  5
C430
330
A
100
AcDbEntity
  8
0
  6
Continuous
 62
     8
370
     0
100
AcDbPolyline
 90
        7
 70
   128
 43
0.0
 10
-221.8959974880809
 20
-151.6395121453742
 10
-221.8671753826809
 20
-152.1214110634742
 10
-221.7818168747809
 20
-152.5348698621742
 10
-221.6432016166809
 20
-152.8639991226742
 10
-221.4566577049809
 20
-153.0961497369742
 10
-221.2293525981809
 20
-153.2224028860742
 10
-221.2281428101809
 20
-153.2227537348742
  0
LINE
  5
C431
330
A
100
AcDbEntity
  8
0
  6
Continuous
 62
     8
370
     0
100
AcDbLine
 10
-224.3528854856809
 20
-97.81404426557422
 30
0.0
 11
-224.3528854856809
 21
-98.31404496637423
 31
0.0
  0
LINE
  5
C432
330
A
100
AcDbEntity
  8
0
  6
Continuous
 62
     8
370
     0
100
AcDbLine
 10
-216.6028856122809
 20
-101.8362549726742
 30
0.0
 11
-216.6028856122809
 21
-91.10234749597423
 31
0.0
  0
ENDSEC
  0
SECTION
  2
OBJECTS
  0
DICTIONARY
  5
19
330
0
100
AcDbDictionary
281
     1
  3
ACAD_GROUP
350
1A
  3
ACAD_IMAGE_VARS
350
BD14
  3
ACAD_LAYOUT
350
1E
  3
ACAD_MLINESTYLE
350
1B
  3
ACAD_PLOTSETTINGS
350
22
  3
ACAD_PLOTSTYLENAME
350
1F
  3
ACAD_SCALELIST
350
582C
  3
ACAD_WIPEOUT_VARS
350
23
  3
AcDbVariableDictionary
350
AB91
  3
APPDATA
350
BD13
  3
ASE_INDEX_DICTIONARY
350
B929
  3
DWGPROPS
350
C433
  0
DICTIONARY
  5
5858
330
14
100
AcDbDictionary
280
     1
281
     1
  3
ADSK_XREC_LAYER_RECONCILED
360
5859
  0
DICTIONARY
  5
5864
330
A
100
AcDbDictionary
280
     1
281
     1
  3
ACAD_SORTENTS
360
5865
  0
DICTIONARY
  5
1A
102
{ACAD_REACTORS
330
19
102
}
330
19
100
AcDbDictionary
281
     1
  0
RASTERVARIABLES
  5
BD14
102
{ACAD_REACTORS
330
19
102
}
330
19
100
AcDbRasterVariables
 90
        0
 70
     1
 71
     1
 72
     0
  0
DICTIONARY
  5
1E
102
{ACAD_REACTORS
330
19
102
}
330
19
100
AcDbDictionary
281
     1
  3
Layout1
350
21
  3
Model
350
20
  0
DICTIONARY
  5
1B
102
{ACAD_REACTORS
330
19
102
}
330
19
100
AcDbDictionary
281
     1
  3
Standard
350
1C
  0
DICTIONARY
  5
22
102
{ACAD_REACTORS
330
19
102
}
330
19
100
AcDbDictionary
281
     1
  0
ACDBDICTIONARYWDFLT
  5
1F
102
{ACAD_REACTORS
330
19
102
}
330
19
100
AcDbDictionary
281
     1
  3
Normal
350
1D
100
AcDbDictionaryWithDefault
340
1D
  0
DICTIONARY
  5
582C
102
{ACAD_REACTORS
330
19
102
}
330
19
100
AcDbDictionary
281
     1
  3
A0
350
582D
  3
A1
350
582E
  3
A2
350
582F
  3
A3
350
5830
  3
A4
350
5831
  3
A5
350
5832
  3
A6
350
5833
  3
A7
350
5834
  3
A8
350
5835
  3
A9
350
5836
  3
B0
350
5837
  3
B1
350
5838
  3
B2
350
5839
  3
B3
350
583A
  3
B4
350
583B
  3
B5
350
583C
  3
B6
350
583D
  3
B7
350
583E
  3
B8
350
583F
  3
B9
350
5840
  3
C0
350
5841
  3
C1
350
5842
  3
C2
350
5843
  3
C3
350
5844
  3
C4
350
5845
  3
C5
350
5846
  3
C6
350
5847
  3
C7
350
5848
  3
C8
350
5849
  3
C9
350
584A
  3
D0
350
584B
  3
D1
350
584C
  3
D2
350
584D
  0
WIPEOUTVARIABLES
  5
23
330
19
100
AcDbWipeoutVariables
 70
     1
  0
DICTIONARY
  5
AB91
102
{ACAD_REACTORS
330
19
102
}
330
19
100
AcDbDictionary
281
     1
  3
CANNOSCALE
350
C434
  3
DIMASSOC
350
B616
  3
INDEXCTL
350
B615
  3
SORTENTS
350
B614
  0
DICTIONARY
  5
BD13
102
{ACAD_REACTORS
330
19
102
}
330
19
100
AcDbDictionary
281
     1
  0
DICTIONARY
  5
B929
102
{ACAD_REACTORS
330
19
102
}
330
19
100
AcDbDictionary
281
     1
  3
ASEBlockHierarchyIndexRecord
350
B92A
1001
DCO15
1040
1684841593.825
  0
XRECORD
  5
C433
102
{ACAD_REACTORS
330
19
102
}
330
19
100
AcDbXrecord
280
     1
  1
DWGPROPS COOKIE
  2

  3

  4

  6

  7

  8
raffaele
  9

300
=
301
=
302
=
303
=
304
=
305
=
306
=
307
=
308
=
309
=
 40
0.0
 41
2455301.719027778
 42
2456349.653086111
  1

 90
        0
  0
XRECORD
  5
5859
102
{ACAD_REACTORS
330
5858
102
}
330
5858
100
AcDbXrecord
280
     1
290
     1
  0
SORTENTSTABLE
  5
5865
102
{ACAD_REACTORS
330
5864
102
}
330
5864
100
AcDbSortentsTable
330
A
331
0
  5
6CE0
  0
LAYOUT
  5
21
102
{ACAD_REACTORS
330
1E
102
}
330
1E
100
AcDbPlotSettings
  1

  2

  4

  6

 40
0.0
 41
0.0
 42
0.0
 43
0.0
 44
0.0
 45
0.0
 46
0.0
 47
0.0
 48
0.0
 49
0.0
140
0.0
141
0.0
142
1.0
143
1.0
 70
     0
 72
     0
 73
     0
 74
     0
  7

 75
     0
147
1.0
148
0.0
149
0.0
100
AcDbLayout
  1
Layout1
 70
     0
 71
     1
 10
0.0
 20
0.0
 11
12.0
 21
9.0
 12
0.0
 22
0.0
 32
0.0
 14
1.000000000000000E+20
 24
1.000000000000000E+20
 34
1.000000000000000E+20
 15
-1.000000000000000E+20
 25
-1.000000000000000E+20
 35
-1.000000000000000E+20
146
0.0
 13
0.0
 23
0.0
 33
0.0
 16
1.0
 26
0.0
 36
0.0
 17
0.0
 27
1.0
 37
0.0
 76
     0
330
B
  0
LAYOUT
  5
20
102
{ACAD_REACTORS
330
1E
102
}
330
1E
100
AcDbPlotSettings
  1

  2

  4

  6

 40
0.0
 41
0.0
 42
0.0
 43
0.0
 44
0.0
 45
0.0
 46
0.0
 47
0.0
 48
0.0
 49
0.0
140
0.0
141
0.0
142
1.0
143
1.0
 70
  1024
 72
     0
 73
     0
 74
     0
  7

 75
     0
147
1.0
148
0.0
149
0.0
100
AcDbLayout
  1
Model
 70
     0
 71
     0
 10
0.0
 20
0.0
 11
0.0
 21
0.0
 12
0.0
 22
0.0
 32
0.0
 14
0.0
 24
0.0
 34
0.0
 15
0.0
 25
0.0
 35
0.0
146
0.0
 13
0.0
 23
0.0
 33
0.0
 16
0.0
 26
0.0
 36
0.0
 17
0.0
 27
0.0
 37
0.0
 76
     0
330
A
331
15
  0
MLINESTYLE
  5
1C
102
{ACAD_REACTORS
330
1B
102
}
330
1B
100
AcDbMlineStyle
  2
STANDARD
 70
     0
  3

 62
     0
 51
90.0
 52
90.0
 71
     2
 49
0.5
 62
   256
  6
BYLAYER
 49
-0.5
 62
   256
  6
BYLAYER
  0
ACDBPLACEHOLDER
  5
1D
102
{ACAD_REACTORS
330
1F
102
}
330
1F
  0
SCALE
  5
582D
102
{ACAD_REACTORS
330
582C
102
}
330
582C
100
AcDbScale
 70
     0
300
1:1
140
1.0
141
1.0
290
     1
  0
SCALE
  5
582E
102
{ACAD_REACTORS
330
582C
102
}
330
582C
100
AcDbScale
 70
     0
300
1:2
140
1.0
141
2.0
290
     0
  0
SCALE
  5
582F
102
{ACAD_REACTORS
330
582C
102
}
330
582C
100
AcDbScale
 70
     0
300
1:4
140
1.0
141
4.0
290
     0
  0
SCALE
  5
5830
102
{ACAD_REACTORS
330
582C
102
}
330
582C
100
AcDbScale
 70
     0
300
1:5
140
1.0
141
5.0
290
     0
  0
SCALE
  5
5831
102
{ACAD_REACTORS
330
582C
102
}
330
582C
100
AcDbScale
 70
     0
300
1:8
140
1.0
141
8.0
290
     0
  0
SCALE
  5
5832
102
{ACAD_REACTORS
330
582C
102
}
330
582C
100
AcDbScale
 70
     0
300
1:10
140
1.0
141
10.0
290
     0
  0
SCALE
  5
5833
102
{ACAD_REACTORS
330
582C
102
}
330
582C
100
AcDbScale
 70
     0
300
1:16
140
1.0
141
16.0
290
     0
  0
SCALE
  5
5834
102
{ACAD_REACTORS
330
582C
102
}
330
582C
100
AcDbScale
 70
     0
300
1:20
140
1.0
141
20.0
290
     0
  0
SCALE
  5
5835
102
{ACAD_REACTORS
330
582C
102
}
330
582C
100
AcDbScale
 70
     0
300
1:30
140
1.0
141
30.0
290
     0
  0
SCALE
  5
5836
102
{ACAD_REACTORS
330
582C
102
}
330
582C
100
AcDbScale
 70
     0
300
1:40
140
1.0
141
40.0
290
     0
  0
SCALE
  5
5837
102
{ACAD_REACTORS
330
582C
102
}
330
582C
100
AcDbScale
 70
     0
300
1:50
140
1.0
141
50.0
290
     0
  0
SCALE
  5
5838
102
{ACAD_REACTORS
330
582C
102
}
330
582C
100
AcDbScale
 70
     0
300
1:100
140
1.0
141
100.0
290
     0
  0
SCALE
  5
5839
102
{ACAD_REACTORS
330
582C
102
}
330
582C
100
AcDbScale
 70
     0
300
2:1
140
2.0
141
1.0
290
     0
  0
SCALE
  5
583A
102
{ACAD_REACTORS
330
582C
102
}
330
582C
100
AcDbScale
 70
     0
300
4:1
140
4.0
141
1.0
290
     0
  0
SCALE
  5
583B
102
{ACAD_REACTORS
330
582C
102
}
330
582C
100
AcDbScale
 70
     0
300
8:1
140
8.0
141
1.0
290
     0
  0
SCALE
  5
583C
102
{ACAD_REACTORS
330
582C
102
}
330
582C
100
AcDbScale
 70
     0
300
10:1
140
10.0
141
1.0
290
     0
  0
SCALE
  5
583D
102
{ACAD_REACTORS
330
582C
102
}
330
582C
100
AcDbScale
 70
     0
300
100:1
140
100.0
141
1.0
290
     0
  0
SCALE
  5
583E
102
{ACAD_REACTORS
330
582C
102
}
330
582C
100
AcDbScale
 70
     0
300
1/128" = 1'-0"
140
0.0078125
141
12.0
290
     0
  0
SCALE
  5
583F
102
{ACAD_REACTORS
330
582C
102
}
330
582C
100
AcDbScale
 70
     0
300
1/64" = 1'-0"
140
0.015625
141
12.0
290
     0
  0
SCALE
  5
5840
102
{ACAD_REACTORS
330
582C
102
}
330
582C
100
AcDbScale
 70
     0
300
1/32" = 1'-0"
140
0.03125
141
12.0
290
     0
  0
SCALE
  5
5841
102
{ACAD_REACTORS
330
582C
102
}
330
582C
100
AcDbScale
 70
     0
300
1/16" = 1'-0"
140
0.0625
141
12.0
290
     0
  0
SCALE
  5
5842
102
{ACAD_REACTORS
330
582C
102
}
330
582C
100
AcDbScale
 70
     0
300
3/32" = 1'-0"
140
0.09375
141
12.0
290
     0
  0
SCALE
  5
5843
102
{ACAD_REACTORS
330
582C
102
}
330
582C
100
AcDbScale
 70
     0
300
1/8" = 1'-0"
140
0.125
141
12.0
290
     0
  0
SCALE
  5
5844
102
{ACAD_REACTORS
330
582C
102
}
330
582C
100
AcDbScale
 70
     0
300
3/16" = 1'-0"
140
0.1875
141
12.0
290
     0
  0
SCALE
  5
5845
102
{ACAD_REACTORS
330
582C
102
}
330
582C
100
AcDbScale
 70
     0
300
1/4" = 1'-0"
140
0.25
141
12.0
290
     0
  0
SCALE
  5
5846
102
{ACAD_REACTORS
330
582C
102
}
330
582C
100
AcDbScale
 70
     0
300
3/8" = 1'-0"
140
0.375
141
12.0
290
     0
  0
SCALE
  5
5847
102
{ACAD_REACTORS
330
582C
102
}
330
582C
100
AcDbScale
 70
     0
300
1/2" = 1'-0"
140
0.5
141
12.0
290
     0
  0
SCALE
  5
5848
102
{ACAD_REACTORS
330
582C
102
}
330
582C
100
AcDbScale
 70
     0
300
3/4" = 1'-0"
140
0.75
141
12.0
290
     0
  0
SCALE
  5
5849
102
{ACAD_REACTORS
330
582C
102
}
330
582C
100
AcDbScale
 70
     0
300
1" = 1'-0"
140
1.0
141
12.0
290
     0
  0
SCALE
  5
584A
102
{ACAD_REACTORS
330
582C
102
}
330
582C
100
AcDbScale
 70
     0
300
1-1/2" = 1'-0"
140
1.5
141
12.0
290
     0
  0
SCALE
  5
584B
102
{ACAD_REACTORS
330
582C
102
}
330
582C
100
AcDbScale
 70
     0
300
3" = 1'-0"
140
3.0
141
12.0
290
     0
  0
SCALE
  5
584C
102
{ACAD_REACTORS
330
582C
102
}
330
582C
100
AcDbScale
 70
     0
300
6" = 1'-0"
140
6.0
141
12.0
290
     0
  0
SCALE
  5
584D
102
{ACAD_REACTORS
330
582C
102
}
330
582C
100
AcDbScale
 70
     0
300
1'-0" = 1'-0"
140
12.0
141
12.0
290
     0
  0
DICTIONARYVAR
  5
C434
102
{ACAD_REACTORS
330
AB91
102
}
330
AB91
100
DictionaryVariables
280
     0
  1
1:1
  0
DICTIONARYVAR
  5
B616
102
{ACAD_REACTORS
330
AB91
102
}
330
AB91
100
DictionaryVariables
280
     0
  1
1
  0
DICTIONARYVAR
  5
B615
102
{ACAD_REACTORS
330
AB91
102
}
330
AB91
100
DictionaryVariables
280
     0
  1
0
  0
DICTIONARYVAR
  5
B614
102
{ACAD_REACTORS
330
AB91
102
}
330
AB91
100
DictionaryVariables
280
     0
  1
127
  0
XRECORD
  5
B92A
102
{ACAD_REACTORS
330
B929
102
}
330
B929
100
AcDbXrecord
280
     1
  0
ENDSEC
  0
EOF
