  0
SECTION
  2
HEADER
  9
$ACADVER
  1
AC1015
  9
$ACADMAINTVER
 70
    20
  9
$DWGCODEPAGE
  3
ANSI_1252
  9
$INSBASE
 10
0.0
 20
0.0
 30
0.0
  9
$EXTMIN
 10
-0.3805052040082728
 20
-1006.080547420724
 30
-0.0000000000000003
  9
$EXTMAX
 10
5126.18581469545
 20
100.7198037262478
 30
0.0000000000000053
  9
$LIMMIN
 10
-20.0
 20
-960.6207870747939
  9
$LIMMAX
 10
5393.000000449435
 20
218.3310659279802
  9
$ORTHOMODE
 70
     0
  9
$REGENMODE
 70
     1
  9
$FILLMODE
 70
     1
  9
$QTEXTMODE
 70
     0
  9
$MIRRTEXT
 70
     1
  9
$LTSCALE
 40
10.0
  9
$ATTMODE
 70
     1
  9
$TEXTSIZE
 40
0.0
  9
$TRACEWID
 40
0.05
  9
$TEXTSTYLE
  7
Standard
  9
$CLAYER
  8
0
  9
$CELTYPE
  6
Continuous
  9
$CECOLOR
 62
   256
  9
$CELTSCALE
 40
1.0
  9
$DISPSILH
 70
     0
  9
$DIMSCALE
 40
1.0
  9
$DIMASZ
 40
1.25
  9
$DIMEXO
 40
0.0
  9
$DIMDLI
 40
0.38
  9
$DIMRND
 40
0.0
  9
$DIMDLE
 40
0.0
  9
$DIMEXE
 40
0.75
  9
$DIMTP
 40
0.0
  9
$DIMTM
 40
0.0
  9
$DIMTXT
 40
2.5
  9
$DIMCEN
 40
0.09
  9
$DIMTSZ
 40
0.0
  9
$DIMTOL
 70
     0
  9
$DIMLIM
 70
     0
  9
$DIMTIH
 70
     0
  9
$DIMTOH
 70
     0
  9
$DIMSE1
 70
     0
  9
$DIMSE2
 70
     0
  9
$DIMTAD
 70
     1
  9
$DIMZIN
 70
     0
  9
$DIMBLK
  1

  9
$DIMASO
 70
     1
  9
$DIMSHO
 70
     1
  9
$DIMPOST
  1

  9
$DIMAPOST
  1

  9
$DIMALT
 70
     0
  9
$DIMALTD
 70
     2
  9
$DIMALTF
 40
25.4
  9
$DIMLFAC
 40
1.0
  9
$DIMTOFL
 70
     0
  9
$DIMTVP
 40
0.0
  9
$DIMTIX
 70
     0
  9
$DIMSOXD
 70
     0
  9
$DIMSAH
 70
     0
  9
$DIMBLK1
  1

  9
$DIMBLK2
  1

  9
$DIMSTYLE
  2
Standard
  9
$DIMCLRD
 70
     7
  9
$DIMCLRE
 70
     7
  9
$DIMCLRT
 70
     7
  9
$DIMTFAC
 40
0.8
  9
$DIMGAP
 40
1.25
  9
$DIMJUST
 70
     0
  9
$DIMSD1
 70
     0
  9
$DIMSD2
 70
     0
  9
$DIMTOLJ
 70
     1
  9
$DIMTZIN
 70
     0
  9
$DIMALTZ
 70
     0
  9
$DIMALTTZ
 70
     0
  9
$DIMUPT
 70
     0
  9
$DIMDEC
 70
     2
  9
$DIMTDEC
 70
     4
  9
$DIMALTU
 70
     2
  9
$DIMALTTD
 70
     2
  9
$DIMTXSTY
  7
Standard
  9
$DIMAUNIT
 70
     0
  9
$DIMADEC
 70
     0
  9
$DIMALTRND
 40
0.0
  9
$DIMAZIN
 70
     0
  9
$DIMDSEP
 70
     0
  9
$DIMATFIT
 70
     3
  9
$DIMFRAC
 70
     0
  9
$DIMLDRBLK
  1

  9
$DIMLUNIT
 70
     2
  9
$DIMLWD
 70
     0
  9
$DIMLWE
 70
     0
  9
$DIMTMOVE
 70
     0
  9
$LUNITS
 70
     2
  9
$LUPREC
 70
     4
  9
$SKETCHINC
 40
0.1
  9
$FILLETRAD
 40
0.0
  9
$AUNITS
 70
     0
  9
$AUPREC
 70
     0
  9
$MENU
  1
acad
  9
$ELEVATION
 40
0.0
  9
$PELEVATION
 40
0.0
  9
$THICKNESS
 40
0.0
  9
$LIMCHECK
 70
     0
  9
$CHAMFERA
 40
0.0
  9
$CHAMFERB
 40
0.0
  9
$CHAMFERC
 40
0.0
  9
$CHAMFERD
 40
0.0
  9
$SKPOLY
 70
     0
  9
$TDCREATE
 40
2455498.742083334
  9
$TDUCREATE
 40
2455498.658750000
  9
$TDUPDATE
 40
2455498.697446007
  9
$TDUUPDATE
 40
2455498.614112674
  9
$TDINDWG
 40
0.0023069329
  9
$TDUSRTIMER
 40
0.0023069329
  9
$USRTIMER
 70
     1
  9
$ANGBASE
 50
0.0
  9
$ANGDIR
 70
     0
  9
$PDMODE
 70
     0
  9
$PDSIZE
 40
0.0
  9
$PLINEWID
 40
0.0
  9
$SPLFRAME
 70
     0
  9
$SPLINETYPE
 70
     6
  9
$SPLINESEGS
 70
     8
  9
$HANDSEED
  5
39E
  9
$SURFTAB1
 70
     6
  9
$SURFTAB2
 70
     6
  9
$SURFTYPE
 70
     6
  9
$SURFU
 70
     6
  9
$SURFV
 70
     6
  9
$UCSBASE
  2

  9
$UCSNAME
  2

  9
$UCSORG
 10
0.0
 20
0.0
 30
0.0
  9
$UCSXDIR
 10
1.0
 20
0.0
 30
0.0
  9
$UCSYDIR
 10
0.0
 20
1.0
 30
0.0
  9
$UCSORTHOREF
  2

  9
$UCSORTHOVIEW
 70
     0
  9
$UCSORGTOP
 10
0.0
 20
0.0
 30
0.0
  9
$UCSORGBOTTOM
 10
0.0
 20
0.0
 30
0.0
  9
$UCSORGLEFT
 10
0.0
 20
0.0
 30
0.0
  9
$UCSORGRIGHT
 10
0.0
 20
0.0
 30
0.0
  9
$UCSORGFRONT
 10
0.0
 20
0.0
 30
0.0
  9
$UCSORGBACK
 10
0.0
 20
0.0
 30
0.0
  9
$PUCSBASE
  2

  9
$PUCSNAME
  2

  9
$PUCSORG
 10
0.0
 20
0.0
 30
0.0
  9
$PUCSXDIR
 10
1.0
 20
0.0
 30
0.0
  9
$PUCSYDIR
 10
0.0
 20
1.0
 30
0.0
  9
$PUCSORTHOREF
  2

  9
$PUCSORTHOVIEW
 70
     0
  9
$PUCSORGTOP
 10
0.0
 20
0.0
 30
0.0
  9
$PUCSORGBOTTOM
 10
0.0
 20
0.0
 30
0.0
  9
$PUCSORGLEFT
 10
0.0
 20
0.0
 30
0.0
  9
$PUCSORGRIGHT
 10
0.0
 20
0.0
 30
0.0
  9
$PUCSORGFRONT
 10
0.0
 20
0.0
 30
0.0
  9
$PUCSORGBACK
 10
0.0
 20
0.0
 30
0.0
  9
$USERI1
 70
     0
  9
$USERI2
 70
     0
  9
$USERI3
 70
     0
  9
$USERI4
 70
     0
  9
$USERI5
 70
     0
  9
$USERR1
 40
0.0
  9
$USERR2
 40
0.0
  9
$USERR3
 40
0.0
  9
$USERR4
 40
0.0
  9
$USERR5
 40
0.0
  9
$WORLDVIEW
 70
     1
  9
$SHADEDGE
 70
     3
  9
$SHADEDIF
 70
    70
  9
$TILEMODE
 70
     1
  9
$MAXACTVP
 70
    16
  9
$PINSBASE
 10
0.0
 20
0.0
 30
0.0
  9
$PLIMCHECK
 70
     0
  9
$PEXTMIN
 10
1.000000000000000E+20
 20
1.000000000000000E+20
 30
1.000000000000000E+20
  9
$PEXTMAX
 10
-1.000000000000000E+20
 20
-1.000000000000000E+20
 30
-1.000000000000000E+20
  9
$PLIMMIN
 10
0.0
 20
0.0
  9
$PLIMMAX
 10
12.0
 20
9.0
  9
$UNITMODE
 70
     0
  9
$VISRETAIN
 70
     0
  9
$PLINEGEN
 70
     1
  9
$PSLTSCALE
 70
     0
  9
$TREEDEPTH
 70
  3020
  9
$CMLSTYLE
  2
Standard
  9
$CMLJUST
 70
     0
  9
$CMLSCALE
 40
1.0
  9
$PROXYGRAPHICS
 70
     0
  9
$MEASUREMENT
 70
     1
  9
$CELWEIGHT
370
     0
  9
$ENDCAPS
280
     0
  9
$JOINSTYLE
280
     0
  9
$LWDISPLAY
290
     0
  9
$INSUNITS
 70
     0
  9
$HYPERLINKBASE
  1

  9
$STYLESHEET
  1

  9
$XEDIT
290
     1
  9
$CEPSNTYPE
380
     0
  9
$PSTYLEMODE
290
     1
  9
$FINGERPRINTGUID
  2

  9
$VERSIONGUID
  2
{F712168B-F375-4D1F-BF95-355F44354EDD}
  9
$EXTNAMES
290
     1
  9
$PSVPSCALE
 40
0.0
  9
$OLESTARTUP
290
     0
  0
ENDSEC
  0
SECTION
  2
CLASSES
  0
CLASS
  1
IMAGE
  2
AcDbRasterImage
  3
ISM
 90
    34943
280
     0
281
     1
  0
CLASS
  1
DICTIONARYVAR
  2
AcDbDictionaryVar
  3
ObjectDBX Classes
 90
        0
280
     0
281
     0
  0
CLASS
  1
RASTERVARIABLES
  2
AcDbRasterVariables
  3
ISM
 90
    32768
280
     0
281
     0
  0
CLASS
  1
IMAGEDEF
  2
AcDbRasterImageDef
  3
ISM
 90
    32768
280
     0
281
     0
  0
CLASS
  1
IMAGEDEF_REACTOR
  2
AcDbRasterImageDefReactor
  3
ISM
 90
    32769
280
     0
281
     0
  0
CLASS
  1
IDBUFFER
  2
AcDbIdBuffer
  3
ObjectDBX Classes
 90
    32768
280
     0
281
     0
  0
CLASS
  1
SPATIAL_FILTER
  2
AcDbSpatialFilter
  3
ObjectDBX Classes
 90
    32768
280
     0
281
     0
  0
CLASS
  1
SORTENTSTABLE
  2
AcDbSortentsTable
  3
ObjectDBX Classes
 90
        0
280
     0
281
     0
  0
CLASS
  1
LAYER_INDEX
  2
AcDbLayerIndex
  3
ObjectDBX Classes
 90
    32768
280
     0
281
     0
  0
CLASS
  1
SPATIAL_INDEX
  2
AcDbSpatialIndex
  3
ObjectDBX Classes
 90
    32768
280
     0
281
     0
  0
CLASS
  1
OBJECT_PTR
  2
CAseDLPNTableRecord
  3
ASE-LPNTableRecord
 90
    32769
280
     0
281
     0
  0
CLASS
  1
LAYOUT
  2
AcDbLayout
  3
ObjectDBX Classes
 90
        0
280
     0
281
     0
  0
CLASS
  1
PLOTSETTINGS
  2
AcDbPlotSettings
  3
ObjectDBX Classes
 90
    32768
280
     0
281
     0
  0
CLASS
  1
ACDBDICTIONARYWDFLT
  2
AcDbDictionaryWithDefault
  3
ObjectDBX Classes
 90
        0
280
     0
281
     0
  0
CLASS
  1
ACDBPLACEHOLDER
  2
AcDbPlaceHolder
  3
ObjectDBX Classes
 90
        0
280
     0
281
     0
  0
CLASS
  1
VBA_PROJECT
  2
AcDbVbaProject
  3
acad
 90
    32768
280
     0
281
     0
  0
CLASS
  1
WIPEOUT
  2
AcDbWipeout
  3
"WipeOut|Product Desc: Object Enabler for WipeOut entity                        |Company: Autodesk, Inc.                        |WEB Address: www.autodesk.com"
 90
    34943
280
     0
281
     1
  0
CLASS
  1
WIPEOUTVARIABLES
  2
AcDbWipeoutVariables
  3
"WipeOut|Product Desc:     WipeOut Dbx Application|Company:          Autodesk, Inc.|WEB Address:      www.autodesk.com"
 90
        0
280
     0
281
     0
  0
CLASS
  1
RTEXT
  2
RText
  3
RText|AutoCAD Express Tool|expresstools@autodesk.com
 90
    35839
280
     0
281
     1
  0
CLASS
  1
ARCALIGNEDTEXT
  2
AcDbArcAlignedText
  3
ATEXT|AutoCAD Express Tool|expresstools@autodesk.com
 90
    32768
280
     0
281
     1
  0
CLASS
  1
MATERIAL
  2
AcDbMaterial
  3
ObjectDBX Classes
 90
     1153
280
     0
281
     0
  0
CLASS
  1
VISUALSTYLE
  2
AcDbVisualStyle
  3
ObjectDBX Classes
 90
     4095
280
     0
281
     0
  0
CLASS
  1
TABLESTYLE
  2
AcDbTableStyle
  3
ObjectDBX Classes
 90
     4095
280
     0
281
     0
  0
CLASS
  1
SCALE
  2
AcDbScale
  3
ObjectDBX Classes
 90
     1153
280
     0
281
     0
  0
CLASS
  1
MLEADERSTYLE
  2
AcDbMLeaderStyle
  3
ACDB_MLEADERSTYLE_CLASS
 90
     4095
280
     0
281
     0
  0
CLASS
  1
CELLSTYLEMAP
  2
AcDbCellStyleMap
  3
ObjectDBX Classes
 90
     1152
280
     0
281
     0
  0
ENDSEC
  0
SECTION
  2
TABLES
  0
TABLE
  2
VPORT
  5
7
330
0
100
AcDbSymbolTable
 70
     1
  0
VPORT
  5
15
330
7
100
AcDbSymbolTableRecord
100
AcDbViewportTableRecord
  2
*ACTIVE
 70
     0
 10
0.0
 20
0.0
 11
1.0
 21
1.0
 12
2433.391416702037
 22
-435.8929856646027
 13
0.0
 23
0.0
 14
1.0
 24
1.0
 15
0.0
 25
0.0
 16
0.0
 26
0.0
 36
1.0
 17
0.0
 27
0.0
 37
0.0
 40
3566.056433064049
 41
1.611330698287219
 42
50.0
 43
0.0
 44
0.0
 50
0.0
 51
0.0
 71
     0
 72
   100
 73
     1
 74
     1
 75
     0
 76
     0
 77
     0
 78
     0
281
     0
 65
     0
110
0.0
120
0.0
130
0.0
111
1.0
121
0.0
131
0.0
112
0.0
122
1.0
132
0.0
 79
     0
146
0.0
  0
ENDTAB
  0
TABLE
  2
LTYPE
  5
4
330
0
100
AcDbSymbolTable
 70
     1
  0
LTYPE
  5
11
330
4
100
AcDbSymbolTableRecord
100
AcDbLinetypeTableRecord
  2
ByBlock
 70
     0
  3

 72
    65
 73
     0
 40
0.0
  0
LTYPE
  5
12
330
4
100
AcDbSymbolTableRecord
100
AcDbLinetypeTableRecord
  2
ByLayer
 70
     0
  3

 72
    65
 73
     0
 40
0.0
  0
LTYPE
  5
13
330
4
100
AcDbSymbolTableRecord
100
AcDbLinetypeTableRecord
  2
Continuous
 70
     0
  3
Solid line
 72
    65
 73
     0
 40
0.0
  0
ENDTAB
  0
TABLE
  2
LAYER
  5
2
330
0
100
AcDbSymbolTable
 70
     2
  0
LAYER
  5
14
102
{ACAD_XDICTIONARY
360
36A
102
}
330
2
100
AcDbSymbolTableRecord
100
AcDbLayerTableRecord
  2
0
 70
     0
 62
     7
  6
Continuous
370
    -3
390
1D
  0
LAYER
  5
376
330
2
100
AcDbSymbolTableRecord
100
AcDbLayerTableRecord
  2
Defpoints
 70
     0
 62
     7
  6
Continuous
290
     0
370
    -3
390
1D
  0
ENDTAB
  0
TABLE
  2
STYLE
  5
3
330
0
100
AcDbSymbolTable
 70
     1
  0
STYLE
  5
17
330
3
100
AcDbSymbolTableRecord
100
AcDbTextStyleTableRecord
  2
Standard
 70
     0
 40
0.0
 41
1.0
 50
0.0
 71
     0
 42
0.0
  3
I011000D.TTF
  4

1001
ACAD
1000
IsonormD
1071
        0
  0
ENDTAB
  0
TABLE
  2
VIEW
  5
5
330
0
100
AcDbSymbolTable
 70
     0
  0
ENDTAB
  0
TABLE
  2
UCS
  5
6
330
0
100
AcDbSymbolTable
 70
     0
  0
ENDTAB
  0
TABLE
  2
APPID
  5
8
330
0
100
AcDbSymbolTable
 70
     6
  0
APPID
  5
16
330
8
100
AcDbSymbolTableRecord
100
AcDbRegAppTableRecord
  2
ACAD
 70
     0
  0
APPID
  5
26
330
8
100
AcDbSymbolTableRecord
100
AcDbRegAppTableRecord
  2
TopSolid'Draft
 70
     0
  0
APPID
  5
232
330
8
100
AcDbSymbolTableRecord
100
AcDbRegAppTableRecord
  2
ACAD_MLEADERVER
 70
     0
  0
APPID
  5
355
330
8
100
AcDbSymbolTableRecord
100
AcDbRegAppTableRecord
  2
ACAD_EXEMPT_FROM_CAD_STANDARDS
 70
     0
  0
APPID
  5
35D
330
8
100
AcDbSymbolTableRecord
100
AcDbRegAppTableRecord
  2
ACAD_PSEXT
 70
     0
  0
APPID
  5
35E
330
8
100
AcDbSymbolTableRecord
100
AcDbRegAppTableRecord
  2
DCO15
 70
     0
  0
ENDTAB
  0
TABLE
  2
DIMSTYLE
  5
9
330
0
100
AcDbSymbolTable
 70
     1
100
AcDbDimStyleTable
 71
     1
340
18
  0
DIMSTYLE
105
18
330
9
100
AcDbSymbolTableRecord
100
AcDbDimStyleTableRecord
  2
Standard
 70
     0
 41
1.25
 42
0.0
 44
0.75
 73
     0
 74
     0
 77
     1
140
2.5
146
0.8
147
1.25
176
     7
177
     7
178
     7
271
     2
340
17
  0
ENDTAB
  0
TABLE
  2
BLOCK_RECORD
  5
1
330
0
100
AcDbSymbolTable
 70
     1
  0
BLOCK_RECORD
  5
A
102
{ACAD_XDICTIONARY
360
2C6
102
}
330
1
100
AcDbSymbolTableRecord
100
AcDbBlockTableRecord
  2
*MODEL_SPACE
340
20
  0
BLOCK_RECORD
  5
B
330
1
100
AcDbSymbolTableRecord
100
AcDbBlockTableRecord
  2
*PAPER_SPACE
340
21
  0
ENDTAB
  0
ENDSEC
  0
SECTION
  2
BLOCKS
  0
BLOCK
  5
D
330
A
100
AcDbEntity
  8
0
100
AcDbBlockBegin
  2
*MODEL_SPACE
 70
     0
 10
0.0
 20
0.0
 30
0.0
  3
*MODEL_SPACE
  1

  0
ENDBLK
  5
E
330
A
100
AcDbEntity
  8
0
100
AcDbBlockEnd
  0
BLOCK
  5
F
330
B
100
AcDbEntity
 67
     1
  8
0
100
AcDbBlockBegin
  2
*PAPER_SPACE
 70
     0
 10
0.0
 20
0.0
 30
0.0
  3
*PAPER_SPACE
  1

  0
ENDBLK
  5
10
330
B
100
AcDbEntity
 67
     1
  8
0
100
AcDbBlockEnd
  0
ENDSEC
  0
SECTION
  2
ENTITIES
  0
MTEXT
  5
87
330
A
100
AcDbEntity
  8
0
 62
     7
100
AcDbMText
 10
185.25
 20
50.0
 30
0.0
 40
4.0
 41
0.0
 71
     7
 72
     1
  1

 73
     1
 44
1.0
1001
ACAD
1000
MTEXTBEGIN
1070
    73
1070
     1
1070
    44
1040
1.0
1070
    74
1070
     0
1000
MTEXTEND
  0
POLYLINE
  5
23D
330
A
100
AcDbEntity
  8
0
  6
Continuous
 62
     7
370
     0
100
AcDb2dPolyline
 66
     1
 10
0.0
 20
0.0
 30
0.0
 40
0.5
 41
0.5
  0
VERTEX
  5
23E
330
23D
100
AcDbEntity
  8
0
 62
     7
100
AcDbVertex
100
AcDb2dVertex
 10
783.3143613628042
 20
-950.2119431819869
 30
0.0
  0
VERTEX
  5
23F
330
23D
100
AcDbEntity
  8
0
 62
     7
100
AcDbVertex
100
AcDb2dVertex
 10
783.3752475937004
 20
-950.0532806604855
 30
0.0
  0
VERTEX
  5
240
330
23D
100
AcDbEntity
  8
0
 62
     7
100
AcDbVertex
100
AcDb2dVertex
 10
783.4584662657801
 20
-949.9001465422505
 30
0.0
  0
VERTEX
  5
241
330
23D
100
AcDbEntity
  8
0
 62
     7
100
AcDbVertex
100
AcDb2dVertex
 10
783.5630862840728
 20
-949.7533279435744
 30
0.0
 42
-0.1020839657915828
  0
VERTEX
  5
242
330
23D
100
AcDbEntity
  8
0
 62
     7
100
AcDbVertex
100
AcDb2dVertex
 10
784.2692127923514
 20
-949.1938827039817
 30
0.0
  0
SEQEND
  5
243
330
23D
100
AcDbEntity
  8
0
  0
ELLIPSE
  5
244
330
A
100
AcDbEntity
  8
0
  6
Continuous
 62
     7
370
     0
100
AcDbEllipse
 10
785.2341398678593
 20
-953.7399315503861
 30
0.0
 11
-0.9599999999999885
 21
4.703020306143668
 31
-0.0000000000000004
210
0.0
220
0.0000000000000001
230
1.0
 40
0.4082482904638615
 41
0.6432704380991914
 42
1.114451763528688
  0
ELLIPSE
  5
245
330
A
100
AcDbEntity
  8
0
  6
Continuous
 62
     7
370
     0
100
AcDbEllipse
 10
786.7296784247173
 20
-950.7907345760171
 30
0.0
 11
-1.501081851209534
 21
-1.872632712511479
 31
-0.0000000000000001
210
0.0
220
0.0
230
1.0
 40
0.8194562367494327
 41
5.203059739014988
 42
5.490417039878254
  0
LINE
  5
246
330
A
100
AcDbEntity
  8
0
  6
Continuous
 62
     9
370
     0
100
AcDbLine
 10
783.3143613628042
 20
-950.2119431819869
 30
0.0
 11
784.5830531663183
 21
-951.2289126220213
 31
0.0
  0
LINE
  5
247
330
A
100
AcDbEntity
  8
0
  6
Continuous
 62
     7
370
     0
100
AcDbLine
 10
784.5830531663178
 20
-951.2289126220213
 30
0.0
 11
784.6383066243521
 21
-966.7173977564567
 31
0.0
  0
LINE
  5
248
330
A
100
AcDbEntity
  8
0
  6
Continuous
 62
     7
370
     0
100
AcDbLine
 10
783.1285927171761
 20
-963.5181126738579
 30
0.0
 11
783.1284620774837
 21
-963.4814921435744
 31
0.0
  0
LINE
  5
249
330
A
100
AcDbEntity
  8
0
  6
Continuous
 62
     7
370
     0
100
AcDbLine
 10
783.1284620774842
 20
-963.4814921435744
 30
0.0
 11
783.736656348142
 21
-963.9690140028234
 31
0.0
  0
LINE
  5
24A
330
A
100
AcDbEntity
  8
0
  6
Continuous
 62
     7
370
     0
100
AcDbLine
 10
783.736656348142
 20
-963.9690140028234
 30
0.0
 11
783.7235923789055
 21
-960.3069609744613
 31
0.0
  0
ELLIPSE
  5
24B
330
A
100
AcDbEntity
  8
0
  6
Continuous
 62
     7
370
     0
100
AcDbEllipse
 10
783.3658310432241
 20
-960.0201834101971
 30
0.0
 11
-0.1600000000000212
 21
0.7838367176906669
 31
0.0
210
0.0
220
0.0
230
1.0
 40
0.4082482904638612
 41
4.256044417118634
 42
5.826840743913607
  0
LINE
  5
24C
330
A
100
AcDbEntity
  8
0
  6
Continuous
 62
     7
370
     0
100
AcDbLine
 10
783.3632182493762
 20
-959.287772804525
 30
0.0
 11
780.3222468960873
 21
-956.85016350828
 31
0.0
  0
LINE
  5
24D
330
A
100
AcDbEntity
  8
0
  6
Continuous
 62
     7
370
     0
100
AcDbLine
 10
780.3222468960873
 20
-956.85016350828
 30
0.0
 11
780.3196341022399
 21
-956.1177529026075
 31
0.0
  0
LINE
  5
24E
330
A
100
AcDbEntity
  8
0
  6
Continuous
 62
     7
370
     0
100
AcDbLine
 10
780.3196341022403
 20
-956.1177529026075
 30
0.0
 11
780.978443615968
 21
-955.2910923571484
 31
0.0
  0
ELLIPSE
  5
24F
330
A
100
AcDbEntity
  8
0
  6
Continuous
 62
     7
370
     0
100
AcDbEllipse
 10
781.1045745613032
 20
-955.6478082166263
 30
0.0
 11
-0.0791959594929059
 21
0.3879793808954091
 31
0.0
210
0.0
220
0.0
230
1.0
 40
0.4082482904638614
 41
0.0000000000000278
 42
0.3290536001329043
  0
LINE
  5
250
330
A
100
AcDbEntity
  8
0
  6
Continuous
 62
     7
370
     0
100
AcDbLine
 10
781.2816573878567
 20
-955.7897558688946
 30
0.0
 11
781.2848058704243
 21
-956.6723291444189
 31
0.0
  0
LINE
  5
251
330
A
100
AcDbEntity
  8
0
  6
Continuous
 62
     7
370
     0
100
AcDbLine
 10
781.2848058704247
 20
-956.6723291444189
 30
0.0
 11
783.3598216173748
 21
-958.3356390171507
 31
0.0
  0
ELLIPSE
  5
252
330
A
100
AcDbEntity
  8
0
  6
Continuous
 62
     7
370
     0
100
AcDbEllipse
 10
783.3572088235269
 20
-957.6032284114782
 30
0.0
 11
-0.1599999999999657
 21
0.7838367176905559
 31
-0.0000000000000001
210
0.0
220
0.0000000000000001
230
1.0
 40
0.4082482904638615
 41
3.14159265359058
 42
4.256044417119151
  0
LINE
  5
253
330
A
100
AcDbEntity
  8
0
  6
Continuous
 62
     7
370
     0
100
AcDbLine
 10
783.7149701592086
 20
-957.8900059757424
 30
0.0
 11
783.6992933961245
 21
-953.4955423417081
 31
0.0
  0
LINE
  5
254
330
A
100
AcDbEntity
  8
0
  6
Continuous
 62
     7
370
     0
100
AcDbLine
 10
783.6992933961245
 20
-953.4955423417081
 30
0.0
 11
783.0910991254666
 21
-953.008020482459
 31
0.0
  0
LINE
  5
255
330
A
100
AcDbEntity
  8
0
  6
Continuous
 62
     7
370
     0
100
AcDbLine
 10
783.0910991254666
 20
-953.0080204824592
 30
0.0
 11
783.0875718537722
 21
-952.0192661648014
 31
0.0
  0
LINE
  5
256
330
A
100
AcDbEntity
  8
0
  6
Continuous
 62
     9
370
     0
100
AcDbLine
 10
783.369614820838
 20
-965.7004283164221
 30
0.0
 11
784.6383066243521
 21
-966.7173977564566
 31
0.0
  0
ELLIPSE
  5
257
330
A
100
AcDbEntity
  8
0
  6
Continuous
 62
     7
370
     0
100
AcDbEllipse
 10
785.2751607312622
 20
-965.2387780594427
 30
0.0
 11
-0.9599999999999885
 21
4.703020306143668
 31
-0.0000000000000002
210
0.0
220
0.0
230
1.0
 40
0.4082482904638615
 41
1.114451763528688
 42
1.585633088958126
  0
ELLIPSE
  5
258
330
A
100
AcDbEntity
  8
0
  6
Continuous
 62
     7
370
     0
100
AcDbEllipse
 10
783.3572088235269
 20
-957.6032284114782
 30
0.0
 11
-0.1599999999999657
 21
0.7838367176905559
 31
0.0
210
0.0
220
0.0
230
1.0
 40
0.4082482904638614
 41
2.685248090324331
 42
3.141592653590581
  0
LINE
  5
259
330
A
100
AcDbEntity
  8
0
  6
Continuous
 62
     9
370
     0
100
AcDbLine
 10
783.3598216173748
 20
-958.3356390171507
 30
0.0
 11
783.6418502157637
 21
-958.2780701705738
 31
0.0
  0
LINE
  5
25A
330
A
100
AcDbEntity
  8
0
  6
Continuous
 62
     7
370
     0
100
AcDbLine
 10
781.2848058704247
 20
-956.6723291444189
 30
0.0
 11
783.7088610582461
 21
-956.1775209512097
 31
0.0
  0
ELLIPSE
  5
25B
330
A
100
AcDbEntity
  8
0
  6
Continuous
 62
     7
370
     0
100
AcDbEllipse
 10
786.784931882752
 20
-966.2792197104524
 30
0.0
 11
-1.50108185120959
 21
-1.87263271251159
 31
0.0000000000000001
210
0.0
220
0.0
230
0.9999999999999998
 40
0.8194562367494333
 41
5.490417039878262
 42
5.691016917766497
  0
ARC
  5
25C
330
A
100
AcDbEntity
  8
0
  6
Continuous
 62
     7
370
     0
100
AcDbCircle
 10
786.7763795299386
 20
-964.8505990107844
 30
0.0
 40
3.511161578722441
100
AcDbArc
 50
194.0067682447004
 51
233.1244587861676
  0
LINE
  5
25D
330
A
100
AcDbEntity
  8
0
  6
Continuous
 62
     7
370
     0
100
AcDbLine
 10
783.7344758744392
 20
-963.3577900952722
 30
0.0
 11
783.1284620774837
 21
-963.4814921435744
 31
0.0
  0
ELLIPSE
  5
25E
330
A
100
AcDbEntity
  8
0
  6
Continuous
 62
     7
370
     0
100
AcDbEllipse
 10
781.1045745613032
 20
-955.6478082166263
 30
0.0
 11
-0.0791959594929059
 21
0.3879793808954091
 31
0.0
210
0.0
220
0.0
230
1.0
 40
0.4082482904638614
 41
4.256044417118033
 42
6.283185307179613
  0
LINE
  5
25F
330
A
100
AcDbEntity
  8
0
  6
Continuous
 62
     9
370
     0
100
AcDbLine
 10
783.7057125756794
 20
-955.2949476756852
 30
0.0
 11
781.2816573878571
 21
-955.7897558688944
 31
0.0
  0
ELLIPSE
  5
260
330
A
100
AcDbEntity
  8
0
  6
Continuous
 62
     7
370
     0
100
AcDbEllipse
 10
782.3357969025516
 20
-954.1302415243203
 30
0.0
 11
0.0799999999999968
 21
-0.3919183588453334
 31
0.0
210
-0.0000000000000001
220
0.0
230
1.0
 40
0.4082482904638631
 41
4.248741371319965
 42
5.819537698116768
  0
LINE
  5
261
330
A
100
AcDbEntity
  8
0
  6
Continuous
 62
     7
370
     0
100
AcDbLine
 10
782.156911464363
 20
-953.6190338039686
 30
0.0
 11
782.1569114643518
 21
-953.9841821756294
 31
0.0
  0
ELLIPSE
  5
262
330
A
100
AcDbEntity
  8
0
  6
Continuous
 62
     7
370
     0
100
AcDbEllipse
 10
782.335796902563
 20
-953.7650931526595
 30
0.0
 11
0.0799999999999968
 21
-0.3919183588453334
 31
0.0
210
0.0
220
0.0
230
1.0
 40
0.4082482904638633
 41
2.677945044527083
 42
3.141592653590364
  0
ELLIPSE
  5
263
330
A
100
AcDbEntity
  8
0
  6
Continuous
 62
     7
370
     0
100
AcDbEllipse
 10
786.6290474193719
 20
-956.9053691495813
 30
0.0
 11
1.920000000000005
 21
-9.406040612287336
 31
0.0
210
0.0
220
0.0
230
1.0
 40
0.4082482904638632
 41
3.199396343546884
 42
4.248741371321088
  0
ELLIPSE
  5
264
330
A
100
AcDbEntity
  8
0
  6
Continuous
 62
     7
370
     0
100
AcDbEllipse
 10
784.4013017327328
 20
-947.1709446545611
 30
0.0
 11
-0.079999999999969
 21
0.3919183588451113
 31
0.0
210
-0.0000000000000001
220
0.0
230
0.9999999999999998
 40
0.408248290463863
 41
3.199396343548444
 42
4.313994595803246
  0
ELLIPSE
  5
265
330
A
100
AcDbEntity
  8
0
  6
Continuous
 62
     7
370
     0
100
AcDbEllipse
 10
696.0414615148174
 20
-886.8114877120937
 30
0.0
 11
39.68
 21
-194.3915059872729
 31
0.0
210
-0.0000000000000001
220
0.0
230
1.0
 40
0.4082482904638626
 41
1.172401942212057
 42
1.228498961651474
  0
ELLIPSE
  5
266
330
A
100
AcDbEntity
  8
0
  6
Continuous
 62
     7
370
     0
100
AcDbEllipse
 10
783.7610073419137
 20
-936.5983243458412
 30
0.0
 11
-0.1599999999999935
 21
0.7838367176905559
 31
0.0
210
0.0
220
0.0
230
1.0
 40
0.408248290463863
 41
4.370091615240752
 42
5.819537698116508
  0
LINE
  5
267
330
A
100
AcDbEntity
  8
0
  6
Continuous
 62
     7
370
     0
100
AcDbLine
 10
783.761007341936
 20
-935.8680276025195
 30
0.0
 11
781.0120446604717
 21
-933.6235089716529
 31
0.0
  0
LINE
  5
268
330
A
100
AcDbEntity
  8
0
  6
Continuous
 62
     7
370
     0
100
AcDbLine
 10
781.0120446604721
 20
-933.6235089716529
 30
0.0
 11
781.0120446604606
 21
-933.9886573433137
 31
0.0
  0
ELLIPSE
  5
269
330
A
100
AcDbEntity
  8
0
  6
Continuous
 62
     7
370
     0
100
AcDbEllipse
 10
780.8331592222605
 20
-933.8425979946229
 30
0.0
 11
-0.0799999999999968
 21
0.3919183588453334
 31
0.0
210
0.0
220
0.0
230
1.0
 40
0.4082482904638631
 41
3.141592653587561
 42
4.248741371320233
  0
LINE
  5
26A
330
A
100
AcDbEntity
  8
0
  6
Continuous
 62
     7
370
     0
100
AcDbLine
 10
780.8331592222489
 20
-934.2077463662837
 30
0.0
 11
780.4038341705691
 21
-933.8572039294255
 31
0.0
  0
ELLIPSE
  5
26B
330
A
100
AcDbEntity
  8
0
  6
Continuous
 62
     7
370
     0
100
AcDbEllipse
 10
780.4038341705917
 20
-933.126907186104
 30
0.0
 11
-0.1599999999999935
 21
0.7838367176905559
 31
0.0
210
0.0
220
0.0
230
1.0
 40
0.408248290463863
 41
1.1071487177307
 42
2.677945044525446
  0
LINE
  5
26C
330
A
100
AcDbEntity
  8
0
  6
Continuous
 62
     7
370
     0
100
AcDbLine
 10
780.0460632941924
 20
-932.8347884887218
 30
0.0
 11
780.0460632942145
 21
-932.1044917454003
 31
0.0
  0
ELLIPSE
  5
26D
330
A
100
AcDbEntity
  8
0
  6
Continuous
 62
     7
370
     0
100
AcDbEllipse
 10
780.4038341706139
 20
-932.3966104427821
 30
0.0
 11
-0.1599999999999935
 21
0.7838367176905559
 31
0.0
210
0.0
220
0.0
230
1.0
 40
0.408248290463863
 41
0.0000000000002718
 42
1.10714871773126
  0
LINE
  5
26E
330
A
100
AcDbEntity
  8
0
  6
Continuous
 62
     7
370
     0
100
AcDbLine
 10
780.4038341706371
 20
-931.6663136994607
 30
0.0
 11
783.9844175722768
 21
-934.5898478050855
 31
0.0
  0
LINE
  5
26F
330
A
100
AcDbEntity
  8
0
  6
Continuous
 62
     7
370
     0
100
AcDbLine
 10
783.9844175722764
 20
-934.5898478050854
 30
0.0
 11
784.5494426245734
 21
-935.051188828497
 31
0.0
  0
ELLIPSE
  5
270
330
A
100
AcDbEntity
  8
0
  6
Continuous
 62
     7
370
     0
100
AcDbEllipse
 10
784.5494426245618
 20
-935.4163372001579
 30
0.0
 11
-0.0799999999999968
 21
0.3919183588452225
 31
0.0
210
0.0
220
0.0
230
0.9999999999999998
 40
0.408248290463863
 41
4.378968871166621
 42
5.819537698115354
  0
ELLIPSE
  5
271
330
A
100
AcDbEntity
  8
0
  6
Continuous
 62
     7
370
     0
100
AcDbEllipse
 10
696.0414615148174
 20
-886.8114877120937
 30
0.0
 11
-40.0
 21
195.9591794226543
 31
0.0
210
0.0
220
0.0
230
1.0
 40
0.4082482904638633
 41
3.978531324583844
 42
4.378968871164703
  0
ELLIPSE
  5
272
330
A
100
AcDbEntity
  8
0
  6
Continuous
 62
     7
370
     0
100
AcDbEllipse
 10
782.0663434951872
 20
-1005.688272841255
 30
0.0
 11
-0.0799999999999968
 21
0.3919183588452225
 31
0.0
210
0.0
220
0.0
230
0.9999999999999998
 40
0.4082482904638628
 41
3.141592653590309
 42
3.978531324582707
  0
LINE
  5
273
330
A
100
AcDbEntity
  8
0
  6
Continuous
 62
     7
370
     0
100
AcDbLine
 10
782.0663434951764
 20
-1006.053421212915
 30
0.0
 11
780.8331592200679
 21
-1005.046530468477
 31
0.0
  0
ELLIPSE
  5
274
330
A
100
AcDbEntity
  8
0
  6
Continuous
 62
     7
370
     0
100
AcDbEllipse
 10
780.8331592200791
 20
-1004.681382096816
 30
0.0
 11
-0.0799999999999968
 21
0.3919183588452225
 31
0.0
210
0.0
220
0.0
230
0.9999999999999998
 40
0.4082482904638628
 41
1.107148717731506
 42
2.677945044527027
  0
LINE
  5
275
330
A
100
AcDbEntity
  8
0
  6
Continuous
 62
     7
370
     0
100
AcDbLine
 10
780.6542737818789
 20
-1004.535322748125
 30
0.0
 11
780.6542737819015
 21
-1003.805026004804
 31
0.0
  0
ELLIPSE
  5
276
330
A
100
AcDbEntity
  8
0
  6
Continuous
 62
     7
370
     0
100
AcDbEllipse
 10
780.8331592201022
 20
-1003.951085353495
 30
0.0
 11
-0.0799999999999968
 21
0.3919183588452225
 31
0.0
210
0.0
220
0.0
230
0.9999999999999998
 40
0.4082482904638628
 41
0.0000000000005724
 42
1.107148717731506
  0
LINE
  5
277
330
A
100
AcDbEntity
  8
0
  6
Continuous
 62
     7
370
     0
100
AcDbLine
 10
780.8331592201128
 20
-1003.585936981834
 30
0.0
 11
781.3832702590931
 21
-1004.035100764363
 31
0.0
  0
ELLIPSE
  5
278
330
A
100
AcDbEntity
  8
0
  6
Continuous
 62
     7
370
     0
100
AcDbEllipse
 10
781.3832702591152
 20
-1003.304804021041
 30
0.0
 11
0.1600000000000212
 21
-0.7838367176906669
 31
0.0
210
0.0
220
0.0
230
1.0
 40
0.4082482904638631
 41
5.819537698116535
 42
6.283185307179858
  0
ELLIPSE
  5
279
330
A
100
AcDbEntity
  8
0
  6
Continuous
 62
     7
370
     0
100
AcDbEllipse
 10
696.0414615148174
 20
-886.8114877120937
 30
0.0
 11
39.68
 21
-194.3915059872729
 31
0.0
210
0.0
220
0.0
230
1.0
 40
0.4082482904638629
 41
0.8446296141816706
 42
0.9604694746480474
  0
ELLIPSE
  5
27A
330
A
100
AcDbEntity
  8
0
  6
Continuous
 62
     7
370
     0
100
AcDbEllipse
 10
783.4619460699387
 20
-984.5537269001836
 30
0.0
 11
0.1599999999999657
 21
-0.7838367176905559
 31
0.0
210
0.0
220
0.0
230
1.0
 40
0.4082482904638629
 41
0.9604694746482213
 42
2.677945044527008
  0
LINE
  5
27B
330
A
100
AcDbEntity
  8
0
  6
Continuous
 62
     7
370
     0
100
AcDbLine
 10
783.4619460699608
 20
-983.8234301568622
 30
0.0
 11
782.0853572881867
 21
-982.6994501230235
 31
0.0
  0
ELLIPSE
  5
27C
330
A
100
AcDbEntity
  8
0
  6
Continuous
 62
     7
370
     0
100
AcDbEllipse
 10
782.0853572881983
 20
-982.3343017513623
 30
0.0
 11
-0.0799999999999968
 21
0.3919183588453334
 31
0.0
210
0.0
220
0.0
230
1.0
 40
0.4082482904638631
 41
1.10714871773044
 42
2.677945044526974
  0
LINE
  5
27D
330
A
100
AcDbEntity
  8
0
  6
Continuous
 62
     7
370
     0
100
AcDbLine
 10
781.9064718499983
 20
-982.1882424026714
 30
0.0
 11
781.9064718500093
 21
-981.8230940310106
 31
0.0
  0
ELLIPSE
  5
27E
330
A
100
AcDbEntity
  8
0
  6
Continuous
 62
     7
370
     0
100
AcDbEllipse
 10
782.085357288209
 20
-981.9691533797016
 30
0.0
 11
-0.0799999999999968
 21
0.3919183588453334
 31
0.0
210
0.0
220
0.0
230
1.0
 40
0.4082482904638631
 41
0.0000000000005724
 42
1.107148717731562
  0
LINE
  5
27F
330
A
100
AcDbEntity
  8
0
  6
Continuous
 62
     7
370
     0
100
AcDbLine
 10
782.0853572882206
 20
-981.6040050080408
 30
0.0
 11
783.6378011635816
 21
-982.8715701245549
 31
0.0
  0
ELLIPSE
  5
280
330
A
100
AcDbEntity
  8
0
  6
Continuous
 62
     7
370
     0
100
AcDbEllipse
 10
783.6378011636043
 20
-982.1412733812332
 30
0.0
 11
0.1600000000000212
 21
-0.7838367176906669
 31
0.0
210
0.0
220
0.0
230
1.0
 40
0.4082482904638631
 41
5.819537698115213
 42
6.283185307179858
  0
ELLIPSE
  5
281
330
A
100
AcDbEntity
  8
0
  6
Continuous
 62
     7
370
     0
100
AcDbEllipse
 10
696.0414615148174
 20
-886.8114877120937
 30
0.0
 11
39.68
 21
-194.3915059872729
 31
0.0
210
-0.0000000000000001
220
0.0
230
1.0
 40
0.4082482904638631
 41
0.9747786898563754
 42
1.019708050616728
  0
ELLIPSE
  5
282
330
A
100
AcDbEntity
  8
0
  6
Continuous
 62
     7
370
     0
100
AcDbEllipse
 10
784.0732526722708
 20
-974.441888093667
 30
0.0
 11
0.1599999999999657
 21
-0.7838367176905559
 31
0.0
210
0.0
220
0.0
230
1.0
 40
0.4082482904638631
 41
1.019708050617091
 42
3.141592653590581
  0
ELLIPSE
  5
283
330
A
100
AcDbEntity
  8
0
  6
Continuous
 62
     7
370
     0
100
AcDbEllipse
 10
783.1228928301507
 20
-970.4012529656424
 30
0.0
 11
-0.672000000000006
 21
3.292114214300645
 31
0.0
210
0.0
220
0.0
230
1.0
 40
0.408248290463863
 41
3.141592653589599
 42
3.214099620387845
  0
ELLIPSE
  5
284
330
A
100
AcDbEntity
  8
0
  6
Continuous
 62
     7
370
     0
100
AcDbEllipse
 10
782.359950258521
 20
-971.5207234504379
 30
0.0
 11
-0.1600000000000212
 21
0.7838367176906669
 31
0.0
210
0.0
220
0.0
230
1.0
 40
0.4082482904638628
 41
0.0599511665345539
 42
1.948571197257292
  0
ELLIPSE
  5
285
330
A
100
AcDbEntity
  8
0
  6
Continuous
 62
     7
370
     0
100
AcDbEllipse
 10
782.359950258521
 20
-971.5207234504379
 30
0.0
 11
-0.1600000000000212
 21
0.7838367176906669
 31
0.0
210
0.0
220
0.0
230
1.0
 40
0.4082482904638628
 41
0.0000000000002699
 42
0.0599511665345539
  0
ELLIPSE
  5
286
330
A
100
AcDbEntity
  8
0
  6
Continuous
 62
     7
370
     0
100
AcDbEllipse
 10
783.1228928301507
 20
-970.4012529656424
 30
0.0
 11
0.3519999999999912
 21
-1.724440778919311
 31
0.0
210
0.0
220
0.0
230
1.0
 40
0.4082482904638631
 41
5.090163850847208
 42
6.283185307179457
  0
ELLIPSE
  5
287
330
A
100
AcDbEntity
  8
0
  6
Continuous
 62
     7
370
     0
100
AcDbEllipse
 10
782.3599502586277
 20
-968.0359024783777
 30
0.0
 11
-0.1599999999999657
 21
0.7838367176905559
 31
0.0
210
-0.0000000000000001
220
0.0
230
1.0
 40
0.4082482904638624
 41
3.14159265359058
 42
3.40731889179562
  0
ELLIPSE
  5
288
330
A
100
AcDbEntity
  8
0
  6
Continuous
 62
     7
370
     0
100
AcDbEllipse
 10
782.3599502586277
 20
-968.0359024783777
 30
0.0
 11
-0.1599999999999657
 21
0.7838367176905559
 31
0.0
210
-0.0000000000000001
220
0.0
230
1.0
 40
0.4082482904638631
 41
0.2657262382046197
 42
2.154346268928755
  0
ELLIPSE
  5
289
330
A
100
AcDbEntity
  8
0
  6
Continuous
 62
     7
370
     0
100
AcDbEllipse
 10
783.1228928301507
 20
-970.4012529656424
 30
0.0
 11
-0.672000000000006
 21
3.292114214300645
 31
0.0
210
-0.0000000000000001
220
0.0
230
1.0
 40
0.408248290463863
 41
0.0000000000000675
 42
0.2657262382050176
  0
ELLIPSE
  5
28A
330
A
100
AcDbEntity
  8
0
  6
Continuous
 62
     7
370
     0
100
AcDbEllipse
 10
784.2875380659311
 20
-968.3908184820175
 30
0.0
 11
0.1599999999999935
 21
-0.7838367176905559
 31
0.0
210
-0.0000000000000001
220
0.0
230
0.9999999999999998
 40
0.4082482904638626
 41
5.143104162655228
 42
6.283185307179858
  0
ELLIPSE
  5
28B
330
A
100
AcDbEntity
  8
0
  6
Continuous
 62
     7
370
     0
100
AcDbEllipse
 10
696.0414615148174
 20
-886.8114877120937
 30
0.0
 11
39.68
 21
-194.3915059872729
 31
0.0
210
-0.0000000000000001
220
0.0
230
1.0
 40
0.4082482904638629
 41
1.054310425246896
 42
1.156665403692441
  0
ELLIPSE
  5
28C
330
A
100
AcDbEntity
  8
0
  6
Continuous
 62
     7
370
     0
100
AcDbEllipse
 10
784.3025535493656
 20
-949.9480342081144
 30
0.0
 11
-0.1600000000007151
 21
0.7838367176904449
 31
-0.0000000000000001
210
0.0
220
0.0000000000000001
230
1.0
 40
0.4082482904640951
 41
6.283185307179286
 42
6.573455035935912
  0
ELLIPSE
  5
28D
330
A
100
AcDbEntity
  8
0
  6
Continuous
 62
     7
370
     0
100
AcDbEllipse
 10
786.6290474193719
 20
-956.9053691495813
 30
0.0
 11
-1.679999999999987
 21
8.230285535751447
 31
0.0
210
0.0
220
0.0
230
1.0
 40
0.408248290463863
 41
0.7473317321860968
 42
1.107148717731235
  0
ELLIPSE
  5
28E
330
A
100
AcDbEntity
  8
0
  6
Continuous
 62
     7
370
     0
100
AcDbEllipse
 10
786.6290474193719
 20
-956.9053691495813
 30
0.0
 11
-1.679999999999987
 21
8.230285535751447
 31
0.0
210
0.0
220
0.0
230
1.0
 40
0.4082482904638628
 41
0.3619630269362668
 42
0.7473317321860958
  0
ELLIPSE
  5
28F
330
A
100
AcDbEntity
  8
0
  6
Continuous
 62
     7
370
     0
100
AcDbEllipse
 10
786.6290474193719
 20
-956.9053691495813
 30
0.0
 11
-1.679999999999987
 21
8.230285535751447
 31
0.0
210
0.0
220
0.0
230
1.0
 40
0.4082482904638633
 41
0.2902697287557515
 42
0.3619630269362679
  0
LINE
  5
290
330
A
100
AcDbEntity
  8
0
  6
Continuous
 62
     7
370
     0
100
AcDbLine
 10
782.8724532171403
 20
-954.9335679420536
 30
0.0
 11
782.8724532171741
 21
-953.8381228270715
 31
0.0
  0
LINE
  5
291
330
A
100
AcDbEntity
  8
0
  6
Continuous
 62
     7
370
     0
100
AcDbLine
 10
782.8724532171403
 20
-954.9335679420536
 30
0.0
 11
782.3357969025404
 21
-954.4953898959811
 31
0.0
  0
LINE
  5
292
330
A
100
AcDbEntity
  8
0
  6
Continuous
 62
     9
370
     0
100
AcDbLine
 10
782.2387380482539
 20
-1005.926502871574
 30
0.0
 11
4359.947502047917
 21
-275.6297595313522
 31
0.0
  0
LINE
  5
293
330
A
100
AcDbEntity
  8
0
  6
Continuous
 62
     9
370
     0
100
AcDbLine
 10
784.7268133281886
 20
-935.5137417081497
 30
0.0
 11
4362.435577327853
 21
-205.2169983679282
 31
0.0
  0
ELLIPSE
  5
294
330
A
100
AcDbEntity
  8
0
  6
Continuous
 62
     7
370
     0
100
AcDbEllipse
 10
4273.750225514478
 20
-156.514744371872
 30
0.0
 11
-40.00000000000002
 21
195.9591794226543
 31
0.0
210
0.0
220
0.0
230
1.0
 40
0.4082482904638633
 41
3.978531324583845
 42
4.378968871164703
  0
LINE
  5
295
330
A
100
AcDbEntity
  8
0
  6
Continuous
 62
     9
370
     0
100
AcDbLine
 10
784.5494426245734
 20
-935.051188828497
 30
0.0
 11
4362.258206624236
 21
-204.7544454882755
 31
0.0
  0
ELLIPSE
  5
296
330
A
100
AcDbEntity
  8
0
  6
Continuous
 62
     7
370
     0
100
AcDbEllipse
 10
4362.258206624224
 20
-205.119593859936
 30
0.0
 11
-0.08000000000008
 21
0.3919183588453057
 31
0.0
210
0.0
220
0.0
230
1.0
 40
0.408248290463863
 41
4.378968871164589
 42
5.81953769811674
  0
LINE
  5
297
330
A
100
AcDbEntity
  8
0
  6
Continuous
 62
     9
370
     0
100
AcDbLine
 10
783.9844175722764
 20
-934.5898478050854
 30
0.0
 11
4361.693181571939
 21
-204.2931044648639
 31
0.0
  0
LINE
  5
298
330
A
100
AcDbEntity
  8
0
  6
Continuous
 62
     7
370
     0
100
AcDbLine
 10
4361.693181571938
 20
-204.2931044648637
 30
0.0
 11
4362.258206624235
 21
-204.7544454882753
 31
0.0
  0
LINE
  5
299
330
A
100
AcDbEntity
  8
0
  6
Continuous
 62
     9
370
     0
100
AcDbLine
 10
780.4038341706371
 20
-931.6663136994607
 30
0.0
 11
4358.112598170301
 21
-201.3695703592394
 31
0.0
  0
LINE
  5
29A
330
A
100
AcDbEntity
  8
0
  6
Continuous
 62
     7
370
     0
100
AcDbLine
 10
4358.112598170299
 20
-201.3695703592391
 30
0.0
 11
4361.693181571939
 21
-204.2931044648637
 31
0.0
  0
ELLIPSE
  5
29B
330
A
100
AcDbEntity
  8
0
  6
Continuous
 62
     7
370
     0
100
AcDbEllipse
 10
784.3025535493656
 20
-949.9480342081144
 30
0.0
 11
-0.1599999999999935
 21
0.7838367176905559
 31
0.0
210
-0.0000000000000001
220
0.0
230
1.0
 40
0.408248290463863
 41
4.298258057282763
 42
6.283185307179014
  0
LINE
  5
29C
330
A
100
AcDbEntity
  8
0
  6
Continuous
 62
     9
370
     0
100
AcDbLine
 10
784.2408342933885
 20
-949.1782927548989
 30
0.0
 11
784.0576594577854
 21
-949.2156831616444
 31
0.0
  0
LINE
  5
29D
330
A
100
AcDbEntity
  8
0
  6
Continuous
 62
     9
370
     0
100
AcDbLine
 10
781.0120446604596
 20
-933.9886573433139
 30
0.0
 11
781.3698155368141
 21
-933.9156276689891
 31
0.0
  0
ELLIPSE
  5
29E
330
A
100
AcDbEntity
  8
0
  6
Continuous
 62
     7
370
     0
100
AcDbEllipse
 10
780.8331592222605
 20
-933.8425979946229
 30
0.0
 11
-0.0799999999999968
 21
0.3919183588453334
 31
0.0
210
-0.0000000000000001
220
0.0
230
1.0
 40
0.4082482904638631
 41
2.677945044524402
 42
3.141592653587561
  0
LINE
  5
29F
330
A
100
AcDbEntity
  8
0
  6
Continuous
 62
     9
370
     0
100
AcDbLine
 10
782.8724532171741
 20
-953.8381228270717
 30
0.0
 11
783.6999129659471
 21
-953.6692183131396
 31
0.0
  0
ELLIPSE
  5
2A0
330
A
100
AcDbEntity
  8
0
  6
Continuous
 62
     7
370
     0
100
AcDbEllipse
 10
780.4038341706139
 20
-932.3966104427821
 30
0.0
 11
-0.1599999999999935
 21
0.7838367176905559
 31
0.0
210
0.0
220
0.0
230
1.0
 40
0.408248290463863
 41
5.819537698116508
 42
6.283185307179858
  0
ELLIPSE
  5
2A1
330
A
100
AcDbEntity
  8
0
  6
Continuous
 62
     7
370
     0
100
AcDbEllipse
 10
4358.112598170276
 20
-202.0998671025607
 30
0.0
 11
-0.1600000000006041
 21
0.7838367176904726
 31
0.0
210
0.0
220
0.0
230
1.0
 40
0.408248290463863
 41
5.819537698115485
 42
6.283185307179314
  0
LINE
  5
2A2
330
A
100
AcDbEntity
  8
0
  6
Continuous
 62
     7
370
     0
100
AcDbLine
 10
783.7038180016539
 20
-954.7638663160391
 30
0.0
 11
782.8724532171398
 21
-954.9335679420538
 31
0.0
  0
ELLIPSE
  5
2A3
330
A
100
AcDbEntity
  8
0
  6
Continuous
 62
     7
370
     0
100
AcDbEllipse
 10
782.335796902563
 20
-953.7650931526595
 30
0.0
 11
0.0799999999999968
 21
-0.3919183588453334
 31
0.0
210
-0.0000000000000001
220
0.0
230
1.0
 40
0.4082482904638637
 41
3.141592653590364
 42
4.248741371320942
  0
ELLIPSE
  5
2A4
330
A
100
AcDbEntity
  8
0
  6
Continuous
 62
     7
370
     0
100
AcDbEllipse
 10
784.2875380659311
 20
-968.3908184820175
 30
0.0
 11
0.1599999999999935
 21
-0.7838367176905559
 31
0.0
210
0.0
220
0.0
230
0.9999999999999998
 40
0.4082482904638631
 41
0.0000000000002719
 42
1.054310425246824
  0
LINE
  5
2A5
330
A
100
AcDbEntity
  8
0
  6
Continuous
 62
     9
370
     0
100
AcDbLine
 10
784.0635678282808
 20
-968.777440498099
 30
0.0
 11
784.6464620343754
 21
-968.6584577165191
 31
0.0
  0
ELLIPSE
  5
2A6
330
A
100
AcDbEntity
  8
0
  6
Continuous
 62
     7
370
     0
100
AcDbEllipse
 10
783.1228928301507
 20
-970.4012529656424
 30
0.0
 11
-0.672000000000006
 21
3.292114214300645
 31
0.0
210
-0.0000000000000001
220
0.0
230
1.0
 40
0.408248290463863
 41
5.143104162655226
 42
6.283185307179654
  0
ELLIPSE
  5
2A7
330
A
100
AcDbEntity
  8
0
  6
Continuous
 62
     7
370
     0
100
AcDbEllipse
 10
783.1228928301507
 20
-970.4012529656424
 30
0.0
 11
0.3519999999999912
 21
-1.724440778919311
 31
0.0
210
0.0
220
0.0
230
1.0
 40
0.4082482904638629
 41
3.14159265358965
 42
3.407318891795092
  0
ELLIPSE
  5
2A8
330
A
100
AcDbEntity
  8
0
  6
Continuous
 62
     7
370
     0
100
AcDbEllipse
 10
783.1228928301507
 20
-970.4012529656424
 30
0.0
 11
0.3519999999999912
 21
-1.724440778919311
 31
0.0
210
0.0
220
0.0
230
1.0
 40
0.4082482904638631
 41
6.283185307179456
 42
9.424777960769235
  0
LINE
  5
2A9
330
A
100
AcDbEntity
  8
0
  6
Continuous
 62
     9
370
     0
100
AcDbLine
 10
782.5983698122297
 20
-968.7750745056479
 30
0.0
 11
782.9681248134095
 21
-968.6995985820868
 31
0.0
  0
LINE
  5
2AA
330
A
100
AcDbEntity
  8
0
  6
Continuous
 62
     9
370
     0
100
AcDbLine
 10
782.5983698121551
 20
-971.1708889239394
 30
0.0
 11
783.9070884683908
 21
-970.9037478468863
 31
0.0
  0
ELLIPSE
  5
2AB
330
A
100
AcDbEntity
  8
0
  6
Continuous
 62
     7
370
     0
100
AcDbEllipse
 10
784.0732526722708
 20
-974.441888093667
 30
0.0
 11
0.1599999999999657
 21
-0.7838367176905559
 31
0.0
210
0.0
220
0.0
230
1.0
 40
0.4082482904638631
 41
3.141592653590581
 42
3.214099620389037
  0
LINE
  5
2AC
330
A
100
AcDbEntity
  8
0
  6
Continuous
 62
     9
370
     0
100
AcDbLine
 10
783.8904911641709
 20
-973.6648428767393
 30
0.0
 11
783.9368549735556
 21
-973.6553789037788
 31
0.0
  0
ELLIPSE
  5
2AD
330
A
100
AcDbEntity
  8
0
  6
Continuous
 62
     7
370
     0
100
AcDbEllipse
 10
783.1228928301507
 20
-970.4012529656424
 30
0.0
 11
-0.672000000000006
 21
3.292114214300645
 31
0.0
210
-0.0000000000000001
220
0.0
230
1.0
 40
0.408248290463863
 41
1.948571197257355
 42
3.141592653589601
  0
ELLIPSE
  5
2AE
330
A
100
AcDbEntity
  8
0
  6
Continuous
 62
     7
370
     0
100
AcDbEllipse
 10
782.3599502586277
 20
-968.0359024783777
 30
0.0
 11
-0.1599999999999657
 21
0.7838367176905559
 31
0.0
210
-0.0000000000000001
220
0.0
230
1.0
 40
0.4082482904638631
 41
2.154346268928755
 42
3.141592653590581
  0
ELLIPSE
  5
2AF
330
A
100
AcDbEntity
  8
0
  6
Continuous
 62
     7
370
     0
100
AcDbEllipse
 10
782.359950258521
 20
-971.5207234504379
 30
0.0
 11
-0.1600000000000212
 21
0.7838367176906669
 31
0.0
210
-0.0000000000000001
220
0.0
230
1.0
 40
0.4082482904638632
 41
5.090163850847201
 42
6.283185307179858
  0
ELLIPSE
  5
2B0
330
A
100
AcDbEntity
  8
0
  6
Continuous
 62
     7
370
     0
100
AcDbEllipse
 10
783.6378011636043
 20
-982.1412733812332
 30
0.0
 11
0.1600000000000212
 21
-0.7838367176906669
 31
0.0
210
-0.0000000000000001
220
0.0
230
1.0
 40
0.4082482904638631
 41
0.0000000000002719
 42
0.974778689855988
  0
LINE
  5
2B1
330
A
100
AcDbEntity
  8
0
  6
Continuous
 62
     9
370
     0
100
AcDbLine
 10
783.6378011635812
 20
-982.8715701245549
 30
0.0
 11
783.9240178647369
 21
-982.8131463850803
 31
0.0
  0
LINE
  5
2B2
330
A
100
AcDbEntity
  8
0
  6
Continuous
 62
     9
370
     0
100
AcDbLine
 10
782.0853572882206
 20
-981.6040050080408
 30
0.0
 11
784.0812360362615
 21
-981.1965979646103
 31
0.0
  0
ELLIPSE
  5
2B3
330
A
100
AcDbEntity
  8
0
  6
Continuous
 62
     7
370
     0
100
AcDbEllipse
 10
782.085357288209
 20
-981.9691533797016
 30
0.0
 11
-0.0799999999999968
 21
0.3919183588453334
 31
0.0
210
0.0
220
0.0
230
1.0
 40
0.4082482904638632
 41
5.819537698116766
 42
6.283185307180157
  0
ELLIPSE
  5
2B4
330
A
100
AcDbEntity
  8
0
  6
Continuous
 62
     7
370
     0
100
AcDbEllipse
 10
782.0663434951872
 20
-1005.688272841255
 30
0.0
 11
-0.0799999999999968
 21
0.3919183588452225
 31
0.0
210
-0.0000000000000001
220
0.0
230
0.9999999999999998
 40
0.4082482904638628
 41
2.677945044527026
 42
3.141592653590309
  0
ELLIPSE
  5
2B5
330
A
100
AcDbEntity
  8
0
  6
Continuous
 62
     7
370
     0
100
AcDbEllipse
 10
4359.77510749485
 20
-275.391529501033
 30
0.0
 11
-0.08000000000008
 21
0.3919183588453057
 31
0.0
210
0.0
220
0.0
230
1.0
 40
0.4082482904638628
 41
3.141592653588678
 42
3.978531324583581
  0
ELLIPSE
  5
2B6
330
A
100
AcDbEntity
  8
0
  6
Continuous
 62
     7
370
     0
100
AcDbEllipse
 10
781.3832702591152
 20
-1003.304804021041
 30
0.0
 11
0.1600000000000212
 21
-0.7838367176906669
 31
0.0
210
-0.0000000000000001
220
0.0
230
1.0
 40
0.4082482904638631
 41
0.0000000000002719
 42
0.8446296141819416
  0
LINE
  5
2B7
330
A
100
AcDbEntity
  8
0
  6
Continuous
 62
     9
370
     0
100
AcDbLine
 10
781.3832702590931
 20
-1004.035100764363
 30
0.0
 11
781.6694869602493
 21
-1003.976677024888
 31
0.0
  0
LINE
  5
2B8
330
A
100
AcDbEntity
  8
0
  6
Continuous
 62
     9
370
     0
100
AcDbLine
 10
780.8331592201128
 20
-1003.585936981834
 30
0.0
 11
781.7852356914507
 21
-1003.391595185927
 31
0.0
  0
ELLIPSE
  5
2B9
330
A
100
AcDbEntity
  8
0
  6
Continuous
 62
     7
370
     0
100
AcDbEllipse
 10
780.8331592201022
 20
-1003.951085353495
 30
0.0
 11
-0.0799999999999968
 21
0.3919183588452225
 31
0.0
210
0.0
220
0.0
230
0.9999999999999998
 40
0.4082482904638633
 41
5.819537698116711
 42
6.283185307180157
  0
LINE
  5
2BA
330
A
100
AcDbEntity
  8
0
  6
Continuous
 62
     7
370
     0
100
AcDbLine
 10
784.6693766583879
 20
-967.6592973039968
 30
0.0
 11
784.6712516230768
 21
-967.6608002551345
 31
0.0
  0
LINE
  5
2BB
330
A
100
AcDbEntity
  8
0
  6
Continuous
 62
     7
370
     0
100
AcDbLine
 10
782.8227073790933
 20
-954.8929506353672
 30
0.0
 11
781.0253786018098
 21
-955.2598288357311
 31
0.0
  0
LINE
  5
2BC
330
A
100
AcDbEntity
  8
0
  6
Continuous
 62
     7
370
     0
100
AcDbLine
 10
780.9131592222601
 20
-934.234516353468
 30
0.0
 11
781.5909300985643
 21
-934.0961669526793
 31
0.0
  0
LINE
  5
2BD
330
A
100
AcDbEntity
  8
0
  6
Continuous
 62
     7
370
     0
100
AcDbLine
 10
4357.952598170277
 20
-201.3160303848707
 30
0.0
 11
780.2438341706142
 21
-931.6127737250921
 31
0.0
  0
LINE
  5
2BE
330
A
100
AcDbEntity
  8
0
  6
Continuous
 62
     7
370
     0
100
AcDbLine
 10
782.3358489525452
 20
-953.3568342375376
 30
0.0
 11
782.255796902563
 21
-953.3731747938142
 31
0.0
  0
LINE
  5
2BF
330
A
100
AcDbEntity
  8
0
  6
Continuous
 62
     7
370
     0
100
AcDbLine
 10
783.8718212733144
 20
-966.8190929474464
 30
0.0
 11
782.4508928301518
 21
-967.1091387513428
 31
0.0
  0
LINE
  5
2C0
330
A
100
AcDbEntity
  8
0
  6
Continuous
 62
     7
370
     0
100
AcDbLine
 10
783.7948928301504
 20
-973.6933671799416
 30
0.0
 11
783.9681553756262
 21
-973.6580001109457
 31
0.0
  0
LINE
  5
2C1
330
A
100
AcDbEntity
  8
0
  6
Continuous
 62
     7
370
     0
100
AcDbLine
 10
782.5199502586286
 20
-968.8197391960681
 30
0.0
 11
783.010926614787
 21
-968.7195190670381
 31
0.0
  0
LINE
  5
2C2
330
A
100
AcDbEntity
  8
0
  6
Continuous
 62
     7
370
     0
100
AcDbLine
 10
783.8533766449947
 20
-970.399382484905
 30
0.0
 11
782.1999502585208
 21
-970.7368867327479
 31
0.0
  0
LINE
  5
2C3
330
A
100
AcDbEntity
  8
0
  6
Continuous
 62
     7
370
     0
100
AcDbLine
 10
784.084053153827
 20
-981.1529230040902
 30
0.0
 11
782.0053572882097
 21
-981.5772350208566
 31
0.0
  0
LINE
  5
2C4
330
A
100
AcDbEntity
  8
0
  6
Continuous
 62
     7
370
     0
100
AcDbLine
 10
782.1463434951876
 20
-1006.0801912001
 30
0.0
 11
4359.85510749485
 21
-275.7834478598784
 31
0.0
  0
LINE
  5
2C5
330
A
100
AcDbEntity
  8
0
  6
Continuous
 62
     7
370
     0
100
AcDbLine
 10
781.7917117690313
 20
-1003.347173343321
 30
0.0
 11
780.7531592201017
 21
-1003.55916699465
 31
0.0
  0
LINE
  5
2C8
330
A
100
AcDbEntity
  8
0
  6
Continuous
 62
     9
370
     0
100
AcDbLine
 10
126.185814695451
 20
1.086336792311811
 30
0.0
 11
5126.18581469545
 21
1.086336792311811
 31
0.0
  0
LINE
  5
2C9
330
A
100
AcDbEntity
  8
0
  6
Continuous
 62
     9
370
     0
100
AcDbLine
 10
126.185814695451
 20
100.2847335854243
 30
0.0
 11
5126.18581469545
 21
100.2847335854243
 31
0.0
  0
LINE
  5
2CA
330
A
100
AcDbEntity
  8
0
  6
Continuous
 62
     7
370
     0
100
AcDbLine
 10
126.185814695451
 20
100.2847335854367
 30
0.0
 11
126.185814695451
 21
1.086336792286473
 31
0.0
  0
LINE
  5
2CB
330
A
100
AcDbEntity
  8
0
  6
Continuous
 62
     7
370
     0
100
AcDbLine
 10
5126.18581469545
 20
100.2847335854367
 30
0.0
 11
5126.18581469545
 21
1.086336792286473
 31
0.0
  0
LINE
  5
2CC
330
A
100
AcDbEntity
  8
0
  6
Continuous
 62
     7
370
     0
100
AcDbLine
 10
126.185814695451
 20
100.7198037257358
 30
0.0
 11
5126.18581469545
 21
100.7198037257358
 31
0.0
  0
LINE
  5
2CD
330
A
100
AcDbEntity
  8
0
  6
Continuous
 62
     7
370
     0
100
AcDbLine
 10
126.185814695451
 20
100.7198037257359
 30
0.0
 11
126.185814695451
 21
100.2847335854243
 31
0.0
  0
LINE
  5
2CE
330
A
100
AcDbEntity
  8
0
  6
Continuous
 62
     7
370
     0
100
AcDbLine
 10
5126.18581469545
 20
100.7198037257359
 30
0.0
 11
5126.18581469545
 21
100.2847335854243
 31
0.0
  0
LINE
  5
2CF
330
A
100
AcDbEntity
  8
0
  6
Continuous
 62
     7
370
     0
100
AcDbLine
 10
126.185814695451
 20
0.7198037262099888
 30
0.0
 11
5126.18581469545
 21
0.7198037262099888
 31
0.0
  0
LINE
  5
2D0
330
A
100
AcDbEntity
  8
0
  6
Continuous
 62
     7
370
     0
100
AcDbLine
 10
126.185814695451
 20
1.086336792311769
 30
0.0
 11
126.185814695451
 21
0.7198037262097899
 31
0.0
  0
LINE
  5
2D1
330
A
100
AcDbEntity
  8
0
  6
Continuous
 62
     7
370
     0
100
AcDbLine
 10
5126.18581469545
 20
1.086336792311769
 30
0.0
 11
5126.18581469545
 21
0.7198037262097899
 31
0.0
  0
LINE
  5
2E4
330
A
100
AcDbEntity
  8
0
  6
Continuous
 62
     7
370
     0
100
AcDbLine
 10
6.283371749752291
 20
74.49016358457916
 30
0.0
 11
6.286944406907636
 21
75.84015885720785
 31
0.0
  0
LINE
  5
2E5
330
A
100
AcDbEntity
  8
0
  6
Continuous
 62
     7
370
     0
100
AcDbLine
 10
4.583377702738388
 20
74.49466248618219
 30
0.0
 11
6.283371749752291
 21
74.49016358457916
 31
0.0
  0
LINE
  5
2E6
330
A
100
AcDbEntity
  8
0
  6
Continuous
 62
     7
370
     0
100
AcDbLine
 10
4.567499226492429
 20
68.49468349672136
 30
0.0
 11
4.583377702738388
 21
74.49466248618219
 31
0.0
  0
ARC
  5
2E7
330
A
100
AcDbEntity
  8
0
  6
Continuous
 62
     7
370
     0
100
AcDbCircle
 10
5.567495724735906
 20
68.4920370840137
 30
0.0
 40
0.9999999999999953
100
AcDbArc
 50
179.8483715440133
 51
269.8483715440133
  0
LINE
  5
2E8
330
A
100
AcDbEntity
  8
0
  6
Continuous
 62
     7
370
     0
100
AcDbLine
 10
11.36482900184039
 20
67.47669139206582
 30
0.0
 11
5.564849312028258
 21
67.49204058577024
 31
0.0
  0
LINE
  5
2E9
330
A
100
AcDbEntity
  8
0
  6
Continuous
 62
     7
370
     0
100
AcDbLine
 10
11.36801799598342
 20
68.68171242553017
 30
0.0
 11
11.36482900184039
 21
67.47669139206582
 31
0.0
  0
ARC
  5
2EA
330
A
100
AcDbEntity
  8
0
  6
Continuous
 62
     7
370
     0
100
AcDbCircle
 10
11.86299100953296
 20
68.6804025180702
 30
0.0
 40
0.4949747468306047
100
AcDbArc
 50
44.84837154401316
 51
179.8483715440133
  0
LINE
  5
2EB
330
A
100
AcDbEntity
  8
0
  6
Continuous
 62
     7
370
     0
100
AcDbLine
 10
14.06402562328546
 20
67.16954712828209
 30
0.0
 11
12.21391602836586
 21
69.02947504800772
 31
0.0
  0
LINE
  5
2EC
330
A
100
AcDbEntity
  8
0
  6
Continuous
 62
     7
370
     0
100
AcDbLine
 10
14.0613792105778
 20
66.16955063003863
 30
0.0
 11
14.06402562328546
 21
67.16954712828209
 31
0.0
  0
LINE
  5
2ED
330
A
100
AcDbEntity
  8
0
  6
Continuous
 62
     7
370
     0
100
AcDbLine
 10
5.5614089755083
 20
66.19204513805371
 30
0.0
 11
14.0613792105778
 21
66.16955063003863
 31
0.0
  0
ARC
  5
2EE
330
A
100
AcDbEntity
  8
0
  6
Continuous
 62
     7
370
     0
100
AcDbCircle
 10
5.558762562800623
 20
65.19204863981025
 30
0.0
 40
0.9999999999999953
100
AcDbArc
 50
89.84837154401249
 51
179.8483715440124
  0
LINE
  5
2EF
330
A
100
AcDbEntity
  8
0
  6
Continuous
 62
     7
370
     0
100
AcDbLine
 10
4.545534001018864
 20
60.19471256130052
 30
0.0
 11
4.558766064557161
 21
65.19469505251788
 31
0.0
  0
LINE
  5
2F0
330
A
100
AcDbEntity
  8
0
  6
Continuous
 62
     7
370
     0
100
AcDbLine
 10
6.245528048032781
 20
60.19021365969752
 30
0.0
 11
4.545534001018864
 21
60.19471256130052
 31
0.0
  0
LINE
  5
2F1
330
A
100
AcDbEntity
  8
0
  6
Continuous
 62
     7
370
     0
100
AcDbLine
 10
6.245395727397394
 20
60.14021383478535
 30
0.0
 11
6.245528048032781
 21
60.19021365969752
 31
0.0
  0
ARC
  5
2F2
330
A
100
AcDbEntity
  8
0
  6
Continuous
 62
     7
370
     0
100
AcDbCircle
 10
0.2454167379365657
 20
60.1560923110313
 30
0.0
 40
5.999999999999991
100
AcDbArc
 50
332.8516702115239
 51
359.8483715440125
  0
LINE
  5
2F3
330
A
100
AcDbEntity
  8
0
  6
Continuous
 62
     9
370
     0
100
AcDbLine
 10
5.584386114808438
 20
57.41831839910876
 30
0.0
 11
2.038202571948005
 21
57.4277030971632
 31
0.0
  0
LINE
  5
2F4
330
A
100
AcDbEntity
  8
0
  6
Continuous
 62
     9
370
     0
100
AcDbLine
 10
5.640350519972301
 20
78.56551476351987
 30
0.0
 11
5.396532348677922
 21
78.56616000928622
 31
0.0
  0
LINE
  5
2F5
330
A
100
AcDbEntity
  8
0
  6
Continuous
 62
     9
370
     0
100
AcDbLine
 10
5.396532348677922
 20
78.56616000928622
 30
0.0
 11
2.094166977111854
 21
78.57489946157432
 31
0.0
  0
ARC
  5
2F6
330
A
100
AcDbEntity
  8
0
  6
Continuous
 62
     7
370
     0
100
AcDbCircle
 10
0.2869654174468081
 20
75.85603733345383
 30
0.0
 40
5.999999999999986
100
AcDbArc
 50
359.8483715440125
 51
10.95971010748222
  0
ARC
  5
2F7
330
A
100
AcDbEntity
  8
0
  6
Continuous
 62
     7
370
     0
100
AcDbCircle
 10
0.2869654174468081
 20
75.85603733345383
 30
0.0
 40
5.999999999999993
100
AcDbArc
 50
10.95971010748222
 51
26.84507287650179
  0
LINE
  5
2F8
330
A
100
AcDbEntity
  8
0
  6
Continuous
 62
     7
370
     0
100
AcDbLine
 10
2.094166977111854
 20
78.57489946157432
 30
0.0
 11
2.038202571948005
 21
57.4277030971632
 31
0.0
  0
ARC
  5
2F9
330
A
100
AcDbEntity
  8
0
  6
Continuous
 62
     7
370
     0
100
AcDbCircle
 10
0.2454167379365515
 20
60.15609231103133
 30
0.0
 40
5.99999999999829
100
AcDbArc
 50
287.3059746677343
 51
332.8516702115235
  0
LINE
  5
2FA
330
A
100
AcDbEntity
  8
0
  6
Continuous
 62
     7
370
     0
100
AcDbLine
 10
2.038202571948005
 20
57.4277030971632
 30
0.0
 11
2.030263333825033
 21
54.42771360243452
 31
0.0
  0
LINE
  5
2FB
330
A
100
AcDbEntity
  8
0
  6
Continuous
 62
     7
370
     0
100
AcDbLine
 10
2.099563119840112
 20
80.61393283557476
 30
0.0
 11
2.094166977111854
 21
78.57489946157477
 31
0.0
  0
ARC
  5
2FC
330
A
100
AcDbEntity
  8
0
  6
Continuous
 62
     7
370
     0
100
AcDbCircle
 10
11.7980524104382
 20
68.72855476503514
 30
0.0
 40
0.4949747468305718
100
AcDbArc
 50
48.75867858271356
 51
83.38985887452023
  0
LINE
  5
2FD
330
A
100
AcDbEntity
  8
0
  6
Continuous
 62
     7
370
     0
100
AcDbLine
 10
6.180589448933957
 20
60.23836590666514
 30
0.0
 11
5.826615565716537
 21
60.23930267092834
 31
0.0
  0
LINE
  5
2FE
330
A
100
AcDbEntity
  8
0
  6
Continuous
 62
     7
370
     0
100
AcDbLine
 10
6.180462473459371
 20
60.19038585066389
 30
0.0
 11
6.180589448933957
 21
60.23836590666514
 31
0.0
  0
LINE
  5
2FF
330
A
100
AcDbEntity
  8
0
  6
Continuous
 62
     7
370
     0
100
AcDbLine
 10
6.199576421738811
 20
60.2038983985274
 30
0.0
 11
6.180498561603926
 21
60.20402243050662
 31
0.0
  0
LINE
  5
300
330
A
100
AcDbEntity
  8
0
  6
Continuous
 62
     7
370
     0
100
AcDbLine
 10
6.199488244496663
 20
60.19033550044531
 30
0.0
 11
6.199576421738811
 21
60.2038983985274
 31
0.0
  0
LINE
  5
301
330
A
100
AcDbEntity
  8
0
  6
Continuous
 62
     7
370
     0
100
AcDbLine
 10
6.203928277637899
 20
60.20130307056422
 30
0.0
 11
6.199559756005044
 21
60.20133497464468
 31
0.0
  0
LINE
  5
302
330
A
100
AcDbEntity
  8
0
  6
Continuous
 62
     7
370
     0
100
AcDbLine
 10
6.203848095283646
 20
60.19032396244037
 30
0.0
 11
6.203928277637899
 21
60.20130307056422
 31
0.0
  0
ARC
  5
303
330
A
100
AcDbEntity
  8
0
  6
Continuous
 62
     7
370
     0
100
AcDbCircle
 10
0.3436504289174707
 20
60.10635045042917
 30
0.0
 40
5.999999999999965
100
AcDbArc
 50
287.0809553744479
 51
332.6266509182373
  0
LINE
  5
304
330
A
100
AcDbEntity
  8
0
  6
Continuous
 62
     7
370
     0
100
AcDbLine
 10
2.106822314309809
 20
54.4982098516088
 30
0.0
 11
2.105986098497638
 21
54.37100625956102
 31
0.0
  0
LINE
  5
305
330
A
100
AcDbEntity
  8
0
  6
Continuous
 62
     7
370
     0
100
AcDbLine
 10
6.437853324661688
 20
74.41659821437454
 30
0.0
 11
6.446727814260015
 21
75.76656904496101
 31
0.0
  0
LINE
  5
306
330
A
100
AcDbEntity
  8
0
  6
Continuous
 62
     7
370
     0
100
AcDbLine
 10
4.737890056515738
 20
74.42777349757242
 30
0.0
 11
6.437853324661688
 21
74.41659821437454
 31
0.0
  0
LINE
  5
307
330
A
100
AcDbEntity
  8
0
  6
Continuous
 62
     7
370
     0
100
AcDbLine
 10
4.698447880523232
 20
68.42790313941026
 30
0.0
 11
4.737890056515738
 21
74.42777349757242
 31
0.0
  0
ARC
  5
308
330
A
100
AcDbEntity
  8
0
  6
Continuous
 62
     7
370
     0
100
AcDbCircle
 10
5.698426273550268
 20
68.42132944341148
 30
0.0
 40
1.000000000000005
100
AcDbArc
 50
179.6233522507262
 51
221.2624234105229
  0
ARC
  5
309
330
A
100
AcDbEntity
  8
0
  6
Continuous
 62
     7
370
     0
100
AcDbCircle
 10
11.99461277871803
 20
68.58496901630033
 30
0.0
 40
0.4949747468305856
100
AcDbArc
 50
44.62335225072609
 51
63.5065132920184
  0
LINE
  5
30A
330
A
100
AcDbEntity
  8
0
  6
Continuous
 62
     7
370
     0
100
AcDbLine
 10
14.18969680948163
 20
67.06548111648695
 30
0.0
 11
12.34690600987706
 21
68.93266066026024
 31
0.0
  0
LINE
  5
30B
330
A
100
AcDbEntity
  8
0
  6
Continuous
 62
     7
370
     0
100
AcDbLine
 10
14.18312311348288
 20
66.06550272345995
 30
0.0
 11
14.18969680948163
 21
67.06548111648695
 31
0.0
  0
LINE
  5
30C
330
A
100
AcDbEntity
  8
0
  6
Continuous
 62
     7
370
     0
100
AcDbLine
 10
5.683306772753127
 20
66.12137913944934
 30
0.0
 11
14.18312311348288
 21
66.06550272345995
 31
0.0
  0
ARC
  5
30D
330
A
100
AcDbEntity
  8
0
  6
Continuous
 62
     7
370
     0
100
AcDbCircle
 10
5.676733076754373
 20
65.12140074642229
 30
0.0
 40
0.9999999999999985
100
AcDbArc
 50
89.62335225072706
 51
179.6233522507271
  0
LINE
  5
30E
330
A
100
AcDbEntity
  8
0
  6
Continuous
 62
     7
370
     0
100
AcDbLine
 10
4.645950157505353
 20
60.44204728131138
 30
0.0
 11
4.676754683727352
 21
65.12797444242107
 31
0.0
  0
LINE
  5
30F
330
A
100
AcDbEntity
  8
0
  6
Continuous
 62
     7
370
     0
100
AcDbLine
 10
6.343849471879536
 20
60.11690719408804
 30
0.0
 11
6.245292976865201
 21
60.117555088524
 31
0.0
  0
LINE
  5
310
330
A
100
AcDbEntity
  8
0
  6
Continuous
 62
     7
370
     0
100
AcDbLine
 10
6.343520787079597
 20
60.06690827443669
 30
0.0
 11
6.343849471879536
 21
60.11690719408804
 31
0.0
  0
ARC
  5
311
330
A
100
AcDbEntity
  8
0
  6
Continuous
 62
     7
370
     0
100
AcDbCircle
 10
0.343650428917428
 20
60.10635045042921
 30
0.0
 40
6.000000000000015
100
AcDbArc
 50
332.6266509182373
 51
359.6233522507262
  0
LINE
  5
312
330
A
100
AcDbEntity
  8
0
  6
Continuous
 62
     9
370
     0
100
AcDbLine
 10
5.671826524708905
 20
57.34762982444397
 30
0.0
 11
5.547413578042579
 21
57.34844769500537
 31
0.0
  0
ARC
  5
313
330
A
100
AcDbEntity
  8
0
  6
Continuous
 62
     7
370
     0
100
AcDbCircle
 10
0.4468574560978454
 20
75.80601122095353
 30
0.0
 40
5.999999999999992
100
AcDbArc
 50
359.6233522507262
 51
4.715363787517527
  0
ARC
  5
314
330
A
100
AcDbEntity
  8
0
  6
Continuous
 62
     7
370
     0
100
AcDbCircle
 10
11.77605380767228
 20
68.71919967711761
 30
0.0
 40
0.4949747468305734
100
AcDbArc
 50
60.43185246407886
 51
79.05700951901604
  0
LINE
  5
315
330
A
100
AcDbEntity
  8
0
  6
Continuous
 62
     7
370
     0
100
AcDbLine
 10
6.170799622772577
 20
60.22094559187249
 30
0.0
 11
5.82609369303995
 21
60.22136238024384
 31
0.0
  0
LINE
  5
316
330
A
100
AcDbEntity
  8
0
  6
Continuous
 62
     7
370
     0
100
AcDbLine
 10
6.17076270363411
 20
60.19041152034787
 30
0.0
 11
6.170799622772577
 21
60.22094559187249
 31
0.0
  0
LINE
  5
317
330
A
100
AcDbEntity
  8
0
  6
Continuous
 62
     7
370
     0
100
AcDbLine
 10
1.964238396029543
 20
54.79700472051075
 30
0.0
 11
1.964180383760165
 21
54.74902551901306
 31
0.0
  0
ARC
  5
318
330
A
100
AcDbEntity
  8
0
  6
Continuous
 62
     7
370
     0
100
AcDbCircle
 10
5.15097729828507
 20
68.74073983102807
 30
0.0
 40
0.9999999999999852
100
AcDbArc
 50
254.1948396078165
 51
269.8483715394276
  0
LINE
  5
319
330
A
100
AcDbEntity
  8
0
  6
Continuous
 62
     7
370
     0
100
AcDbLine
 10
10.94831057530747
 20
67.72539413861593
 30
0.0
 11
5.148330885497372
 21
67.74074333278452
 31
0.0
  0
LINE
  5
31A
330
A
100
AcDbEntity
  8
0
  6
Continuous
 62
     7
370
     0
100
AcDbLine
 10
10.95149956954694
 20
68.93041517208039
 30
0.0
 11
10.94831057530747
 21
67.72539413861593
 31
0.0
  0
ARC
  5
31B
330
A
100
AcDbEntity
  8
0
  6
Continuous
 62
     7
370
     0
100
AcDbCircle
 10
11.44647258309631
 20
68.92910526458081
 30
0.0
 40
0.4949747468305817
100
AcDbArc
 50
44.84837153943887
 51
179.8483715394268
  0
LINE
  5
31C
330
A
100
AcDbEntity
  8
0
  6
Continuous
 62
     7
370
     0
100
AcDbLine
 10
11.90111833344478
 20
69.17390662865833
 30
0.0
 11
11.79739760195707
 21
69.27817779449035
 31
0.0
  0
LINE
  5
31D
330
A
100
AcDbEntity
  8
0
  6
Continuous
 62
     7
370
     0
100
AcDbLine
 10
5.829009620917432
 20
60.43891640665527
 30
0.0
 11
4.546189251737473
 21
60.4423112907726
 31
0.0
  0
LINE
  5
31E
330
A
100
AcDbEntity
  8
0
  6
Continuous
 62
     7
370
     0
100
AcDbLine
 10
5.828877300278051
 20
60.38891658174307
 30
0.0
 11
5.829009620917432
 21
60.43891640665527
 31
0.0
  0
ARC
  5
31F
330
A
100
AcDbEntity
  8
0
  6
Continuous
 62
     7
370
     0
100
AcDbCircle
 10
-0.1711016891806736
 20
60.40479505846921
 30
0.0
 40
5.999999999999999
100
AcDbArc
 50
358.2480739723714
 51
359.8483715394276
  0
LINE
  5
320
330
A
100
AcDbEntity
  8
0
  6
Continuous
 62
     9
370
     0
100
AcDbLine
 10
2.038857822667139
 20
57.67530182683455
 30
0.0
 11
1.827040403797298
 21
57.67586238512345
 31
0.0
  0
LINE
  5
321
330
A
100
AcDbEntity
  8
0
  6
Continuous
 62
     9
370
     0
100
AcDbLine
 10
2.094822227856028
 20
78.82249819125167
 30
0.0
 11
1.863713318244364
 21
78.82310980296714
 31
0.0
  0
LINE
  5
322
330
A
100
AcDbEntity
  8
0
  6
Continuous
 62
     7
370
     0
100
AcDbLine
 10
1.660455855789592
 20
72.3270210427722
 30
0.0
 11
1.640073186896245
 21
64.62504891921799
 31
0.0
  0
ARC
  5
323
330
A
100
AcDbEntity
  8
0
  6
Continuous
 62
     7
370
     0
100
AcDbCircle
 10
249.6194947959917
 20
67.81980374108076
 30
0.0
 40
247.9999999999999
100
AcDbArc
 50
177.1629028825498
 51
183.027411159632
  0
ARC
  5
324
330
A
100
AcDbEntity
  8
0
  6
Continuous
 62
     7
370
     0
100
AcDbCircle
 10
249.6194947959917
 20
67.81980374108076
 30
0.0
 40
247.9999999999999
100
AcDbArc
 50
188.4041015744415
 51
195.0412366785492
  0
ARC
  5
325
330
A
100
AcDbEntity
  8
0
  6
Continuous
 62
     7
370
     0
100
AcDbCircle
 10
11.08188770219453
 20
3.719803726112203
 30
0.0
 40
1.0
100
AcDbArc
 50
195.0412366785492
 51
270.0000000036021
  0
ARC
  5
326
330
A
100
AcDbEntity
  8
0
  6
Continuous
 62
     7
370
     0
100
AcDbCircle
 10
249.6194947959917
 20
67.81980374108076
 30
0.0
 40
250.0
100
AcDbArc
 50
172.5385138860183
 51
195.4818952636745
  0
ARC
  5
327
330
A
100
AcDbEntity
  8
0
  6
Continuous
 62
     7
370
     0
100
AcDbCircle
 10
2.232166905169549
 20
100.2198037255193
 30
0.0
 40
0.5000000000000005
100
AcDbArc
 50
90.00000000360047
 51
172.5385138860076
  0
LINE
  5
328
330
A
100
AcDbEntity
  8
0
  6
Continuous
 62
     7
370
     0
100
AcDbLine
 10
3.811459937546217
 20
100.7198037256184
 30
0.0
 11
2.232166905138129
 21
100.7198037255191
 31
0.0
  0
LINE
  5
329
330
A
100
AcDbEntity
  8
0
  6
Continuous
 62
     7
370
     0
100
AcDbLine
 10
13.81949479401328
 20
100.7198037262474
 30
0.0
 11
3.811459937546217
 21
100.7198037256184
 31
0.0
  0
ARC
  5
32A
330
A
100
AcDbEntity
  8
0
  6
Continuous
 62
     7
370
     0
100
AcDbCircle
 10
13.81949479407615
 20
99.71980372624782
 30
0.0
 40
1.0
100
AcDbArc
 50
0.0000000036021181
 51
90.00000000360293
  0
ARC
  5
32B
330
A
100
AcDbEntity
  8
0
  6
Continuous
 62
     7
370
     0
100
AcDbCircle
 10
249.6194947959917
 20
67.81980374108076
 30
0.0
 40
247.9999999999999
100
AcDbArc
 50
173.0471431840883
 51
176.2612656412304
  0
LINE
  5
32C
330
A
100
AcDbEntity
  8
0
  6
Continuous
 62
     7
370
     0
100
AcDbLine
 10
6.919494795844968
 20
71.61980372582485
 30
0.0
 11
6.919494795750679
 21
73.11980372582422
 31
0.0
  0
LINE
  5
32D
330
A
100
AcDbEntity
  8
0
  6
Continuous
 62
     7
370
     0
100
AcDbLine
 10
13.11949480026747
 20
1.219803726241224
 30
0.0
 11
13.1194948002046
 21
2.219803726240854
 31
0.0
  0
ARC
  5
32E
330
A
100
AcDbEntity
  8
0
  6
Continuous
 62
     7
370
     0
100
AcDbCircle
 10
12.61949480026763
 20
1.219803726209789
 30
0.0
 40
0.5000000000000005
100
AcDbArc
 50
270.0000000036005
 51
0.0000000036021181
  0
LINE
  5
32F
330
A
100
AcDbEntity
  8
0
  6
Continuous
 62
     7
370
     0
100
AcDbLine
 10
9.17263996539097
 20
0.7198037259933443
 30
0.0
 11
12.61949480029905
 21
0.7198037262099888
 31
0.0
  0
ARC
  5
330
330
A
100
AcDbEntity
  8
0
  6
Continuous
 62
     7
370
     0
100
AcDbCircle
 10
9.17263996535955
 20
1.219803725993145
 30
0.0
 40
0.5000000000000043
100
AcDbArc
 50
195.4818952636753
 51
270.0000000036005
  0
ARC
  5
331
330
A
100
AcDbEntity
  8
0
  6
Continuous
 62
     7
370
     0
100
AcDbCircle
 10
2.922242848970881
 20
80.04542772277844
 30
0.0
 40
0.999999999999998
100
AcDbArc
 50
46.80371844480859
 51
177.162902882549
  0
ARC
  5
332
330
A
100
AcDbEntity
  8
0
  6
Continuous
 62
     7
370
     0
100
AcDbCircle
 10
2.64623328564258
 20
83.95851802984219
 30
0.0
 40
0.4999999999999698
100
AcDbArc
 50
176.2612656412296
 51
240.1230413481
  0
ARC
  5
333
330
A
100
AcDbEntity
  8
0
  6
Continuous
 62
     7
370
     0
100
AcDbCircle
 10
4.435910514996422
 20
97.71980372565881
 30
0.0
 40
1.0
100
AcDbArc
 50
90.00000000360213
 51
173.0471431840891
  0
ARC
  5
334
330
A
100
AcDbEntity
  8
0
  6
Continuous
 62
     7
370
     0
100
AcDbCircle
 10
8.419494795812966
 20
72.11980372591887
 30
0.0
 40
0.5000000000000143
100
AcDbArc
 50
270.0000000035997
 51
0.0000000036004897
  0
LINE
  5
335
330
A
100
AcDbEntity
  8
0
  6
Continuous
 62
     7
370
     0
100
AcDbLine
 10
8.919494795781346
 20
72.61980372595011
 30
0.0
 11
8.919494795812795
 21
72.11980372595033
 31
0.0
  0
ARC
  5
336
330
A
100
AcDbEntity
  8
0
  6
Continuous
 62
     7
370
     0
100
AcDbCircle
 10
8.419494795781545
 20
72.61980372591867
 30
0.0
 40
0.5000000000000005
100
AcDbArc
 50
0.0000000035996755
 51
90.00000000359397
  0
ARC
  5
337
330
A
100
AcDbEntity
  8
0
  6
Continuous
 62
     7
370
     0
100
AcDbCircle
 10
-3.580505204245241
 20
73.11980372516427
 30
0.0
 40
12.00000000000001
100
AcDbArc
 50
0.0000000036013039
 51
60.12304134810189
  0
ARC
  5
338
330
A
100
AcDbEntity
  8
0
  6
Continuous
 62
     7
370
     0
100
AcDbCircle
 10
-3.580505204245241
 20
73.11980372516427
 30
0.0
 40
10.49999999999999
100
AcDbArc
 50
0.0000000036013039
 51
21.66831730135389
  0
ARC
  5
339
330
A
100
AcDbEntity
  8
0
  6
Continuous
 62
     7
370
     0
100
AcDbCircle
 10
-3.580505204245241
 20
73.11980372516427
 30
0.0
 40
10.5
100
AcDbArc
 50
21.66831730135389
 51
46.80371844480919
  0
LINE
  5
33A
330
A
100
AcDbEntity
  8
0
  6
Continuous
 62
     7
370
     0
100
AcDbLine
 10
14.8194947941386
 20
98.71980372631107
 30
0.0
 11
14.81949479407576
 21
99.71980372631069
 31
0.0
  0
ARC
  5
33B
330
A
100
AcDbEntity
  8
0
  6
Continuous
 62
     7
370
     0
100
AcDbCircle
 10
13.81949479413899
 20
98.71980372624822
 30
0.0
 40
1.0
100
AcDbArc
 50
270.0000000036021
 51
0.0000000036013039
  0
LINE
  5
33C
330
A
100
AcDbEntity
  8
0
  6
Continuous
 62
     7
370
     0
100
AcDbLine
 10
12.61949479420229
 20
97.71980372617315
 30
0.0
 11
13.81949479420186
 21
97.71980372624859
 31
0.0
  0
ARC
  5
33D
330
A
100
AcDbEntity
  8
0
  6
Continuous
 62
     7
370
     0
100
AcDbCircle
 10
12.61949479417085
 20
98.21980372617298
 30
0.0
 40
0.5000000000000005
100
AcDbArc
 50
180.0000000036005
 51
270.0000000036038
  0
LINE
  5
33E
330
A
100
AcDbEntity
  8
0
  6
Continuous
 62
     7
370
     0
100
AcDbLine
 10
12.11949479413962
 20
98.71980372614135
 30
0.0
 11
12.11949479417103
 21
98.21980372614158
 31
0.0
  0
LINE
  5
33F
330
A
100
AcDbEntity
  8
0
  6
Continuous
 62
     7
370
     0
100
AcDbLine
 10
4.435910514933553
 20
98.71980372565841
 30
0.0
 11
12.11949479413962
 21
98.71980372614135
 31
0.0
  0
ARC
  5
340
330
A
100
AcDbEntity
  8
0
  6
Continuous
 62
     7
370
     0
100
AcDbCircle
 10
2.964212401065253
 20
54.77481747689523
 30
0.0
 40
1.000000000000016
100
AcDbArc
 50
183.027411159636
 51
308.7567867066081
  0
ARC
  5
341
330
A
100
AcDbEntity
  8
0
  6
Continuous
 62
     7
370
     0
100
AcDbCircle
 10
6.21949479715883
 20
50.71980372578875
 30
0.0
 40
4.199999999999985
100
AcDbArc
 50
48.20995686788427
 51
128.7567867066085
  0
ARC
  5
342
330
A
100
AcDbEntity
  8
0
  6
Continuous
 62
     7
370
     0
100
AcDbCircle
 10
8.351984113225682
 20
53.10569754506338
 30
0.0
 40
0.9999999999999911
100
AcDbArc
 50
300.000000003602
 51
48.20995686788427
  0
ARC
  5
343
330
A
100
AcDbEntity
  8
0
  6
Continuous
 62
     7
370
     0
100
AcDbCircle
 10
8.351984113225682
 20
53.10569754506338
 30
0.0
 40
1.000000000000018
100
AcDbArc
 50
228.2099568678848
 51
300.0000000036028
  0
ARC
  5
344
330
A
100
AcDbEntity
  8
0
  6
Continuous
 62
     7
370
     0
100
AcDbCircle
 10
6.21949479715883
 20
50.71980372578875
 30
0.0
 40
2.200000000000007
100
AcDbArc
 50
48.20995686788427
 51
311.7900431393181
  0
ARC
  5
345
330
A
100
AcDbEntity
  8
0
  6
Continuous
 62
     7
370
     0
100
AcDbCircle
 10
8.351984113525602
 20
48.33390990678217
 30
0.0
 40
0.9999999999999925
100
AcDbArc
 50
60.00000000360177
 51
131.7900431393175
  0
ARC
  5
346
330
A
100
AcDbEntity
  8
0
  6
Continuous
 62
     7
370
     0
100
AcDbCircle
 10
8.351984113525602
 20
48.33390990678217
 30
0.0
 40
1.000000000000004
100
AcDbArc
 50
311.7900431393186
 51
60.00000000360177
  0
ARC
  5
347
330
A
100
AcDbEntity
  8
0
  6
Continuous
 62
     7
370
     0
100
AcDbCircle
 10
6.21949479715883
 20
50.71980372578875
 30
0.0
 40
4.200000000000029
100
AcDbArc
 50
239.280605640095
 51
311.7900431393181
  0
ARC
  5
348
330
A
100
AcDbEntity
  8
0
  6
Continuous
 62
     7
370
     0
100
AcDbCircle
 10
3.563158284577369
 20
46.24947081515379
 30
0.0
 40
0.9999999999999992
100
AcDbArc
 50
59.28060564009506
 51
185.0099811870633
  0
ARC
  5
349
330
A
100
AcDbEntity
  8
0
  6
Continuous
 62
     7
370
     0
100
AcDbCircle
 10
249.6194947959917
 20
67.81980374108076
 30
0.0
 40
248.0
100
AcDbArc
 50
185.0099811870707
 51
187.5842439348595
  0
ARC
  5
34A
330
A
100
AcDbEntity
  8
0
  6
Continuous
 62
     7
370
     0
100
AcDbCircle
 10
4.780282252430453
 20
35.21980372570417
 30
0.0
 40
1.0
100
AcDbArc
 50
187.5842439348603
 51
270.0000000036005
  0
LINE
  5
34B
330
A
100
AcDbEntity
  8
0
  6
Continuous
 62
     7
370
     0
100
AcDbLine
 10
9.119494798194793
 20
34.21980372597727
 30
0.0
 11
4.780282252493293
 21
34.21980372570454
 31
0.0
  0
ARC
  5
34C
330
A
100
AcDbEntity
  8
0
  6
Continuous
 62
     7
370
     0
100
AcDbCircle
 10
9.119494798226213
 20
33.71980372597747
 30
0.0
 40
0.5000000000000005
100
AcDbArc
 50
0.0000000036004897
 51
90.00000000359968
  0
LINE
  5
34D
330
A
100
AcDbEntity
  8
0
  6
Continuous
 62
     7
370
     0
100
AcDbLine
 10
9.619494798257463
 20
33.21980372600908
 30
0.0
 11
9.619494798226014
 21
33.71980372600891
 31
0.0
  0
ARC
  5
34E
330
A
100
AcDbEntity
  8
0
  6
Continuous
 62
     7
370
     0
100
AcDbCircle
 10
9.119494798257662
 20
33.21980372597764
 30
0.0
 40
0.5000000000000005
100
AcDbArc
 50
270.0000000036005
 51
0.0000000036013039
  0
LINE
  5
34F
330
A
100
AcDbEntity
  8
0
  6
Continuous
 62
     7
370
     0
100
AcDbLine
 10
5.271812181900671
 20
32.719803725736
 30
0.0
 11
9.119494798289082
 21
32.71980372597784
 31
0.0
  0
ARC
  5
350
330
A
100
AcDbEntity
  8
0
  6
Continuous
 62
     7
370
     0
100
AcDbCircle
 10
5.271812181963511
 20
31.7198037257364
 30
0.0
 40
1.000000000000008
100
AcDbArc
 50
90.00000000360129
 51
188.4041015744399
  0
ARC
  5
351
330
A
100
AcDbEntity
  8
0
  6
Continuous
 62
     7
370
     0
100
AcDbCircle
 10
12.61949480020476
 20
2.21980372620942
 30
0.0
 40
0.5000000000000005
100
AcDbArc
 50
0.0000000036021181
 51
90.00000000360047
  0
LINE
  5
352
330
A
100
AcDbEntity
  8
0
  6
Continuous
 62
     7
370
     0
100
AcDbLine
 10
12.61949480017334
 20
2.719803726209221
 30
0.0
 11
11.0818877022574
 21
2.719803726112587
 31
0.0
  0
LINE
  5
353
330
A
100
AcDbEntity
  8
0
  6
Continuous
 62
     7
370
     0
100
AcDbLine
 10
6.919494795844968
 20
71.61980372582485
 30
0.0
 11
8.419494795844386
 21
71.61980372591907
 31
0.0
  0
TEXT
  5
366
330
A
100
AcDbEntity
  8
0
  6
Continuous
 62
     7
370
     0
100
AcDbText
 10
1144.571815468534
 20
-315.0142710305793
 30
0.0
 40
120.0
  1
BS45
100
AcDbText
  0
ENDSEC
  0
SECTION
  2
OBJECTS
  0
DICTIONARY
  5
19
330
0
100
AcDbDictionary
281
     1
  3
ACAD_COLOR
350
20B
  3
ACAD_GROUP
350
1A
  3
ACAD_LAYOUT
350
1E
  3
ACAD_MATERIAL
350
1E1
  3
ACAD_MLEADERSTYLE
350
230
  3
ACAD_MLINESTYLE
350
1B
  3
ACAD_PLOTSETTINGS
350
22
  3
ACAD_PLOTSTYLENAME
350
1F
  3
ACAD_SCALELIST
350
20E
  3
ACAD_TABLESTYLE
350
20C
  3
ACAD_VISUALSTYLE
350
1FA
  3
ACAD_WIPEOUT_VARS
350
23
  3
ACDB_RECOMPOSE_DATA
350
385
  3
AcDbVariableDictionary
350
386
  3
ASE_INDEX_DICTIONARY
350
368
  3
DWGPROPS
350
395
  0
DICTIONARY
  5
36A
330
14
100
AcDbDictionary
280
     1
281
     1
  3
ADSK_XREC_LAYER_RECONCILED
360
36B
  0
DICTIONARY
  5
2C6
330
A
100
AcDbDictionary
280
     1
281
     1
  3
ACAD_SORTENTS
360
2C7
  0
DICTIONARY
  5
20B
102
{ACAD_REACTORS
330
19
102
}
330
19
100
AcDbDictionary
281
     1
  0
DICTIONARY
  5
1A
102
{ACAD_REACTORS
330
19
102
}
330
19
100
AcDbDictionary
281
     1
  0
DICTIONARY
  5
1E
102
{ACAD_REACTORS
330
19
102
}
330
19
100
AcDbDictionary
281
     1
  3
Layout1
350
21
  3
Model
350
20
  0
DICTIONARY
  5
1E1
102
{ACAD_REACTORS
330
19
102
}
330
19
100
AcDbDictionary
281
     1
  3
ByBlock
350
1EA
  3
ByLayer
350
1E2
  3
Global
350
1F2
  0
DICTIONARY
  5
230
102
{ACAD_REACTORS
330
19
102
}
330
19
100
AcDbDictionary
281
     1
  3
Standard
350
231
  0
DICTIONARY
  5
1B
102
{ACAD_REACTORS
330
19
102
}
330
19
100
AcDbDictionary
281
     1
  3
Standard
350
1C
  0
DICTIONARY
  5
22
102
{ACAD_REACTORS
330
19
102
}
330
19
100
AcDbDictionary
281
     1
  0
ACDBDICTIONARYWDFLT
  5
1F
102
{ACAD_REACTORS
330
19
102
}
330
19
100
AcDbDictionary
281
     1
  3
Normal
350
1D
100
AcDbDictionaryWithDefault
340
1D
  0
DICTIONARY
  5
20E
102
{ACAD_REACTORS
330
19
102
}
330
19
100
AcDbDictionary
281
     1
  3
A0
350
20F
  3
A1
350
210
  3
A2
350
211
  3
A3
350
212
  3
A4
350
213
  3
A5
350
214
  3
A6
350
215
  3
A7
350
216
  3
A8
350
217
  3
A9
350
218
  3
B0
350
219
  3
B1
350
21A
  3
B2
350
21B
  3
B3
350
21C
  3
B4
350
21D
  3
B5
350
21E
  3
B6
350
21F
  3
B7
350
220
  3
B8
350
221
  3
B9
350
222
  3
C0
350
223
  3
C1
350
224
  3
C2
350
225
  3
C3
350
226
  3
C4
350
227
  3
C5
350
228
  3
C6
350
229
  3
C7
350
22A
  3
C8
350
22B
  3
C9
350
22C
  3
D0
350
22D
  3
D1
350
22E
  3
D2
350
22F
  0
DICTIONARY
  5
20C
102
{ACAD_REACTORS
330
19
102
}
330
19
100
AcDbDictionary
281
     1
  3
Standard
350
20D
  0
DICTIONARY
  5
1FA
102
{ACAD_REACTORS
330
19
102
}
330
19
100
AcDbDictionary
281
     1
  3
2dWireframe
350
200
  3
3D Hidden
350
202
  3
3dWireframe
350
201
  3
Basic
350
1FF
  3
Brighten
350
206
  3
ColorChange
350
20A
  3
Conceptual
350
203
  3
Dim
350
205
  3
Facepattern
350
209
  3
Flat
350
1FB
  3
FlatWithEdges
350
1FC
  3
Gouraud
350
1FD
  3
GouraudWithEdges
350
1FE
  3
Linepattern
350
208
  3
Realistic
350
204
  3
Thicken
350
207
  0
WIPEOUTVARIABLES
  5
23
330
19
100
AcDbWipeoutVariables
 70
     1
  0
XRECORD
  5
385
102
{ACAD_REACTORS
330
19
102
}
330
19
100
AcDbXrecord
280
     1
 90
        1
330
20D
  0
DICTIONARY
  5
386
102
{ACAD_REACTORS
330
19
102
}
330
19
100
AcDbDictionary
281
     1
  3
CANNOSCALE
350
38A
  3
CMLEADERSTYLE
350
388
  3
CTABLESTYLE
350
387
  3
DIMASSOC
350
393
  3
INDEXCTL
350
392
  3
LIGHTINGUNITS
350
38B
  3
MSLTSCALE
350
389
  3
SORTENTS
350
391
  0
DICTIONARY
  5
368
102
{ACAD_REACTORS
330
19
102
}
330
19
100
AcDbDictionary
281
     1
  3
ASEBlockHierarchyIndexRecord
350
369
1001
DCO15
1040
1701688074.404
  0
XRECORD
  5
395
102
{ACAD_REACTORS
330
19
102
}
330
19
100
AcDbXrecord
280
     1
  1
DWGPROPS COOKIE
  2

  3

  4

  6

  7

  8
renzo.ceresoli
  9

300
=
301
=
302
=
303
=
304
=
305
=
306
=
307
=
308
=
309
=
 40
0.0023069328703704
 41
2455498.742083334
 42
2455498.697446007
  1

 90
        0
  0
XRECORD
  5
36B
102
{ACAD_REACTORS
330
36A
102
}
330
36A
100
AcDbXrecord
280
     1
290
     1
  0
SORTENTSTABLE
  5
2C7
102
{ACAD_REACTORS
330
2C6
102
}
330
2C6
100
AcDbSortentsTable
330
A
331
2EC
  5
24A
331
323
  5
281
331
26E
  5
2FC
331
2A5
  5
333
331
32B
  5
289
331
276
  5
304
331
2AD
  5
33B
331
2F4
  5
252
331
2FC
  5
25A
331
333
  5
291
331
27E
  5
30C
331
2B5
  5
343
331
304
  5
262
331
33B
  5
299
331
286
  5
314
331
2BD
  5
34B
331
247
  5
2CD
331
30C
  5
26A
331
343
  5
2A1
331
24F
  5
2D5
331
28E
  5
31C
331
2C5
  5
353
331
34B
  5
2A9
331
2CD
  5
2C2
331
314
  5
272
331
257
  5
2E5
331
296
  5
324
331
31C
  5
27A
331
29E
  5
32C
331
353
  5
2B1
331
25F
  5
2ED
331
2E5
  5
23D
331
267
  5
2F5
331
2ED
  5
24B
331
324
  5
282
331
26F
  5
2FD
331
2A6
  5
334
331
2F5
  5
253
331
32C
  5
28A
331
277
  5
305
331
2AE
  5
33C
331
2FD
  5
25B
331
334
  5
292
331
27F
  5
30D
331
2B6
  5
344
331
33C
  5
29A
331
287
  5
315
331
2BE
  5
34C
331
305
  5
263
331
248
  5
2CE
331
30D
  5
26B
331
28F
  5
31D
331
344
  5
2A2
331
250
  5
2D6
331
315
  5
273
331
258
  5
2E6
331
297
  5
325
331
2CE
  5
2C3
331
34C
  5
2AA
331
31D
  5
27B
331
260
  5
2EE
331
29F
  5
32D
331
2E6
  5
244
331
268
  5
2F6
331
2EE
  5
24C
331
325
  5
283
331
270
  5
2FE
331
2A7
  5
335
331
2F6
  5
254
331
32D
  5
28B
331
278
  5
306
331
2AF
  5
33D
331
2FE
  5
25C
331
335
  5
293
331
280
  5
30E
331
2B7
  5
345
331
306
  5
264
331
33D
  5
29B
331
2BF
  5
34D
331
288
  5
316
331
249
  5
2CF
331
30E
  5
26C
331
251
  5
2DB
331
290
  5
31E
331
345
  5
2A3
331
34D
  5
2AB
331
298
  5
326
331
2CF
  5
2C4
331
259
  5
2E7
331
316
  5
274
331
31E
  5
27C
331
261
  5
2EF
331
2E7
  5
245
331
269
  5
2F7
331
2A0
  5
32E
331
2EF
  5
24D
331
326
  5
284
331
271
  5
2FF
331
2A8
  5
336
331
2F7
  5
255
331
32E
  5
28C
331
279
  5
307
331
2B0
  5
33E
331
2FF
  5
25D
331
336
  5
294
331
281
  5
30F
331
2B8
  5
346
331
307
  5
265
331
33E
  5
29C
331
289
  5
317
331
2C0
  5
34E
331
24A
  5
2D0
331
30F
  5
26D
331
346
  5
2A4
331
291
  5
31F
331
2C8
  5
2BD
331
252
  5
2DC
331
317
  5
275
331
34E
  5
2AC
331
25A
  5
2E8
331
299
  5
327
331
2D0
  5
2C5
331
262
  5
2F0
331
31F
  5
27D
331
2E8
  5
246
331
26A
  5
2F8
331
2A1
  5
32F
331
2A9
  5
337
331
2F0
  5
24E
331
272
  5
300
331
327
  5
285
331
2F8
  5
256
331
32F
  5
28D
331
27A
  5
308
331
2B1
  5
33F
331
300
  5
25E
331
337
  5
295
331
282
  5
310
331
2B9
  5
347
331
33F
  5
29D
331
308
  5
266
331
28A
  5
318
331
2C1
  5
34F
331
24B
  5
2D1
331
310
  5
26E
331
347
  5
2A5
331
253
  5
2DD
331
292
  5
320
331
2C9
  5
2BE
331
318
  5
276
331
34F
  5
2AD
331
29A
  5
328
331
2D1
  5
2C8
331
25B
  5
2E9
331
263
  5
2F1
331
87
  5
87
331
2E9
  5
247
331
320
  5
27E
331
26B
  5
2F9
331
2A2
  5
330
331
2F1
  5
24F
331
328
  5
286
331
273
  5
301
331
2AA
  5
338
331
2F9
  5
257
331
330
  5
28E
331
27B
  5
309
331
2B2
  5
340
331
2BA
  5
348
331
301
  5
25F
331
244
  5
2CA
331
283
  5
311
331
338
  5
296
331
309
  5
267
331
340
  5
29E
331
28B
  5
319
331
2C2
  5
350
331
24C
  5
2D2
331
311
  5
26F
331
293
  5
321
331
2CA
  5
2BF
331
254
  5
2DE
331
348
  5
2A6
331
319
  5
277
331
25C
  5
2EA
331
29B
  5
329
331
350
  5
2AE
331
264
  5
2F2
331
2EA
  5
248
331
321
  5
27F
331
26C
  5
2FA
331
2A3
  5
331
331
329
  5
287
331
2AB
  5
339
331
2F2
  5
250
331
274
  5
302
331
2FA
  5
258
331
331
  5
28F
331
27C
  5
30A
331
2B3
  5
341
331
23D
  5
2C9
331
302
  5
260
331
339
  5
297
331
284
  5
312
331
2BB
  5
349
331
245
  5
2CB
331
30A
  5
268
331
341
  5
29F
331
28C
  5
31A
331
2C3
  5
351
331
24D
  5
2D3
331
349
  5
2A7
331
2CB
  5
2C0
331
312
  5
270
331
255
  5
2E3
331
294
  5
322
331
31A
  5
278
331
29C
  5
32A
331
351
  5
2AF
331
25D
  5
2EB
331
265
  5
2F3
331
2EB
  5
249
331
322
  5
280
331
26D
  5
2FB
331
2A4
  5
332
331
2F3
  5
251
331
32A
  5
288
331
275
  5
303
331
2AC
  5
33A
331
2FB
  5
259
331
332
  5
290
331
27D
  5
30B
331
2B4
  5
342
331
33A
  5
298
331
2BC
  5
34A
331
303
  5
261
331
246
  5
2CC
331
285
  5
313
331
30B
  5
269
331
342
  5
2A0
331
28D
  5
31B
331
2C4
  5
352
331
24E
  5
2D4
331
313
  5
271
331
295
  5
323
331
2CC
  5
2C1
331
256
  5
2E4
331
34A
  5
2A8
331
31B
  5
279
331
25E
  5
2EC
331
29D
  5
32B
331
352
  5
2B0
331
2E4
  5
13E
331
266
  5
2F4
  0
LAYOUT
  5
21
102
{ACAD_XDICTIONARY
360
398
102
}
102
{ACAD_REACTORS
330
1E
102
}
330
1E
100
AcDbPlotSettings
  1

  2

  4

  6

 40
0.0
 41
0.0
 42
0.0
 43
0.0
 44
0.0
 45
0.0
 46
0.0
 47
0.0
 48
0.0
 49
0.0
140
0.0
141
0.0
142
1.0
143
1.0
 70
     0
 72
     0
 73
     0
 74
     0
  7

 75
     0
147
1.0
148
0.0
149
0.0
100
AcDbLayout
  1
Layout1
 70
     0
 71
     1
 10
0.0
 20
0.0
 11
12.0
 21
9.0
 12
0.0
 22
0.0
 32
0.0
 14
1.000000000000000E+20
 24
1.000000000000000E+20
 34
1.000000000000000E+20
 15
-1.000000000000000E+20
 25
-1.000000000000000E+20
 35
-1.000000000000000E+20
146
0.0
 13
0.0
 23
0.0
 33
0.0
 16
1.0
 26
0.0
 36
0.0
 17
0.0
 27
1.0
 37
0.0
 76
     0
330
B
  0
LAYOUT
  5
20
102
{ACAD_XDICTIONARY
360
396
102
}
102
{ACAD_REACTORS
330
1E
102
}
330
1E
100
AcDbPlotSettings
  1

  2

  4

  6

 40
0.0
 41
0.0
 42
0.0
 43
0.0
 44
0.0
 45
0.0
 46
0.0
 47
0.0
 48
0.0
 49
0.0
140
0.0
141
0.0
142
1.0
143
1.0
 70
  1024
 72
     0
 73
     0
 74
     0
  7

 75
     0
147
1.0
148
0.0
149
0.0
100
AcDbLayout
  1
Model
 70
     0
 71
     0
 10
0.0
 20
0.0
 11
0.0
 21
0.0
 12
0.0
 22
0.0
 32
0.0
 14
0.0
 24
0.0
 34
0.0
 15
0.0
 25
0.0
 35
0.0
146
0.0
 13
0.0
 23
0.0
 33
0.0
 16
0.0
 26
0.0
 36
0.0
 17
0.0
 27
0.0
 37
0.0
 76
     0
330
A
331
15
  0
MATERIAL
  5
1EA
102
{ACAD_XDICTIONARY
360
1EB
102
}
102
{ACAD_REACTORS
330
1E1
102
}
330
1E1
100
AcDbMaterial
  1
ByBlock
 72
     0
 43
0.0208333333333333
 43
0.0
 43
0.0
 43
0.0
 43
0.0
 43
0.0208333333333333
 43
0.0
 43
0.0
 43
0.0
 43
0.0
 43
1.0
 43
0.0
 43
0.0
 43
0.0
 43
0.0
 43
1.0
 77
     0
 47
0.0208333333333333
 47
0.0
 47
0.0
 47
0.0
 47
0.0
 47
0.0208333333333333
 47
0.0
 47
0.0
 47
0.0
 47
0.0
 47
1.0
 47
0.0
 47
0.0
 47
0.0
 47
0.0
 47
1.0
171
     0
 49
0.0208333333333333
 49
0.0
 49
0.0
 49
0.0
 49
0.0
 49
0.0208333333333333
 49
0.0
 49
0.0
 49
0.0
 49
0.0
 49
1.0
 49
0.0
 49
0.0
 49
0.0
 49
0.0
 49
1.0
175
     0
142
0.0208333333333333
142
0.0
142
0.0
142
0.0
142
0.0
142
0.0208333333333333
142
0.0
142
0.0
142
0.0
142
0.0
142
1.0
142
0.0
142
0.0
142
0.0
142
0.0
142
1.0
179
     0
144
0.0208333333333333
144
0.0
144
0.0
144
0.0
144
0.0
144
0.0208333333333333
144
0.0
144
0.0
144
0.0
144
0.0
144
1.0
144
0.0
144
0.0
144
0.0
144
0.0
144
1.0
147
0.0208333333333333
147
0.0
147
0.0
147
0.0
147
0.0
147
0.0208333333333333
147
0.0
147
0.0
147
0.0
147
0.0
147
1.0
147
0.0
147
0.0
147
0.0
147
0.0
147
1.0
  0
MATERIAL
  5
1E2
102
{ACAD_XDICTIONARY
360
1E3
102
}
102
{ACAD_REACTORS
330
1E1
102
}
330
1E1
100
AcDbMaterial
  1
ByLayer
 72
     0
 43
0.0208333333333333
 43
0.0
 43
0.0
 43
0.0
 43
0.0
 43
0.0208333333333333
 43
0.0
 43
0.0
 43
0.0
 43
0.0
 43
1.0
 43
0.0
 43
0.0
 43
0.0
 43
0.0
 43
1.0
 77
     0
 47
0.0208333333333333
 47
0.0
 47
0.0
 47
0.0
 47
0.0
 47
0.0208333333333333
 47
0.0
 47
0.0
 47
0.0
 47
0.0
 47
1.0
 47
0.0
 47
0.0
 47
0.0
 47
0.0
 47
1.0
171
     0
 49
0.0208333333333333
 49
0.0
 49
0.0
 49
0.0
 49
0.0
 49
0.0208333333333333
 49
0.0
 49
0.0
 49
0.0
 49
0.0
 49
1.0
 49
0.0
 49
0.0
 49
0.0
 49
0.0
 49
1.0
175
     0
142
0.0208333333333333
142
0.0
142
0.0
142
0.0
142
0.0
142
0.0208333333333333
142
0.0
142
0.0
142
0.0
142
0.0
142
1.0
142
0.0
142
0.0
142
0.0
142
0.0
142
1.0
179
     0
144
0.0208333333333333
144
0.0
144
0.0
144
0.0
144
0.0
144
0.0208333333333333
144
0.0
144
0.0
144
0.0
144
0.0
144
1.0
144
0.0
144
0.0
144
0.0
144
0.0
144
1.0
147
0.0208333333333333
147
0.0
147
0.0
147
0.0
147
0.0
147
0.0208333333333333
147
0.0
147
0.0
147
0.0
147
0.0
147
1.0
147
0.0
147
0.0
147
0.0
147
0.0
147
1.0
  0
MATERIAL
  5
1F2
102
{ACAD_XDICTIONARY
360
1F3
102
}
102
{ACAD_REACTORS
330
1E1
102
}
330
1E1
100
AcDbMaterial
  1
Global
 72
     0
 43
0.0208333333333333
 43
0.0
 43
0.0
 43
0.0
 43
0.0
 43
0.0208333333333333
 43
0.0
 43
0.0
 43
0.0
 43
0.0
 43
1.0
 43
0.0
 43
0.0
 43
0.0
 43
0.0
 43
1.0
 77
     0
 47
0.0208333333333333
 47
0.0
 47
0.0
 47
0.0
 47
0.0
 47
0.0208333333333333
 47
0.0
 47
0.0
 47
0.0
 47
0.0
 47
1.0
 47
0.0
 47
0.0
 47
0.0
 47
0.0
 47
1.0
171
     0
 49
0.0208333333333333
 49
0.0
 49
0.0
 49
0.0
 49
0.0
 49
0.0208333333333333
 49
0.0
 49
0.0
 49
0.0
 49
0.0
 49
1.0
 49
0.0
 49
0.0
 49
0.0
 49
0.0
 49
1.0
175
     0
142
0.0208333333333333
142
0.0
142
0.0
142
0.0
142
0.0
142
0.0208333333333333
142
0.0
142
0.0
142
0.0
142
0.0
142
1.0
142
0.0
142
0.0
142
0.0
142
0.0
142
1.0
179
     0
144
0.0208333333333333
144
0.0
144
0.0
144
0.0
144
0.0
144
0.0208333333333333
144
0.0
144
0.0
144
0.0
144
0.0
144
1.0
144
0.0
144
0.0
144
0.0
144
0.0
144
1.0
147
0.0208333333333333
147
0.0
147
0.0
147
0.0
147
0.0
147
0.0208333333333333
147
0.0
147
0.0
147
0.0
147
0.0
147
1.0
147
0.0
147
0.0
147
0.0
147
0.0
147
1.0
  0
MLEADERSTYLE
  5
231
102
{ACAD_REACTORS
330
230
102
}
330
230
100
AcDbMLeaderStyle
170
     2
171
     1
172
     0
 90
        2
 40
0.0
 41
0.0
173
     1
 91
-1056964608
340
11
 92
       -2
290
     1
 42
2.0
291
     1
 43
0.36
  3
Standard
 44
4.0
300

342
17
174
     1
178
     6
175
     1
176
     0
 93
-1056964608
 45
4.0
292
     0
297
     0
 46
4.0
 94
-1056964608
 47
1.0
 49
1.0
140
1.0
293
     1
141
0.0
294
     1
177
     0
142
1.0
295
     0
296
     0
143
0.125
1001
ACAD_MLEADERVER
1070
     2
  0
MLINESTYLE
  5
1C
102
{ACAD_REACTORS
330
1B
102
}
330
1B
100
AcDbMlineStyle
  2
STANDARD
 70
     0
  3

 62
     0
 51
90.0
 52
90.0
 71
     2
 49
0.5
 62
   256
  6
BYLAYER
 49
-0.5
 62
   256
  6
BYLAYER
  0
ACDBPLACEHOLDER
  5
1D
102
{ACAD_REACTORS
330
1F
102
}
330
1F
  0
SCALE
  5
20F
102
{ACAD_REACTORS
330
20E
102
}
330
20E
100
AcDbScale
 70
     0
300
1:1
140
1.0
141
1.0
290
     1
  0
SCALE
  5
210
102
{ACAD_REACTORS
330
20E
102
}
330
20E
100
AcDbScale
 70
     0
300
1:2
140
1.0
141
2.0
290
     0
  0
SCALE
  5
211
102
{ACAD_REACTORS
330
20E
102
}
330
20E
100
AcDbScale
 70
     0
300
1:4
140
1.0
141
4.0
290
     0
  0
SCALE
  5
212
102
{ACAD_REACTORS
330
20E
102
}
330
20E
100
AcDbScale
 70
     0
300
1:5
140
1.0
141
5.0
290
     0
  0
SCALE
  5
213
102
{ACAD_REACTORS
330
20E
102
}
330
20E
100
AcDbScale
 70
     0
300
1:8
140
1.0
141
8.0
290
     0
  0
SCALE
  5
214
102
{ACAD_REACTORS
330
20E
102
}
330
20E
100
AcDbScale
 70
     0
300
1:10
140
1.0
141
10.0
290
     0
  0
SCALE
  5
215
102
{ACAD_REACTORS
330
20E
102
}
330
20E
100
AcDbScale
 70
     0
300
1:16
140
1.0
141
16.0
290
     0
  0
SCALE
  5
216
102
{ACAD_REACTORS
330
20E
102
}
330
20E
100
AcDbScale
 70
     0
300
1:20
140
1.0
141
20.0
290
     0
  0
SCALE
  5
217
102
{ACAD_REACTORS
330
20E
102
}
330
20E
100
AcDbScale
 70
     0
300
1:30
140
1.0
141
30.0
290
     0
  0
SCALE
  5
218
102
{ACAD_REACTORS
330
20E
102
}
330
20E
100
AcDbScale
 70
     0
300
1:40
140
1.0
141
40.0
290
     0
  0
SCALE
  5
219
102
{ACAD_REACTORS
330
20E
102
}
330
20E
100
AcDbScale
 70
     0
300
1:50
140
1.0
141
50.0
290
     0
  0
SCALE
  5
21A
102
{ACAD_REACTORS
330
20E
102
}
330
20E
100
AcDbScale
 70
     0
300
1:100
140
1.0
141
100.0
290
     0
  0
SCALE
  5
21B
102
{ACAD_REACTORS
330
20E
102
}
330
20E
100
AcDbScale
 70
     0
300
2:1
140
2.0
141
1.0
290
     0
  0
SCALE
  5
21C
102
{ACAD_REACTORS
330
20E
102
}
330
20E
100
AcDbScale
 70
     0
300
4:1
140
4.0
141
1.0
290
     0
  0
SCALE
  5
21D
102
{ACAD_REACTORS
330
20E
102
}
330
20E
100
AcDbScale
 70
     0
300
8:1
140
8.0
141
1.0
290
     0
  0
SCALE
  5
21E
102
{ACAD_REACTORS
330
20E
102
}
330
20E
100
AcDbScale
 70
     0
300
10:1
140
10.0
141
1.0
290
     0
  0
SCALE
  5
21F
102
{ACAD_REACTORS
330
20E
102
}
330
20E
100
AcDbScale
 70
     0
300
100:1
140
100.0
141
1.0
290
     0
  0
SCALE
  5
220
102
{ACAD_REACTORS
330
20E
102
}
330
20E
100
AcDbScale
 70
     0
300
1/128" = 1'-0"
140
0.0078125
141
12.0
290
     0
  0
SCALE
  5
221
102
{ACAD_REACTORS
330
20E
102
}
330
20E
100
AcDbScale
 70
     0
300
1/64" = 1'-0"
140
0.015625
141
12.0
290
     0
  0
SCALE
  5
222
102
{ACAD_REACTORS
330
20E
102
}
330
20E
100
AcDbScale
 70
     0
300
1/32" = 1'-0"
140
0.03125
141
12.0
290
     0
  0
SCALE
  5
223
102
{ACAD_REACTORS
330
20E
102
}
330
20E
100
AcDbScale
 70
     0
300
1/16" = 1'-0"
140
0.0625
141
12.0
290
     0
  0
SCALE
  5
224
102
{ACAD_REACTORS
330
20E
102
}
330
20E
100
AcDbScale
 70
     0
300
3/32" = 1'-0"
140
0.09375
141
12.0
290
     0
  0
SCALE
  5
225
102
{ACAD_REACTORS
330
20E
102
}
330
20E
100
AcDbScale
 70
     0
300
1/8" = 1'-0"
140
0.125
141
12.0
290
     0
  0
SCALE
  5
226
102
{ACAD_REACTORS
330
20E
102
}
330
20E
100
AcDbScale
 70
     0
300
3/16" = 1'-0"
140
0.1875
141
12.0
290
     0
  0
SCALE
  5
227
102
{ACAD_REACTORS
330
20E
102
}
330
20E
100
AcDbScale
 70
     0
300
1/4" = 1'-0"
140
0.25
141
12.0
290
     0
  0
SCALE
  5
228
102
{ACAD_REACTORS
330
20E
102
}
330
20E
100
AcDbScale
 70
     0
300
3/8" = 1'-0"
140
0.375
141
12.0
290
     0
  0
SCALE
  5
229
102
{ACAD_REACTORS
330
20E
102
}
330
20E
100
AcDbScale
 70
     0
300
1/2" = 1'-0"
140
0.5
141
12.0
290
     0
  0
SCALE
  5
22A
102
{ACAD_REACTORS
330
20E
102
}
330
20E
100
AcDbScale
 70
     0
300
3/4" = 1'-0"
140
0.75
141
12.0
290
     0
  0
SCALE
  5
22B
102
{ACAD_REACTORS
330
20E
102
}
330
20E
100
AcDbScale
 70
     0
300
1" = 1'-0"
140
1.0
141
12.0
290
     0
  0
SCALE
  5
22C
102
{ACAD_REACTORS
330
20E
102
}
330
20E
100
AcDbScale
 70
     0
300
1-1/2" = 1'-0"
140
1.5
141
12.0
290
     0
  0
SCALE
  5
22D
102
{ACAD_REACTORS
330
20E
102
}
330
20E
100
AcDbScale
 70
     0
300
3" = 1'-0"
140
3.0
141
12.0
290
     0
  0
SCALE
  5
22E
102
{ACAD_REACTORS
330
20E
102
}
330
20E
100
AcDbScale
 70
     0
300
6" = 1'-0"
140
6.0
141
12.0
290
     0
  0
SCALE
  5
22F
102
{ACAD_REACTORS
330
20E
102
}
330
20E
100
AcDbScale
 70
     0
300
1'-0" = 1'-0"
140
12.0
141
12.0
290
     0
  0
TABLESTYLE
  5
20D
102
{ACAD_XDICTIONARY
360
383
102
}
102
{ACAD_REACTORS
330
20C
102
}
330
20C
100
AcDbTableStyle
  3
Standard
 70
     0
 71
     0
 40
1.5
 41
1.5
280
     0
281
     0
  7
Standard
140
4.5
170
     2
 62
     0
 63
     7
283
     0
274
    -2
284
     1
 64
     0
275
    -2
285
     1
 65
     0
276
    -2
286
     1
 66
     0
277
    -2
287
     1
 67
     0
278
    -2
288
     1
 68
     0
279
    -2
289
     1
 69
     0
  7
Standard
140
6.0
170
     5
 62
     0
 63
     7
283
     0
274
    -2
284
     1
 64
     0
275
    -2
285
     1
 65
     0
276
    -2
286
     1
 66
     0
277
    -2
287
     1
 67
     0
278
    -2
288
     1
 68
     0
279
    -2
289
     1
 69
     0
  7
Standard
140
4.5
170
     5
 62
     0
 63
     7
283
     0
274
    -2
284
     1
 64
     0
275
    -2
285
     1
 65
     0
276
    -2
286
     1
 66
     0
277
    -2
287
     1
 67
     0
278
    -2
288
     1
 68
     0
279
    -2
289
     1
 69
     0
  0
VISUALSTYLE
  5
200
102
{ACAD_REACTORS
330
1FA
102
}
330
1FA
100
AcDbVisualStyle
  2
2dWireframe
 70
     4
 71
     0
 72
     2
 73
     0
 90
        0
 40
-0.6
 41
-30.0
 62
     5
 63
     7
 74
     1
 91
        4
 64
     7
 65
   257
 75
     1
175
     1
 42
1.0
 92
        0
 66
   257
 43
1.0
 76
     1
 77
     6
 78
     2
 67
     7
 79
     5
170
     0
171
     0
290
     0
174
     0
 93
        1
 44
0.0
173
     0
291
     0
 45
0.0
1001
ACAD
1000
AcDbSavedByObjectVersion
1070
     0
  0
VISUALSTYLE
  5
202
102
{ACAD_REACTORS
330
1FA
102
}
330
1FA
100
AcDbVisualStyle
  2
3D Hidden
 70
     6
 71
     1
 72
     2
 73
     2
 90
        0
 40
-0.6
 41
-30.0
 62
     5
 63
     7
 74
     2
 91
        2
 64
     7
 65
   257
 75
     2
175
     1
 42
40.0
 92
        0
 66
   257
 43
1.0
 76
     1
 77
     6
 78
     2
 67
     7
 79
     3
170
     0
171
     0
290
     0
174
     0
 93
        1
 44
0.0
173
     0
291
     0
 45
0.0
1001
ACAD
1000
AcDbSavedByObjectVersion
1070
     0
  0
VISUALSTYLE
  5
201
102
{ACAD_REACTORS
330
1FA
102
}
330
1FA
100
AcDbVisualStyle
  2
3dWireframe
 70
     5
 71
     0
 72
     2
 73
     0
 90
        0
 40
-0.6
 41
-30.0
 62
     5
 63
     7
 74
     1
 91
        4
 64
     7
 65
   257
 75
     1
175
     1
 42
1.0
 92
        0
 66
   257
 43
1.0
 76
     1
 77
     6
 78
     2
 67
     7
 79
     5
170
     0
171
     0
290
     0
174
     0
 93
        1
 44
0.0
173
     0
291
     0
 45
0.0
1001
ACAD
1000
AcDbSavedByObjectVersion
1070
     0
  0
VISUALSTYLE
  5
1FF
102
{ACAD_REACTORS
330
1FA
102
}
330
1FA
100
AcDbVisualStyle
  2
Basic
 70
     7
 71
     1
 72
     0
 73
     1
 90
        0
 40
-0.6
 41
-30.0
 62
     5
 63
     7
 74
     0
 91
        4
 64
     7
 65
   257
 75
     1
175
     1
 42
1.0
 92
        8
 66
     7
 43
1.0
 76
     1
 77
     6
 78
     2
 67
     7
 79
     5
170
     0
171
     0
290
     0
174
     0
 93
        1
 44
0.0
173
     0
291
     1
 45
0.0
1001
ACAD
1000
AcDbSavedByObjectVersion
1070
     0
  0
VISUALSTYLE
  5
206
102
{ACAD_REACTORS
330
1FA
102
}
330
1FA
100
AcDbVisualStyle
  2
Brighten
 70
    12
 71
     2
 72
     2
 73
     0
 90
        0
 40
-0.6
 41
-30.0
 62
     5
 63
     7
 74
     1
 91
        4
 64
     7
 65
   257
 75
     1
175
     1
 42
1.0
 92
        8
 66
     7
 43
1.0
 76
     1
 77
     6
 78
     2
 67
     7
 79
     5
170
     0
171
     0
290
     0
174
     0
 93
        1
 44
50.0
173
     0
291
     1
 45
0.0
1001
ACAD
1000
AcDbSavedByObjectVersion
1070
     0
  0
VISUALSTYLE
  5
20A
102
{ACAD_REACTORS
330
1FA
102
}
330
1FA
100
AcDbVisualStyle
  2
ColorChange
 70
    16
 71
     2
 72
     2
 73
     3
 90
        0
 40
-0.6
 41
-30.0
 62
     5
 63
     8
 74
     1
 91
        4
 64
     7
 65
   257
 75
     1
175
     1
 42
1.0
 92
        8
 66
     8
 43
1.0
 76
     1
 77
     6
 78
     2
 67
     7
 79
     5
170
     0
171
     0
290
     0
174
     0
 93
        1
 44
0.0
173
     0
291
     1
 45
0.0
1001
ACAD
1000
AcDbSavedByObjectVersion
1070
     0
  0
VISUALSTYLE
  5
203
102
{ACAD_REACTORS
330
1FA
102
}
330
1FA
100
AcDbVisualStyle
  2
Conceptual
 70
     9
 71
     3
 72
     2
 73
     0
 90
        0
 40
-0.6
 41
-30.0
 62
     5
 63
     7
 74
     2
 91
        2
 64
     7
 65
   257
 75
     1
175
     1
 42
40.0
 92
        8
 66
     7
 43
1.0
 76
     1
 77
     6
 78
     2
 67
     7
 79
     3
170
     0
171
     0
290
     0
174
     0
 93
        1
 44
0.0
173
     0
291
     0
 45
0.0
1001
ACAD
1000
AcDbSavedByObjectVersion
1070
     0
  0
VISUALSTYLE
  5
205
102
{ACAD_REACTORS
330
1FA
102
}
330
1FA
100
AcDbVisualStyle
  2
Dim
 70
    11
 71
     2
 72
     2
 73
     0
 90
        0
 40
-0.6
 41
-30.0
 62
     5
 63
     7
 74
     1
 91
        4
 64
     7
 65
   257
 75
     1
175
     1
 42
1.0
 92
        8
 66
     7
 43
1.0
 76
     1
 77
     6
 78
     2
 67
     7
 79
     5
170
     0
171
     0
290
     0
174
     0
 93
        1
 44
-50.0
173
     0
291
     1
 45
0.0
1001
ACAD
1000
AcDbSavedByObjectVersion
1070
     0
  0
VISUALSTYLE
  5
209
102
{ACAD_REACTORS
330
1FA
102
}
330
1FA
100
AcDbVisualStyle
  2
Facepattern
 70
    15
 71
     2
 72
     2
 73
     0
 90
        0
 40
-0.6
 41
-30.0
 62
     5
 63
     7
 74
     1
 91
        4
 64
     7
 65
   257
 75
     1
175
     1
 42
1.0
 92
        8
 66
     7
 43
1.0
 76
     1
 77
     6
 78
     2
 67
     7
 79
     5
170
     0
171
     0
290
     0
174
     0
 93
        1
 44
0.0
173
     0
291
     1
 45
0.0
1001
ACAD
1000
AcDbSavedByObjectVersion
1070
     0
  0
VISUALSTYLE
  5
1FB
102
{ACAD_REACTORS
330
1FA
102
}
330
1FA
100
AcDbVisualStyle
  2
Flat
 70
     0
 71
     2
 72
     1
 73
     1
 90
        2
 40
-0.6
 41
30.0
 62
     5
 63
     7
 74
     0
 91
        4
 64
     7
 65
   257
 75
     1
175
     1
 42
1.0
 92
        8
 66
     7
 43
1.0
 76
     1
 77
     6
 78
     2
 67
     7
 79
     5
170
     0
171
     0
290
     0
174
     0
 93
       13
 44
0.0
173
     0
291
     1
 45
0.0
1001
ACAD
1000
AcDbSavedByObjectVersion
1070
     0
  0
VISUALSTYLE
  5
1FC
102
{ACAD_REACTORS
330
1FA
102
}
330
1FA
100
AcDbVisualStyle
  2
FlatWithEdges
 70
     1
 71
     2
 72
     1
 73
     1
 90
        2
 40
-0.6
 41
30.0
 62
     5
 63
     7
 74
     1
 91
        4
 64
     7
 65
   257
 75
     1
175
     1
 42
1.0
 92
        0
 66
   257
 43
1.0
 76
     1
 77
     6
 78
     2
 67
     7
 79
     5
170
     0
171
     0
290
     0
174
     0
 93
       13
 44
0.0
173
     0
291
     1
 45
0.0
1001
ACAD
1000
AcDbSavedByObjectVersion
1070
     0
  0
VISUALSTYLE
  5
1FD
102
{ACAD_REACTORS
330
1FA
102
}
330
1FA
100
AcDbVisualStyle
  2
Gouraud
 70
     2
 71
     2
 72
     2
 73
     1
 90
        2
 40
-0.6
 41
30.0
 62
     5
 63
     7
 74
     0
 91
        4
 64
     7
 65
   257
 75
     1
175
     1
 42
1.0
 92
        0
 66
     7
 43
1.0
 76
     1
 77
     6
 78
     2
 67
     7
 79
     5
170
     0
171
     0
290
     0
174
     0
 93
       13
 44
0.0
173
     0
291
     1
 45
0.0
1001
ACAD
1000
AcDbSavedByObjectVersion
1070
     0
  0
VISUALSTYLE
  5
1FE
102
{ACAD_REACTORS
330
1FA
102
}
330
1FA
100
AcDbVisualStyle
  2
GouraudWithEdges
 70
     3
 71
     2
 72
     2
 73
     1
 90
        2
 40
-0.6
 41
30.0
 62
     5
 63
     7
 74
     1
 91
        4
 64
     7
 65
   257
 75
     1
175
     1
 42
1.0
 92
        0
 66
   257
 43
1.0
 76
     1
 77
     6
 78
     2
 67
     7
 79
     5
170
     0
171
     0
290
     0
174
     0
 93
       13
 44
0.0
173
     0
291
     1
 45
0.0
1001
ACAD
1000
AcDbSavedByObjectVersion
1070
     0
  0
VISUALSTYLE
  5
208
102
{ACAD_REACTORS
330
1FA
102
}
330
1FA
100
AcDbVisualStyle
  2
Linepattern
 70
    14
 71
     2
 72
     2
 73
     0
 90
        0
 40
-0.6
 41
-30.0
 62
     5
 63
     7
 74
     1
 91
        4
 64
     7
 65
   257
 75
     7
175
     7
 42
1.0
 92
        8
 66
     7
 43
1.0
 76
     1
 77
     6
 78
     2
 67
     7
 79
     5
170
     0
171
     0
290
     0
174
     0
 93
        1
 44
0.0
173
     0
291
     1
 45
0.0
1001
ACAD
1000
AcDbSavedByObjectVersion
1070
     0
  0
VISUALSTYLE
  5
204
102
{ACAD_REACTORS
330
1FA
102
}
330
1FA
100
AcDbVisualStyle
  2
Realistic
 70
     8
 71
     2
 72
     2
 73
     0
 90
        0
 40
-0.6
 41
-30.0
 62
     5
 63
     7
 74
     1
 91
        0
 64
     7
 65
   257
 75
     1
175
     1
 42
1.0
 92
        8
 66
     8
 43
1.0
 76
     1
 77
     6
 78
     2
 67
     7
 79
     5
170
     0
171
     0
290
     0
174
     0
 93
       13
 44
0.0
173
     0
291
     0
 45
0.0
1001
ACAD
1000
AcDbSavedByObjectVersion
1070
     0
  0
VISUALSTYLE
  5
207
102
{ACAD_REACTORS
330
1FA
102
}
330
1FA
100
AcDbVisualStyle
  2
Thicken
 70
    13
 71
     2
 72
     2
 73
     0
 90
        0
 40
-0.6
 41
-30.0
 62
     5
 63
     7
 74
     1
 91
        4
 64
     7
 65
   257
 75
     1
175
     1
 42
1.0
 92
       12
 66
     7
 43
1.0
 76
     1
 77
     6
 78
     2
 67
     7
 79
     5
170
     0
171
     0
290
     0
174
     0
 93
        1
 44
0.0
173
     0
291
     1
 45
0.0
1001
ACAD
1000
AcDbSavedByObjectVersion
1070
     0
  0
DICTIONARYVAR
  5
38A
102
{ACAD_REACTORS
330
386
102
}
330
386
100
DictionaryVariables
280
     0
  1
1:1
  0
DICTIONARYVAR
  5
388
102
{ACAD_REACTORS
330
386
102
}
330
386
100
DictionaryVariables
280
     0
  1
STANDARD
  0
DICTIONARYVAR
  5
387
102
{ACAD_REACTORS
330
386
102
}
330
386
100
DictionaryVariables
280
     0
  1
STANDARD
  0
DICTIONARYVAR
  5
393
102
{ACAD_REACTORS
330
386
102
}
330
386
100
DictionaryVariables
280
     0
  1
1
  0
DICTIONARYVAR
  5
392
102
{ACAD_REACTORS
330
386
102
}
330
386
100
DictionaryVariables
280
     0
  1
0
  0
DICTIONARYVAR
  5
38B
102
{ACAD_REACTORS
330
386
102
}
330
386
100
DictionaryVariables
280
     0
  1
0
  0
DICTIONARYVAR
  5
389
102
{ACAD_REACTORS
330
386
102
}
330
386
100
DictionaryVariables
280
     0
  1
0
  0
DICTIONARYVAR
  5
391
102
{ACAD_REACTORS
330
386
102
}
330
386
100
DictionaryVariables
280
     0
  1
127
  0
XRECORD
  5
369
102
{ACAD_REACTORS
330
368
102
}
330
368
100
AcDbXrecord
280
     1
  0
DICTIONARY
  5
398
330
21
100
AcDbDictionary
280
     1
281
     1
  3
ACAD_XREC_ROUNDTRIP
360
399
  0
DICTIONARY
  5
396
330
20
100
AcDbDictionary
280
     1
281
     1
  3
ACAD_XREC_ROUNDTRIP
360
397
  0
DICTIONARY
  5
1EB
330
1EA
100
AcDbDictionary
280
     1
281
     1
  3
ACAD_XREC_ROUNDTRIP
360
39B
  3
BUMPTILE
360
1ED
  3
DIFFUSETILE
360
1EC
  3
OPACITYTILE
360
1F0
  3
REFLECTIONTILE
360
1EF
  3
REFRACTIONTILE
360
1F1
  3
SPECULARTILE
360
1EE
  0
DICTIONARY
  5
1E3
330
1E2
100
AcDbDictionary
280
     1
281
     1
  3
ACAD_XREC_ROUNDTRIP
360
39A
  3
BUMPTILE
360
1E5
  3
DIFFUSETILE
360
1E4
  3
OPACITYTILE
360
1E8
  3
REFLECTIONTILE
360
1E7
  3
REFRACTIONTILE
360
1E9
  3
SPECULARTILE
360
1E6
  0
DICTIONARY
  5
1F3
330
1F2
100
AcDbDictionary
280
     1
281
     1
  3
ACAD_XREC_ROUNDTRIP
360
39C
  3
BUMPTILE
360
1F5
  3
DIFFUSETILE
360
1F4
  3
OPACITYTILE
360
1F8
  3
REFLECTIONTILE
360
1F7
  3
REFRACTIONTILE
360
1F9
  3
SPECULARTILE
360
1F6
  0
DICTIONARY
  5
383
330
20D
100
AcDbDictionary
280
     1
281
     1
  3
ACAD_ROUNDTRIP_2008_TABLESTYLE_CELLSTYLEMAP
360
394
  3
ACAD_XREC_ROUNDTRIP
360
39D
  0
XRECORD
  5
399
102
{ACAD_REACTORS
330
398
102
}
330
398
100
AcDbXrecord
280
     1
102
SHADEPLOT
 70
     0
102
SHADEPLOTRESLEVEL
 70
     2
102
SHADEPLOTCUSTOMDPI
 70
   300
  0
XRECORD
  5
397
102
{ACAD_REACTORS
330
396
102
}
330
396
100
AcDbXrecord
280
     1
102
SHADEPLOT
 70
     0
102
SHADEPLOTRESLEVEL
 70
     2
102
SHADEPLOTCUSTOMDPI
 70
   300
  0
XRECORD
  5
39B
102
{ACAD_REACTORS
330
1EB
102
}
330
1EB
100
AcDbXrecord
280
     1
102
MATERIAL
148
0.0
149
0.0
149
0.0
 93
        0
 94
      127
282
     0
 72
     0
 77
     0
171
     0
175
     0
179
     0
273
     0
  0
XRECORD
  5
1ED
102
{ACAD_REACTORS
330
1EB
102
}
330
1EB
100
AcDbXrecord
280
     1
270
     1
271
     1
  0
XRECORD
  5
1EC
102
{ACAD_REACTORS
330
1EB
102
}
330
1EB
100
AcDbXrecord
280
     1
270
     1
271
     1
  0
XRECORD
  5
1F0
102
{ACAD_REACTORS
330
1EB
102
}
330
1EB
100
AcDbXrecord
280
     1
270
     1
271
     1
  0
XRECORD
  5
1EF
102
{ACAD_REACTORS
330
1EB
102
}
330
1EB
100
AcDbXrecord
280
     1
270
     1
271
     1
  0
XRECORD
  5
1F1
102
{ACAD_REACTORS
330
1EB
102
}
330
1EB
100
AcDbXrecord
280
     1
270
     1
271
     1
  0
XRECORD
  5
1EE
102
{ACAD_REACTORS
330
1EB
102
}
330
1EB
100
AcDbXrecord
280
     1
270
     1
271
     1
  0
XRECORD
  5
39A
102
{ACAD_REACTORS
330
1E3
102
}
330
1E3
100
AcDbXrecord
280
     1
102
MATERIAL
148
0.0
149
0.0
149
0.0
 93
        0
 94
      127
282
     0
 72
     0
 77
     0
171
     0
175
     0
179
     0
273
     0
  0
XRECORD
  5
1E5
102
{ACAD_REACTORS
330
1E3
102
}
330
1E3
100
AcDbXrecord
280
     1
270
     1
271
     1
  0
XRECORD
  5
1E4
102
{ACAD_REACTORS
330
1E3
102
}
330
1E3
100
AcDbXrecord
280
     1
270
     1
271
     1
  0
XRECORD
  5
1E8
102
{ACAD_REACTORS
330
1E3
102
}
330
1E3
100
AcDbXrecord
280
     1
270
     1
271
     1
  0
XRECORD
  5
1E7
102
{ACAD_REACTORS
330
1E3
102
}
330
1E3
100
AcDbXrecord
280
     1
270
     1
271
     1
  0
XRECORD
  5
1E9
102
{ACAD_REACTORS
330
1E3
102
}
330
1E3
100
AcDbXrecord
280
     1
270
     1
271
     1
  0
XRECORD
  5
1E6
102
{ACAD_REACTORS
330
1E3
102
}
330
1E3
100
AcDbXrecord
280
     1
270
     1
271
     1
  0
XRECORD
  5
39C
102
{ACAD_REACTORS
330
1F3
102
}
330
1F3
100
AcDbXrecord
280
     1
102
MATERIAL
148
0.0
149
0.0
149
0.0
 93
        0
 94
      127
282
     0
 72
     0
 77
     0
171
     0
175
     0
179
     0
273
     0
  0
XRECORD
  5
1F5
102
{ACAD_REACTORS
330
1F3
102
}
330
1F3
100
AcDbXrecord
280
     1
270
     1
271
     1
  0
XRECORD
  5
1F4
102
{ACAD_REACTORS
330
1F3
102
}
330
1F3
100
AcDbXrecord
280
     1
270
     1
271
     1
  0
XRECORD
  5
1F8
102
{ACAD_REACTORS
330
1F3
102
}
330
1F3
100
AcDbXrecord
280
     1
270
     1
271
     1
  0
XRECORD
  5
1F7
102
{ACAD_REACTORS
330
1F3
102
}
330
1F3
100
AcDbXrecord
280
     1
270
     1
271
     1
  0
XRECORD
  5
1F9
102
{ACAD_REACTORS
330
1F3
102
}
330
1F3
100
AcDbXrecord
280
     1
270
     1
271
     1
  0
XRECORD
  5
1F6
102
{ACAD_REACTORS
330
1F3
102
}
330
1F3
100
AcDbXrecord
280
     1
270
     1
271
     1
  0
CELLSTYLEMAP
  5
394
102
{ACAD_REACTORS
330
383
102
}
330
383
100
AcDbCellStyleMap
 90
        3
300
CELLSTYLE
  1
TABLEFORMAT_BEGIN
 90
        5
170
     1
 91
        0
 92
    32768
 62
   257
 93
        1
300
CONTENTFORMAT
  1
CONTENTFORMAT_BEGIN
 90
        0
 91
        0
 92
      512
 93
        0
300

 40
0.0
140
1.0
 94
        5
 62
     0
340
17
144
6.0
309
CONTENTFORMAT_END
171
     1
301
MARGIN
  1
CELLMARGIN_BEGIN
 40
1.5
 40
1.5
 40
1.5
 40
1.5
 40
4.5
 40
4.5
309
CELLMARGIN_END
 94
        6
 95
        1
302
GRIDFORMAT
  1
GRIDFORMAT_BEGIN
 90
        0
 91
        1
 62
     0
 92
       -2
340
0
 93
        0
 40
1.125
309
GRIDFORMAT_END
 95
        2
302
GRIDFORMAT
  1
GRIDFORMAT_BEGIN
 90
        0
 91
        1
 62
     0
 92
       -2
340
0
 93
        0
 40
1.125
309
GRIDFORMAT_END
 95
        4
302
GRIDFORMAT
  1
GRIDFORMAT_BEGIN
 90
        0
 91
        1
 62
     0
 92
       -2
340
0
 93
        0
 40
1.125
309
GRIDFORMAT_END
 95
        8
302
GRIDFORMAT
  1
GRIDFORMAT_BEGIN
 90
        0
 91
        1
 62
     0
 92
       -2
340
0
 93
        0
 40
1.125
309
GRIDFORMAT_END
 95
       16
302
GRIDFORMAT
  1
GRIDFORMAT_BEGIN
 90
        0
 91
        1
 62
     0
 92
       -2
340
0
 93
        0
 40
1.125
309
GRIDFORMAT_END
 95
       32
302
GRIDFORMAT
  1
GRIDFORMAT_BEGIN
 90
        0
 91
        1
 62
     0
 92
       -2
340
0
 93
        0
 40
1.125
309
GRIDFORMAT_END
309
TABLEFORMAT_END
  1
CELLSTYLE_BEGIN
 90
        1
 91
        1
300
_TITLE
309
CELLSTYLE_END
300
CELLSTYLE
  1
TABLEFORMAT_BEGIN
 90
        5
170
     1
 91
        0
 92
        0
 62
   257
 93
        1
300
CONTENTFORMAT
  1
CONTENTFORMAT_BEGIN
 90
        0
 91
        0
 92
      512
 93
        0
300

 40
0.0
140
1.0
 94
        5
 62
     0
340
17
144
4.5
309
CONTENTFORMAT_END
171
     1
301
MARGIN
  1
CELLMARGIN_BEGIN
 40
1.5
 40
1.5
 40
1.5
 40
1.5
 40
4.5
 40
4.5
309
CELLMARGIN_END
 94
        6
 95
        1
302
GRIDFORMAT
  1
GRIDFORMAT_BEGIN
 90
        0
 91
        1
 62
     0
 92
       -2
340
0
 93
        0
 40
1.125
309
GRIDFORMAT_END
 95
        2
302
GRIDFORMAT
  1
GRIDFORMAT_BEGIN
 90
        0
 91
        1
 62
     0
 92
       -2
340
0
 93
        0
 40
1.125
309
GRIDFORMAT_END
 95
        4
302
GRIDFORMAT
  1
GRIDFORMAT_BEGIN
 90
        0
 91
        1
 62
     0
 92
       -2
340
0
 93
        0
 40
1.125
309
GRIDFORMAT_END
 95
        8
302
GRIDFORMAT
  1
GRIDFORMAT_BEGIN
 90
        0
 91
        1
 62
     0
 92
       -2
340
0
 93
        0
 40
1.125
309
GRIDFORMAT_END
 95
       16
302
GRIDFORMAT
  1
GRIDFORMAT_BEGIN
 90
        0
 91
        1
 62
     0
 92
       -2
340
0
 93
        0
 40
1.125
309
GRIDFORMAT_END
 95
       32
302
GRIDFORMAT
  1
GRIDFORMAT_BEGIN
 90
        0
 91
        1
 62
     0
 92
       -2
340
0
 93
        0
 40
1.125
309
GRIDFORMAT_END
309
TABLEFORMAT_END
  1
CELLSTYLE_BEGIN
 90
        2
 91
        1
300
_HEADER
309
CELLSTYLE_END
300
CELLSTYLE
  1
TABLEFORMAT_BEGIN
 90
        5
170
     1
 91
        0
 92
        0
 62
   257
 93
        1
300
CONTENTFORMAT
  1
CONTENTFORMAT_BEGIN
 90
        0
 91
        0
 92
      512
 93
        0
300

 40
0.0
140
1.0
 94
        2
 62
     0
340
17
144
4.5
309
CONTENTFORMAT_END
171
     1
301
MARGIN
  1
CELLMARGIN_BEGIN
 40
1.5
 40
1.5
 40
1.5
 40
1.5
 40
4.5
 40
4.5
309
CELLMARGIN_END
 94
        6
 95
        1
302
GRIDFORMAT
  1
GRIDFORMAT_BEGIN
 90
        0
 91
        1
 62
     0
 92
       -2
340
0
 93
        0
 40
1.125
309
GRIDFORMAT_END
 95
        2
302
GRIDFORMAT
  1
GRIDFORMAT_BEGIN
 90
        0
 91
        1
 62
     0
 92
       -2
340
0
 93
        0
 40
1.125
309
GRIDFORMAT_END
 95
        4
302
GRIDFORMAT
  1
GRIDFORMAT_BEGIN
 90
        0
 91
        1
 62
     0
 92
       -2
340
0
 93
        0
 40
1.125
309
GRIDFORMAT_END
 95
        8
302
GRIDFORMAT
  1
GRIDFORMAT_BEGIN
 90
        0
 91
        1
 62
     0
 92
       -2
340
0
 93
        0
 40
1.125
309
GRIDFORMAT_END
 95
       16
302
GRIDFORMAT
  1
GRIDFORMAT_BEGIN
 90
        0
 91
        1
 62
     0
 92
       -2
340
0
 93
        0
 40
1.125
309
GRIDFORMAT_END
 95
       32
302
GRIDFORMAT
  1
GRIDFORMAT_BEGIN
 90
        0
 91
        1
 62
     0
 92
       -2
340
0
 93
        0
 40
1.125
309
GRIDFORMAT_END
309
TABLEFORMAT_END
  1
CELLSTYLE_BEGIN
 90
        3
 91
        2
300
_DATA
309
CELLSTYLE_END
  0
XRECORD
  5
39D
102
{ACAD_REACTORS
330
383
102
}
330
383
100
AcDbXrecord
280
     1
102
ACAD_ROUNDTRIP_PRE2007_TABLESTYLE
 90
      512
 91
        0
  1

 92
      512
 93
        0
  2

 94
      512
 95
        0
  3

  0
ENDSEC
  0
EOF
