  0
SECTION
  2
HEADER
  9
$ACADVER
  1
AC1015
  9
$ACADMAINTVER
 70
    20
  9
$DWGCODEPAGE
  3
ANSI_1252
  9
$INSBASE
 10
0.0
 20
0.0
 30
0.0
  9
$EXTMIN
 10
-91.5238272421684
 20
-137.5859967270353
 30
-0.0000000000000082
  9
$EXTMAX
 10
138.6704142461767
 20
141.2918104543837
 30
0.0000000000000071
  9
$LIMMIN
 10
-656.3500000000002
 20
-384.3499999999999
  9
$LIMMAX
 10
2061.85
 20
268.8500000000001
  9
$ORTHOMODE
 70
     0
  9
$REGENMODE
 70
     1
  9
$FILLMODE
 70
     1
  9
$QTEXTMODE
 70
     0
  9
$MIRRTEXT
 70
     1
  9
$LTSCALE
 40
10.0
  9
$ATTMODE
 70
     1
  9
$TEXTSIZE
 40
0.0
  9
$TRACEWID
 40
0.05
  9
$TEXTSTYLE
  7
Standard
  9
$CLAYER
  8
0
  9
$CELTYPE
  6
Continuous
  9
$CECOLOR
 62
   256
  9
$CELTSCALE
 40
1.0
  9
$DISPSILH
 70
     0
  9
$DIMSCALE
 40
1.0
  9
$DIMASZ
 40
1.25
  9
$DIMEXO
 40
0.0
  9
$DIMDLI
 40
0.38
  9
$DIMRND
 40
0.0
  9
$DIMDLE
 40
0.0
  9
$DIMEXE
 40
0.75
  9
$DIMTP
 40
0.0
  9
$DIMTM
 40
0.0
  9
$DIMTXT
 40
2.5
  9
$DIMCEN
 40
0.09
  9
$DIMTSZ
 40
0.0
  9
$DIMTOL
 70
     0
  9
$DIMLIM
 70
     0
  9
$DIMTIH
 70
     0
  9
$DIMTOH
 70
     0
  9
$DIMSE1
 70
     0
  9
$DIMSE2
 70
     0
  9
$DIMTAD
 70
     1
  9
$DIMZIN
 70
     0
  9
$DIMBLK
  1

  9
$DIMASO
 70
     1
  9
$DIMSHO
 70
     1
  9
$DIMPOST
  1

  9
$DIMAPOST
  1

  9
$DIMALT
 70
     0
  9
$DIMALTD
 70
     2
  9
$DIMALTF
 40
25.4
  9
$DIMLFAC
 40
1.0
  9
$DIMTOFL
 70
     0
  9
$DIMTVP
 40
0.0
  9
$DIMTIX
 70
     0
  9
$DIMSOXD
 70
     0
  9
$DIMSAH
 70
     0
  9
$DIMBLK1
  1

  9
$DIMBLK2
  1

  9
$DIMSTYLE
  2
Standard
  9
$DIMCLRD
 70
     7
  9
$DIMCLRE
 70
     7
  9
$DIMCLRT
 70
     7
  9
$DIMTFAC
 40
0.8
  9
$DIMGAP
 40
1.25
  9
$DIMJUST
 70
     0
  9
$DIMSD1
 70
     0
  9
$DIMSD2
 70
     0
  9
$DIMTOLJ
 70
     1
  9
$DIMTZIN
 70
     0
  9
$DIMALTZ
 70
     0
  9
$DIMALTTZ
 70
     0
  9
$DIMUPT
 70
     0
  9
$DIMDEC
 70
     2
  9
$DIMTDEC
 70
     4
  9
$DIMALTU
 70
     2
  9
$DIMALTTD
 70
     2
  9
$DIMTXSTY
  7
Standard
  9
$DIMAUNIT
 70
     0
  9
$DIMADEC
 70
     0
  9
$DIMALTRND
 40
0.0
  9
$DIMAZIN
 70
     0
  9
$DIMDSEP
 70
     0
  9
$DIMATFIT
 70
     3
  9
$DIMFRAC
 70
     0
  9
$DIMLDRBLK
  1

  9
$DIMLUNIT
 70
     2
  9
$DIMLWD
 70
     0
  9
$DIMLWE
 70
     0
  9
$DIMTMOVE
 70
     0
  9
$LUNITS
 70
     2
  9
$LUPREC
 70
     4
  9
$SKETCHINC
 40
0.1
  9
$FILLETRAD
 40
0.0
  9
$AUNITS
 70
     0
  9
$AUPREC
 70
     0
  9
$MENU
  1
acad
  9
$ELEVATION
 40
0.0
  9
$PELEVATION
 40
0.0
  9
$THICKNESS
 40
0.0
  9
$LIMCHECK
 70
     0
  9
$CHAMFERA
 40
0.0
  9
$CHAMFERB
 40
0.0
  9
$CHAMFERC
 40
0.0
  9
$CHAMFERD
 40
0.0
  9
$SKPOLY
 70
     0
  9
$TDCREATE
 40
2455323.560590278
  9
$TDUCREATE
 40
2455323.477256944
  9
$TDUPDATE
 40
2455383.567472593
  9
$TDUUPDATE
 40
2455383.484139260
  9
$TDINDWG
 40
0.0070918171
  9
$TDUSRTIMER
 40
0.0070905440
  9
$USRTIMER
 70
     1
  9
$ANGBASE
 50
0.0
  9
$ANGDIR
 70
     0
  9
$PDMODE
 70
     0
  9
$PDSIZE
 40
0.0
  9
$PLINEWID
 40
0.0
  9
$SPLFRAME
 70
     0
  9
$SPLINETYPE
 70
     6
  9
$SPLINESEGS
 70
     8
  9
$HANDSEED
  5
5555
  9
$SURFTAB1
 70
     6
  9
$SURFTAB2
 70
     6
  9
$SURFTYPE
 70
     6
  9
$SURFU
 70
     6
  9
$SURFV
 70
     6
  9
$UCSBASE
  2

  9
$UCSNAME
  2

  9
$UCSORG
 10
0.0
 20
0.0
 30
0.0
  9
$UCSXDIR
 10
1.0
 20
0.0
 30
0.0
  9
$UCSYDIR
 10
0.0
 20
1.0
 30
0.0
  9
$UCSORTHOREF
  2

  9
$UCSORTHOVIEW
 70
     0
  9
$UCSORGTOP
 10
0.0
 20
0.0
 30
0.0
  9
$UCSORGBOTTOM
 10
0.0
 20
0.0
 30
0.0
  9
$UCSORGLEFT
 10
0.0
 20
0.0
 30
0.0
  9
$UCSORGRIGHT
 10
0.0
 20
0.0
 30
0.0
  9
$UCSORGFRONT
 10
0.0
 20
0.0
 30
0.0
  9
$UCSORGBACK
 10
0.0
 20
0.0
 30
0.0
  9
$PUCSBASE
  2

  9
$PUCSNAME
  2

  9
$PUCSORG
 10
0.0
 20
0.0
 30
0.0
  9
$PUCSXDIR
 10
1.0
 20
0.0
 30
0.0
  9
$PUCSYDIR
 10
0.0
 20
1.0
 30
0.0
  9
$PUCSORTHOREF
  2

  9
$PUCSORTHOVIEW
 70
     0
  9
$PUCSORGTOP
 10
0.0
 20
0.0
 30
0.0
  9
$PUCSORGBOTTOM
 10
0.0
 20
0.0
 30
0.0
  9
$PUCSORGLEFT
 10
0.0
 20
0.0
 30
0.0
  9
$PUCSORGRIGHT
 10
0.0
 20
0.0
 30
0.0
  9
$PUCSORGFRONT
 10
0.0
 20
0.0
 30
0.0
  9
$PUCSORGBACK
 10
0.0
 20
0.0
 30
0.0
  9
$USERI1
 70
     0
  9
$USERI2
 70
     0
  9
$USERI3
 70
     0
  9
$USERI4
 70
     0
  9
$USERI5
 70
     0
  9
$USERR1
 40
0.0
  9
$USERR2
 40
0.0
  9
$USERR3
 40
0.0
  9
$USERR4
 40
0.0
  9
$USERR5
 40
0.0
  9
$WORLDVIEW
 70
     1
  9
$SHADEDGE
 70
     3
  9
$SHADEDIF
 70
    70
  9
$TILEMODE
 70
     1
  9
$MAXACTVP
 70
    16
  9
$PINSBASE
 10
0.0
 20
0.0
 30
0.0
  9
$PLIMCHECK
 70
     0
  9
$PEXTMIN
 10
1.000000000000000E+20
 20
1.000000000000000E+20
 30
1.000000000000000E+20
  9
$PEXTMAX
 10
-1.000000000000000E+20
 20
-1.000000000000000E+20
 30
-1.000000000000000E+20
  9
$PLIMMIN
 10
0.0
 20
0.0
  9
$PLIMMAX
 10
12.0
 20
9.0
  9
$UNITMODE
 70
     0
  9
$VISRETAIN
 70
     0
  9
$PLINEGEN
 70
     1
  9
$PSLTSCALE
 70
     0
  9
$TREEDEPTH
 70
  3020
  9
$CMLSTYLE
  2
Standard
  9
$CMLJUST
 70
     0
  9
$CMLSCALE
 40
1.0
  9
$PROXYGRAPHICS
 70
     0
  9
$MEASUREMENT
 70
     1
  9
$CELWEIGHT
370
     0
  9
$ENDCAPS
280
     0
  9
$JOINSTYLE
280
     0
  9
$LWDISPLAY
290
     0
  9
$INSUNITS
 70
     0
  9
$HYPERLINKBASE
  1

  9
$STYLESHEET
  1

  9
$XEDIT
290
     1
  9
$CEPSNTYPE
380
     0
  9
$PSTYLEMODE
290
     1
  9
$FINGERPRINTGUID
  2

  9
$VERSIONGUID
  2
{911B85F6-A463-4455-AD73-6B15E8D7DE4C}
  9
$EXTNAMES
290
     1
  9
$PSVPSCALE
 40
0.0
  9
$OLESTARTUP
290
     0
  0
ENDSEC
  0
SECTION
  2
CLASSES
  0
CLASS
  1
IMAGE
  2
AcDbRasterImage
  3
ISM
 90
    34943
280
     0
281
     1
  0
CLASS
  1
DICTIONARYVAR
  2
AcDbDictionaryVar
  3
ObjectDBX Classes
 90
        0
280
     0
281
     0
  0
CLASS
  1
RASTERVARIABLES
  2
AcDbRasterVariables
  3
ISM
 90
    32768
280
     0
281
     0
  0
CLASS
  1
IMAGEDEF
  2
AcDbRasterImageDef
  3
ISM
 90
    32768
280
     0
281
     0
  0
CLASS
  1
IMAGEDEF_REACTOR
  2
AcDbRasterImageDefReactor
  3
ISM
 90
    32769
280
     0
281
     0
  0
CLASS
  1
IDBUFFER
  2
AcDbIdBuffer
  3
ObjectDBX Classes
 90
    32768
280
     0
281
     0
  0
CLASS
  1
SPATIAL_FILTER
  2
AcDbSpatialFilter
  3
ObjectDBX Classes
 90
    32768
280
     0
281
     0
  0
CLASS
  1
SORTENTSTABLE
  2
AcDbSortentsTable
  3
ObjectDBX Classes
 90
        0
280
     0
281
     0
  0
CLASS
  1
LAYER_INDEX
  2
AcDbLayerIndex
  3
ObjectDBX Classes
 90
    32768
280
     0
281
     0
  0
CLASS
  1
SPATIAL_INDEX
  2
AcDbSpatialIndex
  3
ObjectDBX Classes
 90
    32768
280
     0
281
     0
  0
CLASS
  1
OBJECT_PTR
  2
CAseDLPNTableRecord
  3
ASE-LPNTableRecord
 90
    32769
280
     0
281
     0
  0
CLASS
  1
PLOTSETTINGS
  2
AcDbPlotSettings
  3
ObjectDBX Classes
 90
    32768
280
     0
281
     0
  0
CLASS
  1
ACDBDICTIONARYWDFLT
  2
AcDbDictionaryWithDefault
  3
ObjectDBX Classes
 90
        0
280
     0
281
     0
  0
CLASS
  1
WIPEOUT
  2
AcDbWipeout
  3
"WipeOut|Product Desc: Object Enabler for WipeOut entity                        |Company: Autodesk, Inc.                        |WEB Address: www.autodesk.com"
 90
    34943
280
     0
281
     1
  0
CLASS
  1
WIPEOUTVARIABLES
  2
AcDbWipeoutVariables
  3
"WipeOut|Product Desc:     WipeOut Dbx Application|Company:          Autodesk, Inc.|WEB Address:      www.autodesk.com"
 90
        0
280
     0
281
     0
  0
CLASS
  1
RTEXT
  2
RText
  3
RText|AutoCAD Express Tool|expresstools@autodesk.com
 90
    35839
280
     0
281
     1
  0
CLASS
  1
ARCALIGNEDTEXT
  2
AcDbArcAlignedText
  3
ATEXT|AutoCAD Express Tool|expresstools@autodesk.com
 90
    32768
280
     0
281
     1
  0
CLASS
  1
MATERIAL
  2
AcDbMaterial
  3
ObjectDBX Classes
 90
     1153
280
     0
281
     0
  0
CLASS
  1
VISUALSTYLE
  2
AcDbVisualStyle
  3
ObjectDBX Classes
 90
     4095
280
     0
281
     0
  0
CLASS
  1
TABLESTYLE
  2
AcDbTableStyle
  3
ObjectDBX Classes
 90
     4095
280
     0
281
     0
  0
CLASS
  1
SCALE
  2
AcDbScale
  3
ObjectDBX Classes
 90
     1153
280
     0
281
     0
  0
CLASS
  1
MLEADERSTYLE
  2
AcDbMLeaderStyle
  3
ACDB_MLEADERSTYLE_CLASS
 90
     4095
280
     0
281
     0
  0
CLASS
  1
CELLSTYLEMAP
  2
AcDbCellStyleMap
  3
ObjectDBX Classes
 90
     1152
280
     0
281
     0
  0
CLASS
  1
ACDBPLACEHOLDER
  2
AcDbPlaceHolder
  3
ObjectDBX Classes
 90
        0
280
     0
281
     0
  0
CLASS
  1
LAYOUT
  2
AcDbLayout
  3
ObjectDBX Classes
 90
        0
280
     0
281
     0
  0
ENDSEC
  0
SECTION
  2
TABLES
  0
TABLE
  2
VPORT
  5
7
330
0
100
AcDbSymbolTable
 70
     1
  0
VPORT
  5
15
330
7
100
AcDbSymbolTableRecord
100
AcDbViewportTableRecord
  2
*ACTIVE
 70
     0
 10
0.0
 20
0.0
 11
1.0
 21
1.0
 12
10.88548679925574
 22
-2.257651659853195
 13
0.0
 23
0.0
 14
1.0
 24
1.0
 15
0.0
 25
0.0
 16
0.0
 26
0.0
 36
1.0
 17
0.0
 27
0.0
 37
0.0
 40
315.5257945555495
 41
1.611330698287219
 42
50.0
 43
0.0
 44
0.0
 50
0.0
 51
0.0
 71
     0
 72
   100
 73
     1
 74
     1
 75
     0
 76
     0
 77
     0
 78
     0
281
     0
 65
     0
110
0.0
120
0.0
130
0.0
111
1.0
121
0.0
131
0.0
112
0.0
122
1.0
132
0.0
 79
     0
146
0.0
  0
ENDTAB
  0
TABLE
  2
LTYPE
  5
4
330
0
100
AcDbSymbolTable
 70
     2
  0
LTYPE
  5
11
330
4
100
AcDbSymbolTableRecord
100
AcDbLinetypeTableRecord
  2
ByBlock
 70
     0
  3

 72
    65
 73
     0
 40
0.0
  0
LTYPE
  5
12
330
4
100
AcDbSymbolTableRecord
100
AcDbLinetypeTableRecord
  2
ByLayer
 70
     0
  3

 72
    65
 73
     0
 40
0.0
  0
LTYPE
  5
13
330
4
100
AcDbSymbolTableRecord
100
AcDbLinetypeTableRecord
  2
Continuous
 70
     0
  3
Solid line
 72
    65
 73
     0
 40
0.0
  0
LTYPE
  5
689
330
4
100
AcDbSymbolTableRecord
100
AcDbLinetypeTableRecord
  2
CENTER
 70
     0
  3
____ _ ____ _ ____ _ ____ _ ____ _ ____ _ ____
 72
    65
 73
     4
 40
2.0
 49
1.25
 74
     0
 49
-0.25
 74
     0
 49
0.25
 74
     0
 49
-0.25
 74
     0
  0
ENDTAB
  0
TABLE
  2
LAYER
  5
2
330
0
100
AcDbSymbolTable
 70
     1
  0
LAYER
  5
14
102
{ACAD_XDICTIONARY
360
2349
102
}
330
2
100
AcDbSymbolTableRecord
100
AcDbLayerTableRecord
  2
0
 70
     0
 62
     7
  6
Continuous
370
    -3
390
1D
  0
ENDTAB
  0
TABLE
  2
STYLE
  5
3
330
0
100
AcDbSymbolTable
 70
     1
  0
STYLE
  5
17
330
3
100
AcDbSymbolTableRecord
100
AcDbTextStyleTableRecord
  2
Standard
 70
     0
 40
0.0
 41
1.0
 50
0.0
 71
     0
 42
0.0
  3
IsonormD
  4

1001
ACAD
1000
IsonormD
1071
        0
  0
ENDTAB
  0
TABLE
  2
VIEW
  5
5
330
0
100
AcDbSymbolTable
 70
     0
  0
ENDTAB
  0
TABLE
  2
UCS
  5
6
330
0
100
AcDbSymbolTable
 70
     0
  0
ENDTAB
  0
TABLE
  2
APPID
  5
8
330
0
100
AcDbSymbolTable
 70
     5
  0
APPID
  5
16
330
8
100
AcDbSymbolTableRecord
100
AcDbRegAppTableRecord
  2
ACAD
 70
     0
  0
APPID
  5
26
330
8
100
AcDbSymbolTableRecord
100
AcDbRegAppTableRecord
  2
TopSolid'Draft
 70
     0
  0
APPID
  5
2345
330
8
100
AcDbSymbolTableRecord
100
AcDbRegAppTableRecord
  2
ACAD_MLEADERVER
 70
     0
  0
APPID
  5
234D
330
8
100
AcDbSymbolTableRecord
100
AcDbRegAppTableRecord
  2
DCO15
 70
     0
  0
APPID
  5
5480
330
8
100
AcDbSymbolTableRecord
100
AcDbRegAppTableRecord
  2
ACAD_EXEMPT_FROM_CAD_STANDARDS
 70
     0
  0
ENDTAB
  0
TABLE
  2
DIMSTYLE
  5
9
330
0
100
AcDbSymbolTable
 70
     1
100
AcDbDimStyleTable
 71
     1
340
18
  0
DIMSTYLE
105
18
330
9
100
AcDbSymbolTableRecord
100
AcDbDimStyleTableRecord
  2
Standard
 70
     0
 41
1.25
 42
0.0
 44
0.75
 73
     0
 74
     0
 77
     1
140
2.5
146
0.8
147
1.25
176
     7
177
     7
178
     7
271
     2
340
17
  0
ENDTAB
  0
TABLE
  2
BLOCK_RECORD
  5
1
330
0
100
AcDbSymbolTable
 70
     2
  0
BLOCK_RECORD
  5
A
102
{ACAD_XDICTIONARY
360
235B
102
}
330
1
100
AcDbSymbolTableRecord
100
AcDbBlockTableRecord
  2
*MODEL_SPACE
340
20
  0
BLOCK_RECORD
  5
B
330
1
100
AcDbSymbolTableRecord
100
AcDbBlockTableRecord
  2
*PAPER_SPACE
340
21
  0
BLOCK_RECORD
  5
549F
330
1
100
AcDbSymbolTableRecord
100
AcDbBlockTableRecord
  2
AID5967
340
0
102
{BLKREFS
331
5538
331
553E
102
}
  0
ENDTAB
  0
ENDSEC
  0
SECTION
  2
BLOCKS
  0
BLOCK
  5
D
330
A
100
AcDbEntity
  8
0
100
AcDbBlockBegin
  2
*MODEL_SPACE
 70
     0
 10
0.0
 20
0.0
 30
0.0
  3
*MODEL_SPACE
  1

  0
ENDBLK
  5
E
330
A
100
AcDbEntity
  8
0
100
AcDbBlockEnd
  0
BLOCK
  5
F
330
B
100
AcDbEntity
 67
     1
  8
0
100
AcDbBlockBegin
  2
*PAPER_SPACE
 70
     0
 10
0.0
 20
0.0
 30
0.0
  3
*PAPER_SPACE
  1

  0
ENDBLK
  5
10
330
B
100
AcDbEntity
 67
     1
  8
0
100
AcDbBlockEnd
  0
BLOCK
  5
54A0
330
549F
100
AcDbEntity
  8
0
100
AcDbBlockBegin
  2
AID5967
 70
     0
 10
0.0
 20
0.0
 30
0.0
  3
AID5967
  1

  0
ELLIPSE
  5
54A1
330
549F
100
AcDbEntity
  8
0
  6
Continuous
 62
     7
100
AcDbEllipse
 10
-68.59972222518715
 20
60.75488589114356
 30
0.0
 11
-5.599999999999988
 21
0.0
 31
0.0
210
0.0
220
0.0000000000000001
230
1.0
 40
0.4082482904638633
 41
0.2208339464976825
 42
0.9500690851146035
  0
ELLIPSE
  5
54A2
330
549F
100
AcDbEntity
  8
0
  6
Continuous
 62
     7
100
AcDbEllipse
 10
-68.59972222518715
 20
60.75488589114356
 30
0.0
 11
-5.599999999999988
 21
0.0
 31
0.0
210
0.0
220
0.0000000000000001
230
1.0
 40
0.4082482904638635
 41
0.9500690851146032
 42
1.101399337168879
  0
ELLIPSE
  5
54A3
330
549F
100
AcDbEntity
  8
0
  6
Continuous
 62
     7
100
AcDbEllipse
 10
-68.59972222518715
 20
60.75488589114356
 30
0.0
 11
-5.599999999999988
 21
0.0
 31
0.0000000000000004
210
0.0000000000000001
220
0.0000000000000001
230
1.0
 40
0.4082482904638637
 41
1.101399337168879
 42
1.114278925565165
  0
ELLIPSE
  5
54A4
330
549F
100
AcDbEntity
  8
0
  6
Continuous
 62
     7
100
AcDbEllipse
 10
-68.59972222518715
 20
60.75488589114356
 30
0.0
 11
-5.599999999999988
 21
0.0
 31
0.0
210
0.0
220
0.0000000000000001
230
1.0
 40
0.4082482904638633
 41
1.114278925565165
 42
1.264228350473582
  0
ELLIPSE
  5
54A5
330
549F
100
AcDbEntity
  8
0
  6
Continuous
 62
     7
100
AcDbEllipse
 10
-68.59972222518715
 20
60.75488589114356
 30
0.0
 11
-5.599999999999988
 21
0.0
 31
0.0
210
0.0
220
0.0000000000000001
230
1.0
 40
0.4082482904638633
 41
1.264228350473581
 42
2.648443954434144
  0
ELLIPSE
  5
54A6
330
549F
100
AcDbEntity
  8
0
  6
Continuous
 62
     7
100
AcDbEllipse
 10
-68.59972222518688
 20
21.97612881977809
 30
0.0
 11
5.599999999999988
 21
-0.0000000000253339
 31
-0.0000000000000001
210
0.0
220
0.0000000000000001
230
1.0
 40
0.4082482904570103
 41
3.28987566747492
 42
6.134902290961406
  0
LINE
  5
54A7
330
549F
100
AcDbEntity
  8
0
  6
Continuous
 62
     9
100
AcDbLine
 10
-73.64429158214068
 20
82.1598834386789
 30
0.0
 11
-73.50118323158071
 21
82.27673091761335
 31
0.0
  0
ELLIPSE
  5
54A8
330
549F
100
AcDbEntity
  8
0
  6
Continuous
 62
     7
100
AcDbEllipse
 10
-73.50118323158071
 20
80.8161374309329
 30
0.0
 11
-1.011928851253881
 21
1.239354670786382
 31
-0.0000000000000001
210
0.0000000000000001
220
0.0000000000000001
230
1.0
 40
0.8164965809277259
 41
3.926990816987246
 42
5.497787143782137
  0
LINE
  5
54A9
330
549F
100
AcDbEntity
  8
0
  6
Continuous
 62
     9
100
AcDbLine
 10
-72.07009972598084
 20
80.52401873359681
 30
0.0
 11
-72.2132080765408
 21
80.40717125466239
 31
0.0
  0
ELLIPSE
  5
54AA
330
549F
100
AcDbEntity
  8
0
  6
Continuous
 62
     7
100
AcDbEllipse
 10
-73.64429158214068
 20
80.69928995199848
 30
0.0
 11
1.011928851253881
 21
-1.239354670786366
 31
0.0000000000000001
210
0.0000000000000001
220
0.0000000000000001
230
1.0
 40
0.8164965809277259
 41
0.7853981633974481
 42
1.648610053466985
  0
ELLIPSE
  5
54AB
330
549F
100
AcDbEntity
  8
0
  6
Continuous
 62
     7
100
AcDbEllipse
 10
-73.64429158214068
 20
80.69928995199848
 30
0.0
 11
1.011928851253881
 21
-1.239354670786366
 31
0.0000000000000001
210
0.0000000000000001
220
0.0000000000000001
230
1.0
 40
0.8164965809277259
 41
1.672113258397035
 42
2.356194490192338
  0
ELLIPSE
  5
54AC
330
549F
100
AcDbEntity
  8
0
  6
Continuous
 62
     7
100
AcDbEllipse
 10
-99.09978164943723
 20
85.8953701034453
 30
0.0
 11
1.011928851253881
 21
-1.239354670786366
 31
0.0000000000000001
210
0.0000000000000001
220
0.0000000000000001
230
1.0
 40
0.8164965809277259
 41
2.356194490192344
 42
3.040275721987657
  0
LINE
  5
54AD
330
549F
100
AcDbEntity
  8
0
  6
Continuous
 62
     7
100
AcDbLine
 10
-73.64429158214068
 20
82.1598834386789
 30
0.0
 11
-99.09978164943723
 21
87.35596359012575
 31
0.0
  0
LINE
  5
54AE
330
549F
100
AcDbEntity
  8
0
  6
Continuous
 62
     7
100
AcDbLine
 10
-72.2132080765408
 20
80.01836921076908
 30
0.0
 11
-72.2132080765408
 21
80.40717125466239
 31
0.0
  0
LINE
  5
54AF
330
549F
100
AcDbEntity
  8
0
  6
Continuous
 62
     7
100
AcDbLine
 10
-72.07009972598084
 20
80.06110455241637
 30
0.0
 11
-72.07009972598084
 21
80.52401873359681
 31
0.0
  0
LINE
  5
54B0
330
549F
100
AcDbEntity
  8
0
  6
Continuous
 62
     9
100
AcDbLine
 10
-98.95667329887722
 20
87.47281106906019
 30
0.0
 11
-99.09978164943721
 21
87.35596359012575
 31
0.0
  0
LINE
  5
54B1
330
549F
100
AcDbEntity
  8
0
  6
Continuous
 62
     7
100
AcDbLine
 10
-73.50118323158071
 20
82.27673091761332
 30
0.0
 11
-98.95667329887723
 21
87.47281106906017
 31
0.0
  0
ELLIPSE
  5
54B2
330
549F
100
AcDbEntity
  8
0
  6
Continuous
 62
     7
100
AcDbEllipse
 10
-98.95667329887722
 20
86.01221758237976
 30
0.0
 11
-1.011928851253881
 21
1.239354670786366
 31
-0.0000000000000001
210
0.0000000000000001
220
0.0000000000000001
230
1.0
 40
0.8164965809277259
 41
5.497787143782136
 42
6.283185307179584
  0
ELLIPSE
  5
54B3
330
549F
100
AcDbEntity
  8
0
  6
Continuous
 62
     7
100
AcDbEllipse
 10
-68.59972222952141
 20
4.083858604403856
 30
0.0
 11
4.239999999999993
 21
0.0000000000001362
 31
0.0000000000000001
210
0.0
220
0.0000000000000001
230
1.0
 40
0.4082482904639211
 41
4.248741371383855
 42
5.618323964782796
  0
ELLIPSE
  5
54B4
330
549F
100
AcDbEntity
  8
0
  6
Continuous
 62
     7
100
AcDbEllipse
 10
-68.59972222952141
 20
4.083858604403856
 30
0.0
 11
4.239999999999993
 21
0.0000000000001405
 31
0.0
210
0.0
220
0.0
230
1.0
 40
0.4082482904639185
 41
3.835654652668509
 42
4.248741371383856
  0
ELLIPSE
  5
54B5
330
549F
100
AcDbEntity
  8
0
  6
Continuous
 62
     7
100
AcDbEllipse
 10
-68.59972222481868
 20
79.01230447494994
 30
0.0
 11
-4.240000000000006
 21
0.0000000002660233
 31
0.0000000000000002
210
0.0
220
0.0
230
1.0
 40
0.4082482903592928
 41
3.605240262436908
 42
4.248741371409495
  0
ELLIPSE
  5
54B6
330
549F
100
AcDbEntity
  8
0
  6
Continuous
 62
     7
100
AcDbEllipse
 10
-68.59972222481868
 20
79.01230447494994
 30
0.0
 11
-4.240000000000006
 21
0.0000000002660233
 31
0.0000000000000001
210
0.0
220
0.0
230
1.0
 40
0.4082482903592921
 41
5.819537698332462
 42
9.888425569616495
  0
ELLIPSE
  5
54B7
330
549F
100
AcDbEntity
  8
0
  6
Continuous
 62
     7
100
AcDbEllipse
 10
-68.59972222485075
 20
78.50109675458559
 30
0.0
 11
4.799999999999998
 21
-0.0000000003011619
 31
-0.0000000000000004
210
0.0000000000000001
220
0.0
230
1.0
 40
0.4082482903592925
 41
6.283185307179584
 42
6.746832916026705
  0
ELLIPSE
  5
54B8
330
549F
100
AcDbEntity
  8
0
  6
Continuous
 62
     7
100
AcDbEllipse
 10
-68.59972222481868
 20
79.01230447494994
 30
0.0
 11
-4.240000000000006
 21
0.0000000002660372
 31
0.0000000000000002
210
0.0
220
0.0000000000000001
230
1.0
 40
0.4082482903592915
 41
4.248741371409495
 42
5.819537698332458
  0
ELLIPSE
  5
54B9
330
549F
100
AcDbEntity
  8
0
  6
Continuous
 62
     7
100
AcDbEllipse
 10
-68.59972222487825
 20
78.06291870855901
 30
0.0
 11
-4.799999999999998
 21
0.0000000003011619
 31
0.0000000000000002
210
0.0
220
0.0
230
1.0
 40
0.4082482903592921
 41
6.28318530717958
 42
9.424777960769391
  0
ELLIPSE
  5
54BA
330
549F
100
AcDbEntity
  8
0
  6
Continuous
 62
     7
100
AcDbEllipse
 10
-68.59972222485075
 20
78.50109675458559
 30
0.0
 11
4.799999999999998
 21
-0.0000000003011619
 31
-0.0000000000000002
210
0.0
220
0.0
230
1.0
 40
0.4082482903592922
 41
2.67794504474267
 42
3.141592653589794
  0
ELLIPSE
  5
54BB
330
549F
100
AcDbEntity
  8
0
  6
Continuous
 62
     7
100
AcDbEllipse
 10
-68.59972222485075
 20
78.50109675458559
 30
0.0
 11
4.799999999999998
 21
-0.0000000003011619
 31
-0.0000000000000002
210
0.0
220
0.0
230
1.0
 40
0.4082482903592925
 41
3.141592653589792
 42
6.283185307179588
  0
LINE
  5
54BC
330
549F
100
AcDbEntity
  8
0
  6
Continuous
 62
     7
100
AcDbLine
 10
-65.91644065190144
 20
75.87202847851965
 30
0.0
 11
-60.61409448896947
 21
77.28018901808797
 31
0.0
  0
ELLIPSE
  5
54BD
330
549F
100
AcDbEntity
  8
0
  6
Continuous
 62
     7
100
AcDbEllipse
 10
-68.59972222490117
 20
78.06291870854031
 30
0.0
 11
-6.000000000000002
 21
0.0
 31
0.0000000000000004
210
0.0000000000000001
220
0.0000000000000001
230
1.0
 40
0.4082482904638633
 41
5.286611521302019
 42
6.283185307179584
  0
LINE
  5
54BE
330
549F
100
AcDbEntity
  8
0
  6
Continuous
 62
     7
100
AcDbLine
 10
-62.33873188790175
 20
79.52351219522075
 30
0.0
 11
-65.40132143866927
 21
80.14866066946741
 31
0.0
  0
ELLIPSE
  5
54BF
330
549F
100
AcDbEntity
  8
0
  6
Continuous
 62
     7
100
AcDbEllipse
 10
-61.9809610115018
 20
79.81563089255684
 30
0.0
 11
0.7999999999999952
 21
0.0
 31
0.0
210
0.0
220
0.0000000000000001
230
1.0
 40
0.4082482904638632
 41
4.248741371383876
 42
5.819537698178787
  0
LINE
  5
54C0
330
549F
100
AcDbEntity
  8
0
  6
Continuous
 62
     7
100
AcDbLine
 10
-55.71997067450237
 20
84.19741135259817
 30
0.0
 11
-61.26541925870185
 21
79.66957154388879
 31
0.0
  0
LINE
  5
54C1
330
549F
100
AcDbEntity
  8
0
  6
Continuous
 62
     7
100
AcDbLine
 10
-52.85780366330264
 20
83.613173957926
 30
0.0
 11
-55.71997067450237
 21
84.19741135259817
 31
0.0
  0
LINE
  5
54C2
330
549F
100
AcDbEntity
  8
0
  6
Continuous
 62
     7
100
AcDbLine
 10
-60.61409448896945
 20
77.28018901808798
 30
0.0
 11
-52.85780366330264
 21
83.61317395792601
 31
0.0
  0
ELLIPSE
  5
54C3
330
549F
100
AcDbEntity
  8
0
  6
Continuous
 62
     7
100
AcDbEllipse
 10
-68.59972222490117
 20
78.06291870854031
 30
0.0
 11
-6.000000000000002
 21
0.0
 31
0.0
210
0.0
220
0.0000000000000001
230
1.0
 40
0.4082482904638633
 41
0.0000000000000006
 42
2.0344439357957
  0
LINE
  5
54C4
330
549F
100
AcDbEntity
  8
0
  6
Continuous
 62
     7
100
AcDbLine
 10
-65.91644065190142
 20
59.07520338169453
 30
0.0
 11
-65.91644065190144
 21
75.87202847851964
 31
0.0
  0
ELLIPSE
  5
54C5
330
549F
100
AcDbEntity
  8
0
  6
Continuous
 62
     7
100
AcDbEllipse
 10
-68.59972222490118
 20
61.2660936117152
 30
0.0
 11
6.000000000000002
 21
0.0
 31
0.0000000000000001
210
0.0
220
0.0000000000000001
230
1.0
 40
0.4082482904638633
 41
3.141592653589792
 42
5.176036589385494
  0
LINE
  5
54C6
330
549F
100
AcDbEntity
  8
0
  6
Continuous
 62
     7
100
AcDbLine
 10
-60.61409448896947
 20
60.48336392126286
 30
0.0
 11
-60.61409448896947
 21
77.28018901808797
 31
0.0
  0
LINE
  5
54C7
330
549F
100
AcDbEntity
  8
0
  6
Continuous
 62
     7
100
AcDbLine
 10
-60.61409448896947
 20
60.48336392126286
 30
0.0
 11
-65.91644065190142
 21
59.07520338169454
 31
0.0
  0
ELLIPSE
  5
54C8
330
549F
100
AcDbEntity
  8
0
  6
Continuous
 62
     7
100
AcDbEllipse
 10
-55.71997067450237
 20
44.7613872122262
 30
0.0
 11
0.5120000000000056
 21
2.50827749660999
 31
0.0
210
0.0
220
0.0
230
1.0
 40
0.4082482904638633
 41
5.176036589385494
 42
6.283185307179588
  0
ELLIPSE
  5
54C9
330
549F
100
AcDbEntity
  8
0
  6
Continuous
 62
     7
100
AcDbEllipse
 10
-55.71997067450237
 20
72.51266345915464
 30
0.0
 11
0.5119999999999986
 21
2.508277496609978
 31
0.0
210
0.0
220
0.0
230
1.0
 40
0.4082482904638631
 41
5.176036589385502
 42
6.283185307179588
  0
ELLIPSE
  5
54CA
330
549F
100
AcDbEntity
  8
0
  6
Continuous
 62
     7
100
AcDbEllipse
 10
-55.71997067450237
 20
17.01011096529778
 30
0.0
 11
0.5120000000000056
 21
2.508277496610003
 31
0.0
210
0.0
220
0.0
230
1.0
 40
0.4082482904638633
 41
5.176036589385498
 42
6.283185307179592
  0
LINE
  5
54CB
330
549F
100
AcDbEntity
  8
0
  6
Continuous
 62
     7
100
AcDbLine
 10
-52.85780366330264
 20
10.58349962390381
 30
0.0
 11
-52.85780366330264
 21
83.61317395792594
 31
0.0
  0
LINE
  5
54CC
330
549F
100
AcDbEntity
  8
0
  6
Continuous
 62
     7
100
AcDbLine
 10
-60.61409448896947
 20
4.250514684065787
 30
0.0
 11
-52.85780366330264
 21
10.58349962390384
 31
0.0
  0
LINE
  5
54CD
330
549F
100
AcDbEntity
  8
0
  6
Continuous
 62
     7
100
AcDbLine
 10
-60.61409448896947
 20
4.250514684065787
 30
0.0
 11
-60.61409448896947
 21
21.04733978089088
 31
0.0
  0
LINE
  5
54CE
330
549F
100
AcDbEntity
  8
0
  6
Continuous
 62
     7
100
AcDbLine
 10
-60.61409448896947
 20
21.04733978089088
 30
0.0
 11
-58.83257729918209
 21
22.50194247521625
 31
0.0
  0
ELLIPSE
  5
54CF
330
549F
100
AcDbEntity
  8
0
  6
Continuous
 62
     7
100
AcDbEllipse
 10
-58.83257729918209
 20
23.59738759022659
 30
0.0
 11
-0.2400000000000042
 21
-1.175755076535944
 31
0.0
210
0.0
220
0.0
230
1.0
 40
0.4082482904638612
 41
0.4636476090008049
 42
2.034443935795696
  0
LINE
  5
54D0
330
549F
100
AcDbEntity
  8
0
  6
Continuous
 62
     7
100
AcDbLine
 10
-58.29592098458213
 20
24.03556563623072
 30
0.0
 11
-58.29592098458213
 21
61.280699546582
 31
0.0
  0
ELLIPSE
  5
54D1
330
549F
100
AcDbEntity
  8
0
  6
Continuous
 62
     7
100
AcDbEllipse
 10
-58.83257729918209
 20
60.84252150057785
 30
0.0
 11
-0.2399999999999971
 21
-1.175755076535931
 31
0.0000000000000001
210
0.0
220
0.0000000000000001
230
0.9999999999999998
 40
0.408248290463864
 41
3.141592653589792
 42
3.605240262590591
  0
LINE
  5
54D2
330
549F
100
AcDbEntity
  8
0
  6
Continuous
 62
     7
100
AcDbLine
 10
-58.83257729918209
 20
61.9379666155882
 30
0.0
 11
-60.61409448896945
 21
60.48336392126286
 31
0.0
  0
ELLIPSE
  5
54D3
330
549F
100
AcDbEntity
  8
0
  6
Continuous
 62
     7
100
AcDbEllipse
 10
-57.29344698890944
 20
72.83384796687567
 30
0.0
 11
0.5119999999999986
 21
2.508277496609965
 31
-0.0000000000000002
210
0.0
220
0.0000000000000001
230
1.0
 40
0.408248290463863
 41
4.017772087459731
 42
5.407005873306511
  0
ELLIPSE
  5
54D4
330
549F
100
AcDbEntity
  8
0
  6
Continuous
 62
     7
100
AcDbEllipse
 10
-55.71997067450237
 20
72.51266345915464
 30
0.0
 11
0.5119999999999986
 21
2.508277496609978
 31
-0.0000000000000002
210
0.0
220
0.0000000000000001
230
1.0
 40
0.4082482904638626
 41
3.14159265358979
 42
5.176036589385498
  0
ELLIPSE
  5
54D5
330
549F
100
AcDbEntity
  8
0
  6
Continuous
 62
     7
100
AcDbEllipse
 10
-55.71997067450237
 20
72.51266345915464
 30
0.0
 11
0.5119999999999986
 21
2.508277496609978
 31
-0.0000000000000002
210
0.0
220
0.0000000000000001
230
1.0
 40
0.4082482904638626
 41
0.0000000000000013
 42
3.14159265358979
  0
ELLIPSE
  5
54D6
330
549F
100
AcDbEntity
  8
0
  6
Continuous
 62
     7
100
AcDbEllipse
 10
-58.83257729918209
 20
60.84252150057785
 30
0.0
 11
-0.2400000000000041
 21
-1.175755076535931
 31
0.0
210
0.0
220
0.0
230
1.0
 40
0.4082482904638628
 41
2.034443935795696
 42
3.141592653589798
  0
LINE
  5
54D7
330
549F
100
AcDbEntity
  8
0
  6
Continuous
 62
     9
100
AcDbLine
 10
-58.29592098458213
 20
61.280699546582
 30
0.0
 11
-59.36923361378204
 21
61.49978856958409
 31
0.0
  0
LINE
  5
54D8
330
549F
100
AcDbEntity
  8
0
  6
Continuous
 62
     9
100
AcDbLine
 10
-61.15808799578189
 20
24.61980303090289
 30
0.0
 11
-58.29592098458213
 21
24.03556563623072
 31
0.0
  0
LINE
  5
54D9
330
549F
100
AcDbEntity
  8
0
  6
Continuous
 62
     7
100
AcDbLine
 10
-61.15808799578189
 20
60.33889387601574
 30
0.0
 11
-61.15808799578189
 21
24.61980303090289
 31
0.0
  0
LINE
  5
54DA
330
549F
100
AcDbEntity
  8
0
  6
Continuous
 62
     7
100
AcDbLine
 10
-65.91644065190144
 20
19.63917924132258
 30
0.0
 11
-60.61409448896947
 21
21.04733978089088
 31
0.0
  0
ELLIPSE
  5
54DB
330
549F
100
AcDbEntity
  8
0
  6
Continuous
 62
     7
100
AcDbEllipse
 10
-68.59972222490118
 20
21.83006947134325
 30
0.0
 11
-6.000000000000002
 21
0.0
 31
0.0000000000000002
210
0.0
220
0.0000000000000001
230
1.0
 40
0.4082482904638634
 41
6.024263765349606
 42
6.283185307179584
  0
LINE
  5
54DC
330
549F
100
AcDbEntity
  8
0
  6
Continuous
 62
     9
100
AcDbLine
 10
-58.83257729918209
 20
22.50194247521625
 30
0.0
 11
-62.599916579945
 21
23.27094738570065
 31
0.0
  0
ELLIPSE
  5
54DD
330
549F
100
AcDbEntity
  8
0
  6
Continuous
 62
     7
100
AcDbEllipse
 10
-68.59972222490118
 20
5.033244374518131
 30
0.0
 11
-6.000000000000002
 21
0.0000000000000009
 31
0.0
210
0.0
220
0.0000000000000001
230
1.0
 40
0.4082482904638633
 41
0.0
 42
2.0344439357957
  0
ELLIPSE
  5
54DE
330
549F
100
AcDbEntity
  8
0
  6
Continuous
 62
     7
100
AcDbEllipse
 10
-68.59972222490118
 20
21.83006947134325
 30
0.0
 11
-6.000000000000002
 21
0.0
 31
0.0
210
0.0
220
0.0000000000000001
230
1.0
 40
0.4082482904638633
 41
0.0000000000000006
 42
2.0344439357957
  0
LINE
  5
54DF
330
549F
100
AcDbEntity
  8
0
  6
Continuous
 62
     7
100
AcDbLine
 10
-65.91644065190144
 20
2.842354144497516
 30
0.0
 11
-65.91644065190144
 21
19.63917924132261
 31
0.0
  0
LINE
  5
54E0
330
549F
100
AcDbEntity
  8
0
  6
Continuous
 62
     7
100
AcDbLine
 10
-65.91644065190144
 20
2.842354144497516
 30
0.0
 11
-60.61409448896947
 21
4.250514684065811
 31
0.0
  0
ELLIPSE
  5
54E1
330
549F
100
AcDbEntity
  8
0
  6
Continuous
 62
     7
100
AcDbEllipse
 10
-57.29344698890944
 20
45.08257171994721
 30
0.0
 11
0.5119999999999986
 21
2.508277496609978
 31
-0.0000000000000002
210
0.0000000000000001
220
0.0000000000000001
230
1.0
 40
0.4082482904638631
 41
4.017772087507006
 42
5.407005873262436
  0
ELLIPSE
  5
54E2
330
549F
100
AcDbEntity
  8
0
  6
Continuous
 62
     7
100
AcDbEllipse
 10
-55.71997067450237
 20
44.7613872122262
 30
0.0
 11
0.5120000000000056
 21
2.50827749660999
 31
-0.0000000000000002
210
0.0
220
0.0000000000000001
230
1.0
 40
0.4082482904638625
 41
3.141592653589788
 42
5.176036589385493
  0
ELLIPSE
  5
54E3
330
549F
100
AcDbEntity
  8
0
  6
Continuous
 62
     7
100
AcDbEllipse
 10
-55.71997067450237
 20
44.7613872122262
 30
0.0
 11
0.5120000000000056
 21
2.50827749660999
 31
-0.0000000000000002
210
0.0
220
0.0000000000000001
230
1.0
 40
0.4082482904638625
 41
0.0000000000000041
 42
3.141592653589788
  0
LINE
  5
54E4
330
549F
100
AcDbEntity
  8
0
  6
Continuous
 62
     7
100
AcDbLine
 10
-62.59972222490119
 20
23.35371834324398
 30
0.0
 11
-62.33873188790177
 21
23.30044391379018
 31
0.0
  0
POLYLINE
  5
54E5
330
549F
100
AcDbEntity
  8
0
  6
Continuous
 62
     7
100
AcDb2dPolyline
 66
     1
 10
0.0
 20
0.0
 30
0.0
 40
0.5
 41
0.5
  0
VERTEX
  5
54E6
330
54E5
100
AcDbEntity
  8
0
 62
     7
100
AcDbVertex
100
AcDb2dVertex
 10
-62.33873188790177
 20
23.30044391379017
 30
0.0
 42
0.0984200409248125
  0
VERTEX
  5
54E7
330
54E5
100
AcDbEntity
  8
0
 62
     7
100
AcDbVertex
100
AcDb2dVertex
 10
-61.85796147575054
 20
23.29675962466124
 30
0.0
  0
VERTEX
  5
54E8
330
54E5
100
AcDbEntity
  8
0
 62
     7
100
AcDbVertex
100
AcDb2dVertex
 10
-61.73512182912563
 20
23.33115112155354
 30
0.0
  0
VERTEX
  5
54E9
330
54E5
100
AcDbEntity
  8
0
 62
     7
100
AcDbVertex
100
AcDb2dVertex
 10
-61.61990198960507
 20
23.38397651518206
 30
0.0
  0
VERTEX
  5
54EA
330
54E5
100
AcDbEntity
  8
0
 62
     7
100
AcDbVertex
100
AcDb2dVertex
 10
-61.52278026321127
 20
23.4506769002634
 30
0.0
  0
VERTEX
  5
54EB
330
54E5
100
AcDbEntity
  8
0
 62
     7
100
AcDbVertex
100
AcDb2dVertex
 10
-61.43947668465277
 20
23.53237893491947
 30
0.0
  0
VERTEX
  5
54EC
330
54E5
100
AcDbEntity
  8
0
 62
     7
100
AcDbVertex
100
AcDb2dVertex
 10
-61.37542096454541
 20
23.61953816394471
 30
0.0
  0
VERTEX
  5
54ED
330
54E5
100
AcDbEntity
  8
0
 62
     7
100
AcDbVertex
100
AcDb2dVertex
 10
-61.319246049788
 20
23.72496935645282
 30
0.0
  0
VERTEX
  5
54EE
330
54E5
100
AcDbEntity
  8
0
 62
     7
100
AcDbVertex
100
AcDb2dVertex
 10
-61.27689733380922
 20
23.83663216459764
 30
0.0
  0
VERTEX
  5
54EF
330
54E5
100
AcDbEntity
  8
0
 62
     7
100
AcDbVertex
100
AcDb2dVertex
 10
-61.26541925870187
 20
23.87490035269588
 30
0.0
  0
SEQEND
  5
54F0
330
54E5
100
AcDbEntity
  8
0
  0
ELLIPSE
  5
54F1
330
549F
100
AcDbEntity
  8
0
  6
Continuous
 62
     7
100
AcDbEllipse
 10
-61.69474431038183
 20
24.18162498489876
 30
0.0
 11
0.2399999999999902
 21
1.175755076535889
 31
0.0
210
0.0000000000000001
220
0.0
230
1.0
 40
0.408248290463863
 41
4.53253548059225
 42
5.176036589385494
  0
ELLIPSE
  5
54F2
330
549F
100
AcDbEntity
  8
0
  6
Continuous
 62
     7
100
AcDbEllipse
 10
-57.29344698890944
 20
17.33129547301881
 30
0.0
 11
0.5120000000000056
 21
2.508277496610002
 31
-0.0000000000000002
210
0.0000000000000001
220
0.0000000000000001
230
1.0
 40
0.4082482904638633
 41
4.017772086124486
 42
5.407005874584855
  0
ELLIPSE
  5
54F3
330
549F
100
AcDbEntity
  8
0
  6
Continuous
 62
     7
100
AcDbEllipse
 10
-55.71997067450237
 20
17.01011096529778
 30
0.0
 11
0.5120000000000056
 21
2.508277496610003
 31
-0.0000000000000002
210
0.0
220
0.0000000000000001
230
1.0
 40
0.4082482904638626
 41
3.14159265358979
 42
5.176036589385496
  0
ELLIPSE
  5
54F4
330
549F
100
AcDbEntity
  8
0
  6
Continuous
 62
     7
100
AcDbEllipse
 10
-55.71997067450237
 20
17.01011096529778
 30
0.0
 11
0.5120000000000056
 21
2.508277496610003
 31
-0.0000000000000002
210
0.0
220
0.0000000000000001
230
1.0
 40
0.4082482904638626
 41
0.0000000000000056
 42
3.14159265358979
  0
ELLIPSE
  5
54F5
330
549F
100
AcDbEntity
  8
0
  6
Continuous
 62
     7
100
AcDbEllipse
 10
-68.59972222514596
 20
59.8055001248349
 30
0.0
 11
5.799999999999998
 21
0.000000000181688
 31
-0.0000000000000003
210
0.0000000000000001
220
0.0000000000000001
230
1.0
 40
0.4082482905160722
 41
4.248741371371095
 42
6.283185307179588
  0
ELLIPSE
  5
54F6
330
549F
100
AcDbEntity
  8
0
  6
Continuous
 62
     7
100
AcDbEllipse
 10
-68.59972222517568
 20
60.75488589115291
 30
0.0
 11
5.799999999999998
 21
0.000000000181688
 31
0.0000000000000003
210
-0.0000000000000001
220
0.0
230
1.0
 40
0.408248290516072
 41
4.405821004050576
 42
5.849795963270271
  0
ELLIPSE
  5
54F7
330
549F
100
AcDbEntity
  8
0
  6
Continuous
 62
     7
100
AcDbEllipse
 10
-68.59972222517568
 20
60.75488589115291
 30
0.0
 11
5.799999999999998
 21
0.000000000181688
 31
-0.0000000000000003
210
0.0000000000000001
220
0.0
230
1.0
 40
0.4082482905160714
 41
4.248741371371091
 42
4.405821004050576
  0
ELLIPSE
  5
54F8
330
549F
100
AcDbEntity
  8
0
  6
Continuous
 62
     7
100
AcDbEllipse
 10
-68.59972222514596
 20
59.8055001248349
 30
0.0
 11
5.799999999999998
 21
0.000000000181688
 31
0.0000000000000001
210
0.0
220
0.0000000000000001
230
1.0
 40
0.4082482905160724
 41
3.141592653589792
 42
4.248741371371093
  0
ELLIPSE
  5
54F9
330
549F
100
AcDbEntity
  8
0
  6
Continuous
 62
     7
100
AcDbEllipse
 10
-68.59972222517568
 20
60.75488589115291
 30
0.0
 11
5.799999999999998
 21
0.000000000181688
 31
0.0000000000000001
210
0.0
220
0.0000000000000001
230
1.0
 40
0.4082482905160724
 41
4.104330156402766
 42
4.248741371371093
  0
ELLIPSE
  5
54FA
330
549F
100
AcDbEntity
  8
0
  6
Continuous
 62
     7
100
AcDbEllipse
 10
-68.59972222517568
 20
60.75488589115291
 30
0.0
 11
5.799999999999998
 21
0.000000000181688
 31
-0.0000000000000005
210
0.0000000000000001
220
0.0
230
1.0
 40
0.4082482905160722
 41
3.196144516313089
 42
4.104330156402767
  0
ELLIPSE
  5
54FB
330
549F
100
AcDbEntity
  8
0
  6
Continuous
 62
     7
100
AcDbEllipse
 10
-68.59972222517554
 20
22.34127719145732
 30
0.0
 11
-5.799999999999998
 21
0.0000000001816013
 31
0.0000000000000002
210
0.0
220
0.0000000000000001
230
1.0
 40
0.4082482904116823
 41
6.283185307179584
 42
9.424777960769381
  0
ELLIPSE
  5
54FC
330
549F
100
AcDbEntity
  8
0
  6
Continuous
 62
     7
100
AcDbEllipse
 10
-71.96276846202469
 20
81.52452527281907
 30
0.0
 11
-1.264911063947244
 21
1.549193338581026
 31
0.0000000000000001
210
0.0
220
0.0
230
1.0
 40
0.816496580953569
 41
3.926990817050533
 42
5.497787143845439
  0
LINE
  5
54FD
330
549F
100
AcDbEntity
  8
0
  6
Continuous
 62
     7
100
AcDbLine
 10
-75.33297011765576
 20
84.03820666344229
 30
0.0
 11
-71.96276846196806
 21
83.35026713121582
 31
0.0
  0
ELLIPSE
  5
54FE
330
549F
100
AcDbEntity
  8
0
  6
Continuous
 62
     7
100
AcDbEllipse
 10
-75.33297011771238
 20
82.21246480504554
 30
0.0
 11
-1.264911063947229
 21
1.549193338581028
 31
-0.0000000000000001
210
0.0000000000000001
220
0.0000000000000001
230
1.0
 40
0.8164965809535729
 41
5.497787143845441
 42
6.293185974029579
  0
LINE
  5
54FF
330
549F
100
AcDbEntity
  8
0
  6
Continuous
 62
     7
100
AcDbLine
 10
-76.61046767148643
 20
83.75125220213142
 30
0.0
 11
-97.16031576176888
 21
87.94597237820637
 31
0.0
  0
ELLIPSE
  5
5500
330
549F
100
AcDbEntity
  8
0
  6
Continuous
 62
     7
100
AcDbEllipse
 10
-98.43781331562219
 20
86.92872117353671
 30
0.0
 11
-1.264911063947244
 21
1.549193338581026
 31
0.0000000000000001
210
0.0
220
0.0
230
1.0
 40
0.816496580953569
 41
4.702388313661297
 42
5.497787143845439
  0
LINE
  5
5501
330
549F
100
AcDbEntity
  8
0
  6
Continuous
 62
     7
100
AcDbLine
 10
-101.8080149712532
 20
89.44240256416
 30
0.0
 11
-98.43781331556559
 21
88.75446303193346
 31
0.0
  0
ELLIPSE
  5
5502
330
549F
100
AcDbEntity
  8
0
  6
Continuous
 62
     7
100
AcDbEllipse
 10
-101.8080149713099
 20
87.61666070576318
 30
0.0
 11
-1.264911063947257
 21
1.549193338581041
 31
0.0
210
-0.0000000000000001
220
0.0
230
1.0
 40
0.8164965809535772
 41
0.0
 42
0.7853981634607515
  0
LINE
  5
5503
330
549F
100
AcDbEntity
  8
0
  6
Continuous
 62
     7
100
AcDbLine
 10
-103.5968693533108
 20
87.9452942392089
 30
0.0
 11
-103.5968693533097
 21
87.98180907743327
 31
0.0
  0
LINE
  5
5504
330
549F
100
AcDbEntity
  8
0
  6
Continuous
 62
     7
100
AcDbLine
 10
-70.17391408002487
 20
81.15937690114895
 30
0.0
 11
-70.1739140800416
 21
80.61955471457231
 31
0.0
  0
LINE
  5
5505
330
549F
100
AcDbEntity
  8
0
  6
Continuous
 62
     7
100
AcDbLine
 10
-104.6988036526227
 20
88.1702256361577
 30
0.0
 11
-104.6988036525253
 21
91.31050163365662
 31
0.0
  0
LINE
  5
5506
330
549F
100
AcDbEntity
  8
0
  6
Continuous
 62
     7
100
AcDbLine
 10
-104.6988036525253
 20
91.31050163365662
 30
0.0
 11
-68.92171601252872
 21
84.0075342002544
 31
0.0
  0
LINE
  5
5507
330
549F
100
AcDbEntity
  8
0
  6
Continuous
 62
     7
100
AcDbLine
 10
-68.92171601252872
 20
84.0075342002544
 30
0.0
 11
-68.92171601263012
 21
80.73827859564254
 31
0.0
  0
LINE
  5
5508
330
549F
100
AcDbEntity
  8
0
  6
Continuous
 62
     7
100
AcDbLine
 10
-66.77509075412892
 20
85.76024638399355
 30
0.0
 11
-68.92171601252872
 21
84.0075342002544
 31
0.0
  0
LINE
  5
5509
330
549F
100
AcDbEntity
  8
0
  6
Continuous
 62
     7
100
AcDbLine
 10
-66.77509075412892
 20
85.76024638399355
 30
0.0
 11
-66.77509075428975
 21
80.57479820760205
 31
0.0
  0
LINE
  5
550A
330
549F
100
AcDbEntity
  8
0
  6
Continuous
 62
     7
100
AcDbLine
 10
-102.5521783941255
 20
93.06321381739572
 30
0.0
 11
-104.6988036525253
 21
91.31050163365662
 31
0.0
  0
LINE
  5
550B
330
549F
100
AcDbEntity
  8
0
  6
Continuous
 62
     7
100
AcDbLine
 10
-102.5521783941255
 20
93.06321381739572
 30
0.0
 11
-66.77509075412892
 21
85.76024638399353
 31
0.0
  0
LINE
  5
550C
330
549F
100
AcDbEntity
  8
0
  6
Continuous
 62
     7
100
AcDbLine
 10
-101.9869004095619
 20
87.61666070471621
 30
0.0
 11
-101.9869004095098
 21
89.29634321523762
 31
0.0
  0
ELLIPSE
  5
550D
330
549F
100
AcDbEntity
  8
0
  6
Continuous
 62
     7
100
AcDbEllipse
 10
-100.19804602751
 20
88.9311948435675
 30
0.0
 11
-1.264911063947228
 21
1.549193338581053
 31
0.0
210
0.0
220
0.0
230
1.0
 40
0.8164965809535729
 41
0.6898170900533818
 42
0.7853981634607524
  0
ELLIPSE
  5
550E
330
549F
100
AcDbEntity
  8
0
  6
Continuous
 62
     7
100
AcDbEllipse
 10
-101.8080149713099
 20
87.61666070576318
 30
0.0
 11
-1.264911063947215
 21
1.549193338581041
 31
-0.0000000000000001
210
0.0
220
0.0
230
1.0
 40
0.8164965809535726
 41
5.497787143845448
 42
6.283185307179588
  0
LINE
  5
550F
330
549F
100
AcDbEntity
  8
0
  6
Continuous
 62
     9
100
AcDbLine
 10
-103.5968693533097
 20
87.98180907743329
 30
0.0
 11
-101.9869004095098
 21
89.29634321523764
 31
0.0
  0
LINE
  5
5510
330
549F
100
AcDbEntity
  8
0
  6
Continuous
 62
     7
100
AcDbLine
 10
-71.3545579731815
 20
80.32813627755585
 30
0.0
 11
-71.3545579731815
 21
82.56884961493668
 31
0.0
  0
LINE
  5
5511
330
549F
100
AcDbEntity
  8
0
  6
Continuous
 62
     7
100
AcDbLine
 10
-71.3545579731815
 20
82.56884961493668
 30
0.0
 11
-71.26511525408149
 21
82.6418792892707
 31
0.0
  0
LINE
  5
5512
330
549F
100
AcDbEntity
  8
0
  6
Continuous
 62
     7
100
AcDbLine
 10
-71.26511525408152
 20
80.3584892069635
 30
0.0
 11
-71.26511525408152
 21
82.6418792892707
 31
0.0
  0
LINE
  5
5513
330
549F
100
AcDbEntity
  8
0
  6
Continuous
 62
     7
100
AcDbLine
 10
-101.1032985572776
 20
88.64128585839178
 30
0.0
 11
-71.3545579731815
 21
82.56884961493668
 31
0.0
  0
LINE
  5
5514
330
549F
100
AcDbEntity
  8
0
  6
Continuous
 62
     7
100
AcDbLine
 10
-101.2029237824005
 20
89.31888884244804
 30
0.0
 11
-101.1032985572776
 21
88.6412858583918
 31
0.0
  0
LINE
  5
5515
330
549F
100
AcDbEntity
  8
0
  6
Continuous
 62
     7
100
AcDbLine
 10
-71.26511525408152
 20
82.6418792892707
 30
0.0
 11
-71.81341430801906
 21
83.31340574356962
 31
0.0
  0
LINE
  5
5516
330
549F
100
AcDbEntity
  8
0
  6
Continuous
 62
     7
100
AcDbLine
 10
-101.1032985572776
 20
87.43629623189331
 30
0.0
 11
-101.1032985572776
 21
88.64128585839178
 31
0.0
  0
LINE
  5
5517
330
549F
100
AcDbEntity
  8
0
  6
Continuous
 62
     7
100
AcDbLine
 10
-101.3357574154987
 20
87.48374669762926
 30
0.0
 11
-101.3357574154987
 21
89.34600339426223
 31
0.0
  0
ELLIPSE
  5
5518
330
549F
100
AcDbEntity
  8
0
  6
Continuous
 62
     7
100
AcDbEllipse
 10
-68.59972222490118
 20
59.80550012503474
 30
0.0
 11
6.000000000000002
 21
0.0
 31
0.0
210
0.0
220
0.0000000000000001
230
1.0
 40
0.408248290463863
 41
2.882671111755698
 42
3.141592653589794
  0
ELLIPSE
  5
5519
330
549F
100
AcDbEntity
  8
0
  6
Continuous
 62
     7
100
AcDbEllipse
 10
-68.59972222490118
 20
59.80550012503474
 30
0.0
 11
6.000000000000002
 21
0.0
 31
0.0
210
0.0
220
0.0000000000000001
230
1.0
 40
0.408248290463863
 41
3.141592653589792
 42
6.283185307179584
  0
ELLIPSE
  5
551A
330
549F
100
AcDbEntity
  8
0
  6
Continuous
 62
     7
100
AcDbEllipse
 10
-68.59972222490118
 20
23.29066295802368
 30
0.0
 11
-6.000000000000002
 21
0.0
 31
0.0
210
0.0
220
0.0000000000000001
230
1.0
 40
0.4082482904638633
 41
0.0000000000000006
 42
3.141592653589794
  0
ELLIPSE
  5
551B
330
549F
100
AcDbEntity
  8
0
  6
Continuous
 62
     7
100
AcDbEllipse
 10
-68.59972222490118
 20
59.80550012503474
 30
0.0
 11
6.000000000000002
 21
0.0
 31
0.0
210
0.0
220
0.0000000000000001
230
1.0
 40
0.408248290463863
 41
6.28318530717958
 42
6.343494621679441
  0
LINE
  5
551C
330
549F
100
AcDbEntity
  8
0
  6
Continuous
 62
     7
100
AcDbLine
 10
-74.59972222490117
 20
61.5779675539315
 30
0.0
 11
-74.86071256190058
 21
61.63124198338529
 31
0.0
  0
LINE
  5
551D
330
549F
100
AcDbEntity
  8
0
  6
Continuous
 62
     7
100
AcDbLine
 10
-74.86071256190058
 20
61.63124198338529
 30
0.0
 11
-74.59972222490117
 21
61.84433970120045
 31
0.0
  0
LINE
  5
551E
330
549F
100
AcDbEntity
  8
0
  6
Continuous
 62
     7
100
AcDbLine
 10
-109.9222584490973
 20
14.01589431760286
 30
0.0
 11
-109.9222584490973
 21
87.045568651625
 31
0.0
  0
LINE
  5
551F
330
549F
100
AcDbEntity
  8
0
  6
Continuous
 62
     7
100
AcDbLine
 10
-109.9222584490973
 20
87.04556865162501
 30
0.0
 11
-74.86071256190058
 21
79.88866056689083
 31
0.0
  0
LINE
  5
5520
330
549F
100
AcDbEntity
  8
0
  6
Continuous
 62
     7
100
AcDbLine
 10
-74.86071256190058
 20
61.63124198338529
 30
0.0
 11
-74.86071256190058
 21
79.88866056689083
 31
0.0
  0
LINE
  5
5521
330
549F
100
AcDbEntity
  8
0
  6
Continuous
 62
     7
100
AcDbLine
 10
-74.8607125619006
 20
25.11640481637423
 30
0.0
 11
-74.59972222490119
 21
25.0631303869204
 31
0.0
  0
LINE
  5
5522
330
549F
100
AcDbEntity
  8
0
  6
Continuous
 62
     7
100
AcDbLine
 10
-74.8607125619006
 20
6.858986232868677
 30
0.0
 11
-74.8607125619006
 21
25.11640481637423
 31
0.0
  0
LINE
  5
5523
330
549F
100
AcDbEntity
  8
0
  6
Continuous
 62
     7
100
AcDbLine
 10
-109.9222584490973
 20
14.01589431760286
 30
0.0
 11
-74.8607125619006
 21
6.858986232868677
 31
0.0
  0
LINE
  5
5524
330
549F
100
AcDbEntity
  8
0
  6
Continuous
 62
     7
100
AcDbLine
 10
-72.71408730350079
 20
81.64137275090737
 30
0.0
 11
-74.8607125619006
 21
79.88866056689083
 31
0.0
  0
LINE
  5
5525
330
549F
100
AcDbEntity
  8
0
  6
Continuous
 62
     7
100
AcDbLine
 10
-72.71408730350079
 20
81.64137275090737
 30
0.0
 11
-72.71408730350079
 21
79.84580027125463
 31
0.0
  0
LINE
  5
5526
330
549F
100
AcDbEntity
  8
0
  6
Continuous
 62
     7
100
AcDbLine
 10
-107.7756331906975
 20
88.79828083564154
 30
0.0
 11
-109.9222584490973
 21
87.04556865162501
 31
0.0
  0
LINE
  5
5527
330
549F
100
AcDbEntity
  8
0
  6
Continuous
 62
     7
100
AcDbLine
 10
-72.71408730350079
 20
81.64137275090737
 30
0.0
 11
-107.7756331906975
 21
88.79828083564154
 31
0.0
  0
LINE
  5
5528
330
549F
100
AcDbEntity
  8
0
  6
Continuous
 62
     7
100
AcDbLine
 10
-74.59972222490119
 20
7.072083950683871
 30
0.0
 11
-74.8607125619006
 21
6.858986232868677
 31
0.0
  0
LINE
  5
5529
330
549F
100
AcDbEntity
  8
0
  6
Continuous
 62
     7
100
AcDbLine
 10
-99.96860215013114
 20
87.25157225316609
 30
0.0
 11
-100.014549635105
 21
87.21405628878262
 31
0.0
  0
LINE
  5
552A
330
549F
100
AcDbEntity
  8
0
  6
Continuous
 62
     7
100
AcDbLine
 10
-64.30647170766625
 20
79.37745284583067
 30
0.0
 11
-64.80735093463905
 21
79.78641902221642
 31
0.0
  0
LINE
  5
552B
330
549F
100
AcDbEntity
  8
0
  6
Continuous
 62
     7
100
AcDbLine
 10
-72.39209351490115
 20
79.78641902269231
 30
0.0
 11
-72.89297274192526
 21
79.37745284636941
 31
0.0
  0
LINE
  5
552C
330
549F
100
AcDbEntity
  8
0
  6
Continuous
 62
     7
100
AcDbLine
 10
-73.39972222485075
 20
78.50109675488678
 30
0.0
 11
-73.39972222487823
 21
78.06291870886018
 31
0.0
  0
LINE
  5
552D
330
549F
100
AcDbEntity
  8
0
  6
Continuous
 62
     7
100
AcDbLine
 10
-63.79972222487825
 20
78.06291870825788
 30
0.0
 11
-63.79972222485076
 21
78.50109675428445
 31
0.0
  0
LINE
  5
552E
330
549F
100
AcDbEntity
  8
0
  6
Continuous
 62
     7
100
AcDbLine
 10
-74.59972222490117
 20
78.06291870854031
 30
0.0
 11
-74.59972222490117
 21
61.26609361171521
 31
0.0
  0
LINE
  5
552F
330
549F
100
AcDbEntity
  8
0
  6
Continuous
 62
     7
100
AcDbLine
 10
-74.59972222490119
 20
21.83006947134325
 30
0.0
 11
-74.59972222490119
 21
5.033244374518158
 31
0.0
  0
LINE
  5
5530
330
549F
100
AcDbEntity
  8
0
  6
Continuous
 62
     7
100
AcDbLine
 10
-62.79972222514595
 20
59.80550012501659
 30
0.0
 11
-62.79972222514901
 21
59.90291997480949
 31
0.0
  0
LINE
  5
5531
330
549F
100
AcDbEntity
  8
0
  6
Continuous
 62
     7
100
AcDbLine
 10
-74.39972222517204
 20
60.63893068805853
 30
0.0
 11
-74.39972222514597
 21
59.80550012465322
 31
0.0
  0
LINE
  5
5532
330
549F
100
AcDbEntity
  8
0
  6
Continuous
 62
     7
100
AcDbLine
 10
-74.39972222516548
 20
22.6635000343568
 30
0.0
 11
-74.39972222517557
 21
22.34127719163892
 31
0.0
  0
LINE
  5
5533
330
549F
100
AcDbEntity
  8
0
  6
Continuous
 62
     7
100
AcDbLine
 10
-62.79972222517554
 20
22.34127719127574
 30
0.0
 11
-62.79972222516546
 21
22.66350003354209
 31
0.0
  0
LINE
  5
5534
330
549F
100
AcDbEntity
  8
0
  6
Continuous
 62
     7
100
AcDbLine
 10
-74.59972222490117
 20
59.80550012503474
 30
0.0
 11
-74.59972222490117
 21
23.29066295802368
 31
0.0
  0
LINE
  5
5535
330
549F
100
AcDbEntity
  8
0
  6
Continuous
 62
     7
100
AcDbLine
 10
-62.59972222490118
 20
23.29066295802368
 30
0.0
 11
-62.59972222490118
 21
59.80550012503474
 31
0.0
  0
ENDBLK
  5
5536
330
549F
100
AcDbEntity
  8
0
100
AcDbBlockEnd
  0
ENDSEC
  0
SECTION
  2
ENTITIES
  0
LINE
  5
A0E
330
A
100
AcDbEntity
  8
0
  6
CENTER
 62
     1
100
AcDbLine
 10
-0.000034260175056
 20
115.7500000003396
 30
0.0
 11
-0.000034260175056
 21
126.2500000003396
 31
0.0
  0
LINE
  5
A0F
330
A
100
AcDbEntity
  8
0
  6
CENTER
 62
     1
100
AcDbLine
 10
25.49999999999993
 20
133.2500000132535
 30
0.0
 11
41.4999999999999
 21
133.2500000132535
 31
0.0
  0
LINE
  5
A10
330
A
100
AcDbEntity
  8
0
  6
CENTER
 62
     1
100
AcDbLine
 10
33.49999999999992
 20
125.2500000132535
 30
0.0
 11
33.49999999999992
 21
141.2500000132533
 31
0.0
  0
LINE
  5
A11
330
A
100
AcDbEntity
  8
0
  6
CENTER
 62
     1
100
AcDbLine
 10
-0.0000000000000853
 20
127.7500000003395
 30
0.0
 11
-0.0000000000000853
 21
114.3500000003395
 31
0.0
  0
LINE
  5
A15
330
A
100
AcDbEntity
  8
0
  6
CENTER
 62
     1
100
AcDbLine
 10
-73.20000000000013
 20
-13.0
 30
0.0
 11
-62.80000000000004
 21
-13.0
 31
0.0
  0
LINE
  5
A16
330
A
100
AcDbEntity
  8
0
  6
CENTER
 62
     1
100
AcDbLine
 10
-68.00000000000007
 20
-18.20000000000004
 30
0.0
 11
-68.00000000000007
 21
-7.800000000000008
 31
0.0
  0
LINE
  5
A17
330
A
100
AcDbEntity
  8
0
  6
CENTER
 62
     1
100
AcDbLine
 10
-73.20000000000013
 20
25.0
 30
0.0
 11
-62.80000000000004
 21
25.0
 31
0.0
  0
LINE
  5
A18
330
A
100
AcDbEntity
  8
0
  6
CENTER
 62
     1
100
AcDbLine
 10
-68.00000000000007
 20
19.79999999999985
 30
0.0
 11
-68.00000000000007
 21
30.2
 31
0.0
  0
LINE
  5
A19
330
A
100
AcDbEntity
  8
0
  6
CENTER
 62
     1
100
AcDbLine
 10
-73.20000000000013
 20
63.0
 30
0.0
 11
-62.80000000000004
 21
63.0
 31
0.0
  0
LINE
  5
A1A
330
A
100
AcDbEntity
  8
0
  6
CENTER
 62
     1
100
AcDbLine
 10
-68.00000000000007
 20
57.79999999999985
 30
0.0
 11
-68.00000000000007
 21
68.19999999999997
 31
0.0
  0
LINE
  5
A1B
330
A
100
AcDbEntity
  8
0
  6
CENTER
 62
     1
100
AcDbLine
 10
-84.00000001291401
 20
-28.29999999999933
 30
0.0
 11
-84.00000001292218
 21
64.09999999999996
 31
0.0
  0
LINE
  5
A1C
330
A
100
AcDbEntity
  8
0
  6
CENTER
 62
     1
100
AcDbLine
 10
-84.00000000019199
 20
73.0
 30
0.0
 11
-83.99999999951418
 21
78.29999999999978
 31
0.0
  0
LINE
  5
A1D
330
A
100
AcDbEntity
  8
0
  6
CENTER
 62
     1
100
AcDbLine
 10
33.49999999999992
 20
-28.29999999999933
 30
0.0
 11
33.49999999999992
 21
64.09999999999996
 31
0.0
  0
LINE
  5
A1E
330
A
100
AcDbEntity
  8
0
  6
CENTER
 62
     1
100
AcDbLine
 10
33.49999999999992
 20
73.0
 30
0.0
 11
33.49999999999992
 21
78.29999999999978
 31
0.0
  0
LINE
  5
A1F
330
A
100
AcDbEntity
  8
0
  6
CENTER
 62
     1
100
AcDbLine
 10
-0.0000282998870134
 20
-63.24999999966036
 30
0.0
 11
-0.0000282998870134
 21
-73.74999999966025
 31
0.0
  0
LINE
  5
A20
330
A
100
AcDbEntity
  8
0
  6
CENTER
 62
     1
100
AcDbLine
 10
25.49999999999993
 20
-80.74999999951939
 30
0.0
 11
41.4999999999999
 21
-80.74999999951939
 31
0.0
  0
LINE
  5
A21
330
A
100
AcDbEntity
  8
0
  6
CENTER
 62
     1
100
AcDbLine
 10
33.49999999999992
 20
-88.74999999951937
 30
0.0
 11
33.49999999999992
 21
-72.74999999951939
 31
0.0
  0
LINE
  5
A22
330
A
100
AcDbEntity
  8
0
  6
CENTER
 62
     1
100
AcDbLine
 10
-0.0000000000000853
 20
-75.24999999966036
 30
0.0
 11
-0.0000000000000853
 21
-61.84999999966084
 31
0.0
  0
LINE
  5
A23
330
A
100
AcDbEntity
  8
0
  6
CENTER
 62
     1
100
AcDbLine
 10
81.99999999999993
 20
-13.0
 30
0.0
 11
95.99999999999992
 21
-13.0
 31
0.0
  0
LINE
  5
A24
330
A
100
AcDbEntity
  8
0
  6
CENTER
 62
     1
100
AcDbLine
 10
88.99999999999989
 20
-20.0
 30
0.0
 11
88.99999999999989
 21
-6.0
 31
0.0
  0
LINE
  5
A25
330
A
100
AcDbEntity
  8
0
  6
CENTER
 62
     1
100
AcDbLine
 10
81.99999999999993
 20
25.0
 30
0.0
 11
95.99999999999992
 21
25.0
 31
0.0
  0
LINE
  5
A26
330
A
100
AcDbEntity
  8
0
  6
CENTER
 62
     1
100
AcDbLine
 10
88.99999999999989
 20
18.0
 30
0.0
 11
88.99999999999989
 21
32.0
 31
0.0
  0
LINE
  5
A27
330
A
100
AcDbEntity
  8
0
  6
CENTER
 62
     1
100
AcDbLine
 10
81.99999999999993
 20
63.0
 30
0.0
 11
95.99999999999992
 21
63.0
 31
0.0
  0
LINE
  5
A28
330
A
100
AcDbEntity
  8
0
  6
CENTER
 62
     1
100
AcDbLine
 10
88.99999999999989
 20
56.0
 30
0.0
 11
88.99999999999989
 21
70.0
 31
0.0
  0
ARC
  5
39E1
330
A
100
AcDbEntity
  8
0
  6
Continuous
 62
     9
370
     0
100
AcDbCircle
 10
104.9999996707339
 20
62.99984633096581
 30
0.0
 40
1.500000337136725
100
AcDbArc
 50
0.0058697234268451
 51
179.7485963144226
  0
ARC
  5
39E2
330
A
100
AcDbEntity
  8
0
  6
Continuous
 62
     9
370
     0
100
AcDbCircle
 10
105.0003168866859
 20
63.00031553160845
 30
0.0
 40
1.500315565074004
100
AcDbArc
 50
179.7665676718255
 51
269.9878983660273
  0
LINE
  5
39E3
330
A
100
AcDbEntity
  8
0
  6
Continuous
 62
     7
370
     0
100
AcDbLine
 10
103.4999999999999
 20
51.79999999999996
 30
0.0
 11
105.0000000007989
 21
51.79999999999996
 31
0.0
  0
LINE
  5
39E4
330
A
100
AcDbEntity
  8
0
  6
Continuous
 62
     7
370
     0
100
AcDbLine
 10
103.4999999999999
 20
51.29999999999995
 30
0.0
 11
105.0000000007989
 21
51.29999999999995
 31
0.0
  0
LINE
  5
39E5
330
A
100
AcDbEntity
  8
0
  6
Continuous
 62
     7
370
     0
100
AcDbLine
 10
105.0000000007989
 20
51.79999999999996
 30
0.0
 11
112.0000000007989
 21
51.79999999999996
 31
0.0
  0
LINE
  5
39E6
330
A
100
AcDbEntity
  8
0
  6
Continuous
 62
     7
370
     0
100
AcDbLine
 10
105.0000000007989
 20
51.29999999999995
 30
0.0
 11
112.0000000007989
 21
51.29999999999995
 31
0.0
  0
LINE
  5
39E7
330
A
100
AcDbEntity
  8
0
  6
Continuous
 62
     7
370
     0
100
AcDbLine
 10
112.0000000007989
 20
-1.799999999939128
 30
0.0
 11
105.0633960948229
 21
-1.799999999999329
 31
0.0
  0
LINE
  5
39E8
330
A
100
AcDbEntity
  8
0
  6
Continuous
 62
     7
370
     0
100
AcDbLine
 10
112.0000000007948
 20
-1.299999999939126
 30
0.0
 11
105.0633960948188
 21
-1.299999999999329
 31
0.0
  0
LINE
  5
39E9
330
A
100
AcDbEntity
  8
0
  6
Continuous
 62
     7
370
     0
100
AcDbLine
 10
105.0633960948188
 20
-1.299999999999329
 30
0.0
 11
103.4999999999999
 21
-1.300000000012971
 31
0.0
  0
LINE
  5
39EA
330
A
100
AcDbEntity
  8
0
  6
Continuous
 62
     7
370
     0
100
AcDbLine
 10
105.0633960948229
 20
-1.799999999999329
 30
0.0
 11
103.4999999999999
 21
-1.800000000012969
 31
0.0
  0
LINE
  5
39EB
330
A
100
AcDbEntity
  8
0
  6
Continuous
 62
     9
370
     0
100
AcDbLine
 10
97.09999999999986
 20
-22.0
 30
0.0
 11
97.49999999999992
 21
-22.0
 31
0.0
  0
LINE
  5
39EC
330
A
100
AcDbEntity
  8
0
  6
Continuous
 62
     9
370
     0
100
AcDbLine
 10
97.49999999999992
 20
72.0
 30
0.0
 11
97.09999999999986
 21
72.0
 31
0.0
  0
LINE
  5
39ED
330
A
100
AcDbEntity
  8
0
  6
Continuous
 62
     7
370
     0
100
AcDbLine
 10
97.09999999999986
 20
-22.0
 30
0.0
 11
97.09999999999986
 21
72.0
 31
0.0
  0
LINE
  5
39EE
330
A
100
AcDbEntity
  8
0
  6
Continuous
 62
     7
370
     0
100
AcDbLine
 10
97.09999999999986
 20
73.99999999999976
 30
0.0
 11
97.49999999999992
 21
73.99999999999976
 31
0.0
  0
LINE
  5
39EF
330
A
100
AcDbEntity
  8
0
  6
Continuous
 62
     7
370
     0
100
AcDbLine
 10
97.09999999999986
 20
72.0
 30
0.0
 11
97.09999999999986
 21
73.99999999999976
 31
0.0
  0
LINE
  5
39F0
330
A
100
AcDbEntity
  8
0
  6
Continuous
 62
     7
370
     0
100
AcDbLine
 10
97.49999999999992
 20
-24.0
 30
0.0
 11
97.09999999999986
 21
-24.0
 31
0.0
  0
LINE
  5
39F1
330
A
100
AcDbEntity
  8
0
  6
Continuous
 62
     7
370
     0
100
AcDbLine
 10
97.09999999999986
 20
-24.0
 30
0.0
 11
97.09999999999986
 21
-22.0
 31
0.0
  0
LINE
  5
39F2
330
A
100
AcDbEntity
  8
0
  6
Continuous
 62
     9
370
     0
100
AcDbLine
 10
89.0999999999998
 20
69.25
 30
0.0
 11
88.89999999719782
 21
69.25
 31
0.0
  0
LINE
  5
39F3
330
A
100
AcDbEntity
  8
0
  6
Continuous
 62
     7
370
     0
100
AcDbLine
 10
89.0999999999998
 20
69.25
 30
0.0
 11
89.0999999999998
 21
-19.25
 31
0.0
  0
LINE
  5
39F4
330
A
100
AcDbEntity
  8
0
  6
Continuous
 62
     9
370
     0
100
AcDbLine
 10
88.90000000280101
 20
-19.25
 30
0.0
 11
89.0999999999998
 21
-19.25
 31
0.0
  0
LINE
  5
39F5
330
A
100
AcDbEntity
  8
0
  6
Continuous
 62
     7
370
     0
100
AcDbLine
 10
88.89999999707184
 20
71.24999999999984
 30
0.0
 11
89.0999999999998
 21
71.24999999999984
 31
0.0
  0
LINE
  5
39F6
330
A
100
AcDbEntity
  8
0
  6
Continuous
 62
     7
370
     0
100
AcDbLine
 10
89.0999999999998
 20
71.24999999999984
 30
0.0
 11
89.0999999999998
 21
69.25
 31
0.0
  0
LINE
  5
39F7
330
A
100
AcDbEntity
  8
0
  6
Continuous
 62
     7
370
     0
100
AcDbLine
 10
89.0999999999998
 20
-21.25
 30
0.0
 11
88.90000000292792
 21
-21.25
 31
0.0
  0
LINE
  5
39F8
330
A
100
AcDbEntity
  8
0
  6
Continuous
 62
     7
370
     0
100
AcDbLine
 10
89.0999999999998
 20
-19.25
 30
0.0
 11
89.0999999999998
 21
-21.25
 31
0.0
  0
LINE
  5
39F9
330
A
100
AcDbEntity
  8
0
  6
Continuous
 62
     7
370
     0
100
AcDbLine
 10
105.7499999999999
 20
62.56698729810796
 30
0.0
 11
104.9999999999999
 21
62.13397459621565
 31
0.0
  0
LINE
  5
39FA
330
A
100
AcDbEntity
  8
0
  6
Continuous
 62
     7
370
     0
100
AcDbLine
 10
105.7499999999999
 20
63.43301270189233
 30
0.0
 11
105.7499999999999
 21
62.56698729810796
 31
0.0
  0
LINE
  5
39FB
330
A
100
AcDbEntity
  8
0
  6
Continuous
 62
     7
370
     0
100
AcDbLine
 10
104.9999999999999
 20
63.86602540378452
 30
0.0
 11
105.7499999999999
 21
63.43301270189233
 31
0.0
  0
LINE
  5
39FC
330
A
100
AcDbEntity
  8
0
  6
Continuous
 62
     7
370
     0
100
AcDbLine
 10
104.2499999999999
 20
63.43301270189233
 30
0.0
 11
104.9999999999999
 21
63.86602540378452
 31
0.0
  0
LINE
  5
39FD
330
A
100
AcDbEntity
  8
0
  6
Continuous
 62
     7
370
     0
100
AcDbLine
 10
104.2499999999999
 20
62.56698729810796
 30
0.0
 11
104.2499999999999
 21
63.43301270189233
 31
0.0
  0
LINE
  5
39FE
330
A
100
AcDbEntity
  8
0
  6
Continuous
 62
     7
370
     0
100
AcDbLine
 10
104.9999999999999
 20
62.13397459621565
 30
0.0
 11
104.2499999999999
 21
62.56698729810796
 31
0.0
  0
CIRCLE
  5
39FF
330
A
100
AcDbEntity
  8
0
  6
Continuous
 62
     7
370
     0
100
AcDbCircle
 10
104.9999999999999
 20
63.00000000000011
 30
0.0
 40
1.0
  0
LINE
  5
3A00
330
A
100
AcDbEntity
  8
0
  6
Continuous
 62
     7
370
     0
100
AcDbLine
 10
99.00000001291385
 20
-25.59999999999894
 30
0.0
 11
111.0000000129138
 21
-25.59999999999974
 31
0.0
  0
LINE
  5
3A01
330
A
100
AcDbEntity
  8
0
  6
Continuous
 62
     7
370
     0
100
AcDbLine
 10
110.3000000129137
 20
-26.29999999999973
 30
0.0
 11
99.70000001291383
 21
-26.29999999999893
 31
0.0
  0
LINE
  5
3A02
330
A
100
AcDbEntity
  8
0
  6
Continuous
 62
     7
370
     0
100
AcDbLine
 10
110.9999999998589
 20
75.60000000076851
 30
0.0
 11
98.99999999985894
 21
75.59999999923149
 31
0.0
  0
LINE
  5
3A03
330
A
100
AcDbEntity
  8
0
  6
Continuous
 62
     7
370
     0
100
AcDbLine
 10
99.69999999976892
 20
76.299999999321
 30
0.0
 11
110.2999999997688
 21
76.30000000067879
 31
0.0
  0
LINE
  5
3A04
330
A
100
AcDbEntity
  8
0
  6
Continuous
 62
     7
370
     0
100
AcDbLine
 10
95.99999999999992
 20
57.35000000026701
 30
0.0
 11
95.99999999999992
 21
48.50016696959971
 31
0.0
  0
LINE
  5
3A05
330
A
100
AcDbEntity
  8
0
  6
Continuous
 62
     7
370
     0
100
AcDbLine
 10
89.49999999999993
 20
57.35000000026701
 30
0.0
 11
89.49999999999993
 21
48.50016696959971
 31
0.0
  0
LINE
  5
3A06
330
A
100
AcDbEntity
  8
0
  6
Continuous
 62
     7
370
     0
100
AcDbLine
 10
95.99999999999992
 20
48.50016696959971
 30
0.0
 11
95.99999999999992
 21
39.65000000026662
 31
0.0
  0
LINE
  5
3A07
330
A
100
AcDbEntity
  8
0
  6
Continuous
 62
     7
370
     0
100
AcDbLine
 10
89.49999999999993
 20
48.50016696959971
 30
0.0
 11
89.49999999999993
 21
39.65000000026662
 31
0.0
  0
LINE
  5
3A08
330
A
100
AcDbEntity
  8
0
  6
Continuous
 62
     7
370
     0
100
AcDbLine
 10
95.99999999999992
 20
7.350000000391174
 30
0.0
 11
95.99999999999992
 21
-1.499797864575208
 31
0.0
  0
LINE
  5
3A09
330
A
100
AcDbEntity
  8
0
  6
Continuous
 62
     7
370
     0
100
AcDbLine
 10
89.49999999999993
 20
7.350000000391174
 30
0.0
 11
89.49999999999993
 21
-1.499797864575208
 31
0.0
  0
LINE
  5
3A0A
330
A
100
AcDbEntity
  8
0
  6
Continuous
 62
     7
370
     0
100
AcDbLine
 10
95.99999999999992
 20
-1.499797864575208
 30
0.0
 11
95.99999999999992
 21
-10.34999999960889
 31
0.0
  0
LINE
  5
3A0B
330
A
100
AcDbEntity
  8
0
  6
Continuous
 62
     7
370
     0
100
AcDbLine
 10
89.49999999999993
 20
-1.499797864575208
 30
0.0
 11
89.49999999999993
 21
-10.34999999960889
 31
0.0
  0
LINE
  5
3A0C
330
A
100
AcDbEntity
  8
0
  6
Continuous
 62
     7
370
     0
100
AcDbLine
 10
112.4999999999999
 20
52.0
 30
0.0
 11
103.4999999999999
 21
52.0
 31
0.0
  0
LINE
  5
3A0D
330
A
100
AcDbEntity
  8
0
  6
Continuous
 62
     7
370
     0
100
AcDbLine
 10
103.4999999999999
 20
75.0
 30
0.0
 11
112.4999999999999
 21
75.0
 31
0.0
  0
CIRCLE
  5
3A0E
330
A
100
AcDbEntity
  8
0
  6
Continuous
 62
     7
370
     0
100
AcDbCircle
 10
105.0000022641308
 20
63.00000456528977
 30
0.0
 40
1.249997735876757
  0
LINE
  5
3A0F
330
A
100
AcDbEntity
  8
0
  6
Continuous
 62
     7
370
     0
100
AcDbLine
 10
103.4999999999999
 20
-25.0
 30
0.0
 11
112.4999999999999
 21
-25.0
 31
0.0
  0
LINE
  5
3A10
330
A
100
AcDbEntity
  8
0
  6
Continuous
 62
     7
370
     0
100
AcDbLine
 10
103.4999999999999
 20
-2.0
 30
0.0
 11
112.4999999999999
 21
-2.0
 31
0.0
  0
LINE
  5
3A11
330
A
100
AcDbEntity
  8
0
  6
Continuous
 62
     9
370
     0
100
AcDbLine
 10
96.49999999999993
 20
54.89999999999998
 30
0.0
 11
96.49999999999993
 21
75.0
 31
0.0
  0
LINE
  5
3A12
330
A
100
AcDbEntity
  8
0
  6
Continuous
 62
     7
370
     0
100
AcDbLine
 10
97.49999999999992
 20
75.0
 30
0.0
 11
96.49999999999993
 21
75.0
 31
0.0
  0
LINE
  5
3A13
330
A
100
AcDbEntity
  8
0
  6
Continuous
 62
     9
370
     0
100
AcDbLine
 10
96.49999999999993
 20
-25.0
 30
0.0
 11
96.49999999999993
 21
-4.90000000000003
 31
0.0
  0
LINE
  5
3A14
330
A
100
AcDbEntity
  8
0
  6
Continuous
 62
     7
370
     0
100
AcDbLine
 10
97.49999999999992
 20
-25.0
 30
0.0
 11
96.49999999999993
 21
-25.0
 31
0.0
  0
ARC
  5
3A15
330
A
100
AcDbEntity
  8
0
  6
Continuous
 62
     7
370
     0
100
AcDbCircle
 10
88.99999999999989
 20
-13.0
 30
0.0
 40
4.999999999999987
100
AcDbArc
 50
84.26082952272535
 51
88.85400800161246
  0
ARC
  5
3A16
330
A
100
AcDbEntity
  8
0
  6
Continuous
 62
     7
370
     0
100
AcDbCircle
 10
88.99999999999989
 20
-13.0
 30
0.0
 40
5.000000000000039
100
AcDbArc
 50
271.1459919983876
 51
32.00545483305437
  0
ARC
  5
3A17
330
A
100
AcDbEntity
  8
0
  6
Continuous
 62
     7
370
     0
100
AcDbCircle
 10
88.99999999999989
 20
63.0
 30
0.0
 40
5.000000000000015
100
AcDbArc
 50
271.1459919983876
 51
88.85400800161246
  0
ARC
  5
3A18
330
A
100
AcDbEntity
  8
0
  6
Continuous
 62
     7
370
     0
100
AcDbCircle
 10
88.99999999999989
 20
25.0
 30
0.0
 40
4.999999999999987
100
AcDbArc
 50
271.1459919983876
 51
88.85400800161246
  0
LINE
  5
3A19
330
A
100
AcDbEntity
  8
0
  6
Continuous
 62
     7
370
     0
100
AcDbLine
 10
80.99999999999992
 20
-25.0
 30
0.0
 11
80.99999999999992
 21
75.0
 31
0.0
  0
LINE
  5
3A1A
330
A
100
AcDbEntity
  8
0
  6
Continuous
 62
     7
370
     0
100
AcDbLine
 10
96.19999999999992
 20
45.09999999999997
 30
0.0
 11
96.19999999999992
 21
4.899999999999978
 31
0.0
  0
LINE
  5
3A1B
330
A
100
AcDbEntity
  8
0
  6
Continuous
 62
     7
370
     0
100
AcDbLine
 10
80.99999999999992
 20
-25.0
 30
0.0
 11
82.90000000316481
 21
-25.0
 31
0.0
  0
LINE
  5
3A1C
330
A
100
AcDbEntity
  8
0
  6
Continuous
 62
     7
370
     0
100
AcDbLine
 10
88.90000000316481
 20
-25.0
 30
0.0
 11
96.49999999999993
 21
-25.0
 31
0.0
  0
LINE
  5
3A1D
330
A
100
AcDbEntity
  8
0
  6
Continuous
 62
     7
370
     0
100
AcDbLine
 10
80.99999999999992
 20
75.0
 30
0.0
 11
82.89999999683383
 21
75.0
 31
0.0
  0
LINE
  5
3A1E
330
A
100
AcDbEntity
  8
0
  6
Continuous
 62
     7
370
     0
100
AcDbLine
 10
88.89999999683382
 20
75.0
 30
0.0
 11
96.49999999999993
 21
75.0
 31
0.0
  0
ARC
  5
3A1F
330
A
100
AcDbEntity
  8
0
  6
Continuous
 62
     7
370
     0
100
AcDbCircle
 10
88.99999999999989
 20
63.0
 30
0.0
 40
3.199999999999976
100
AcDbArc
 50
271.7907846593289
 51
0.0
  0
ARC
  5
3A20
330
A
100
AcDbEntity
  8
0
  6
Continuous
 62
     7
370
     0
100
AcDbCircle
 10
88.99999999999989
 20
63.0
 30
0.0
 40
3.200000000000021
100
AcDbArc
 50
0.0
 51
88.20921534067101
  0
ARC
  5
3A21
330
A
100
AcDbEntity
  8
0
  6
Continuous
 62
     7
370
     0
100
AcDbCircle
 10
88.99999999999989
 20
25.0
 30
0.0
 40
3.199999999999976
100
AcDbArc
 50
271.7907846593289
 51
0.0
  0
ARC
  5
3A22
330
A
100
AcDbEntity
  8
0
  6
Continuous
 62
     7
370
     0
100
AcDbCircle
 10
88.99999999999989
 20
25.0
 30
0.0
 40
3.199999999999993
100
AcDbArc
 50
0.0
 51
88.20921534067101
  0
ARC
  5
3A23
330
A
100
AcDbEntity
  8
0
  6
Continuous
 62
     7
370
     0
100
AcDbCircle
 10
88.99999999999989
 20
-13.0
 30
0.0
 40
3.199999999999976
100
AcDbArc
 50
271.7907846593289
 51
0.0
  0
ARC
  5
3A24
330
A
100
AcDbEntity
  8
0
  6
Continuous
 62
     7
370
     0
100
AcDbCircle
 10
88.99999999999989
 20
-13.0
 30
0.0
 40
3.199999999999993
100
AcDbArc
 50
81.01070065483716
 51
88.20921534067101
  0
ARC
  5
3A25
330
A
100
AcDbEntity
  8
0
  6
Continuous
 62
     7
370
     0
100
AcDbCircle
 10
88.99999999999989
 20
-13.0
 30
0.0
 40
3.200000000000004
100
AcDbArc
 50
0.0
 51
55.90660920112082
  0
LINE
  5
3A26
330
A
100
AcDbEntity
  8
0
  6
Continuous
 62
     7
370
     0
100
AcDbLine
 10
112.2500000006838
 20
49.99999999953644
 30
0.0
 11
104.9999999999999
 21
50.0
 31
0.0
  0
LINE
  5
3A27
330
A
100
AcDbEntity
  8
0
  6
Continuous
 62
     7
370
     0
100
AcDbLine
 10
104.4999999999999
 20
50.000000000032
 30
0.0
 11
103.4999999999999
 21
50.00000000009571
 31
0.0
  0
LINE
  5
3A28
330
A
100
AcDbEntity
  8
0
  6
Continuous
 62
     7
370
     0
100
AcDbLine
 10
112.250000000767
 20
51.29999999953634
 30
0.0
 11
103.4999999999999
 21
51.30000000009594
 31
0.0
  0
LINE
  5
3A29
330
A
100
AcDbEntity
  8
0
  6
Continuous
 62
     7
370
     0
100
AcDbLine
 10
103.4999999999999
 20
-0.000000000095838
 30
0.0
 11
104.4999999999999
 21
-0.0000000000321201
 31
0.0
  0
LINE
  5
3A2A
330
A
100
AcDbEntity
  8
0
  6
Continuous
 62
     7
370
     0
100
AcDbLine
 10
104.9999999999999
 20
0.0
 30
0.0
 11
112.2500000006838
 21
0.0000000004633272
 31
0.0
  0
LINE
  5
3A2B
330
A
100
AcDbEntity
  8
0
  6
Continuous
 62
     7
370
     0
100
AcDbLine
 10
103.4999999999999
 20
-1.300000000096076
 30
0.0
 11
112.250000000767
 21
-1.299999999536737
 31
0.0
  0
LINE
  5
3A2C
330
A
100
AcDbEntity
  8
0
  6
Continuous
 62
     7
370
     0
100
AcDbLine
 10
82.90000000316481
 20
-25.00000000037994
 30
0.0
 11
88.90000000316481
 21
-25.0
 31
0.0
  0
LINE
  5
3A2D
330
A
100
AcDbEntity
  8
0
  6
Continuous
 62
     7
370
     0
100
AcDbLine
 10
88.90000000316481
 20
-25.0
 30
0.0
 11
88.89999999683382
 21
75.0
 31
0.0
  0
LINE
  5
3A2E
330
A
100
AcDbEntity
  8
0
  6
Continuous
 62
     7
370
     0
100
AcDbLine
 10
82.89999999683383
 20
74.99999999962006
 30
0.0
 11
88.89999999683382
 21
75.0
 31
0.0
  0
LINE
  5
3A2F
330
A
100
AcDbEntity
  8
0
  6
Continuous
 62
     7
370
     0
100
AcDbLine
 10
82.90000000316481
 20
-25.00000000037994
 30
0.0
 11
82.89999999683383
 21
74.99999999962006
 31
0.0
  0
LINE
  5
3A30
330
A
100
AcDbEntity
  8
0
  6
Continuous
 62
     7
370
     0
100
AcDbLine
 10
97.49999999999992
 20
-25.0
 30
0.0
 11
103.4999999999999
 21
-25.0
 31
0.0
  0
LINE
  5
3A31
330
A
100
AcDbEntity
  8
0
  6
Continuous
 62
     7
370
     0
100
AcDbLine
 10
97.49999999999992
 20
-25.0
 30
0.0
 11
97.49999999999992
 21
75.0
 31
0.0
  0
LINE
  5
3A32
330
A
100
AcDbEntity
  8
0
  6
Continuous
 62
     7
370
     0
100
AcDbLine
 10
97.49999999999992
 20
75.0
 30
0.0
 11
103.4999999999999
 21
75.0
 31
0.0
  0
LINE
  5
3A33
330
A
100
AcDbEntity
  8
0
  6
Continuous
 62
     7
370
     0
100
AcDbLine
 10
103.4999999999999
 20
-25.0
 30
0.0
 11
103.4999999999999
 21
75.0
 31
0.0
  0
LINE
  5
3A34
330
A
100
AcDbEntity
  8
0
  6
Continuous
 62
     9
370
     0
100
AcDbLine
 10
104.4999999999999
 20
0.0
 30
0.0
 11
104.4999999999999
 21
50.0
 31
0.0
  0
LINE
  5
3A35
330
A
100
AcDbEntity
  8
0
  6
Continuous
 62
     7
370
     0
100
AcDbLine
 10
104.4999999999999
 20
0.0
 30
0.0
 11
103.4999999999999
 21
0.0
 31
0.0
  0
LINE
  5
3A36
330
A
100
AcDbEntity
  8
0
  6
Continuous
 62
     7
370
     0
100
AcDbLine
 10
103.4999999999999
 20
50.0
 30
0.0
 11
104.4999999999999
 21
50.0
 31
0.0
  0
LINE
  5
3A38
330
A
100
AcDbEntity
  8
0
  6
Continuous
 62
     7
370
     0
100
AcDbLine
 10
104.4999999999999
 20
0.0
 30
0.0
 11
104.9999999999999
 21
0.0
 31
0.0
  0
LINE
  5
3A39
330
A
100
AcDbEntity
  8
0
  6
Continuous
 62
     7
370
     0
100
AcDbLine
 10
104.9999999999999
 20
50.0
 30
0.0
 11
104.4999999999999
 21
50.0
 31
0.0
  0
LINE
  5
3A3A
330
A
100
AcDbEntity
  8
0
  6
Continuous
 62
     7
370
     0
100
AcDbLine
 10
112.4999999999999
 20
50.0
 30
0.0
 11
104.9999999999999
 21
50.0
 31
0.0
  0
LINE
  5
3A3B
330
A
100
AcDbEntity
  8
0
  6
Continuous
 62
     7
370
     0
100
AcDbLine
 10
104.9999999999999
 20
0.0
 30
0.0
 11
112.4999999999999
 21
0.0
 31
0.0
  0
LINE
  5
3A3C
330
A
100
AcDbEntity
  8
0
  6
Continuous
 62
     7
370
     0
100
AcDbLine
 10
112.0000000007989
 20
51.29999999999995
 30
0.0
 11
112.0000000007989
 21
51.79999999999996
 31
0.0
  0
LINE
  5
3A3D
330
A
100
AcDbEntity
  8
0
  6
Continuous
 62
     7
370
     0
100
AcDbLine
 10
112.0000000007989
 20
-1.799999999939128
 30
0.0
 11
112.0000000007948
 21
-1.299999999939126
 31
0.0
  0
LINE
  5
3A3E
330
A
100
AcDbEntity
  8
0
  6
Continuous
 62
     7
370
     0
100
AcDbLine
 10
89.49999999999871
 20
53.00000000000101
 30
0.0
 11
89.0999999999998
 21
53.00000000000101
 31
0.0
  0
LINE
  5
3A3F
330
A
100
AcDbEntity
  8
0
  6
Continuous
 62
     7
370
     0
100
AcDbLine
 10
89.0999999999998
 20
47.00000000000095
 30
0.0
 11
89.49999999999871
 21
47.00000000000095
 31
0.0
  0
LINE
  5
3A40
330
A
100
AcDbEntity
  8
0
  6
Continuous
 62
     7
370
     0
100
AcDbLine
 10
89.49999999999993
 20
3.0
 30
0.0
 11
89.0999999999998
 21
3.0
 31
0.0
  0
LINE
  5
3A41
330
A
100
AcDbEntity
  8
0
  6
Continuous
 62
     7
370
     0
100
AcDbLine
 10
89.0999999999998
 20
-3.0
 30
0.0
 11
89.49999999999993
 21
-3.0
 31
0.0
  0
LINE
  5
3A42
330
A
100
AcDbEntity
  8
0
  6
Continuous
 62
     7
370
     0
100
AcDbLine
 10
99.00000001291385
 20
-25.59999999999894
 30
0.0
 11
99.70000001291383
 21
-26.29999999999893
 31
0.0
  0
LINE
  5
3A43
330
A
100
AcDbEntity
  8
0
  6
Continuous
 62
     7
370
     0
100
AcDbLine
 10
110.3000000129137
 20
-26.29999999999973
 30
0.0
 11
111.0000000129138
 21
-25.59999999999974
 31
0.0
  0
LINE
  5
3A44
330
A
100
AcDbEntity
  8
0
  6
Continuous
 62
     7
370
     0
100
AcDbLine
 10
111.0000000129138
 20
-25.59999999999974
 30
0.0
 11
111.0000000129138
 21
-24.99999999999989
 31
0.0
  0
LINE
  5
3A45
330
A
100
AcDbEntity
  8
0
  6
Continuous
 62
     7
370
     0
100
AcDbLine
 10
99.00000001291385
 20
-24.99999999999898
 30
0.0
 11
99.00000001291385
 21
-25.59999999999894
 31
0.0
  0
LINE
  5
3A46
330
A
100
AcDbEntity
  8
0
  6
Continuous
 62
     7
370
     0
100
AcDbLine
 10
110.9999999998589
 20
75.60000000076851
 30
0.0
 11
110.2999999997688
 21
76.30000000067879
 31
0.0
  0
LINE
  5
3A47
330
A
100
AcDbEntity
  8
0
  6
Continuous
 62
     7
370
     0
100
AcDbLine
 10
99.69999999976892
 20
76.299999999321
 30
0.0
 11
98.99999999985894
 21
75.59999999923149
 31
0.0
  0
LINE
  5
3A48
330
A
100
AcDbEntity
  8
0
  6
Continuous
 62
     7
370
     0
100
AcDbLine
 10
98.99999999985894
 20
75.59999999923149
 30
0.0
 11
98.99999999993601
 21
74.99999999923147
 31
0.0
  0
LINE
  5
3A49
330
A
100
AcDbEntity
  8
0
  6
Continuous
 62
     7
370
     0
100
AcDbLine
 10
110.999999999936
 20
75.0000000007683
 30
0.0
 11
110.9999999998589
 21
75.60000000076851
 31
0.0
  0
LINE
  5
3A4A
330
A
100
AcDbEntity
  8
0
  6
Continuous
 62
     7
370
     0
100
AcDbLine
 10
109.0000000098008
 20
-2.0
 30
0.0
 11
109.0000000097749
 21
-1.799999999963571
 31
0.0
  0
LINE
  5
3A4B
330
A
100
AcDbEntity
  8
0
  6
Continuous
 62
     7
370
     0
100
AcDbLine
 10
109.000000002908
 20
51.79999999999996
 30
0.0
 11
109.000000002883
 21
52.0
 31
0.0
  0
LINE
  5
3A4C
330
A
100
AcDbEntity
  8
0
  6
Continuous
 62
     7
370
     0
100
AcDbLine
 10
95.99999999999992
 20
57.35000000026701
 30
0.0
 11
89.49999999999993
 21
57.35000000026701
 31
0.0
  0
LINE
  5
3A4D
330
A
100
AcDbEntity
  8
0
  6
Continuous
 62
     7
370
     0
100
AcDbLine
 10
89.49999999999993
 20
39.65000000026686
 30
0.0
 11
95.99999999999992
 21
39.65000000026686
 31
0.0
  0
LINE
  5
3A4E
330
A
100
AcDbEntity
  8
0
  6
Continuous
 62
     7
370
     0
100
AcDbLine
 10
95.99999999999992
 20
7.350000000391174
 30
0.0
 11
89.49999999999993
 21
7.350000000391174
 31
0.0
  0
LINE
  5
3A4F
330
A
100
AcDbEntity
  8
0
  6
Continuous
 62
     7
370
     0
100
AcDbLine
 10
89.49999999999993
 20
-10.34999999960889
 30
0.0
 11
95.99999999999992
 21
-10.34999999960889
 31
0.0
  0
LINE
  5
3A50
330
A
100
AcDbEntity
  8
0
  6
Continuous
 62
     7
370
     0
100
AcDbLine
 10
112.4999999999999
 20
52.0
 30
0.0
 11
112.4999999999999
 21
75.0
 31
0.0
  0
LINE
  5
3A51
330
A
100
AcDbEntity
  8
0
  6
Continuous
 62
     7
370
     0
100
AcDbLine
 10
112.4999999999999
 20
-25.0
 30
0.0
 11
112.4999999999999
 21
-2.0
 31
0.0
  0
LINE
  5
3A52
330
A
100
AcDbEntity
  8
0
  6
Continuous
 62
     7
370
     0
100
AcDbLine
 10
112.2500000006838
 20
49.99999999953644
 30
0.0
 11
112.250000000767
 21
51.29999999953634
 31
0.0
  0
LINE
  5
3A53
330
A
100
AcDbEntity
  8
0
  6
Continuous
 62
     7
370
     0
100
AcDbLine
 10
112.250000000767
 20
-1.299999999536678
 30
0.0
 11
112.2500000006838
 21
0.0000000004633272
 31
0.0
  0
LINE
  5
3A54
330
A
100
AcDbEntity
  8
0
  6
Continuous
 62
     7
370
     0
100
AcDbLine
 10
95.99999999999992
 20
45.09999999999997
 30
0.0
 11
97.09999999999986
 21
45.09999999999997
 31
0.0
  0
LINE
  5
3A55
330
A
100
AcDbEntity
  8
0
  6
Continuous
 62
     7
370
     0
100
AcDbLine
 10
97.09999999999986
 20
54.89999999999998
 30
0.0
 11
95.99999999999992
 21
54.89999999999998
 31
0.0
  0
LINE
  5
3A56
330
A
100
AcDbEntity
  8
0
  6
Continuous
 62
     7
370
     0
100
AcDbLine
 10
95.99999999999992
 20
-4.90000000000003
 30
0.0
 11
97.09999999999986
 21
-4.90000000000003
 31
0.0
  0
LINE
  5
3A57
330
A
100
AcDbEntity
  8
0
  6
Continuous
 62
     7
370
     0
100
AcDbLine
 10
97.09999999999986
 20
4.899999999999978
 30
0.0
 11
95.99999999999992
 21
4.899999999999978
 31
0.0
  0
LINE
  5
3A58
330
A
100
AcDbEntity
  8
0
  6
Continuous
 62
     7
370
     0
100
AcDbLine
 10
112.4999999999999
 20
0.0
 30
0.0
 11
112.4999999999999
 21
50.0
 31
0.0
  0
LINE
  5
3A59
330
A
100
AcDbEntity
  8
0
  6
Continuous
 62
     9
370
     0
100
AcDbLine
 10
26.15152974898992
 20
-79.25000500966252
 30
0.0
 11
26.09257829417281
 21
-79.57522186229119
 31
0.0
  0
LINE
  5
3A5A
330
A
100
AcDbEntity
  8
0
  6
Continuous
 62
     9
370
     0
100
AcDbLine
 10
26.0926223142989
 20
-81.92505566701266
 30
0.0
 11
26.15152974898992
 21
-82.24999498966036
 31
0.0
  0
LINE
  5
3A5B
330
A
100
AcDbEntity
  8
0
  6
Continuous
 62
     9
370
     0
100
AcDbLine
 10
-22.00000000000009
 20
-72.84999999966038
 30
0.0
 11
-22.00000000000009
 21
-73.24999999966036
 31
0.0
  0
LINE
  5
3A5C
330
A
100
AcDbEntity
  8
0
  6
Continuous
 62
     9
370
     0
100
AcDbLine
 10
20.99999999999992
 20
-73.24999999966036
 30
0.0
 11
20.99999999999992
 21
-72.84999999966038
 31
0.0
  0
LINE
  5
3A5D
330
A
100
AcDbEntity
  8
0
  6
Continuous
 62
     7
370
     0
100
AcDbLine
 10
-22.00000000000009
 20
-72.84999999966038
 30
0.0
 11
20.99999999999992
 21
-72.84999999966038
 31
0.0
  0
LINE
  5
3A5E
330
A
100
AcDbEntity
  8
0
  6
Continuous
 62
     7
370
     0
100
AcDbLine
 10
22.99999999999991
 20
-72.84999999966038
 30
0.0
 11
22.99999999999991
 21
-73.24999999966036
 31
0.0
  0
LINE
  5
3A5F
330
A
100
AcDbEntity
  8
0
  6
Continuous
 62
     7
370
     0
100
AcDbLine
 10
20.99999999999992
 20
-72.84999999966038
 30
0.0
 11
22.99999999999991
 21
-72.84999999966038
 31
0.0
  0
LINE
  5
3A60
330
A
100
AcDbEntity
  8
0
  6
Continuous
 62
     7
370
     0
100
AcDbLine
 10
-24.00000000000009
 20
-73.24999999966036
 30
0.0
 11
-24.00000000000009
 21
-72.84999999966038
 31
0.0
  0
LINE
  5
3A61
330
A
100
AcDbEntity
  8
0
  6
Continuous
 62
     7
370
     0
100
AcDbLine
 10
-24.00000000000009
 20
-72.84999999966038
 30
0.0
 11
-22.00000000000009
 21
-72.84999999966038
 31
0.0
  0
LINE
  5
3A62
330
A
100
AcDbEntity
  8
0
  6
Continuous
 62
     9
370
     0
100
AcDbLine
 10
18.4999999999999
 20
-64.84999999966039
 30
0.0
 11
18.4999999999999
 21
-64.64999999649473
 31
0.0
  0
LINE
  5
3A63
330
A
100
AcDbEntity
  8
0
  6
Continuous
 62
     7
370
     0
100
AcDbLine
 10
20.49999999999991
 20
-64.64999999649473
 30
0.0
 11
20.49999999999991
 21
-64.84999999966039
 31
0.0
  0
LINE
  5
3A64
330
A
100
AcDbEntity
  8
0
  6
Continuous
 62
     7
370
     0
100
AcDbLine
 10
20.49999999999991
 20
-64.84999999966039
 30
0.0
 11
18.4999999999999
 21
-64.84999999966039
 31
0.0
  0
LINE
  5
3A65
330
A
100
AcDbEntity
  8
0
  6
Continuous
 62
     7
370
     0
100
AcDbLine
 10
-19.07512886940307
 20
-64.84999999966039
 30
0.0
 11
-19.07512886940307
 21
-64.64999999649473
 31
0.0
  0
LINE
  5
3A66
330
A
100
AcDbEntity
  8
0
  6
Continuous
 62
     9
370
     0
100
AcDbLine
 10
-17.07512886940307
 20
-64.64999999649473
 30
0.0
 11
-17.07512886940307
 21
-64.84999999966039
 31
0.0
  0
LINE
  5
3A67
330
A
100
AcDbEntity
  8
0
  6
Continuous
 62
     7
370
     0
100
AcDbLine
 10
-17.07512886940307
 20
-64.84999999966039
 30
0.0
 11
-19.07512886940307
 21
-64.84999999966039
 31
0.0
  0
LINE
  5
3A68
330
A
100
AcDbEntity
  8
0
  6
Continuous
 62
     7
370
     0
100
AcDbLine
 10
18.4999999999999
 20
-64.84999999966039
 30
0.0
 11
-17.07512886940307
 21
-64.84999999966039
 31
0.0
  0
CIRCLE
  5
3A69
330
A
100
AcDbEntity
  8
0
  6
Continuous
 62
     7
370
     0
100
AcDbCircle
 10
33.49999999999992
 20
-80.74999999942972
 30
0.0
 40
5.300000000000082
  0
CIRCLE
  5
3A6A
330
A
100
AcDbEntity
  8
0
  6
Continuous
 62
     7
370
     0
100
AcDbCircle
 10
33.49999999999992
 20
-80.74999999951939
 30
0.0
 40
6.000000000000002
  0
LINE
  5
3A6B
330
A
100
AcDbEntity
  8
0
  6
Continuous
 62
     7
370
     0
100
AcDbLine
 10
8.849971700112892
 20
-71.74999999966034
 30
0.0
 11
-8.850028298312146
 21
-71.74999999966034
 31
0.0
  0
LINE
  5
3A6C
330
A
100
AcDbEntity
  8
0
  6
Continuous
 62
     7
370
     0
100
AcDbLine
 10
8.849971700112892
 20
-65.24999999966024
 30
0.0
 11
-8.850028298312146
 21
-65.24999999966024
 31
0.0
  0
LINE
  5
3A6D
330
A
100
AcDbEntity
  8
0
  6
Continuous
 62
     7
370
     0
100
AcDbLine
 10
38.49999999999992
 20
-73.24999999966036
 30
0.0
 11
33.49999999999992
 21
-73.24999999966036
 31
0.0
  0
ARC
  5
3A6E
330
A
100
AcDbEntity
  8
0
  6
Continuous
 62
     7
370
     0
100
AcDbCircle
 10
38.49999999999992
 20
-72.24999999966036
 30
0.0
 40
1.0
100
AcDbArc
 50
270.0
 51
0.0
  0
LINE
  5
3A6F
330
A
100
AcDbEntity
  8
0
  6
Continuous
 62
     7
370
     0
100
AcDbLine
 10
39.49999999999992
 20
-56.74999999966036
 30
0.0
 11
39.49999999999992
 21
-72.24999999966036
 31
0.0
  0
LINE
  5
3A70
330
A
100
AcDbEntity
  8
0
  6
Continuous
 62
     7
370
     0
100
AcDbLine
 10
43.49999999999989
 20
-56.74999999966036
 30
0.0
 11
39.49999999999992
 21
-56.74999999966036
 31
0.0
  0
LINE
  5
3A71
330
A
100
AcDbEntity
  8
0
  6
Continuous
 62
     7
370
     0
100
AcDbLine
 10
39.49999999999992
 20
-85.24999999966036
 30
0.0
 11
43.49999999999989
 21
-78.42949192397156
 31
0.0
  0
ARC
  5
3A72
330
A
100
AcDbEntity
  8
0
  6
Continuous
 62
     7
370
     0
100
AcDbCircle
 10
33.49999999999992
 20
-80.74999999966037
 30
0.0
 40
7.5
100
AcDbArc
 50
90.0
 51
323.1301023541533
  0
LINE
  5
3A73
330
A
100
AcDbEntity
  8
0
  6
Continuous
 62
     7
370
     0
100
AcDbLine
 10
43.49999999999989
 20
-78.42949192397156
 30
0.0
 11
43.49999999999989
 21
-56.74999999966036
 31
0.0
  0
LINE
  5
3A74
330
A
100
AcDbEntity
  8
0
  6
Continuous
 62
     7
370
     0
100
AcDbLine
 10
-25.00000000000009
 20
-58.64999999649479
 30
0.0
 11
-25.00000000000009
 21
-64.64999999649473
 31
0.0
  0
LINE
  5
3A75
330
A
100
AcDbEntity
  8
0
  6
Continuous
 62
     7
370
     0
100
AcDbLine
 10
-25.00000000000009
 20
-58.64999999649479
 30
0.0
 11
24.99999999999993
 21
-58.64999999649479
 31
0.0
  0
LINE
  5
3A76
330
A
100
AcDbEntity
  8
0
  6
Continuous
 62
     7
370
     0
100
AcDbLine
 10
24.99999999999993
 20
-58.64999999649479
 30
0.0
 11
24.99999999999993
 21
-64.64999999649473
 31
0.0
  0
LINE
  5
3A77
330
A
100
AcDbEntity
  8
0
  6
Continuous
 62
     7
370
     0
100
AcDbLine
 10
-25.00000000000009
 20
-64.64999999649473
 30
0.0
 11
24.99999999999993
 21
-64.64999999649473
 31
0.0
  0
LINE
  5
3A78
330
A
100
AcDbEntity
  8
0
  6
Continuous
 62
     7
370
     0
100
AcDbLine
 10
23.99999999999991
 20
-73.24999999966036
 30
0.0
 11
-25.00000000000009
 21
-73.24999999966036
 31
0.0
  0
LINE
  5
3A79
330
A
100
AcDbEntity
  8
0
  6
Continuous
 62
     7
370
     0
100
AcDbLine
 10
-25.00000000000009
 20
-73.24999999966036
 30
0.0
 11
-25.00000000000009
 21
-79.24999999966036
 31
0.0
  0
LINE
  5
3A7A
330
A
100
AcDbEntity
  8
0
  6
Continuous
 62
     7
370
     0
100
AcDbLine
 10
23.99999999999991
 20
-73.24999999966036
 30
0.0
 11
23.99999999999991
 21
-79.24999999966036
 31
0.0
  0
LINE
  5
3A7B
330
A
100
AcDbEntity
  8
0
  6
Continuous
 62
     7
370
     0
100
AcDbLine
 10
-25.00000000000009
 20
-79.24999999966036
 30
0.0
 11
23.99999999999991
 21
-79.24999999966036
 31
0.0
  0
LINE
  5
3A7C
330
A
100
AcDbEntity
  8
0
  6
Continuous
 62
     7
370
     0
100
AcDbLine
 10
25.99999999999992
 20
-80.74999999966037
 30
0.0
 11
25.99999999999992
 21
-80.24999999966036
 31
0.0
  0
ARC
  5
3A7D
330
A
100
AcDbEntity
  8
0
  6
Continuous
 62
     7
370
     0
100
AcDbCircle
 10
33.49999999999992
 20
-80.74999999966037
 30
0.0
 40
7.499999999999922
100
AcDbArc
 50
323.130102354156
 51
336.0895017182024
  0
ARC
  5
3A7E
330
A
100
AcDbEntity
  8
0
  6
Continuous
 62
     7
370
     0
100
AcDbCircle
 10
24.99999999999993
 20
-80.24999999966036
 30
0.0
 40
1.0
100
AcDbArc
 50
0.0
 51
90.0
  0
LINE
  5
3A7F
330
A
100
AcDbEntity
  8
0
  6
Continuous
 62
     7
370
     0
100
AcDbLine
 10
23.99999999999991
 20
-73.24999999966036
 30
0.0
 11
33.49999999999992
 21
-73.24999999966036
 31
0.0
  0
LINE
  5
3A80
330
A
100
AcDbEntity
  8
0
  6
Continuous
 62
     7
370
     0
100
AcDbLine
 10
24.99999999999993
 20
-79.24999999966036
 30
0.0
 11
23.99999999999991
 21
-79.24999999966036
 31
0.0
  0
LINE
  5
3A81
330
A
100
AcDbEntity
  8
0
  6
Continuous
 62
     9
370
     0
100
AcDbLine
 10
26.15152974898992
 20
-79.25000500966034
 30
0.0
 11
26.15139415368791
 21
-79.25000500966034
 31
0.0
  0
LINE
  5
3A82
330
A
100
AcDbEntity
  8
0
  6
Continuous
 62
     7
370
     0
100
AcDbLine
 10
2.999999999999912
 20
-65.24999999965956
 30
0.0
 11
2.999999999999912
 21
-64.84999999966039
 31
0.0
  0
LINE
  5
3A83
330
A
100
AcDbEntity
  8
0
  6
Continuous
 62
     7
370
     0
100
AcDbLine
 10
-3.000000000000085
 20
-64.84999999966039
 30
0.0
 11
-3.000000000000085
 21
-65.24999999965956
 31
0.0
  0
LINE
  5
3A84
330
A
100
AcDbEntity
  8
0
  6
Continuous
 62
     7
370
     0
100
AcDbLine
 10
8.849971700112892
 20
-71.74999999966034
 30
0.0
 11
8.849971700112892
 21
-65.24999999966024
 31
0.0
  0
LINE
  5
3A85
330
A
100
AcDbEntity
  8
0
  6
Continuous
 62
     7
370
     0
100
AcDbLine
 10
-8.850028299886931
 20
-65.24999999966024
 30
0.0
 11
-8.850028299886931
 21
-71.74999999966034
 31
0.0
  0
LINE
  5
3A86
330
A
100
AcDbEntity
  8
0
  6
Continuous
 62
     7
370
     0
100
AcDbLine
 10
-4.900000000000176
 20
-71.74999999966034
 30
0.0
 11
-4.900000000000176
 21
-72.84999999966038
 31
0.0
  0
LINE
  5
3A87
330
A
100
AcDbEntity
  8
0
  6
Continuous
 62
     7
370
     0
100
AcDbLine
 10
4.900000000000003
 20
-72.84999999966038
 30
0.0
 11
4.900000000000003
 21
-71.74999999966034
 31
0.0
  0
ARC
  5
3A88
330
A
100
AcDbEntity
  8
0
  6
Continuous
 62
     9
370
     0
100
AcDbCircle
 10
-65.40000000000015
 20
24.99999999984169
 30
0.0
 40
1.5
100
AcDbArc
 50
89.99999999636532
 51
279.072974649345
  0
LINE
  5
3A89
330
A
100
AcDbEntity
  8
0
  6
Continuous
 62
     7
370
     0
100
AcDbLine
 10
-91.0000000008002
 20
51.79999999999996
 30
0.0
 11
-77.0000000008002
 21
51.79999999999996
 31
0.0
  0
LINE
  5
3A8A
330
A
100
AcDbEntity
  8
0
  6
Continuous
 62
     7
370
     0
100
AcDbLine
 10
-91.0000000008002
 20
51.29999999999995
 30
0.0
 11
-77.0000000008002
 21
51.29999999999995
 31
0.0
  0
LINE
  5
3A8B
330
A
100
AcDbEntity
  8
0
  6
Continuous
 62
     7
370
     0
100
AcDbLine
 10
-77.00000000079817
 20
-1.800000000060659
 30
0.0
 11
-91.0000000008002
 21
-1.799999999939128
 31
0.0
  0
LINE
  5
3A8C
330
A
100
AcDbEntity
  8
0
  6
Continuous
 62
     7
370
     0
100
AcDbLine
 10
-77.00000000079405
 20
-1.300000000060784
 30
0.0
 11
-91.00000000079495
 21
-1.299999999939067
 31
0.0
  0
ARC
  5
3A8D
330
A
100
AcDbEntity
  8
0
  6
Continuous
 62
     7
370
     0
100
AcDbCircle
 10
-65.40000000000015
 20
25.00000000016149
 30
0.0
 40
1.0
100
AcDbArc
 50
61.515364824786
 51
270.0
  0
ARC
  5
3A8E
330
A
100
AcDbEntity
  8
0
  6
Continuous
 62
     7
370
     0
100
AcDbCircle
 10
-65.40000000000015
 20
25.00000000016149
 30
0.0
 40
1.000000000000005
100
AcDbArc
 50
270.0
 51
298.4846351771841
  0
LINE
  5
3A8F
330
A
100
AcDbEntity
  8
0
  6
Continuous
 62
     7
370
     0
100
AcDbLine
 10
-65.83301270189313
 20
24.25000000016166
 30
0.0
 11
-66.26602540378494
 21
25.00000000016149
 31
0.0
  0
LINE
  5
3A90
330
A
100
AcDbEntity
  8
0
  6
Continuous
 62
     7
370
     0
100
AcDbLine
 10
-64.96698729810812
 20
24.25000000016166
 30
0.0
 11
-65.83301270189313
 21
24.25000000016166
 31
0.0
  0
LINE
  5
3A91
330
A
100
AcDbEntity
  8
0
  6
Continuous
 62
     7
370
     0
100
AcDbLine
 10
-64.84595391323714
 20
24.45963597217075
 30
0.0
 11
-64.96698729810812
 21
24.25000000016166
 31
0.0
  0
LINE
  5
3A92
330
A
100
AcDbEntity
  8
0
  6
Continuous
 62
     7
370
     0
100
AcDbLine
 10
-64.96698729810812
 20
25.75000000016178
 30
0.0
 11
-64.84595391331604
 21
25.54036402828888
 31
0.0
  0
LINE
  5
3A93
330
A
100
AcDbEntity
  8
0
  6
Continuous
 62
     7
370
     0
100
AcDbLine
 10
-65.83301270189313
 20
25.75000000016178
 30
0.0
 11
-64.96698729810812
 21
25.75000000016178
 31
0.0
  0
LINE
  5
3A94
330
A
100
AcDbEntity
  8
0
  6
Continuous
 62
     7
370
     0
100
AcDbLine
 10
-66.26602540378494
 20
25.00000000016149
 30
0.0
 11
-65.83301270189313
 21
25.75000000016178
 31
0.0
  0
LINE
  5
3A95
330
A
100
AcDbEntity
  8
0
  6
Continuous
 62
     7
370
     0
100
AcDbLine
 10
-76.09999999999998
 20
51.87477270848678
 30
0.0
 11
-76.09999999999998
 21
-1.874772708486709
 31
0.0
  0
LINE
  5
3A96
330
A
100
AcDbEntity
  8
0
  6
Continuous
 62
     7
370
     0
100
AcDbLine
 10
-68.09999999999998
 20
-16.19843711834375
 30
0.0
 11
-68.09999999999998
 21
-9.801562881656078
 31
0.0
  0
LINE
  5
3A97
330
A
100
AcDbEntity
  8
0
  6
Continuous
 62
     7
370
     0
100
AcDbLine
 10
-68.09999999999998
 20
21.80156288165624
 30
0.0
 11
-68.09999999999998
 21
28.1984371183438
 31
0.0
  0
LINE
  5
3A98
330
A
100
AcDbEntity
  8
0
  6
Continuous
 62
     7
370
     0
100
AcDbLine
 10
-68.09999999999998
 20
59.8015628816562
 30
0.0
 11
-68.09999999999998
 21
66.19843711834393
 31
0.0
  0
LINE
  5
3A99
330
A
100
AcDbEntity
  8
0
  6
Continuous
 62
     7
370
     0
100
AcDbLine
 10
-90.00000001291398
 20
-25.59999999999974
 30
0.0
 11
-78.00000001291398
 21
-25.59999999999894
 31
0.0
  0
LINE
  5
3A9A
330
A
100
AcDbEntity
  8
0
  6
Continuous
 62
     7
370
     0
100
AcDbLine
 10
-78.70000001291405
 20
-26.29999999999893
 30
0.0
 11
-89.30000001291395
 21
-26.29999999999973
 31
0.0
  0
LINE
  5
3A9B
330
A
100
AcDbEntity
  8
0
  6
Continuous
 62
     7
370
     0
100
AcDbLine
 10
-77.99999999985911
 20
75.59999999923149
 30
0.0
 11
-89.99999999985908
 21
75.60000000076851
 31
0.0
  0
LINE
  5
3A9C
330
A
100
AcDbEntity
  8
0
  6
Continuous
 62
     7
370
     0
100
AcDbLine
 10
-89.29999999976994
 20
76.30000000067879
 30
0.0
 11
-78.69999999977003
 21
76.299999999321
 31
0.0
  0
LINE
  5
3A9D
330
A
100
AcDbEntity
  8
0
  6
Continuous
 62
     7
370
     0
100
AcDbLine
 10
-68.50000000000007
 20
-10.34999999960889
 30
0.0
 11
-68.50000000000007
 21
-9.839303874144151
 31
0.0
  0
LINE
  5
3A9E
330
A
100
AcDbEntity
  8
0
  6
Continuous
 62
     7
370
     0
100
AcDbLine
 10
-81.67949192431214
 20
-25.0
 30
0.0
 11
-81.67949192431214
 21
-2.0
 31
0.0
  0
LINE
  5
3A9F
330
A
100
AcDbEntity
  8
0
  6
Continuous
 62
     7
370
     0
100
AcDbLine
 10
-88.50000000000122
 20
-25.0
 30
0.0
 11
-81.67949192431214
 21
-25.0
 31
0.0
  0
LINE
  5
3AA0
330
A
100
AcDbEntity
  8
0
  6
Continuous
 62
     7
370
     0
100
AcDbLine
 10
-88.50000000000122
 20
-25.0
 30
0.0
 11
-88.50000000000122
 21
-2.0
 31
0.0
  0
LINE
  5
3AA1
330
A
100
AcDbEntity
  8
0
  6
Continuous
 62
     7
370
     0
100
AcDbLine
 10
-88.50000000000122
 20
-2.0
 30
0.0
 11
-81.67949192431214
 21
-2.0
 31
0.0
  0
CIRCLE
  5
3AA2
330
A
100
AcDbEntity
  8
0
  6
Continuous
 62
     7
370
     0
100
AcDbCircle
 10
-68.00000000000007
 20
25.0
 30
0.0
 40
3.199999999999976
  0
CIRCLE
  5
3AA3
330
A
100
AcDbEntity
  8
0
  6
Continuous
 62
     7
370
     0
100
AcDbCircle
 10
-68.00000000000007
 20
63.0
 30
0.0
 40
3.200000000000036
  0
CIRCLE
  5
3AA4
330
A
100
AcDbEntity
  8
0
  6
Continuous
 62
     7
370
     0
100
AcDbCircle
 10
-68.00000000000007
 20
-13.0
 30
0.0
 40
3.199999999999976
  0
LINE
  5
3AA5
330
A
100
AcDbEntity
  8
0
  6
Continuous
 62
     7
370
     0
100
AcDbLine
 10
-81.67949192431214
 20
52.0
 30
0.0
 11
-81.67949192431214
 21
75.0
 31
0.0
  0
LINE
  5
3AA6
330
A
100
AcDbEntity
  8
0
  6
Continuous
 62
     7
370
     0
100
AcDbLine
 10
-81.67949192431214
 20
75.0
 30
0.0
 11
-60.00000000000007
 21
75.0
 31
0.0
  0
LINE
  5
3AA7
330
A
100
AcDbEntity
  8
0
  6
Continuous
 62
     7
370
     0
100
AcDbLine
 10
-60.00000000000007
 20
-25.0
 30
0.0
 11
-60.00000000000007
 21
75.0
 31
0.0
  0
LINE
  5
3AA8
330
A
100
AcDbEntity
  8
0
  6
Continuous
 62
     7
370
     0
100
AcDbLine
 10
-81.67949192431214
 20
-25.0
 30
0.0
 11
-60.00000000000007
 21
-25.0
 31
0.0
  0
LINE
  5
3AA9
330
A
100
AcDbEntity
  8
0
  6
Continuous
 62
     7
370
     0
100
AcDbLine
 10
-81.67949192431214
 20
-2.0
 30
0.0
 11
-76.70000000000013
 21
-2.0
 31
0.0
  0
ARC
  5
3AAA
330
A
100
AcDbEntity
  8
0
  6
Continuous
 62
     7
370
     0
100
AcDbCircle
 10
-76.70000000000013
 20
-0.5
 30
0.0
 40
1.499999999999945
100
AcDbArc
 50
270.0
 51
0.0
  0
LINE
  5
3AAB
330
A
100
AcDbEntity
  8
0
  6
Continuous
 62
     7
370
     0
100
AcDbLine
 10
-75.20000000000013
 20
-0.5
 30
0.0
 11
-75.20000000000013
 21
50.5
 31
0.0
  0
ARC
  5
3AAC
330
A
100
AcDbEntity
  8
0
  6
Continuous
 62
     7
370
     0
100
AcDbCircle
 10
-76.70000000000013
 20
50.5
 30
0.0
 40
1.5
100
AcDbArc
 50
0.0
 51
90.0
  0
LINE
  5
3AAD
330
A
100
AcDbEntity
  8
0
  6
Continuous
 62
     7
370
     0
100
AcDbLine
 10
-76.70000000000013
 20
52.0
 30
0.0
 11
-81.67949192431214
 21
52.0
 31
0.0
  0
LINE
  5
3AAE
330
A
100
AcDbEntity
  8
0
  6
Continuous
 62
     7
370
     0
100
AcDbLine
 10
-88.50000000000006
 20
52.0
 30
0.0
 11
-88.50000000000006
 21
75.0
 31
0.0
  0
LINE
  5
3AAF
330
A
100
AcDbEntity
  8
0
  6
Continuous
 62
     7
370
     0
100
AcDbLine
 10
-81.67949192431214
 20
52.0
 30
0.0
 11
-88.50000000000006
 21
52.0
 31
0.0
  0
LINE
  5
3AB0
330
A
100
AcDbEntity
  8
0
  6
Continuous
 62
     7
370
     0
100
AcDbLine
 10
-88.50000000000006
 20
75.0
 30
0.0
 11
-81.67949192431214
 21
75.0
 31
0.0
  0
LINE
  5
3AB1
330
A
100
AcDbEntity
  8
0
  6
Continuous
 62
     7
370
     0
100
AcDbLine
 10
-91.50000000000007
 20
-25.0
 30
0.0
 11
-88.50000000000122
 21
-25.0
 31
0.0
  0
LINE
  5
3AB2
330
A
100
AcDbEntity
  8
0
  6
Continuous
 62
     7
370
     0
100
AcDbLine
 10
-91.50000000000007
 20
-2.0
 30
0.0
 11
-88.50000000000122
 21
-2.0
 31
0.0
  0
LINE
  5
3AB3
330
A
100
AcDbEntity
  8
0
  6
Continuous
 62
     7
370
     0
100
AcDbLine
 10
-91.50000000000007
 20
75.0
 30
0.0
 11
-88.50000000000006
 21
75.0
 31
0.0
  0
LINE
  5
3AB4
330
A
100
AcDbEntity
  8
0
  6
Continuous
 62
     7
370
     0
100
AcDbLine
 10
-88.50000000000006
 20
52.0
 30
0.0
 11
-91.50000000000007
 21
52.0
 31
0.0
  0
LINE
  5
3AB5
330
A
100
AcDbEntity
  8
0
  6
Continuous
 62
     7
370
     0
100
AcDbLine
 10
-76.75000000068401
 20
50.00000000046354
 30
0.0
 11
-91.25000000068515
 21
49.99999999953644
 31
0.0
  0
LINE
  5
3AB6
330
A
100
AcDbEntity
  8
0
  6
Continuous
 62
     7
370
     0
100
AcDbLine
 10
-76.75000000076815
 20
51.30000000046345
 30
0.0
 11
-91.25000000076814
 21
51.29999999953634
 31
0.0
  0
LINE
  5
3AB7
330
A
100
AcDbEntity
  8
0
  6
Continuous
 62
     7
370
     0
100
AcDbLine
 10
-91.25000000068402
 20
0.0000000004633272
 30
0.0
 11
-76.75000000068401
 21
-0.0000000004633272
 31
0.0
  0
LINE
  5
3AB8
330
A
100
AcDbEntity
  8
0
  6
Continuous
 62
     7
370
     0
100
AcDbLine
 10
-91.25000000076722
 20
-1.299999999536678
 30
0.0
 11
-76.75000000076725
 21
-1.300000000463573
 31
0.0
  0
ARC
  5
3AB9
330
A
100
AcDbEntity
  8
0
  6
Continuous
 62
     7
370
     0
100
AcDbCircle
 10
-65.40000000000015
 20
24.99999999984169
 30
0.0
 40
1.250000000000001
100
AcDbArc
 50
72.84246264652633
 51
89.99999999636532
  0
ARC
  5
3ABA
330
A
100
AcDbEntity
  8
0
  6
Continuous
 62
     7
370
     0
100
AcDbCircle
 10
-65.40000000000015
 20
24.99999999984169
 30
0.0
 40
1.24999999999999
100
AcDbArc
 50
89.99999999636532
 51
287.1575373457836
  0
LINE
  5
3ABB
330
A
100
AcDbEntity
  8
0
  6
Continuous
 62
     7
370
     0
100
AcDbLine
 10
-67.89999999739197
 20
66.19843711826224
 30
0.0
 11
-67.89999999779691
 21
59.801562881725
 31
0.0
  0
LINE
  5
3ABC
330
A
100
AcDbEntity
  8
0
  6
Continuous
 62
     7
370
     0
100
AcDbLine
 10
-67.89999999979804
 20
28.19843711833755
 30
0.0
 11
-67.90000000020299
 21
21.80156288164977
 31
0.0
  0
LINE
  5
3ABD
330
A
100
AcDbEntity
  8
0
  6
Continuous
 62
     7
370
     0
100
AcDbLine
 10
-67.90000000220321
 20
-9.801562881587193
 30
0.0
 11
-67.90000000260906
 21
-16.19843711842549
 31
0.0
  0
LINE
  5
3ABE
330
A
100
AcDbEntity
  8
0
  6
Continuous
 62
     7
370
     0
100
AcDbLine
 10
-91.50000000000007
 20
0.0
 30
0.0
 11
-76.50000000000122
 21
0.0
 31
0.0
  0
LINE
  5
3ABF
330
A
100
AcDbEntity
  8
0
  6
Continuous
 62
     7
370
     0
100
AcDbLine
 10
-76.5000000000001
 20
50.0
 30
0.0
 11
-91.50000000000007
 21
50.0
 31
0.0
  0
LINE
  5
3AC0
330
A
100
AcDbEntity
  8
0
  6
Continuous
 62
     7
370
     0
100
AcDbLine
 10
-76.50000000000122
 20
0.0
 30
0.0
 11
-76.5000000000001
 21
50.0
 31
0.0
  0
LINE
  5
3AC1
330
A
100
AcDbEntity
  8
0
  6
Continuous
 62
     7
370
     0
100
AcDbLine
 10
-76.50000000000122
 20
0.0
 30
0.0
 11
-76.50000000000122
 21
-1.98660687473199
 31
0.0
  0
LINE
  5
3AC2
330
A
100
AcDbEntity
  8
0
  6
Continuous
 62
     7
370
     0
100
AcDbLine
 10
-76.5000000000001
 20
51.98660687473172
 30
0.0
 11
-76.5000000000001
 21
50.0
 31
0.0
  0
LINE
  5
3AC3
330
A
100
AcDbEntity
  8
0
  6
Continuous
 62
     7
370
     0
100
AcDbLine
 10
-91.0000000008002
 20
51.79999999999996
 30
0.0
 11
-91.0000000008002
 21
51.29999999999995
 31
0.0
  0
LINE
  5
3AC4
330
A
100
AcDbEntity
  8
0
  6
Continuous
 62
     7
370
     0
100
AcDbLine
 10
-77.0000000008002
 20
51.29999999999995
 30
0.0
 11
-77.0000000008002
 21
51.79999999999996
 31
0.0
  0
LINE
  5
3AC5
330
A
100
AcDbEntity
  8
0
  6
Continuous
 62
     7
370
     0
100
AcDbLine
 10
-77.00000000079906
 20
-1.800000000060659
 30
0.0
 11
-77.00000000079405
 21
-1.300000000060784
 31
0.0
  0
LINE
  5
3AC6
330
A
100
AcDbEntity
  8
0
  6
Continuous
 62
     7
370
     0
100
AcDbLine
 10
-91.00000000079495
 20
-1.299999999939126
 30
0.0
 11
-91.00000000079909
 21
-1.799999999939128
 31
0.0
  0
LINE
  5
3AC7
330
A
100
AcDbEntity
  8
0
  6
Continuous
 62
     7
370
     0
100
AcDbLine
 10
-78.00000001291398
 20
-25.59999999999894
 30
0.0
 11
-78.00000001291398
 21
-24.99999999999898
 31
0.0
  0
LINE
  5
3AC8
330
A
100
AcDbEntity
  8
0
  6
Continuous
 62
     7
370
     0
100
AcDbLine
 10
-90.00000001291398
 20
-24.99999999999989
 30
0.0
 11
-90.00000001291398
 21
-25.59999999999974
 31
0.0
  0
LINE
  5
3AC9
330
A
100
AcDbEntity
  8
0
  6
Continuous
 62
     7
370
     0
100
AcDbLine
 10
-90.00000001291398
 20
-25.59999999999974
 30
0.0
 11
-89.30000001291395
 21
-26.29999999999973
 31
0.0
  0
LINE
  5
3ACA
330
A
100
AcDbEntity
  8
0
  6
Continuous
 62
     7
370
     0
100
AcDbLine
 10
-78.70000001291405
 20
-26.29999999999893
 30
0.0
 11
-78.00000001291398
 21
-25.59999999999894
 31
0.0
  0
LINE
  5
3ACB
330
A
100
AcDbEntity
  8
0
  6
Continuous
 62
     7
370
     0
100
AcDbLine
 10
-89.99999999985908
 20
75.60000000076851
 30
0.0
 11
-89.99999999993617
 21
75.0000000007683
 31
0.0
  0
LINE
  5
3ACC
330
A
100
AcDbEntity
  8
0
  6
Continuous
 62
     7
370
     0
100
AcDbLine
 10
-77.9999999999362
 20
74.99999999923147
 30
0.0
 11
-77.99999999985911
 21
75.59999999923149
 31
0.0
  0
LINE
  5
3ACD
330
A
100
AcDbEntity
  8
0
  6
Continuous
 62
     7
370
     0
100
AcDbLine
 10
-77.99999999985911
 20
75.59999999923149
 30
0.0
 11
-78.69999999977003
 21
76.299999999321
 31
0.0
  0
LINE
  5
3ACE
330
A
100
AcDbEntity
  8
0
  6
Continuous
 62
     7
370
     0
100
AcDbLine
 10
-89.29999999976994
 20
76.30000000067879
 30
0.0
 11
-89.99999999985908
 21
75.60000000076851
 31
0.0
  0
LINE
  5
3ACF
330
A
100
AcDbEntity
  8
0
  6
Continuous
 62
     7
370
     0
100
AcDbLine
 10
-88.00000000288319
 20
52.0
 30
0.0
 11
-88.00000000290911
 21
51.79999999999996
 31
0.0
  0
LINE
  5
3AD0
330
A
100
AcDbEntity
  8
0
  6
Continuous
 62
     7
370
     0
100
AcDbLine
 10
-88.00000000977508
 20
-1.799999999966755
 30
0.0
 11
-88.00000000980103
 21
-2.0
 31
0.0
  0
LINE
  5
3AD1
330
A
100
AcDbEntity
  8
0
  6
Continuous
 62
     7
370
     0
100
AcDbLine
 10
-80.00000000980104
 20
-2.0
 30
0.0
 11
-80.00000000977513
 21
-1.80000000003605
 31
0.0
  0
LINE
  5
3AD2
330
A
100
AcDbEntity
  8
0
  6
Continuous
 62
     7
370
     0
100
AcDbLine
 10
-80.0000000029091
 20
51.79999999999996
 30
0.0
 11
-80.00000000288318
 21
52.0
 31
0.0
  0
LINE
  5
3AD3
330
A
100
AcDbEntity
  8
0
  6
Continuous
 62
     7
370
     0
100
AcDbLine
 10
-69.79373911088813
 20
-10.34999999960889
 30
0.0
 11
-68.50000000000007
 21
-10.34999999960889
 31
0.0
  0
LINE
  5
3AD4
330
A
100
AcDbEntity
  8
0
  6
Continuous
 62
     7
370
     0
100
AcDbLine
 10
-91.50000000000007
 20
-2.0
 30
0.0
 11
-91.50000000000007
 21
-25.0
 31
0.0
  0
LINE
  5
3AD5
330
A
100
AcDbEntity
  8
0
  6
Continuous
 62
     7
370
     0
100
AcDbLine
 10
-91.50000000000007
 20
75.0
 30
0.0
 11
-91.50000000000007
 21
52.0
 31
0.0
  0
LINE
  5
3AD6
330
A
100
AcDbEntity
  8
0
  6
Continuous
 62
     7
370
     0
100
AcDbLine
 10
-76.75000000068401
 20
50.00000000046354
 30
0.0
 11
-76.75000000076815
 21
51.30000000046345
 31
0.0
  0
LINE
  5
3AD7
330
A
100
AcDbEntity
  8
0
  6
Continuous
 62
     7
370
     0
100
AcDbLine
 10
-91.25000000076814
 20
51.29999999953634
 30
0.0
 11
-91.25000000068515
 21
49.99999999953644
 31
0.0
  0
LINE
  5
3AD8
330
A
100
AcDbEntity
  8
0
  6
Continuous
 62
     7
370
     0
100
AcDbLine
 10
-91.25000000068402
 20
0.0000000004633272
 30
0.0
 11
-91.25000000076722
 21
-1.299999999536678
 31
0.0
  0
LINE
  5
3AD9
330
A
100
AcDbEntity
  8
0
  6
Continuous
 62
     7
370
     0
100
AcDbLine
 10
-76.75000000076725
 20
-1.300000000463573
 30
0.0
 11
-76.75000000068401
 21
-0.0000000004635581
 31
0.0
  0
LINE
  5
3ADA
330
A
100
AcDbEntity
  8
0
  6
Continuous
 62
     7
370
     0
100
AcDbLine
 10
-91.50000000000007
 20
50.0
 30
0.0
 11
-91.50000000000007
 21
0.0
 31
0.0
  0
LINE
  5
3ADB
330
A
100
AcDbEntity
  8
0
  6
Continuous
 62
     7
370
     0
100
AcDbLine
 10
-75.20000000000013
 20
4.899999999999978
 30
0.0
 11
-76.09999999999998
 21
4.899999999999978
 31
0.0
  0
LINE
  5
3ADC
330
A
100
AcDbEntity
  8
0
  6
Continuous
 62
     7
370
     0
100
AcDbLine
 10
-76.09999999999998
 20
45.09999999999997
 30
0.0
 11
-75.20000000000013
 21
45.09999999999997
 31
0.0
  0
LINE
  5
3ADD
330
A
100
AcDbEntity
  8
0
  6
Continuous
 62
     9
370
     0
100
AcDbLine
 10
-22.00000000000009
 20
125.7500000003396
 30
0.0
 11
-22.00000000000009
 21
125.3500000003396
 31
0.0
  0
LINE
  5
3ADE
330
A
100
AcDbEntity
  8
0
  6
Continuous
 62
     9
370
     0
100
AcDbLine
 10
20.99999999999992
 20
125.3500000003396
 30
0.0
 11
20.99999999999992
 21
125.7500000003396
 31
0.0
  0
LINE
  5
3ADF
330
A
100
AcDbEntity
  8
0
  6
Continuous
 62
     7
370
     0
100
AcDbLine
 10
20.99999999999992
 20
125.3500000003396
 30
0.0
 11
-22.00000000000009
 21
125.3500000003396
 31
0.0
  0
LINE
  5
3AE0
330
A
100
AcDbEntity
  8
0
  6
Continuous
 62
     7
370
     0
100
AcDbLine
 10
-22.00000000000009
 20
125.3500000003396
 30
0.0
 11
-24.00000000000009
 21
125.3500000003396
 31
0.0
  0
LINE
  5
3AE1
330
A
100
AcDbEntity
  8
0
  6
Continuous
 62
     7
370
     0
100
AcDbLine
 10
-24.00000000000009
 20
125.3500000003396
 30
0.0
 11
-24.00000000000009
 21
125.7500000003396
 31
0.0
  0
LINE
  5
3AE2
330
A
100
AcDbEntity
  8
0
  6
Continuous
 62
     7
370
     0
100
AcDbLine
 10
22.99999999999991
 20
125.7500000003396
 30
0.0
 11
22.99999999999991
 21
125.3500000003396
 31
0.0
  0
LINE
  5
3AE3
330
A
100
AcDbEntity
  8
0
  6
Continuous
 62
     7
370
     0
100
AcDbLine
 10
22.99999999999991
 20
125.3500000003396
 30
0.0
 11
20.99999999999992
 21
125.3500000003396
 31
0.0
  0
LINE
  5
3AE4
330
A
100
AcDbEntity
  8
0
  6
Continuous
 62
     9
370
     0
100
AcDbLine
 10
-17.07512886940307
 20
117.3500000003395
 30
0.0
 11
-17.07512886940307
 21
117.1500000035052
 31
0.0
  0
LINE
  5
3AE5
330
A
100
AcDbEntity
  8
0
  6
Continuous
 62
     7
370
     0
100
AcDbLine
 10
-19.07512886940307
 20
117.1500000035052
 30
0.0
 11
-19.07512886940307
 21
117.3500000003395
 31
0.0
  0
LINE
  5
3AE6
330
A
100
AcDbEntity
  8
0
  6
Continuous
 62
     7
370
     0
100
AcDbLine
 10
-19.07512886940307
 20
117.3500000003395
 30
0.0
 11
-17.07512886940307
 21
117.3500000003395
 31
0.0
  0
LINE
  5
3AE7
330
A
100
AcDbEntity
  8
0
  6
Continuous
 62
     7
370
     0
100
AcDbLine
 10
20.49999999999991
 20
117.3500000003395
 30
0.0
 11
20.49999999999991
 21
117.1500000035052
 31
0.0
  0
LINE
  5
3AE8
330
A
100
AcDbEntity
  8
0
  6
Continuous
 62
     9
370
     0
100
AcDbLine
 10
18.4999999999999
 20
117.1500000035052
 30
0.0
 11
18.4999999999999
 21
117.3500000003395
 31
0.0
  0
LINE
  5
3AE9
330
A
100
AcDbEntity
  8
0
  6
Continuous
 62
     7
370
     0
100
AcDbLine
 10
18.4999999999999
 20
117.3500000003395
 30
0.0
 11
20.49999999999991
 21
117.3500000003395
 31
0.0
  0
LINE
  5
3AEA
330
A
100
AcDbEntity
  8
0
  6
Continuous
 62
     7
370
     0
100
AcDbLine
 10
-17.07512886940307
 20
117.3500000003395
 30
0.0
 11
18.4999999999999
 21
117.3500000003395
 31
0.0
  0
CIRCLE
  5
3AEB
330
A
100
AcDbEntity
  8
0
  6
Continuous
 62
     7
370
     0
100
AcDbCircle
 10
33.49999999999992
 20
133.2500000132535
 30
0.0
 40
5.300000000000082
  0
CIRCLE
  5
3AEC
330
A
100
AcDbEntity
  8
0
  6
Continuous
 62
     7
370
     0
100
AcDbCircle
 10
33.49999999999992
 20
133.2500000132535
 30
0.0
 40
6.000000000000002
  0
LINE
  5
3AED
330
A
100
AcDbEntity
  8
0
  6
Continuous
 62
     7
370
     0
100
AcDbLine
 10
-8.850034260175194
 20
117.7500000003396
 30
0.0
 11
8.849965739824858
 21
117.7500000003396
 31
0.0
  0
LINE
  5
3AEE
330
A
100
AcDbEntity
  8
0
  6
Continuous
 62
     7
370
     0
100
AcDbLine
 10
-8.850034260175194
 20
124.2500000003396
 30
0.0
 11
8.849965739824858
 21
124.2500000003396
 31
0.0
  0
LINE
  5
3AEF
330
A
100
AcDbEntity
  8
0
  6
Continuous
 62
     7
370
     0
100
AcDbLine
 10
39.49999999999992
 20
109.2500000003395
 30
0.0
 11
39.49999999999992
 21
124.7500000003396
 31
0.0
  0
ARC
  5
3AF0
330
A
100
AcDbEntity
  8
0
  6
Continuous
 62
     7
370
     0
100
AcDbCircle
 10
38.49999999999992
 20
124.7500000003396
 30
0.0
 40
1.0
100
AcDbArc
 50
0.0
 51
90.0
  0
LINE
  5
3AF1
330
A
100
AcDbEntity
  8
0
  6
Continuous
 62
     7
370
     0
100
AcDbLine
 10
38.49999999999992
 20
125.7500000003396
 30
0.0
 11
33.49999999999992
 21
125.7500000003396
 31
0.0
  0
LINE
  5
3AF2
330
A
100
AcDbEntity
  8
0
  6
Continuous
 62
     7
370
     0
100
AcDbLine
 10
39.49999999999992
 20
137.7500000003396
 30
0.0
 11
43.49999999999989
 21
130.9294919246509
 31
0.0
  0
LINE
  5
3AF3
330
A
100
AcDbEntity
  8
0
  6
Continuous
 62
     7
370
     0
100
AcDbLine
 10
43.49999999999989
 20
130.9294919246509
 30
0.0
 11
43.49999999999989
 21
109.2500000003395
 31
0.0
  0
LINE
  5
3AF4
330
A
100
AcDbEntity
  8
0
  6
Continuous
 62
     7
370
     0
100
AcDbLine
 10
43.49999999999989
 20
109.2500000003395
 30
0.0
 11
39.49999999999992
 21
109.2500000003395
 31
0.0
  0
ARC
  5
3AF5
330
A
100
AcDbEntity
  8
0
  6
Continuous
 62
     7
370
     0
100
AcDbCircle
 10
33.49999999999992
 20
133.2500000003395
 30
0.0
 40
7.500000000000007
100
AcDbArc
 50
36.86989764584667
 51
270.0
  0
LINE
  5
3AF6
330
A
100
AcDbEntity
  8
0
  6
Continuous
 62
     7
370
     0
100
AcDbLine
 10
24.99999999999993
 20
117.1500000035052
 30
0.0
 11
-25.00000000000009
 21
117.1500000035052
 31
0.0
  0
LINE
  5
3AF7
330
A
100
AcDbEntity
  8
0
  6
Continuous
 62
     7
370
     0
100
AcDbLine
 10
24.99999999999993
 20
111.150000003505
 30
0.0
 11
-25.00000000000009
 21
111.150000003505
 31
0.0
  0
LINE
  5
3AF8
330
A
100
AcDbEntity
  8
0
  6
Continuous
 62
     7
370
     0
100
AcDbLine
 10
24.99999999999993
 20
111.150000003505
 30
0.0
 11
24.99999999999993
 21
117.1500000035052
 31
0.0
  0
LINE
  5
3AF9
330
A
100
AcDbEntity
  8
0
  6
Continuous
 62
     7
370
     0
100
AcDbLine
 10
-25.00000000000009
 20
111.150000003505
 30
0.0
 11
-25.00000000000009
 21
117.1500000035052
 31
0.0
  0
LINE
  5
3AFA
330
A
100
AcDbEntity
  8
0
  6
Continuous
 62
     7
370
     0
100
AcDbLine
 10
23.99999999999991
 20
125.7500000003396
 30
0.0
 11
-25.00000000000009
 21
125.7500000003396
 31
0.0
  0
LINE
  5
3AFB
330
A
100
AcDbEntity
  8
0
  6
Continuous
 62
     7
370
     0
100
AcDbLine
 10
-25.00000000000009
 20
131.7500000003395
 30
0.0
 11
23.99999999999991
 21
131.7500000003395
 31
0.0
  0
LINE
  5
3AFC
330
A
100
AcDbEntity
  8
0
  6
Continuous
 62
     7
370
     0
100
AcDbLine
 10
-25.00000000000009
 20
125.7500000003396
 30
0.0
 11
-25.00000000000009
 21
131.7500000003395
 31
0.0
  0
LINE
  5
3AFD
330
A
100
AcDbEntity
  8
0
  6
Continuous
 62
     7
370
     0
100
AcDbLine
 10
23.99999999999991
 20
125.7500000003396
 30
0.0
 11
23.99999999999991
 21
131.7500000003395
 31
0.0
  0
ARC
  5
3AFE
330
A
100
AcDbEntity
  8
0
  6
Continuous
 62
     7
370
     0
100
AcDbCircle
 10
24.99999999999993
 20
132.7500000003396
 30
0.0
 40
1.0
100
AcDbArc
 50
270.0
 51
0.0
  0
LINE
  5
3AFF
330
A
100
AcDbEntity
  8
0
  6
Continuous
 62
     7
370
     0
100
AcDbLine
 10
25.99999999999992
 20
132.7500000003396
 30
0.0
 11
25.99999999999992
 21
133.2500000003395
 31
0.0
  0
ARC
  5
3B00
330
A
100
AcDbEntity
  8
0
  6
Continuous
 62
     7
370
     0
100
AcDbCircle
 10
33.49999999999992
 20
133.2500000003395
 30
0.0
 40
7.499999999999931
100
AcDbArc
 50
23.91049828179738
 51
36.86989764584667
  0
LINE
  5
3B01
330
A
100
AcDbEntity
  8
0
  6
Continuous
 62
     7
370
     0
100
AcDbLine
 10
33.49999999999992
 20
125.7500000003396
 30
0.0
 11
23.99999999999991
 21
125.7500000003396
 31
0.0
  0
LINE
  5
3B02
330
A
100
AcDbEntity
  8
0
  6
Continuous
 62
     7
370
     0
100
AcDbLine
 10
23.99999999999991
 20
131.7500000003395
 30
0.0
 11
24.99999999999993
 21
131.7500000003395
 31
0.0
  0
LINE
  5
3B03
330
A
100
AcDbEntity
  8
0
  6
Continuous
 62
     7
370
     0
100
AcDbLine
 10
-3.000000000000085
 20
117.7500000003396
 30
0.0
 11
-3.000000000000085
 21
117.3500000003395
 31
0.0
  0
LINE
  5
3B04
330
A
100
AcDbEntity
  8
0
  6
Continuous
 62
     7
370
     0
100
AcDbLine
 10
2.999999999999912
 20
117.3500000003395
 30
0.0
 11
2.999999999999912
 21
117.7500000003396
 31
0.0
  0
LINE
  5
3B05
330
A
100
AcDbEntity
  8
0
  6
Continuous
 62
     7
370
     0
100
AcDbLine
 10
-8.850034260175194
 20
124.2500000003396
 30
0.0
 11
-8.850034260175194
 21
117.7500000003396
 31
0.0
  0
LINE
  5
3B06
330
A
100
AcDbEntity
  8
0
  6
Continuous
 62
     7
370
     0
100
AcDbLine
 10
8.849965739824858
 20
117.7500000003396
 30
0.0
 11
8.849965739824858
 21
124.2500000003396
 31
0.0
  0
LINE
  5
3B07
330
A
100
AcDbEntity
  8
0
  6
Continuous
 62
     7
370
     0
100
AcDbLine
 10
4.900000000000003
 20
124.2500000003396
 30
0.0
 11
4.900000000000003
 21
125.3500000003396
 31
0.0
  0
LINE
  5
3B08
330
A
100
AcDbEntity
  8
0
  6
Continuous
 62
     7
370
     0
100
AcDbLine
 10
-4.900000000000176
 20
125.3500000003396
 30
0.0
 11
-4.900000000000176
 21
124.2500000003396
 31
0.0
  0
LINE
  5
419E
330
A
100
AcDbEntity
  8
0
  6
Continuous
 62
     9
370
     0
100
AcDbLine
 10
25.99999999999992
 20
64.49999498999925
 30
0.0
 11
26.15152974898992
 21
63.0
 31
0.0
  0
LINE
  5
419F
330
A
100
AcDbEntity
  8
0
  6
Continuous
 62
     9
370
     0
100
AcDbLine
 10
26.15152974898992
 20
63.0
 30
0.0
 11
26.04370142627696
 21
61.73652329244565
 31
0.0
  0
LINE
  5
41A0
330
A
100
AcDbEntity
  8
0
  6
Continuous
 62
     9
370
     0
100
AcDbLine
 10
26.04370142627696
 20
61.73652329244565
 30
0.0
 11
26.00000000000287
 21
61.50000501001136
 31
0.0
  0
LINE
  5
41A1
330
A
100
AcDbEntity
  8
0
  6
Continuous
 62
     7
370
     0
100
AcDbLine
 10
26.49999999999991
 20
51.29999999999995
 30
0.0
 11
40.4999999999999
 21
51.29999999999995
 31
0.0
  0
LINE
  5
41A2
330
A
100
AcDbEntity
  8
0
  6
Continuous
 62
     7
370
     0
100
AcDbLine
 10
26.49999999999991
 20
51.79999999999996
 30
0.0
 11
40.4999999999999
 21
51.79999999999996
 31
0.0
  0
LINE
  5
41A3
330
A
100
AcDbEntity
  8
0
  6
Continuous
 62
     7
370
     0
100
AcDbLine
 10
40.50000000000106
 20
-1.800000000001715
 30
0.0
 11
26.50028708193886
 21
-1.799999999997956
 31
0.0
  0
LINE
  5
41A4
330
A
100
AcDbEntity
  8
0
  6
Continuous
 62
     7
370
     0
100
AcDbLine
 10
40.50000000000106
 20
-1.300000000001715
 30
0.0
 11
33.5357192240439
 21
-1.299999999999725
 31
0.0
  0
LINE
  5
41A5
330
A
100
AcDbEntity
  8
0
  6
Continuous
 62
     7
370
     0
100
AcDbLine
 10
33.5357192240439
 20
-1.299999999999725
 30
0.0
 11
26.50028708193886
 21
-1.29999999999802
 31
0.0
  0
LINE
  5
41A6
330
A
100
AcDbEntity
  8
0
  6
Continuous
 62
     7
370
     0
100
AcDbLine
 10
26.50028708193886
 20
-1.799999999997956
 30
0.0
 11
26.49999999999991
 21
-1.799999999997956
 31
0.0
  0
LINE
  5
41A7
330
A
100
AcDbEntity
  8
0
  6
Continuous
 62
     7
370
     0
100
AcDbLine
 10
27.49999999999993
 20
-25.59999999999934
 30
0.0
 11
33.49999999999992
 21
-25.59999999999934
 31
0.0
  0
LINE
  5
41A8
330
A
100
AcDbEntity
  8
0
  6
Continuous
 62
     7
370
     0
100
AcDbLine
 10
33.49999999999992
 20
-25.59999999999934
 30
0.0
 11
39.49999999999992
 21
-25.59999999999934
 31
0.0
  0
LINE
  5
41A9
330
A
100
AcDbEntity
  8
0
  6
Continuous
 62
     7
370
     0
100
AcDbLine
 10
38.79999999999987
 20
-26.29999999999933
 30
0.0
 11
33.49999999999992
 21
-26.29999999999933
 31
0.0
  0
LINE
  5
41AA
330
A
100
AcDbEntity
  8
0
  6
Continuous
 62
     7
370
     0
100
AcDbLine
 10
33.49999999999992
 20
-26.29999999999933
 30
0.0
 11
28.19999999999995
 21
-26.29999999999933
 31
0.0
  0
LINE
  5
41AB
330
A
100
AcDbEntity
  8
0
  6
Continuous
 62
     7
370
     0
100
AcDbLine
 10
39.49999999999992
 20
75.59999999999998
 30
0.0
 11
27.49999999999993
 21
75.59999999999998
 31
0.0
  0
LINE
  5
41AC
330
A
100
AcDbEntity
  8
0
  6
Continuous
 62
     7
370
     0
100
AcDbLine
 10
28.19999999999995
 20
76.2999999999999
 30
0.0
 11
38.79999999999987
 21
76.2999999999999
 31
0.0
  0
LINE
  5
41AD
330
A
100
AcDbEntity
  8
0
  6
Continuous
 62
     7
370
     0
100
AcDbLine
 10
25.99999999999992
 20
-25.0
 30
0.0
 11
39.49999999999992
 21
-25.0
 31
0.0
  0
LINE
  5
41AE
330
A
100
AcDbEntity
  8
0
  6
Continuous
 62
     7
370
     0
100
AcDbLine
 10
25.99999999999992
 20
-2.0
 30
0.0
 11
39.49999999999992
 21
-2.0
 31
0.0
  0
LINE
  5
41AF
330
A
100
AcDbEntity
  8
0
  6
Continuous
 62
     7
370
     0
100
AcDbLine
 10
39.49999999999992
 20
-25.0
 30
0.0
 11
39.49999999999992
 21
-2.0
 31
0.0
  0
LINE
  5
41B0
330
A
100
AcDbEntity
  8
0
  6
Continuous
 62
     7
370
     0
100
AcDbLine
 10
25.99999999999992
 20
75.0
 30
0.0
 11
39.49999999999992
 21
75.0
 31
0.0
  0
LINE
  5
41B1
330
A
100
AcDbEntity
  8
0
  6
Continuous
 62
     7
370
     0
100
AcDbLine
 10
25.99999999999992
 20
61.75
 30
0.0
 11
26.10490027112488
 21
63.0
 31
0.0
  0
LINE
  5
41B2
330
A
100
AcDbEntity
  8
0
  6
Continuous
 62
     7
370
     0
100
AcDbLine
 10
39.49999999999992
 20
52.0
 30
0.0
 11
39.49999999999992
 21
75.0
 31
0.0
  0
LINE
  5
41B3
330
A
100
AcDbEntity
  8
0
  6
Continuous
 62
     7
370
     0
100
AcDbLine
 10
39.49999999999992
 20
52.0
 30
0.0
 11
25.99999999999992
 21
52.0
 31
0.0
  0
LINE
  5
41B4
330
A
100
AcDbEntity
  8
0
  6
Continuous
 62
     7
370
     0
100
AcDbLine
 10
26.10490027112488
 20
63.0
 30
0.0
 11
25.99999999999992
 21
64.25
 31
0.0
  0
LINE
  5
41B5
330
A
100
AcDbEntity
  8
0
  6
Continuous
 62
     7
370
     0
100
AcDbLine
 10
43.49999999999989
 20
-25.0
 30
0.0
 11
43.49999999999989
 21
-2.0
 31
0.0
  0
LINE
  5
41B6
330
A
100
AcDbEntity
  8
0
  6
Continuous
 62
     7
370
     0
100
AcDbLine
 10
39.49999999999992
 20
-2.0
 30
0.0
 11
43.49999999999989
 21
-2.0
 31
0.0
  0
LINE
  5
41B7
330
A
100
AcDbEntity
  8
0
  6
Continuous
 62
     7
370
     0
100
AcDbLine
 10
39.49999999999992
 20
-25.0
 30
0.0
 11
43.49999999999989
 21
-25.0
 31
0.0
  0
LINE
  5
41B8
330
A
100
AcDbEntity
  8
0
  6
Continuous
 62
     7
370
     0
100
AcDbLine
 10
43.49999999999989
 20
52.0
 30
0.0
 11
43.49999999999989
 21
75.0
 31
0.0
  0
LINE
  5
41B9
330
A
100
AcDbEntity
  8
0
  6
Continuous
 62
     7
370
     0
100
AcDbLine
 10
39.49999999999992
 20
75.0
 30
0.0
 11
43.49999999999989
 21
75.0
 31
0.0
  0
LINE
  5
41BA
330
A
100
AcDbEntity
  8
0
  6
Continuous
 62
     7
370
     0
100
AcDbLine
 10
43.49999999999989
 20
52.0
 30
0.0
 11
39.49999999999992
 21
52.0
 31
0.0
  0
LINE
  5
41BB
330
A
100
AcDbEntity
  8
0
  6
Continuous
 62
     7
370
     0
100
AcDbLine
 10
37.49999999999992
 20
-1.98660687473199
 30
0.0
 11
38.49999999999992
 21
-1.98660687473199
 31
0.0
  0
LINE
  5
41C3
330
A
100
AcDbEntity
  8
0
  6
Continuous
 62
     9
370
     0
100
AcDbLine
 10
40.74999999999991
 20
-0.5
 30
0.0
 11
43.49999999999989
 21
-0.5
 31
0.0
  0
LINE
  5
41C4
330
A
100
AcDbEntity
  8
0
  6
Continuous
 62
     7
370
     0
100
AcDbLine
 10
43.49999999999989
 20
-2.0
 30
0.0
 11
43.49999999999989
 21
-0.5
 31
0.0
  0
LINE
  5
41CB
330
A
100
AcDbEntity
  8
0
  6
Continuous
 62
     7
370
     0
100
AcDbLine
 10
38.49999999999992
 20
51.98660687473172
 30
0.0
 11
37.49999999999992
 21
51.98660687473172
 31
0.0
  0
LINE
  5
41CC
330
A
100
AcDbEntity
  8
0
  6
Continuous
 62
     9
370
     0
100
AcDbLine
 10
43.49999999999989
 20
50.5
 30
0.0
 11
40.74999999999991
 21
50.5
 31
0.0
  0
LINE
  5
41CD
330
A
100
AcDbEntity
  8
0
  6
Continuous
 62
     7
370
     0
100
AcDbLine
 10
43.49999999999989
 20
50.5
 30
0.0
 11
43.49999999999989
 21
52.0
 31
0.0
  0
LINE
  5
41CE
330
A
100
AcDbEntity
  8
0
  6
Continuous
 62
     7
370
     0
100
AcDbLine
 10
43.49999999999989
 20
-0.5
 30
0.0
 11
43.49999999999989
 21
50.5
 31
0.0
  0
LINE
  5
41CF
330
A
100
AcDbEntity
  8
0
  6
Continuous
 62
     7
370
     0
100
AcDbLine
 10
40.74999999999991
 20
50.0
 30
0.0
 11
33.49999999999992
 21
50.0
 31
0.0
  0
LINE
  5
41D0
330
A
100
AcDbEntity
  8
0
  6
Continuous
 62
     7
370
     0
100
AcDbLine
 10
40.74999999999991
 20
51.29999999999995
 30
0.0
 11
33.49999999999992
 21
51.29999999999995
 31
0.0
  0
LINE
  5
41D1
330
A
100
AcDbEntity
  8
0
  6
Continuous
 62
     7
370
     0
100
AcDbLine
 10
33.49999999999992
 20
50.0
 30
0.0
 11
26.24999999999993
 21
50.0
 31
0.0
  0
LINE
  5
41D2
330
A
100
AcDbEntity
  8
0
  6
Continuous
 62
     7
370
     0
100
AcDbLine
 10
33.49999999999992
 20
51.29999999999995
 30
0.0
 11
26.24999999999993
 21
51.29999999999995
 31
0.0
  0
LINE
  5
41D3
330
A
100
AcDbEntity
  8
0
  6
Continuous
 62
     7
370
     0
100
AcDbLine
 10
26.24999999999993
 20
0.0
 30
0.0
 11
33.50000027690991
 21
0.0
 31
0.0
  0
LINE
  5
41D4
330
A
100
AcDbEntity
  8
0
  6
Continuous
 62
     7
370
     0
100
AcDbLine
 10
33.50000027690991
 20
0.0
 30
0.0
 11
40.74999999999991
 21
0.0
 31
0.0
  0
LINE
  5
41D5
330
A
100
AcDbEntity
  8
0
  6
Continuous
 62
     7
370
     0
100
AcDbLine
 10
26.24999999999993
 20
-1.300000000000238
 30
0.0
 11
40.74999999999991
 21
-1.300000000000238
 31
0.0
  0
LINE
  5
41D6
330
A
100
AcDbEntity
  8
0
  6
Continuous
 62
     7
370
     0
100
AcDbLine
 10
23.99999999999991
 20
75.0
 30
0.0
 11
24.99999999999993
 21
75.0
 31
0.0
  0
LINE
  5
41D7
330
A
100
AcDbEntity
  8
0
  6
Continuous
 62
     7
370
     0
100
AcDbLine
 10
24.99999999999993
 20
-25.0
 30
0.0
 11
23.99999999999991
 21
-25.0
 31
0.0
  0
LINE
  5
41D8
330
A
100
AcDbEntity
  8
0
  6
Continuous
 62
     7
370
     0
100
AcDbLine
 10
24.99999999999993
 20
75.0
 30
0.0
 11
24.99999999999993
 21
50.0
 31
0.0
  0
LINE
  5
41D9
330
A
100
AcDbEntity
  8
0
  6
Continuous
 62
     7
370
     0
100
AcDbLine
 10
24.99999999999993
 20
0.0
 30
0.0
 11
24.99999999999993
 21
-25.0
 31
0.0
  0
LINE
  5
41DA
330
A
100
AcDbEntity
  8
0
  6
Continuous
 62
     7
370
     0
100
AcDbLine
 10
40.99999999999989
 20
50.0
 30
0.0
 11
25.99999999999992
 21
50.0
 31
0.0
  0
LINE
  5
41DB
330
A
100
AcDbEntity
  8
0
  6
Continuous
 62
     7
370
     0
100
AcDbLine
 10
25.99999999999992
 20
0.0
 30
0.0
 11
25.99999999999992
 21
50.0
 31
0.0
  0
LINE
  5
41DC
330
A
100
AcDbEntity
  8
0
  6
Continuous
 62
     7
370
     0
100
AcDbLine
 10
25.99999999999992
 20
0.0
 30
0.0
 11
40.99999999999989
 21
0.0
 31
0.0
  0
LINE
  5
41DD
330
A
100
AcDbEntity
  8
0
  6
Continuous
 62
     9
370
     0
100
AcDbLine
 10
24.99999999999993
 20
0.0
 30
0.0
 11
24.99999999999993
 21
50.0
 31
0.0
  0
LINE
  5
41DE
330
A
100
AcDbEntity
  8
0
  6
Continuous
 62
     7
370
     0
100
AcDbLine
 10
24.99999999999993
 20
50.0
 30
0.0
 11
25.99999999999992
 21
50.0
 31
0.0
  0
LINE
  5
41DF
330
A
100
AcDbEntity
  8
0
  6
Continuous
 62
     7
370
     0
100
AcDbLine
 10
25.99999999999992
 20
0.0
 30
0.0
 11
24.99999999999993
 21
0.0
 31
0.0
  0
LINE
  5
41E0
330
A
100
AcDbEntity
  8
0
  6
Continuous
 62
     7
370
     0
100
AcDbLine
 10
-25.00000000000009
 20
75.0
 30
0.0
 11
23.99999999999991
 21
75.0
 31
0.0
  0
LINE
  5
41E1
330
A
100
AcDbEntity
  8
0
  6
Continuous
 62
     7
370
     0
100
AcDbLine
 10
23.99999999999991
 20
50.0
 30
0.0
 11
23.99999999999991
 21
75.0
 31
0.0
  0
LINE
  5
41E2
330
A
100
AcDbEntity
  8
0
  6
Continuous
 62
     7
370
     0
100
AcDbLine
 10
-25.00000000000009
 20
-25.0
 30
0.0
 11
23.99999999999991
 21
-25.0
 31
0.0
  0
LINE
  5
41E3
330
A
100
AcDbEntity
  8
0
  6
Continuous
 62
     7
370
     0
100
AcDbLine
 10
23.99999999999991
 20
-25.0
 30
0.0
 11
23.99999999999991
 21
0.0
 31
0.0
  0
LINE
  5
41E4
330
A
100
AcDbEntity
  8
0
  6
Continuous
 62
     7
370
     0
100
AcDbLine
 10
-25.00000000000009
 20
-25.0
 30
0.0
 11
-25.00000000000009
 21
75.0
 31
0.0
  0
LINE
  5
41E5
330
A
100
AcDbEntity
  8
0
  6
Continuous
 62
     7
370
     0
100
AcDbLine
 10
24.99999999999993
 20
50.0
 30
0.0
 11
23.99999999999991
 21
50.0
 31
0.0
  0
LINE
  5
41E6
330
A
100
AcDbEntity
  8
0
  6
Continuous
 62
     7
370
     0
100
AcDbLine
 10
23.99999999999991
 20
0.0
 30
0.0
 11
24.99999999999993
 21
0.0
 31
0.0
  0
LINE
  5
41E7
330
A
100
AcDbEntity
  8
0
  6
Continuous
 62
     7
370
     0
100
AcDbLine
 10
26.49999999999991
 20
51.79999999999996
 30
0.0
 11
26.49999999999991
 21
51.29999999999995
 31
0.0
  0
LINE
  5
41E8
330
A
100
AcDbEntity
  8
0
  6
Continuous
 62
     7
370
     0
100
AcDbLine
 10
40.4999999999999
 20
51.29999999999995
 30
0.0
 11
40.4999999999999
 21
51.79999999999996
 31
0.0
  0
LINE
  5
41E9
330
A
100
AcDbEntity
  8
0
  6
Continuous
 62
     7
370
     0
100
AcDbLine
 10
40.4999999999999
 20
-1.800000000001715
 30
0.0
 11
40.50000000000106
 21
-1.300000000001715
 31
0.0
  0
LINE
  5
41EA
330
A
100
AcDbEntity
  8
0
  6
Continuous
 62
     7
370
     0
100
AcDbLine
 10
26.49999999999991
 20
-1.29999999999802
 30
0.0
 11
26.49999999999991
 21
-1.799999999997956
 31
0.0
  0
LINE
  5
41EB
330
A
100
AcDbEntity
  8
0
  6
Continuous
 62
     7
370
     0
100
AcDbLine
 10
39.49999999999992
 20
-25.59999999999934
 30
0.0
 11
39.49999999999992
 21
-24.99999999999932
 31
0.0
  0
LINE
  5
41EC
330
A
100
AcDbEntity
  8
0
  6
Continuous
 62
     7
370
     0
100
AcDbLine
 10
27.49999999999993
 20
-24.99999999999932
 30
0.0
 11
27.49999999999993
 21
-25.59999999999934
 31
0.0
  0
LINE
  5
41ED
330
A
100
AcDbEntity
  8
0
  6
Continuous
 62
     7
370
     0
100
AcDbLine
 10
27.49999999999993
 20
-25.59999999999934
 30
0.0
 11
28.19999999999995
 21
-26.29999999999933
 31
0.0
  0
LINE
  5
41EE
330
A
100
AcDbEntity
  8
0
  6
Continuous
 62
     7
370
     0
100
AcDbLine
 10
38.79999999999987
 20
-26.29999999999933
 30
0.0
 11
39.49999999999992
 21
-25.59999999999934
 31
0.0
  0
LINE
  5
41EF
330
A
100
AcDbEntity
  8
0
  6
Continuous
 62
     7
370
     0
100
AcDbLine
 10
27.49999999999993
 20
75.59999999999998
 30
0.0
 11
27.49999999999993
 21
75.0
 31
0.0
  0
LINE
  5
41F0
330
A
100
AcDbEntity
  8
0
  6
Continuous
 62
     7
370
     0
100
AcDbLine
 10
39.49999999999992
 20
75.0
 30
0.0
 11
39.49999999999992
 21
75.59999999999998
 31
0.0
  0
LINE
  5
41F1
330
A
100
AcDbEntity
  8
0
  6
Continuous
 62
     7
370
     0
100
AcDbLine
 10
39.49999999999992
 20
75.59999999999998
 30
0.0
 11
38.79999999999987
 21
76.2999999999999
 31
0.0
  0
LINE
  5
41F2
330
A
100
AcDbEntity
  8
0
  6
Continuous
 62
     7
370
     0
100
AcDbLine
 10
28.19999999999995
 20
76.2999999999999
 30
0.0
 11
27.49999999999993
 21
75.59999999999998
 31
0.0
  0
LINE
  5
41F3
330
A
100
AcDbEntity
  8
0
  6
Continuous
 62
     7
370
     0
100
AcDbLine
 10
29.49999999999993
 20
52.0
 30
0.0
 11
29.49999999999993
 21
51.79999999999996
 31
0.0
  0
LINE
  5
41F4
330
A
100
AcDbEntity
  8
0
  6
Continuous
 62
     7
370
     0
100
AcDbLine
 10
29.49999999999993
 20
-1.799999999948736
 30
0.0
 11
29.49999999999993
 21
-2.0
 31
0.0
  0
LINE
  5
41F5
330
A
100
AcDbEntity
  8
0
  6
Continuous
 62
     7
370
     0
100
AcDbLine
 10
37.49999999999992
 20
-2.0
 30
0.0
 11
37.49999999999992
 21
-1.799999999951006
 31
0.0
  0
LINE
  5
41F6
330
A
100
AcDbEntity
  8
0
  6
Continuous
 62
     7
370
     0
100
AcDbLine
 10
37.49999999999992
 20
51.79999999999996
 30
0.0
 11
37.49999999999992
 21
52.0
 31
0.0
  0
LINE
  5
41F7
330
A
100
AcDbEntity
  8
0
  6
Continuous
 62
     7
370
     0
100
AcDbLine
 10
25.99999999999992
 20
-2.0
 30
0.0
 11
25.99999999999992
 21
-25.0
 31
0.0
  0
LINE
  5
41F8
330
A
100
AcDbEntity
  8
0
  6
Continuous
 62
     7
370
     0
100
AcDbLine
 10
25.99999999999992
 20
61.50000500999998
 30
0.0
 11
25.99999999999992
 21
52.0
 31
0.0
  0
LINE
  5
41F9
330
A
100
AcDbEntity
  8
0
  6
Continuous
 62
     7
370
     0
100
AcDbLine
 10
25.99999999999992
 20
75.0
 30
0.0
 11
25.99999999999992
 21
64.49999499
 31
0.0
  0
LINE
  5
41FA
330
A
100
AcDbEntity
  8
0
  6
Continuous
 62
     7
370
     0
100
AcDbLine
 10
40.74999999999991
 20
50.0
 30
0.0
 11
40.74999999999991
 21
51.29999999999995
 31
0.0
  0
LINE
  5
41FB
330
A
100
AcDbEntity
  8
0
  6
Continuous
 62
     7
370
     0
100
AcDbLine
 10
26.24999999999993
 20
51.29999999999995
 30
0.0
 11
26.24999999999993
 21
50.0
 31
0.0
  0
LINE
  5
41FC
330
A
100
AcDbEntity
  8
0
  6
Continuous
 62
     7
370
     0
100
AcDbLine
 10
26.24999999999993
 20
0.0
 30
0.0
 11
26.24999999999993
 21
-1.300000000000238
 31
0.0
  0
LINE
  5
41FD
330
A
100
AcDbEntity
  8
0
  6
Continuous
 62
     7
370
     0
100
AcDbLine
 10
40.74999999999991
 20
-1.300000000000238
 30
0.0
 11
40.74999999999991
 21
0.0
 31
0.0
  0
LINE
  5
41FE
330
A
100
AcDbEntity
  8
0
  6
Continuous
 62
     7
370
     0
100
AcDbLine
 10
40.99999999999989
 20
0.0
 30
0.0
 11
40.99999999999989
 21
50.0
 31
0.0
  0
TEXT
  5
442C
330
A
100
AcDbEntity
  8
0
  6
Continuous
 62
     7
370
     0
100
AcDbText
 10
63.472791605661
 20
112.5146412887728
 30
0.0
 40
20.0
  1
8653
100
AcDbText
  0
LINE
  5
442D
330
A
100
AcDbEntity
  8
0
  6
Continuous
 62
     7
370
     0
100
AcDbLine
 10
39.39199105359003
 20
51.80022127366282
 30
0.0
 11
39.31492944290805
 21
51.86554763938794
 31
0.0
  0
LINE
  5
442E
330
A
100
AcDbEntity
  8
0
  6
Continuous
 62
     7
370
     0
100
AcDbLine
 10
39.31492944290805
 20
51.86554763938794
 30
0.0
 11
39.20208272530582
 21
51.91839984697645
 31
0.0
  0
ARC
  5
442F
330
A
100
AcDbEntity
  8
0
  6
Continuous
 62
     7
370
     0
100
AcDbCircle
 10
38.61106739006701
 20
49.4823534918375
 30
0.0
 40
2.506715175458468
100
AcDbArc
 50
76.3628170734042
 51
92.53948944414593
  0
ARC
  5
4430
330
A
100
AcDbEntity
  8
0
  6
Continuous
 62
     7
370
     0
100
AcDbCircle
 10
38.57355959287692
 20
1.154760610603599
 30
0.0
 40
3.142228618612631
100
AcDbArc
 50
268.6585828787504
 51
280.5280108369298
  0
LINE
  5
4431
330
A
100
AcDbEntity
  8
0
  6
Continuous
 62
     7
370
     0
100
AcDbLine
 10
39.14769566139982
 20
-1.934570784123985
 30
0.0
 11
39.24401545526885
 21
-1.902418554092039
 31
0.0
  0
LINE
  5
4432
330
A
100
AcDbEntity
  8
0
  6
Continuous
 62
     7
370
     0
100
AcDbLine
 10
39.24401545526885
 20
-1.902418554092039
 30
0.0
 11
39.34705972641396
 21
-1.842754653442678
 31
0.0
  0
LINE
  5
4433
330
A
100
AcDbEntity
  8
0
  6
Continuous
 62
     7
370
     0
100
AcDbLine
 10
39.34705972641396
 20
-1.842754653442678
 30
0.0
 11
39.391983029415
 21
-1.800230381374998
 31
0.0
  0
CIRCLE
  5
5465
330
A
100
AcDbEntity
  8
0
  6
CENTER
 62
     1
100
AcDbCircle
 10
0.0
 20
50.0
 30
0.0
 40
9.0
  0
CIRCLE
  5
5466
330
A
100
AcDbEntity
  8
0
  6
CENTER
 62
     1
100
AcDbCircle
 10
0.0
 20
0.0
 30
0.0
 40
9.0
  0
LINE
  5
5467
330
A
100
AcDbEntity
  8
0
  6
CENTER
 62
     1
100
AcDbLine
 10
-11.19999999999999
 20
50.0
 30
0.0
 11
11.19999999999999
 21
50.0
 31
0.0
  0
LINE
  5
5468
330
A
100
AcDbEntity
  8
0
  6
CENTER
 62
     1
100
AcDbLine
 10
0.0
 20
38.8
 30
0.0
 11
0.0
 21
61.2
 31
0.0
  0
LINE
  5
5469
330
A
100
AcDbEntity
  8
0
  6
CENTER
 62
     1
100
AcDbLine
 10
-11.19999999999999
 20
0.0
 30
0.0
 11
11.19999999999999
 21
0.0
 31
0.0
  0
LINE
  5
546A
330
A
100
AcDbEntity
  8
0
  6
CENTER
 62
     1
100
AcDbLine
 10
0.0
 20
-11.2
 30
0.0
 11
0.0
 21
11.2
 31
0.0
  0
LINE
  5
547D
330
A
100
AcDbEntity
  8
0
  6
CENTER
 62
     1
100
AcDbLine
 10
105.0000000129138
 20
-28.07043768929975
 30
0.0
 11
104.9999999997688
 21
78.29999999999978
 31
0.0
  0
LINE
  5
547E
330
A
100
AcDbEntity
  8
0
  6
CENTER
 62
     1
100
AcDbLine
 10
100.3338381593676
 20
63.00000000000011
 30
0.0
 11
109.6661618406321
 21
63.00000000000011
 31
0.0
  0
INSERT
  5
553E
330
A
100
AcDbEntity
  8
0
100
AcDbBlockReference
  2
AID5967
 10
191.3349055710298
 20
-139.9240596073612
 30
0.0
  0
ENDSEC
  0
SECTION
  2
OBJECTS
  0
DICTIONARY
  5
19
330
0
100
AcDbDictionary
281
     1
  3
ACAD_COLOR
350
231E
  3
ACAD_GROUP
350
1A
  3
ACAD_LAYOUT
350
1E
  3
ACAD_MATERIAL
350
22F4
  3
ACAD_MLEADERSTYLE
350
2343
  3
ACAD_MLINESTYLE
350
1B
  3
ACAD_PLOTSETTINGS
350
22
  3
ACAD_PLOTSTYLENAME
350
1F
  3
ACAD_SCALELIST
350
2321
  3
ACAD_TABLESTYLE
350
231F
  3
ACAD_VISUALSTYLE
350
230D
  3
ACAD_WIPEOUT_VARS
350
23
  3
ACDB_RECOMPOSE_DATA
350
4453
  3
AcDbVariableDictionary
350
444D
  3
ASE_INDEX_DICTIONARY
350
234C
  3
DWGPROPS
350
554F
  0
DICTIONARY
  5
2349
330
14
100
AcDbDictionary
280
     1
281
     1
  3
ADSK_XREC_LAYER_RECONCILED
360
234A
  0
DICTIONARY
  5
235B
330
A
100
AcDbDictionary
280
     1
281
     1
  3
ACAD_SORTENTS
360
235C
  0
DICTIONARY
  5
231E
102
{ACAD_REACTORS
330
19
102
}
330
19
100
AcDbDictionary
281
     1
  0
DICTIONARY
  5
1A
102
{ACAD_REACTORS
330
19
102
}
330
19
100
AcDbDictionary
281
     1
  0
DICTIONARY
  5
1E
102
{ACAD_REACTORS
330
19
102
}
330
19
100
AcDbDictionary
281
     1
  3
Layout1
350
21
  3
Model
350
20
  0
DICTIONARY
  5
22F4
102
{ACAD_REACTORS
330
19
102
}
330
19
100
AcDbDictionary
281
     1
  3
ByBlock
350
22FD
  3
ByLayer
350
22F5
  3
Global
350
2305
  0
DICTIONARY
  5
2343
102
{ACAD_REACTORS
330
19
102
}
330
19
100
AcDbDictionary
281
     1
  3
Standard
350
2344
  0
DICTIONARY
  5
1B
102
{ACAD_REACTORS
330
19
102
}
330
19
100
AcDbDictionary
281
     1
  3
Standard
350
1C
  0
DICTIONARY
  5
22
102
{ACAD_REACTORS
330
19
102
}
330
19
100
AcDbDictionary
281
     1
  0
ACDBDICTIONARYWDFLT
  5
1F
102
{ACAD_REACTORS
330
19
102
}
330
19
100
AcDbDictionary
281
     1
  3
Normal
350
1D
100
AcDbDictionaryWithDefault
340
1D
  0
DICTIONARY
  5
2321
102
{ACAD_REACTORS
330
19
102
}
330
19
100
AcDbDictionary
281
     1
  3
A0
350
2322
  3
A1
350
2323
  3
A2
350
2324
  3
A3
350
2325
  3
A4
350
2326
  3
A5
350
2327
  3
A6
350
2328
  3
A7
350
2329
  3
A8
350
232A
  3
A9
350
232B
  3
B0
350
232C
  3
B1
350
232D
  3
B2
350
232E
  3
B3
350
232F
  3
B4
350
2330
  3
B5
350
2331
  3
B6
350
2332
  3
B7
350
2333
  3
B8
350
2334
  3
B9
350
2335
  3
C0
350
2336
  3
C1
350
2337
  3
C2
350
2338
  3
C3
350
2339
  3
C4
350
233A
  3
C5
350
233B
  3
C6
350
233C
  3
C7
350
233D
  3
C8
350
233E
  3
C9
350
233F
  3
D0
350
2340
  3
D1
350
2341
  3
D2
350
2342
  0
DICTIONARY
  5
231F
102
{ACAD_REACTORS
330
19
102
}
330
19
100
AcDbDictionary
281
     1
  3
Standard
350
2320
  0
DICTIONARY
  5
230D
102
{ACAD_REACTORS
330
19
102
}
330
19
100
AcDbDictionary
281
     1
  3
2dWireframe
350
2313
  3
3D Hidden
350
2315
  3
3dWireframe
350
2314
  3
Basic
350
2312
  3
Brighten
350
2319
  3
ColorChange
350
231D
  3
Conceptual
350
2316
  3
Dim
350
2318
  3
Facepattern
350
231C
  3
Flat
350
230E
  3
FlatWithEdges
350
230F
  3
Gouraud
350
2310
  3
GouraudWithEdges
350
2311
  3
Linepattern
350
231B
  3
Realistic
350
2317
  3
Thicken
350
231A
  0
WIPEOUTVARIABLES
  5
23
330
19
100
AcDbWipeoutVariables
 70
     1
  0
XRECORD
  5
4453
102
{ACAD_REACTORS
330
19
102
}
330
19
100
AcDbXrecord
280
     1
 90
        1
330
2320
  0
DICTIONARY
  5
444D
102
{ACAD_REACTORS
330
19
102
}
330
19
100
AcDbDictionary
281
     1
  3
CANNOSCALE
350
4450
  3
CMLEADERSTYLE
350
444F
  3
CTABLESTYLE
350
444E
  3
DIMASSOC
350
445E
  3
INDEXCTL
350
445D
  3
SORTENTS
350
445C
  0
DICTIONARY
  5
234C
102
{ACAD_REACTORS
330
19
102
}
330
19
100
AcDbDictionary
281
     1
  3
ASEBlockHierarchyIndexRecord
350
234E
1001
DCO15
1040
1686551000.764
  0
XRECORD
  5
554F
102
{ACAD_REACTORS
330
19
102
}
330
19
100
AcDbXrecord
280
     1
  1
DWGPROPS COOKIE
  2

  3

  4

  6

  7

  8
renzo.ceresoli
  9

300
=
301
=
302
=
303
=
304
=
305
=
306
=
307
=
308
=
309
=
 40
0.0070918171296296
 41
2455323.560590278
 42
2455383.567472593
  1

 90
        0
  0
XRECORD
  5
234A
102
{ACAD_REACTORS
330
2349
102
}
330
2349
100
AcDbXrecord
280
     1
290
     1
  0
SORTENTSTABLE
  5
235C
102
{ACAD_REACTORS
330
235B
102
}
330
235B
100
AcDbSortentsTable
330
A
331
3A00
  5
2A37
331
A19
  5
2AA1
331
41BB
  5
14F0
331
3A7E
  5
2A03
331
3ABD
  5
29BE
331
A21
  5
2AA9
331
3A08
  5
2A3F
331
3A47
  5
2A7E
331
3AF4
  5
2969
331
3AFC
  5
2971
331
41C3
  5
14F2
331
3A4F
  5
2A86
331
3A86
  5
2A0B
331
3A10
  5
2A47
331
3AC5
  5
29C6
331
3ACD
  5
29CE
331
3B04
  5
2979
331
3A18
  5
2A4F
331
3A57
  5
2A8E
331
3A8E
  5
2984
331
41CB
  5
14F5
331
3A96
  5
298C
331
41D7
  5
181A
331
41DF
  5
1822
331
41E7
  5
182A
331
41EF
  5
1832
331
3A20
  5
2A57
331
39E1
  5
2A0D
331
3A9E
  5
2994
331
3AD5
  5
29D6
331
39E9
  5
2A15
331
3A28
  5
2A5F
331
3A5F
  5
29E4
331
41A4
  5
11B5
331
3A67
  5
29EC
331
3AA6
  5
29A2
331
39F1
  5
2A28
331
3A30
  5
2A67
331
3ADD
  5
2952
331
3AE5
  5
295A
331
41AC
  5
14E1
331
3A6F
  5
29F4
331
3AAE
  5
29AF
331
39F9
  5
2A30
331
3A38
  5
2A6F
331
3AED
  5
2962
331
41B4
  5
14E9
331
3A77
  5
29FC
331
3AB6
  5
29B7
331
41F7
  5
183A
331
3A40
  5
2A77
331
A1A
  5
2AA2
331
3A01
  5
2A38
331
3ABE
  5
29BF
331
3AF5
  5
296A
331
3A09
  5
2A40
331
3A48
  5
2A7F
331
A22
  5
2AAA
331
3A7F
  5
2A04
331
41C4
  5
14F3
331
3A87
  5
2A0C
331
3AC6
  5
29C7
331
3A11
  5
2A48
331
3A50
  5
2A87
331
3AFD
  5
2972
331
41CC
  5
14F6
331
3A8F
  5
2985
331
3A19
  5
2A50
331
3ACE
  5
29CF
331
3B05
  5
297A
331
3A97
  5
298D
331
41D0
  5
14FA
331
41D8
  5
181B
331
41E0
  5
1823
331
41E8
  5
182B
331
3A58
  5
2A8F
331
39E2
  5
2A0E
331
3A21
  5
2A58
331
3AD6
  5
29D7
331
3A29
  5
2A60
331
3A60
  5
29E5
331
39EA
  5
2A16
331
3A9F
  5
2995
331
3ADE
  5
2953
331
41A5
  5
11B6
331
3A31
  5
2A68
331
3A68
  5
29ED
331
39F2
  5
2A29
331
3AA7
  5
29A3
331
3AAF
  5
29B0
331
3AE6
  5
295B
331
39FA
  5
2A31
331
3A39
  5
2A70
331
3A70
  5
29F5
331
41AD
  5
14E2
331
41B5
  5
14EA
331
3AB7
  5
29B8
331
3AEE
  5
2963
331
41F0
  5
1833
331
41F8
  5
183B
331
3A78
  5
29FD
331
A1B
  5
2AA3
331
3A02
  5
2A39
331
3A41
  5
2A78
331
3AF6
  5
296B
331
3A80
  5
2A05
331
3ABF
  5
29C0
331
A23
  5
2AAB
331
3A0A
  5
2A41
331
3A49
  5
2A80
331
3AFE
  5
2973
331
3A51
  5
2A88
331
3A88
  5
297E
331
3A12
  5
2A49
331
3AC7
  5
29C8
331
3ACF
  5
29D0
331
3B06
  5
297B
331
3A1A
  5
2A51
331
3A90
  5
2986
331
41CD
  5
14F7
331
41D1
  5
14FB
331
41D9
  5
181C
331
41E1
  5
1824
331
41E9
  5
182C
331
3A98
  5
298E
331
3A22
  5
2A59
331
3A59
  5
29DE
331
39E3
  5
2A0F
331
3AA0
  5
2996
331
3AD7
  5
29D8
331
39EB
  5
2A17
331
3A2A
  5
2A61
331
3A61
  5
29E6
331
419E
  5
11AF
331
41A6
  5
11B7
331
3A69
  5
29EE
331
3AA8
  5
29A9
331
39F3
  5
2A2A
331
3A32
  5
2A69
331
3ADF
  5
2954
331
3AE7
  5
295C
331
41AE
  5
14E3
331
3A3A
  5
2A71
331
3A71
  5
29F6
331
39FB
  5
2A32
331
3AB0
  5
29B1
331
3AEF
  5
2964
331
41B6
  5
14EB
331
41F1
  5
1834
331
41F9
  5
1B55
331
3A42
  5
2A79
331
3A79
  5
29FE
331
A1C
  5
2AA4
331
3A03
  5
2A3A
331
3AB8
  5
29B9
331
3AC0
  5
29C1
331
3AF7
  5
296C
331
3A0B
  5
2A42
331
3A4A
  5
2A81
331
A24
  5
2AAC
331
3A81
  5
2A06
331
3A89
  5
297F
331
3AC8
  5
29C9
331
3A13
  5
2A4A
331
3A52
  5
2A89
331
3AFF
  5
2974
331
3B07
  5
297C
331
3A91
  5
2987
331
41CE
  5
14F8
331
3A1B
  5
2A52
331
41D2
  5
14FC
331
41DA
  5
181D
331
41E2
  5
1825
331
41EA
  5
182D
331
3A5A
  5
29DF
331
3A99
  5
298F
331
39E4
  5
2A10
331
3A23
  5
2A5A
331
3AD0
  5
29D1
331
3AD8
  5
29D9
331
419F
  5
11B0
331
3A2B
  5
2A62
331
3A62
  5
29E7
331
39EC
  5
2A18
331
3AA1
  5
2997
331
3AA9
  5
29AA
331
3AE0
  5
2955
331
3A33
  5
2A6A
331
3A6A
  5
29EF
331
41A7
  5
11B8
331
39F4
  5
2A2B
331
3AB1
  5
29B2
331
3AE8
  5
295D
331
39FC
  5
2A33
331
3A3B
  5
2A72
331
A15
  5
2A9D
331
3A72
  5
29F7
331
41AF
  5
14E4
331
41B7
  5
14EC
331
41F2
  5
1835
331
41FA
  5
1B56
331
3A7A
  5
29FF
331
3AB9
  5
29BA
331
A1D
  5
2AA5
331
3A04
  5
2A3B
331
3A43
  5
2A7A
331
3AF0
  5
2965
331
3AF8
  5
296D
331
3A4B
  5
2A82
331
3A82
  5
2A07
331
A25
  5
2AAD
331
3A0C
  5
2A43
331
3AC1
  5
29C2
331
3B00
  5
2975
331
3A53
  5
2A8A
331
3A8A
  5
2980
331
3A14
  5
2A4B
331
3AC9
  5
29CA
331
3B08
  5
297D
331
3A1C
  5
2A53
331
3A92
  5
2988
331
41CF
  5
14F9
331
41D3
  5
14FD
331
41DB
  5
181E
331
41E3
  5
1826
331
41EB
  5
182E
331
3A9A
  5
2990
331
3AD1
  5
29D2
331
39E5
  5
2A11
331
3A24
  5
2A5B
331
3A5B
  5
29E0
331
41A0
  5
11B1
331
3AA2
  5
2998
331
3AD9
  5
29DA
331
39ED
  5
2A24
331
3A2C
  5
2A63
331
3A63
  5
29E8
331
41A8
  5
11B9
331
3A6B
  5
29F0
331
3AAA
  5
29AB
331
A0E
  5
2A96
331
39F5
  5
2A2C
331
3A34
  5
2A6B
331
3AE1
  5
2956
331
3AE9
  5
295E
331
41B0
  5
14E5
331
3A3C
  5
2A73
331
3A73
  5
29F8
331
A16
  5
2A9E
331
39FD
  5
2A34
331
3AB2
  5
29B3
331
41F3
  5
1836
331
41FB
  5
1B57
331
3ABA
  5
29BB
331
3AF1
  5
2966
331
3A44
  5
2A7B
331
3A7B
  5
2A00
331
41B8
  5
14ED
331
A1E
  5
2AA6
331
3A05
  5
2A3C
331
3AC2
  5
29C3
331
3AF9
  5
296E
331
3A0D
  5
2A44
331
3A4C
  5
2A83
331
A26
  5
2AAE
331
3A83
  5
2A08
331
3A8B
  5
2981
331
3ACA
  5
29CB
331
3A15
  5
2A4C
331
3A54
  5
2A8B
331
3B01
  5
2976
331
3A93
  5
2989
331
3A1D
  5
2A54
331
41D4
  5
14FE
331
41DC
  5
181F
331
41E4
  5
1827
331
41EC
  5
182F
331
3A5C
  5
29E1
331
3A9B
  5
2991
331
39E6
  5
2A12
331
3A25
  5
2A5C
331
3AD2
  5
29D3
331
3ADA
  5
29DB
331
41A1
  5
11B2
331
3A2D
  5
2A64
331
3A64
  5
29E9
331
39EE
  5
2A25
331
3AA3
  5
2999
331
3AAB
  5
29AC
331
3AE2
  5
2957
331
39F6
  5
2A2D
331
3A35
  5
2A6C
331
A0F
  5
2A97
331
3A6C
  5
29F1
331
41A9
  5
14DE
331
41B1
  5
14E6
331
3AB3
  5
29B4
331
3AEA
  5
295F
331
39FE
  5
2A35
331
3A3D
  5
2A74
331
A17
  5
2A9F
331
3A74
  5
29F9
331
41F4
  5
1837
331
41FC
  5
1B58
331
41B9
  5
14EE
331
3A7C
  5
2A01
331
3ABB
  5
29BC
331
A1F
  5
2AA7
331
3A06
  5
2A3D
331
3A45
  5
2A7C
331
3AF2
  5
2967
331
3AFA
  5
296F
331
3A4D
  5
2A84
331
3A84
  5
2A09
331
A27
  5
2AAF
331
3A0E
  5
2A45
331
3AC3
  5
29C4
331
3ACB
  5
29CC
331
3B02
  5
2977
331
3A55
  5
2A8C
331
3A8C
  5
2982
331
3A16
  5
2A4D
331
3A1E
  5
2A55
331
3A94
  5
298A
331
41D5
  5
14FF
331
41DD
  5
1820
331
41E5
  5
1828
331
41ED
  5
1830
331
3A9C
  5
2992
331
3AD3
  5
29D4
331
39E7
  5
2A13
331
3A26
  5
2A5D
331
3A5D
  5
29E2
331
41A2
  5
11B3
331
3A65
  5
29EA
331
3AA4
  5
299A
331
39EF
  5
2A26
331
3A2E
  5
2A65
331
3ADB
  5
29DC
331
41AA
  5
14DF
331
3A6D
  5
29F2
331
3AAC
  5
29AD
331
A10
  5
2A98
331
39F7
  5
2A2E
331
3A36
  5
2A6D
331
3AE3
  5
2958
331
3AEB
  5
2960
331
41B2
  5
14E7
331
3A3E
  5
2A75
331
3A75
  5
29FA
331
39FF
  5
2A36
331
3AB4
  5
29B5
331
41F5
  5
1838
331
41FD
  5
1B59
331
A18
  5
2AA0
331
3ABC
  5
29BD
331
3AF3
  5
2968
331
3A07
  5
2A3E
331
3A46
  5
2A7D
331
A20
  5
2AA8
331
3A7D
  5
2A02
331
41BA
  5
14EF
331
3AC4
  5
29C5
331
3AFB
  5
2970
331
3A0F
  5
2A46
331
3A4E
  5
2A85
331
A28
  5
2AB0
331
3A85
  5
2A0A
331
3A8D
  5
2983
331
3ACC
  5
29CD
331
3A17
  5
2A4E
331
3A56
  5
2A8D
331
3B03
  5
2978
331
3A95
  5
298B
331
3A1F
  5
2A56
331
41D6
  5
1500
331
41DE
  5
1821
331
41E6
  5
1829
331
41EE
  5
1831
331
3AD4
  5
29D5
331
3A5E
  5
29E3
331
3A9D
  5
2993
331
39E8
  5
2A14
331
3A27
  5
2A5E
331
3ADC
  5
29DD
331
41A3
  5
11B4
331
3A2F
  5
2A66
331
3A66
  5
29EB
331
39F0
  5
2A27
331
3AA5
  5
29A1
331
3AAD
  5
29AE
331
3AE4
  5
2959
331
39F8
  5
2A2F
331
A11
  5
2A99
331
3A6E
  5
29F3
331
41AB
  5
14E0
331
41B3
  5
14E8
331
3A76
  5
29FB
331
3AB5
  5
29B6
331
3A3F
  5
2A76
331
3AEC
  5
2961
331
41F6
  5
1839
331
41FE
  5
1B5A
  0
LAYOUT
  5
21
102
{ACAD_XDICTIONARY
360
5552
102
}
102
{ACAD_REACTORS
330
1E
102
}
330
1E
100
AcDbPlotSettings
  1

  2

  4

  6

 40
0.0
 41
0.0
 42
0.0
 43
0.0
 44
0.0
 45
0.0
 46
0.0
 47
0.0
 48
0.0
 49
0.0
140
0.0
141
0.0
142
1.0
143
1.0
 70
     0
 72
     0
 73
     0
 74
     0
  7

 75
     0
147
1.0
148
0.0
149
0.0
100
AcDbLayout
  1
Layout1
 70
     0
 71
     1
 10
0.0
 20
0.0
 11
12.0
 21
9.0
 12
0.0
 22
0.0
 32
0.0
 14
1.000000000000000E+20
 24
1.000000000000000E+20
 34
1.000000000000000E+20
 15
-1.000000000000000E+20
 25
-1.000000000000000E+20
 35
-1.000000000000000E+20
146
0.0
 13
0.0
 23
0.0
 33
0.0
 16
1.0
 26
0.0
 36
0.0
 17
0.0
 27
1.0
 37
0.0
 76
     0
330
B
  0
LAYOUT
  5
20
102
{ACAD_XDICTIONARY
360
5550
102
}
102
{ACAD_REACTORS
330
1E
102
}
330
1E
100
AcDbPlotSettings
  1

  2

  4

  6

 40
0.0
 41
0.0
 42
0.0
 43
0.0
 44
0.0
 45
0.0
 46
0.0
 47
0.0
 48
0.0
 49
0.0
140
0.0
141
0.0
142
1.0
143
1.0
 70
  1024
 72
     0
 73
     0
 74
     0
  7

 75
     0
147
1.0
148
0.0
149
0.0
100
AcDbLayout
  1
Model
 70
     0
 71
     0
 10
0.0
 20
0.0
 11
0.0
 21
0.0
 12
0.0
 22
0.0
 32
0.0
 14
0.0
 24
0.0
 34
0.0
 15
0.0
 25
0.0
 35
0.0
146
0.0
 13
0.0
 23
0.0
 33
0.0
 16
0.0
 26
0.0
 36
0.0
 17
0.0
 27
0.0
 37
0.0
 76
     0
330
A
331
15
  0
MATERIAL
  5
22FD
102
{ACAD_XDICTIONARY
360
22FE
102
}
102
{ACAD_REACTORS
330
22F4
102
}
330
22F4
100
AcDbMaterial
  1
ByBlock
 72
     0
 43
0.0208333333333333
 43
0.0
 43
0.0
 43
0.0
 43
0.0
 43
0.0208333333333333
 43
0.0
 43
0.0
 43
0.0
 43
0.0
 43
1.0
 43
0.0
 43
0.0
 43
0.0
 43
0.0
 43
1.0
 77
     0
 47
0.0208333333333333
 47
0.0
 47
0.0
 47
0.0
 47
0.0
 47
0.0208333333333333
 47
0.0
 47
0.0
 47
0.0
 47
0.0
 47
1.0
 47
0.0
 47
0.0
 47
0.0
 47
0.0
 47
1.0
171
     0
 49
0.0208333333333333
 49
0.0
 49
0.0
 49
0.0
 49
0.0
 49
0.0208333333333333
 49
0.0
 49
0.0
 49
0.0
 49
0.0
 49
1.0
 49
0.0
 49
0.0
 49
0.0
 49
0.0
 49
1.0
175
     0
142
0.0208333333333333
142
0.0
142
0.0
142
0.0
142
0.0
142
0.0208333333333333
142
0.0
142
0.0
142
0.0
142
0.0
142
1.0
142
0.0
142
0.0
142
0.0
142
0.0
142
1.0
179
     0
144
0.0208333333333333
144
0.0
144
0.0
144
0.0
144
0.0
144
0.0208333333333333
144
0.0
144
0.0
144
0.0
144
0.0
144
1.0
144
0.0
144
0.0
144
0.0
144
0.0
144
1.0
147
0.0208333333333333
147
0.0
147
0.0
147
0.0
147
0.0
147
0.0208333333333333
147
0.0
147
0.0
147
0.0
147
0.0
147
1.0
147
0.0
147
0.0
147
0.0
147
0.0
147
1.0
  0
MATERIAL
  5
22F5
102
{ACAD_XDICTIONARY
360
22F6
102
}
102
{ACAD_REACTORS
330
22F4
102
}
330
22F4
100
AcDbMaterial
  1
ByLayer
 72
     0
 43
0.0208333333333333
 43
0.0
 43
0.0
 43
0.0
 43
0.0
 43
0.0208333333333333
 43
0.0
 43
0.0
 43
0.0
 43
0.0
 43
1.0
 43
0.0
 43
0.0
 43
0.0
 43
0.0
 43
1.0
 77
     0
 47
0.0208333333333333
 47
0.0
 47
0.0
 47
0.0
 47
0.0
 47
0.0208333333333333
 47
0.0
 47
0.0
 47
0.0
 47
0.0
 47
1.0
 47
0.0
 47
0.0
 47
0.0
 47
0.0
 47
1.0
171
     0
 49
0.0208333333333333
 49
0.0
 49
0.0
 49
0.0
 49
0.0
 49
0.0208333333333333
 49
0.0
 49
0.0
 49
0.0
 49
0.0
 49
1.0
 49
0.0
 49
0.0
 49
0.0
 49
0.0
 49
1.0
175
     0
142
0.0208333333333333
142
0.0
142
0.0
142
0.0
142
0.0
142
0.0208333333333333
142
0.0
142
0.0
142
0.0
142
0.0
142
1.0
142
0.0
142
0.0
142
0.0
142
0.0
142
1.0
179
     0
144
0.0208333333333333
144
0.0
144
0.0
144
0.0
144
0.0
144
0.0208333333333333
144
0.0
144
0.0
144
0.0
144
0.0
144
1.0
144
0.0
144
0.0
144
0.0
144
0.0
144
1.0
147
0.0208333333333333
147
0.0
147
0.0
147
0.0
147
0.0
147
0.0208333333333333
147
0.0
147
0.0
147
0.0
147
0.0
147
1.0
147
0.0
147
0.0
147
0.0
147
0.0
147
1.0
  0
MATERIAL
  5
2305
102
{ACAD_XDICTIONARY
360
2306
102
}
102
{ACAD_REACTORS
330
22F4
102
}
330
22F4
100
AcDbMaterial
  1
Global
 72
     0
 43
0.0208333333333333
 43
0.0
 43
0.0
 43
0.0
 43
0.0
 43
0.0208333333333333
 43
0.0
 43
0.0
 43
0.0
 43
0.0
 43
1.0
 43
0.0
 43
0.0
 43
0.0
 43
0.0
 43
1.0
 77
     0
 47
0.0208333333333333
 47
0.0
 47
0.0
 47
0.0
 47
0.0
 47
0.0208333333333333
 47
0.0
 47
0.0
 47
0.0
 47
0.0
 47
1.0
 47
0.0
 47
0.0
 47
0.0
 47
0.0
 47
1.0
171
     0
 49
0.0208333333333333
 49
0.0
 49
0.0
 49
0.0
 49
0.0
 49
0.0208333333333333
 49
0.0
 49
0.0
 49
0.0
 49
0.0
 49
1.0
 49
0.0
 49
0.0
 49
0.0
 49
0.0
 49
1.0
175
     0
142
0.0208333333333333
142
0.0
142
0.0
142
0.0
142
0.0
142
0.0208333333333333
142
0.0
142
0.0
142
0.0
142
0.0
142
1.0
142
0.0
142
0.0
142
0.0
142
0.0
142
1.0
179
     0
144
0.0208333333333333
144
0.0
144
0.0
144
0.0
144
0.0
144
0.0208333333333333
144
0.0
144
0.0
144
0.0
144
0.0
144
1.0
144
0.0
144
0.0
144
0.0
144
0.0
144
1.0
147
0.0208333333333333
147
0.0
147
0.0
147
0.0
147
0.0
147
0.0208333333333333
147
0.0
147
0.0
147
0.0
147
0.0
147
1.0
147
0.0
147
0.0
147
0.0
147
0.0
147
1.0
  0
MLEADERSTYLE
  5
2344
102
{ACAD_REACTORS
330
2343
102
}
330
2343
100
AcDbMLeaderStyle
170
     2
171
     1
172
     0
 90
        2
 40
0.0
 41
0.0
173
     1
 91
-1056964608
340
11
 92
       -2
290
     1
 42
2.0
291
     1
 43
0.36
  3
Standard
 44
4.0
300

342
17
174
     1
178
     6
175
     1
176
     0
 93
-1056964608
 45
4.0
292
     0
297
     0
 46
4.0
 94
-1056964608
 47
1.0
 49
1.0
140
1.0
293
     1
141
0.0
294
     1
177
     0
142
1.0
295
     0
296
     0
143
0.125
1001
ACAD_MLEADERVER
1070
     2
  0
MLINESTYLE
  5
1C
102
{ACAD_REACTORS
330
1B
102
}
330
1B
100
AcDbMlineStyle
  2
STANDARD
 70
     0
  3

 62
     0
 51
90.0
 52
90.0
 71
     2
 49
0.5
 62
   256
  6
BYLAYER
 49
-0.5
 62
   256
  6
BYLAYER
  0
ACDBPLACEHOLDER
  5
1D
102
{ACAD_REACTORS
330
1F
102
}
330
1F
  0
SCALE
  5
2322
102
{ACAD_REACTORS
330
2321
102
}
330
2321
100
AcDbScale
 70
     0
300
1:1
140
1.0
141
1.0
290
     1
  0
SCALE
  5
2323
102
{ACAD_REACTORS
330
2321
102
}
330
2321
100
AcDbScale
 70
     0
300
1:2
140
1.0
141
2.0
290
     0
  0
SCALE
  5
2324
102
{ACAD_REACTORS
330
2321
102
}
330
2321
100
AcDbScale
 70
     0
300
1:4
140
1.0
141
4.0
290
     0
  0
SCALE
  5
2325
102
{ACAD_REACTORS
330
2321
102
}
330
2321
100
AcDbScale
 70
     0
300
1:5
140
1.0
141
5.0
290
     0
  0
SCALE
  5
2326
102
{ACAD_REACTORS
330
2321
102
}
330
2321
100
AcDbScale
 70
     0
300
1:8
140
1.0
141
8.0
290
     0
  0
SCALE
  5
2327
102
{ACAD_REACTORS
330
2321
102
}
330
2321
100
AcDbScale
 70
     0
300
1:10
140
1.0
141
10.0
290
     0
  0
SCALE
  5
2328
102
{ACAD_REACTORS
330
2321
102
}
330
2321
100
AcDbScale
 70
     0
300
1:16
140
1.0
141
16.0
290
     0
  0
SCALE
  5
2329
102
{ACAD_REACTORS
330
2321
102
}
330
2321
100
AcDbScale
 70
     0
300
1:20
140
1.0
141
20.0
290
     0
  0
SCALE
  5
232A
102
{ACAD_REACTORS
330
2321
102
}
330
2321
100
AcDbScale
 70
     0
300
1:30
140
1.0
141
30.0
290
     0
  0
SCALE
  5
232B
102
{ACAD_REACTORS
330
2321
102
}
330
2321
100
AcDbScale
 70
     0
300
1:40
140
1.0
141
40.0
290
     0
  0
SCALE
  5
232C
102
{ACAD_REACTORS
330
2321
102
}
330
2321
100
AcDbScale
 70
     0
300
1:50
140
1.0
141
50.0
290
     0
  0
SCALE
  5
232D
102
{ACAD_REACTORS
330
2321
102
}
330
2321
100
AcDbScale
 70
     0
300
1:100
140
1.0
141
100.0
290
     0
  0
SCALE
  5
232E
102
{ACAD_REACTORS
330
2321
102
}
330
2321
100
AcDbScale
 70
     0
300
2:1
140
2.0
141
1.0
290
     0
  0
SCALE
  5
232F
102
{ACAD_REACTORS
330
2321
102
}
330
2321
100
AcDbScale
 70
     0
300
4:1
140
4.0
141
1.0
290
     0
  0
SCALE
  5
2330
102
{ACAD_REACTORS
330
2321
102
}
330
2321
100
AcDbScale
 70
     0
300
8:1
140
8.0
141
1.0
290
     0
  0
SCALE
  5
2331
102
{ACAD_REACTORS
330
2321
102
}
330
2321
100
AcDbScale
 70
     0
300
10:1
140
10.0
141
1.0
290
     0
  0
SCALE
  5
2332
102
{ACAD_REACTORS
330
2321
102
}
330
2321
100
AcDbScale
 70
     0
300
100:1
140
100.0
141
1.0
290
     0
  0
SCALE
  5
2333
102
{ACAD_REACTORS
330
2321
102
}
330
2321
100
AcDbScale
 70
     0
300
1/128" = 1'-0"
140
0.0078125
141
12.0
290
     0
  0
SCALE
  5
2334
102
{ACAD_REACTORS
330
2321
102
}
330
2321
100
AcDbScale
 70
     0
300
1/64" = 1'-0"
140
0.015625
141
12.0
290
     0
  0
SCALE
  5
2335
102
{ACAD_REACTORS
330
2321
102
}
330
2321
100
AcDbScale
 70
     0
300
1/32" = 1'-0"
140
0.03125
141
12.0
290
     0
  0
SCALE
  5
2336
102
{ACAD_REACTORS
330
2321
102
}
330
2321
100
AcDbScale
 70
     0
300
1/16" = 1'-0"
140
0.0625
141
12.0
290
     0
  0
SCALE
  5
2337
102
{ACAD_REACTORS
330
2321
102
}
330
2321
100
AcDbScale
 70
     0
300
3/32" = 1'-0"
140
0.09375
141
12.0
290
     0
  0
SCALE
  5
2338
102
{ACAD_REACTORS
330
2321
102
}
330
2321
100
AcDbScale
 70
     0
300
1/8" = 1'-0"
140
0.125
141
12.0
290
     0
  0
SCALE
  5
2339
102
{ACAD_REACTORS
330
2321
102
}
330
2321
100
AcDbScale
 70
     0
300
3/16" = 1'-0"
140
0.1875
141
12.0
290
     0
  0
SCALE
  5
233A
102
{ACAD_REACTORS
330
2321
102
}
330
2321
100
AcDbScale
 70
     0
300
1/4" = 1'-0"
140
0.25
141
12.0
290
     0
  0
SCALE
  5
233B
102
{ACAD_REACTORS
330
2321
102
}
330
2321
100
AcDbScale
 70
     0
300
3/8" = 1'-0"
140
0.375
141
12.0
290
     0
  0
SCALE
  5
233C
102
{ACAD_REACTORS
330
2321
102
}
330
2321
100
AcDbScale
 70
     0
300
1/2" = 1'-0"
140
0.5
141
12.0
290
     0
  0
SCALE
  5
233D
102
{ACAD_REACTORS
330
2321
102
}
330
2321
100
AcDbScale
 70
     0
300
3/4" = 1'-0"
140
0.75
141
12.0
290
     0
  0
SCALE
  5
233E
102
{ACAD_REACTORS
330
2321
102
}
330
2321
100
AcDbScale
 70
     0
300
1" = 1'-0"
140
1.0
141
12.0
290
     0
  0
SCALE
  5
233F
102
{ACAD_REACTORS
330
2321
102
}
330
2321
100
AcDbScale
 70
     0
300
1-1/2" = 1'-0"
140
1.5
141
12.0
290
     0
  0
SCALE
  5
2340
102
{ACAD_REACTORS
330
2321
102
}
330
2321
100
AcDbScale
 70
     0
300
3" = 1'-0"
140
3.0
141
12.0
290
     0
  0
SCALE
  5
2341
102
{ACAD_REACTORS
330
2321
102
}
330
2321
100
AcDbScale
 70
     0
300
6" = 1'-0"
140
6.0
141
12.0
290
     0
  0
SCALE
  5
2342
102
{ACAD_REACTORS
330
2321
102
}
330
2321
100
AcDbScale
 70
     0
300
1'-0" = 1'-0"
140
12.0
141
12.0
290
     0
  0
TABLESTYLE
  5
2320
102
{ACAD_XDICTIONARY
360
4451
102
}
102
{ACAD_REACTORS
330
231F
102
}
330
231F
100
AcDbTableStyle
  3
Standard
 70
     0
 71
     0
 40
1.5
 41
1.5
280
     0
281
     0
  7
Standard
140
4.5
170
     2
 62
     0
 63
     7
283
     0
274
    -2
284
     1
 64
     0
275
    -2
285
     1
 65
     0
276
    -2
286
     1
 66
     0
277
    -2
287
     1
 67
     0
278
    -2
288
     1
 68
     0
279
    -2
289
     1
 69
     0
  7
Standard
140
6.0
170
     5
 62
     0
 63
     7
283
     0
274
    -2
284
     1
 64
     0
275
    -2
285
     1
 65
     0
276
    -2
286
     1
 66
     0
277
    -2
287
     1
 67
     0
278
    -2
288
     1
 68
     0
279
    -2
289
     1
 69
     0
  7
Standard
140
4.5
170
     5
 62
     0
 63
     7
283
     0
274
    -2
284
     1
 64
     0
275
    -2
285
     1
 65
     0
276
    -2
286
     1
 66
     0
277
    -2
287
     1
 67
     0
278
    -2
288
     1
 68
     0
279
    -2
289
     1
 69
     0
  0
VISUALSTYLE
  5
2313
102
{ACAD_REACTORS
330
230D
102
}
330
230D
100
AcDbVisualStyle
  2
2dWireframe
 70
     4
 71
     0
 72
     2
 73
     0
 90
        0
 40
-0.6
 41
-30.0
 62
     5
 63
     7
 74
     1
 91
        4
 64
     7
 65
   257
 75
     1
175
     1
 42
1.0
 92
        0
 66
   257
 43
1.0
 76
     1
 77
     6
 78
     2
 67
     7
 79
     5
170
     0
171
     0
290
     0
174
     0
 93
        1
 44
0.0
173
     0
291
     0
 45
0.0
1001
ACAD
1000
AcDbSavedByObjectVersion
1070
     0
1000
AcDbSavedByObjectVersion
1070
     0
1000
AcDbSavedByObjectVersion
1070
     0
1000
AcDbSavedByObjectVersion
1070
     0
1000
AcDbSavedByObjectVersion
1070
     0
1000
AcDbSavedByObjectVersion
1070
     0
  0
VISUALSTYLE
  5
2315
102
{ACAD_REACTORS
330
230D
102
}
330
230D
100
AcDbVisualStyle
  2
3D Hidden
 70
     6
 71
     1
 72
     2
 73
     2
 90
        0
 40
-0.6
 41
-30.0
 62
     5
 63
     7
 74
     2
 91
        2
 64
     7
 65
   257
 75
     2
175
     1
 42
40.0
 92
        0
 66
   257
 43
1.0
 76
     1
 77
     6
 78
     2
 67
     7
 79
     3
170
     0
171
     0
290
     0
174
     0
 93
        1
 44
0.0
173
     0
291
     0
 45
0.0
1001
ACAD
1000
AcDbSavedByObjectVersion
1070
     0
1000
AcDbSavedByObjectVersion
1070
     0
1000
AcDbSavedByObjectVersion
1070
     0
1000
AcDbSavedByObjectVersion
1070
     0
1000
AcDbSavedByObjectVersion
1070
     0
1000
AcDbSavedByObjectVersion
1070
     0
  0
VISUALSTYLE
  5
2314
102
{ACAD_REACTORS
330
230D
102
}
330
230D
100
AcDbVisualStyle
  2
3dWireframe
 70
     5
 71
     0
 72
     2
 73
     0
 90
        0
 40
-0.6
 41
-30.0
 62
     5
 63
     7
 74
     1
 91
        4
 64
     7
 65
   257
 75
     1
175
     1
 42
1.0
 92
        0
 66
   257
 43
1.0
 76
     1
 77
     6
 78
     2
 67
     7
 79
     5
170
     0
171
     0
290
     0
174
     0
 93
        1
 44
0.0
173
     0
291
     0
 45
0.0
1001
ACAD
1000
AcDbSavedByObjectVersion
1070
     0
1000
AcDbSavedByObjectVersion
1070
     0
1000
AcDbSavedByObjectVersion
1070
     0
1000
AcDbSavedByObjectVersion
1070
     0
1000
AcDbSavedByObjectVersion
1070
     0
1000
AcDbSavedByObjectVersion
1070
     0
  0
VISUALSTYLE
  5
2312
102
{ACAD_REACTORS
330
230D
102
}
330
230D
100
AcDbVisualStyle
  2
Basic
 70
     7
 71
     1
 72
     0
 73
     1
 90
        0
 40
-0.6
 41
-30.0
 62
     5
 63
     7
 74
     0
 91
        4
 64
     7
 65
   257
 75
     1
175
     1
 42
1.0
 92
        8
 66
     7
 43
1.0
 76
     1
 77
     6
 78
     2
 67
     7
 79
     5
170
     0
171
     0
290
     0
174
     0
 93
        1
 44
0.0
173
     0
291
     1
 45
0.0
1001
ACAD
1000
AcDbSavedByObjectVersion
1070
     0
1000
AcDbSavedByObjectVersion
1070
     0
1000
AcDbSavedByObjectVersion
1070
     0
1000
AcDbSavedByObjectVersion
1070
     0
1000
AcDbSavedByObjectVersion
1070
     0
1000
AcDbSavedByObjectVersion
1070
     0
  0
VISUALSTYLE
  5
2319
102
{ACAD_REACTORS
330
230D
102
}
330
230D
100
AcDbVisualStyle
  2
Brighten
 70
    12
 71
     2
 72
     2
 73
     0
 90
        0
 40
-0.6
 41
-30.0
 62
     5
 63
     7
 74
     1
 91
        4
 64
     7
 65
   257
 75
     1
175
     1
 42
1.0
 92
        8
 66
     7
 43
1.0
 76
     1
 77
     6
 78
     2
 67
     7
 79
     5
170
     0
171
     0
290
     0
174
     0
 93
        1
 44
50.0
173
     0
291
     1
 45
0.0
1001
ACAD
1000
AcDbSavedByObjectVersion
1070
     0
1000
AcDbSavedByObjectVersion
1070
     0
1000
AcDbSavedByObjectVersion
1070
     0
1000
AcDbSavedByObjectVersion
1070
     0
1000
AcDbSavedByObjectVersion
1070
     0
1000
AcDbSavedByObjectVersion
1070
     0
  0
VISUALSTYLE
  5
231D
102
{ACAD_REACTORS
330
230D
102
}
330
230D
100
AcDbVisualStyle
  2
ColorChange
 70
    16
 71
     2
 72
     2
 73
     3
 90
        0
 40
-0.6
 41
-30.0
 62
     5
 63
     8
 74
     1
 91
        4
 64
     7
 65
   257
 75
     1
175
     1
 42
1.0
 92
        8
 66
     8
 43
1.0
 76
     1
 77
     6
 78
     2
 67
     7
 79
     5
170
     0
171
     0
290
     0
174
     0
 93
        1
 44
0.0
173
     0
291
     1
 45
0.0
1001
ACAD
1000
AcDbSavedByObjectVersion
1070
     0
1000
AcDbSavedByObjectVersion
1070
     0
1000
AcDbSavedByObjectVersion
1070
     0
1000
AcDbSavedByObjectVersion
1070
     0
1000
AcDbSavedByObjectVersion
1070
     0
1000
AcDbSavedByObjectVersion
1070
     0
  0
VISUALSTYLE
  5
2316
102
{ACAD_REACTORS
330
230D
102
}
330
230D
100
AcDbVisualStyle
  2
Conceptual
 70
     9
 71
     3
 72
     2
 73
     0
 90
        0
 40
-0.6
 41
-30.0
 62
     5
 63
     7
 74
     2
 91
        2
 64
     7
 65
   257
 75
     1
175
     1
 42
40.0
 92
        8
 66
     7
 43
1.0
 76
     1
 77
     6
 78
     2
 67
     7
 79
     3
170
     0
171
     0
290
     0
174
     0
 93
        1
 44
0.0
173
     0
291
     0
 45
0.0
1001
ACAD
1000
AcDbSavedByObjectVersion
1070
     0
1000
AcDbSavedByObjectVersion
1070
     0
1000
AcDbSavedByObjectVersion
1070
     0
1000
AcDbSavedByObjectVersion
1070
     0
1000
AcDbSavedByObjectVersion
1070
     0
1000
AcDbSavedByObjectVersion
1070
     0
  0
VISUALSTYLE
  5
2318
102
{ACAD_REACTORS
330
230D
102
}
330
230D
100
AcDbVisualStyle
  2
Dim
 70
    11
 71
     2
 72
     2
 73
     0
 90
        0
 40
-0.6
 41
-30.0
 62
     5
 63
     7
 74
     1
 91
        4
 64
     7
 65
   257
 75
     1
175
     1
 42
1.0
 92
        8
 66
     7
 43
1.0
 76
     1
 77
     6
 78
     2
 67
     7
 79
     5
170
     0
171
     0
290
     0
174
     0
 93
        1
 44
-50.0
173
     0
291
     1
 45
0.0
1001
ACAD
1000
AcDbSavedByObjectVersion
1070
     0
1000
AcDbSavedByObjectVersion
1070
     0
1000
AcDbSavedByObjectVersion
1070
     0
1000
AcDbSavedByObjectVersion
1070
     0
1000
AcDbSavedByObjectVersion
1070
     0
1000
AcDbSavedByObjectVersion
1070
     0
  0
VISUALSTYLE
  5
231C
102
{ACAD_REACTORS
330
230D
102
}
330
230D
100
AcDbVisualStyle
  2
Facepattern
 70
    15
 71
     2
 72
     2
 73
     0
 90
        0
 40
-0.6
 41
-30.0
 62
     5
 63
     7
 74
     1
 91
        4
 64
     7
 65
   257
 75
     1
175
     1
 42
1.0
 92
        8
 66
     7
 43
1.0
 76
     1
 77
     6
 78
     2
 67
     7
 79
     5
170
     0
171
     0
290
     0
174
     0
 93
        1
 44
0.0
173
     0
291
     1
 45
0.0
1001
ACAD
1000
AcDbSavedByObjectVersion
1070
     0
1000
AcDbSavedByObjectVersion
1070
     0
1000
AcDbSavedByObjectVersion
1070
     0
1000
AcDbSavedByObjectVersion
1070
     0
1000
AcDbSavedByObjectVersion
1070
     0
1000
AcDbSavedByObjectVersion
1070
     0
  0
VISUALSTYLE
  5
230E
102
{ACAD_REACTORS
330
230D
102
}
330
230D
100
AcDbVisualStyle
  2
Flat
 70
     0
 71
     2
 72
     1
 73
     1
 90
        2
 40
-0.6
 41
30.0
 62
     5
 63
     7
 74
     0
 91
        4
 64
     7
 65
   257
 75
     1
175
     1
 42
1.0
 92
        8
 66
     7
 43
1.0
 76
     1
 77
     6
 78
     2
 67
     7
 79
     5
170
     0
171
     0
290
     0
174
     0
 93
       13
 44
0.0
173
     0
291
     1
 45
0.0
1001
ACAD
1000
AcDbSavedByObjectVersion
1070
     0
1000
AcDbSavedByObjectVersion
1070
     0
1000
AcDbSavedByObjectVersion
1070
     0
1000
AcDbSavedByObjectVersion
1070
     0
1000
AcDbSavedByObjectVersion
1070
     0
1000
AcDbSavedByObjectVersion
1070
     0
  0
VISUALSTYLE
  5
230F
102
{ACAD_REACTORS
330
230D
102
}
330
230D
100
AcDbVisualStyle
  2
FlatWithEdges
 70
     1
 71
     2
 72
     1
 73
     1
 90
        2
 40
-0.6
 41
30.0
 62
     5
 63
     7
 74
     1
 91
        4
 64
     7
 65
   257
 75
     1
175
     1
 42
1.0
 92
        0
 66
   257
 43
1.0
 76
     1
 77
     6
 78
     2
 67
     7
 79
     5
170
     0
171
     0
290
     0
174
     0
 93
       13
 44
0.0
173
     0
291
     1
 45
0.0
1001
ACAD
1000
AcDbSavedByObjectVersion
1070
     0
1000
AcDbSavedByObjectVersion
1070
     0
1000
AcDbSavedByObjectVersion
1070
     0
1000
AcDbSavedByObjectVersion
1070
     0
1000
AcDbSavedByObjectVersion
1070
     0
1000
AcDbSavedByObjectVersion
1070
     0
  0
VISUALSTYLE
  5
2310
102
{ACAD_REACTORS
330
230D
102
}
330
230D
100
AcDbVisualStyle
  2
Gouraud
 70
     2
 71
     2
 72
     2
 73
     1
 90
        2
 40
-0.6
 41
30.0
 62
     5
 63
     7
 74
     0
 91
        4
 64
     7
 65
   257
 75
     1
175
     1
 42
1.0
 92
        0
 66
     7
 43
1.0
 76
     1
 77
     6
 78
     2
 67
     7
 79
     5
170
     0
171
     0
290
     0
174
     0
 93
       13
 44
0.0
173
     0
291
     1
 45
0.0
1001
ACAD
1000
AcDbSavedByObjectVersion
1070
     0
1000
AcDbSavedByObjectVersion
1070
     0
1000
AcDbSavedByObjectVersion
1070
     0
1000
AcDbSavedByObjectVersion
1070
     0
1000
AcDbSavedByObjectVersion
1070
     0
1000
AcDbSavedByObjectVersion
1070
     0
  0
VISUALSTYLE
  5
2311
102
{ACAD_REACTORS
330
230D
102
}
330
230D
100
AcDbVisualStyle
  2
GouraudWithEdges
 70
     3
 71
     2
 72
     2
 73
     1
 90
        2
 40
-0.6
 41
30.0
 62
     5
 63
     7
 74
     1
 91
        4
 64
     7
 65
   257
 75
     1
175
     1
 42
1.0
 92
        0
 66
   257
 43
1.0
 76
     1
 77
     6
 78
     2
 67
     7
 79
     5
170
     0
171
     0
290
     0
174
     0
 93
       13
 44
0.0
173
     0
291
     1
 45
0.0
1001
ACAD
1000
AcDbSavedByObjectVersion
1070
     0
1000
AcDbSavedByObjectVersion
1070
     0
1000
AcDbSavedByObjectVersion
1070
     0
1000
AcDbSavedByObjectVersion
1070
     0
1000
AcDbSavedByObjectVersion
1070
     0
1000
AcDbSavedByObjectVersion
1070
     0
  0
VISUALSTYLE
  5
231B
102
{ACAD_REACTORS
330
230D
102
}
330
230D
100
AcDbVisualStyle
  2
Linepattern
 70
    14
 71
     2
 72
     2
 73
     0
 90
        0
 40
-0.6
 41
-30.0
 62
     5
 63
     7
 74
     1
 91
        4
 64
     7
 65
   257
 75
     7
175
     7
 42
1.0
 92
        8
 66
     7
 43
1.0
 76
     1
 77
     6
 78
     2
 67
     7
 79
     5
170
     0
171
     0
290
     0
174
     0
 93
        1
 44
0.0
173
     0
291
     1
 45
0.0
1001
ACAD
1000
AcDbSavedByObjectVersion
1070
     0
1000
AcDbSavedByObjectVersion
1070
     0
1000
AcDbSavedByObjectVersion
1070
     0
1000
AcDbSavedByObjectVersion
1070
     0
1000
AcDbSavedByObjectVersion
1070
     0
1000
AcDbSavedByObjectVersion
1070
     0
  0
VISUALSTYLE
  5
2317
102
{ACAD_REACTORS
330
230D
102
}
330
230D
100
AcDbVisualStyle
  2
Realistic
 70
     8
 71
     2
 72
     2
 73
     0
 90
        0
 40
-0.6
 41
-30.0
 62
     5
 63
     7
 74
     1
 91
        0
 64
     7
 65
   257
 75
     1
175
     1
 42
1.0
 92
        8
 66
     8
 43
1.0
 76
     1
 77
     6
 78
     2
 67
     7
 79
     5
170
     0
171
     0
290
     0
174
     0
 93
       13
 44
0.0
173
     0
291
     0
 45
0.0
1001
ACAD
1000
AcDbSavedByObjectVersion
1070
     0
1000
AcDbSavedByObjectVersion
1070
     0
1000
AcDbSavedByObjectVersion
1070
     0
1000
AcDbSavedByObjectVersion
1070
     0
1000
AcDbSavedByObjectVersion
1070
     0
1000
AcDbSavedByObjectVersion
1070
     0
  0
VISUALSTYLE
  5
231A
102
{ACAD_REACTORS
330
230D
102
}
330
230D
100
AcDbVisualStyle
  2
Thicken
 70
    13
 71
     2
 72
     2
 73
     0
 90
        0
 40
-0.6
 41
-30.0
 62
     5
 63
     7
 74
     1
 91
        4
 64
     7
 65
   257
 75
     1
175
     1
 42
1.0
 92
       12
 66
     7
 43
1.0
 76
     1
 77
     6
 78
     2
 67
     7
 79
     5
170
     0
171
     0
290
     0
174
     0
 93
        1
 44
0.0
173
     0
291
     1
 45
0.0
1001
ACAD
1000
AcDbSavedByObjectVersion
1070
     0
1000
AcDbSavedByObjectVersion
1070
     0
1000
AcDbSavedByObjectVersion
1070
     0
1000
AcDbSavedByObjectVersion
1070
     0
1000
AcDbSavedByObjectVersion
1070
     0
1000
AcDbSavedByObjectVersion
1070
     0
  0
DICTIONARYVAR
  5
4450
102
{ACAD_REACTORS
330
444D
102
}
330
444D
100
DictionaryVariables
280
     0
  1
1:1
  0
DICTIONARYVAR
  5
444F
102
{ACAD_REACTORS
330
444D
102
}
330
444D
100
DictionaryVariables
280
     0
  1
STANDARD
  0
DICTIONARYVAR
  5
444E
102
{ACAD_REACTORS
330
444D
102
}
330
444D
100
DictionaryVariables
280
     0
  1
STANDARD
  0
DICTIONARYVAR
  5
445E
102
{ACAD_REACTORS
330
444D
102
}
330
444D
100
DictionaryVariables
280
     0
  1
1
  0
DICTIONARYVAR
  5
445D
102
{ACAD_REACTORS
330
444D
102
}
330
444D
100
DictionaryVariables
280
     0
  1
0
  0
DICTIONARYVAR
  5
445C
102
{ACAD_REACTORS
330
444D
102
}
330
444D
100
DictionaryVariables
280
     0
  1
127
  0
XRECORD
  5
234E
102
{ACAD_REACTORS
330
234C
102
}
330
234C
100
AcDbXrecord
280
     1
330
AF
330
B4
330
10A
330
10F
330
174
330
179
330
1CB
330
1D0
330
1D5
330
242
330
247
330
24C
330
2AB
330
2B0
330
2B5
330
2BA
330
2BF
330
325
330
3A1
330
3F5
330
457
330
4F3
330
549
330
5E3
330
634
330
67C
330
6F8
330
72E
330
7C4
330
819
330
8AE
330
8F9
330
952
330
985
330
A01
330
A0D
330
A86
330
AE5
330
B48
330
C01
330
CA3
330
D1F
330
DA1
330
E01
330
EB7
330
F41
330
F9A
330
FF6
330
1094
330
10F9
330
119B
330
11C5
330
1248
330
12A3
330
1302
330
13C4
330
1429
330
14D7
330
158E
330
15E6
330
1642
330
16F4
330
1769
330
1813
330
18AF
330
1905
330
1959
330
1A1D
330
1A9E
330
1B4F
330
1B54
330
1B82
330
1BED
330
1C31
330
1C72
330
1CFF
330
1D80
330
1E26
330
1E35
330
1E3B
330
1E41
330
1E47
330
1EAB
330
1EF5
330
1F3E
330
1F92
330
1FF6
330
2038
330
207B
330
20D3
330
213F
330
2184
330
21F7
330
2270
330
2280
330
2286
330
228C
330
2292
330
22A2
330
22A8
330
22AE
330
22B4
  0
DICTIONARY
  5
5552
330
21
100
AcDbDictionary
280
     1
281
     1
  3
ACAD_XREC_ROUNDTRIP
360
5553
  0
DICTIONARY
  5
5550
330
20
100
AcDbDictionary
280
     1
281
     1
  3
ACAD_XREC_ROUNDTRIP
360
5551
  0
DICTIONARY
  5
22FE
330
22FD
100
AcDbDictionary
280
     1
281
     1
  3
ACAD_XREC_ROUNDTRIP
360
4455
  3
BUMPTILE
360
2300
  3
DIFFUSETILE
360
22FF
  3
OPACITYTILE
360
2303
  3
REFLECTIONTILE
360
2302
  3
REFRACTIONTILE
360
2304
  3
SPECULARTILE
360
2301
  0
DICTIONARY
  5
22F6
330
22F5
100
AcDbDictionary
280
     1
281
     1
  3
ACAD_XREC_ROUNDTRIP
360
4454
  3
BUMPTILE
360
22F8
  3
DIFFUSETILE
360
22F7
  3
OPACITYTILE
360
22FB
  3
REFLECTIONTILE
360
22FA
  3
REFRACTIONTILE
360
22FC
  3
SPECULARTILE
360
22F9
  0
DICTIONARY
  5
2306
330
2305
100
AcDbDictionary
280
     1
281
     1
  3
ACAD_XREC_ROUNDTRIP
360
4456
  3
BUMPTILE
360
2308
  3
DIFFUSETILE
360
2307
  3
OPACITYTILE
360
230B
  3
REFLECTIONTILE
360
230A
  3
REFRACTIONTILE
360
230C
  3
SPECULARTILE
360
2309
  0
DICTIONARY
  5
4451
330
2320
100
AcDbDictionary
280
     1
281
     1
  3
ACAD_ROUNDTRIP_2008_TABLESTYLE_CELLSTYLEMAP
360
554E
  3
ACAD_XREC_ROUNDTRIP
360
5554
  0
XRECORD
  5
5553
102
{ACAD_REACTORS
330
5552
102
}
330
5552
100
AcDbXrecord
280
     1
102
SHADEPLOT
 70
     0
102
SHADEPLOTRESLEVEL
 70
     2
102
SHADEPLOTCUSTOMDPI
 70
   300
  0
XRECORD
  5
5551
102
{ACAD_REACTORS
330
5550
102
}
330
5550
100
AcDbXrecord
280
     1
102
SHADEPLOT
 70
     0
102
SHADEPLOTRESLEVEL
 70
     2
102
SHADEPLOTCUSTOMDPI
 70
   300
  0
XRECORD
  5
4455
102
{ACAD_REACTORS
330
22FE
102
}
330
22FE
100
AcDbXrecord
280
     1
102
MATERIAL
148
0.0
149
0.0
149
0.0
 93
        0
 94
      127
282
     0
 72
     0
 77
     0
171
     0
175
     0
179
     0
273
     0
  0
XRECORD
  5
2300
102
{ACAD_REACTORS
330
22FE
102
}
330
22FE
100
AcDbXrecord
280
     1
270
     1
271
     1
  0
XRECORD
  5
22FF
102
{ACAD_REACTORS
330
22FE
102
}
330
22FE
100
AcDbXrecord
280
     1
270
     1
271
     1
  0
XRECORD
  5
2303
102
{ACAD_REACTORS
330
22FE
102
}
330
22FE
100
AcDbXrecord
280
     1
270
     1
271
     1
  0
XRECORD
  5
2302
102
{ACAD_REACTORS
330
22FE
102
}
330
22FE
100
AcDbXrecord
280
     1
270
     1
271
     1
  0
XRECORD
  5
2304
102
{ACAD_REACTORS
330
22FE
102
}
330
22FE
100
AcDbXrecord
280
     1
270
     1
271
     1
  0
XRECORD
  5
2301
102
{ACAD_REACTORS
330
22FE
102
}
330
22FE
100
AcDbXrecord
280
     1
270
     1
271
     1
  0
XRECORD
  5
4454
102
{ACAD_REACTORS
330
22F6
102
}
330
22F6
100
AcDbXrecord
280
     1
102
MATERIAL
148
0.0
149
0.0
149
0.0
 93
        0
 94
      127
282
     0
 72
     0
 77
     0
171
     0
175
     0
179
     0
273
     0
  0
XRECORD
  5
22F8
102
{ACAD_REACTORS
330
22F6
102
}
330
22F6
100
AcDbXrecord
280
     1
270
     1
271
     1
  0
XRECORD
  5
22F7
102
{ACAD_REACTORS
330
22F6
102
}
330
22F6
100
AcDbXrecord
280
     1
270
     1
271
     1
  0
XRECORD
  5
22FB
102
{ACAD_REACTORS
330
22F6
102
}
330
22F6
100
AcDbXrecord
280
     1
270
     1
271
     1
  0
XRECORD
  5
22FA
102
{ACAD_REACTORS
330
22F6
102
}
330
22F6
100
AcDbXrecord
280
     1
270
     1
271
     1
  0
XRECORD
  5
22FC
102
{ACAD_REACTORS
330
22F6
102
}
330
22F6
100
AcDbXrecord
280
     1
270
     1
271
     1
  0
XRECORD
  5
22F9
102
{ACAD_REACTORS
330
22F6
102
}
330
22F6
100
AcDbXrecord
280
     1
270
     1
271
     1
  0
XRECORD
  5
4456
102
{ACAD_REACTORS
330
2306
102
}
330
2306
100
AcDbXrecord
280
     1
102
MATERIAL
148
0.0
149
0.0
149
0.0
 93
        0
 94
      127
282
     0
 72
     0
 77
     0
171
     0
175
     0
179
     0
273
     0
  0
XRECORD
  5
2308
102
{ACAD_REACTORS
330
2306
102
}
330
2306
100
AcDbXrecord
280
     1
270
     1
271
     1
  0
XRECORD
  5
2307
102
{ACAD_REACTORS
330
2306
102
}
330
2306
100
AcDbXrecord
280
     1
270
     1
271
     1
  0
XRECORD
  5
230B
102
{ACAD_REACTORS
330
2306
102
}
330
2306
100
AcDbXrecord
280
     1
270
     1
271
     1
  0
XRECORD
  5
230A
102
{ACAD_REACTORS
330
2306
102
}
330
2306
100
AcDbXrecord
280
     1
270
     1
271
     1
  0
XRECORD
  5
230C
102
{ACAD_REACTORS
330
2306
102
}
330
2306
100
AcDbXrecord
280
     1
270
     1
271
     1
  0
XRECORD
  5
2309
102
{ACAD_REACTORS
330
2306
102
}
330
2306
100
AcDbXrecord
280
     1
270
     1
271
     1
  0
CELLSTYLEMAP
  5
554E
102
{ACAD_REACTORS
330
4451
102
}
330
4451
100
AcDbCellStyleMap
 90
        3
300
CELLSTYLE
  1
TABLEFORMAT_BEGIN
 90
        5
170
     1
 91
        0
 92
    32768
 62
   257
 93
        1
300
CONTENTFORMAT
  1
CONTENTFORMAT_BEGIN
 90
        0
 91
        0
 92
      512
 93
        0
300

 40
0.0
140
1.0
 94
        5
 62
     0
340
17
144
6.0
309
CONTENTFORMAT_END
171
     1
301
MARGIN
  1
CELLMARGIN_BEGIN
 40
1.5
 40
1.5
 40
1.5
 40
1.5
 40
0.18
 40
0.18
309
CELLMARGIN_END
 94
        6
 95
        1
302
GRIDFORMAT
  1
GRIDFORMAT_BEGIN
 90
        0
 91
        1
 62
     0
 92
       -2
340
0
 93
        0
 40
1.125
309
GRIDFORMAT_END
 95
        2
302
GRIDFORMAT
  1
GRIDFORMAT_BEGIN
 90
        0
 91
        1
 62
     0
 92
       -2
340
0
 93
        0
 40
1.125
309
GRIDFORMAT_END
 95
        4
302
GRIDFORMAT
  1
GRIDFORMAT_BEGIN
 90
        0
 91
        1
 62
     0
 92
       -2
340
0
 93
        0
 40
1.125
309
GRIDFORMAT_END
 95
        8
302
GRIDFORMAT
  1
GRIDFORMAT_BEGIN
 90
        0
 91
        1
 62
     0
 92
       -2
340
0
 93
        0
 40
1.125
309
GRIDFORMAT_END
 95
       16
302
GRIDFORMAT
  1
GRIDFORMAT_BEGIN
 90
        0
 91
        1
 62
     0
 92
       -2
340
0
 93
        0
 40
1.125
309
GRIDFORMAT_END
 95
       32
302
GRIDFORMAT
  1
GRIDFORMAT_BEGIN
 90
        0
 91
        1
 62
     0
 92
       -2
340
0
 93
        0
 40
1.125
309
GRIDFORMAT_END
309
TABLEFORMAT_END
  1
CELLSTYLE_BEGIN
 90
        1
 91
        1
300
_TITLE
309
CELLSTYLE_END
300
CELLSTYLE
  1
TABLEFORMAT_BEGIN
 90
        5
170
     1
 91
        0
 92
        0
 62
   257
 93
        1
300
CONTENTFORMAT
  1
CONTENTFORMAT_BEGIN
 90
        0
 91
        0
 92
      512
 93
        0
300

 40
0.0
140
1.0
 94
        5
 62
     0
340
17
144
4.5
309
CONTENTFORMAT_END
171
     1
301
MARGIN
  1
CELLMARGIN_BEGIN
 40
1.5
 40
1.5
 40
1.5
 40
1.5
 40
0.18
 40
0.18
309
CELLMARGIN_END
 94
        6
 95
        1
302
GRIDFORMAT
  1
GRIDFORMAT_BEGIN
 90
        0
 91
        1
 62
     0
 92
       -2
340
0
 93
        0
 40
1.125
309
GRIDFORMAT_END
 95
        2
302
GRIDFORMAT
  1
GRIDFORMAT_BEGIN
 90
        0
 91
        1
 62
     0
 92
       -2
340
0
 93
        0
 40
1.125
309
GRIDFORMAT_END
 95
        4
302
GRIDFORMAT
  1
GRIDFORMAT_BEGIN
 90
        0
 91
        1
 62
     0
 92
       -2
340
0
 93
        0
 40
1.125
309
GRIDFORMAT_END
 95
        8
302
GRIDFORMAT
  1
GRIDFORMAT_BEGIN
 90
        0
 91
        1
 62
     0
 92
       -2
340
0
 93
        0
 40
1.125
309
GRIDFORMAT_END
 95
       16
302
GRIDFORMAT
  1
GRIDFORMAT_BEGIN
 90
        0
 91
        1
 62
     0
 92
       -2
340
0
 93
        0
 40
1.125
309
GRIDFORMAT_END
 95
       32
302
GRIDFORMAT
  1
GRIDFORMAT_BEGIN
 90
        0
 91
        1
 62
     0
 92
       -2
340
0
 93
        0
 40
1.125
309
GRIDFORMAT_END
309
TABLEFORMAT_END
  1
CELLSTYLE_BEGIN
 90
        2
 91
        1
300
_HEADER
309
CELLSTYLE_END
300
CELLSTYLE
  1
TABLEFORMAT_BEGIN
 90
        5
170
     1
 91
        0
 92
        0
 62
   257
 93
        1
300
CONTENTFORMAT
  1
CONTENTFORMAT_BEGIN
 90
        0
 91
        0
 92
      512
 93
        0
300

 40
0.0
140
1.0
 94
        2
 62
     0
340
17
144
4.5
309
CONTENTFORMAT_END
171
     1
301
MARGIN
  1
CELLMARGIN_BEGIN
 40
1.5
 40
1.5
 40
1.5
 40
1.5
 40
0.18
 40
0.18
309
CELLMARGIN_END
 94
        6
 95
        1
302
GRIDFORMAT
  1
GRIDFORMAT_BEGIN
 90
        0
 91
        1
 62
     0
 92
       -2
340
0
 93
        0
 40
1.125
309
GRIDFORMAT_END
 95
        2
302
GRIDFORMAT
  1
GRIDFORMAT_BEGIN
 90
        0
 91
        1
 62
     0
 92
       -2
340
0
 93
        0
 40
1.125
309
GRIDFORMAT_END
 95
        4
302
GRIDFORMAT
  1
GRIDFORMAT_BEGIN
 90
        0
 91
        1
 62
     0
 92
       -2
340
0
 93
        0
 40
1.125
309
GRIDFORMAT_END
 95
        8
302
GRIDFORMAT
  1
GRIDFORMAT_BEGIN
 90
        0
 91
        1
 62
     0
 92
       -2
340
0
 93
        0
 40
1.125
309
GRIDFORMAT_END
 95
       16
302
GRIDFORMAT
  1
GRIDFORMAT_BEGIN
 90
        0
 91
        1
 62
     0
 92
       -2
340
0
 93
        0
 40
1.125
309
GRIDFORMAT_END
 95
       32
302
GRIDFORMAT
  1
GRIDFORMAT_BEGIN
 90
        0
 91
        1
 62
     0
 92
       -2
340
0
 93
        0
 40
1.125
309
GRIDFORMAT_END
309
TABLEFORMAT_END
  1
CELLSTYLE_BEGIN
 90
        3
 91
        2
300
_DATA
309
CELLSTYLE_END
  0
XRECORD
  5
5554
102
{ACAD_REACTORS
330
4451
102
}
330
4451
100
AcDbXrecord
280
     1
102
ACAD_ROUNDTRIP_PRE2007_TABLESTYLE
 90
      512
 91
        0
  1

 92
      512
 93
        0
  2

 94
      512
 95
        0
  3

  0
ENDSEC
  0
EOF
