  0
SECTION
  2
HEADER
  9
$ACADVER
  1
AC1015
  9
$ACADMAINTVER
 70
    20
  9
$DWGCODEPAGE
  3
ANSI_1252
  9
$INSBASE
 10
0.0
 20
0.0
 30
0.0
  9
$EXTMIN
 10
445.1855732916569
 20
48.43584557605959
 30
-0.0000000000000012
  9
$EXTMAX
 10
761.0672709573027
 20
328.3082598878904
 30
0.0000000000000141
  9
$LIMMIN
 10
-334.35
 20
-4.849999999999972
  9
$LIMMAX
 10
791.3499999999997
 20
342.0054945054945
  9
$ORTHOMODE
 70
     1
  9
$REGENMODE
 70
     1
  9
$FILLMODE
 70
     1
  9
$QTEXTMODE
 70
     0
  9
$MIRRTEXT
 70
     1
  9
$LTSCALE
 40
10.0
  9
$ATTMODE
 70
     1
  9
$TEXTSIZE
 40
0.0
  9
$TRACEWID
 40
0.05
  9
$TEXTSTYLE
  7
Standard
  9
$CLAYER
  8
0
  9
$CELTYPE
  6
Continuous
  9
$CECOLOR
 62
   256
  9
$CELTSCALE
 40
1.0
  9
$DISPSILH
 70
     0
  9
$DIMSCALE
 40
1.0
  9
$DIMASZ
 40
1.25
  9
$DIMEXO
 40
0.0
  9
$DIMDLI
 40
0.38
  9
$DIMRND
 40
0.0
  9
$DIMDLE
 40
0.0
  9
$DIMEXE
 40
0.75
  9
$DIMTP
 40
0.0
  9
$DIMTM
 40
0.0
  9
$DIMTXT
 40
2.5
  9
$DIMCEN
 40
0.09
  9
$DIMTSZ
 40
0.0
  9
$DIMTOL
 70
     0
  9
$DIMLIM
 70
     0
  9
$DIMTIH
 70
     0
  9
$DIMTOH
 70
     0
  9
$DIMSE1
 70
     0
  9
$DIMSE2
 70
     0
  9
$DIMTAD
 70
     1
  9
$DIMZIN
 70
     0
  9
$DIMBLK
  1

  9
$DIMASO
 70
     1
  9
$DIMSHO
 70
     1
  9
$DIMPOST
  1

  9
$DIMAPOST
  1

  9
$DIMALT
 70
     0
  9
$DIMALTD
 70
     2
  9
$DIMALTF
 40
25.4
  9
$DIMLFAC
 40
1.0
  9
$DIMTOFL
 70
     0
  9
$DIMTVP
 40
0.0
  9
$DIMTIX
 70
     0
  9
$DIMSOXD
 70
     0
  9
$DIMSAH
 70
     0
  9
$DIMBLK1
  1

  9
$DIMBLK2
  1

  9
$DIMSTYLE
  2
Standard
  9
$DIMCLRD
 70
     7
  9
$DIMCLRE
 70
     7
  9
$DIMCLRT
 70
     7
  9
$DIMTFAC
 40
0.8
  9
$DIMGAP
 40
1.25
  9
$DIMJUST
 70
     0
  9
$DIMSD1
 70
     0
  9
$DIMSD2
 70
     0
  9
$DIMTOLJ
 70
     1
  9
$DIMTZIN
 70
     0
  9
$DIMALTZ
 70
     0
  9
$DIMALTTZ
 70
     0
  9
$DIMUPT
 70
     0
  9
$DIMDEC
 70
     2
  9
$DIMTDEC
 70
     4
  9
$DIMALTU
 70
     2
  9
$DIMALTTD
 70
     2
  9
$DIMTXSTY
  7
Standard
  9
$DIMAUNIT
 70
     0
  9
$DIMADEC
 70
     0
  9
$DIMALTRND
 40
0.0
  9
$DIMAZIN
 70
     0
  9
$DIMDSEP
 70
     0
  9
$DIMATFIT
 70
     3
  9
$DIMFRAC
 70
     0
  9
$DIMLDRBLK
  1

  9
$DIMLUNIT
 70
     2
  9
$DIMLWD
 70
     0
  9
$DIMLWE
 70
     0
  9
$DIMTMOVE
 70
     0
  9
$LUNITS
 70
     2
  9
$LUPREC
 70
     4
  9
$SKETCHINC
 40
0.1
  9
$FILLETRAD
 40
0.0
  9
$AUNITS
 70
     0
  9
$AUPREC
 70
     0
  9
$MENU
  1
acad
  9
$ELEVATION
 40
0.0
  9
$PELEVATION
 40
0.0
  9
$THICKNESS
 40
0.0
  9
$LIMCHECK
 70
     0
  9
$CHAMFERA
 40
0.0
  9
$CHAMFERB
 40
0.0
  9
$CHAMFERC
 40
0.0
  9
$CHAMFERD
 40
0.0
  9
$SKPOLY
 70
     0
  9
$TDCREATE
 40
2455383.581053241
  9
$TDUCREATE
 40
2455383.497719907
  9
$TDUPDATE
 40
2455383.563573218
  9
$TDUUPDATE
 40
2455383.480239885
  9
$TDINDWG
 40
0.0473855208
  9
$TDUSRTIMER
 40
0.0473849769
  9
$USRTIMER
 70
     1
  9
$ANGBASE
 50
0.0
  9
$ANGDIR
 70
     0
  9
$PDMODE
 70
     0
  9
$PDSIZE
 40
0.0
  9
$PLINEWID
 40
0.0
  9
$SPLFRAME
 70
     0
  9
$SPLINETYPE
 70
     6
  9
$SPLINESEGS
 70
     8
  9
$HANDSEED
  5
CAE
  9
$SURFTAB1
 70
     6
  9
$SURFTAB2
 70
     6
  9
$SURFTYPE
 70
     6
  9
$SURFU
 70
     6
  9
$SURFV
 70
     6
  9
$UCSBASE
  2

  9
$UCSNAME
  2

  9
$UCSORG
 10
0.0
 20
0.0
 30
0.0
  9
$UCSXDIR
 10
1.0
 20
0.0
 30
0.0
  9
$UCSYDIR
 10
0.0
 20
1.0
 30
0.0
  9
$UCSORTHOREF
  2

  9
$UCSORTHOVIEW
 70
     0
  9
$UCSORGTOP
 10
0.0
 20
0.0
 30
0.0
  9
$UCSORGBOTTOM
 10
0.0
 20
0.0
 30
0.0
  9
$UCSORGLEFT
 10
0.0
 20
0.0
 30
0.0
  9
$UCSORGRIGHT
 10
0.0
 20
0.0
 30
0.0
  9
$UCSORGFRONT
 10
0.0
 20
0.0
 30
0.0
  9
$UCSORGBACK
 10
0.0
 20
0.0
 30
0.0
  9
$PUCSBASE
  2

  9
$PUCSNAME
  2

  9
$PUCSORG
 10
0.0
 20
0.0
 30
0.0
  9
$PUCSXDIR
 10
1.0
 20
0.0
 30
0.0
  9
$PUCSYDIR
 10
0.0
 20
1.0
 30
0.0
  9
$PUCSORTHOREF
  2

  9
$PUCSORTHOVIEW
 70
     0
  9
$PUCSORGTOP
 10
0.0
 20
0.0
 30
0.0
  9
$PUCSORGBOTTOM
 10
0.0
 20
0.0
 30
0.0
  9
$PUCSORGLEFT
 10
0.0
 20
0.0
 30
0.0
  9
$PUCSORGRIGHT
 10
0.0
 20
0.0
 30
0.0
  9
$PUCSORGFRONT
 10
0.0
 20
0.0
 30
0.0
  9
$PUCSORGBACK
 10
0.0
 20
0.0
 30
0.0
  9
$USERI1
 70
     0
  9
$USERI2
 70
     0
  9
$USERI3
 70
     0
  9
$USERI4
 70
     0
  9
$USERI5
 70
     0
  9
$USERR1
 40
0.0
  9
$USERR2
 40
0.0
  9
$USERR3
 40
0.0
  9
$USERR4
 40
0.0
  9
$USERR5
 40
0.0
  9
$WORLDVIEW
 70
     1
  9
$SHADEDGE
 70
     3
  9
$SHADEDIF
 70
    70
  9
$TILEMODE
 70
     1
  9
$MAXACTVP
 70
    16
  9
$PINSBASE
 10
0.0
 20
0.0
 30
0.0
  9
$PLIMCHECK
 70
     0
  9
$PEXTMIN
 10
1.000000000000000E+20
 20
1.000000000000000E+20
 30
1.000000000000000E+20
  9
$PEXTMAX
 10
-1.000000000000000E+20
 20
-1.000000000000000E+20
 30
-1.000000000000000E+20
  9
$PLIMMIN
 10
0.0
 20
0.0
  9
$PLIMMAX
 10
12.0
 20
9.0
  9
$UNITMODE
 70
     0
  9
$VISRETAIN
 70
     0
  9
$PLINEGEN
 70
     1
  9
$PSLTSCALE
 70
     0
  9
$TREEDEPTH
 70
  3020
  9
$CMLSTYLE
  2
Standard
  9
$CMLJUST
 70
     0
  9
$CMLSCALE
 40
1.0
  9
$PROXYGRAPHICS
 70
     0
  9
$MEASUREMENT
 70
     1
  9
$CELWEIGHT
370
     0
  9
$ENDCAPS
280
     0
  9
$JOINSTYLE
280
     0
  9
$LWDISPLAY
290
     0
  9
$INSUNITS
 70
     0
  9
$HYPERLINKBASE
  1

  9
$STYLESHEET
  1

  9
$XEDIT
290
     1
  9
$CEPSNTYPE
380
     0
  9
$PSTYLEMODE
290
     1
  9
$FINGERPRINTGUID
  2

  9
$VERSIONGUID
  2
{F96ED202-52F7-4797-8D11-C661F672C32E}
  9
$EXTNAMES
290
     1
  9
$PSVPSCALE
 40
0.0
  9
$OLESTARTUP
290
     0
  0
ENDSEC
  0
SECTION
  2
CLASSES
  0
CLASS
  1
IMAGE
  2
AcDbRasterImage
  3
ISM
 90
    34943
280
     0
281
     1
  0
CLASS
  1
DICTIONARYVAR
  2
AcDbDictionaryVar
  3
ObjectDBX Classes
 90
        0
280
     0
281
     0
  0
CLASS
  1
RASTERVARIABLES
  2
AcDbRasterVariables
  3
ISM
 90
    32768
280
     0
281
     0
  0
CLASS
  1
IMAGEDEF
  2
AcDbRasterImageDef
  3
ISM
 90
    32768
280
     0
281
     0
  0
CLASS
  1
IMAGEDEF_REACTOR
  2
AcDbRasterImageDefReactor
  3
ISM
 90
    32769
280
     0
281
     0
  0
CLASS
  1
IDBUFFER
  2
AcDbIdBuffer
  3
ObjectDBX Classes
 90
    32768
280
     0
281
     0
  0
CLASS
  1
SPATIAL_FILTER
  2
AcDbSpatialFilter
  3
ObjectDBX Classes
 90
    32768
280
     0
281
     0
  0
CLASS
  1
SORTENTSTABLE
  2
AcDbSortentsTable
  3
ObjectDBX Classes
 90
        0
280
     0
281
     0
  0
CLASS
  1
LAYER_INDEX
  2
AcDbLayerIndex
  3
ObjectDBX Classes
 90
    32768
280
     0
281
     0
  0
CLASS
  1
SPATIAL_INDEX
  2
AcDbSpatialIndex
  3
ObjectDBX Classes
 90
    32768
280
     0
281
     0
  0
CLASS
  1
OBJECT_PTR
  2
CAseDLPNTableRecord
  3
ASE-LPNTableRecord
 90
    32769
280
     0
281
     0
  0
CLASS
  1
LAYOUT
  2
AcDbLayout
  3
ObjectDBX Classes
 90
        0
280
     0
281
     0
  0
CLASS
  1
PLOTSETTINGS
  2
AcDbPlotSettings
  3
ObjectDBX Classes
 90
    32768
280
     0
281
     0
  0
CLASS
  1
ACDBDICTIONARYWDFLT
  2
AcDbDictionaryWithDefault
  3
ObjectDBX Classes
 90
        0
280
     0
281
     0
  0
CLASS
  1
ACDBPLACEHOLDER
  2
AcDbPlaceHolder
  3
ObjectDBX Classes
 90
        0
280
     0
281
     0
  0
CLASS
  1
VBA_PROJECT
  2
AcDbVbaProject
  3
acad
 90
    32768
280
     0
281
     0
  0
CLASS
  1
WIPEOUT
  2
AcDbWipeout
  3
"WipeOut|Product Desc: Object Enabler for WipeOut entity                        |Company: Autodesk, Inc.                        |WEB Address: www.autodesk.com"
 90
    34943
280
     0
281
     1
  0
CLASS
  1
WIPEOUTVARIABLES
  2
AcDbWipeoutVariables
  3
"WipeOut|Product Desc:     WipeOut Dbx Application|Company:          Autodesk, Inc.|WEB Address:      www.autodesk.com"
 90
        0
280
     0
281
     0
  0
CLASS
  1
RTEXT
  2
RText
  3
RText|AutoCAD Express Tool|expresstools@autodesk.com
 90
    35839
280
     0
281
     1
  0
CLASS
  1
ARCALIGNEDTEXT
  2
AcDbArcAlignedText
  3
ATEXT|AutoCAD Express Tool|expresstools@autodesk.com
 90
    32768
280
     0
281
     1
  0
CLASS
  1
MATERIAL
  2
AcDbMaterial
  3
ObjectDBX Classes
 90
     1153
280
     0
281
     0
  0
CLASS
  1
VISUALSTYLE
  2
AcDbVisualStyle
  3
ObjectDBX Classes
 90
     4095
280
     0
281
     0
  0
CLASS
  1
TABLESTYLE
  2
AcDbTableStyle
  3
ObjectDBX Classes
 90
     4095
280
     0
281
     0
  0
CLASS
  1
SCALE
  2
AcDbScale
  3
ObjectDBX Classes
 90
     1153
280
     0
281
     0
  0
CLASS
  1
MLEADERSTYLE
  2
AcDbMLeaderStyle
  3
ACDB_MLEADERSTYLE_CLASS
 90
     4095
280
     0
281
     0
  0
CLASS
  1
CELLSTYLEMAP
  2
AcDbCellStyleMap
  3
ObjectDBX Classes
 90
     1152
280
     0
281
     0
  0
ENDSEC
  0
SECTION
  2
TABLES
  0
TABLE
  2
VPORT
  5
7
330
0
100
AcDbSymbolTable
 70
     1
  0
VPORT
  5
15
330
7
100
AcDbSymbolTableRecord
100
AcDbViewportTableRecord
  2
*ACTIVE
 70
     0
 10
0.0
 20
0.0
 11
1.0
 21
1.0
 12
600.9138122183318
 22
192.1547925852236
 13
0.0
 23
0.0
 14
1.0
 24
1.0
 15
0.0
 25
0.0
 16
0.0
 26
0.0
 36
1.0
 17
0.0
 27
0.0
 37
0.0
 40
316.6511062212833
 41
1.611330698287219
 42
50.0
 43
0.0
 44
0.0
 50
0.0
 51
0.0
 71
     0
 72
   100
 73
     1
 74
     1
 75
     0
 76
     0
 77
     0
 78
     0
281
     0
 65
     0
110
0.0
120
0.0
130
0.0
111
1.0
121
0.0
131
0.0
112
0.0
122
1.0
132
0.0
 79
     0
146
0.0
  0
ENDTAB
  0
TABLE
  2
LTYPE
  5
4
330
0
100
AcDbSymbolTable
 70
     2
  0
LTYPE
  5
11
330
4
100
AcDbSymbolTableRecord
100
AcDbLinetypeTableRecord
  2
ByBlock
 70
     0
  3

 72
    65
 73
     0
 40
0.0
  0
LTYPE
  5
12
330
4
100
AcDbSymbolTableRecord
100
AcDbLinetypeTableRecord
  2
ByLayer
 70
     0
  3

 72
    65
 73
     0
 40
0.0
  0
LTYPE
  5
13
330
4
100
AcDbSymbolTableRecord
100
AcDbLinetypeTableRecord
  2
Continuous
 70
     0
  3
Solid line
 72
    65
 73
     0
 40
0.0
  0
LTYPE
  5
9A
330
4
100
AcDbSymbolTableRecord
100
AcDbLinetypeTableRecord
  2
CENTER
 70
     0
  3
____ _ ____ _ ____ _ ____ _ ____ _ ____ _ ____
 72
    65
 73
     4
 40
2.0
 49
1.25
 74
     0
 49
-0.25
 74
     0
 49
0.25
 74
     0
 49
-0.25
 74
     0
  0
ENDTAB
  0
TABLE
  2
LAYER
  5
2
330
0
100
AcDbSymbolTable
 70
     2
  0
LAYER
  5
14
102
{ACAD_XDICTIONARY
360
B99
102
}
330
2
100
AcDbSymbolTableRecord
100
AcDbLayerTableRecord
  2
0
 70
     0
 62
     7
  6
Continuous
370
    -3
390
1D
  0
LAYER
  5
C63
330
2
100
AcDbSymbolTableRecord
100
AcDbLayerTableRecord
  2
Defpoints
 70
     0
 62
     7
  6
Continuous
290
     0
370
    -3
390
1D
  0
ENDTAB
  0
TABLE
  2
STYLE
  5
3
330
0
100
AcDbSymbolTable
 70
     1
  0
STYLE
  5
17
330
3
100
AcDbSymbolTableRecord
100
AcDbTextStyleTableRecord
  2
Standard
 70
     0
 40
0.0
 41
1.0
 50
0.0
 71
     0
 42
0.0
  3
I011000D.TTF
  4

1001
ACAD
1000
IsonormD
1071
        0
  0
ENDTAB
  0
TABLE
  2
VIEW
  5
5
330
0
100
AcDbSymbolTable
 70
     0
  0
ENDTAB
  0
TABLE
  2
UCS
  5
6
330
0
100
AcDbSymbolTable
 70
     0
  0
ENDTAB
  0
TABLE
  2
APPID
  5
8
330
0
100
AcDbSymbolTable
 70
     4
  0
APPID
  5
16
330
8
100
AcDbSymbolTableRecord
100
AcDbRegAppTableRecord
  2
ACAD
 70
     0
  0
APPID
  5
26
330
8
100
AcDbSymbolTableRecord
100
AcDbRegAppTableRecord
  2
TopSolid'Draft
 70
     0
  0
APPID
  5
B91
330
8
100
AcDbSymbolTableRecord
100
AcDbRegAppTableRecord
  2
ACAD_MLEADERVER
 70
     0
  0
APPID
  5
B97
330
8
100
AcDbSymbolTableRecord
100
AcDbRegAppTableRecord
  2
DCO15
 70
     0
  0
ENDTAB
  0
TABLE
  2
DIMSTYLE
  5
9
330
0
100
AcDbSymbolTable
 70
     1
100
AcDbDimStyleTable
 71
     1
340
18
  0
DIMSTYLE
105
18
330
9
100
AcDbSymbolTableRecord
100
AcDbDimStyleTableRecord
  2
Standard
 70
     0
 41
1.25
 42
0.0
 44
0.75
 73
     0
 74
     0
 77
     1
140
2.5
146
0.8
147
1.25
176
     7
177
     7
178
     7
271
     2
340
17
  0
ENDTAB
  0
TABLE
  2
BLOCK_RECORD
  5
1
330
0
100
AcDbSymbolTable
 70
    27
  0
BLOCK_RECORD
  5
A
330
1
100
AcDbSymbolTableRecord
100
AcDbBlockTableRecord
  2
*MODEL_SPACE
340
20
  0
BLOCK_RECORD
  5
B
330
1
100
AcDbSymbolTableRecord
100
AcDbBlockTableRecord
  2
*PAPER_SPACE
340
21
  0
BLOCK_RECORD
  5
70E
330
1
100
AcDbSymbolTableRecord
100
AcDbBlockTableRecord
  2
AID4085
340
0
102
{BLKREFS
331
760
102
}
  0
BLOCK_RECORD
  5
761
330
1
100
AcDbSymbolTableRecord
100
AcDbBlockTableRecord
  2
AID4247
340
0
102
{BLKREFS
331
7C2
102
}
  0
BLOCK_RECORD
  5
7C3
330
1
100
AcDbSymbolTableRecord
100
AcDbBlockTableRecord
  2
AID4439
340
0
102
{BLKREFS
331
822
102
}
  0
BLOCK_RECORD
  5
823
330
1
100
AcDbSymbolTableRecord
100
AcDbBlockTableRecord
  2
AID4627
340
0
102
{BLKREFS
331
8A5
102
}
  0
BLOCK_RECORD
  5
8A6
330
1
100
AcDbSymbolTableRecord
100
AcDbBlockTableRecord
  2
AID4885
340
0
102
{BLKREFS
331
920
102
}
  0
BLOCK_RECORD
  5
921
330
1
100
AcDbSymbolTableRecord
100
AcDbBlockTableRecord
  2
AID5127
340
0
102
{BLKREFS
331
9D9
102
}
  0
BLOCK_RECORD
  5
9E7
330
1
100
AcDbSymbolTableRecord
100
AcDbBlockTableRecord
  2
AID5515
340
0
102
{BLKREFS
331
9EB
102
}
  0
BLOCK_RECORD
  5
C64
330
1
100
AcDbSymbolTableRecord
100
AcDbBlockTableRecord
  2
*D25
340
0
  0
BLOCK_RECORD
  5
C71
330
1
100
AcDbSymbolTableRecord
100
AcDbBlockTableRecord
  2
*D26
340
0
  0
ENDTAB
  0
ENDSEC
  0
SECTION
  2
BLOCKS
  0
BLOCK
  5
D
330
A
100
AcDbEntity
  8
0
100
AcDbBlockBegin
  2
*MODEL_SPACE
 70
     0
 10
0.0
 20
0.0
 30
0.0
  3
*MODEL_SPACE
  1

  0
ENDBLK
  5
E
330
A
100
AcDbEntity
  8
0
100
AcDbBlockEnd
  0
BLOCK
  5
F
330
B
100
AcDbEntity
 67
     1
  8
0
100
AcDbBlockBegin
  2
*PAPER_SPACE
 70
     0
 10
0.0
 20
0.0
 30
0.0
  3
*PAPER_SPACE
  1

  0
ENDBLK
  5
10
330
B
100
AcDbEntity
 67
     1
  8
0
100
AcDbBlockEnd
  0
BLOCK
  5
70F
330
70E
100
AcDbEntity
  8
0
100
AcDbBlockBegin
  2
AID4085
 70
     0
 10
0.0
 20
0.0
 30
0.0
  3
AID4085
  1

  0
LINE
  5
710
330
70E
100
AcDbEntity
  8
0
  6
Continuous
 62
     7
100
AcDbLine
 10
561.5000000000343
 20
239.299999999996
 30
0.0
 11
575.5000000000342
 21
239.299999999996
 31
0.0
  0
LINE
  5
711
330
70E
100
AcDbEntity
  8
0
  6
Continuous
 62
     7
100
AcDbLine
 10
561.5000000000343
 20
239.799999999996
 30
0.0
 11
575.5000000000342
 21
239.799999999996
 31
0.0
  0
LINE
  5
712
330
70E
100
AcDbEntity
  8
0
  6
Continuous
 62
     7
100
AcDbLine
 10
575.500000000034
 20
186.1999999999941
 30
0.0
 11
561.5002870819696
 21
186.1999999999978
 31
0.0
  0
LINE
  5
713
330
70E
100
AcDbEntity
  8
0
  6
Continuous
 62
     7
100
AcDbLine
 10
575.5000000000342
 20
186.699999999994
 30
0.0
 11
568.5357173839056
 21
186.699999999996
 31
0.0
  0
LINE
  5
714
330
70E
100
AcDbEntity
  8
0
  6
Continuous
 62
     7
100
AcDbLine
 10
568.5357173839056
 20
186.699999999996
 30
0.0
 11
561.5002870819687
 21
186.6999999999979
 31
0.0
  0
LINE
  5
715
330
70E
100
AcDbEntity
  8
0
  6
Continuous
 62
     7
100
AcDbLine
 10
561.5002870819696
 20
186.1999999999978
 30
0.0
 11
561.5000000000301
 21
186.1999999999978
 31
0.0
  0
LINE
  5
716
330
70E
100
AcDbEntity
  8
0
  6
Continuous
 62
     7
100
AcDbLine
 10
577.0000000000362
 20
185.9999999999002
 30
0.0
 11
577.0000000000362
 21
239.9999999999002
 31
0.0
  0
LINE
  5
717
330
70E
100
AcDbEntity
  8
0
  6
Continuous
 62
     7
100
AcDbLine
 10
576.0000000000342
 20
185.999999999996
 30
0.0
 11
561.0000000000342
 21
185.999999999996
 31
0.0
  0
LINE
  5
718
330
70E
100
AcDbEntity
  8
0
  6
Continuous
 62
     7
100
AcDbLine
 10
576.0000000000342
 20
185.999999999996
 30
0.0
 11
576.0000000000342
 21
162.999999999996
 31
0.0
  0
LINE
  5
719
330
70E
100
AcDbEntity
  8
0
  6
Continuous
 62
     7
100
AcDbLine
 10
576.0000000000342
 20
162.999999999996
 30
0.0
 11
561.0000000000342
 21
162.999999999996
 31
0.0
  0
LINE
  5
71A
330
70E
100
AcDbEntity
  8
0
  6
Continuous
 62
     7
100
AcDbLine
 10
561.0000000000342
 20
239.999999999996
 30
0.0
 11
576.0000000000342
 21
239.999999999996
 31
0.0
  0
LINE
  5
71B
330
70E
100
AcDbEntity
  8
0
  6
Continuous
 62
     7
100
AcDbLine
 10
576.0000000000342
 20
262.9999999999961
 30
0.0
 11
561.0000000000342
 21
262.9999999999961
 31
0.0
  0
LINE
  5
71C
330
70E
100
AcDbEntity
  8
0
  6
Continuous
 62
     7
100
AcDbLine
 10
576.0000000000342
 20
262.9999999999961
 30
0.0
 11
576.0000000000342
 21
239.999999999996
 31
0.0
  0
LINE
  5
71D
330
70E
100
AcDbEntity
  8
0
  6
Continuous
 62
     9
100
AcDbLine
 10
577.0000000000342
 20
185.9999999999002
 30
0.0
 11
577.0000000000342
 21
162.9999999999002
 31
0.0
  0
LINE
  5
71E
330
70E
100
AcDbEntity
  8
0
  6
Continuous
 62
     7
100
AcDbLine
 10
576.0681111790004
 20
185.999999999964
 30
0.0
 11
577.0000000000342
 21
185.999999999964
 31
0.0
  0
LINE
  5
71F
330
70E
100
AcDbEntity
  8
0
  6
Continuous
 62
     7
100
AcDbLine
 10
576.0000000000342
 20
185.999999999964
 30
0.0
 11
576.0681111790004
 21
185.999999999964
 31
0.0
  0
LINE
  5
720
330
70E
100
AcDbEntity
  8
0
  6
Continuous
 62
     7
100
AcDbLine
 10
576.0681111790004
 20
162.9999999999641
 30
0.0
 11
577.0000000000342
 21
162.9999999999641
 31
0.0
  0
LINE
  5
721
330
70E
100
AcDbEntity
  8
0
  6
Continuous
 62
     7
100
AcDbLine
 10
576.0000000000342
 20
162.9999999999641
 30
0.0
 11
576.0681111790004
 21
162.9999999999641
 31
0.0
  0
LINE
  5
722
330
70E
100
AcDbEntity
  8
0
  6
Continuous
 62
     9
100
AcDbLine
 10
577.0000000000342
 20
262.9999999999002
 30
0.0
 11
577.0000000000342
 21
239.9999999999002
 31
0.0
  0
LINE
  5
723
330
70E
100
AcDbEntity
  8
0
  6
Continuous
 62
     7
100
AcDbLine
 10
576.0681111790004
 20
262.9999999999641
 30
0.0
 11
577.0000000000342
 21
262.9999999999641
 31
0.0
  0
LINE
  5
724
330
70E
100
AcDbEntity
  8
0
  6
Continuous
 62
     7
100
AcDbLine
 10
576.0573585098662
 20
262.9999999999641
 30
0.0
 11
576.0681111790004
 21
262.9999999999641
 31
0.0
  0
LINE
  5
725
330
70E
100
AcDbEntity
  8
0
  6
Continuous
 62
     7
100
AcDbLine
 10
576.0000000000342
 20
262.9999999999641
 30
0.0
 11
576.0573585098662
 21
262.9999999999641
 31
0.0
  0
LINE
  5
726
330
70E
100
AcDbEntity
  8
0
  6
Continuous
 62
     7
100
AcDbLine
 10
577.0000000000342
 20
239.9999999999641
 30
0.0
 11
576.0000000000342
 21
239.9999999999641
 31
0.0
  0
LINE
  5
727
330
70E
100
AcDbEntity
  8
0
  6
Continuous
 62
     7
100
AcDbLine
 10
627.0000000000342
 20
262.9999999999002
 30
0.0
 11
627.0000000000342
 21
162.9999999999002
 31
0.0
  0
LINE
  5
728
330
70E
100
AcDbEntity
  8
0
  6
Continuous
 62
     7
100
AcDbLine
 10
577.5000000000342
 20
239.9999999999002
 30
0.0
 11
577.5000000000342
 21
185.9999999999002
 31
0.0
  0
LINE
  5
729
330
70E
100
AcDbEntity
  8
0
  6
Continuous
 62
     7
100
AcDbLine
 10
627.0000000000342
 20
262.9999999999002
 30
0.0
 11
577.0000000000342
 21
262.9999999999002
 31
0.0
  0
LINE
  5
72A
330
70E
100
AcDbEntity
  8
0
  6
Continuous
 62
     7
100
AcDbLine
 10
577.0000000000342
 20
239.9999999999002
 30
0.0
 11
577.5000000000342
 21
239.9999999999002
 31
0.0
  0
LINE
  5
72B
330
70E
100
AcDbEntity
  8
0
  6
Continuous
 62
     7
100
AcDbLine
 10
577.5000000000342
 20
185.9999999999002
 30
0.0
 11
577.0000000000342
 21
185.9999999999002
 31
0.0
  0
LINE
  5
72C
330
70E
100
AcDbEntity
  8
0
  6
Continuous
 62
     7
100
AcDbLine
 10
627.0000000000342
 20
162.9999999999002
 30
0.0
 11
577.0000000000342
 21
162.9999999999002
 31
0.0
  0
LINE
  5
72D
330
70E
100
AcDbEntity
  8
0
  6
Continuous
 62
     7
100
AcDbLine
 10
573.8000000049952
 20
161.7000000002563
 30
0.0
 11
563.2000000049952
 21
161.6999999997347
 31
0.0
  0
LINE
  5
72E
330
70E
100
AcDbEntity
  8
0
  6
Continuous
 62
     7
100
AcDbLine
 10
562.5000000049608
 20
162.3999999997002
 30
0.0
 11
574.5000000049608
 21
162.4000000002908
 31
0.0
  0
LINE
  5
72F
330
70E
100
AcDbEntity
  8
0
  6
Continuous
 62
     7
100
AcDbLine
 10
574.4999999999801
 20
263.6000000002999
 30
0.0
 11
562.4999999999801
 21
263.5999999997092
 31
0.0
  0
LINE
  5
730
330
70E
100
AcDbEntity
  8
0
  6
Continuous
 62
     7
100
AcDbLine
 10
563.1999999999456
 20
264.2999999997436
 30
0.0
 11
573.7999999999457
 21
264.3000000002654
 31
0.0
  0
LINE
  5
731
330
70E
100
AcDbEntity
  8
0
  6
Continuous
 62
     7
100
AcDbLine
 10
575.7500000000342
 20
237.999999999996
 30
0.0
 11
568.5000000000342
 21
237.999999999996
 31
0.0
  0
LINE
  5
732
330
70E
100
AcDbEntity
  8
0
  6
Continuous
 62
     7
100
AcDbLine
 10
575.7500000000342
 20
239.299999999996
 30
0.0
 11
568.5000000000342
 21
239.299999999996
 31
0.0
  0
LINE
  5
733
330
70E
100
AcDbEntity
  8
0
  6
Continuous
 62
     7
100
AcDbLine
 10
568.5000000000342
 20
237.999999999996
 30
0.0
 11
561.2500000000342
 21
237.999999999996
 31
0.0
  0
LINE
  5
734
330
70E
100
AcDbEntity
  8
0
  6
Continuous
 62
     7
100
AcDbLine
 10
568.5000000000342
 20
239.299999999996
 30
0.0
 11
561.2500000000342
 21
239.299999999996
 31
0.0
  0
LINE
  5
735
330
70E
100
AcDbEntity
  8
0
  6
Continuous
 62
     7
100
AcDbLine
 10
561.2500000000343
 20
187.999999999996
 30
0.0
 11
575.7500000000342
 21
187.999999999996
 31
0.0
  0
LINE
  5
736
330
70E
100
AcDbEntity
  8
0
  6
Continuous
 62
     7
100
AcDbLine
 10
561.2500000000343
 20
186.699999999996
 30
0.0
 11
575.7500000000342
 21
186.699999999996
 31
0.0
  0
LINE
  5
737
330
70E
100
AcDbEntity
  8
0
  6
Continuous
 62
     7
100
AcDbLine
 10
559.9999999999637
 20
162.9999999999859
 30
0.0
 11
559.0000000000342
 21
162.9999999999859
 31
0.0
  0
LINE
  5
738
330
70E
100
AcDbEntity
  8
0
  6
Continuous
 62
     7
100
AcDbLine
 10
559.0000000000342
 20
262.9999999999859
 30
0.0
 11
559.9999999999637
 21
262.9999999999859
 31
0.0
  0
LINE
  5
739
330
70E
100
AcDbEntity
  8
0
  6
Continuous
 62
     7
100
AcDbLine
 10
559.9999999999637
 20
262.9999999999859
 30
0.0
 11
559.9999999999637
 21
237.999999999996
 31
0.0
  0
LINE
  5
73A
330
70E
100
AcDbEntity
  8
0
  6
Continuous
 62
     7
100
AcDbLine
 10
559.9999999999637
 20
187.999999999996
 30
0.0
 11
559.9999999999637
 21
162.9999999999859
 31
0.0
  0
LINE
  5
73B
330
70E
100
AcDbEntity
  8
0
  6
Continuous
 62
     7
100
AcDbLine
 10
576.0000000000342
 20
237.999999999996
 30
0.0
 11
561.0000000000342
 21
237.999999999996
 31
0.0
  0
LINE
  5
73C
330
70E
100
AcDbEntity
  8
0
  6
Continuous
 62
     7
100
AcDbLine
 10
561.0000000000342
 20
187.999999999996
 30
0.0
 11
561.0000000000342
 21
237.999999999996
 31
0.0
  0
LINE
  5
73D
330
70E
100
AcDbEntity
  8
0
  6
Continuous
 62
     7
100
AcDbLine
 10
561.0000000000342
 20
187.999999999996
 30
0.0
 11
576.0000000000342
 21
187.999999999996
 31
0.0
  0
LINE
  5
73E
330
70E
100
AcDbEntity
  8
0
  6
Continuous
 62
     9
100
AcDbLine
 10
560.0000000000342
 20
187.999999999996
 30
0.0
 11
560.0000000000342
 21
237.9999999999961
 31
0.0
  0
LINE
  5
73F
330
70E
100
AcDbEntity
  8
0
  6
Continuous
 62
     7
100
AcDbLine
 10
560.0000000000342
 20
237.999999999996
 30
0.0
 11
561.0000000000342
 21
237.999999999996
 31
0.0
  0
LINE
  5
740
330
70E
100
AcDbEntity
  8
0
  6
Continuous
 62
     7
100
AcDbLine
 10
561.0000000000342
 20
187.999999999996
 30
0.0
 11
560.0000000000342
 21
187.999999999996
 31
0.0
  0
LINE
  5
741
330
70E
100
AcDbEntity
  8
0
  6
Continuous
 62
     7
100
AcDbLine
 10
510.0000000000343
 20
162.999999999996
 30
0.0
 11
510.0000000000343
 21
262.9999999999961
 31
0.0
  0
LINE
  5
742
330
70E
100
AcDbEntity
  8
0
  6
Continuous
 62
     7
100
AcDbLine
 10
510.0000000000343
 20
262.9999999999961
 30
0.0
 11
559.0000000000342
 21
262.9999999999961
 31
0.0
  0
LINE
  5
743
330
70E
100
AcDbEntity
  8
0
  6
Continuous
 62
     7
100
AcDbLine
 10
559.0000000000342
 20
237.9999999999961
 30
0.0
 11
559.0000000000342
 21
262.9999999999961
 31
0.0
  0
LINE
  5
744
330
70E
100
AcDbEntity
  8
0
  6
Continuous
 62
     7
100
AcDbLine
 10
559.0000000000342
 20
162.999999999996
 30
0.0
 11
559.0000000000342
 21
187.999999999996
 31
0.0
  0
LINE
  5
745
330
70E
100
AcDbEntity
  8
0
  6
Continuous
 62
     7
100
AcDbLine
 10
510.0000000000343
 20
162.999999999996
 30
0.0
 11
559.0000000000342
 21
162.999999999996
 31
0.0
  0
LINE
  5
746
330
70E
100
AcDbEntity
  8
0
  6
Continuous
 62
     7
100
AcDbLine
 10
560.0000000000342
 20
237.9999999999961
 30
0.0
 11
559.0000000000342
 21
237.9999999999961
 31
0.0
  0
LINE
  5
747
330
70E
100
AcDbEntity
  8
0
  6
Continuous
 62
     7
100
AcDbLine
 10
559.0000000000342
 20
187.999999999996
 30
0.0
 11
560.0000000000342
 21
187.999999999996
 31
0.0
  0
LINE
  5
748
330
70E
100
AcDbEntity
  8
0
  6
Continuous
 62
     7
100
AcDbLine
 10
561.5000000000343
 20
239.799999999996
 30
0.0
 11
561.5000000000343
 21
239.299999999996
 31
0.0
  0
LINE
  5
749
330
70E
100
AcDbEntity
  8
0
  6
Continuous
 62
     7
100
AcDbLine
 10
575.5000000000342
 20
239.299999999996
 30
0.0
 11
575.5000000000342
 21
239.799999999996
 31
0.0
  0
LINE
  5
74A
330
70E
100
AcDbEntity
  8
0
  6
Continuous
 62
     7
100
AcDbLine
 10
575.5000000000319
 20
186.1999999999941
 30
0.0
 11
575.5000000000323
 21
186.699999999994
 31
0.0
  0
LINE
  5
74B
330
70E
100
AcDbEntity
  8
0
  6
Continuous
 62
     7
100
AcDbLine
 10
561.5000000000321
 20
186.6999999999979
 30
0.0
 11
561.5000000000319
 21
186.1999999999978
 31
0.0
  0
LINE
  5
74C
330
70E
100
AcDbEntity
  8
0
  6
Continuous
 62
     7
100
AcDbLine
 10
561.0000000000342
 20
185.999999999996
 30
0.0
 11
561.0000000000342
 21
162.999999999996
 31
0.0
  0
LINE
  5
74D
330
70E
100
AcDbEntity
  8
0
  6
Continuous
 62
     7
100
AcDbLine
 10
561.0000000000342
 20
262.9999999999961
 30
0.0
 11
561.0000000000342
 21
239.999999999996
 31
0.0
  0
LINE
  5
74E
330
70E
100
AcDbEntity
  8
0
  6
Continuous
 62
     7
100
AcDbLine
 10
562.5000000049608
 20
162.3999999997002
 30
0.0
 11
563.2000000049952
 21
161.6999999997347
 31
0.0
  0
LINE
  5
74F
330
70E
100
AcDbEntity
  8
0
  6
Continuous
 62
     7
100
AcDbLine
 10
573.8000000049952
 20
161.7000000002563
 30
0.0
 11
574.5000000049608
 21
162.4000000002908
 31
0.0
  0
LINE
  5
750
330
70E
100
AcDbEntity
  8
0
  6
Continuous
 62
     7
100
AcDbLine
 10
574.5000000049608
 20
162.4000000002908
 30
0.0
 11
574.5000000049312
 21
163.0000000002908
 31
0.0
  0
LINE
  5
751
330
70E
100
AcDbEntity
  8
0
  6
Continuous
 62
     7
100
AcDbLine
 10
562.500000004931
 20
162.9999999997002
 30
0.0
 11
562.5000000049608
 21
162.3999999997002
 31
0.0
  0
LINE
  5
752
330
70E
100
AcDbEntity
  8
0
  6
Continuous
 62
     7
100
AcDbLine
 10
562.4999999999801
 20
263.5999999997092
 30
0.0
 11
562.5000000000096
 21
262.9999999997091
 31
0.0
  0
LINE
  5
753
330
70E
100
AcDbEntity
  8
0
  6
Continuous
 62
     7
100
AcDbLine
 10
574.5000000000096
 20
263.0000000002999
 30
0.0
 11
574.4999999999801
 21
263.6000000002999
 31
0.0
  0
LINE
  5
754
330
70E
100
AcDbEntity
  8
0
  6
Continuous
 62
     7
100
AcDbLine
 10
574.4999999999801
 20
263.6000000002999
 30
0.0
 11
573.7999999999457
 21
264.3000000002654
 31
0.0
  0
LINE
  5
755
330
70E
100
AcDbEntity
  8
0
  6
Continuous
 62
     7
100
AcDbLine
 10
563.1999999999456
 20
264.2999999997436
 30
0.0
 11
562.4999999999801
 21
263.5999999997092
 31
0.0
  0
LINE
  5
756
330
70E
100
AcDbEntity
  8
0
  6
Continuous
 62
     7
100
AcDbLine
 10
564.5000000011417
 20
240.0000000004015
 30
0.0
 11
564.5000000011515
 21
239.799999999996
 31
0.0
  0
LINE
  5
757
330
70E
100
AcDbEntity
  8
0
  6
Continuous
 62
     7
100
AcDbLine
 10
564.5000000037897
 20
186.200000000048
 30
0.0
 11
564.5000000037994
 21
186.0000000004015
 31
0.0
  0
LINE
  5
758
330
70E
100
AcDbEntity
  8
0
  6
Continuous
 62
     7
100
AcDbLine
 10
572.5000000037995
 20
186.0000000004015
 30
0.0
 11
572.5000000037897
 21
186.2000000000458
 31
0.0
  0
LINE
  5
759
330
70E
100
AcDbEntity
  8
0
  6
Continuous
 62
     7
100
AcDbLine
 10
572.5000000011515
 20
239.799999999996
 30
0.0
 11
572.5000000011418
 21
240.0000000004015
 31
0.0
  0
LINE
  5
75A
330
70E
100
AcDbEntity
  8
0
  6
Continuous
 62
     7
100
AcDbLine
 10
575.7500000000342
 20
237.999999999996
 30
0.0
 11
575.7500000000342
 21
239.299999999996
 31
0.0
  0
LINE
  5
75B
330
70E
100
AcDbEntity
  8
0
  6
Continuous
 62
     7
100
AcDbLine
 10
561.2500000000342
 20
239.299999999996
 30
0.0
 11
561.2500000000342
 21
237.999999999996
 31
0.0
  0
LINE
  5
75C
330
70E
100
AcDbEntity
  8
0
  6
Continuous
 62
     7
100
AcDbLine
 10
561.2500000000343
 20
187.999999999996
 30
0.0
 11
561.2500000000343
 21
186.699999999996
 31
0.0
  0
LINE
  5
75D
330
70E
100
AcDbEntity
  8
0
  6
Continuous
 62
     7
100
AcDbLine
 10
575.7500000000342
 20
186.699999999996
 30
0.0
 11
575.7500000000342
 21
187.999999999996
 31
0.0
  0
LINE
  5
75E
330
70E
100
AcDbEntity
  8
0
  6
Continuous
 62
     7
100
AcDbLine
 10
576.0000000000342
 20
187.999999999996
 30
0.0
 11
576.0000000000342
 21
237.999999999996
 31
0.0
  0
ENDBLK
  5
75F
330
70E
100
AcDbEntity
  8
0
100
AcDbBlockEnd
  0
BLOCK
  5
762
330
761
100
AcDbEntity
  8
0
100
AcDbBlockBegin
  2
AID4247
 70
     0
 10
0.0
 20
0.0
 30
0.0
  3
AID4247
  1

  0
LINE
  5
763
330
761
100
AcDbEntity
  8
0
  6
Continuous
 62
     7
100
AcDbLine
 10
598.9999949885383
 20
302.6000000012436
 30
0.0
 11
605.0000050085402
 21
302.6000000012436
 31
0.0
  0
LINE
  5
764
330
761
100
AcDbEntity
  8
0
  6
Continuous
 62
     9
100
AcDbLine
 10
599.4999999985392
 20
302.6000000012436
 30
0.0
 11
604.4999999985392
 21
302.6000000012436
 31
0.0
  0
LINE
  5
765
330
761
100
AcDbEntity
  8
0
  6
Continuous
 62
     7
100
AcDbLine
 10
531.9999949900318
 20
302.6000000012528
 30
0.0
 11
538.0000050100319
 21
302.6000000012528
 31
0.0
  0
LINE
  5
766
330
761
100
AcDbEntity
  8
0
  6
Continuous
 62
     7
100
AcDbLine
 10
610.8497958474737
 20
302.6499999986492
 30
0.0
 11
604.9999999985392
 21
302.6499999986492
 31
0.0
  0
LINE
  5
767
330
761
100
AcDbEntity
  8
0
  6
Continuous
 62
     7
100
AcDbLine
 10
598.999999998539
 20
302.6499999986492
 30
0.0
 11
593.1497959294407
 21
302.6499999986492
 31
0.0
  0
LINE
  5
768
330
761
100
AcDbEntity
  8
0
  6
Continuous
 62
     7
100
AcDbLine
 10
610.8498130603412
 20
302.6500000018428
 30
0.0
 11
593.1498131290692
 21
302.6500000018428
 31
0.0
  0
LINE
  5
769
330
761
100
AcDbEntity
  8
0
  6
Continuous
 62
     7
100
AcDbLine
 10
610.8498130603412
 20
309.1500000018428
 30
0.0
 11
593.1498131290692
 21
309.1500000018428
 31
0.0
  0
LINE
  5
76A
330
761
100
AcDbEntity
  8
0
  6
Continuous
 62
     7
100
AcDbLine
 10
627.000000000036
 20
294.7000000028544
 30
0.0
 11
627.000000000036
 21
300.7000000028544
 31
0.0
  0
LINE
  5
76B
330
761
100
AcDbEntity
  8
0
  6
Continuous
 62
     7
100
AcDbLine
 10
627.000000000036
 20
294.7000000028544
 30
0.0
 11
577.0000000000362
 21
294.7000000028544
 31
0.0
  0
LINE
  5
76C
330
761
100
AcDbEntity
  8
0
  6
Continuous
 62
     7
100
AcDbLine
 10
577.0000000000362
 20
294.7000000028544
 30
0.0
 11
577.0000000000362
 21
300.7000000028544
 31
0.0
  0
LINE
  5
76D
330
761
100
AcDbEntity
  8
0
  6
Continuous
 62
     7
100
AcDbLine
 10
627.000000000036
 20
300.7000000028544
 30
0.0
 11
577.0000000000362
 21
300.7000000028544
 31
0.0
  0
LINE
  5
76E
330
761
100
AcDbEntity
  8
0
  6
Continuous
 62
     7
100
AcDbLine
 10
621.0751288694376
 20
300.9000000024849
 30
0.0
 11
621.0751288694376
 21
300.7000000028544
 31
0.0
  0
LINE
  5
76F
330
761
100
AcDbEntity
  8
0
  6
Continuous
 62
     9
100
AcDbLine
 10
619.0751288694376
 20
300.7000000028544
 30
0.0
 11
619.0751288694376
 21
300.9000000026127
 31
0.0
  0
LINE
  5
770
330
761
100
AcDbEntity
  8
0
  6
Continuous
 62
     7
100
AcDbLine
 10
619.0751288694376
 20
300.9000000024849
 30
0.0
 11
621.0751288694376
 21
300.9000000024849
 31
0.0
  0
LINE
  5
771
330
761
100
AcDbEntity
  8
0
  6
Continuous
 62
     9
100
AcDbLine
 10
583.5000000000344
 20
300.9000000026127
 30
0.0
 11
583.5000000000344
 21
300.7000000028544
 31
0.0
  0
LINE
  5
772
330
761
100
AcDbEntity
  8
0
  6
Continuous
 62
     7
100
AcDbLine
 10
583.5000000000344
 20
300.9000000026127
 30
0.0
 11
619.0751288694376
 21
300.9000000026127
 31
0.0
  0
LINE
  5
773
330
761
100
AcDbEntity
  8
0
  6
Continuous
 62
     7
100
AcDbLine
 10
581.5000000000345
 20
300.7000000028544
 30
0.0
 11
581.5000000000345
 21
300.9000000024849
 31
0.0
  0
LINE
  5
774
330
761
100
AcDbEntity
  8
0
  6
Continuous
 62
     7
100
AcDbLine
 10
581.5000000000345
 20
300.9000000024849
 30
0.0
 11
583.5000000000344
 21
300.9000000024849
 31
0.0
  0
LINE
  5
775
330
761
100
AcDbEntity
  8
0
  6
Continuous
 62
     9
100
AcDbLine
 10
624.0000000000268
 20
310.9000000034725
 30
0.0
 11
624.0000000000268
 21
311.3000000034725
 31
0.0
  0
LINE
  5
776
330
761
100
AcDbEntity
  8
0
  6
Continuous
 62
     7
100
AcDbLine
 10
626.0000000000262
 20
311.3000000033447
 30
0.0
 11
626.0000000000262
 21
310.9000000033447
 31
0.0
  0
LINE
  5
777
330
761
100
AcDbEntity
  8
0
  6
Continuous
 62
     7
100
AcDbLine
 10
626.000000000027
 20
310.9000000033447
 30
0.0
 11
624.0000000000271
 21
310.9000000033447
 31
0.0
  0
LINE
  5
778
330
761
100
AcDbEntity
  8
0
  6
Continuous
 62
     7
100
AcDbLine
 10
581.0000000000411
 20
310.9000000034725
 30
0.0
 11
624.0000000000268
 21
310.9000000034725
 31
0.0
  0
LINE
  5
779
330
761
100
AcDbEntity
  8
0
  6
Continuous
 62
     9
100
AcDbLine
 10
581.0000000000411
 20
311.3000000034725
 30
0.0
 11
581.0000000000411
 21
310.9000000034724
 31
0.0
  0
LINE
  5
77A
330
761
100
AcDbEntity
  8
0
  6
Continuous
 62
     7
100
AcDbLine
 10
579.0000000000417
 20
310.9000000033447
 30
0.0
 11
579.0000000000417
 21
311.3000000033447
 31
0.0
  0
LINE
  5
77B
330
761
100
AcDbEntity
  8
0
  6
Continuous
 62
     7
100
AcDbLine
 10
581.0000000000411
 20
310.9000000033447
 30
0.0
 11
579.0000000000411
 21
310.9000000033447
 31
0.0
  0
LINE
  5
77C
330
761
100
AcDbEntity
  8
0
  6
Continuous
 62
     7
100
AcDbLine
 10
576.0000000000342
 20
318.3000000035363
 30
0.0
 11
576.0000000000342
 21
318.8000000035363
 31
0.0
  0
ARC
  5
77D
330
761
100
AcDbEntity
  8
0
  6
Continuous
 62
     7
100
AcDbCircle
 10
577.0000000000342
 20
318.3000000035363
 30
0.0
 40
1.0
100
AcDbArc
 50
180.0
 51
270.0
  0
LINE
  5
77E
330
761
100
AcDbEntity
  8
0
  6
Continuous
 62
     7
100
AcDbLine
 10
627.0000000000342
 20
317.3000000035363
 30
0.0
 11
577.0000000000342
 21
317.3000000035363
 31
0.0
  0
ARC
  5
77F
330
761
100
AcDbEntity
  8
0
  6
Continuous
 62
     7
100
AcDbCircle
 10
568.5000000000342
 20
318.8000000035362
 30
0.0
 40
7.499999999999951
100
AcDbArc
 50
0.0
 51
270.0
  0
LINE
  5
780
330
761
100
AcDbEntity
  8
0
  6
Continuous
 62
     7
100
AcDbLine
 10
627.0000000000342
 20
311.3000000035363
 30
0.0
 11
627.0000000000342
 21
317.3000000035363
 31
0.0
  0
LINE
  5
781
330
761
100
AcDbEntity
  8
0
  6
Continuous
 62
     7
100
AcDbLine
 10
568.5000000000342
 20
311.3000000035363
 30
0.0
 11
627.0000000000342
 21
311.3000000035363
 31
0.0
  0
LINE
  5
782
330
761
100
AcDbEntity
  8
0
  6
Continuous
 62
     9
100
AcDbLine
 10
513.0000000000343
 20
311.3000000012548
 30
0.0
 11
513.0000000000343
 21
310.9000000012548
 31
0.0
  0
LINE
  5
783
330
761
100
AcDbEntity
  8
0
  6
Continuous
 62
     7
100
AcDbLine
 10
513.0000000000343
 20
310.9000000012547
 30
0.0
 11
511.0000000000343
 21
310.9000000012547
 31
0.0
  0
LINE
  5
784
330
761
100
AcDbEntity
  8
0
  6
Continuous
 62
     7
100
AcDbLine
 10
511.0000000000343
 20
310.9000000012547
 30
0.0
 11
511.0000000000343
 21
311.3000000012547
 31
0.0
  0
LINE
  5
785
330
761
100
AcDbEntity
  8
0
  6
Continuous
 62
     9
100
AcDbLine
 10
556.0000000000342
 20
310.9000000012547
 30
0.0
 11
556.0000000000342
 21
311.3000000012547
 31
0.0
  0
LINE
  5
786
330
761
100
AcDbEntity
  8
0
  6
Continuous
 62
     7
100
AcDbLine
 10
556.0000000000342
 20
310.9000000012547
 30
0.0
 11
513.0000000000343
 21
310.9000000012547
 31
0.0
  0
LINE
  5
787
330
761
100
AcDbEntity
  8
0
  6
Continuous
 62
     7
100
AcDbLine
 10
558.0000000000342
 20
311.3000000012548
 30
0.0
 11
558.0000000000342
 21
310.9000000012548
 31
0.0
  0
LINE
  5
788
330
761
100
AcDbEntity
  8
0
  6
Continuous
 62
     7
100
AcDbLine
 10
558.0000000000342
 20
310.9000000012547
 30
0.0
 11
556.0000000000342
 21
310.9000000012547
 31
0.0
  0
LINE
  5
789
330
761
100
AcDbEntity
  8
0
  6
Continuous
 62
     7
100
AcDbLine
 10
555.5000000000342
 20
300.9000000012548
 30
0.0
 11
555.5000000000342
 21
300.7000000044251
 31
0.0
  0
LINE
  5
78A
330
761
100
AcDbEntity
  8
0
  6
Continuous
 62
     9
100
AcDbLine
 10
553.5000000000342
 20
300.7000000044251
 30
0.0
 11
553.5000000000342
 21
300.9000000012548
 31
0.0
  0
LINE
  5
78B
330
761
100
AcDbEntity
  8
0
  6
Continuous
 62
     7
100
AcDbLine
 10
553.5000000000342
 20
300.9000000012548
 30
0.0
 11
555.5000000000342
 21
300.9000000012548
 31
0.0
  0
LINE
  5
78C
330
761
100
AcDbEntity
  8
0
  6
Continuous
 62
     9
100
AcDbLine
 10
517.9248711306306
 20
300.9000000012548
 30
0.0
 11
517.9248711306306
 21
300.7000000044251
 31
0.0
  0
LINE
  5
78D
330
761
100
AcDbEntity
  8
0
  6
Continuous
 62
     7
100
AcDbLine
 10
515.9248711306307
 20
300.7000000044251
 30
0.0
 11
515.9248711306307
 21
300.9000000012548
 31
0.0
  0
LINE
  5
78E
330
761
100
AcDbEntity
  8
0
  6
Continuous
 62
     7
100
AcDbLine
 10
515.9248711306307
 20
300.9000000012548
 30
0.0
 11
517.9248711306306
 21
300.9000000012548
 31
0.0
  0
LINE
  5
78F
330
761
100
AcDbEntity
  8
0
  6
Continuous
 62
     7
100
AcDbLine
 10
517.9248711306306
 20
300.9000000012548
 30
0.0
 11
553.5000000000342
 21
300.9000000012548
 31
0.0
  0
CIRCLE
  5
790
330
761
100
AcDbEntity
  8
0
  6
Continuous
 62
     7
100
AcDbCircle
 10
568.5000000049954
 20
318.7999999995117
 30
0.0
 40
5.300000000000082
  0
CIRCLE
  5
791
330
761
100
AcDbEntity
  8
0
  6
Continuous
 62
     7
100
AcDbCircle
 10
568.5000000049608
 20
318.7999999994953
 30
0.0
 40
6.000000000000002
  0
LINE
  5
792
330
761
100
AcDbEntity
  8
0
  6
Continuous
 62
     7
100
AcDbLine
 10
526.1923596856179
 20
302.6500000012566
 30
0.0
 11
526.0255031384075
 21
302.6500000012566
 31
0.0
  0
LINE
  5
793
330
761
100
AcDbEntity
  8
0
  6
Continuous
 62
     7
100
AcDbLine
 10
526.1923596856179
 20
309.1500000012567
 30
0.0
 11
526.0255031384075
 21
309.1500000012567
 31
0.0
  0
LINE
  5
794
330
761
100
AcDbEntity
  8
0
  6
Continuous
 62
     7
100
AcDbLine
 10
526.0255031384075
 20
302.6500000012566
 30
0.0
 11
525.8704209911241
 21
302.6500000012566
 31
0.0
  0
LINE
  5
795
330
761
100
AcDbEntity
  8
0
  6
Continuous
 62
     7
100
AcDbLine
 10
526.0255031384075
 20
309.1500000012567
 30
0.0
 11
525.8704209911241
 21
309.1500000012567
 31
0.0
  0
LINE
  5
796
330
761
100
AcDbEntity
  8
0
  6
Continuous
 62
     7
100
AcDbLine
 10
543.8923596856181
 20
302.6500000012567
 30
0.0
 11
526.1923596856179
 21
302.6500000012567
 31
0.0
  0
LINE
  5
797
330
761
100
AcDbEntity
  8
0
  6
Continuous
 62
     7
100
AcDbLine
 10
543.8923596856181
 20
309.1500000012567
 30
0.0
 11
526.1923596856179
 21
309.1500000012567
 31
0.0
  0
LINE
  5
798
330
761
100
AcDbEntity
  8
0
  6
Continuous
 62
     7
100
AcDbLine
 10
559.9999999999637
 20
294.7000000044251
 30
0.0
 11
559.9999999999637
 21
300.7000000044251
 31
0.0
  0
LINE
  5
799
330
761
100
AcDbEntity
  8
0
  6
Continuous
 62
     7
100
AcDbLine
 10
509.9999999999638
 20
294.7000000044251
 30
0.0
 11
509.9999999999638
 21
300.7000000044251
 31
0.0
  0
LINE
  5
79A
330
761
100
AcDbEntity
  8
0
  6
Continuous
 62
     7
100
AcDbLine
 10
559.9999999999637
 20
300.7000000044251
 30
0.0
 11
509.9999999999638
 21
300.7000000044251
 31
0.0
  0
LINE
  5
79B
330
761
100
AcDbEntity
  8
0
  6
Continuous
 62
     7
100
AcDbLine
 10
559.9999999999637
 20
294.7000000044251
 30
0.0
 11
509.9999999999638
 21
294.7000000044251
 31
0.0
  0
LINE
  5
79C
330
761
100
AcDbEntity
  8
0
  6
Continuous
 62
     7
100
AcDbLine
 10
510.0000000000343
 20
311.3000000012548
 30
0.0
 11
510.0000000000343
 21
317.3000000012548
 31
0.0
  0
LINE
  5
79D
330
761
100
AcDbEntity
  8
0
  6
Continuous
 62
     7
100
AcDbLine
 10
559.0000000000342
 20
311.3000000012548
 30
0.0
 11
559.0000000000342
 21
317.3000000012548
 31
0.0
  0
LINE
  5
79E
330
761
100
AcDbEntity
  8
0
  6
Continuous
 62
     7
100
AcDbLine
 10
559.0000000000342
 20
311.3000000012548
 30
0.0
 11
510.0000000000343
 21
311.3000000012548
 31
0.0
  0
LINE
  5
79F
330
761
100
AcDbEntity
  8
0
  6
Continuous
 62
     7
100
AcDbLine
 10
510.0000000000343
 20
317.3000000012548
 30
0.0
 11
559.0000000000342
 21
317.3000000012548
 31
0.0
  0
ARC
  5
7A0
330
761
100
AcDbEntity
  8
0
  6
Continuous
 62
     7
100
AcDbCircle
 10
560.0000000000342
 20
318.3000000012548
 30
0.0
 40
1.0
100
AcDbArc
 50
270.0
 51
360.0
  0
LINE
  5
7A1
330
761
100
AcDbEntity
  8
0
  6
Continuous
 62
     7
100
AcDbLine
 10
561.0000000000342
 20
318.3000000012548
 30
0.0
 11
561.0000000000342
 21
318.8000000012548
 31
0.0
  0
LINE
  5
7A2
330
761
100
AcDbEntity
  8
0
  6
Continuous
 62
     7
100
AcDbLine
 10
568.5000000000342
 20
311.3000000012548
 30
0.0
 11
559.0000000000342
 21
311.3000000012548
 31
0.0
  0
LINE
  5
7A3
330
761
100
AcDbEntity
  8
0
  6
Continuous
 62
     7
100
AcDbLine
 10
559.0000000000342
 20
317.3000000012548
 30
0.0
 11
560.0000000000342
 21
317.3000000012548
 31
0.0
  0
LINE
  5
7A4
330
761
100
AcDbEntity
  8
0
  6
Continuous
 62
     9
100
AcDbLine
 10
599.4999999985392
 20
302.6500000023854
 30
0.0
 11
599.4999999985392
 21
302.6000000012436
 31
0.0
  0
LINE
  5
7A5
330
761
100
AcDbEntity
  8
0
  6
Continuous
 62
     9
100
AcDbLine
 10
604.4999999985392
 20
302.6000000012436
 30
0.0
 11
604.4999999985392
 21
302.6500000023854
 31
0.0
  0
LINE
  5
7A6
330
761
100
AcDbEntity
  8
0
  6
Continuous
 62
     9
100
AcDbLine
 10
532.5000000000319
 20
302.6500000012567
 30
0.0
 11
532.5000000000319
 21
302.6000000012528
 31
0.0
  0
LINE
  5
7A7
330
761
100
AcDbEntity
  8
0
  6
Continuous
 62
     9
100
AcDbLine
 10
537.5000000000319
 20
302.6000000012528
 30
0.0
 11
537.5000000000319
 21
302.6500000012567
 31
0.0
  0
LINE
  5
7A8
330
761
100
AcDbEntity
  8
0
  6
Continuous
 62
     7
100
AcDbLine
 10
598.999999998539
 20
302.6050000012436
 30
0.0
 11
598.999999998539
 21
302.6000000012371
 31
0.0
  0
LINE
  5
7A9
330
761
100
AcDbEntity
  8
0
  6
Continuous
 62
     7
100
AcDbLine
 10
598.999999998539
 20
302.6000000012371
 30
0.0
 11
598.999999998539
 21
300.9000000026127
 31
0.0
  0
LINE
  5
7AA
330
761
100
AcDbEntity
  8
0
  6
Continuous
 62
     7
100
AcDbLine
 10
604.9999999985392
 20
300.9000000026127
 30
0.0
 11
604.9999999985392
 21
302.6000000012372
 31
0.0
  0
LINE
  5
7AB
330
761
100
AcDbEntity
  8
0
  6
Continuous
 62
     7
100
AcDbLine
 10
604.9999999985392
 20
302.6000000012371
 30
0.0
 11
604.9999999985392
 21
302.6050000012436
 31
0.0
  0
LINE
  5
7AC
330
761
100
AcDbEntity
  8
0
  6
Continuous
 62
     7
100
AcDbLine
 10
598.999999998539
 20
302.6500000023684
 30
0.0
 11
598.999999998539
 21
302.6000000012371
 31
0.0
  0
LINE
  5
7AD
330
761
100
AcDbEntity
  8
0
  6
Continuous
 62
     7
100
AcDbLine
 10
598.999999998539
 20
302.6000000012371
 30
0.0
 11
598.999999998539
 21
302.5950000012437
 31
0.0
  0
LINE
  5
7AE
330
761
100
AcDbEntity
  8
0
  6
Continuous
 62
     7
100
AcDbLine
 10
604.9999999985392
 20
302.5950000012437
 30
0.0
 11
604.9999999985392
 21
302.6000000012372
 31
0.0
  0
LINE
  5
7AF
330
761
100
AcDbEntity
  8
0
  6
Continuous
 62
     7
100
AcDbLine
 10
604.9999999985392
 20
302.6000000012371
 30
0.0
 11
604.9999999985392
 21
302.6500000023684
 31
0.0
  0
LINE
  5
7B0
330
761
100
AcDbEntity
  8
0
  6
Continuous
 62
     7
100
AcDbLine
 10
532.0000000000319
 20
302.6050000012528
 30
0.0
 11
532.0000000000319
 21
302.6000000012528
 31
0.0
  0
LINE
  5
7B1
330
761
100
AcDbEntity
  8
0
  6
Continuous
 62
     7
100
AcDbLine
 10
532.0000000000319
 20
302.6000000012528
 30
0.0
 11
532.0000000000319
 21
300.9000000012548
 31
0.0
  0
LINE
  5
7B2
330
761
100
AcDbEntity
  8
0
  6
Continuous
 62
     7
100
AcDbLine
 10
538.0000000000319
 20
300.9000000012548
 30
0.0
 11
538.0000000000319
 21
302.6000000012528
 31
0.0
  0
LINE
  5
7B3
330
761
100
AcDbEntity
  8
0
  6
Continuous
 62
     7
100
AcDbLine
 10
538.0000000000319
 20
302.6000000012528
 30
0.0
 11
538.0000000000319
 21
302.6050000012527
 31
0.0
  0
LINE
  5
7B4
330
761
100
AcDbEntity
  8
0
  6
Continuous
 62
     7
100
AcDbLine
 10
532.0000000000319
 20
302.6500000012567
 30
0.0
 11
532.0000000000319
 21
302.6000000012528
 31
0.0
  0
LINE
  5
7B5
330
761
100
AcDbEntity
  8
0
  6
Continuous
 62
     7
100
AcDbLine
 10
532.0000000000319
 20
302.6000000012528
 30
0.0
 11
532.0000000000319
 21
302.5950000012528
 31
0.0
  0
LINE
  5
7B6
330
761
100
AcDbEntity
  8
0
  6
Continuous
 62
     7
100
AcDbLine
 10
538.0000000000319
 20
302.5950000012528
 30
0.0
 11
538.0000000000319
 21
302.6000000012527
 31
0.0
  0
LINE
  5
7B7
330
761
100
AcDbEntity
  8
0
  6
Continuous
 62
     7
100
AcDbLine
 10
538.0000000000319
 20
302.6000000012528
 30
0.0
 11
538.0000000000319
 21
302.6500000012567
 31
0.0
  0
LINE
  5
7B8
330
761
100
AcDbEntity
  8
0
  6
Continuous
 62
     7
100
AcDbLine
 10
610.8498130603432
 20
302.6500000018428
 30
0.0
 11
610.8498130603432
 21
309.1500000018428
 31
0.0
  0
LINE
  5
7B9
330
761
100
AcDbEntity
  8
0
  6
Continuous
 62
     7
100
AcDbLine
 10
593.1498130603389
 20
309.1500000018428
 30
0.0
 11
593.1498130603389
 21
302.6500000018428
 31
0.0
  0
LINE
  5
7BA
330
761
100
AcDbEntity
  8
0
  6
Continuous
 62
     7
100
AcDbLine
 10
606.9000000000343
 20
309.1500000023138
 30
0.0
 11
606.9000000000343
 21
310.9000000034725
 31
0.0
  0
LINE
  5
7BB
330
761
100
AcDbEntity
  8
0
  6
Continuous
 62
     7
100
AcDbLine
 10
597.1000000000342
 20
310.9000000034725
 30
0.0
 11
597.1000000000342
 21
309.1500000023139
 31
0.0
  0
LINE
  5
7BC
330
761
100
AcDbEntity
  8
0
  6
Continuous
 62
     7
100
AcDbLine
 10
525.8704209911241
 20
309.1500000012567
 30
0.0
 11
525.8704209911241
 21
302.6500000012567
 31
0.0
  0
LINE
  5
7BD
330
761
100
AcDbEntity
  8
0
  6
Continuous
 62
     7
100
AcDbLine
 10
543.8923596856181
 20
302.6500000012567
 30
0.0
 11
543.8923596856181
 21
309.1500000012567
 31
0.0
  0
LINE
  5
7BE
330
761
100
AcDbEntity
  8
0
  6
Continuous
 62
     7
100
AcDbLine
 10
526.1923596856179
 20
309.1500000012567
 30
0.0
 11
526.1923596856179
 21
302.6500000012567
 31
0.0
  0
LINE
  5
7BF
330
761
100
AcDbEntity
  8
0
  6
Continuous
 62
     7
100
AcDbLine
 10
539.9000000000341
 20
309.1500000012568
 30
0.0
 11
539.9000000000341
 21
310.9000000012548
 31
0.0
  0
LINE
  5
7C0
330
761
100
AcDbEntity
  8
0
  6
Continuous
 62
     7
100
AcDbLine
 10
530.1000000000343
 20
310.9000000012547
 30
0.0
 11
530.1000000000343
 21
309.1500000012567
 31
0.0
  0
ENDBLK
  5
7C1
330
761
100
AcDbEntity
  8
0
100
AcDbBlockEnd
  0
BLOCK
  5
7C4
330
7C3
100
AcDbEntity
  8
0
100
AcDbBlockBegin
  2
AID4439
 70
     0
 10
0.0
 20
0.0
 30
0.0
  3
AID4439
  1

  0
LINE
  5
7C5
330
7C3
100
AcDbEntity
  8
0
  6
Continuous
 62
     7
100
AcDbLine
 10
605.0000050085396
 20
118.4000000019544
 30
0.0
 11
598.9999949885397
 21
118.4000000019544
 31
0.0
  0
LINE
  5
7C6
330
7C3
100
AcDbEntity
  8
0
  6
Continuous
 62
     9
100
AcDbLine
 10
604.4999999985397
 20
118.4000000019544
 30
0.0
 11
599.4999999985396
 21
118.4000000019544
 31
0.0
  0
LINE
  5
7C7
330
7C3
100
AcDbEntity
  8
0
  6
Continuous
 62
     7
100
AcDbLine
 10
538.0000050100258
 20
118.3999999987514
 30
0.0
 11
531.9999949900258
 21
118.3999999987514
 31
0.0
  0
LINE
  5
7C8
330
7C3
100
AcDbEntity
  8
0
  6
Continuous
 62
     7
100
AcDbLine
 10
593.1497958474735
 20
118.3500000013506
 30
0.0
 11
610.8497958474737
 21
118.3500000013506
 31
0.0
  0
LINE
  5
7C9
330
7C3
100
AcDbEntity
  8
0
  6
Continuous
 62
     7
100
AcDbLine
 10
593.1497958474735
 20
111.8500000013506
 30
0.0
 11
610.8497958474737
 21
111.8500000013506
 31
0.0
  0
LINE
  5
7CA
330
7C3
100
AcDbEntity
  8
0
  6
Continuous
 62
     7
100
AcDbLine
 10
593.1498130603412
 20
118.3499999981572
 30
0.0
 11
598.9999999985396
 21
118.3499999981572
 31
0.0
  0
LINE
  5
7CB
330
7C3
100
AcDbEntity
  8
0
  6
Continuous
 62
     7
100
AcDbLine
 10
604.9999999985388
 20
118.3499999981572
 30
0.0
 11
610.8498130603412
 21
118.3499999981572
 31
0.0
  0
LINE
  5
7CC
330
7C3
100
AcDbEntity
  8
0
  6
Continuous
 62
     7
100
AcDbLine
 10
577.0000000000362
 20
126.3000000035363
 30
0.0
 11
577.0000000000362
 21
120.3000000035362
 31
0.0
  0
LINE
  5
7CD
330
7C3
100
AcDbEntity
  8
0
  6
Continuous
 62
     7
100
AcDbLine
 10
577.0000000000362
 20
126.3000000035363
 30
0.0
 11
627.000000000036
 21
126.3000000035363
 31
0.0
  0
LINE
  5
7CE
330
7C3
100
AcDbEntity
  8
0
  6
Continuous
 62
     7
100
AcDbLine
 10
627.000000000036
 20
126.3000000035363
 30
0.0
 11
627.000000000036
 21
120.3000000035362
 31
0.0
  0
LINE
  5
7CF
330
7C3
100
AcDbEntity
  8
0
  6
Continuous
 62
     7
100
AcDbLine
 10
577.0000000000362
 20
120.3000000035362
 30
0.0
 11
627.000000000036
 21
120.3000000035362
 31
0.0
  0
LINE
  5
7D0
330
7C3
100
AcDbEntity
  8
0
  6
Continuous
 62
     9
100
AcDbLine
 10
619.0751288694376
 20
120.1000000032985
 30
0.0
 11
619.0751288694376
 21
120.3000000035362
 31
0.0
  0
LINE
  5
7D1
330
7C3
100
AcDbEntity
  8
0
  6
Continuous
 62
     9
100
AcDbLine
 10
583.5000000000344
 20
120.3000000035362
 30
0.0
 11
583.5000000000344
 21
120.1000000032985
 31
0.0
  0
LINE
  5
7D2
330
7C3
100
AcDbEntity
  8
0
  6
Continuous
 62
     7
100
AcDbLine
 10
619.0751288694376
 20
120.1000000032985
 30
0.0
 11
583.5000000000344
 21
120.1000000032985
 31
0.0
  0
LINE
  5
7D3
330
7C3
100
AcDbEntity
  8
0
  6
Continuous
 62
     7
100
AcDbLine
 10
581.5000000000345
 20
120.1000000031707
 30
0.0
 11
581.5000000000345
 21
120.3000000035362
 31
0.0
  0
LINE
  5
7D4
330
7C3
100
AcDbEntity
  8
0
  6
Continuous
 62
     7
100
AcDbLine
 10
583.5000000000344
 20
120.1000000031707
 30
0.0
 11
581.5000000000345
 21
120.1000000031707
 31
0.0
  0
LINE
  5
7D5
330
7C3
100
AcDbEntity
  8
0
  6
Continuous
 62
     7
100
AcDbLine
 10
621.0751288694376
 20
120.3000000035362
 30
0.0
 11
621.0751288694376
 21
120.1000000031707
 31
0.0
  0
LINE
  5
7D6
330
7C3
100
AcDbEntity
  8
0
  6
Continuous
 62
     7
100
AcDbLine
 10
621.0751288694376
 20
120.1000000031707
 30
0.0
 11
619.0751288694376
 21
120.1000000031707
 31
0.0
  0
LINE
  5
7D7
330
7C3
100
AcDbEntity
  8
0
  6
Continuous
 62
     9
100
AcDbLine
 10
624.0000000000268
 20
109.7000000027905
 30
0.0
 11
624.0000000000268
 21
110.1000000027905
 31
0.0
  0
LINE
  5
7D8
330
7C3
100
AcDbEntity
  8
0
  6
Continuous
 62
     9
100
AcDbLine
 10
581.0000000000412
 20
110.1000000027905
 30
0.0
 11
581.0000000000412
 21
109.7000000027905
 31
0.0
  0
LINE
  5
7D9
330
7C3
100
AcDbEntity
  8
0
  6
Continuous
 62
     7
100
AcDbLine
 10
624.0000000000268
 20
110.1000000027905
 30
0.0
 11
581.0000000000412
 21
110.1000000027905
 31
0.0
  0
LINE
  5
7DA
330
7C3
100
AcDbEntity
  8
0
  6
Continuous
 62
     7
100
AcDbLine
 10
626.0000000000262
 20
110.1000000026627
 30
0.0
 11
626.0000000000262
 21
109.7000000026627
 31
0.0
  0
LINE
  5
7DB
330
7C3
100
AcDbEntity
  8
0
  6
Continuous
 62
     7
100
AcDbLine
 10
624.0000000000268
 20
110.1000000026627
 30
0.0
 11
626.0000000000268
 21
110.1000000026627
 31
0.0
  0
LINE
  5
7DC
330
7C3
100
AcDbEntity
  8
0
  6
Continuous
 62
     7
100
AcDbLine
 10
579.0000000000417
 20
109.7000000026627
 30
0.0
 11
579.0000000000417
 21
110.1000000026627
 31
0.0
  0
LINE
  5
7DD
330
7C3
100
AcDbEntity
  8
0
  6
Continuous
 62
     7
100
AcDbLine
 10
579.0000000000413
 20
110.1000000026627
 30
0.0
 11
581.0000000000412
 21
110.1000000026627
 31
0.0
  0
LINE
  5
7DE
330
7C3
100
AcDbEntity
  8
0
  6
Continuous
 62
     7
100
AcDbLine
 10
627.0000000000342
 20
103.7000000028544
 30
0.0
 11
577.0000000000342
 21
103.7000000028544
 31
0.0
  0
ARC
  5
7DF
330
7C3
100
AcDbEntity
  8
0
  6
Continuous
 62
     7
100
AcDbCircle
 10
577.0000000000342
 20
102.7000000028544
 30
0.0
 40
1.0
100
AcDbArc
 50
90.0
 51
180.0
  0
LINE
  5
7E0
330
7C3
100
AcDbEntity
  8
0
  6
Continuous
 62
     7
100
AcDbLine
 10
576.0000000000342
 20
102.7000000028544
 30
0.0
 11
576.0000000000342
 21
102.2000000028544
 31
0.0
  0
ARC
  5
7E1
330
7C3
100
AcDbEntity
  8
0
  6
Continuous
 62
     7
100
AcDbCircle
 10
568.5000000000342
 20
102.2000000028544
 30
0.0
 40
7.499999999999951
100
AcDbArc
 50
90.0
 51
360.0
  0
LINE
  5
7E2
330
7C3
100
AcDbEntity
  8
0
  6
Continuous
 62
     7
100
AcDbLine
 10
568.5000000000342
 20
109.7000000028544
 30
0.0
 11
627.0000000000342
 21
109.7000000028544
 31
0.0
  0
LINE
  5
7E3
330
7C3
100
AcDbEntity
  8
0
  6
Continuous
 62
     7
100
AcDbLine
 10
627.0000000000342
 20
109.7000000028544
 30
0.0
 11
627.0000000000342
 21
103.7000000028544
 31
0.0
  0
LINE
  5
7E4
330
7C3
100
AcDbEntity
  8
0
  6
Continuous
 62
     7
100
AcDbLine
 10
511.0000000000343
 20
109.6999999987452
 30
0.0
 11
511.0000000000343
 21
110.0999999987452
 31
0.0
  0
LINE
  5
7E5
330
7C3
100
AcDbEntity
  8
0
  6
Continuous
 62
     7
100
AcDbLine
 10
511.0000000000343
 20
110.0999999987452
 30
0.0
 11
513.0000000000343
 21
110.0999999987452
 31
0.0
  0
LINE
  5
7E6
330
7C3
100
AcDbEntity
  8
0
  6
Continuous
 62
     9
100
AcDbLine
 10
513.0000000000343
 20
110.0999999987452
 30
0.0
 11
513.0000000000343
 21
109.6999999987452
 31
0.0
  0
LINE
  5
7E7
330
7C3
100
AcDbEntity
  8
0
  6
Continuous
 62
     7
100
AcDbLine
 10
513.0000000000343
 20
110.0999999987452
 30
0.0
 11
556.0000000000342
 21
110.0999999987452
 31
0.0
  0
LINE
  5
7E8
330
7C3
100
AcDbEntity
  8
0
  6
Continuous
 62
     9
100
AcDbLine
 10
556.0000000000342
 20
109.6999999987452
 30
0.0
 11
556.0000000000342
 21
110.0999999987452
 31
0.0
  0
LINE
  5
7E9
330
7C3
100
AcDbEntity
  8
0
  6
Continuous
 62
     7
100
AcDbLine
 10
558.0000000000342
 20
110.0999999987452
 30
0.0
 11
558.0000000000342
 21
109.6999999987452
 31
0.0
  0
LINE
  5
7EA
330
7C3
100
AcDbEntity
  8
0
  6
Continuous
 62
     7
100
AcDbLine
 10
556.0000000000342
 20
110.0999999987452
 30
0.0
 11
558.0000000000342
 21
110.0999999987452
 31
0.0
  0
LINE
  5
7EB
330
7C3
100
AcDbEntity
  8
0
  6
Continuous
 62
     7
100
AcDbLine
 10
515.9248711306307
 20
120.0999999987452
 30
0.0
 11
515.9248711306307
 21
120.300000001906
 31
0.0
  0
LINE
  5
7EC
330
7C3
100
AcDbEntity
  8
0
  6
Continuous
 62
     9
100
AcDbLine
 10
517.9248711306307
 20
120.300000001906
 30
0.0
 11
517.9248711306307
 21
120.0999999987452
 31
0.0
  0
LINE
  5
7ED
330
7C3
100
AcDbEntity
  8
0
  6
Continuous
 62
     7
100
AcDbLine
 10
517.9248711306307
 20
120.0999999987452
 30
0.0
 11
515.9248711306307
 21
120.0999999987452
 31
0.0
  0
LINE
  5
7EE
330
7C3
100
AcDbEntity
  8
0
  6
Continuous
 62
     9
100
AcDbLine
 10
553.5000000000342
 20
120.0999999987452
 30
0.0
 11
553.5000000000342
 21
120.300000001906
 31
0.0
  0
LINE
  5
7EF
330
7C3
100
AcDbEntity
  8
0
  6
Continuous
 62
     7
100
AcDbLine
 10
553.5000000000342
 20
120.0999999987452
 30
0.0
 11
517.9248711306307
 21
120.0999999987452
 31
0.0
  0
LINE
  5
7F0
330
7C3
100
AcDbEntity
  8
0
  6
Continuous
 62
     7
100
AcDbLine
 10
555.5000000000342
 20
120.300000001906
 30
0.0
 11
555.5000000000342
 21
120.0999999987452
 31
0.0
  0
LINE
  5
7F1
330
7C3
100
AcDbEntity
  8
0
  6
Continuous
 62
     7
100
AcDbLine
 10
555.5000000000342
 20
120.0999999987452
 30
0.0
 11
553.5000000000342
 21
120.0999999987452
 31
0.0
  0
CIRCLE
  5
7F2
330
7C3
100
AcDbEntity
  8
0
  6
Continuous
 62
     7
100
AcDbCircle
 10
568.4999999999457
 20
102.2000000028641
 30
0.0
 40
5.299999999999971
  0
CIRCLE
  5
7F3
330
7C3
100
AcDbEntity
  8
0
  6
Continuous
 62
     7
100
AcDbCircle
 10
568.4999999999801
 20
102.2000000028479
 30
0.0
 40
6.000000000000002
  0
LINE
  5
7F4
330
7C3
100
AcDbEntity
  8
0
  6
Continuous
 62
     7
100
AcDbLine
 10
525.8704209911241
 20
118.3499999987433
 30
0.0
 11
543.5704209911241
 21
118.3499999987433
 31
0.0
  0
LINE
  5
7F5
330
7C3
100
AcDbEntity
  8
0
  6
Continuous
 62
     7
100
AcDbLine
 10
525.8704209911241
 20
111.8499999987433
 30
0.0
 11
543.5704209911241
 21
111.8499999987433
 31
0.0
  0
LINE
  5
7F6
330
7C3
100
AcDbEntity
  8
0
  6
Continuous
 62
     7
100
AcDbLine
 10
543.5704209911241
 20
118.3499999987432
 30
0.0
 11
543.8923596856181
 21
118.3499999987432
 31
0.0
  0
LINE
  5
7F7
330
7C3
100
AcDbEntity
  8
0
  6
Continuous
 62
     7
100
AcDbLine
 10
543.5704209911241
 20
111.8499999987432
 30
0.0
 11
543.8923596856181
 21
111.8499999987432
 31
0.0
  0
LINE
  5
7F8
330
7C3
100
AcDbEntity
  8
0
  6
Continuous
 62
     7
100
AcDbLine
 10
509.9999999999638
 20
126.300000001906
 30
0.0
 11
509.9999999999638
 21
120.300000001906
 31
0.0
  0
LINE
  5
7F9
330
7C3
100
AcDbEntity
  8
0
  6
Continuous
 62
     7
100
AcDbLine
 10
509.9999999999638
 20
126.300000001906
 30
0.0
 11
559.9999999999637
 21
126.300000001906
 31
0.0
  0
LINE
  5
7FA
330
7C3
100
AcDbEntity
  8
0
  6
Continuous
 62
     7
100
AcDbLine
 10
559.9999999999637
 20
126.300000001906
 30
0.0
 11
559.9999999999637
 21
120.300000001906
 31
0.0
  0
LINE
  5
7FB
330
7C3
100
AcDbEntity
  8
0
  6
Continuous
 62
     7
100
AcDbLine
 10
509.9999999999638
 20
120.300000001906
 30
0.0
 11
559.9999999999637
 21
120.300000001906
 31
0.0
  0
LINE
  5
7FC
330
7C3
100
AcDbEntity
  8
0
  6
Continuous
 62
     7
100
AcDbLine
 10
510.0000000000343
 20
103.6999999987452
 30
0.0
 11
559.0000000000342
 21
103.6999999987452
 31
0.0
  0
LINE
  5
7FD
330
7C3
100
AcDbEntity
  8
0
  6
Continuous
 62
     7
100
AcDbLine
 10
510.0000000000343
 20
109.6999999987452
 30
0.0
 11
510.0000000000343
 21
103.6999999987452
 31
0.0
  0
LINE
  5
7FE
330
7C3
100
AcDbEntity
  8
0
  6
Continuous
 62
     7
100
AcDbLine
 10
559.0000000000342
 20
109.6999999987452
 30
0.0
 11
510.0000000000343
 21
109.6999999987452
 31
0.0
  0
LINE
  5
7FF
330
7C3
100
AcDbEntity
  8
0
  6
Continuous
 62
     7
100
AcDbLine
 10
559.0000000000342
 20
109.6999999987452
 30
0.0
 11
559.0000000000342
 21
103.6999999987452
 31
0.0
  0
ARC
  5
800
330
7C3
100
AcDbEntity
  8
0
  6
Continuous
 62
     7
100
AcDbCircle
 10
560.0000000000342
 20
102.6999999987452
 30
0.0
 40
1.0
100
AcDbArc
 50
0.0
 51
90.0
  0
LINE
  5
801
330
7C3
100
AcDbEntity
  8
0
  6
Continuous
 62
     7
100
AcDbLine
 10
561.0000000000342
 20
102.1999999987452
 30
0.0
 11
561.0000000000342
 21
102.6999999987452
 31
0.0
  0
LINE
  5
802
330
7C3
100
AcDbEntity
  8
0
  6
Continuous
 62
     7
100
AcDbLine
 10
559.0000000000342
 20
109.6999999987452
 30
0.0
 11
568.5000000000342
 21
109.6999999987452
 31
0.0
  0
LINE
  5
803
330
7C3
100
AcDbEntity
  8
0
  6
Continuous
 62
     7
100
AcDbLine
 10
560.0000000000342
 20
103.6999999987452
 30
0.0
 11
559.0000000000342
 21
103.6999999987452
 31
0.0
  0
LINE
  5
804
330
7C3
100
AcDbEntity
  8
0
  6
Continuous
 62
     9
100
AcDbLine
 10
604.4999999985397
 20
118.3499999986997
 30
0.0
 11
604.4999999985397
 21
118.4000000019544
 31
0.0
  0
LINE
  5
805
330
7C3
100
AcDbEntity
  8
0
  6
Continuous
 62
     9
100
AcDbLine
 10
599.4999999985396
 20
118.4000000019544
 30
0.0
 11
599.4999999985396
 21
118.3499999986997
 31
0.0
  0
LINE
  5
806
330
7C3
100
AcDbEntity
  8
0
  6
Continuous
 62
     9
100
AcDbLine
 10
537.5000000000258
 20
118.3499999987432
 30
0.0
 11
537.5000000000258
 21
118.3999999987514
 31
0.0
  0
LINE
  5
807
330
7C3
100
AcDbEntity
  8
0
  6
Continuous
 62
     9
100
AcDbLine
 10
532.5000000000255
 20
118.3999999987514
 30
0.0
 11
532.5000000000255
 21
118.3499999987432
 31
0.0
  0
LINE
  5
808
330
7C3
100
AcDbEntity
  8
0
  6
Continuous
 62
     7
100
AcDbLine
 10
604.9999999985392
 20
118.3499999986894
 30
0.0
 11
604.9999999985392
 21
118.3999999987565
 31
0.0
  0
LINE
  5
809
330
7C3
100
AcDbEntity
  8
0
  6
Continuous
 62
     7
100
AcDbLine
 10
604.9999999985392
 20
118.3999999987565
 30
0.0
 11
604.9999999985392
 21
118.4050000019544
 31
0.0
  0
LINE
  5
80A
330
7C3
100
AcDbEntity
  8
0
  6
Continuous
 62
     7
100
AcDbLine
 10
598.9999999985395
 20
118.4050000019544
 30
0.0
 11
598.9999999985395
 21
118.3999999987565
 31
0.0
  0
LINE
  5
80B
330
7C3
100
AcDbEntity
  8
0
  6
Continuous
 62
     7
100
AcDbLine
 10
598.9999999985395
 20
118.3999999987565
 30
0.0
 11
598.9999999985395
 21
118.3499999986894
 31
0.0
  0
LINE
  5
80C
330
7C3
100
AcDbEntity
  8
0
  6
Continuous
 62
     7
100
AcDbLine
 10
604.9999999985392
 20
118.3950000019544
 30
0.0
 11
604.9999999985392
 21
118.3999999987565
 31
0.0
  0
LINE
  5
80D
330
7C3
100
AcDbEntity
  8
0
  6
Continuous
 62
     7
100
AcDbLine
 10
604.9999999985392
 20
118.3999999987565
 30
0.0
 11
604.9999999985392
 21
120.1000000032985
 31
0.0
  0
LINE
  5
80E
330
7C3
100
AcDbEntity
  8
0
  6
Continuous
 62
     7
100
AcDbLine
 10
598.9999999985395
 20
120.1000000032985
 30
0.0
 11
598.9999999985395
 21
118.3999999987565
 31
0.0
  0
LINE
  5
80F
330
7C3
100
AcDbEntity
  8
0
  6
Continuous
 62
     7
100
AcDbLine
 10
598.9999999985395
 20
118.3999999987565
 30
0.0
 11
598.9999999985395
 21
118.3950000019544
 31
0.0
  0
LINE
  5
810
330
7C3
100
AcDbEntity
  8
0
  6
Continuous
 62
     7
100
AcDbLine
 10
538.0000000000258
 20
118.3499999987432
 30
0.0
 11
538.0000000000258
 21
118.3999999987472
 31
0.0
  0
LINE
  5
811
330
7C3
100
AcDbEntity
  8
0
  6
Continuous
 62
     7
100
AcDbLine
 10
538.0000000000258
 20
118.3999999987472
 30
0.0
 11
538.0000000000258
 21
118.4049999987514
 31
0.0
  0
LINE
  5
812
330
7C3
100
AcDbEntity
  8
0
  6
Continuous
 62
     7
100
AcDbLine
 10
532.0000000000256
 20
118.4049999987514
 30
0.0
 11
532.0000000000256
 21
118.3999999987472
 31
0.0
  0
LINE
  5
813
330
7C3
100
AcDbEntity
  8
0
  6
Continuous
 62
     7
100
AcDbLine
 10
532.0000000000256
 20
118.3999999987472
 30
0.0
 11
532.0000000000256
 21
118.3499999987432
 31
0.0
  0
LINE
  5
814
330
7C3
100
AcDbEntity
  8
0
  6
Continuous
 62
     7
100
AcDbLine
 10
538.0000000000258
 20
118.3949999987514
 30
0.0
 11
538.0000000000258
 21
118.3999999987472
 31
0.0
  0
LINE
  5
815
330
7C3
100
AcDbEntity
  8
0
  6
Continuous
 62
     7
100
AcDbLine
 10
538.0000000000258
 20
118.3999999987472
 30
0.0
 11
538.0000000000258
 21
120.0999999987452
 31
0.0
  0
LINE
  5
816
330
7C3
100
AcDbEntity
  8
0
  6
Continuous
 62
     7
100
AcDbLine
 10
532.0000000000256
 20
120.0999999987452
 30
0.0
 11
532.0000000000256
 21
118.3999999987472
 31
0.0
  0
LINE
  5
817
330
7C3
100
AcDbEntity
  8
0
  6
Continuous
 62
     7
100
AcDbLine
 10
532.0000000000256
 20
118.3999999987472
 30
0.0
 11
532.0000000000256
 21
118.3949999987514
 31
0.0
  0
LINE
  5
818
330
7C3
100
AcDbEntity
  8
0
  6
Continuous
 62
     7
100
AcDbLine
 10
593.1497958474738
 20
118.3500000013506
 30
0.0
 11
593.1497958474738
 21
111.8500000013506
 31
0.0
  0
LINE
  5
819
330
7C3
100
AcDbEntity
  8
0
  6
Continuous
 62
     7
100
AcDbLine
 10
610.8497958474737
 20
111.8500000013506
 30
0.0
 11
610.8497958474737
 21
118.3500000013506
 31
0.0
  0
LINE
  5
81A
330
7C3
100
AcDbEntity
  8
0
  6
Continuous
 62
     7
100
AcDbLine
 10
597.1000000000342
 20
111.8499999986281
 30
0.0
 11
597.1000000000342
 21
110.1000000027905
 31
0.0
  0
LINE
  5
81B
330
7C3
100
AcDbEntity
  8
0
  6
Continuous
 62
     7
100
AcDbLine
 10
606.9000000000343
 20
110.1000000027905
 30
0.0
 11
606.9000000000343
 21
111.8499999986281
 31
0.0
  0
LINE
  5
81C
330
7C3
100
AcDbEntity
  8
0
  6
Continuous
 62
     7
100
AcDbLine
 10
525.8704209911241
 20
118.3499999987433
 30
0.0
 11
525.8704209911241
 21
111.8499999987433
 31
0.0
  0
LINE
  5
81D
330
7C3
100
AcDbEntity
  8
0
  6
Continuous
 62
     7
100
AcDbLine
 10
543.5704209911241
 20
111.8499999987433
 30
0.0
 11
543.5704209911241
 21
118.3499999987433
 31
0.0
  0
LINE
  5
81E
330
7C3
100
AcDbEntity
  8
0
  6
Continuous
 62
     7
100
AcDbLine
 10
543.8923596856181
 20
111.8499999987432
 30
0.0
 11
543.8923596856181
 21
118.3499999987432
 31
0.0
  0
LINE
  5
81F
330
7C3
100
AcDbEntity
  8
0
  6
Continuous
 62
     7
100
AcDbLine
 10
530.1000000000343
 20
111.8499999987432
 30
0.0
 11
530.1000000000343
 21
110.0999999987452
 31
0.0
  0
LINE
  5
820
330
7C3
100
AcDbEntity
  8
0
  6
Continuous
 62
     7
100
AcDbLine
 10
539.9000000000341
 20
110.0999999987452
 30
0.0
 11
539.9000000000341
 21
111.8499999987432
 31
0.0
  0
ENDBLK
  5
821
330
7C3
100
AcDbEntity
  8
0
100
AcDbBlockEnd
  0
BLOCK
  5
824
330
823
100
AcDbEntity
  8
0
100
AcDbBlockBegin
  2
AID4627
 70
     0
 10
0.0
 20
0.0
 30
0.0
  3
AID4627
  1

  0
LINE
  5
825
330
823
100
AcDbEntity
  8
0
  6
Continuous
 62
     7
100
AcDbLine
 10
673.1000000012486
 20
241.0000050401758
 30
0.0
 11
673.1000000012486
 21
238.0000000301758
 31
0.0
  0
LINE
  5
826
330
823
100
AcDbEntity
  8
0
  6
Continuous
 62
     7
100
AcDbLine
 10
673.1000000012486
 20
238.0000000301758
 30
0.0
 11
673.1000000012486
 21
234.9999950201758
 31
0.0
  0
LINE
  5
827
330
823
100
AcDbEntity
  8
0
  6
Continuous
 62
     7
100
AcDbLine
 10
673.1000000012527
 20
191.0000050401746
 30
0.0
 11
673.1000000012527
 21
188.0000000301746
 31
0.0
  0
LINE
  5
828
330
823
100
AcDbEntity
  8
0
  6
Continuous
 62
     7
100
AcDbLine
 10
673.1000000012527
 20
188.0000000301746
 30
0.0
 11
673.1000000012527
 21
184.9999950201747
 31
0.0
  0
LINE
  5
829
330
823
100
AcDbEntity
  8
0
  6
Continuous
 62
     7
100
AcDbLine
 10
687.8000000012547
 20
239.799999999996
 30
0.0
 11
689.3000000020542
 21
239.799999999996
 31
0.0
  0
LINE
  5
82A
330
823
100
AcDbEntity
  8
0
  6
Continuous
 62
     7
100
AcDbLine
 10
687.8000000012547
 20
239.299999999996
 30
0.0
 11
689.3000000020542
 21
239.299999999996
 31
0.0
  0
LINE
  5
82B
330
823
100
AcDbEntity
  8
0
  6
Continuous
 62
     7
100
AcDbLine
 10
689.3000000020542
 20
239.799999999996
 30
0.0
 11
696.3000000020542
 21
239.799999999996
 31
0.0
  0
LINE
  5
82C
330
823
100
AcDbEntity
  8
0
  6
Continuous
 62
     7
100
AcDbLine
 10
689.3000000020542
 20
239.299999999996
 30
0.0
 11
696.3000000020542
 21
239.299999999996
 31
0.0
  0
LINE
  5
82D
330
823
100
AcDbEntity
  8
0
  6
Continuous
 62
     7
100
AcDbLine
 10
696.3000000020558
 20
186.200000000058
 30
0.0
 11
689.3633960960782
 21
186.1999999999965
 31
0.0
  0
LINE
  5
82E
330
823
100
AcDbEntity
  8
0
  6
Continuous
 62
     7
100
AcDbLine
 10
696.3000000020514
 20
186.7000000000581
 30
0.0
 11
689.3633960960737
 21
186.6999999999966
 31
0.0
  0
LINE
  5
82F
330
823
100
AcDbEntity
  8
0
  6
Continuous
 62
     7
100
AcDbLine
 10
689.3633960960782
 20
186.1999999999965
 30
0.0
 11
687.8000000012542
 21
186.1999999999827
 31
0.0
  0
LINE
  5
830
330
823
100
AcDbEntity
  8
0
  6
Continuous
 62
     7
100
AcDbLine
 10
689.3633960960737
 20
186.6999999999966
 30
0.0
 11
687.8000000012542
 21
186.6999999999828
 31
0.0
  0
LINE
  5
831
330
823
100
AcDbEntity
  8
0
  6
Continuous
 62
     7
100
AcDbLine
 10
673.1499999992147
 20
230.6499999858925
 30
0.0
 11
673.1499999989371
 21
235.0000000301757
 31
0.0
  0
LINE
  5
832
330
823
100
AcDbEntity
  8
0
  6
Continuous
 62
     7
100
AcDbLine
 10
673.1499999985536
 20
241.0000000301758
 30
0.0
 11
673.1499999980858
 21
248.3237148911268
 31
0.0
  0
LINE
  5
833
330
823
100
AcDbEntity
  8
0
  6
Continuous
 62
     7
100
AcDbLine
 10
673.1499999980858
 20
248.3237148911268
 30
0.0
 11
673.1499999980837
 21
248.3499999858929
 31
0.0
  0
LINE
  5
834
330
823
100
AcDbEntity
  8
0
  6
Continuous
 62
     7
100
AcDbLine
 10
679.6499999980856
 20
248.3237148911268
 30
0.0
 11
679.6499999980839
 21
248.3499999863082
 31
0.0
  0
LINE
  5
835
330
823
100
AcDbEntity
  8
0
  6
Continuous
 62
     7
100
AcDbLine
 10
673.1500000024085
 20
180.6499999881319
 30
0.0
 11
673.1500000021306
 21
185.0000000301758
 31
0.0
  0
LINE
  5
836
330
823
100
AcDbEntity
  8
0
  6
Continuous
 62
     7
100
AcDbLine
 10
673.1500000017472
 20
191.0000000301744
 30
0.0
 11
673.1500000012775
 21
198.3494017671889
 31
0.0
  0
LINE
  5
837
330
823
100
AcDbEntity
  8
0
  6
Continuous
 62
     7
100
AcDbLine
 10
673.1500000012775
 20
198.3494017671889
 30
0.0
 11
673.1500000012775
 21
198.3499999881319
 31
0.0
  0
LINE
  5
838
330
823
100
AcDbEntity
  8
0
  6
Continuous
 62
     7
100
AcDbLine
 10
679.6500000012772
 20
198.3494017671889
 30
0.0
 11
679.6500000012772
 21
198.3499999885473
 31
0.0
  0
LINE
  5
839
330
823
100
AcDbEntity
  8
0
  6
Continuous
 62
     7
100
AcDbLine
 10
671.3999999967017
 20
259.2499999988509
 30
0.0
 11
671.3999999968294
 21
257.249999998851
 31
0.0
  0
LINE
  5
83A
330
823
100
AcDbEntity
  8
0
  6
Continuous
 62
     7
100
AcDbLine
 10
671.4000000024851
 20
168.7499999988522
 30
0.0
 11
671.4000000026127
 21
166.7499999988523
 31
0.0
  0
LINE
  5
83B
330
823
100
AcDbEntity
  8
0
  6
Continuous
 62
     7
100
AcDbLine
 10
681.4000000034725
 20
163.999999999515
 30
0.0
 11
681.4000000033447
 21
165.9999999995149
 31
0.0
  0
LINE
  5
83C
330
823
100
AcDbEntity
  8
0
  6
Continuous
 62
     7
100
AcDbLine
 10
681.3999999973373
 20
259.9999999994839
 30
0.0
 11
681.3999999972094
 21
261.9999999994839
 31
0.0
  0
LINE
  5
83D
330
823
100
AcDbEntity
  8
0
  6
Continuous
 62
     7
100
AcDbLine
 10
696.8000000035365
 20
163.0000000004753
 30
0.0
 11
687.8000000012547
 21
162.9999999999002
 31
0.0
  0
LINE
  5
83E
330
823
100
AcDbEntity
  8
0
  6
Continuous
 62
     7
100
AcDbLine
 10
696.8000000020666
 20
186.0000000004753
 30
0.0
 11
687.8000000012547
 21
185.9999999999002
 31
0.0
  0
LINE
  5
83F
330
823
100
AcDbEntity
  8
0
  6
Continuous
 62
     7
100
AcDbLine
 10
696.7999999971457
 20
263.0000000004754
 30
0.0
 11
687.8000000012547
 21
262.9999999999002
 31
0.0
  0
LINE
  5
840
330
823
100
AcDbEntity
  8
0
  6
Continuous
 62
     7
100
AcDbLine
 10
687.8000000012547
 20
239.9999999999002
 30
0.0
 11
696.7999999986155
 21
240.0000000004753
 31
0.0
  0
LINE
  5
841
330
823
100
AcDbEntity
  8
0
  6
Continuous
 62
     9
100
AcDbLine
 10
681.400000001255
 20
165.999999999996
 30
0.0
 11
681.8000000012546
 21
165.999999999996
 31
0.0
  0
LINE
  5
842
330
823
100
AcDbEntity
  8
0
  6
Continuous
 62
     9
100
AcDbLine
 10
681.8000000012546
 20
259.9999999999961
 30
0.0
 11
681.400000001255
 21
259.9999999999961
 31
0.0
  0
LINE
  5
843
330
823
100
AcDbEntity
  8
0
  6
Continuous
 62
     7
100
AcDbLine
 10
681.400000001255
 20
165.999999999996
 30
0.0
 11
681.400000001255
 21
259.9999999999961
 31
0.0
  0
LINE
  5
844
330
823
100
AcDbEntity
  8
0
  6
Continuous
 62
     7
100
AcDbLine
 10
681.8000000012546
 20
163.999999999996
 30
0.0
 11
681.400000001255
 21
163.999999999996
 31
0.0
  0
LINE
  5
845
330
823
100
AcDbEntity
  8
0
  6
Continuous
 62
     7
100
AcDbLine
 10
681.400000001255
 20
163.999999999996
 30
0.0
 11
681.400000001255
 21
165.999999999996
 31
0.0
  0
LINE
  5
846
330
823
100
AcDbEntity
  8
0
  6
Continuous
 62
     7
100
AcDbLine
 10
681.400000001255
 20
261.9999999999961
 30
0.0
 11
681.8000000012546
 21
261.9999999999961
 31
0.0
  0
LINE
  5
847
330
823
100
AcDbEntity
  8
0
  6
Continuous
 62
     7
100
AcDbLine
 10
681.400000001255
 20
259.9999999999961
 30
0.0
 11
681.400000001255
 21
261.9999999999961
 31
0.0
  0
LINE
  5
848
330
823
100
AcDbEntity
  8
0
  6
Continuous
 62
     7
100
AcDbLine
 10
671.4000000012547
 20
166.7499999999962
 30
0.0
 11
671.2000000041878
 21
166.7499999999962
 31
0.0
  0
LINE
  5
849
330
823
100
AcDbEntity
  8
0
  6
Continuous
 62
     9
100
AcDbLine
 10
671.2000000040611
 20
168.7499999999962
 30
0.0
 11
671.4000000012547
 21
168.7499999999962
 31
0.0
  0
LINE
  5
84A
330
823
100
AcDbEntity
  8
0
  6
Continuous
 62
     7
100
AcDbLine
 10
671.4000000012547
 20
168.7499999999962
 30
0.0
 11
671.4000000012547
 21
166.7499999999962
 31
0.0
  0
LINE
  5
84B
330
823
100
AcDbEntity
  8
0
  6
Continuous
 62
     9
100
AcDbLine
 10
671.4000000012547
 20
257.2499999999959
 30
0.0
 11
671.1999999984582
 21
257.2499999999959
 31
0.0
  0
LINE
  5
84C
330
823
100
AcDbEntity
  8
0
  6
Continuous
 62
     7
100
AcDbLine
 10
671.4000000012547
 20
257.2499999999959
 30
0.0
 11
671.4000000012547
 21
168.7499999999962
 31
0.0
  0
LINE
  5
84D
330
823
100
AcDbEntity
  8
0
  6
Continuous
 62
     7
100
AcDbLine
 10
671.1999999983316
 20
259.2499999999959
 30
0.0
 11
671.4000000012547
 21
259.2499999999959
 31
0.0
  0
LINE
  5
84E
330
823
100
AcDbEntity
  8
0
  6
Continuous
 62
     7
100
AcDbLine
 10
671.4000000012547
 20
259.2499999999959
 30
0.0
 11
671.4000000012547
 21
257.249999999996
 31
0.0
  0
LINE
  5
84F
330
823
100
AcDbEntity
  8
0
  6
Continuous
 62
     7
100
AcDbLine
 10
683.2999999994954
 20
162.3999999998566
 30
0.0
 11
683.5951326390437
 21
162.3999999998634
 31
0.0
  0
LINE
  5
850
330
823
100
AcDbEntity
  8
0
  6
Continuous
 62
     7
100
AcDbLine
 10
683.5951326390437
 20
162.3999999998634
 30
0.0
 11
695.2999999994955
 21
162.4000000001344
 31
0.0
  0
LINE
  5
851
330
823
100
AcDbEntity
  8
0
  6
Continuous
 62
     7
100
AcDbLine
 10
694.5999999995117
 20
161.7000000001181
 30
0.0
 11
684.2607004977792
 21
161.6999999998788
 31
0.0
  0
LINE
  5
852
330
823
100
AcDbEntity
  8
0
  6
Continuous
 62
     7
100
AcDbLine
 10
684.2607004977792
 20
161.6999999998788
 30
0.0
 11
683.9999999995117
 21
161.6999999998727
 31
0.0
  0
LINE
  5
853
330
823
100
AcDbEntity
  8
0
  6
Continuous
 62
     7
100
AcDbLine
 10
683.999999997136
 20
264.2999999998818
 30
0.0
 11
688.8041362837059
 21
264.299999999993
 31
0.0
  0
LINE
  5
854
330
823
100
AcDbEntity
  8
0
  6
Continuous
 62
     7
100
AcDbLine
 10
695.2999999971522
 20
263.6000000001434
 30
0.0
 11
688.7386448498729
 21
263.5999999999915
 31
0.0
  0
LINE
  5
855
330
823
100
AcDbEntity
  8
0
  6
Continuous
 62
     7
100
AcDbLine
 10
688.8041362837059
 20
264.299999999993
 30
0.0
 11
694.5999999971359
 21
264.3000000001273
 31
0.0
  0
LINE
  5
856
330
823
100
AcDbEntity
  8
0
  6
Continuous
 62
     7
100
AcDbLine
 10
688.7386448498729
 20
263.5999999999915
 30
0.0
 11
683.2999999971522
 21
263.5999999998656
 31
0.0
  0
LINE
  5
857
330
823
100
AcDbEntity
  8
0
  6
Continuous
 62
     7
100
AcDbLine
 10
673.1500000012569
 20
230.6237148911267
 30
0.0
 11
673.1500000012569
 21
237.8241987394905
 31
0.0
  0
LINE
  5
858
330
823
100
AcDbEntity
  8
0
  6
Continuous
 62
     7
100
AcDbLine
 10
679.6500000012569
 20
230.6237148911267
 30
0.0
 11
679.6500000012569
 21
237.8241987394905
 31
0.0
  0
LINE
  5
859
330
823
100
AcDbEntity
  8
0
  6
Continuous
 62
     7
100
AcDbLine
 10
673.1500000012569
 20
237.8241987394905
 30
0.0
 11
673.1500000012569
 21
248.3237148911267
 31
0.0
  0
LINE
  5
85A
330
823
100
AcDbEntity
  8
0
  6
Continuous
 62
     7
100
AcDbLine
 10
679.6500000012569
 20
237.8241987394905
 30
0.0
 11
679.6500000012569
 21
248.3237148911267
 31
0.0
  0
LINE
  5
85B
330
823
100
AcDbEntity
  8
0
  6
Continuous
 62
     7
100
AcDbLine
 10
673.1500000012569
 20
180.6494017671911
 30
0.0
 11
673.1500000012569
 21
189.7493239119874
 31
0.0
  0
LINE
  5
85C
330
823
100
AcDbEntity
  8
0
  6
Continuous
 62
     7
100
AcDbLine
 10
679.6500000012569
 20
180.6494017671911
 30
0.0
 11
679.6500000012569
 21
189.7493239119874
 31
0.0
  0
LINE
  5
85D
330
823
100
AcDbEntity
  8
0
  6
Continuous
 62
     7
100
AcDbLine
 10
673.1500000012569
 20
189.7493239119874
 30
0.0
 11
673.1500000012569
 21
198.3494017671911
 31
0.0
  0
LINE
  5
85E
330
823
100
AcDbEntity
  8
0
  6
Continuous
 62
     7
100
AcDbLine
 10
679.6500000012569
 20
189.7493239119874
 30
0.0
 11
679.6500000012569
 21
198.3494017671911
 31
0.0
  0
LINE
  5
85F
330
823
100
AcDbEntity
  8
0
  6
Continuous
 62
     7
100
AcDbLine
 10
696.5500000019391
 20
237.9999999995324
 30
0.0
 11
689.300000001255
 21
237.999999999996
 31
0.0
  0
LINE
  5
860
330
823
100
AcDbEntity
  8
0
  6
Continuous
 62
     7
100
AcDbLine
 10
688.8000000012547
 20
238.000000000028
 30
0.0
 11
687.8000000012547
 21
238.000000000092
 31
0.0
  0
LINE
  5
861
330
823
100
AcDbEntity
  8
0
  6
Continuous
 62
     7
100
AcDbLine
 10
696.5500000020222
 20
239.2999999995324
 30
0.0
 11
687.8000000012547
 21
239.3000000000919
 31
0.0
  0
LINE
  5
862
330
823
100
AcDbEntity
  8
0
  6
Continuous
 62
     7
100
AcDbLine
 10
687.8000000012547
 20
187.9999999999002
 30
0.0
 11
688.8000000012547
 21
187.9999999999641
 31
0.0
  0
LINE
  5
863
330
823
100
AcDbEntity
  8
0
  6
Continuous
 62
     7
100
AcDbLine
 10
689.300000001255
 20
187.999999999996
 30
0.0
 11
696.5500000019387
 21
188.0000000004594
 31
0.0
  0
LINE
  5
864
330
823
100
AcDbEntity
  8
0
  6
Continuous
 62
     7
100
AcDbLine
 10
687.8000000012547
 20
186.6999999999
 30
0.0
 11
696.5500000020218
 21
186.7000000004594
 31
0.0
  0
LINE
  5
865
330
823
100
AcDbEntity
  8
0
  6
Continuous
 62
     7
100
AcDbLine
 10
665.2000000044253
 20
162.999999999606
 30
0.0
 11
671.2000000044253
 21
162.9999999999859
 31
0.0
  0
LINE
  5
866
330
823
100
AcDbEntity
  8
0
  6
Continuous
 62
     7
100
AcDbLine
 10
665.2000000044253
 20
162.999999999606
 30
0.0
 11
665.1999999980942
 21
262.9999999996061
 31
0.0
  0
LINE
  5
867
330
823
100
AcDbEntity
  8
0
  6
Continuous
 62
     7
100
AcDbLine
 10
665.1999999980942
 20
262.9999999996061
 30
0.0
 11
671.1999999980942
 21
262.999999999986
 31
0.0
  0
LINE
  5
868
330
823
100
AcDbEntity
  8
0
  6
Continuous
 62
     7
100
AcDbLine
 10
671.2000000044253
 20
162.9999999999859
 30
0.0
 11
671.1999999980942
 21
262.9999999999859
 31
0.0
  0
LINE
  5
869
330
823
100
AcDbEntity
  8
0
  6
Continuous
 62
     7
100
AcDbLine
 10
681.8000000012546
 20
262.9999999999961
 30
0.0
 11
687.8000000012547
 21
262.9999999999961
 31
0.0
  0
LINE
  5
86A
330
823
100
AcDbEntity
  8
0
  6
Continuous
 62
     7
100
AcDbLine
 10
687.8000000012547
 20
162.999999999996
 30
0.0
 11
687.8000000012547
 21
262.9999999999961
 31
0.0
  0
LINE
  5
86B
330
823
100
AcDbEntity
  8
0
  6
Continuous
 62
     7
100
AcDbLine
 10
681.8000000012546
 20
162.999999999996
 30
0.0
 11
681.8000000012546
 21
262.9999999999961
 31
0.0
  0
LINE
  5
86C
330
823
100
AcDbEntity
  8
0
  6
Continuous
 62
     7
100
AcDbLine
 10
681.8000000012546
 20
162.999999999996
 30
0.0
 11
687.8000000012547
 21
162.999999999996
 31
0.0
  0
LINE
  5
86D
330
823
100
AcDbEntity
  8
0
  6
Continuous
 62
     9
100
AcDbLine
 10
688.8000000012547
 20
187.999999999996
 30
0.0
 11
688.8000000012547
 21
237.999999999996
 31
0.0
  0
LINE
  5
86E
330
823
100
AcDbEntity
  8
0
  6
Continuous
 62
     7
100
AcDbLine
 10
687.8000000012547
 20
237.9999999999961
 30
0.0
 11
688.8000000012547
 21
237.999999999996
 31
0.0
  0
LINE
  5
86F
330
823
100
AcDbEntity
  8
0
  6
Continuous
 62
     7
100
AcDbLine
 10
688.8000000012547
 20
187.999999999996
 30
0.0
 11
687.8000000012547
 21
187.999999999996
 31
0.0
  0
LINE
  5
870
330
823
100
AcDbEntity
  8
0
  6
Continuous
 62
     9
100
AcDbLine
 10
689.300000001255
 20
187.999999999996
 30
0.0
 11
689.300000001255
 21
237.999999999996
 31
0.0
  0
LINE
  5
871
330
823
100
AcDbEntity
  8
0
  6
Continuous
 62
     7
100
AcDbLine
 10
689.300000001255
 20
237.999999999996
 30
0.0
 11
688.8000000012547
 21
237.999999999996
 31
0.0
  0
LINE
  5
872
330
823
100
AcDbEntity
  8
0
  6
Continuous
 62
     7
100
AcDbLine
 10
688.8000000012547
 20
187.999999999996
 30
0.0
 11
689.300000001255
 21
187.999999999996
 31
0.0
  0
LINE
  5
873
330
823
100
AcDbEntity
  8
0
  6
Continuous
 62
     7
100
AcDbLine
 10
696.8000000012547
 20
237.999999999996
 30
0.0
 11
689.300000001255
 21
237.999999999996
 31
0.0
  0
LINE
  5
874
330
823
100
AcDbEntity
  8
0
  6
Continuous
 62
     7
100
AcDbLine
 10
689.300000001255
 20
187.999999999996
 30
0.0
 11
696.8000000012547
 21
187.999999999996
 31
0.0
  0
LINE
  5
875
330
823
100
AcDbEntity
  8
0
  6
Continuous
 62
     9
100
AcDbLine
 10
673.1500000012569
 20
240.5000000301758
 30
0.0
 11
673.1000000012486
 21
240.5000000301758
 31
0.0
  0
LINE
  5
876
330
823
100
AcDbEntity
  8
0
  6
Continuous
 62
     9
100
AcDbLine
 10
673.1000000012486
 20
235.5000000301758
 30
0.0
 11
673.1500000012569
 21
235.5000000301758
 31
0.0
  0
LINE
  5
877
330
823
100
AcDbEntity
  8
0
  6
Continuous
 62
     9
100
AcDbLine
 10
673.1500000012569
 20
190.5000000301747
 30
0.0
 11
673.1000000012527
 21
190.5000000301747
 31
0.0
  0
LINE
  5
878
330
823
100
AcDbEntity
  8
0
  6
Continuous
 62
     9
100
AcDbLine
 10
673.1000000012527
 20
185.5000000301748
 30
0.0
 11
673.1500000012569
 21
185.5000000301748
 31
0.0
  0
LINE
  5
879
330
823
100
AcDbEntity
  8
0
  6
Continuous
 62
     7
100
AcDbLine
 10
673.1500000012569
 20
241.0000000301758
 30
0.0
 11
673.1000000012486
 21
241.0000000301758
 31
0.0
  0
LINE
  5
87A
330
823
100
AcDbEntity
  8
0
  6
Continuous
 62
     7
100
AcDbLine
 10
673.1000000012486
 20
241.0000000301758
 30
0.0
 11
673.0950000012487
 21
241.0000000301758
 31
0.0
  0
LINE
  5
87B
330
823
100
AcDbEntity
  8
0
  6
Continuous
 62
     7
100
AcDbLine
 10
673.0950000012487
 20
235.0000000301758
 30
0.0
 11
673.1000000012486
 21
235.0000000301758
 31
0.0
  0
LINE
  5
87C
330
823
100
AcDbEntity
  8
0
  6
Continuous
 62
     7
100
AcDbLine
 10
673.1000000012486
 20
235.0000000301758
 30
0.0
 11
673.1500000012569
 21
235.0000000301758
 31
0.0
  0
LINE
  5
87D
330
823
100
AcDbEntity
  8
0
  6
Continuous
 62
     7
100
AcDbLine
 10
673.1050000012487
 20
241.0000000301758
 30
0.0
 11
673.1000000012486
 21
241.0000000301758
 31
0.0
  0
LINE
  5
87E
330
823
100
AcDbEntity
  8
0
  6
Continuous
 62
     7
100
AcDbLine
 10
673.1000000012486
 20
241.0000000301758
 30
0.0
 11
671.4000000012547
 21
241.0000000301758
 31
0.0
  0
LINE
  5
87F
330
823
100
AcDbEntity
  8
0
  6
Continuous
 62
     7
100
AcDbLine
 10
671.4000000012547
 20
235.0000000301758
 30
0.0
 11
673.1000000012486
 21
235.0000000301758
 31
0.0
  0
LINE
  5
880
330
823
100
AcDbEntity
  8
0
  6
Continuous
 62
     7
100
AcDbLine
 10
673.1000000012486
 20
235.0000000301758
 30
0.0
 11
673.1050000012487
 21
235.0000000301758
 31
0.0
  0
LINE
  5
881
330
823
100
AcDbEntity
  8
0
  6
Continuous
 62
     7
100
AcDbLine
 10
673.1500000012569
 20
191.0000000301747
 30
0.0
 11
673.1000000012527
 21
191.0000000301747
 31
0.0
  0
LINE
  5
882
330
823
100
AcDbEntity
  8
0
  6
Continuous
 62
     7
100
AcDbLine
 10
673.1000000012527
 20
191.0000000301747
 30
0.0
 11
673.0950000012527
 21
191.0000000301747
 31
0.0
  0
LINE
  5
883
330
823
100
AcDbEntity
  8
0
  6
Continuous
 62
     7
100
AcDbLine
 10
673.0950000012527
 20
185.0000000301746
 30
0.0
 11
673.1000000012527
 21
185.0000000301746
 31
0.0
  0
LINE
  5
884
330
823
100
AcDbEntity
  8
0
  6
Continuous
 62
     7
100
AcDbLine
 10
673.1000000012527
 20
185.0000000301746
 30
0.0
 11
673.1500000012569
 21
185.0000000301746
 31
0.0
  0
LINE
  5
885
330
823
100
AcDbEntity
  8
0
  6
Continuous
 62
     7
100
AcDbLine
 10
673.105000001253
 20
191.0000000301747
 30
0.0
 11
673.1000000012527
 21
191.0000000301747
 31
0.0
  0
LINE
  5
886
330
823
100
AcDbEntity
  8
0
  6
Continuous
 62
     7
100
AcDbLine
 10
673.1000000012527
 20
191.0000000301747
 30
0.0
 11
671.4000000012547
 21
191.0000000301747
 31
0.0
  0
LINE
  5
887
330
823
100
AcDbEntity
  8
0
  6
Continuous
 62
     7
100
AcDbLine
 10
671.4000000012547
 20
185.0000000301746
 30
0.0
 11
673.1000000012527
 21
185.0000000301746
 31
0.0
  0
LINE
  5
888
330
823
100
AcDbEntity
  8
0
  6
Continuous
 62
     7
100
AcDbLine
 10
673.1000000012527
 20
185.0000000301746
 30
0.0
 11
673.105000001253
 21
185.0000000301746
 31
0.0
  0
LINE
  5
889
330
823
100
AcDbEntity
  8
0
  6
Continuous
 62
     7
100
AcDbLine
 10
696.3000000020542
 20
239.299999999996
 30
0.0
 11
696.3000000020542
 21
239.799999999996
 31
0.0
  0
LINE
  5
88A
330
823
100
AcDbEntity
  8
0
  6
Continuous
 62
     7
100
AcDbLine
 10
696.3000000020547
 20
186.200000000058
 30
0.0
 11
696.3000000020505
 21
186.7000000000581
 31
0.0
  0
LINE
  5
88B
330
823
100
AcDbEntity
  8
0
  6
Continuous
 62
     7
100
AcDbLine
 10
679.6499999980839
 20
248.3499999863081
 30
0.0
 11
673.1499999980837
 21
248.3499999858928
 31
0.0
  0
LINE
  5
88C
330
823
100
AcDbEntity
  8
0
  6
Continuous
 62
     7
100
AcDbLine
 10
679.6500000012772
 20
198.3499999885495
 30
0.0
 11
673.1500000012775
 21
198.349999988134
 31
0.0
  0
LINE
  5
88D
330
823
100
AcDbEntity
  8
0
  6
Continuous
 62
     7
100
AcDbLine
 10
696.8000000035365
 20
163.0000000004753
 30
0.0
 11
696.8000000020666
 21
186.0000000004753
 31
0.0
  0
LINE
  5
88E
330
823
100
AcDbEntity
  8
0
  6
Continuous
 62
     7
100
AcDbLine
 10
696.7999999986155
 20
240.0000000004753
 30
0.0
 11
696.7999999971457
 21
263.0000000004754
 31
0.0
  0
LINE
  5
88F
330
823
100
AcDbEntity
  8
0
  6
Continuous
 62
     7
100
AcDbLine
 10
695.2999999994955
 20
162.4000000001344
 30
0.0
 11
695.2999999994816
 21
163.0000000001344
 31
0.0
  0
LINE
  5
890
330
823
100
AcDbEntity
  8
0
  6
Continuous
 62
     7
100
AcDbLine
 10
683.2999999994816
 20
162.9999999998566
 30
0.0
 11
683.2999999994954
 21
162.3999999998566
 31
0.0
  0
LINE
  5
891
330
823
100
AcDbEntity
  8
0
  6
Continuous
 62
     7
100
AcDbLine
 10
683.2999999994954
 20
162.3999999998566
 30
0.0
 11
683.9999999995117
 21
161.6999999998727
 31
0.0
  0
LINE
  5
892
330
823
100
AcDbEntity
  8
0
  6
Continuous
 62
     7
100
AcDbLine
 10
694.5999999995117
 20
161.7000000001181
 30
0.0
 11
695.2999999994955
 21
162.4000000001344
 31
0.0
  0
LINE
  5
893
330
823
100
AcDbEntity
  8
0
  6
Continuous
 62
     7
100
AcDbLine
 10
695.2999999971522
 20
263.6000000001434
 30
0.0
 11
694.5999999971359
 21
264.3000000001273
 31
0.0
  0
LINE
  5
894
330
823
100
AcDbEntity
  8
0
  6
Continuous
 62
     7
100
AcDbLine
 10
683.999999997136
 20
264.2999999998818
 30
0.0
 11
683.2999999971522
 21
263.5999999998656
 31
0.0
  0
LINE
  5
895
330
823
100
AcDbEntity
  8
0
  6
Continuous
 62
     7
100
AcDbLine
 10
683.2999999971522
 20
263.5999999998656
 30
0.0
 11
683.2999999971661
 21
262.9999999998656
 31
0.0
  0
LINE
  5
896
330
823
100
AcDbEntity
  8
0
  6
Continuous
 62
     7
100
AcDbLine
 10
695.2999999971661
 20
263.0000000001435
 30
0.0
 11
695.2999999971522
 21
263.6000000001434
 31
0.0
  0
LINE
  5
897
330
823
100
AcDbEntity
  8
0
  6
Continuous
 62
     7
100
AcDbLine
 10
693.2999999989488
 20
186.0000000002516
 30
0.0
 11
693.2999999989442
 21
186.200000000033
 31
0.0
  0
LINE
  5
898
330
823
100
AcDbEntity
  8
0
  6
Continuous
 62
     7
100
AcDbLine
 10
693.2999999977032
 20
239.799999999996
 30
0.0
 11
693.2999999976988
 21
240.0000000002517
 31
0.0
  0
LINE
  5
899
330
823
100
AcDbEntity
  8
0
  6
Continuous
 62
     7
100
AcDbLine
 10
673.1500000012569
 20
230.6237148911267
 30
0.0
 11
679.6500000012569
 21
230.6237148911267
 31
0.0
  0
LINE
  5
89A
330
823
100
AcDbEntity
  8
0
  6
Continuous
 62
     7
100
AcDbLine
 10
679.6500000012569
 20
248.3237148911267
 30
0.0
 11
673.1500000012569
 21
248.3237148911267
 31
0.0
  0
LINE
  5
89B
330
823
100
AcDbEntity
  8
0
  6
Continuous
 62
     7
100
AcDbLine
 10
673.1500000012569
 20
180.6494017671911
 30
0.0
 11
679.6500000012569
 21
180.6494017671911
 31
0.0
  0
LINE
  5
89C
330
823
100
AcDbEntity
  8
0
  6
Continuous
 62
     7
100
AcDbLine
 10
679.6500000012569
 20
198.3494017671911
 30
0.0
 11
673.1500000012569
 21
198.3494017671911
 31
0.0
  0
LINE
  5
89D
330
823
100
AcDbEntity
  8
0
  6
Continuous
 62
     7
100
AcDbLine
 10
696.5500000019391
 20
237.9999999995324
 30
0.0
 11
696.5500000020222
 21
239.2999999995324
 31
0.0
  0
LINE
  5
89E
330
823
100
AcDbEntity
  8
0
  6
Continuous
 62
     7
100
AcDbLine
 10
696.5500000020218
 20
186.7000000004594
 30
0.0
 11
696.5500000019387
 21
188.0000000004594
 31
0.0
  0
LINE
  5
89F
330
823
100
AcDbEntity
  8
0
  6
Continuous
 62
     7
100
AcDbLine
 10
679.650000001257
 20
183.099999999996
 30
0.0
 11
681.400000001255
 21
183.099999999996
 31
0.0
  0
LINE
  5
8A0
330
823
100
AcDbEntity
  8
0
  6
Continuous
 62
     7
100
AcDbLine
 10
681.400000001255
 20
192.899999999996
 30
0.0
 11
679.650000001257
 21
192.899999999996
 31
0.0
  0
LINE
  5
8A1
330
823
100
AcDbEntity
  8
0
  6
Continuous
 62
     7
100
AcDbLine
 10
679.6500000012569
 20
233.0999999999961
 30
0.0
 11
681.400000001255
 21
233.0999999999961
 31
0.0
  0
LINE
  5
8A2
330
823
100
AcDbEntity
  8
0
  6
Continuous
 62
     7
100
AcDbLine
 10
681.400000001255
 20
242.8999999999961
 30
0.0
 11
679.6500000012569
 21
242.8999999999961
 31
0.0
  0
LINE
  5
8A3
330
823
100
AcDbEntity
  8
0
  6
Continuous
 62
     7
100
AcDbLine
 10
696.8000000012547
 20
187.999999999996
 30
0.0
 11
696.8000000012547
 21
237.999999999996
 31
0.0
  0
ENDBLK
  5
8A4
330
823
100
AcDbEntity
  8
0
100
AcDbBlockEnd
  0
BLOCK
  5
8A7
330
8A6
100
AcDbEntity
  8
0
100
AcDbBlockBegin
  2
AID4885
 70
     0
 10
0.0
 20
0.0
 30
0.0
  3
AID4885
  1

  0
LINE
  5
8A8
330
8A6
100
AcDbEntity
  8
0
  6
Continuous
 62
     7
100
AcDbLine
 10
468.9000000017626
 20
234.9999949889467
 30
0.0
 11
468.9000000019608
 21
238.0997590507026
 31
0.0
  0
LINE
  5
8A9
330
8A6
100
AcDbEntity
  8
0
  6
Continuous
 62
     7
100
AcDbLine
 10
468.9000000019608
 20
238.0997590507026
 30
0.0
 11
468.9000000021462
 21
241.0000050089467
 31
0.0
  0
LINE
  5
8AA
330
8A6
100
AcDbEntity
  8
0
  6
Continuous
 62
     7
100
AcDbLine
 10
468.8999999985647
 20
184.9999949889632
 30
0.0
 11
468.8999999987625
 21
188.0997590479825
 31
0.0
  0
LINE
  5
8AB
330
8A6
100
AcDbEntity
  8
0
  6
Continuous
 62
     7
100
AcDbLine
 10
468.8999999987625
 20
188.0997590479825
 30
0.0
 11
468.8999999989481
 21
191.0000050089651
 31
0.0
  0
LINE
  5
8AC
330
8A6
100
AcDbEntity
  8
0
  6
Continuous
 62
     7
100
AcDbLine
 10
445.6999999979458
 20
239.799999999996
 30
0.0
 11
454.2000000013718
 21
239.799999999996
 31
0.0
  0
LINE
  5
8AD
330
8A6
100
AcDbEntity
  8
0
  6
Continuous
 62
     7
100
AcDbLine
 10
445.6999999979458
 20
239.299999999996
 30
0.0
 11
454.2000000013397
 21
239.299999999996
 31
0.0
  0
LINE
  5
8AE
330
8A6
100
AcDbEntity
  8
0
  6
Continuous
 62
     7
100
AcDbLine
 10
454.1999999979466
 20
186.1999999999827
 30
0.0
 11
445.6999999979433
 21
186.200000000058
 31
0.0
  0
LINE
  5
8AF
330
8A6
100
AcDbEntity
  8
0
  6
Continuous
 62
     7
100
AcDbLine
 10
454.1999999979785
 20
186.6999999999828
 30
0.0
 11
445.6999999979478
 21
186.7000000000581
 31
0.0
  0
LINE
  5
8B0
330
8A6
100
AcDbEntity
  8
0
  6
Continuous
 62
     7
100
AcDbLine
 10
468.8500000019161
 20
248.3499999858929
 30
0.0
 11
468.8500000007851
 21
230.6499999858925
 31
0.0
  0
LINE
  5
8B1
330
8A6
100
AcDbEntity
  8
0
  6
Continuous
 62
     7
100
AcDbLine
 10
462.3500000019162
 20
248.3499999863082
 30
0.0
 11
462.3500000007851
 21
230.6499999863079
 31
0.0
  0
LINE
  5
8B2
330
8A6
100
AcDbEntity
  8
0
  6
Continuous
 62
     7
100
AcDbLine
 10
468.8499999987228
 20
198.3499999881319
 30
0.0
 11
468.8499999975916
 21
180.6499999881319
 31
0.0
  0
LINE
  5
8B3
330
8A6
100
AcDbEntity
  8
0
  6
Continuous
 62
     7
100
AcDbLine
 10
462.3499999987228
 20
198.3499999885473
 30
0.0
 11
462.3499999975916
 21
180.6499999885473
 31
0.0
  0
LINE
  5
8B4
330
8A6
100
AcDbEntity
  8
0
  6
Continuous
 62
     7
100
AcDbLine
 10
476.8000000035363
 20
262.9999999984812
 30
0.0
 11
476.7999999971453
 21
162.9999999984811
 31
0.0
  0
LINE
  5
8B5
330
8A6
100
AcDbEntity
  8
0
  6
Continuous
 62
     7
100
AcDbLine
 10
476.7999999971456
 20
162.9999999984811
 30
0.0
 11
470.7999999971455
 21
162.9999999988646
 31
0.0
  0
LINE
  5
8B6
330
8A6
100
AcDbEntity
  8
0
  6
Continuous
 62
     7
100
AcDbLine
 10
476.8000000035363
 20
262.9999999984812
 30
0.0
 11
470.8000000035363
 21
262.9999999988646
 31
0.0
  0
LINE
  5
8B7
330
8A6
100
AcDbEntity
  8
0
  6
Continuous
 62
     7
100
AcDbLine
 10
470.8000000035363
 20
262.9999999988646
 30
0.0
 11
470.7999999971455
 21
162.9999999988646
 31
0.0
  0
LINE
  5
8B8
330
8A6
100
AcDbEntity
  8
0
  6
Continuous
 62
     9
100
AcDbLine
 10
470.599999997515
 20
168.7499999988522
 30
0.0
 11
470.7999999975131
 21
168.7499999988394
 31
0.0
  0
LINE
  5
8B9
330
8A6
100
AcDbEntity
  8
0
  6
Continuous
 62
     7
100
AcDbLine
 10
470.599999997515
 20
168.7499999988522
 30
0.0
 11
470.6000000031706
 21
257.249999998851
 31
0.0
  0
LINE
  5
8BA
330
8A6
100
AcDbEntity
  8
0
  6
Continuous
 62
     9
100
AcDbLine
 10
470.8000000031686
 20
257.2499999988382
 30
0.0
 11
470.6000000031706
 21
257.249999998851
 31
0.0
  0
LINE
  5
8BB
330
8A6
100
AcDbEntity
  8
0
  6
Continuous
 62
     7
100
AcDbLine
 10
470.7999999973853
 20
166.7499999988395
 30
0.0
 11
470.5999999973873
 21
166.7499999988522
 31
0.0
  0
LINE
  5
8BC
330
8A6
100
AcDbEntity
  8
0
  6
Continuous
 62
     7
100
AcDbLine
 10
470.5999999973873
 20
166.7499999988523
 30
0.0
 11
470.599999997515
 21
168.7499999988522
 31
0.0
  0
LINE
  5
8BD
330
8A6
100
AcDbEntity
  8
0
  6
Continuous
 62
     7
100
AcDbLine
 10
470.6000000032983
 20
259.249999998851
 30
0.0
 11
470.8000000032966
 21
259.2499999988382
 31
0.0
  0
LINE
  5
8BE
330
8A6
100
AcDbEntity
  8
0
  6
Continuous
 62
     7
100
AcDbLine
 10
470.6000000031706
 20
257.249999998851
 30
0.0
 11
470.6000000032983
 21
259.2499999988508
 31
0.0
  0
LINE
  5
8BF
330
8A6
100
AcDbEntity
  8
0
  6
Continuous
 62
     9
100
AcDbLine
 10
460.1999999966553
 20
165.9999999995405
 30
0.0
 11
460.5999999966553
 21
165.9999999995149
 31
0.0
  0
LINE
  5
8C0
330
8A6
100
AcDbEntity
  8
0
  6
Continuous
 62
     9
100
AcDbLine
 10
460.6000000026628
 20
259.9999999994839
 30
0.0
 11
460.2000000026627
 21
259.9999999995095
 31
0.0
  0
LINE
  5
8C1
330
8A6
100
AcDbEntity
  8
0
  6
Continuous
 62
     7
100
AcDbLine
 10
460.5999999966553
 20
165.9999999995149
 30
0.0
 11
460.6000000026628
 21
259.999999999484
 31
0.0
  0
LINE
  5
8C2
330
8A6
100
AcDbEntity
  8
0
  6
Continuous
 62
     7
100
AcDbLine
 10
460.5999999965273
 20
163.9999999995155
 30
0.0
 11
460.1999999965275
 21
163.9999999995412
 31
0.0
  0
LINE
  5
8C3
330
8A6
100
AcDbEntity
  8
0
  6
Continuous
 62
     7
100
AcDbLine
 10
460.5999999966553
 20
165.9999999995149
 30
0.0
 11
460.5999999965273
 21
163.999999999515
 31
0.0
  0
LINE
  5
8C4
330
8A6
100
AcDbEntity
  8
0
  6
Continuous
 62
     7
100
AcDbLine
 10
460.2000000027905
 20
261.9999999995089
 30
0.0
 11
460.6000000027905
 21
261.9999999994832
 31
0.0
  0
LINE
  5
8C5
330
8A6
100
AcDbEntity
  8
0
  6
Continuous
 62
     7
100
AcDbLine
 10
460.6000000027905
 20
261.999999999484
 30
0.0
 11
460.6000000026628
 21
259.999999999484
 31
0.0
  0
LINE
  5
8C6
330
8A6
100
AcDbEntity
  8
0
  6
Continuous
 62
     7
100
AcDbLine
 10
454.2000000028544
 20
262.9999999999002
 30
0.0
 11
454.1999999964636
 21
162.9999999999002
 31
0.0
  0
LINE
  5
8C7
330
8A6
100
AcDbEntity
  8
0
  6
Continuous
 62
     7
100
AcDbLine
 10
460.2000000028545
 20
262.9999999995167
 30
0.0
 11
460.1999999964637
 21
162.9999999995167
 31
0.0
  0
LINE
  5
8C8
330
8A6
100
AcDbEntity
  8
0
  6
Continuous
 62
     7
100
AcDbLine
 10
460.1999999964637
 20
162.9999999995167
 30
0.0
 11
454.1999999964636
 21
162.9999999999002
 31
0.0
  0
LINE
  5
8C9
330
8A6
100
AcDbEntity
  8
0
  6
Continuous
 62
     7
100
AcDbLine
 10
460.2000000028545
 20
262.9999999995167
 30
0.0
 11
454.2000000028544
 21
262.9999999999001
 31
0.0
  0
LINE
  5
8CA
330
8A6
100
AcDbEntity
  8
0
  6
Continuous
 62
     9
100
AcDbLine
 10
453.2000000028545
 20
262.9999999999641
 30
0.0
 11
453.2000000013844
 21
239.9999999999641
 31
0.0
  0
LINE
  5
8CB
330
8A6
100
AcDbEntity
  8
0
  6
Continuous
 62
     7
100
AcDbLine
 10
454.2000000013845
 20
239.9999999999002
 30
0.0
 11
453.2000000013844
 21
239.9999999999641
 31
0.0
  0
LINE
  5
8CC
330
8A6
100
AcDbEntity
  8
0
  6
Continuous
 62
     7
100
AcDbLine
 10
453.2000000028545
 20
262.9999999999641
 30
0.0
 11
454.2000000028544
 21
262.9999999999002
 31
0.0
  0
LINE
  5
8CD
330
8A6
100
AcDbEntity
  8
0
  6
Continuous
 62
     9
100
AcDbLine
 10
453.1999999979336
 20
185.999999999964
 30
0.0
 11
453.1999999964638
 21
162.9999999999641
 31
0.0
  0
LINE
  5
8CE
330
8A6
100
AcDbEntity
  8
0
  6
Continuous
 62
     7
100
AcDbLine
 10
453.1999999979336
 20
185.999999999964
 30
0.0
 11
454.1999999979337
 21
185.9999999999002
 31
0.0
  0
LINE
  5
8CF
330
8A6
100
AcDbEntity
  8
0
  6
Continuous
 62
     7
100
AcDbLine
 10
453.1999999964638
 20
162.9999999999641
 30
0.0
 11
454.1999999964636
 21
162.9999999999002
 31
0.0
  0
LINE
  5
8D0
330
8A6
100
AcDbEntity
  8
0
  6
Continuous
 62
     7
100
AcDbLine
 10
445.2000000013845
 20
240.0000000004753
 30
0.0
 11
452.7000000013846
 21
239.999999999996
 31
0.0
  0
LINE
  5
8D1
330
8A6
100
AcDbEntity
  8
0
  6
Continuous
 62
     9
100
AcDbLine
 10
452.7000000028545
 20
262.9999999999961
 30
0.0
 11
452.7000000013846
 21
239.999999999996
 31
0.0
  0
LINE
  5
8D2
330
8A6
100
AcDbEntity
  8
0
  6
Continuous
 62
     7
100
AcDbLine
 10
452.7000000028545
 20
262.9999999999961
 30
0.0
 11
445.2000000028546
 21
263.0000000004754
 31
0.0
  0
LINE
  5
8D3
330
8A6
100
AcDbEntity
  8
0
  6
Continuous
 62
     7
100
AcDbLine
 10
452.7000000013846
 20
239.999999999996
 30
0.0
 11
453.2000000013844
 21
239.9999999999641
 31
0.0
  0
LINE
  5
8D4
330
8A6
100
AcDbEntity
  8
0
  6
Continuous
 62
     7
100
AcDbLine
 10
453.2000000028545
 20
262.9999999999641
 30
0.0
 11
452.7000000028545
 21
262.9999999999961
 31
0.0
  0
LINE
  5
8D5
330
8A6
100
AcDbEntity
  8
0
  6
Continuous
 62
     9
100
AcDbLine
 10
452.6999999979336
 20
185.999999999996
 30
0.0
 11
452.6999999964637
 21
162.999999999996
 31
0.0
  0
LINE
  5
8D6
330
8A6
100
AcDbEntity
  8
0
  6
Continuous
 62
     7
100
AcDbLine
 10
452.6999999979336
 20
185.999999999996
 30
0.0
 11
445.1999999979336
 21
186.0000000004753
 31
0.0
  0
LINE
  5
8D7
330
8A6
100
AcDbEntity
  8
0
  6
Continuous
 62
     7
100
AcDbLine
 10
452.6999999964637
 20
162.999999999996
 30
0.0
 11
445.1999999964638
 21
163.0000000004753
 31
0.0
  0
LINE
  5
8D8
330
8A6
100
AcDbEntity
  8
0
  6
Continuous
 62
     7
100
AcDbLine
 10
453.1999999979336
 20
185.999999999964
 30
0.0
 11
452.6999999979336
 21
185.999999999996
 31
0.0
  0
LINE
  5
8D9
330
8A6
100
AcDbEntity
  8
0
  6
Continuous
 62
     7
100
AcDbLine
 10
453.1999999964638
 20
162.9999999999641
 30
0.0
 11
452.6999999964637
 21
162.999999999996
 31
0.0
  0
LINE
  5
8DA
330
8A6
100
AcDbEntity
  8
0
  6
Continuous
 62
     7
100
AcDbLine
 10
460.5999999987453
 20
261.9999999999961
 30
0.0
 11
460.5999999987453
 21
259.9999999999961
 31
0.0
  0
LINE
  5
8DB
330
8A6
100
AcDbEntity
  8
0
  6
Continuous
 62
     7
100
AcDbLine
 10
460.5999999987453
 20
165.9999999999961
 30
0.0
 11
460.5999999987453
 21
163.9999999999961
 31
0.0
  0
LINE
  5
8DC
330
8A6
100
AcDbEntity
  8
0
  6
Continuous
 62
     7
100
AcDbLine
 10
470.5999999987453
 20
257.2499999999959
 30
0.0
 11
470.5999999987453
 21
259.2499999999958
 31
0.0
  0
LINE
  5
8DD
330
8A6
100
AcDbEntity
  8
0
  6
Continuous
 62
     7
100
AcDbLine
 10
470.5999999987453
 20
166.7499999999962
 30
0.0
 11
470.5999999987453
 21
168.7499999999962
 31
0.0
  0
LINE
  5
8DE
330
8A6
100
AcDbEntity
  8
0
  6
Continuous
 62
     7
100
AcDbLine
 10
458.0000000004885
 20
161.6999999998727
 30
0.0
 11
447.4000000004885
 21
161.7000000001181
 31
0.0
  0
LINE
  5
8DF
330
8A6
100
AcDbEntity
  8
0
  6
Continuous
 62
     7
100
AcDbLine
 10
446.7000000005047
 20
162.4000000001344
 30
0.0
 11
458.7000000005047
 21
162.3999999998566
 31
0.0
  0
LINE
  5
8E0
330
8A6
100
AcDbEntity
  8
0
  6
Continuous
 62
     7
100
AcDbLine
 10
458.700000002848
 20
263.5999999998656
 30
0.0
 11
446.7000000028479
 21
263.6000000001435
 31
0.0
  0
LINE
  5
8E1
330
8A6
100
AcDbEntity
  8
0
  6
Continuous
 62
     7
100
AcDbLine
 10
447.4000000028641
 20
264.3000000001273
 30
0.0
 11
458.0000000028642
 21
264.2999999998818
 31
0.0
  0
LINE
  5
8E2
330
8A6
100
AcDbEntity
  8
0
  6
Continuous
 62
     7
100
AcDbLine
 10
468.8499999987434
 20
248.3237148911267
 30
0.0
 11
468.8499999987434
 21
241.0000000301758
 31
0.0
  0
LINE
  5
8E3
330
8A6
100
AcDbEntity
  8
0
  6
Continuous
 62
     7
100
AcDbLine
 10
468.8499999987434
 20
235.0000000301758
 30
0.0
 11
468.8499999987434
 21
230.6499999858926
 31
0.0
  0
LINE
  5
8E4
330
8A6
100
AcDbEntity
  8
0
  6
Continuous
 62
     7
100
AcDbLine
 10
468.8499999987434
 20
230.6499999858926
 30
0.0
 11
468.8499999987434
 21
230.6237148911267
 31
0.0
  0
LINE
  5
8E5
330
8A6
100
AcDbEntity
  8
0
  6
Continuous
 62
     7
100
AcDbLine
 10
462.3499999987433
 20
230.649999986308
 30
0.0
 11
462.3499999987433
 21
230.6237148911267
 31
0.0
  0
LINE
  5
8E6
330
8A6
100
AcDbEntity
  8
0
  6
Continuous
 62
     7
100
AcDbLine
 10
468.8499999987432
 20
198.3494017671911
 30
0.0
 11
468.8499999987432
 21
191.0000000301747
 31
0.0
  0
LINE
  5
8E7
330
8A6
100
AcDbEntity
  8
0
  6
Continuous
 62
     7
100
AcDbLine
 10
468.8499999987432
 20
185.0000000301746
 30
0.0
 11
468.8499999987432
 21
180.6499999881298
 31
0.0
  0
LINE
  5
8E8
330
8A6
100
AcDbEntity
  8
0
  6
Continuous
 62
     7
100
AcDbLine
 10
468.8499999987432
 20
180.6499999881298
 30
0.0
 11
468.8499999987432
 21
180.6494017671911
 31
0.0
  0
LINE
  5
8E9
330
8A6
100
AcDbEntity
  8
0
  6
Continuous
 62
     7
100
AcDbLine
 10
462.3499999987433
 20
180.6499999885452
 30
0.0
 11
462.3499999987433
 21
180.6494017671911
 31
0.0
  0
LINE
  5
8EA
330
8A6
100
AcDbEntity
  8
0
  6
Continuous
 62
     7
100
AcDbLine
 10
454.2000000012568
 20
238.000000000092
 30
0.0
 11
445.449999998061
 21
237.9999999995324
 31
0.0
  0
LINE
  5
8EB
330
8A6
100
AcDbEntity
  8
0
  6
Continuous
 62
     7
100
AcDbLine
 10
454.2000000013397
 20
239.3000000000919
 30
0.0
 11
445.449999997978
 21
239.2999999995324
 31
0.0
  0
LINE
  5
8EC
330
8A6
100
AcDbEntity
  8
0
  6
Continuous
 62
     7
100
AcDbLine
 10
445.4499999980613
 20
188.0000000004594
 30
0.0
 11
454.1999999987451
 21
187.9999999999002
 31
0.0
  0
LINE
  5
8ED
330
8A6
100
AcDbEntity
  8
0
  6
Continuous
 62
     7
100
AcDbLine
 10
445.4499999979782
 20
186.7000000004594
 30
0.0
 11
454.1999999979783
 21
186.6999999999
 31
0.0
  0
LINE
  5
8EE
330
8A6
100
AcDbEntity
  8
0
  6
Continuous
 62
     7
100
AcDbLine
 10
445.1999999987449
 20
187.999999999996
 30
0.0
 11
454.1999999987451
 21
187.999999999996
 31
0.0
  0
LINE
  5
8EF
330
8A6
100
AcDbEntity
  8
0
  6
Continuous
 62
     7
100
AcDbLine
 10
454.2000000012568
 20
237.999999999996
 30
0.0
 11
445.1999999987449
 21
237.999999999996
 31
0.0
  0
LINE
  5
8F0
330
8A6
100
AcDbEntity
  8
0
  6
Continuous
 62
     9
100
AcDbLine
 10
468.8499999987434
 20
235.4999999989499
 30
0.0
 11
468.9000000017946
 21
235.4999999989467
 31
0.0
  0
LINE
  5
8F1
330
8A6
100
AcDbEntity
  8
0
  6
Continuous
 62
     9
100
AcDbLine
 10
468.9000000021141
 20
240.4999999989467
 30
0.0
 11
468.8499999987434
 21
240.4999999989499
 31
0.0
  0
LINE
  5
8F2
330
8A6
100
AcDbEntity
  8
0
  6
Continuous
 62
     9
100
AcDbLine
 10
468.8499999987432
 20
185.4999999989674
 30
0.0
 11
468.8999999985965
 21
185.4999999989642
 31
0.0
  0
LINE
  5
8F3
330
8A6
100
AcDbEntity
  8
0
  6
Continuous
 62
     9
100
AcDbLine
 10
468.899999998916
 20
190.4999999989642
 30
0.0
 11
468.8499999987432
 21
190.4999999989674
 31
0.0
  0
LINE
  5
8F4
330
8A6
100
AcDbEntity
  8
0
  6
Continuous
 62
     7
100
AcDbLine
 10
468.8950000017626
 20
234.9999999989471
 30
0.0
 11
468.8999999987514
 21
234.9999999989467
 31
0.0
  0
LINE
  5
8F5
330
8A6
100
AcDbEntity
  8
0
  6
Continuous
 62
     7
100
AcDbLine
 10
468.8999999987514
 20
234.9999999989467
 30
0.0
 11
470.6000000017488
 21
234.9999999988381
 31
0.0
  0
LINE
  5
8F6
330
8A6
100
AcDbEntity
  8
0
  6
Continuous
 62
     7
100
AcDbLine
 10
470.6000000021323
 20
240.9999999988381
 30
0.0
 11
468.8999999987514
 21
240.9999999989468
 31
0.0
  0
LINE
  5
8F7
330
8A6
100
AcDbEntity
  8
0
  6
Continuous
 62
     7
100
AcDbLine
 10
468.8999999987514
 20
240.9999999989468
 30
0.0
 11
468.8950000021462
 21
240.9999999989471
 31
0.0
  0
LINE
  5
8F8
330
8A6
100
AcDbEntity
  8
0
  6
Continuous
 62
     7
100
AcDbLine
 10
468.8499999987435
 20
234.9999999989499
 30
0.0
 11
468.8999999987514
 21
234.9999999989467
 31
0.0
  0
LINE
  5
8F9
330
8A6
100
AcDbEntity
  8
0
  6
Continuous
 62
     7
100
AcDbLine
 10
468.8999999987514
 20
234.9999999989467
 30
0.0
 11
468.9050000017626
 21
234.9999999989464
 31
0.0
  0
LINE
  5
8FA
330
8A6
100
AcDbEntity
  8
0
  6
Continuous
 62
     7
100
AcDbLine
 10
468.9050000021461
 20
240.9999999989465
 30
0.0
 11
468.8999999987514
 21
240.9999999989468
 31
0.0
  0
LINE
  5
8FB
330
8A6
100
AcDbEntity
  8
0
  6
Continuous
 62
     7
100
AcDbLine
 10
468.8999999987514
 20
240.9999999989468
 30
0.0
 11
468.8499999987435
 21
240.99999999895
 31
0.0
  0
LINE
  5
8FC
330
8A6
100
AcDbEntity
  8
0
  6
Continuous
 62
     7
100
AcDbLine
 10
468.8499999987497
 20
184.9999999989664
 30
0.0
 11
468.8999999987537
 21
184.9999999989632
 31
0.0
  0
LINE
  5
8FD
330
8A6
100
AcDbEntity
  8
0
  6
Continuous
 62
     7
100
AcDbLine
 10
468.8999999987537
 20
184.9999999989632
 30
0.0
 11
468.9049999985646
 21
184.9999999989629
 31
0.0
  0
LINE
  5
8FE
330
8A6
100
AcDbEntity
  8
0
  6
Continuous
 62
     7
100
AcDbLine
 10
468.9049999989482
 20
190.9999999989648
 30
0.0
 11
468.8999999989546
 21
190.9999999989652
 31
0.0
  0
LINE
  5
8FF
330
8A6
100
AcDbEntity
  8
0
  6
Continuous
 62
     7
100
AcDbLine
 10
468.8999999989546
 20
190.9999999989652
 30
0.0
 11
468.8499999987497
 21
190.9999999989683
 31
0.0
  0
LINE
  5
900
330
8A6
100
AcDbEntity
  8
0
  6
Continuous
 62
     7
100
AcDbLine
 10
468.8949999985647
 20
184.9999999989635
 30
0.0
 11
468.8999999987537
 21
184.9999999989632
 31
0.0
  0
LINE
  5
901
330
8A6
100
AcDbEntity
  8
0
  6
Continuous
 62
     7
100
AcDbLine
 10
468.8999999987537
 20
184.9999999989632
 30
0.0
 11
470.5999999985536
 21
184.9999999988545
 31
0.0
  0
LINE
  5
902
330
8A6
100
AcDbEntity
  8
0
  6
Continuous
 62
     7
100
AcDbLine
 10
470.5999999989371
 20
190.9999999988565
 30
0.0
 11
468.8999999989546
 21
190.9999999989652
 31
0.0
  0
LINE
  5
903
330
8A6
100
AcDbEntity
  8
0
  6
Continuous
 62
     7
100
AcDbLine
 10
468.8999999989546
 20
190.9999999989652
 30
0.0
 11
468.8949999989481
 21
190.9999999989654
 31
0.0
  0
LINE
  5
904
330
8A6
100
AcDbEntity
  8
0
  6
Continuous
 62
     7
100
AcDbLine
 10
445.6999999979458
 20
239.799999999996
 30
0.0
 11
445.6999999979458
 21
239.299999999996
 31
0.0
  0
LINE
  5
905
330
8A6
100
AcDbEntity
  8
0
  6
Continuous
 62
     7
100
AcDbLine
 10
445.6999999979498
 20
186.7000000000581
 30
0.0
 11
445.6999999979453
 21
186.200000000058
 31
0.0
  0
LINE
  5
906
330
8A6
100
AcDbEntity
  8
0
  6
Continuous
 62
     7
100
AcDbLine
 10
468.8500000019161
 20
248.3499999858928
 30
0.0
 11
462.3500000019162
 21
248.3499999863081
 31
0.0
  0
LINE
  5
907
330
8A6
100
AcDbEntity
  8
0
  6
Continuous
 62
     7
100
AcDbLine
 10
462.3500000007851
 20
230.649999986308
 30
0.0
 11
468.8500000007851
 21
230.6499999858926
 31
0.0
  0
LINE
  5
908
330
8A6
100
AcDbEntity
  8
0
  6
Continuous
 62
     7
100
AcDbLine
 10
468.8499999987228
 20
198.349999988134
 30
0.0
 11
462.3499999987228
 21
198.3499999885495
 31
0.0
  0
LINE
  5
909
330
8A6
100
AcDbEntity
  8
0
  6
Continuous
 62
     7
100
AcDbLine
 10
462.3499999975916
 20
180.6499999885452
 30
0.0
 11
468.8499999975916
 21
180.6499999881298
 31
0.0
  0
LINE
  5
90A
330
8A6
100
AcDbEntity
  8
0
  6
Continuous
 62
     7
100
AcDbLine
 10
462.3499999987433
 20
242.8999999993794
 30
0.0
 11
460.60000000157
 21
242.8999999994912
 31
0.0
  0
LINE
  5
90B
330
8A6
100
AcDbEntity
  8
0
  6
Continuous
 62
     7
100
AcDbLine
 10
460.6000000009436
 20
233.0999999994912
 30
0.0
 11
462.3499999987433
 21
233.0999999993793
 31
0.0
  0
LINE
  5
90C
330
8A6
100
AcDbEntity
  8
0
  6
Continuous
 62
     7
100
AcDbLine
 10
462.3499999987433
 20
192.8999999993793
 30
0.0
 11
460.5999999983744
 21
192.8999999994911
 31
0.0
  0
LINE
  5
90D
330
8A6
100
AcDbEntity
  8
0
  6
Continuous
 62
     7
100
AcDbLine
 10
460.599999997748
 20
183.099999999491
 30
0.0
 11
462.3499999987433
 21
183.0999999993793
 31
0.0
  0
LINE
  5
90E
330
8A6
100
AcDbEntity
  8
0
  6
Continuous
 62
     7
100
AcDbLine
 10
445.2000000028546
 20
263.0000000004754
 30
0.0
 11
445.2000000013845
 21
240.0000000004753
 31
0.0
  0
LINE
  5
90F
330
8A6
100
AcDbEntity
  8
0
  6
Continuous
 62
     7
100
AcDbLine
 10
445.1999999979336
 20
186.0000000004753
 30
0.0
 11
445.1999999964638
 21
163.0000000004753
 31
0.0
  0
LINE
  5
910
330
8A6
100
AcDbEntity
  8
0
  6
Continuous
 62
     7
100
AcDbLine
 10
446.7000000005047
 20
162.4000000001344
 30
0.0
 11
447.4000000004885
 21
161.7000000001181
 31
0.0
  0
LINE
  5
911
330
8A6
100
AcDbEntity
  8
0
  6
Continuous
 62
     7
100
AcDbLine
 10
458.0000000004885
 20
161.6999999998727
 30
0.0
 11
458.7000000005047
 21
162.3999999998565
 31
0.0
  0
LINE
  5
912
330
8A6
100
AcDbEntity
  8
0
  6
Continuous
 62
     7
100
AcDbLine
 10
458.7000000005047
 20
162.3999999998566
 30
0.0
 11
458.7000000005183
 21
162.9999999998566
 31
0.0
  0
LINE
  5
913
330
8A6
100
AcDbEntity
  8
0
  6
Continuous
 62
     7
100
AcDbLine
 10
446.7000000005183
 20
163.0000000001344
 30
0.0
 11
446.7000000005047
 21
162.4000000001344
 31
0.0
  0
LINE
  5
914
330
8A6
100
AcDbEntity
  8
0
  6
Continuous
 62
     7
100
AcDbLine
 10
446.7000000028479
 20
263.6000000001434
 30
0.0
 11
446.7000000028341
 21
263.0000000001435
 31
0.0
  0
LINE
  5
915
330
8A6
100
AcDbEntity
  8
0
  6
Continuous
 62
     7
100
AcDbLine
 10
458.700000002834
 20
262.9999999998656
 30
0.0
 11
458.700000002848
 21
263.5999999998656
 31
0.0
  0
LINE
  5
916
330
8A6
100
AcDbEntity
  8
0
  6
Continuous
 62
     7
100
AcDbLine
 10
458.700000002848
 20
263.5999999998656
 30
0.0
 11
458.0000000028642
 21
264.2999999998818
 31
0.0
  0
LINE
  5
917
330
8A6
100
AcDbEntity
  8
0
  6
Continuous
 62
     7
100
AcDbLine
 10
447.4000000028641
 20
264.3000000001273
 30
0.0
 11
446.7000000028479
 21
263.6000000001434
 31
0.0
  0
LINE
  5
918
330
8A6
100
AcDbEntity
  8
0
  6
Continuous
 62
     7
100
AcDbLine
 10
448.7000000023014
 20
240.0000000002517
 30
0.0
 11
448.7000000022969
 21
239.799999999996
 31
0.0
  0
LINE
  5
919
330
8A6
100
AcDbEntity
  8
0
  6
Continuous
 62
     7
100
AcDbLine
 10
448.7000000010556
 20
186.2000000000299
 30
0.0
 11
448.7000000010509
 21
186.0000000002516
 31
0.0
  0
LINE
  5
91A
330
8A6
100
AcDbEntity
  8
0
  6
Continuous
 62
     7
100
AcDbLine
 10
462.3499999987433
 20
230.6237148911267
 30
0.0
 11
468.8499999987434
 21
230.6237148911267
 31
0.0
  0
LINE
  5
91B
330
8A6
100
AcDbEntity
  8
0
  6
Continuous
 62
     7
100
AcDbLine
 10
462.3499999987433
 20
180.6494017671911
 30
0.0
 11
468.8499999987432
 21
180.6494017671911
 31
0.0
  0
LINE
  5
91C
330
8A6
100
AcDbEntity
  8
0
  6
Continuous
 62
     7
100
AcDbLine
 10
445.449999997978
 20
239.2999999995324
 30
0.0
 11
445.449999998061
 21
237.9999999995324
 31
0.0
  0
LINE
  5
91D
330
8A6
100
AcDbEntity
  8
0
  6
Continuous
 62
     7
100
AcDbLine
 10
445.4499999980613
 20
188.0000000004594
 30
0.0
 11
445.4499999979782
 21
186.7000000004594
 31
0.0
  0
LINE
  5
91E
330
8A6
100
AcDbEntity
  8
0
  6
Continuous
 62
     7
100
AcDbLine
 10
445.1999999987449
 20
237.999999999996
 30
0.0
 11
445.1999999987449
 21
187.999999999996
 31
0.0
  0
ENDBLK
  5
91F
330
8A6
100
AcDbEntity
  8
0
100
AcDbBlockEnd
  0
BLOCK
  5
922
330
921
100
AcDbEntity
  8
0
100
AcDbBlockBegin
  2
AID5127
 70
     0
 10
0.0
 20
0.0
 30
0.0
  3
AID5127
  1

  0
ELLIPSE
  5
923
330
921
100
AcDbEntity
  8
0
  6
Continuous
 62
     7
100
AcDbEllipse
 10
710.53050172517
 20
112.2822191613503
 30
0.0
 11
-5.600000000000046
 21
0.0
 31
0.0
210
0.0
220
0.0000000000000001
230
1.0
 40
0.4082482904638634
 41
0.2208339447501078
 42
0.9500690851145996
  0
ELLIPSE
  5
924
330
921
100
AcDbEntity
  8
0
  6
Continuous
 62
     7
100
AcDbEllipse
 10
710.53050172517
 20
112.2822191613503
 30
0.0
 11
-5.600000000000046
 21
0.0
 31
0.0
210
0.0
220
0.0000000000000001
230
1.0
 40
0.4082482904638634
 41
0.9500690851145996
 42
1.107148717794085
  0
ELLIPSE
  5
925
330
921
100
AcDbEntity
  8
0
  6
Continuous
 62
     7
100
AcDbEllipse
 10
710.53050172517
 20
112.2822191613503
 30
0.0
 11
-5.600000000000046
 21
0.0
 31
0.0
210
0.0
220
0.0000000000000001
230
1.0
 40
0.4082482904638631
 41
1.107148717794089
 42
1.26422835047358
  0
ELLIPSE
  5
926
330
921
100
AcDbEntity
  8
0
  6
Continuous
 62
     7
100
AcDbEllipse
 10
710.53050172517
 20
112.2822191613503
 30
0.0
 11
-5.600000000000046
 21
0.0
 31
0.0
210
0.0
220
0.0000000000000001
230
1.0
 40
0.4082482904638633
 41
1.26422835047358
 42
2.917563613208018
  0
ELLIPSE
  5
927
330
921
100
AcDbEntity
  8
0
  6
Continuous
 62
     7
100
AcDbEllipse
 10
710.5305017251683
 20
73.50346208998498
 30
0.0
 11
5.600000000000046
 21
-0.0000000000257988
 31
-0.0000000000000002
210
0.0
220
0.0
230
1.0
 40
0.4082482904567984
 41
3.289875666100959
 42
6.134902294297871
  0
LINE
  5
928
330
921
100
AcDbEntity
  8
0
  6
Continuous
 62
     7
100
AcDbLine
 10
755.9745584452485
 20
55.17155323763062
 30
0.0
 11
755.0729758365966
 21
55.35558801697771
 31
0.0
  0
ELLIPSE
  5
929
330
921
100
AcDbEntity
  8
0
  6
Continuous
 62
     7
100
AcDbEllipse
 10
755.9745584453057
 20
56.99729509602786
 30
0.0
 11
-1.264911063946104
 21
1.549193338582004
 31
0.0
210
0.0000000000000001
220
0.0
230
1.0
 40
0.8164965809538117
 41
3.141592653589794
 42
3.926990817051152
  0
LINE
  5
92A
330
921
100
AcDbEntity
  8
0
  6
Continuous
 62
     7
100
AcDbLine
 10
757.7634128274046
 20
59.79433162310171
 30
0.0
 11
757.7634128273055
 21
56.63214672435771
 31
0.0
  0
ELLIPSE
  5
92B
330
921
100
AcDbEntity
  8
0
  6
Continuous
 62
     7
100
AcDbEllipse
 10
755.9745584454048
 20
60.15947999477184
 30
0.0
 11
-1.264911063946106
 21
1.549193338581951
 31
0.0
210
0.0
220
0.0
230
1.0
 40
0.8164965809538104
 41
3.926990817051128
 42
5.497787143846026
  0
LINE
  5
92C
330
921
100
AcDbEntity
  8
0
  6
Continuous
 62
     7
100
AcDbLine
 10
755.5023008886141
 20
62.08162102328995
 30
0.0
 11
755.9745584454621
 21
61.98522185316904
 31
0.0
  0
LINE
  5
92D
330
921
100
AcDbEntity
  8
0
  6
Continuous
 62
     7
100
AcDbLine
 10
755.5023008886141
 20
62.08162102328995
 30
0.0
 11
755.5023008903937
 21
118.9279195263459
 31
0.0
  0
LINE
  5
92E
330
921
100
AcDbEntity
  8
0
  6
Continuous
 62
     7
100
AcDbLine
 10
755.9745584472418
 20
118.831520356225
 30
0.0
 11
755.5023008903937
 21
118.9279195263459
 31
0.0
  0
ELLIPSE
  5
92F
330
921
100
AcDbEntity
  8
0
  6
Continuous
 62
     7
100
AcDbEllipse
 10
755.974558447299
 20
120.6572622146223
 30
0.0
 11
-1.264911063946104
 21
1.549193338582
 31
0.0
210
0.0000000000000001
220
0.0
230
1.0
 40
0.8164965809538117
 41
3.141592653589792
 42
3.926990817051155
  0
LINE
  5
930
330
921
100
AcDbEntity
  8
0
  6
Continuous
 62
     7
100
AcDbLine
 10
757.7634128293976
 20
123.4542987416961
 30
0.0
 11
757.7634128292985
 21
120.2921138429522
 31
0.0
  0
ELLIPSE
  5
931
330
921
100
AcDbEntity
  8
0
  6
Continuous
 62
     7
100
AcDbEllipse
 10
755.974558447398
 20
123.8194471133662
 30
0.0
 11
-1.264911063946106
 21
1.549193338581958
 31
0.0
210
0.0
220
0.0
230
1.0
 40
0.8164965809538104
 41
3.926990817051136
 42
5.497787143846028
  0
LINE
  5
932
330
921
100
AcDbEntity
  8
0
  6
Continuous
 62
     7
100
AcDbLine
 10
752.6043567917674
 20
126.33312850399
 30
0.0
 11
755.9745584474551
 21
125.6451889717635
 31
0.0
  0
ELLIPSE
  5
933
330
921
100
AcDbEntity
  8
0
  6
Continuous
 62
     7
100
AcDbEllipse
 10
752.6043567917102
 20
124.5073866455927
 30
0.0
 11
-1.264911063946104
 21
1.54919333858197
 31
-0.0000000000000001
210
0.0
220
0.0000000000000001
230
0.9999999999999998
 40
0.8164965809538159
 41
5.497787143846028
 42
6.293185974030177
  0
LINE
  5
934
330
921
100
AcDbEntity
  8
0
  6
Continuous
 62
     7
100
AcDbLine
 10
751.3268592379366
 20
126.0461740426789
 30
0.0
 11
730.7770111476541
 21
130.2408942187539
 31
0.0
  0
ELLIPSE
  5
935
330
921
100
AcDbEntity
  8
0
  6
Continuous
 62
     7
100
AcDbEllipse
 10
729.4995135938005
 20
129.2236430140839
 30
0.0
 11
-1.264911063946106
 21
1.549193338581944
 31
0.0
210
0.0
220
0.0
230
1.0
 40
0.8164965809538104
 41
4.702388313661892
 42
5.497787143846032
  0
LINE
  5
936
330
921
100
AcDbEntity
  8
0
  6
Continuous
 62
     7
100
AcDbLine
 10
726.1293119381697
 20
131.7373244047076
 30
0.0
 11
729.4995135938577
 21
131.0493848724811
 31
0.0
  0
ELLIPSE
  5
937
330
921
100
AcDbEntity
  8
0
  6
Continuous
 62
     7
100
AcDbEllipse
 10
726.1293119381126
 20
129.9115825463104
 30
0.0
 11
-1.264911063946104
 21
1.54919333858197
 31
0.0
210
0.0000000000000001
220
0.0
230
0.9999999999999998
 40
0.8164965809538207
 41
6.283185307179572
 42
7.068583470640932
  0
LINE
  5
938
330
921
100
AcDbEntity
  8
0
  6
Continuous
 62
     7
100
AcDbLine
 10
724.3404575560887
 20
129.5099193378046
 30
0.0
 11
724.3404575561128
 21
130.2767309179805
 31
0.0
  0
LINE
  5
939
330
921
100
AcDbEntity
  8
0
  6
Continuous
 62
     7
100
AcDbLine
 10
723.0882594888099
 20
133.6360959374249
 30
0.0
 11
758.8653471288067
 21
126.3331285040226
 31
0.0
  0
LINE
  5
93A
330
921
100
AcDbEntity
  8
0
  6
Continuous
 62
     7
100
AcDbLine
 10
758.8653471288067
 20
126.3331285040226
 30
0.0
 11
758.8653471265205
 21
53.30345416813366
 31
0.0
  0
LINE
  5
93B
330
921
100
AcDbEntity
  8
0
  6
Continuous
 62
     7
100
AcDbLine
 10
758.8653471265204
 20
53.30345416813365
 30
0.0
 11
755.0729758365567
 21
54.07756871609961
 31
0.0
  0
LINE
  5
93C
330
921
100
AcDbEntity
  8
0
  6
Continuous
 62
     7
100
AcDbLine
 10
723.088259488689
 20
129.7655231979737
 30
0.0
 11
723.0882594888099
 21
133.6360959374248
 31
0.0
  0
LINE
  5
93D
330
921
100
AcDbEntity
  8
0
  6
Continuous
 62
     7
100
AcDbLine
 10
761.0119723872066
 20
128.0858406877592
 30
0.0
 11
758.8653471288067
 21
126.3331285040226
 31
0.0
  0
LINE
  5
93E
330
921
100
AcDbEntity
  8
0
  6
Continuous
 62
     7
100
AcDbLine
 10
761.0119723872066
 20
128.0858406877592
 30
0.0
 11
761.0119723849201
 21
55.05616635187013
 31
0.0
  0
LINE
  5
93F
330
921
100
AcDbEntity
  8
0
  6
Continuous
 62
     7
100
AcDbLine
 10
761.0119723849201
 20
55.05616635187013
 30
0.0
 11
758.8653471265204
 21
53.30345416813368
 31
0.0
  0
LINE
  5
940
330
921
100
AcDbEntity
  8
0
  6
Continuous
 62
     7
100
AcDbLine
 10
725.2348847472099
 20
135.3888081211614
 30
0.0
 11
723.0882594888103
 21
133.6360959374249
 31
0.0
  0
LINE
  5
941
330
921
100
AcDbEntity
  8
0
  6
Continuous
 62
     7
100
AcDbLine
 10
725.2348847472099
 20
135.3888081211614
 30
0.0
 11
761.0119723872067
 21
128.0858406877592
 31
0.0
  0
ELLIPSE
  5
942
330
921
100
AcDbEntity
  8
0
  6
Continuous
 62
     7
100
AcDbEllipse
 10
755.974558447299
 20
120.6572622146223
 30
0.0
 11
-1.264911063946104
 21
1.54919333858197
 31
0.0
210
0.0
220
0.0
230
0.9999999999999998
 40
0.8164965809538159
 41
2.356194490256247
 42
3.141592653589778
  0
LINE
  5
943
330
921
100
AcDbEntity
  8
0
  6
Continuous
 62
     9
100
AcDbLine
 10
755.9745584472418
 20
118.831520356225
 30
0.0
 11
756.5942357826352
 21
119.3374847817711
 31
0.0
  0
ELLIPSE
  5
944
330
921
100
AcDbEntity
  8
0
  6
Continuous
 62
     7
100
AcDbEllipse
 10
756.5942357826918
 20
121.1632266401684
 30
0.0
 11
3.282857002308459
 21
1.215513325150116
 31
0.0
210
0.0
220
0.0
230
1.0
 40
0.4973154683954839
 41
4.53029233237259
 42
4.857879494840464
  0
LINE
  5
945
330
921
100
AcDbEntity
  8
0
  6
Continuous
 62
     7
100
AcDbLine
 10
757.5845273890486
 20
56.48608737543298
 30
0.0
 11
757.1859953105232
 21
56.56743739530945
 31
0.0
  0
LINE
  5
946
330
921
100
AcDbEntity
  8
0
  6
Continuous
 62
     7
100
AcDbLine
 10
725.9504264999028
 20
131.2748031338314
 30
0.0
 11
725.9504264999127
 21
131.5912650557829
 31
0.0
  0
ELLIPSE
  5
947
330
921
100
AcDbEntity
  8
0
  6
Continuous
 62
     7
100
AcDbEllipse
 10
727.7392808819127
 20
131.2261166841128
 30
0.0
 11
-1.264911063946104
 21
1.54919333858197
 31
0.0000000000000001
210
0.0000000000000001
220
0.0
230
0.9999999999999998
 40
0.8164965809538159
 41
0.6898170900527905
 42
0.7853981634613577
  0
LINE
  5
948
330
921
100
AcDbEntity
  8
0
  6
Continuous
 62
     7
100
AcDbLine
 10
755.7129911844271
 20
119.0999474310316
 30
0.0
 11
755.5023008903937
 21
118.9279195263459
 31
0.0
  0
LINE
  5
949
330
921
100
AcDbEntity
  8
0
  6
Continuous
 62
     7
100
AcDbLine
 10
755.7129911844271
 20
119.0999474310316
 30
0.0
 11
756.5942357826352
 21
119.3374847817711
 31
0.0
  0
ELLIPSE
  5
94A
330
921
100
AcDbEntity
  8
0
  6
Continuous
 62
     7
100
AcDbEllipse
 10
726.1293119381126
 20
129.9115825463104
 30
0.0
 11
-1.264911063946104
 21
1.54919333858197
 31
-0.0000000000000001
210
0.0
220
0.0
230
0.9999999999999998
 40
0.8164965809538159
 41
5.497787143846043
 42
6.28318530717958
  0
LINE
  5
94B
330
921
100
AcDbEntity
  8
0
  6
Continuous
 62
     9
100
AcDbLine
 10
724.3404575561128
 20
130.2767309179805
 30
0.0
 11
725.9504264999129
 21
131.5912650557829
 31
0.0
  0
ELLIPSE
  5
94C
330
921
100
AcDbEntity
  8
0
  6
Continuous
 62
     7
100
AcDbEllipse
 10
755.9745584453057
 20
56.99729509602786
 30
0.0
 11
-1.264911063946104
 21
1.54919333858197
 31
0.0
210
0.0
220
0.0
230
0.9999999999999998
 40
0.8164965809538159
 41
2.356194490256247
 42
3.141592653589781
  0
ELLIPSE
  5
94D
330
921
100
AcDbEntity
  8
0
  6
Continuous
 62
     7
100
AcDbEllipse
 10
757.5845273891056
 20
58.31182923383021
 30
0.0
 11
-1.264911063946104
 21
1.54919333858197
 31
-0.0000000000000001
210
0.0
220
0.0000000000000001
230
0.9999999999999998
 40
0.8164965809538166
 41
2.356194490256247
 42
2.451775563536779
  0
LINE
  5
94E
330
921
100
AcDbEntity
  8
0
  6
Continuous
 62
     9
100
AcDbLine
 10
755.9745584452485
 20
55.17155323763062
 30
0.0
 11
757.5845273890486
 21
56.48608737543301
 31
0.0
  0
LINE
  5
94F
330
921
100
AcDbEntity
  8
0
  6
Continuous
 62
     7
100
AcDbLine
 10
756.576092563945
 20
125.4160818314218
 30
0.0
 11
755.412950382917
 21
125.1025596688158
 31
0.0
  0
LINE
  5
950
330
921
100
AcDbEntity
  8
0
  6
Continuous
 62
     7
100
AcDbLine
 10
755.412950382917
 20
125.1025596688158
 30
0.0
 11
725.6642097988319
 21
131.1749959122685
 31
0.0
  0
LINE
  5
951
330
921
100
AcDbEntity
  8
0
  6
Continuous
 62
     7
100
AcDbLine
 10
725.6642097988319
 20
131.1749959122685
 30
0.0
 11
725.7536525179323
 21
131.2480255865909
 31
0.0
  0
LINE
  5
952
330
921
100
AcDbEntity
  8
0
  6
Continuous
 62
     7
100
AcDbLine
 10
725.7536525179323
 20
131.2480255865909
 30
0.0
 11
727.4172870936462
 21
131.474417577016
 31
0.0
  0
LINE
  5
953
330
921
100
AcDbEntity
  8
0
  6
Continuous
 62
     7
100
AcDbLine
 10
755.412950382917
 20
125.1025596688158
 30
0.0
 11
755.4129503807562
 21
56.08951742142728
 31
0.0
  0
LINE
  5
954
330
921
100
AcDbEntity
  8
0
  6
Continuous
 62
     7
100
AcDbLine
 10
757.7634128273087
 20
56.72307889085659
 30
0.0
 11
755.4129503807562
 21
56.08951742142732
 31
0.0
  0
LINE
  5
955
330
921
100
AcDbEntity
  8
0
  6
Continuous
 62
     7
100
AcDbLine
 10
725.6642097988319
 20
131.1749959122685
 30
0.0
 11
725.6642097987716
 21
129.2397095427682
 31
0.0
  0
LINE
  5
956
330
921
100
AcDbEntity
  8
0
  6
Continuous
 62
     7
100
AcDbLine
 10
755.4129503807562
 20
56.08951742142732
 30
0.0
 11
755.0729758366217
 21
56.1589144346494
 31
0.0
  0
LINE
  5
957
330
921
100
AcDbEntity
  8
0
  6
Continuous
 62
     7
100
AcDbLine
 10
727.1131818482232
 20
131.4330340948408
 30
0.0
 11
727.1131818482262
 21
131.5364928002979
 31
0.0
  0
ELLIPSE
  5
958
330
921
100
AcDbEntity
  8
0
  6
Continuous
 62
     7
100
AcDbEllipse
 10
753.123216773894
 20
123.2330000058459
 30
0.0
 11
1.011928851156862
 21
-1.239354670865569
 31
0.0000000000000001
210
0.0
220
0.0
230
0.9999999999999998
 40
0.8164965809537976
 41
1.063987866107857
 42
2.356194490256235
  0
ELLIPSE
  5
959
330
921
100
AcDbEntity
  8
0
  6
Continuous
 62
     7
100
AcDbEllipse
 10
727.6677267065977
 20
128.4290801572927
 30
0.0
 11
1.011928851156862
 21
-1.239354670865582
 31
-0.0000000000000001
210
0.0
220
-0.0000000000000001
230
1.0
 40
0.8164965809537974
 41
2.356194490256244
 42
3.141592653589794
  0
LINE
  5
95A
330
921
100
AcDbEntity
  8
0
  6
Continuous
 62
     7
100
AcDbLine
 10
753.1232167739396
 20
124.6935934925636
 30
0.0
 11
727.6677267066434
 21
129.8896736440104
 31
0.0
  0
LINE
  5
95B
330
921
100
AcDbEntity
  8
0
  6
Continuous
 62
     9
100
AcDbLine
 10
753.1232167739396
 20
124.6935934925636
 30
0.0
 11
753.2663251244996
 21
124.8104409714794
 31
0.0
  0
ELLIPSE
  5
95C
330
921
100
AcDbEntity
  8
0
  6
Continuous
 62
     7
100
AcDbEllipse
 10
753.2663251244541
 20
123.3498474847616
 30
0.0
 11
-1.011928851156862
 21
1.239354670865569
 31
0.0
210
0.0000000000000001
220
0.0
230
0.9999999999999998
 40
0.8164965809537944
 41
4.10289658547995
 42
5.497787143846031
  0
LINE
  5
95D
330
921
100
AcDbEntity
  8
0
  6
Continuous
 62
     9
100
AcDbLine
 10
727.8108350572032
 20
130.0065211229262
 30
0.0
 11
727.6677267066435
 21
129.8896736440104
 31
0.0
  0
LINE
  5
95E
330
921
100
AcDbEntity
  8
0
  6
Continuous
 62
     7
100
AcDbLine
 10
753.2663251244998
 20
124.8104409714794
 30
0.0
 11
727.8108350572032
 21
130.0065211229262
 31
0.0
  0
ELLIPSE
  5
95F
330
921
100
AcDbEntity
  8
0
  6
Continuous
 62
     7
100
AcDbEllipse
 10
727.8108350571577
 20
128.5459276362084
 30
0.0
 11
-1.011928851156862
 21
1.239354670865582
 31
0.0
210
0.0000000000000001
220
0.0
230
1.0
 40
0.8164965809537957
 41
5.497787143846038
 42
6.283185307179584
  0
ELLIPSE
  5
960
330
921
100
AcDbEntity
  8
0
  6
Continuous
 62
     7
100
AcDbEllipse
 10
727.6677267065977
 20
128.4290801572927
 30
0.0
 11
1.011928851156862
 21
-1.239354670865582
 31
0.0
210
0.0000000000000001
220
0.0
230
1.0
 40
0.8164965809537962
 41
3.141592653589796
 42
3.648401114404657
  0
LINE
  5
961
330
921
100
AcDbEntity
  8
0
  6
Continuous
 62
     7
100
AcDbLine
 10
752.9263505803218
 20
121.483958128801
 30
0.0
 11
717.1492629403253
 21
128.7869255622032
 31
0.0
  0
ELLIPSE
  5
962
330
921
100
AcDbEntity
  8
0
  6
Continuous
 62
     7
100
AcDbEllipse
 10
716.7914920639256
 20
128.4948068649138
 30
0.0
 11
-0.8000000000000229
 21
0.0000000000250355
 31
0.0
210
0.0
220
0.0000000000000001
230
1.0
 40
0.4082482904116831
 41
4.248741371396683
 42
5.819537698191568
  0
LINE
  5
963
330
921
100
AcDbEntity
  8
0
  6
Continuous
 62
     7
100
AcDbLine
 10
716.0759503111251
 20
128.6408662135818
 30
0.0
 11
715.8970648729255
 21
128.4948068649371
 31
0.0
  0
ELLIPSE
  5
964
330
921
100
AcDbEntity
  8
0
  6
Continuous
 62
     7
100
AcDbEllipse
 10
710.5305017269261
 20
129.5902519799475
 30
0.0
 11
6.000000000000002
 21
-0.0000000001878497
 31
-0.0000000000000003
210
0.0000000000000001
220
0.0000000000000001
230
1.0
 40
0.408248290411683
 41
3.141592653589792
 42
5.819537698191558
  0
LINE
  5
965
330
921
100
AcDbEntity
  8
0
  6
Continuous
 62
     7
100
AcDbLine
 10
713.7289025157463
 20
131.6759939399962
 30
0.0
 11
755.072975838722
 21
123.2366703125375
 31
0.0
  0
LINE
  5
966
330
921
100
AcDbEntity
  8
0
  6
Continuous
 62
     7
100
AcDbLine
 10
755.072975838722
 20
123.2366703125375
 30
0.0
 11
752.9263505803218
 21
121.483958128801
 31
0.0
  0
LINE
  5
967
330
921
100
AcDbEntity
  8
0
  6
Continuous
 62
     7
100
AcDbLine
 10
752.9263505803218
 20
121.483958128801
 30
0.0
 11
752.9263505780354
 21
48.45428379291195
 31
0.0
  0
LINE
  5
968
330
921
100
AcDbEntity
  8
0
  6
Continuous
 62
     7
100
AcDbLine
 10
755.072975838722
 20
123.2366703125375
 30
0.0
 11
755.0729758364354
 21
50.20699597664846
 31
0.0
  0
LINE
  5
969
330
921
100
AcDbEntity
  8
0
  6
Continuous
 62
     7
100
AcDbLine
 10
755.0729758364354
 20
50.20699597664846
 30
0.0
 11
752.9263505780354
 21
48.45428379291199
 31
0.0
  0
LINE
  5
96A
330
921
100
AcDbEntity
  8
0
  6
Continuous
 62
     7
100
AcDbLine
 10
717.1492629397995
 20
111.9901004649487
 30
0.0
 11
717.5070338161995
 21
111.9170707906147
 31
0.0
  0
LINE
  5
96B
330
921
100
AcDbEntity
  8
0
  6
Continuous
 62
     9
100
AcDbLine
 10
717.1492629403253
 20
128.7869255622032
 30
0.0
 11
717.1492629397995
 21
111.9901004649487
 31
0.0
  0
LINE
  5
96C
330
921
100
AcDbEntity
  8
0
  6
Continuous
 62
     7
100
AcDbLine
 10
752.9263505780354
 20
48.45428379291199
 30
0.0
 11
717.1492629380391
 21
55.75725122631421
 31
0.0
  0
LINE
  5
96D
330
921
100
AcDbEntity
  8
0
  6
Continuous
 62
     9
100
AcDbLine
 10
717.1492629385649
 20
72.55407632356869
 30
0.0
 11
717.1492629380391
 21
55.75725122631421
 31
0.0
  0
LINE
  5
96E
330
921
100
AcDbEntity
  8
0
  6
Continuous
 62
     7
100
AcDbLine
 10
717.5070338149647
 20
72.48104664923466
 30
0.0
 11
717.1492629385649
 21
72.55407632356869
 31
0.0
  0
LINE
  5
96F
330
921
100
AcDbEntity
  8
0
  6
Continuous
 62
     7
100
AcDbLine
 10
717.5070338161995
 20
111.9170707906147
 30
0.0
 11
717.5070338149647
 21
72.48104664923466
 31
0.0
  0
ELLIPSE
  5
970
330
921
100
AcDbEntity
  8
0
  6
Continuous
 62
     7
100
AcDbEllipse
 10
710.5305017269261
 20
129.5902519799475
 30
0.0
 11
6.000000000000002
 21
-0.0000000001878497
 31
-0.0000000000000003
210
0.0000000000000001
220
0.0
230
1.0
 40
0.408248290411683
 41
2.145018867820593
 42
3.141592653589794
  0
ELLIPSE
  5
971
330
921
100
AcDbEntity
  8
0
  6
Continuous
 62
     7
100
AcDbEllipse
 10
710.5305017264003
 20
112.793426882693
 30
0.0
 11
-6.000000000000002
 21
0.0000000001878497
 31
-0.0000000000000001
210
0.0
220
0.0000000000000001
230
1.0
 40
0.408248290411683
 41
0.0000000000000023
 42
2.677945044601765
  0
LINE
  5
972
330
921
100
AcDbEntity
  8
0
  6
Continuous
 62
     9
100
AcDbLine
 10
715.8970648729255
 20
128.4948068649371
 30
0.0
 11
715.8970648723996
 21
111.6979817676826
 31
0.0
  0
LINE
  5
973
330
921
100
AcDbEntity
  8
0
  6
Continuous
 62
     9
100
AcDbLine
 10
716.0759503111251
 20
128.6408662135818
 30
0.0
 11
716.0759503105996
 21
111.8440411163273
 31
0.0
  0
LINE
  5
974
330
921
100
AcDbEntity
  8
0
  6
Continuous
 62
     7
100
AcDbLine
 10
715.8970648723997
 20
111.6979817676826
 30
0.0
 11
716.0759503105996
 21
111.8440411163273
 31
0.0
  0
ELLIPSE
  5
975
330
921
100
AcDbEntity
  8
0
  6
Continuous
 62
     7
100
AcDbEllipse
 10
716.7914920633998
 20
111.6979817676593
 30
0.0
 11
0.8000000000000229
 21
-0.0000000000250494
 31
0.0
210
0.0
220
0.0000000000000001
230
1.0
 40
0.4082482904116832
 41
1.107148717806869
 42
2.677945044601774
  0
ELLIPSE
  5
976
330
921
100
AcDbEntity
  8
0
  6
Continuous
 62
     7
100
AcDbEllipse
 10
716.7914920621649
 20
72.26195762627923
 30
0.0
 11
-0.8000000000000229
 21
0.0000000000250494
 31
0.0
210
0.0
220
0.0000000000000001
230
1.0
 40
0.408248290411689
 41
4.248741371396676
 42
5.819537698191572
  0
LINE
  5
977
330
921
100
AcDbEntity
  8
0
  6
Continuous
 62
     7
100
AcDbLine
 10
716.0759503093649
 20
72.40801697494731
 30
0.0
 11
715.8970648711647
 21
72.26195762630259
 31
0.0
  0
ELLIPSE
  5
978
330
921
100
AcDbEntity
  8
0
  6
Continuous
 62
     7
100
AcDbEllipse
 10
710.5305017251655
 20
73.35740274131294
 30
0.0
 11
6.000000000000002
 21
-0.0000000001878497
 31
-0.0000000000000003
210
0.0000000000000001
220
0.0000000000000001
230
1.0
 40
0.4082482904116835
 41
3.141592653589794
 42
5.819537698191562
  0
LINE
  5
979
330
921
100
AcDbEntity
  8
0
  6
Continuous
 62
     7
100
AcDbLine
 10
716.5305017254559
 20
74.87127065703788
 30
0.0
 11
717.5070338150335
 21
74.67193687896132
 31
0.0
  0
ELLIPSE
  5
97A
330
921
100
AcDbEntity
  8
0
  6
Continuous
 62
     7
100
AcDbEllipse
 10
710.5305017251655
 20
73.35740274131294
 30
0.0
 11
6.000000000000002
 21
-0.0000000001878497
 31
0.0000000000000001
210
0.0
220
0.0000000000000001
230
1.0
 40
0.408248290411683
 41
2.882671111583573
 42
3.141592653589796
  0
LINE
  5
97B
330
921
100
AcDbEntity
  8
0
  6
Continuous
 62
     9
100
AcDbLine
 10
715.8970648711647
 20
72.26195762630259
 30
0.0
 11
715.897064870639
 21
55.46513252904814
 31
0.0
  0
ELLIPSE
  5
97C
330
921
100
AcDbEntity
  8
0
  6
Continuous
 62
     7
100
AcDbEllipse
 10
710.5305017246397
 20
56.56057764405847
 30
0.0
 11
6.000000000000002
 21
-0.0000000001878497
 31
-0.0000000000000003
210
0.0000000000000001
220
0.0000000000000001
230
1.0
 40
0.408248290411683
 41
3.141592653589792
 42
5.819537698191558
  0
LINE
  5
97D
330
921
100
AcDbEntity
  8
0
  6
Continuous
 62
     9
100
AcDbLine
 10
716.0759503093649
 20
72.40801697494731
 30
0.0
 11
716.0759503088391
 21
55.61119187769284
 31
0.0
  0
LINE
  5
97E
330
921
100
AcDbEntity
  8
0
  6
Continuous
 62
     7
100
AcDbLine
 10
716.0759503088391
 20
55.61119187769281
 30
0.0
 11
715.8970648706391
 21
55.46513252904811
 31
0.0
  0
ELLIPSE
  5
97F
330
921
100
AcDbEntity
  8
0
  6
Continuous
 62
     7
100
AcDbEllipse
 10
716.7914920616389
 20
55.4651325290248
 30
0.0
 11
-0.8000000000000229
 21
0.0000000000250494
 31
0.0
210
0.0
220
0.0000000000000001
230
1.0
 40
0.4082482904116831
 41
4.248741371396701
 42
5.819537698191585
  0
ELLIPSE
  5
980
330
921
100
AcDbEntity
  8
0
  6
Continuous
 62
     7
100
AcDbEllipse
 10
680.7459840537197
 20
138.0069407683242
 30
0.0
 11
1.011928851253895
 21
-1.239354670786366
 31
0.0000000000000001
210
0.0000000000000001
220
0.0000000000000001
230
1.0
 40
0.8164965809277211
 41
2.356194490192336
 42
3.141592653589786
  0
LINE
  5
981
330
921
100
AcDbEntity
  8
0
  6
Continuous
 62
     7
100
AcDbLine
 10
706.2014741210162
 20
134.2714541035578
 30
0.0
 11
680.7459840537197
 21
139.4675342550046
 31
0.0
  0
ELLIPSE
  5
982
330
921
100
AcDbEntity
  8
0
  6
Continuous
 62
     7
100
AcDbEllipse
 10
706.2014741210162
 20
132.8108606168774
 30
0.0
 11
1.011928851253895
 21
-1.239354670786366
 31
0.0000000000000001
210
0.0000000000000001
220
0.0000000000000001
230
1.0
 40
0.8164965809277211
 41
0.7853981633974528
 42
2.356194490192336
  0
LINE
  5
983
330
921
100
AcDbEntity
  8
0
  6
Continuous
 62
     7
100
AcDbLine
 10
707.632557626616
 20
131.803198850799
 30
0.0
 11
707.632557626616
 21
132.5187419195413
 31
0.0
  0
LINE
  5
984
330
921
100
AcDbEntity
  8
0
  6
Continuous
 62
     9
100
AcDbLine
 10
706.2014741210162
 20
134.2714541035578
 30
0.0
 11
706.3445824715762
 21
134.3883015824922
 31
0.0
  0
ELLIPSE
  5
985
330
921
100
AcDbEntity
  8
0
  6
Continuous
 62
     7
100
AcDbEllipse
 10
706.3445824715762
 20
132.9277080958118
 30
0.0
 11
-1.011928851253895
 21
1.239354670786366
 31
-0.0000000000000001
210
0.0000000000000001
220
0.0000000000000001
230
1.0
 40
0.8164965809277211
 41
3.926990816987233
 42
5.497787143782135
  0
LINE
  5
986
330
921
100
AcDbEntity
  8
0
  6
Continuous
 62
     9
100
AcDbLine
 10
707.7756659771758
 20
132.6355893984757
 30
0.0
 11
707.632557626616
 21
132.5187419195413
 31
0.0
  0
LINE
  5
987
330
921
100
AcDbEntity
  8
0
  6
Continuous
 62
     7
100
AcDbLine
 10
707.7756659771758
 20
131.8554695484367
 30
0.0
 11
707.7756659771758
 21
132.6355893984757
 31
0.0
  0
LINE
  5
988
330
921
100
AcDbEntity
  8
0
  6
Continuous
 62
     9
100
AcDbLine
 10
680.8890924042798
 20
139.5843817339391
 30
0.0
 11
680.7459840537197
 21
139.4675342550047
 31
0.0
  0
LINE
  5
989
330
921
100
AcDbEntity
  8
0
  6
Continuous
 62
     7
100
AcDbLine
 10
706.3445824715762
 20
134.3883015824923
 30
0.0
 11
680.8890924042798
 21
139.5843817339391
 31
0.0
  0
ELLIPSE
  5
98A
330
921
100
AcDbEntity
  8
0
  6
Continuous
 62
     7
100
AcDbEllipse
 10
680.8890924042798
 20
138.1237882472585
 30
0.0
 11
-1.011928851253895
 21
1.239354670786366
 31
0.0000000000000001
210
0.0000000000000001
220
0.0
230
1.0
 40
0.8164965809277211
 41
5.497787143782135
 42
6.283185307179584
  0
ELLIPSE
  5
98B
330
921
100
AcDbEntity
  8
0
  6
Continuous
 62
     7
100
AcDbEllipse
 10
680.7459840537197
 20
138.0069407683242
 30
0.0
 11
1.011928851253895
 21
-1.239354670786366
 31
-0.0000000000000001
210
0.0000000000000001
220
0.0
230
1.0
 40
0.8164965809277211
 41
3.141592653589785
 42
3.648401114595535
  0
ELLIPSE
  5
98C
330
921
100
AcDbEntity
  8
0
  6
Continuous
 62
     7
100
AcDbEllipse
 10
710.5305017296292
 20
55.61119187816689
 30
0.0
 11
4.240000000000021
 21
0.000000000156368
 31
-0.0000000000000001
210
0.0
220
0.0
230
1.0
 40
0.4082482904248634
 41
3.835654663154353
 42
5.589123301266398
  0
ELLIPSE
  5
98D
330
921
100
AcDbEntity
  8
0
  6
Continuous
 62
     7
100
AcDbEllipse
 10
710.5305017268663
 20
130.5396377463117
 30
0.0
 11
-4.240000000000021
 21
-0.0000000001563749
 31
0.0000000000000003
210
0.0000000000000001
220
0.0000000000000001
230
1.0
 40
0.4082482904248627
 41
3.605240262533278
 42
5.725841474198117
  0
ELLIPSE
  5
98E
330
921
100
AcDbEntity
  8
0
  6
Continuous
 62
     7
100
AcDbEllipse
 10
710.5305017268663
 20
130.5396377463117
 30
0.0
 11
-4.240000000000021
 21
-0.0000000001563749
 31
0.0000000000000001
210
0.0
220
0.0
230
1.0
 40
0.408248290424863
 41
5.819537698236096
 42
9.888425569712866
  0
ELLIPSE
  5
98F
330
921
100
AcDbEntity
  8
0
  6
Continuous
 62
     7
100
AcDbEllipse
 10
710.530501726885
 20
130.0284300259638
 30
0.0
 11
4.800000000000026
 21
0.0000000001770528
 31
0.0000000000000001
210
0.0
220
0.0
230
1.0
 40
0.4082482904248633
 41
0.000000000000003
 42
0.4636476089434903
  0
ELLIPSE
  5
990
330
921
100
AcDbEntity
  8
0
  6
Continuous
 62
     7
100
AcDbEllipse
 10
710.5305017268663
 20
130.5396377463117
 30
0.0
 11
-4.240000000000021
 21
-0.0000000001563749
 31
0.0000000000000002
210
0.0
220
0.0
230
1.0
 40
0.4082482904248627
 41
5.725841474198117
 42
5.819537698236096
  0
ELLIPSE
  5
991
330
921
100
AcDbEntity
  8
0
  6
Continuous
 62
     7
100
AcDbEllipse
 10
710.5305017269009
 20
129.5902519799513
 30
0.0
 11
-4.800000000000026
 21
-0.0000000001770528
 31
0.0000000000000001
210
0.0
220
0.0
230
1.0
 40
0.4082482904248633
 41
6.283185307179584
 42
9.424777960769381
  0
ELLIPSE
  5
992
330
921
100
AcDbEntity
  8
0
  6
Continuous
 62
     7
100
AcDbEllipse
 10
710.530501726885
 20
130.0284300259638
 30
0.0
 11
4.800000000000026
 21
0.0000000001770528
 31
-0.0000000000000001
210
0.0
220
0.0
230
1.0
 40
0.4082482904248633
 41
2.677945044646298
 42
3.14159265358979
  0
ELLIPSE
  5
993
330
921
100
AcDbEntity
  8
0
  6
Continuous
 62
     7
100
AcDbEllipse
 10
710.530501726885
 20
130.0284300259638
 30
0.0
 11
4.800000000000026
 21
0.0000000001770528
 31
-0.0000000000000001
210
0.0
220
0.0
230
1.0
 40
0.4082482904248633
 41
3.14159265358979
 42
6.283185307179588
  0
ELLIPSE
  5
994
330
921
100
AcDbEntity
  8
0
  6
Continuous
 62
     7
100
AcDbEllipse
 10
710.5305017251812
 20
112.2822191613596
 30
0.0
 11
5.800000000000027
 21
0.000000000181688
 31
-0.0000000000000004
210
0.0000000000000001
220
0.0
230
1.0
 40
0.4082482905160721
 41
4.104330156402776
 42
4.248741371371093
  0
ELLIPSE
  5
995
330
921
100
AcDbEntity
  8
0
  6
Continuous
 62
     7
100
AcDbEllipse
 10
710.5305017251812
 20
112.2822191613596
 30
0.0
 11
5.800000000000027
 21
0.000000000181688
 31
-0.0000000000000005
210
0.0000000000000001
220
0.0
230
1.0
 40
0.4082482905160722
 41
3.196144514993457
 42
4.104330156402776
  0
ELLIPSE
  5
996
330
921
100
AcDbEntity
  8
0
  6
Continuous
 62
     7
100
AcDbEllipse
 10
710.530501725211
 20
111.3328333950416
 30
0.0
 11
5.800000000000027
 21
0.000000000181688
 31
-0.0000000000000003
210
0.0000000000000001
220
0.0000000000000001
230
1.0
 40
0.4082482905160721
 41
4.248741371371097
 42
6.283185307179584
  0
ELLIPSE
  5
997
330
921
100
AcDbEntity
  8
0
  6
Continuous
 62
     7
100
AcDbEllipse
 10
710.5305017251812
 20
112.2822191613596
 30
0.0
 11
5.800000000000027
 21
0.000000000181688
 31
-0.0000000000000001
210
0.0
220
0.0000000000000001
230
1.0
 40
0.4082482905160722
 41
4.405821004050578
 42
6.140835885380121
  0
ELLIPSE
  5
998
330
921
100
AcDbEntity
  8
0
  6
Continuous
 62
     7
100
AcDbEllipse
 10
710.5305017251812
 20
112.2822191613596
 30
0.0
 11
5.800000000000027
 21
0.000000000181688
 31
0.0
210
0.0
220
0.0000000000000001
230
1.0
 40
0.4082482905160721
 41
4.248741371371091
 42
4.405821004050578
  0
ELLIPSE
  5
999
330
921
100
AcDbEntity
  8
0
  6
Continuous
 62
     7
100
AcDbEllipse
 10
710.530501725211
 20
111.3328333950416
 30
0.0
 11
5.800000000000027
 21
0.000000000181688
 31
0.0000000000000001
210
0.0
220
0.0000000000000001
230
1.0
 40
0.4082482905160726
 41
3.14159265358979
 42
4.248741371371096
  0
ELLIPSE
  5
99A
330
921
100
AcDbEntity
  8
0
  6
Continuous
 62
     7
100
AcDbEllipse
 10
710.5305017251814
 20
73.86861046166415
 30
0.0
 11
-5.800000000000027
 21
0.0000000001815909
 31
0.0000000000000001
210
0.0
220
0.0000000000000001
230
1.0
 40
0.4082482904116822
 41
6.283185307179584
 42
9.424777960769381
  0
ELLIPSE
  5
99B
330
921
100
AcDbEntity
  8
0
  6
Continuous
 62
     7
100
AcDbEllipse
 10
707.8829972410804
 20
133.6360959376995
 30
0.0
 11
-1.264911063947215
 21
1.549193338581027
 31
-0.0000000000000001
210
0.0
220
0.0
230
1.0
 40
0.8164965809535679
 41
3.926990817050536
 42
5.497787143845433
  0
LINE
  5
99C
330
921
100
AcDbEntity
  8
0
  6
Continuous
 62
     7
100
AcDbLine
 10
704.5127955854492
 20
136.1497773283228
 30
0.0
 11
707.8829972411369
 21
135.4618377960963
 31
0.0
  0
ELLIPSE
  5
99D
330
921
100
AcDbEntity
  8
0
  6
Continuous
 62
     7
100
AcDbEllipse
 10
704.5127955853926
 20
134.324035469926
 30
0.0
 11
-1.264911063947215
 21
1.549193338581027
 31
-0.0000000000000001
210
0.0000000000000001
220
0.0000000000000001
230
1.0
 40
0.8164965809535729
 41
5.497787143845447
 42
6.293185974029581
  0
LINE
  5
99E
330
921
100
AcDbEntity
  8
0
  6
Continuous
 62
     7
100
AcDbLine
 10
703.2352980316185
 20
135.8628228670119
 30
0.0
 11
682.6854499413362
 21
140.0575430430868
 31
0.0
  0
ELLIPSE
  5
99F
330
921
100
AcDbEntity
  8
0
  6
Continuous
 62
     7
100
AcDbEllipse
 10
681.4079523874827
 20
139.0402918384171
 30
0.0
 11
-1.264911063947215
 21
1.549193338581027
 31
-0.0000000000000001
210
0.0
220
0.0
230
1.0
 40
0.8164965809535679
 41
4.702388313661296
 42
5.497787143845433
  0
LINE
  5
9A0
330
921
100
AcDbEntity
  8
0
  6
Continuous
 62
     7
100
AcDbLine
 10
678.0377507318517
 20
141.5539732290404
 30
0.0
 11
681.4079523875392
 21
140.8660336968139
 31
0.0
  0
ELLIPSE
  5
9A1
330
921
100
AcDbEntity
  8
0
  6
Continuous
 62
     7
100
AcDbEllipse
 10
678.0377507317949
 20
139.7282313706437
 30
0.0
 11
-1.264911063947215
 21
1.549193338581027
 31
0.0
210
-0.0000000000000001
220
0.0
230
1.0
 40
0.8164965809535772
 41
6.283185307179572
 42
7.068583470640334
  0
LINE
  5
9A2
330
921
100
AcDbEntity
  8
0
  6
Continuous
 62
     7
100
AcDbLine
 10
676.2488963497713
 20
139.3265681607629
 30
0.0
 11
676.2488963497952
 21
140.0933797423137
 31
0.0
  0
LINE
  5
9A3
330
921
100
AcDbEntity
  8
0
  6
Continuous
 62
     7
100
AcDbLine
 10
709.6718516230801
 20
133.2709475660294
 30
0.0
 11
709.6718516230479
 21
132.2347444290597
 31
0.0
  0
LINE
  5
9A4
330
921
100
AcDbEntity
  8
0
  6
Continuous
 62
     7
100
AcDbLine
 10
675.1469620504596
 20
139.5514995577117
 30
0.0
 11
675.1469620505795
 21
143.4220722985371
 31
0.0
  0
LINE
  5
9A5
330
921
100
AcDbEntity
  8
0
  6
Continuous
 62
     7
100
AcDbLine
 10
675.1469620505796
 20
143.4220722985371
 30
0.0
 11
710.9240496905763
 21
136.1191048651349
 31
0.0
  0
LINE
  5
9A6
330
921
100
AcDbEntity
  8
0
  6
Continuous
 62
     7
100
AcDbLine
 10
710.9240496905763
 20
136.1191048651349
 30
0.0
 11
710.9240496904567
 21
132.2631380604592
 31
0.0
  0
LINE
  5
9A7
330
921
100
AcDbEntity
  8
0
  6
Continuous
 62
     7
100
AcDbLine
 10
677.2935873089792
 20
145.1747844822762
 30
0.0
 11
675.1469620505795
 21
143.4220722985371
 31
0.0
  0
LINE
  5
9A8
330
921
100
AcDbEntity
  8
0
  6
Continuous
 62
     7
100
AcDbLine
 10
677.2935873089792
 20
145.1747844822762
 30
0.0
 11
713.070674948976
 21
137.871817048874
 31
0.0
  0
LINE
  5
9A9
330
921
100
AcDbEntity
  8
0
  6
Continuous
 62
     7
100
AcDbLine
 10
713.0706749489761
 20
137.871817048874
 30
0.0
 11
710.9240496905763
 21
136.1191048651349
 31
0.0
  0
LINE
  5
9AA
330
921
100
AcDbEntity
  8
0
  6
Continuous
 62
     7
100
AcDbLine
 10
713.0706749489761
 20
137.871817048874
 30
0.0
 11
713.0706749487918
 21
131.9255862784074
 31
0.0
  0
LINE
  5
9AB
330
921
100
AcDbEntity
  8
0
  6
Continuous
 62
     7
100
AcDbLine
 10
677.8588652935202
 20
138.9979346262702
 30
0.0
 11
677.8588652935949
 21
141.4079138801181
 31
0.0
  0
ELLIPSE
  5
9AC
330
921
100
AcDbEntity
  8
0
  6
Continuous
 62
     7
100
AcDbEllipse
 10
679.647719675595
 20
141.042765508448
 30
0.0
 11
-1.264911063947216
 21
1.549193338581056
 31
0.0
210
0.0
220
0.0
230
1.0
 40
0.8164965809535729
 41
0.6898170900535466
 42
0.7853981634607634
  0
ELLIPSE
  5
9AD
330
921
100
AcDbEntity
  8
0
  6
Continuous
 62
     7
100
AcDbEllipse
 10
678.0377507317949
 20
139.7282313706437
 30
0.0
 11
-1.264911063947216
 21
1.549193338581056
 31
-0.0000000000000001
210
0.0
220
0.0
230
1.0
 40
0.8164965809535729
 41
5.497787143845457
 42
6.283185307179588
  0
LINE
  5
9AE
330
921
100
AcDbEntity
  8
0
  6
Continuous
 62
     9
100
AcDbLine
 10
676.2488963497952
 20
140.0933797423137
 30
0.0
 11
677.8588652935949
 21
141.4079138801181
 31
0.0
  0
LINE
  5
9AF
330
921
100
AcDbEntity
  8
0
  6
Continuous
 62
     7
100
AcDbLine
 10
708.4912077299685
 20
132.057249905288
 30
0.0
 11
708.4912077299685
 21
134.6804202798222
 31
0.0
  0
LINE
  5
9B0
330
921
100
AcDbEntity
  8
0
  6
Continuous
 62
     7
100
AcDbLine
 10
708.4912077299685
 20
134.6804202798222
 30
0.0
 11
708.5806504490688
 21
134.7534499541562
 31
0.0
  0
LINE
  5
9B1
330
921
100
AcDbEntity
  8
0
  6
Continuous
 62
     7
100
AcDbLine
 10
708.5806504490688
 20
132.0767172275931
 30
0.0
 11
708.5806504490688
 21
134.7534499541562
 31
0.0
  0
LINE
  5
9B2
330
921
100
AcDbEntity
  8
0
  6
Continuous
 62
     7
100
AcDbLine
 10
678.7424671458861
 20
138.8175701534307
 30
0.0
 11
678.7424671458861
 21
140.7528565232746
 31
0.0
  0
LINE
  5
9B3
330
921
100
AcDbEntity
  8
0
  6
Continuous
 62
     7
100
AcDbLine
 10
678.7424671458861
 20
140.7528565232746
 30
0.0
 11
708.4912077299689
 21
134.6804202798222
 31
0.0
  0
LINE
  5
9B4
330
921
100
AcDbEntity
  8
0
  6
Continuous
 62
     7
100
AcDbLine
 10
678.6428419207652
 20
141.4304595073161
 30
0.0
 11
678.742467145886
 21
140.7528565232746
 31
0.0
  0
LINE
  5
9B5
330
921
100
AcDbEntity
  8
0
  6
Continuous
 62
     7
100
AcDbLine
 10
708.5806504490688
 20
134.7534499541562
 30
0.0
 11
708.0323513951505
 21
135.4249764084315
 31
0.0
  0
LINE
  5
9B6
330
921
100
AcDbEntity
  8
0
  6
Continuous
 62
     7
100
AcDbLine
 10
678.5100082876653
 20
138.8650206191666
 30
0.0
 11
678.5100082876653
 21
141.4575740591307
 31
0.0
  0
ELLIPSE
  5
9B7
330
921
100
AcDbEntity
  8
0
  6
Continuous
 62
     7
100
AcDbEllipse
 10
710.5305017254559
 20
111.3328333952415
 30
0.0
 11
6.000000000000002
 21
0.0
 31
0.0
210
0.0
220
0.0000000000000001
230
1.0
 40
0.4082482904638633
 41
2.882671111755703
 42
3.141592653589796
  0
ELLIPSE
  5
9B8
330
921
100
AcDbEntity
  8
0
  6
Continuous
 62
     7
100
AcDbEllipse
 10
710.5305017254559
 20
111.3328333952415
 30
0.0
 11
6.000000000000002
 21
0.0
 31
0.0
210
0.0
220
0.0000000000000001
230
1.0
 40
0.4082482904638633
 41
3.141592653589797
 42
6.283185307179588
  0
ELLIPSE
  5
9B9
330
921
100
AcDbEntity
  8
0
  6
Continuous
 62
     7
100
AcDbEllipse
 10
710.5305017254559
 20
74.81799622823047
 30
0.0
 11
-6.000000000000002
 21
0.0
 31
0.0
210
0.0
220
0.0000000000000001
230
1.0
 40
0.4082482904638633
 41
0.0000000000000006
 42
0.9623152220567853
  0
ELLIPSE
  5
9BA
330
921
100
AcDbEntity
  8
0
  6
Continuous
 62
     7
100
AcDbEllipse
 10
710.5305017254559
 20
74.81799622823047
 30
0.0
 11
-6.000000000000002
 21
0.0
 31
0.0000000000000002
210
0.0
220
0.0000000000000001
230
1.0
 40
0.4082482904638633
 41
0.9623152220567854
 42
1.26422835047358
  0
ELLIPSE
  5
9BB
330
921
100
AcDbEntity
  8
0
  6
Continuous
 62
     7
100
AcDbEllipse
 10
710.5305017254559
 20
74.81799622823047
 30
0.0
 11
-6.000000000000002
 21
0.0
 31
0.0000000000000001
210
0.0
220
0.0000000000000001
230
1.0
 40
0.4082482904638633
 41
1.26422835047358
 42
3.141592653589792
  0
ELLIPSE
  5
9BC
330
921
100
AcDbEntity
  8
0
  6
Continuous
 62
     7
100
AcDbEllipse
 10
710.5305017254559
 20
111.3328333952415
 30
0.0
 11
6.000000000000002
 21
0.0
 31
0.0
210
0.0
220
0.0000000000000001
230
1.0
 40
0.4082482904638633
 41
0.0
 42
0.2589215421783498
  0
LINE
  5
9BD
330
921
100
AcDbEntity
  8
0
  6
Continuous
 62
     7
100
AcDbLine
 10
704.5305017264099
 20
113.1053008239435
 30
0.0
 11
704.2695113884565
 21
113.1585752535921
 31
0.0
  0
LINE
  5
9BE
330
921
100
AcDbEntity
  8
0
  6
Continuous
 62
     7
100
AcDbLine
 10
704.2695113884565
 20
113.1585752535921
 30
0.0
 11
704.5305017264182
 21
113.3716729721931
 31
0.0
  0
LINE
  5
9BF
330
921
100
AcDbEntity
  8
0
  6
Continuous
 62
     7
100
AcDbLine
 10
669.2079655012597
 20
65.54322758780966
 30
0.0
 11
669.2079655012597
 21
138.5729019218318
 31
0.0
  0
LINE
  5
9C0
330
921
100
AcDbEntity
  8
0
  6
Continuous
 62
     7
100
AcDbLine
 10
669.2079655012597
 20
138.5729019218318
 30
0.0
 11
704.2695113884564
 21
131.4159938370975
 31
0.0
  0
LINE
  5
9C1
330
921
100
AcDbEntity
  8
0
  6
Continuous
 62
     7
100
AcDbLine
 10
704.2695113884565
 20
113.1585752535921
 30
0.0
 11
704.2695113884565
 21
131.4159938370975
 31
0.0
  0
LINE
  5
9C2
330
921
100
AcDbEntity
  8
0
  6
Continuous
 62
     7
100
AcDbLine
 10
704.2695113884565
 20
76.64373808658102
 30
0.0
 11
704.5305017254559
 21
76.59046365712723
 31
0.0
  0
LINE
  5
9C3
330
921
100
AcDbEntity
  8
0
  6
Continuous
 62
     7
100
AcDbLine
 10
704.2695113884565
 20
58.38631950307551
 30
0.0
 11
704.2695113884565
 21
76.64373808658105
 31
0.0
  0
LINE
  5
9C4
330
921
100
AcDbEntity
  8
0
  6
Continuous
 62
     7
100
AcDbLine
 10
669.2079655012597
 20
65.54322758780966
 30
0.0
 11
704.2695113884564
 21
58.38631950307551
 31
0.0
  0
LINE
  5
9C5
330
921
100
AcDbEntity
  8
0
  6
Continuous
 62
     7
100
AcDbLine
 10
706.4161366468562
 20
133.1687060211142
 30
0.0
 11
704.2695113884564
 21
131.4159938370977
 31
0.0
  0
LINE
  5
9C6
330
921
100
AcDbEntity
  8
0
  6
Continuous
 62
     7
100
AcDbLine
 10
706.4161366468562
 20
133.1687060211142
 30
0.0
 11
706.4161366468562
 21
131.3731335419758
 31
0.0
  0
LINE
  5
9C7
330
921
100
AcDbEntity
  8
0
  6
Continuous
 62
     7
100
AcDbLine
 10
671.3545907596596
 20
140.3256141058483
 30
0.0
 11
669.2079655012597
 21
138.5729019218318
 31
0.0
  0
LINE
  5
9C8
330
921
100
AcDbEntity
  8
0
  6
Continuous
 62
     7
100
AcDbLine
 10
706.4161366468562
 20
133.1687060211142
 30
0.0
 11
671.3545907596595
 21
140.3256141058483
 31
0.0
  0
LINE
  5
9C9
330
921
100
AcDbEntity
  8
0
  6
Continuous
 62
     7
100
AcDbLine
 10
704.5305017247032
 20
58.59941722027635
 30
0.0
 11
704.2695113884565
 21
58.38631950307551
 31
0.0
  0
LINE
  5
9CA
330
921
100
AcDbEntity
  8
0
  6
Continuous
 62
     7
100
AcDbLine
 10
726.7989062060008
 20
129.785282307074
 30
0.0
 11
726.6557978554406
 21
129.6684348281582
 31
0.0
  0
LINE
  5
9CB
330
921
100
AcDbEntity
  8
0
  6
Continuous
 62
     7
100
AcDbLine
 10
704.5305017269261
 20
129.5902519801353
 30
0.0
 11
704.5305017264001
 21
112.7934268828808
 31
0.0
  0
LINE
  5
9CC
330
921
100
AcDbEntity
  8
0
  6
Continuous
 62
     7
100
AcDbLine
 10
704.5305017251656
 20
73.35740274150078
 30
0.0
 11
704.5305017246396
 21
56.56057764424629
 31
0.0
  0
LINE
  5
9CD
330
921
100
AcDbEntity
  8
0
  6
Continuous
 62
     7
100
AcDbLine
 10
679.8771635530258
 20
139.363142918045
 30
0.0
 11
679.7340552024659
 21
139.2462954391106
 31
0.0
  0
LINE
  5
9CE
330
921
100
AcDbEntity
  8
0
  6
Continuous
 62
     7
100
AcDbLine
 10
714.8237522437751
 20
130.9047861179462
 30
0.0
 11
714.3228730167857
 21
131.3137522942295
 31
0.0
  0
LINE
  5
9CF
330
921
100
AcDbEntity
  8
0
  6
Continuous
 62
     7
100
AcDbLine
 10
706.7381304368892
 20
131.3137522939498
 30
0.0
 11
706.2372512099297
 21
130.9047861176295
 31
0.0
  0
LINE
  5
9D0
330
921
100
AcDbEntity
  8
0
  6
Continuous
 62
     7
100
AcDbLine
 10
705.7305017268848
 20
130.0284300257867
 30
0.0
 11
705.7305017269012
 21
129.5902519797742
 31
0.0
  0
LINE
  5
9D1
330
921
100
AcDbEntity
  8
0
  6
Continuous
 62
     7
100
AcDbLine
 10
715.3305017269009
 20
129.5902519801283
 30
0.0
 11
715.3305017268849
 21
130.0284300261409
 31
0.0
  0
LINE
  5
9D2
330
921
100
AcDbEntity
  8
0
  6
Continuous
 62
     7
100
AcDbLine
 10
716.3305017252111
 20
111.3328333952233
 30
0.0
 11
716.3305017251912
 21
111.9649049488706
 31
0.0
  0
LINE
  5
9D3
330
921
100
AcDbEntity
  8
0
  6
Continuous
 62
     7
100
AcDbLine
 10
704.7305017251849
 20
112.1662639607232
 30
0.0
 11
704.730501725211
 21
111.33283339486
 31
0.0
  0
LINE
  5
9D4
330
921
100
AcDbEntity
  8
0
  6
Continuous
 62
     7
100
AcDbLine
 10
704.7305017251916
 20
74.19083330456358
 30
0.0
 11
704.7305017251813
 21
73.86861046184574
 31
0.0
  0
LINE
  5
9D5
330
921
100
AcDbEntity
  8
0
  6
Continuous
 62
     7
100
AcDbLine
 10
716.3305017251814
 20
73.86861046148256
 30
0.0
 11
716.3305017251916
 21
74.19083330374892
 31
0.0
  0
LINE
  5
9D6
330
921
100
AcDbEntity
  8
0
  6
Continuous
 62
     7
100
AcDbLine
 10
704.5305017254559
 20
111.3328333952415
 30
0.0
 11
704.5305017254559
 21
74.81799622823048
 31
0.0
  0
LINE
  5
9D7
330
921
100
AcDbEntity
  8
0
  6
Continuous
 62
     7
100
AcDbLine
 10
716.5305017254559
 20
74.81799622823047
 30
0.0
 11
716.5305017254559
 21
111.3328333952415
 31
0.0
  0
ENDBLK
  5
9D8
330
921
100
AcDbEntity
  8
0
100
AcDbBlockEnd
  0
BLOCK
  5
9E8
330
9E7
100
AcDbEntity
  8
0
100
AcDbBlockBegin
  2
AID5515
 70
     0
 10
0.0
 20
0.0
 30
0.0
  3
AID5515
  1

  0
MTEXT
  5
9E9
330
9E7
100
AcDbEntity
  8
0
 62
     7
100
AcDbMText
 10
642.7600732600732
 20
301.5
 30
0.0
 40
8.0
 41
40.38095238095218
 71
     7
 72
     1
  1
8652
 73
     1
 44
1.0
1001
ACAD
1000
MTEXTBEGIN
1070
    73
1070
     1
1070
    44
1040
1.0
1070
    74
1070
     0
1000
MTEXTEND
  0
ENDBLK
  5
9EA
330
9E7
100
AcDbEntity
  8
0
100
AcDbBlockEnd
  0
BLOCK
  5
C65
330
C64
100
AcDbEntity
  8
0
370
     0
100
AcDbBlockBegin
  2
*D25
 70
     1
 10
0.0
 20
0.0
 30
0.0
  3
*D25
  1

  0
LINE
  5
C67
330
C64
100
AcDbEntity
  8
0
  6
Continuous
 62
     7
370
     0
100
AcDbLine
 10
550.8000000012343
 20
238.0000000024337
 30
0.0
 11
648.5337764167006
 21
238.0000000024337
 31
0.0
  0
LINE
  5
C68
330
C64
100
AcDbEntity
  8
0
  6
Continuous
 62
     7
370
     0
100
AcDbLine
 10
550.8000000036946
 20
188.0000000024337
 30
0.0
 11
648.5337764167006
 21
188.0000000024336
 31
0.0
  0
LINE
  5
C69
330
C64
100
AcDbEntity
  8
0
  6
Continuous
 62
     7
370
     0
100
AcDbLine
 10
647.7837764167007
 20
236.7500000024337
 30
0.0
 11
647.7837764167007
 21
189.2500000024336
 31
0.0
  0
SOLID
  5
C6A
330
C64
100
AcDbEntity
  8
0
  6
Continuous
 62
     7
370
     0
100
AcDbTrace
 10
647.5754430833672
 20
236.7500000024337
 30
0.0
 11
647.992109750034
 21
236.7500000024337
 31
0.0
 12
647.7837764167007
 22
238.0000000024337
 32
0.0
 13
647.7837764167007
 23
238.0000000024337
 33
0.0
  0
SOLID
  5
C6B
330
C64
100
AcDbEntity
  8
0
  6
Continuous
 62
     7
370
     0
100
AcDbTrace
 10
647.5754430833672
 20
189.2500000024336
 30
0.0
 11
647.992109750034
 21
189.2500000024336
 31
0.0
 12
647.7837764167007
 22
188.0000000024336
 32
0.0
 13
647.7837764167007
 23
188.0000000024336
 33
0.0
  0
MTEXT
  5
C6C
330
C64
100
AcDbEntity
  8
0
  6
Continuous
 62
     7
370
     0
100
AcDbMText
 10
645.2782859335382
 20
213.0000000024338
 30
0.0
 40
2.5
 41
0.0
 71
     5
 72
     1
  1
\A1;50.00
 11
0.0000000000000001
 21
1.0
 31
0.0
 73
     1
 44
1.0
1001
ACAD
1000
MTEXTBEGIN
1070
    73
1070
     1
1070
    44
1040
1.0
1070
    74
1070
     0
1000
MTEXTEND
  0
POINT
  5
C6D
330
C64
100
AcDbEntity
  8
Defpoints
  6
Continuous
 62
     0
370
     0
100
AcDbPoint
 10
550.8000000012343
 20
238.0000000024337
 30
0.0
  0
POINT
  5
C6E
330
C64
100
AcDbEntity
  8
Defpoints
  6
Continuous
 62
     0
370
     0
100
AcDbPoint
 10
550.8000000036946
 20
188.0000000024337
 30
0.0
  0
POINT
  5
C6F
330
C64
100
AcDbEntity
  8
Defpoints
  6
Continuous
 62
     0
370
     0
100
AcDbPoint
 10
647.7837764167007
 20
188.0000000024336
 30
0.0
  0
ENDBLK
  5
C66
330
C64
100
AcDbEntity
  8
0
370
     0
100
AcDbBlockEnd
  0
BLOCK
  5
C72
330
C71
100
AcDbEntity
  8
0
370
     0
100
AcDbBlockBegin
  2
*D26
 70
     1
 10
0.0
 20
0.0
 30
0.0
  3
*D26
  1

  0
LINE
  5
C74
330
C71
100
AcDbEntity
  8
0
  6
Continuous
 62
     7
370
     0
100
AcDbLine
 10
534.9999999987962
 20
253.7999999999965
 30
0.0
 11
534.9999999987962
 21
281.2759116099942
 31
0.0
  0
LINE
  5
C75
330
C71
100
AcDbEntity
  8
0
  6
Continuous
 62
     7
370
     0
100
AcDbLine
 10
601.9999999987962
 20
253.7999999999965
 30
0.0
 11
601.9999999987962
 21
281.2759116099942
 31
0.0
  0
LINE
  5
C76
330
C71
100
AcDbEntity
  8
0
  6
Continuous
 62
     7
370
     0
100
AcDbLine
 10
536.2499999987961
 20
280.5259116099942
 30
0.0
 11
600.7499999987961
 21
280.5259116099942
 31
0.0
  0
SOLID
  5
C77
330
C71
100
AcDbEntity
  8
0
  6
Continuous
 62
     7
370
     0
100
AcDbTrace
 10
536.2499999987961
 20
280.7342449433275
 30
0.0
 11
536.2499999987961
 21
280.3175782766609
 31
0.0
 12
534.9999999987962
 22
280.5259116099942
 32
0.0
 13
534.9999999987962
 23
280.5259116099942
 33
0.0
  0
SOLID
  5
C78
330
C71
100
AcDbEntity
  8
0
  6
Continuous
 62
     7
370
     0
100
AcDbTrace
 10
600.7499999987961
 20
280.7342449433275
 30
0.0
 11
600.7499999987961
 21
280.3175782766609
 31
0.0
 12
601.9999999987962
 22
280.5259116099942
 32
0.0
 13
601.9999999987962
 23
280.5259116099942
 33
0.0
  0
MTEXT
  5
C79
330
C71
100
AcDbEntity
  8
0
  6
Continuous
 62
     7
370
     0
100
AcDbMText
 10
568.4999999987962
 20
283.0314020931567
 30
0.0
 40
2.5
 41
0.0
 71
     5
 72
     1
  1
\A1;67.00
 73
     1
 44
1.0
1001
ACAD
1000
MTEXTBEGIN
1070
    73
1070
     1
1070
    44
1040
1.0
1070
    74
1070
     0
1000
MTEXTEND
  0
POINT
  5
C7A
330
C71
100
AcDbEntity
  8
Defpoints
  6
Continuous
 62
     0
370
     0
100
AcDbPoint
 10
534.9999999987962
 20
253.7999999999965
 30
0.0
  0
POINT
  5
C7B
330
C71
100
AcDbEntity
  8
Defpoints
  6
Continuous
 62
     0
370
     0
100
AcDbPoint
 10
601.9999999987962
 20
253.7999999999965
 30
0.0
  0
POINT
  5
C7C
330
C71
100
AcDbEntity
  8
Defpoints
  6
Continuous
 62
     0
370
     0
100
AcDbPoint
 10
601.9999999987962
 20
280.5259116099942
 30
0.0
  0
ENDBLK
  5
C73
330
C71
100
AcDbEntity
  8
0
370
     0
100
AcDbBlockEnd
  0
ENDSEC
  0
SECTION
  2
ENTITIES
  0
INSERT
  5
760
330
A
100
AcDbEntity
  8
0
100
AcDbBlockReference
  2
AID4085
 10
0.0
 20
0.0
 30
0.0
  0
INSERT
  5
7C2
330
A
100
AcDbEntity
  8
0
100
AcDbBlockReference
  2
AID4247
 10
0.0
 20
0.0
 30
0.0
  0
INSERT
  5
822
330
A
100
AcDbEntity
  8
0
100
AcDbBlockReference
  2
AID4439
 10
0.0
 20
0.0
 30
0.0
  0
INSERT
  5
8A5
330
A
100
AcDbEntity
  8
0
100
AcDbBlockReference
  2
AID4627
 10
0.0
 20
0.0
 30
0.0
  0
INSERT
  5
920
330
A
100
AcDbEntity
  8
0
100
AcDbBlockReference
  2
AID4885
 10
0.0
 20
0.0
 30
0.0
  0
INSERT
  5
9D9
330
A
100
AcDbEntity
  8
0
100
AcDbBlockReference
  2
AID5127
 10
0.0
 20
0.0
 30
0.0
  0
INSERT
  5
9EB
330
A
100
AcDbEntity
  8
0
100
AcDbBlockReference
  2
AID5515
 10
0.0
 20
0.0
 30
0.0
  0
LINE
  5
9EC
330
A
100
AcDbEntity
  8
0
  6
CENTER
 62
     1
100
AcDbLine
 10
460.3499999987432
 20
189.499401767191
 30
0.0
 11
470.8499999987433
 21
189.499401767191
 31
0.0
  0
LINE
  5
9ED
330
A
100
AcDbEntity
  8
0
  6
CENTER
 62
     1
100
AcDbLine
 10
460.3499999987432
 20
239.4737148911266
 30
0.0
 11
470.8499999987433
 21
239.4737148911266
 31
0.0
  0
LINE
  5
9EE
330
A
100
AcDbEntity
  8
0
  6
CENTER
 62
     1
100
AcDbLine
 10
460.349999998158
 20
189.4999999886751
 30
0.0
 11
470.8499999981532
 21
189.4999999880042
 31
0.0
  0
LINE
  5
9EF
330
A
100
AcDbEntity
  8
0
  6
CENTER
 62
     1
100
AcDbLine
 10
460.3500000013506
 20
239.4999999864359
 30
0.0
 11
470.8500000013506
 21
239.4999999857649
 31
0.0
  0
LINE
  5
9F0
330
A
100
AcDbEntity
  8
0
  6
CENTER
 62
     1
100
AcDbLine
 10
458.1999999980612
 20
187.9999999996447
 30
0.0
 11
473.5999999987487
 21
187.9999999986605
 31
0.0
  0
LINE
  5
9F1
330
A
100
AcDbEntity
  8
0
  6
CENTER
 62
     1
100
AcDbLine
 10
458.2000000012568
 20
237.9999999996447
 30
0.0
 11
473.6000000019542
 21
237.9999999986606
 31
0.0
  0
LINE
  5
9F2
330
A
100
AcDbEntity
  8
0
  6
CENTER
 62
     1
100
AcDbLine
 10
452.7000000004421
 20
159.6999999999955
 30
0.0
 11
452.7000000029096
 21
266.3000000000045
 31
0.0
  0
LINE
  5
9F3
330
A
100
AcDbEntity
  8
0
  6
CENTER
 62
     1
100
AcDbLine
 10
535.0423596856179
 20
311.1500000012567
 30
0.0
 11
535.0423596856179
 21
300.6500000012567
 31
0.0
  0
LINE
  5
9F4
330
A
100
AcDbEntity
  8
0
  6
CENTER
 62
     1
100
AcDbLine
 10
534.7204209911242
 20
311.1500000012567
 30
0.0
 11
534.7204209911242
 21
300.6500000012567
 31
0.0
  0
LINE
  5
9F5
330
A
100
AcDbEntity
  8
0
  6
CENTER
 62
     1
100
AcDbLine
 10
601.9998130603412
 20
311.150000001842
 30
0.0
 11
601.9998130603412
 21
300.6500000018467
 31
0.0
  0
LINE
  5
9F6
330
A
100
AcDbEntity
  8
0
  6
CENTER
 62
     1
100
AcDbLine
 10
559.0000000000343
 20
318.8000000035362
 30
0.0
 11
578.0000000000342
 21
318.8000000035362
 31
0.0
  0
LINE
  5
9F7
330
A
100
AcDbEntity
  8
0
  6
CENTER
 62
     1
100
AcDbLine
 10
568.5000000000342
 20
309.3000000035363
 30
0.0
 11
568.5000000000342
 21
328.3000000035362
 31
0.0
  0
LINE
  5
9F8
330
A
100
AcDbEntity
  8
0
  6
CENTER
 62
     1
100
AcDbLine
 10
535.0000000000342
 20
313.3000000012548
 30
0.0
 11
535.0000000000342
 21
297.9000000012527
 31
0.0
  0
LINE
  5
9F9
330
A
100
AcDbEntity
  8
0
  6
CENTER
 62
     1
100
AcDbLine
 10
602.0000000000342
 20
313.3000000019387
 30
0.0
 11
602.0000000000342
 21
297.9000000012513
 31
0.0
  0
LINE
  5
9FA
330
A
100
AcDbEntity
  8
0
  6
CENTER
 62
     1
100
AcDbLine
 10
568.5000000050941
 20
159.6999999999955
 30
0.0
 11
568.4999999998337
 21
266.3000000000045
 31
0.0
  0
LINE
  5
9FB
330
A
100
AcDbEntity
  8
0
  6
CENTER
 62
     1
100
AcDbLine
 10
535.0423596856179
 20
109.8499999987433
 30
0.0
 11
535.0423596856179
 21
120.3499999987433
 31
0.0
  0
LINE
  5
9FC
330
A
100
AcDbEntity
  8
0
  6
CENTER
 62
     1
100
AcDbLine
 10
534.7204209911242
 20
109.8499999987433
 30
0.0
 11
534.7204209911242
 21
120.3499999987433
 31
0.0
  0
LINE
  5
9FD
330
A
100
AcDbEntity
  8
0
  6
CENTER
 62
     1
100
AcDbLine
 10
601.9997958474736
 20
109.8500000013506
 30
0.0
 11
601.9997958474736
 21
120.3500000013506
 31
0.0
  0
LINE
  5
9FE
330
A
100
AcDbEntity
  8
0
  6
CENTER
 62
     1
100
AcDbLine
 10
559.0000000000343
 20
102.2000000028544
 30
0.0
 11
578.0000000000342
 21
102.2000000028544
 31
0.0
  0
LINE
  5
9FF
330
A
100
AcDbEntity
  8
0
  6
CENTER
 62
     1
100
AcDbLine
 10
568.5000000000342
 20
92.70000000285447
 30
0.0
 11
568.5000000000342
 21
111.7000000028544
 31
0.0
  0
LINE
  5
A00
330
A
100
AcDbEntity
  8
0
  6
CENTER
 62
     1
100
AcDbLine
 10
602.0000000000342
 20
107.7000000012568
 30
0.0
 11
602.0000000000342
 21
123.1000000019542
 31
0.0
  0
LINE
  5
A01
330
A
100
AcDbEntity
  8
0
  6
CENTER
 62
     1
100
AcDbLine
 10
535.0000000000342
 20
107.6999999987452
 30
0.0
 11
535.0000000000342
 21
123.0999999987515
 31
0.0
  0
LINE
  5
A02
330
A
100
AcDbEntity
  8
0
  6
CENTER
 62
     1
100
AcDbLine
 10
681.6500000012569
 20
189.499401767191
 30
0.0
 11
671.1500000012569
 21
189.499401767191
 31
0.0
  0
LINE
  5
A03
330
A
100
AcDbEntity
  8
0
  6
CENTER
 62
     1
100
AcDbLine
 10
681.6500000012569
 20
239.4737148911266
 30
0.0
 11
671.1500000012569
 21
239.4737148911266
 31
0.0
  0
LINE
  5
A04
330
A
100
AcDbEntity
  8
0
  6
CENTER
 62
     1
100
AcDbLine
 10
681.6500000018423
 20
189.4999999886751
 30
0.0
 11
671.1500000018467
 21
189.4999999880042
 31
0.0
  0
LINE
  5
A05
330
A
100
AcDbEntity
  8
0
  6
CENTER
 62
     1
100
AcDbLine
 10
681.6499999986496
 20
239.4999999864359
 30
0.0
 11
671.1499999986496
 21
239.4999999857649
 31
0.0
  0
LINE
  5
A06
330
A
100
AcDbEntity
  8
0
  6
CENTER
 62
     1
100
AcDbLine
 10
683.8000000012547
 20
237.999999999996
 30
0.0
 11
668.4000000012488
 21
237.999999999996
 31
0.0
  0
LINE
  5
A07
330
A
100
AcDbEntity
  8
0
  6
CENTER
 62
     1
100
AcDbLine
 10
683.8000000012547
 20
187.999999999996
 30
0.0
 11
668.4000000012529
 21
187.999999999996
 31
0.0
  0
LINE
  5
A08
330
A
100
AcDbEntity
  8
0
  6
CENTER
 62
     1
100
AcDbLine
 10
689.2999999995581
 20
159.6999999999955
 30
0.0
 11
689.2999999970903
 21
266.3000000000045
 31
0.0
  0
LINE
  5
C4D
330
A
100
AcDbEntity
  8
0
  6
CENTER
 62
     1
370
     0
100
AcDbLine
 10
602.0000000036714
 20
222.1999999999957
 30
0.0
 11
601.9999999987962
 21
253.7999999999965
 31
0.0
  0
CIRCLE
  5
C4E
330
A
100
AcDbEntity
  8
0
  6
CENTER
 62
     1
370
     0
100
AcDbCircle
 10
602.0000000012338
 20
237.9999999999961
 30
0.0
 40
9.0
  0
LINE
  5
C4F
330
A
100
AcDbEntity
  8
0
  6
CENTER
 62
     1
370
     0
100
AcDbLine
 10
617.8000000012342
 20
238.0000000024337
 30
0.0
 11
586.2000000012334
 21
237.9999999975585
 31
0.0
  0
LINE
  5
C50
330
A
100
AcDbEntity
  8
0
  6
CENTER
 62
     1
370
     0
100
AcDbLine
 10
602.0000000061318
 20
172.1999999999956
 30
0.0
 11
602.0000000012565
 21
203.7999999999965
 31
0.0
  0
CIRCLE
  5
C51
330
A
100
AcDbEntity
  8
0
  6
CENTER
 62
     1
370
     0
100
AcDbCircle
 10
602.0000000036942
 20
187.999999999996
 30
0.0
 40
9.0
  0
LINE
  5
C52
330
A
100
AcDbEntity
  8
0
  6
CENTER
 62
     1
370
     0
100
AcDbLine
 10
617.8000000036945
 20
188.0000000024337
 30
0.0
 11
586.2000000036938
 21
187.9999999975584
 31
0.0
  0
LINE
  5
C53
330
A
100
AcDbEntity
  8
0
  6
CENTER
 62
     1
370
     0
100
AcDbLine
 10
535.0000000061319
 20
172.1999999999956
 30
0.0
 11
535.0000000012565
 21
203.7999999999965
 31
0.0
  0
CIRCLE
  5
C54
330
A
100
AcDbEntity
  8
0
  6
CENTER
 62
     1
370
     0
100
AcDbCircle
 10
535.0000000036942
 20
187.999999999996
 30
0.0
 40
9.0
  0
LINE
  5
C55
330
A
100
AcDbEntity
  8
0
  6
CENTER
 62
     1
370
     0
100
AcDbLine
 10
550.8000000036946
 20
188.0000000024337
 30
0.0
 11
519.2000000036938
 21
187.9999999975584
 31
0.0
  0
LINE
  5
C56
330
A
100
AcDbEntity
  8
0
  6
CENTER
 62
     1
370
     0
100
AcDbLine
 10
535.0000000036714
 20
222.1999999999957
 30
0.0
 11
534.9999999987962
 21
253.7999999999965
 31
0.0
  0
CIRCLE
  5
C57
330
A
100
AcDbEntity
  8
0
  6
CENTER
 62
     1
370
     0
100
AcDbCircle
 10
535.0000000012338
 20
237.9999999999961
 30
0.0
 40
9.0
  0
LINE
  5
C58
330
A
100
AcDbEntity
  8
0
  6
CENTER
 62
     1
370
     0
100
AcDbLine
 10
550.8000000012343
 20
238.0000000024337
 30
0.0
 11
519.2000000012334
 21
237.9999999975585
 31
0.0
  0
ENDSEC
  0
SECTION
  2
OBJECTS
  0
DICTIONARY
  5
19
330
0
100
AcDbDictionary
281
     1
  3
ACAD_COLOR
350
B6A
  3
ACAD_GROUP
350
1A
  3
ACAD_LAYOUT
350
1E
  3
ACAD_MATERIAL
350
B40
  3
ACAD_MLEADERSTYLE
350
B8F
  3
ACAD_MLINESTYLE
350
1B
  3
ACAD_PLOTSETTINGS
350
22
  3
ACAD_PLOTSTYLENAME
350
1F
  3
ACAD_SCALELIST
350
B6D
  3
ACAD_TABLESTYLE
350
B6B
  3
ACAD_VISUALSTYLE
350
B59
  3
ACAD_WIPEOUT_VARS
350
23
  3
ACDB_RECOMPOSE_DATA
350
B9D
  3
AcDbVariableDictionary
350
B9E
  3
ASE_INDEX_DICTIONARY
350
BAF
  3
DWGPROPS
350
CA8
  0
DICTIONARY
  5
B99
330
14
100
AcDbDictionary
280
     1
281
     1
  3
ADSK_XREC_LAYER_RECONCILED
360
B9A
  0
DICTIONARY
  5
B6A
102
{ACAD_REACTORS
330
19
102
}
330
19
100
AcDbDictionary
281
     1
  0
DICTIONARY
  5
1A
102
{ACAD_REACTORS
330
19
102
}
330
19
100
AcDbDictionary
281
     1
  0
DICTIONARY
  5
1E
102
{ACAD_REACTORS
330
19
102
}
330
19
100
AcDbDictionary
281
     1
  3
Layout1
350
21
  3
Model
350
20
  0
DICTIONARY
  5
B40
102
{ACAD_REACTORS
330
19
102
}
330
19
100
AcDbDictionary
281
     1
  3
ByBlock
350
B49
  3
ByLayer
350
B41
  3
Global
350
B51
  0
DICTIONARY
  5
B8F
102
{ACAD_REACTORS
330
19
102
}
330
19
100
AcDbDictionary
281
     1
  3
Standard
350
B90
  0
DICTIONARY
  5
1B
102
{ACAD_REACTORS
330
19
102
}
330
19
100
AcDbDictionary
281
     1
  3
Standard
350
1C
  0
DICTIONARY
  5
22
102
{ACAD_REACTORS
330
19
102
}
330
19
100
AcDbDictionary
281
     1
  0
ACDBDICTIONARYWDFLT
  5
1F
102
{ACAD_REACTORS
330
19
102
}
330
19
100
AcDbDictionary
281
     1
  3
Normal
350
1D
100
AcDbDictionaryWithDefault
340
1D
  0
DICTIONARY
  5
B6D
102
{ACAD_REACTORS
330
19
102
}
330
19
100
AcDbDictionary
281
     1
  3
A0
350
B6E
  3
A1
350
B6F
  3
A2
350
B70
  3
A3
350
B71
  3
A4
350
B72
  3
A5
350
B73
  3
A6
350
B74
  3
A7
350
B75
  3
A8
350
B76
  3
A9
350
B77
  3
B0
350
B78
  3
B1
350
B79
  3
B2
350
B7A
  3
B3
350
B7B
  3
B4
350
B7C
  3
B5
350
B7D
  3
B6
350
B7E
  3
B7
350
B7F
  3
B8
350
B80
  3
B9
350
B81
  3
C0
350
B82
  3
C1
350
B83
  3
C2
350
B84
  3
C3
350
B85
  3
C4
350
B86
  3
C5
350
B87
  3
C6
350
B88
  3
C7
350
B89
  3
C8
350
B8A
  3
C9
350
B8B
  3
D0
350
B8C
  3
D1
350
B8D
  3
D2
350
B8E
  0
DICTIONARY
  5
B6B
102
{ACAD_REACTORS
330
19
102
}
330
19
100
AcDbDictionary
281
     1
  3
Standard
350
B6C
  0
DICTIONARY
  5
B59
102
{ACAD_REACTORS
330
19
102
}
330
19
100
AcDbDictionary
281
     1
  3
2dWireframe
350
B5F
  3
3D Hidden
350
B61
  3
3dWireframe
350
B60
  3
Basic
350
B5E
  3
Brighten
350
B65
  3
ColorChange
350
B69
  3
Conceptual
350
B62
  3
Dim
350
B64
  3
Facepattern
350
B68
  3
Flat
350
B5A
  3
FlatWithEdges
350
B5B
  3
Gouraud
350
B5C
  3
GouraudWithEdges
350
B5D
  3
Linepattern
350
B67
  3
Realistic
350
B63
  3
Thicken
350
B66
  0
WIPEOUTVARIABLES
  5
23
330
19
100
AcDbWipeoutVariables
 70
     1
  0
XRECORD
  5
B9D
102
{ACAD_REACTORS
330
19
102
}
330
19
100
AcDbXrecord
280
     1
 90
        1
330
B6C
  0
DICTIONARY
  5
B9E
102
{ACAD_REACTORS
330
19
102
}
330
19
100
AcDbDictionary
281
     1
  3
CANNOSCALE
350
BA2
  3
CMLEADERSTYLE
350
BA0
  3
CTABLESTYLE
350
B9F
  3
DIMASSOC
350
BB4
  3
INDEXCTL
350
BB3
  3
LIGHTINGUNITS
350
BA3
  3
MSLTSCALE
350
BA1
  3
SORTENTS
350
BB2
  0
DICTIONARY
  5
BAF
102
{ACAD_REACTORS
330
19
102
}
330
19
100
AcDbDictionary
281
     1
  3
ASEBlockHierarchyIndexRecord
350
BB0
1001
DCO15
1040
1691737320.791
  0
XRECORD
  5
CA8
102
{ACAD_REACTORS
330
19
102
}
330
19
100
AcDbXrecord
280
     1
  1
DWGPROPS COOKIE
  2

  3

  4

  6

  7

  8
renzo.ceresoli
  9

300
=
301
=
302
=
303
=
304
=
305
=
306
=
307
=
308
=
309
=
 40
0.0473853356481482
 41
2455383.581053241
 42
2455383.563573218
  1

 90
        0
  0
XRECORD
  5
B9A
102
{ACAD_REACTORS
330
B99
102
}
330
B99
100
AcDbXrecord
280
     1
290
     1
  0
LAYOUT
  5
21
102
{ACAD_XDICTIONARY
360
CAB
102
}
102
{ACAD_REACTORS
330
1E
102
}
330
1E
100
AcDbPlotSettings
  1

  2

  4

  6

 40
0.0
 41
0.0
 42
0.0
 43
0.0
 44
0.0
 45
0.0
 46
0.0
 47
0.0
 48
0.0
 49
0.0
140
0.0
141
0.0
142
1.0
143
1.0
 70
     0
 72
     0
 73
     0
 74
     0
  7

 75
     0
147
1.0
148
0.0
149
0.0
100
AcDbLayout
  1
Layout1
 70
     0
 71
     1
 10
0.0
 20
0.0
 11
12.0
 21
9.0
 12
0.0
 22
0.0
 32
0.0
 14
1.000000000000000E+20
 24
1.000000000000000E+20
 34
1.000000000000000E+20
 15
-1.000000000000000E+20
 25
-1.000000000000000E+20
 35
-1.000000000000000E+20
146
0.0
 13
0.0
 23
0.0
 33
0.0
 16
1.0
 26
0.0
 36
0.0
 17
0.0
 27
1.0
 37
0.0
 76
     0
330
B
  0
LAYOUT
  5
20
102
{ACAD_XDICTIONARY
360
CA9
102
}
102
{ACAD_REACTORS
330
1E
102
}
330
1E
100
AcDbPlotSettings
  1

  2

  4

  6

 40
0.0
 41
0.0
 42
0.0
 43
0.0
 44
0.0
 45
0.0
 46
0.0
 47
0.0
 48
0.0
 49
0.0
140
0.0
141
0.0
142
1.0
143
1.0
 70
  1024
 72
     0
 73
     0
 74
     0
  7

 75
     0
147
1.0
148
0.0
149
0.0
100
AcDbLayout
  1
Model
 70
     0
 71
     0
 10
0.0
 20
0.0
 11
0.0
 21
0.0
 12
0.0
 22
0.0
 32
0.0
 14
0.0
 24
0.0
 34
0.0
 15
0.0
 25
0.0
 35
0.0
146
0.0
 13
0.0
 23
0.0
 33
0.0
 16
0.0
 26
0.0
 36
0.0
 17
0.0
 27
0.0
 37
0.0
 76
     0
330
A
331
15
  0
MATERIAL
  5
B49
102
{ACAD_XDICTIONARY
360
B4A
102
}
102
{ACAD_REACTORS
330
B40
102
}
330
B40
100
AcDbMaterial
  1
ByBlock
 72
     0
 43
0.0208333333333333
 43
0.0
 43
0.0
 43
0.0
 43
0.0
 43
0.0208333333333333
 43
0.0
 43
0.0
 43
0.0
 43
0.0
 43
1.0
 43
0.0
 43
0.0
 43
0.0
 43
0.0
 43
1.0
 77
     0
 47
0.0208333333333333
 47
0.0
 47
0.0
 47
0.0
 47
0.0
 47
0.0208333333333333
 47
0.0
 47
0.0
 47
0.0
 47
0.0
 47
1.0
 47
0.0
 47
0.0
 47
0.0
 47
0.0
 47
1.0
171
     0
 49
0.0208333333333333
 49
0.0
 49
0.0
 49
0.0
 49
0.0
 49
0.0208333333333333
 49
0.0
 49
0.0
 49
0.0
 49
0.0
 49
1.0
 49
0.0
 49
0.0
 49
0.0
 49
0.0
 49
1.0
175
     0
142
0.0208333333333333
142
0.0
142
0.0
142
0.0
142
0.0
142
0.0208333333333333
142
0.0
142
0.0
142
0.0
142
0.0
142
1.0
142
0.0
142
0.0
142
0.0
142
0.0
142
1.0
179
     0
144
0.0208333333333333
144
0.0
144
0.0
144
0.0
144
0.0
144
0.0208333333333333
144
0.0
144
0.0
144
0.0
144
0.0
144
1.0
144
0.0
144
0.0
144
0.0
144
0.0
144
1.0
147
0.0208333333333333
147
0.0
147
0.0
147
0.0
147
0.0
147
0.0208333333333333
147
0.0
147
0.0
147
0.0
147
0.0
147
1.0
147
0.0
147
0.0
147
0.0
147
0.0
147
1.0
  0
MATERIAL
  5
B41
102
{ACAD_XDICTIONARY
360
B42
102
}
102
{ACAD_REACTORS
330
B40
102
}
330
B40
100
AcDbMaterial
  1
ByLayer
 72
     0
 43
0.0208333333333333
 43
0.0
 43
0.0
 43
0.0
 43
0.0
 43
0.0208333333333333
 43
0.0
 43
0.0
 43
0.0
 43
0.0
 43
1.0
 43
0.0
 43
0.0
 43
0.0
 43
0.0
 43
1.0
 77
     0
 47
0.0208333333333333
 47
0.0
 47
0.0
 47
0.0
 47
0.0
 47
0.0208333333333333
 47
0.0
 47
0.0
 47
0.0
 47
0.0
 47
1.0
 47
0.0
 47
0.0
 47
0.0
 47
0.0
 47
1.0
171
     0
 49
0.0208333333333333
 49
0.0
 49
0.0
 49
0.0
 49
0.0
 49
0.0208333333333333
 49
0.0
 49
0.0
 49
0.0
 49
0.0
 49
1.0
 49
0.0
 49
0.0
 49
0.0
 49
0.0
 49
1.0
175
     0
142
0.0208333333333333
142
0.0
142
0.0
142
0.0
142
0.0
142
0.0208333333333333
142
0.0
142
0.0
142
0.0
142
0.0
142
1.0
142
0.0
142
0.0
142
0.0
142
0.0
142
1.0
179
     0
144
0.0208333333333333
144
0.0
144
0.0
144
0.0
144
0.0
144
0.0208333333333333
144
0.0
144
0.0
144
0.0
144
0.0
144
1.0
144
0.0
144
0.0
144
0.0
144
0.0
144
1.0
147
0.0208333333333333
147
0.0
147
0.0
147
0.0
147
0.0
147
0.0208333333333333
147
0.0
147
0.0
147
0.0
147
0.0
147
1.0
147
0.0
147
0.0
147
0.0
147
0.0
147
1.0
  0
MATERIAL
  5
B51
102
{ACAD_XDICTIONARY
360
B52
102
}
102
{ACAD_REACTORS
330
B40
102
}
330
B40
100
AcDbMaterial
  1
Global
 72
     0
 43
0.0208333333333333
 43
0.0
 43
0.0
 43
0.0
 43
0.0
 43
0.0208333333333333
 43
0.0
 43
0.0
 43
0.0
 43
0.0
 43
1.0
 43
0.0
 43
0.0
 43
0.0
 43
0.0
 43
1.0
 77
     0
 47
0.0208333333333333
 47
0.0
 47
0.0
 47
0.0
 47
0.0
 47
0.0208333333333333
 47
0.0
 47
0.0
 47
0.0
 47
0.0
 47
1.0
 47
0.0
 47
0.0
 47
0.0
 47
0.0
 47
1.0
171
     0
 49
0.0208333333333333
 49
0.0
 49
0.0
 49
0.0
 49
0.0
 49
0.0208333333333333
 49
0.0
 49
0.0
 49
0.0
 49
0.0
 49
1.0
 49
0.0
 49
0.0
 49
0.0
 49
0.0
 49
1.0
175
     0
142
0.0208333333333333
142
0.0
142
0.0
142
0.0
142
0.0
142
0.0208333333333333
142
0.0
142
0.0
142
0.0
142
0.0
142
1.0
142
0.0
142
0.0
142
0.0
142
0.0
142
1.0
179
     0
144
0.0208333333333333
144
0.0
144
0.0
144
0.0
144
0.0
144
0.0208333333333333
144
0.0
144
0.0
144
0.0
144
0.0
144
1.0
144
0.0
144
0.0
144
0.0
144
0.0
144
1.0
147
0.0208333333333333
147
0.0
147
0.0
147
0.0
147
0.0
147
0.0208333333333333
147
0.0
147
0.0
147
0.0
147
0.0
147
1.0
147
0.0
147
0.0
147
0.0
147
0.0
147
1.0
  0
MLEADERSTYLE
  5
B90
102
{ACAD_REACTORS
330
B8F
102
}
330
B8F
100
AcDbMLeaderStyle
170
     2
171
     1
172
     0
 90
        2
 40
0.0
 41
0.0
173
     1
 91
-1056964608
340
11
 92
       -2
290
     1
 42
2.0
291
     1
 43
0.36
  3
Standard
 44
4.0
300

342
17
174
     1
178
     6
175
     1
176
     0
 93
-1056964608
 45
4.0
292
     0
297
     0
 46
4.0
 94
-1056964608
 47
1.0
 49
1.0
140
1.0
293
     1
141
0.0
294
     1
177
     0
142
1.0
295
     0
296
     0
143
0.125
1001
ACAD_MLEADERVER
1070
     2
  0
MLINESTYLE
  5
1C
102
{ACAD_REACTORS
330
1B
102
}
330
1B
100
AcDbMlineStyle
  2
STANDARD
 70
     0
  3

 62
     0
 51
90.0
 52
90.0
 71
     2
 49
0.5
 62
   256
  6
BYLAYER
 49
-0.5
 62
   256
  6
BYLAYER
  0
ACDBPLACEHOLDER
  5
1D
102
{ACAD_REACTORS
330
1F
102
}
330
1F
  0
SCALE
  5
B6E
102
{ACAD_REACTORS
330
B6D
102
}
330
B6D
100
AcDbScale
 70
     0
300
1:1
140
1.0
141
1.0
290
     1
  0
SCALE
  5
B6F
102
{ACAD_REACTORS
330
B6D
102
}
330
B6D
100
AcDbScale
 70
     0
300
1:2
140
1.0
141
2.0
290
     0
  0
SCALE
  5
B70
102
{ACAD_REACTORS
330
B6D
102
}
330
B6D
100
AcDbScale
 70
     0
300
1:4
140
1.0
141
4.0
290
     0
  0
SCALE
  5
B71
102
{ACAD_REACTORS
330
B6D
102
}
330
B6D
100
AcDbScale
 70
     0
300
1:5
140
1.0
141
5.0
290
     0
  0
SCALE
  5
B72
102
{ACAD_REACTORS
330
B6D
102
}
330
B6D
100
AcDbScale
 70
     0
300
1:8
140
1.0
141
8.0
290
     0
  0
SCALE
  5
B73
102
{ACAD_REACTORS
330
B6D
102
}
330
B6D
100
AcDbScale
 70
     0
300
1:10
140
1.0
141
10.0
290
     0
  0
SCALE
  5
B74
102
{ACAD_REACTORS
330
B6D
102
}
330
B6D
100
AcDbScale
 70
     0
300
1:16
140
1.0
141
16.0
290
     0
  0
SCALE
  5
B75
102
{ACAD_REACTORS
330
B6D
102
}
330
B6D
100
AcDbScale
 70
     0
300
1:20
140
1.0
141
20.0
290
     0
  0
SCALE
  5
B76
102
{ACAD_REACTORS
330
B6D
102
}
330
B6D
100
AcDbScale
 70
     0
300
1:30
140
1.0
141
30.0
290
     0
  0
SCALE
  5
B77
102
{ACAD_REACTORS
330
B6D
102
}
330
B6D
100
AcDbScale
 70
     0
300
1:40
140
1.0
141
40.0
290
     0
  0
SCALE
  5
B78
102
{ACAD_REACTORS
330
B6D
102
}
330
B6D
100
AcDbScale
 70
     0
300
1:50
140
1.0
141
50.0
290
     0
  0
SCALE
  5
B79
102
{ACAD_REACTORS
330
B6D
102
}
330
B6D
100
AcDbScale
 70
     0
300
1:100
140
1.0
141
100.0
290
     0
  0
SCALE
  5
B7A
102
{ACAD_REACTORS
330
B6D
102
}
330
B6D
100
AcDbScale
 70
     0
300
2:1
140
2.0
141
1.0
290
     0
  0
SCALE
  5
B7B
102
{ACAD_REACTORS
330
B6D
102
}
330
B6D
100
AcDbScale
 70
     0
300
4:1
140
4.0
141
1.0
290
     0
  0
SCALE
  5
B7C
102
{ACAD_REACTORS
330
B6D
102
}
330
B6D
100
AcDbScale
 70
     0
300
8:1
140
8.0
141
1.0
290
     0
  0
SCALE
  5
B7D
102
{ACAD_REACTORS
330
B6D
102
}
330
B6D
100
AcDbScale
 70
     0
300
10:1
140
10.0
141
1.0
290
     0
  0
SCALE
  5
B7E
102
{ACAD_REACTORS
330
B6D
102
}
330
B6D
100
AcDbScale
 70
     0
300
100:1
140
100.0
141
1.0
290
     0
  0
SCALE
  5
B7F
102
{ACAD_REACTORS
330
B6D
102
}
330
B6D
100
AcDbScale
 70
     0
300
1/128" = 1'-0"
140
0.0078125
141
12.0
290
     0
  0
SCALE
  5
B80
102
{ACAD_REACTORS
330
B6D
102
}
330
B6D
100
AcDbScale
 70
     0
300
1/64" = 1'-0"
140
0.015625
141
12.0
290
     0
  0
SCALE
  5
B81
102
{ACAD_REACTORS
330
B6D
102
}
330
B6D
100
AcDbScale
 70
     0
300
1/32" = 1'-0"
140
0.03125
141
12.0
290
     0
  0
SCALE
  5
B82
102
{ACAD_REACTORS
330
B6D
102
}
330
B6D
100
AcDbScale
 70
     0
300
1/16" = 1'-0"
140
0.0625
141
12.0
290
     0
  0
SCALE
  5
B83
102
{ACAD_REACTORS
330
B6D
102
}
330
B6D
100
AcDbScale
 70
     0
300
3/32" = 1'-0"
140
0.09375
141
12.0
290
     0
  0
SCALE
  5
B84
102
{ACAD_REACTORS
330
B6D
102
}
330
B6D
100
AcDbScale
 70
     0
300
1/8" = 1'-0"
140
0.125
141
12.0
290
     0
  0
SCALE
  5
B85
102
{ACAD_REACTORS
330
B6D
102
}
330
B6D
100
AcDbScale
 70
     0
300
3/16" = 1'-0"
140
0.1875
141
12.0
290
     0
  0
SCALE
  5
B86
102
{ACAD_REACTORS
330
B6D
102
}
330
B6D
100
AcDbScale
 70
     0
300
1/4" = 1'-0"
140
0.25
141
12.0
290
     0
  0
SCALE
  5
B87
102
{ACAD_REACTORS
330
B6D
102
}
330
B6D
100
AcDbScale
 70
     0
300
3/8" = 1'-0"
140
0.375
141
12.0
290
     0
  0
SCALE
  5
B88
102
{ACAD_REACTORS
330
B6D
102
}
330
B6D
100
AcDbScale
 70
     0
300
1/2" = 1'-0"
140
0.5
141
12.0
290
     0
  0
SCALE
  5
B89
102
{ACAD_REACTORS
330
B6D
102
}
330
B6D
100
AcDbScale
 70
     0
300
3/4" = 1'-0"
140
0.75
141
12.0
290
     0
  0
SCALE
  5
B8A
102
{ACAD_REACTORS
330
B6D
102
}
330
B6D
100
AcDbScale
 70
     0
300
1" = 1'-0"
140
1.0
141
12.0
290
     0
  0
SCALE
  5
B8B
102
{ACAD_REACTORS
330
B6D
102
}
330
B6D
100
AcDbScale
 70
     0
300
1-1/2" = 1'-0"
140
1.5
141
12.0
290
     0
  0
SCALE
  5
B8C
102
{ACAD_REACTORS
330
B6D
102
}
330
B6D
100
AcDbScale
 70
     0
300
3" = 1'-0"
140
3.0
141
12.0
290
     0
  0
SCALE
  5
B8D
102
{ACAD_REACTORS
330
B6D
102
}
330
B6D
100
AcDbScale
 70
     0
300
6" = 1'-0"
140
6.0
141
12.0
290
     0
  0
SCALE
  5
B8E
102
{ACAD_REACTORS
330
B6D
102
}
330
B6D
100
AcDbScale
 70
     0
300
1'-0" = 1'-0"
140
12.0
141
12.0
290
     0
  0
TABLESTYLE
  5
B6C
102
{ACAD_XDICTIONARY
360
B9B
102
}
102
{ACAD_REACTORS
330
B6B
102
}
330
B6B
100
AcDbTableStyle
  3
Standard
 70
     0
 71
     0
 40
1.5
 41
1.5
280
     0
281
     0
  7
Standard
140
4.5
170
     2
 62
     0
 63
     7
283
     0
274
    -2
284
     1
 64
     0
275
    -2
285
     1
 65
     0
276
    -2
286
     1
 66
     0
277
    -2
287
     1
 67
     0
278
    -2
288
     1
 68
     0
279
    -2
289
     1
 69
     0
  7
Standard
140
6.0
170
     5
 62
     0
 63
     7
283
     0
274
    -2
284
     1
 64
     0
275
    -2
285
     1
 65
     0
276
    -2
286
     1
 66
     0
277
    -2
287
     1
 67
     0
278
    -2
288
     1
 68
     0
279
    -2
289
     1
 69
     0
  7
Standard
140
4.5
170
     5
 62
     0
 63
     7
283
     0
274
    -2
284
     1
 64
     0
275
    -2
285
     1
 65
     0
276
    -2
286
     1
 66
     0
277
    -2
287
     1
 67
     0
278
    -2
288
     1
 68
     0
279
    -2
289
     1
 69
     0
  0
VISUALSTYLE
  5
B5F
102
{ACAD_REACTORS
330
B59
102
}
330
B59
100
AcDbVisualStyle
  2
2dWireframe
 70
     4
 71
     0
 72
     2
 73
     0
 90
        0
 40
-0.6
 41
-30.0
 62
     5
 63
     7
 74
     1
 91
        4
 64
     7
 65
   257
 75
     1
175
     1
 42
1.0
 92
        0
 66
   257
 43
1.0
 76
     1
 77
     6
 78
     2
 67
     7
 79
     5
170
     0
171
     0
290
     0
174
     0
 93
        1
 44
0.0
173
     0
291
     0
 45
0.0
1001
ACAD
1000
AcDbSavedByObjectVersion
1070
     0
1000
AcDbSavedByObjectVersion
1070
     0
1000
AcDbSavedByObjectVersion
1070
     0
1000
AcDbSavedByObjectVersion
1070
     0
  0
VISUALSTYLE
  5
B61
102
{ACAD_REACTORS
330
B59
102
}
330
B59
100
AcDbVisualStyle
  2
3D Hidden
 70
     6
 71
     1
 72
     2
 73
     2
 90
        0
 40
-0.6
 41
-30.0
 62
     5
 63
     7
 74
     2
 91
        2
 64
     7
 65
   257
 75
     2
175
     1
 42
40.0
 92
        0
 66
   257
 43
1.0
 76
     1
 77
     6
 78
     2
 67
     7
 79
     3
170
     0
171
     0
290
     0
174
     0
 93
        1
 44
0.0
173
     0
291
     0
 45
0.0
1001
ACAD
1000
AcDbSavedByObjectVersion
1070
     0
1000
AcDbSavedByObjectVersion
1070
     0
1000
AcDbSavedByObjectVersion
1070
     0
1000
AcDbSavedByObjectVersion
1070
     0
  0
VISUALSTYLE
  5
B60
102
{ACAD_REACTORS
330
B59
102
}
330
B59
100
AcDbVisualStyle
  2
3dWireframe
 70
     5
 71
     0
 72
     2
 73
     0
 90
        0
 40
-0.6
 41
-30.0
 62
     5
 63
     7
 74
     1
 91
        4
 64
     7
 65
   257
 75
     1
175
     1
 42
1.0
 92
        0
 66
   257
 43
1.0
 76
     1
 77
     6
 78
     2
 67
     7
 79
     5
170
     0
171
     0
290
     0
174
     0
 93
        1
 44
0.0
173
     0
291
     0
 45
0.0
1001
ACAD
1000
AcDbSavedByObjectVersion
1070
     0
1000
AcDbSavedByObjectVersion
1070
     0
1000
AcDbSavedByObjectVersion
1070
     0
1000
AcDbSavedByObjectVersion
1070
     0
  0
VISUALSTYLE
  5
B5E
102
{ACAD_REACTORS
330
B59
102
}
330
B59
100
AcDbVisualStyle
  2
Basic
 70
     7
 71
     1
 72
     0
 73
     1
 90
        0
 40
-0.6
 41
-30.0
 62
     5
 63
     7
 74
     0
 91
        4
 64
     7
 65
   257
 75
     1
175
     1
 42
1.0
 92
        8
 66
     7
 43
1.0
 76
     1
 77
     6
 78
     2
 67
     7
 79
     5
170
     0
171
     0
290
     0
174
     0
 93
        1
 44
0.0
173
     0
291
     1
 45
0.0
1001
ACAD
1000
AcDbSavedByObjectVersion
1070
     0
1000
AcDbSavedByObjectVersion
1070
     0
1000
AcDbSavedByObjectVersion
1070
     0
1000
AcDbSavedByObjectVersion
1070
     0
  0
VISUALSTYLE
  5
B65
102
{ACAD_REACTORS
330
B59
102
}
330
B59
100
AcDbVisualStyle
  2
Brighten
 70
    12
 71
     2
 72
     2
 73
     0
 90
        0
 40
-0.6
 41
-30.0
 62
     5
 63
     7
 74
     1
 91
        4
 64
     7
 65
   257
 75
     1
175
     1
 42
1.0
 92
        8
 66
     7
 43
1.0
 76
     1
 77
     6
 78
     2
 67
     7
 79
     5
170
     0
171
     0
290
     0
174
     0
 93
        1
 44
50.0
173
     0
291
     1
 45
0.0
1001
ACAD
1000
AcDbSavedByObjectVersion
1070
     0
1000
AcDbSavedByObjectVersion
1070
     0
1000
AcDbSavedByObjectVersion
1070
     0
1000
AcDbSavedByObjectVersion
1070
     0
  0
VISUALSTYLE
  5
B69
102
{ACAD_REACTORS
330
B59
102
}
330
B59
100
AcDbVisualStyle
  2
ColorChange
 70
    16
 71
     2
 72
     2
 73
     3
 90
        0
 40
-0.6
 41
-30.0
 62
     5
 63
     8
 74
     1
 91
        4
 64
     7
 65
   257
 75
     1
175
     1
 42
1.0
 92
        8
 66
     8
 43
1.0
 76
     1
 77
     6
 78
     2
 67
     7
 79
     5
170
     0
171
     0
290
     0
174
     0
 93
        1
 44
0.0
173
     0
291
     1
 45
0.0
1001
ACAD
1000
AcDbSavedByObjectVersion
1070
     0
1000
AcDbSavedByObjectVersion
1070
     0
1000
AcDbSavedByObjectVersion
1070
     0
1000
AcDbSavedByObjectVersion
1070
     0
  0
VISUALSTYLE
  5
B62
102
{ACAD_REACTORS
330
B59
102
}
330
B59
100
AcDbVisualStyle
  2
Conceptual
 70
     9
 71
     3
 72
     2
 73
     0
 90
        0
 40
-0.6
 41
-30.0
 62
     5
 63
     7
 74
     2
 91
        2
 64
     7
 65
   257
 75
     1
175
     1
 42
40.0
 92
        8
 66
     7
 43
1.0
 76
     1
 77
     6
 78
     2
 67
     7
 79
     3
170
     0
171
     0
290
     0
174
     0
 93
        1
 44
0.0
173
     0
291
     0
 45
0.0
1001
ACAD
1000
AcDbSavedByObjectVersion
1070
     0
1000
AcDbSavedByObjectVersion
1070
     0
1000
AcDbSavedByObjectVersion
1070
     0
1000
AcDbSavedByObjectVersion
1070
     0
  0
VISUALSTYLE
  5
B64
102
{ACAD_REACTORS
330
B59
102
}
330
B59
100
AcDbVisualStyle
  2
Dim
 70
    11
 71
     2
 72
     2
 73
     0
 90
        0
 40
-0.6
 41
-30.0
 62
     5
 63
     7
 74
     1
 91
        4
 64
     7
 65
   257
 75
     1
175
     1
 42
1.0
 92
        8
 66
     7
 43
1.0
 76
     1
 77
     6
 78
     2
 67
     7
 79
     5
170
     0
171
     0
290
     0
174
     0
 93
        1
 44
-50.0
173
     0
291
     1
 45
0.0
1001
ACAD
1000
AcDbSavedByObjectVersion
1070
     0
1000
AcDbSavedByObjectVersion
1070
     0
1000
AcDbSavedByObjectVersion
1070
     0
1000
AcDbSavedByObjectVersion
1070
     0
  0
VISUALSTYLE
  5
B68
102
{ACAD_REACTORS
330
B59
102
}
330
B59
100
AcDbVisualStyle
  2
Facepattern
 70
    15
 71
     2
 72
     2
 73
     0
 90
        0
 40
-0.6
 41
-30.0
 62
     5
 63
     7
 74
     1
 91
        4
 64
     7
 65
   257
 75
     1
175
     1
 42
1.0
 92
        8
 66
     7
 43
1.0
 76
     1
 77
     6
 78
     2
 67
     7
 79
     5
170
     0
171
     0
290
     0
174
     0
 93
        1
 44
0.0
173
     0
291
     1
 45
0.0
1001
ACAD
1000
AcDbSavedByObjectVersion
1070
     0
1000
AcDbSavedByObjectVersion
1070
     0
1000
AcDbSavedByObjectVersion
1070
     0
1000
AcDbSavedByObjectVersion
1070
     0
  0
VISUALSTYLE
  5
B5A
102
{ACAD_REACTORS
330
B59
102
}
330
B59
100
AcDbVisualStyle
  2
Flat
 70
     0
 71
     2
 72
     1
 73
     1
 90
        2
 40
-0.6
 41
30.0
 62
     5
 63
     7
 74
     0
 91
        4
 64
     7
 65
   257
 75
     1
175
     1
 42
1.0
 92
        8
 66
     7
 43
1.0
 76
     1
 77
     6
 78
     2
 67
     7
 79
     5
170
     0
171
     0
290
     0
174
     0
 93
       13
 44
0.0
173
     0
291
     1
 45
0.0
1001
ACAD
1000
AcDbSavedByObjectVersion
1070
     0
1000
AcDbSavedByObjectVersion
1070
     0
1000
AcDbSavedByObjectVersion
1070
     0
1000
AcDbSavedByObjectVersion
1070
     0
  0
VISUALSTYLE
  5
B5B
102
{ACAD_REACTORS
330
B59
102
}
330
B59
100
AcDbVisualStyle
  2
FlatWithEdges
 70
     1
 71
     2
 72
     1
 73
     1
 90
        2
 40
-0.6
 41
30.0
 62
     5
 63
     7
 74
     1
 91
        4
 64
     7
 65
   257
 75
     1
175
     1
 42
1.0
 92
        0
 66
   257
 43
1.0
 76
     1
 77
     6
 78
     2
 67
     7
 79
     5
170
     0
171
     0
290
     0
174
     0
 93
       13
 44
0.0
173
     0
291
     1
 45
0.0
1001
ACAD
1000
AcDbSavedByObjectVersion
1070
     0
1000
AcDbSavedByObjectVersion
1070
     0
1000
AcDbSavedByObjectVersion
1070
     0
1000
AcDbSavedByObjectVersion
1070
     0
  0
VISUALSTYLE
  5
B5C
102
{ACAD_REACTORS
330
B59
102
}
330
B59
100
AcDbVisualStyle
  2
Gouraud
 70
     2
 71
     2
 72
     2
 73
     1
 90
        2
 40
-0.6
 41
30.0
 62
     5
 63
     7
 74
     0
 91
        4
 64
     7
 65
   257
 75
     1
175
     1
 42
1.0
 92
        0
 66
     7
 43
1.0
 76
     1
 77
     6
 78
     2
 67
     7
 79
     5
170
     0
171
     0
290
     0
174
     0
 93
       13
 44
0.0
173
     0
291
     1
 45
0.0
1001
ACAD
1000
AcDbSavedByObjectVersion
1070
     0
1000
AcDbSavedByObjectVersion
1070
     0
1000
AcDbSavedByObjectVersion
1070
     0
1000
AcDbSavedByObjectVersion
1070
     0
  0
VISUALSTYLE
  5
B5D
102
{ACAD_REACTORS
330
B59
102
}
330
B59
100
AcDbVisualStyle
  2
GouraudWithEdges
 70
     3
 71
     2
 72
     2
 73
     1
 90
        2
 40
-0.6
 41
30.0
 62
     5
 63
     7
 74
     1
 91
        4
 64
     7
 65
   257
 75
     1
175
     1
 42
1.0
 92
        0
 66
   257
 43
1.0
 76
     1
 77
     6
 78
     2
 67
     7
 79
     5
170
     0
171
     0
290
     0
174
     0
 93
       13
 44
0.0
173
     0
291
     1
 45
0.0
1001
ACAD
1000
AcDbSavedByObjectVersion
1070
     0
1000
AcDbSavedByObjectVersion
1070
     0
1000
AcDbSavedByObjectVersion
1070
     0
1000
AcDbSavedByObjectVersion
1070
     0
  0
VISUALSTYLE
  5
B67
102
{ACAD_REACTORS
330
B59
102
}
330
B59
100
AcDbVisualStyle
  2
Linepattern
 70
    14
 71
     2
 72
     2
 73
     0
 90
        0
 40
-0.6
 41
-30.0
 62
     5
 63
     7
 74
     1
 91
        4
 64
     7
 65
   257
 75
     7
175
     7
 42
1.0
 92
        8
 66
     7
 43
1.0
 76
     1
 77
     6
 78
     2
 67
     7
 79
     5
170
     0
171
     0
290
     0
174
     0
 93
        1
 44
0.0
173
     0
291
     1
 45
0.0
1001
ACAD
1000
AcDbSavedByObjectVersion
1070
     0
1000
AcDbSavedByObjectVersion
1070
     0
1000
AcDbSavedByObjectVersion
1070
     0
1000
AcDbSavedByObjectVersion
1070
     0
  0
VISUALSTYLE
  5
B63
102
{ACAD_REACTORS
330
B59
102
}
330
B59
100
AcDbVisualStyle
  2
Realistic
 70
     8
 71
     2
 72
     2
 73
     0
 90
        0
 40
-0.6
 41
-30.0
 62
     5
 63
     7
 74
     1
 91
        0
 64
     7
 65
   257
 75
     1
175
     1
 42
1.0
 92
        8
 66
     8
 43
1.0
 76
     1
 77
     6
 78
     2
 67
     7
 79
     5
170
     0
171
     0
290
     0
174
     0
 93
       13
 44
0.0
173
     0
291
     0
 45
0.0
1001
ACAD
1000
AcDbSavedByObjectVersion
1070
     0
1000
AcDbSavedByObjectVersion
1070
     0
1000
AcDbSavedByObjectVersion
1070
     0
1000
AcDbSavedByObjectVersion
1070
     0
  0
VISUALSTYLE
  5
B66
102
{ACAD_REACTORS
330
B59
102
}
330
B59
100
AcDbVisualStyle
  2
Thicken
 70
    13
 71
     2
 72
     2
 73
     0
 90
        0
 40
-0.6
 41
-30.0
 62
     5
 63
     7
 74
     1
 91
        4
 64
     7
 65
   257
 75
     1
175
     1
 42
1.0
 92
       12
 66
     7
 43
1.0
 76
     1
 77
     6
 78
     2
 67
     7
 79
     5
170
     0
171
     0
290
     0
174
     0
 93
        1
 44
0.0
173
     0
291
     1
 45
0.0
1001
ACAD
1000
AcDbSavedByObjectVersion
1070
     0
1000
AcDbSavedByObjectVersion
1070
     0
1000
AcDbSavedByObjectVersion
1070
     0
1000
AcDbSavedByObjectVersion
1070
     0
  0
DICTIONARYVAR
  5
BA2
102
{ACAD_REACTORS
330
B9E
102
}
330
B9E
100
DictionaryVariables
280
     0
  1
1:1
  0
DICTIONARYVAR
  5
BA0
102
{ACAD_REACTORS
330
B9E
102
}
330
B9E
100
DictionaryVariables
280
     0
  1
STANDARD
  0
DICTIONARYVAR
  5
B9F
102
{ACAD_REACTORS
330
B9E
102
}
330
B9E
100
DictionaryVariables
280
     0
  1
STANDARD
  0
DICTIONARYVAR
  5
BB4
102
{ACAD_REACTORS
330
B9E
102
}
330
B9E
100
DictionaryVariables
280
     0
  1
1
  0
DICTIONARYVAR
  5
BB3
102
{ACAD_REACTORS
330
B9E
102
}
330
B9E
100
DictionaryVariables
280
     0
  1
0
  0
DICTIONARYVAR
  5
BA3
102
{ACAD_REACTORS
330
B9E
102
}
330
B9E
100
DictionaryVariables
280
     0
  1
0
  0
DICTIONARYVAR
  5
BA1
102
{ACAD_REACTORS
330
B9E
102
}
330
B9E
100
DictionaryVariables
280
     0
  1
0
  0
DICTIONARYVAR
  5
BB2
102
{ACAD_REACTORS
330
B9E
102
}
330
B9E
100
DictionaryVariables
280
     0
  1
127
  0
XRECORD
  5
BB0
102
{ACAD_REACTORS
330
BAF
102
}
330
BAF
100
AcDbXrecord
280
     1
330
99
330
F3
330
164
330
1CF
330
21F
330
2DB
330
2EE
330
37C
330
42F
330
4C9
330
56A
330
61C
330
6EE
330
760
330
7C2
330
822
330
8A5
330
920
330
9D9
330
9E5
330
9EB
330
A99
330
A9E
330
B37
  0
DICTIONARY
  5
CAB
330
21
100
AcDbDictionary
280
     1
281
     1
  3
ACAD_XREC_ROUNDTRIP
360
CAC
  0
DICTIONARY
  5
CA9
330
20
100
AcDbDictionary
280
     1
281
     1
  3
ACAD_XREC_ROUNDTRIP
360
CAA
  0
DICTIONARY
  5
B4A
330
B49
100
AcDbDictionary
280
     1
281
     1
  3
ACAD_XREC_ROUNDTRIP
360
BDA
  3
BUMPTILE
360
B4C
  3
DIFFUSETILE
360
B4B
  3
OPACITYTILE
360
B4F
  3
REFLECTIONTILE
360
B4E
  3
REFRACTIONTILE
360
B50
  3
SPECULARTILE
360
B4D
  0
DICTIONARY
  5
B42
330
B41
100
AcDbDictionary
280
     1
281
     1
  3
ACAD_XREC_ROUNDTRIP
360
BD9
  3
BUMPTILE
360
B44
  3
DIFFUSETILE
360
B43
  3
OPACITYTILE
360
B47
  3
REFLECTIONTILE
360
B46
  3
REFRACTIONTILE
360
B48
  3
SPECULARTILE
360
B45
  0
DICTIONARY
  5
B52
330
B51
100
AcDbDictionary
280
     1
281
     1
  3
ACAD_XREC_ROUNDTRIP
360
BDB
  3
BUMPTILE
360
B54
  3
DIFFUSETILE
360
B53
  3
OPACITYTILE
360
B57
  3
REFLECTIONTILE
360
B56
  3
REFRACTIONTILE
360
B58
  3
SPECULARTILE
360
B55
  0
DICTIONARY
  5
B9B
330
B6C
100
AcDbDictionary
280
     1
281
     1
  3
ACAD_ROUNDTRIP_2008_TABLESTYLE_CELLSTYLEMAP
360
CA7
  3
ACAD_XREC_ROUNDTRIP
360
CAD
  0
XRECORD
  5
CAC
102
{ACAD_REACTORS
330
CAB
102
}
330
CAB
100
AcDbXrecord
280
     1
102
SHADEPLOT
 70
     0
102
SHADEPLOTRESLEVEL
 70
     2
102
SHADEPLOTCUSTOMDPI
 70
   300
  0
XRECORD
  5
CAA
102
{ACAD_REACTORS
330
CA9
102
}
330
CA9
100
AcDbXrecord
280
     1
102
SHADEPLOT
 70
     0
102
SHADEPLOTRESLEVEL
 70
     2
102
SHADEPLOTCUSTOMDPI
 70
   300
  0
XRECORD
  5
BDA
102
{ACAD_REACTORS
330
B4A
102
}
330
B4A
100
AcDbXrecord
280
     1
102
MATERIAL
148
0.0
149
0.0
149
0.0
 93
        0
 94
      127
282
     0
 72
     0
 77
     0
171
     0
175
     0
179
     0
273
     0
  0
XRECORD
  5
B4C
102
{ACAD_REACTORS
330
B4A
102
}
330
B4A
100
AcDbXrecord
280
     1
270
     1
271
     1
  0
XRECORD
  5
B4B
102
{ACAD_REACTORS
330
B4A
102
}
330
B4A
100
AcDbXrecord
280
     1
270
     1
271
     1
  0
XRECORD
  5
B4F
102
{ACAD_REACTORS
330
B4A
102
}
330
B4A
100
AcDbXrecord
280
     1
270
     1
271
     1
  0
XRECORD
  5
B4E
102
{ACAD_REACTORS
330
B4A
102
}
330
B4A
100
AcDbXrecord
280
     1
270
     1
271
     1
  0
XRECORD
  5
B50
102
{ACAD_REACTORS
330
B4A
102
}
330
B4A
100
AcDbXrecord
280
     1
270
     1
271
     1
  0
XRECORD
  5
B4D
102
{ACAD_REACTORS
330
B4A
102
}
330
B4A
100
AcDbXrecord
280
     1
270
     1
271
     1
  0
XRECORD
  5
BD9
102
{ACAD_REACTORS
330
B42
102
}
330
B42
100
AcDbXrecord
280
     1
102
MATERIAL
148
0.0
149
0.0
149
0.0
 93
        0
 94
      127
282
     0
 72
     0
 77
     0
171
     0
175
     0
179
     0
273
     0
  0
XRECORD
  5
B44
102
{ACAD_REACTORS
330
B42
102
}
330
B42
100
AcDbXrecord
280
     1
270
     1
271
     1
  0
XRECORD
  5
B43
102
{ACAD_REACTORS
330
B42
102
}
330
B42
100
AcDbXrecord
280
     1
270
     1
271
     1
  0
XRECORD
  5
B47
102
{ACAD_REACTORS
330
B42
102
}
330
B42
100
AcDbXrecord
280
     1
270
     1
271
     1
  0
XRECORD
  5
B46
102
{ACAD_REACTORS
330
B42
102
}
330
B42
100
AcDbXrecord
280
     1
270
     1
271
     1
  0
XRECORD
  5
B48
102
{ACAD_REACTORS
330
B42
102
}
330
B42
100
AcDbXrecord
280
     1
270
     1
271
     1
  0
XRECORD
  5
B45
102
{ACAD_REACTORS
330
B42
102
}
330
B42
100
AcDbXrecord
280
     1
270
     1
271
     1
  0
XRECORD
  5
BDB
102
{ACAD_REACTORS
330
B52
102
}
330
B52
100
AcDbXrecord
280
     1
102
MATERIAL
148
0.0
149
0.0
149
0.0
 93
        0
 94
      127
282
     0
 72
     0
 77
     0
171
     0
175
     0
179
     0
273
     0
  0
XRECORD
  5
B54
102
{ACAD_REACTORS
330
B52
102
}
330
B52
100
AcDbXrecord
280
     1
270
     1
271
     1
  0
XRECORD
  5
B53
102
{ACAD_REACTORS
330
B52
102
}
330
B52
100
AcDbXrecord
280
     1
270
     1
271
     1
  0
XRECORD
  5
B57
102
{ACAD_REACTORS
330
B52
102
}
330
B52
100
AcDbXrecord
280
     1
270
     1
271
     1
  0
XRECORD
  5
B56
102
{ACAD_REACTORS
330
B52
102
}
330
B52
100
AcDbXrecord
280
     1
270
     1
271
     1
  0
XRECORD
  5
B58
102
{ACAD_REACTORS
330
B52
102
}
330
B52
100
AcDbXrecord
280
     1
270
     1
271
     1
  0
XRECORD
  5
B55
102
{ACAD_REACTORS
330
B52
102
}
330
B52
100
AcDbXrecord
280
     1
270
     1
271
     1
  0
CELLSTYLEMAP
  5
CA7
102
{ACAD_REACTORS
330
B9B
102
}
330
B9B
100
AcDbCellStyleMap
 90
        3
300
CELLSTYLE
  1
TABLEFORMAT_BEGIN
 90
        5
170
     1
 91
        0
 92
    32768
 62
   257
 93
        1
300
CONTENTFORMAT
  1
CONTENTFORMAT_BEGIN
 90
        0
 91
        0
 92
      512
 93
        0
300

 40
0.0
140
1.0
 94
        5
 62
     0
340
17
144
6.0
309
CONTENTFORMAT_END
171
     1
301
MARGIN
  1
CELLMARGIN_BEGIN
 40
1.5
 40
1.5
 40
1.5
 40
1.5
 40
0.18
 40
0.18
309
CELLMARGIN_END
 94
        6
 95
        1
302
GRIDFORMAT
  1
GRIDFORMAT_BEGIN
 90
        0
 91
        1
 62
     0
 92
       -2
340
0
 93
        0
 40
1.125
309
GRIDFORMAT_END
 95
        2
302
GRIDFORMAT
  1
GRIDFORMAT_BEGIN
 90
        0
 91
        1
 62
     0
 92
       -2
340
0
 93
        0
 40
1.125
309
GRIDFORMAT_END
 95
        4
302
GRIDFORMAT
  1
GRIDFORMAT_BEGIN
 90
        0
 91
        1
 62
     0
 92
       -2
340
0
 93
        0
 40
1.125
309
GRIDFORMAT_END
 95
        8
302
GRIDFORMAT
  1
GRIDFORMAT_BEGIN
 90
        0
 91
        1
 62
     0
 92
       -2
340
0
 93
        0
 40
1.125
309
GRIDFORMAT_END
 95
       16
302
GRIDFORMAT
  1
GRIDFORMAT_BEGIN
 90
        0
 91
        1
 62
     0
 92
       -2
340
0
 93
        0
 40
1.125
309
GRIDFORMAT_END
 95
       32
302
GRIDFORMAT
  1
GRIDFORMAT_BEGIN
 90
        0
 91
        1
 62
     0
 92
       -2
340
0
 93
        0
 40
1.125
309
GRIDFORMAT_END
309
TABLEFORMAT_END
  1
CELLSTYLE_BEGIN
 90
        1
 91
        1
300
_TITLE
309
CELLSTYLE_END
300
CELLSTYLE
  1
TABLEFORMAT_BEGIN
 90
        5
170
     1
 91
        0
 92
        0
 62
   257
 93
        1
300
CONTENTFORMAT
  1
CONTENTFORMAT_BEGIN
 90
        0
 91
        0
 92
      512
 93
        0
300

 40
0.0
140
1.0
 94
        5
 62
     0
340
17
144
4.5
309
CONTENTFORMAT_END
171
     1
301
MARGIN
  1
CELLMARGIN_BEGIN
 40
1.5
 40
1.5
 40
1.5
 40
1.5
 40
0.18
 40
0.18
309
CELLMARGIN_END
 94
        6
 95
        1
302
GRIDFORMAT
  1
GRIDFORMAT_BEGIN
 90
        0
 91
        1
 62
     0
 92
       -2
340
0
 93
        0
 40
1.125
309
GRIDFORMAT_END
 95
        2
302
GRIDFORMAT
  1
GRIDFORMAT_BEGIN
 90
        0
 91
        1
 62
     0
 92
       -2
340
0
 93
        0
 40
1.125
309
GRIDFORMAT_END
 95
        4
302
GRIDFORMAT
  1
GRIDFORMAT_BEGIN
 90
        0
 91
        1
 62
     0
 92
       -2
340
0
 93
        0
 40
1.125
309
GRIDFORMAT_END
 95
        8
302
GRIDFORMAT
  1
GRIDFORMAT_BEGIN
 90
        0
 91
        1
 62
     0
 92
       -2
340
0
 93
        0
 40
1.125
309
GRIDFORMAT_END
 95
       16
302
GRIDFORMAT
  1
GRIDFORMAT_BEGIN
 90
        0
 91
        1
 62
     0
 92
       -2
340
0
 93
        0
 40
1.125
309
GRIDFORMAT_END
 95
       32
302
GRIDFORMAT
  1
GRIDFORMAT_BEGIN
 90
        0
 91
        1
 62
     0
 92
       -2
340
0
 93
        0
 40
1.125
309
GRIDFORMAT_END
309
TABLEFORMAT_END
  1
CELLSTYLE_BEGIN
 90
        2
 91
        1
300
_HEADER
309
CELLSTYLE_END
300
CELLSTYLE
  1
TABLEFORMAT_BEGIN
 90
        5
170
     1
 91
        0
 92
        0
 62
   257
 93
        1
300
CONTENTFORMAT
  1
CONTENTFORMAT_BEGIN
 90
        0
 91
        0
 92
      512
 93
        0
300

 40
0.0
140
1.0
 94
        2
 62
     0
340
17
144
4.5
309
CONTENTFORMAT_END
171
     1
301
MARGIN
  1
CELLMARGIN_BEGIN
 40
1.5
 40
1.5
 40
1.5
 40
1.5
 40
0.18
 40
0.18
309
CELLMARGIN_END
 94
        6
 95
        1
302
GRIDFORMAT
  1
GRIDFORMAT_BEGIN
 90
        0
 91
        1
 62
     0
 92
       -2
340
0
 93
        0
 40
1.125
309
GRIDFORMAT_END
 95
        2
302
GRIDFORMAT
  1
GRIDFORMAT_BEGIN
 90
        0
 91
        1
 62
     0
 92
       -2
340
0
 93
        0
 40
1.125
309
GRIDFORMAT_END
 95
        4
302
GRIDFORMAT
  1
GRIDFORMAT_BEGIN
 90
        0
 91
        1
 62
     0
 92
       -2
340
0
 93
        0
 40
1.125
309
GRIDFORMAT_END
 95
        8
302
GRIDFORMAT
  1
GRIDFORMAT_BEGIN
 90
        0
 91
        1
 62
     0
 92
       -2
340
0
 93
        0
 40
1.125
309
GRIDFORMAT_END
 95
       16
302
GRIDFORMAT
  1
GRIDFORMAT_BEGIN
 90
        0
 91
        1
 62
     0
 92
       -2
340
0
 93
        0
 40
1.125
309
GRIDFORMAT_END
 95
       32
302
GRIDFORMAT
  1
GRIDFORMAT_BEGIN
 90
        0
 91
        1
 62
     0
 92
       -2
340
0
 93
        0
 40
1.125
309
GRIDFORMAT_END
309
TABLEFORMAT_END
  1
CELLSTYLE_BEGIN
 90
        3
 91
        2
300
_DATA
309
CELLSTYLE_END
  0
XRECORD
  5
CAD
102
{ACAD_REACTORS
330
B9B
102
}
330
B9B
100
AcDbXrecord
280
     1
102
ACAD_ROUNDTRIP_PRE2007_TABLESTYLE
 90
      512
 91
        0
  1

 92
      512
 93
        0
  2

 94
      512
 95
        0
  3

  0
ENDSEC
  0
EOF
