  0
SECTION
  2
HEADER
  9
$ACADVER
  1
AC1015
  9
$ACADMAINTVER
 70
    20
  9
$DWGCODEPAGE
  3
ANSI_1252
  9
$INSBASE
 10
0.0
 20
0.0
 30
0.0
  9
$EXTMIN
 10
-84.27781000000015
 20
-148.9043556699754
 30
-0.0000000000000009
  9
$EXTMAX
 10
307.0674549835552
 20
147.6947972045158
 30
0.0000000000000005
  9
$LIMMIN
 10
-20.0
 20
-0.021978
  9
$LIMMAX
 10
2645.85
 20
758.35
  9
$ORTHOMODE
 70
     0
  9
$REGENMODE
 70
     1
  9
$FILLMODE
 70
     1
  9
$QTEXTMODE
 70
     0
  9
$MIRRTEXT
 70
     1
  9
$LTSCALE
 40
10.0
  9
$ATTMODE
 70
     1
  9
$TEXTSIZE
 40
0.0
  9
$TRACEWID
 40
0.05
  9
$TEXTSTYLE
  7
Standard
  9
$CLAYER
  8
0
  9
$CELTYPE
  6
Continuous
  9
$CECOLOR
 62
   256
  9
$CELTSCALE
 40
1.0
  9
$DISPSILH
 70
     0
  9
$DIMSCALE
 40
1.0
  9
$DIMASZ
 40
1.25
  9
$DIMEXO
 40
0.0
  9
$DIMDLI
 40
0.38
  9
$DIMRND
 40
0.0
  9
$DIMDLE
 40
0.0
  9
$DIMEXE
 40
0.75
  9
$DIMTP
 40
0.0
  9
$DIMTM
 40
0.0
  9
$DIMTXT
 40
2.5
  9
$DIMCEN
 40
0.09
  9
$DIMTSZ
 40
0.0
  9
$DIMTOL
 70
     0
  9
$DIMLIM
 70
     0
  9
$DIMTIH
 70
     0
  9
$DIMTOH
 70
     0
  9
$DIMSE1
 70
     0
  9
$DIMSE2
 70
     0
  9
$DIMTAD
 70
     1
  9
$DIMZIN
 70
     0
  9
$DIMBLK
  1

  9
$DIMASO
 70
     1
  9
$DIMSHO
 70
     1
  9
$DIMPOST
  1

  9
$DIMAPOST
  1

  9
$DIMALT
 70
     0
  9
$DIMALTD
 70
     2
  9
$DIMALTF
 40
25.4
  9
$DIMLFAC
 40
1.0
  9
$DIMTOFL
 70
     0
  9
$DIMTVP
 40
0.0
  9
$DIMTIX
 70
     0
  9
$DIMSOXD
 70
     0
  9
$DIMSAH
 70
     0
  9
$DIMBLK1
  1

  9
$DIMBLK2
  1

  9
$DIMSTYLE
  2
Standard
  9
$DIMCLRD
 70
     7
  9
$DIMCLRE
 70
     7
  9
$DIMCLRT
 70
     7
  9
$DIMTFAC
 40
0.8
  9
$DIMGAP
 40
1.25
  9
$DIMJUST
 70
     0
  9
$DIMSD1
 70
     0
  9
$DIMSD2
 70
     0
  9
$DIMTOLJ
 70
     1
  9
$DIMTZIN
 70
     0
  9
$DIMALTZ
 70
     0
  9
$DIMALTTZ
 70
     0
  9
$DIMUPT
 70
     0
  9
$DIMDEC
 70
     2
  9
$DIMTDEC
 70
     4
  9
$DIMALTU
 70
     2
  9
$DIMALTTD
 70
     2
  9
$DIMTXSTY
  7
Standard
  9
$DIMAUNIT
 70
     0
  9
$DIMADEC
 70
     0
  9
$DIMALTRND
 40
0.0
  9
$DIMAZIN
 70
     0
  9
$DIMDSEP
 70
     0
  9
$DIMATFIT
 70
     3
  9
$DIMFRAC
 70
     0
  9
$DIMLDRBLK
  1

  9
$DIMLUNIT
 70
     2
  9
$DIMLWD
 70
     0
  9
$DIMLWE
 70
     0
  9
$DIMTMOVE
 70
     0
  9
$LUNITS
 70
     2
  9
$LUPREC
 70
     4
  9
$SKETCHINC
 40
0.1
  9
$FILLETRAD
 40
0.0
  9
$AUNITS
 70
     0
  9
$AUPREC
 70
     0
  9
$MENU
  1
acad
  9
$ELEVATION
 40
0.0
  9
$PELEVATION
 40
0.0
  9
$THICKNESS
 40
0.0
  9
$LIMCHECK
 70
     0
  9
$CHAMFERA
 40
0.0
  9
$CHAMFERB
 40
0.0
  9
$CHAMFERC
 40
0.0
  9
$CHAMFERD
 40
0.0
  9
$SKPOLY
 70
     0
  9
$TDCREATE
 40
2455329.702198484
  9
$TDUCREATE
 40
2455329.618865150
  9
$TDUPDATE
 40
2455383.397564525
  9
$TDUUPDATE
 40
2455383.314231192
  9
$TDINDWG
 40
0.0290842130
  9
$TDUSRTIMER
 40
0.0290820370
  9
$USRTIMER
 70
     1
  9
$ANGBASE
 50
0.0
  9
$ANGDIR
 70
     0
  9
$PDMODE
 70
     0
  9
$PDSIZE
 40
0.0
  9
$PLINEWID
 40
0.0
  9
$SPLFRAME
 70
     0
  9
$SPLINETYPE
 70
     6
  9
$SPLINESEGS
 70
     8
  9
$HANDSEED
  5
7850
  9
$SURFTAB1
 70
     6
  9
$SURFTAB2
 70
     6
  9
$SURFTYPE
 70
     6
  9
$SURFU
 70
     6
  9
$SURFV
 70
     6
  9
$UCSBASE
  2

  9
$UCSNAME
  2

  9
$UCSORG
 10
0.0
 20
0.0
 30
0.0
  9
$UCSXDIR
 10
1.0
 20
0.0
 30
0.0
  9
$UCSYDIR
 10
0.0
 20
1.0
 30
0.0
  9
$UCSORTHOREF
  2

  9
$UCSORTHOVIEW
 70
     0
  9
$UCSORGTOP
 10
0.0
 20
0.0
 30
0.0
  9
$UCSORGBOTTOM
 10
0.0
 20
0.0
 30
0.0
  9
$UCSORGLEFT
 10
0.0
 20
0.0
 30
0.0
  9
$UCSORGRIGHT
 10
0.0
 20
0.0
 30
0.0
  9
$UCSORGFRONT
 10
0.0
 20
0.0
 30
0.0
  9
$UCSORGBACK
 10
0.0
 20
0.0
 30
0.0
  9
$PUCSBASE
  2

  9
$PUCSNAME
  2

  9
$PUCSORG
 10
0.0
 20
0.0
 30
0.0
  9
$PUCSXDIR
 10
1.0
 20
0.0
 30
0.0
  9
$PUCSYDIR
 10
0.0
 20
1.0
 30
0.0
  9
$PUCSORTHOREF
  2

  9
$PUCSORTHOVIEW
 70
     0
  9
$PUCSORGTOP
 10
0.0
 20
0.0
 30
0.0
  9
$PUCSORGBOTTOM
 10
0.0
 20
0.0
 30
0.0
  9
$PUCSORGLEFT
 10
0.0
 20
0.0
 30
0.0
  9
$PUCSORGRIGHT
 10
0.0
 20
0.0
 30
0.0
  9
$PUCSORGFRONT
 10
0.0
 20
0.0
 30
0.0
  9
$PUCSORGBACK
 10
0.0
 20
0.0
 30
0.0
  9
$USERI1
 70
     0
  9
$USERI2
 70
     0
  9
$USERI3
 70
     0
  9
$USERI4
 70
     0
  9
$USERI5
 70
     0
  9
$USERR1
 40
0.0
  9
$USERR2
 40
0.0
  9
$USERR3
 40
0.0
  9
$USERR4
 40
0.0
  9
$USERR5
 40
0.0
  9
$WORLDVIEW
 70
     1
  9
$SHADEDGE
 70
     3
  9
$SHADEDIF
 70
    70
  9
$TILEMODE
 70
     1
  9
$MAXACTVP
 70
    16
  9
$PINSBASE
 10
0.0
 20
0.0
 30
0.0
  9
$PLIMCHECK
 70
     0
  9
$PEXTMIN
 10
1.000000000000000E+20
 20
1.000000000000000E+20
 30
1.000000000000000E+20
  9
$PEXTMAX
 10
-1.000000000000000E+20
 20
-1.000000000000000E+20
 30
-1.000000000000000E+20
  9
$PLIMMIN
 10
0.0
 20
0.0
  9
$PLIMMAX
 10
12.0
 20
9.0
  9
$UNITMODE
 70
     0
  9
$VISRETAIN
 70
     0
  9
$PLINEGEN
 70
     1
  9
$PSLTSCALE
 70
     0
  9
$TREEDEPTH
 70
  3020
  9
$CMLSTYLE
  2
Standard
  9
$CMLJUST
 70
     0
  9
$CMLSCALE
 40
1.0
  9
$PROXYGRAPHICS
 70
     0
  9
$MEASUREMENT
 70
     1
  9
$CELWEIGHT
370
     0
  9
$ENDCAPS
280
     0
  9
$JOINSTYLE
280
     0
  9
$LWDISPLAY
290
     0
  9
$INSUNITS
 70
     0
  9
$HYPERLINKBASE
  1

  9
$STYLESHEET
  1

  9
$XEDIT
290
     1
  9
$CEPSNTYPE
380
     0
  9
$PSTYLEMODE
290
     1
  9
$FINGERPRINTGUID
  2

  9
$VERSIONGUID
  2
{B3E64DE0-E6C4-4107-B25C-65D20B4EA4CB}
  9
$EXTNAMES
290
     1
  9
$PSVPSCALE
 40
0.0
  9
$OLESTARTUP
290
     0
  0
ENDSEC
  0
SECTION
  2
CLASSES
  0
CLASS
  1
IMAGE
  2
AcDbRasterImage
  3
ISM
 90
    34943
280
     0
281
     1
  0
CLASS
  1
DICTIONARYVAR
  2
AcDbDictionaryVar
  3
ObjectDBX Classes
 90
        0
280
     0
281
     0
  0
CLASS
  1
RASTERVARIABLES
  2
AcDbRasterVariables
  3
ISM
 90
    32768
280
     0
281
     0
  0
CLASS
  1
IMAGEDEF
  2
AcDbRasterImageDef
  3
ISM
 90
    32768
280
     0
281
     0
  0
CLASS
  1
IMAGEDEF_REACTOR
  2
AcDbRasterImageDefReactor
  3
ISM
 90
    32769
280
     0
281
     0
  0
CLASS
  1
IDBUFFER
  2
AcDbIdBuffer
  3
ObjectDBX Classes
 90
    32768
280
     0
281
     0
  0
CLASS
  1
SPATIAL_FILTER
  2
AcDbSpatialFilter
  3
ObjectDBX Classes
 90
    32768
280
     0
281
     0
  0
CLASS
  1
SORTENTSTABLE
  2
AcDbSortentsTable
  3
ObjectDBX Classes
 90
        0
280
     0
281
     0
  0
CLASS
  1
LAYER_INDEX
  2
AcDbLayerIndex
  3
ObjectDBX Classes
 90
    32768
280
     0
281
     0
  0
CLASS
  1
SPATIAL_INDEX
  2
AcDbSpatialIndex
  3
ObjectDBX Classes
 90
    32768
280
     0
281
     0
  0
CLASS
  1
OBJECT_PTR
  2
CAseDLPNTableRecord
  3
ASE-LPNTableRecord
 90
    32769
280
     0
281
     0
  0
CLASS
  1
PLOTSETTINGS
  2
AcDbPlotSettings
  3
ObjectDBX Classes
 90
    32768
280
     0
281
     0
  0
CLASS
  1
ACDBDICTIONARYWDFLT
  2
AcDbDictionaryWithDefault
  3
ObjectDBX Classes
 90
        0
280
     0
281
     0
  0
CLASS
  1
WIPEOUT
  2
AcDbWipeout
  3
"WipeOut|Product Desc: Object Enabler for WipeOut entity                        |Company: Autodesk, Inc.                        |WEB Address: www.autodesk.com"
 90
    34943
280
     0
281
     1
  0
CLASS
  1
WIPEOUTVARIABLES
  2
AcDbWipeoutVariables
  3
"WipeOut|Product Desc:     WipeOut Dbx Application|Company:          Autodesk, Inc.|WEB Address:      www.autodesk.com"
 90
        0
280
     0
281
     0
  0
CLASS
  1
RTEXT
  2
RText
  3
RText|AutoCAD Express Tool|expresstools@autodesk.com
 90
    35839
280
     0
281
     1
  0
CLASS
  1
ARCALIGNEDTEXT
  2
AcDbArcAlignedText
  3
ATEXT|AutoCAD Express Tool|expresstools@autodesk.com
 90
    32768
280
     0
281
     1
  0
CLASS
  1
MATERIAL
  2
AcDbMaterial
  3
ObjectDBX Classes
 90
     1153
280
     0
281
     0
  0
CLASS
  1
VISUALSTYLE
  2
AcDbVisualStyle
  3
ObjectDBX Classes
 90
     4095
280
     0
281
     0
  0
CLASS
  1
TABLESTYLE
  2
AcDbTableStyle
  3
ObjectDBX Classes
 90
     4095
280
     0
281
     0
  0
CLASS
  1
SCALE
  2
AcDbScale
  3
ObjectDBX Classes
 90
     1153
280
     0
281
     0
  0
CLASS
  1
MLEADERSTYLE
  2
AcDbMLeaderStyle
  3
ACDB_MLEADERSTYLE_CLASS
 90
     4095
280
     0
281
     0
  0
CLASS
  1
CELLSTYLEMAP
  2
AcDbCellStyleMap
  3
ObjectDBX Classes
 90
     1152
280
     0
281
     0
  0
CLASS
  1
ACDBPLACEHOLDER
  2
AcDbPlaceHolder
  3
ObjectDBX Classes
 90
        0
280
     0
281
     0
  0
CLASS
  1
LAYOUT
  2
AcDbLayout
  3
ObjectDBX Classes
 90
        0
280
     0
281
     0
  0
ENDSEC
  0
SECTION
  2
TABLES
  0
TABLE
  2
VPORT
  5
7
330
0
100
AcDbSymbolTable
 70
     1
  0
VPORT
  5
15
330
7
100
AcDbSymbolTableRecord
100
AcDbViewportTableRecord
  2
*ACTIVE
 70
     0
 10
0.0
 20
0.0
 11
1.0
 21
1.0
 12
96.48697197715319
 22
-4.548492846907549
 13
0.0
 23
0.0
 14
1.0
 24
1.0
 15
0.0
 25
0.0
 16
0.0
 26
0.0
 36
1.0
 17
0.0
 27
0.0
 37
0.0
 40
335.7576847810755
 41
1.611330698287219
 42
50.0
 43
0.0
 44
0.0
 50
0.0
 51
0.0
 71
     0
 72
   100
 73
     1
 74
     1
 75
     0
 76
     0
 77
     0
 78
     0
281
     0
 65
     0
110
0.0
120
0.0
130
0.0
111
1.0
121
0.0
131
0.0
112
0.0
122
1.0
132
0.0
 79
     0
146
0.0
  0
ENDTAB
  0
TABLE
  2
LTYPE
  5
4
330
0
100
AcDbSymbolTable
 70
     2
  0
LTYPE
  5
11
330
4
100
AcDbSymbolTableRecord
100
AcDbLinetypeTableRecord
  2
ByBlock
 70
     0
  3

 72
    65
 73
     0
 40
0.0
  0
LTYPE
  5
12
330
4
100
AcDbSymbolTableRecord
100
AcDbLinetypeTableRecord
  2
ByLayer
 70
     0
  3

 72
    65
 73
     0
 40
0.0
  0
LTYPE
  5
13
330
4
100
AcDbSymbolTableRecord
100
AcDbLinetypeTableRecord
  2
Continuous
 70
     0
  3
Solid line
 72
    65
 73
     0
 40
0.0
  0
LTYPE
  5
2A2
330
4
100
AcDbSymbolTableRecord
100
AcDbLinetypeTableRecord
  2
CENTER
 70
     0
  3
____ _ ____ _ ____ _ ____ _ ____ _ ____ _ ____
 72
    65
 73
     4
 40
2.0
 49
1.25
 74
     0
 49
-0.25
 74
     0
 49
0.25
 74
     0
 49
-0.25
 74
     0
  0
ENDTAB
  0
TABLE
  2
LAYER
  5
2
330
0
100
AcDbSymbolTable
 70
     2
  0
LAYER
  5
14
102
{ACAD_XDICTIONARY
360
72C9
102
}
330
2
100
AcDbSymbolTableRecord
100
AcDbLayerTableRecord
  2
0
 70
     0
 62
     7
  6
Continuous
370
    -3
390
1D
  0
LAYER
  5
7821
330
2
100
AcDbSymbolTableRecord
100
AcDbLayerTableRecord
  2
Defpoints
 70
     0
 62
     7
  6
Continuous
290
     0
370
    -3
390
1D
  0
ENDTAB
  0
TABLE
  2
STYLE
  5
3
330
0
100
AcDbSymbolTable
 70
     1
  0
STYLE
  5
17
330
3
100
AcDbSymbolTableRecord
100
AcDbTextStyleTableRecord
  2
Standard
 70
     0
 40
0.0
 41
1.0
 50
0.0
 71
     0
 42
0.0
  3
IsonormD
  4

1001
ACAD
1000
IsonormD
1071
        0
  0
ENDTAB
  0
TABLE
  2
VIEW
  5
5
330
0
100
AcDbSymbolTable
 70
     0
  0
ENDTAB
  0
TABLE
  2
UCS
  5
6
330
0
100
AcDbSymbolTable
 70
     0
  0
ENDTAB
  0
TABLE
  2
APPID
  5
8
330
0
100
AcDbSymbolTable
 70
     5
  0
APPID
  5
16
330
8
100
AcDbSymbolTableRecord
100
AcDbRegAppTableRecord
  2
ACAD
 70
     0
  0
APPID
  5
26
330
8
100
AcDbSymbolTableRecord
100
AcDbRegAppTableRecord
  2
TopSolid_Draft
 70
     0
  0
APPID
  5
39AF
330
8
100
AcDbSymbolTableRecord
100
AcDbRegAppTableRecord
  2
ACAD_MLEADERVER
 70
     0
  0
APPID
  5
72C7
330
8
100
AcDbSymbolTableRecord
100
AcDbRegAppTableRecord
  2
DCO15
 70
     0
  0
APPID
  5
7315
330
8
100
AcDbSymbolTableRecord
100
AcDbRegAppTableRecord
  2
ACAD_EXEMPT_FROM_CAD_STANDARDS
 70
     0
  0
ENDTAB
  0
TABLE
  2
DIMSTYLE
  5
9
330
0
100
AcDbSymbolTable
 70
     1
100
AcDbDimStyleTable
 71
     1
340
18
  0
DIMSTYLE
105
18
330
9
100
AcDbSymbolTableRecord
100
AcDbDimStyleTableRecord
  2
Standard
 70
     0
 41
1.25
 42
0.0
 44
0.75
 73
     0
 74
     0
 77
     1
140
2.5
146
0.8
147
1.25
176
     7
177
     7
178
     7
271
     2
340
17
  0
ENDTAB
  0
TABLE
  2
BLOCK_RECORD
  5
1
330
0
100
AcDbSymbolTable
 70
     2
  0
BLOCK_RECORD
  5
A
102
{ACAD_XDICTIONARY
360
39B7
102
}
330
1
100
AcDbSymbolTableRecord
100
AcDbBlockTableRecord
  2
*MODEL_SPACE
340
20
  0
BLOCK_RECORD
  5
B
330
1
100
AcDbSymbolTableRecord
100
AcDbBlockTableRecord
  2
*PAPER_SPACE
340
21
  0
ENDTAB
  0
ENDSEC
  0
SECTION
  2
BLOCKS
  0
BLOCK
  5
D
330
A
100
AcDbEntity
  8
0
100
AcDbBlockBegin
  2
*MODEL_SPACE
 70
     0
 10
0.0
 20
0.0
 30
0.0
  3
*MODEL_SPACE
  1

  0
ENDBLK
  5
E
330
A
100
AcDbEntity
  8
0
100
AcDbBlockEnd
  0
BLOCK
  5
F
330
B
100
AcDbEntity
 67
     1
  8
0
100
AcDbBlockBegin
  2
*PAPER_SPACE
 70
     0
 10
0.0
 20
0.0
 30
0.0
  3
*PAPER_SPACE
  1

  0
ENDBLK
  5
10
330
B
100
AcDbEntity
 67
     1
  8
0
100
AcDbBlockEnd
  0
ENDSEC
  0
SECTION
  2
ENTITIES
  0
LINE
  5
291D
330
A
100
AcDbEntity
  8
0
  6
CENTER
 62
     1
100
AcDbLine
 10
44.24999999999999
 20
129.9999999999999
 30
0.0
 11
55.75
 21
129.9999999999999
 31
0.0
  0
LINE
  5
291E
330
A
100
AcDbEntity
  8
0
  6
CENTER
 62
     1
100
AcDbLine
 10
50.00000000000011
 20
124.2499999999999
 30
0.0
 11
50.00000000000011
 21
135.7499999999999
 31
0.0
  0
LINE
  5
291F
330
A
100
AcDbEntity
  8
0
  6
CENTER
 62
     1
100
AcDbLine
 10
50.00000000000011
 20
69.99999999999989
 30
0.0
 11
50.00000000000011
 21
3.999999999999886
 31
0.0
  0
LINE
  5
2920
330
A
100
AcDbEntity
  8
0
  6
CENTER
 62
     1
100
AcDbLine
 10
45.09191099999964
 20
-60.00000000000011
 30
0.0
 11
54.90808900000001
 21
-60.00000000000011
 31
0.0
  0
LINE
  5
2921
330
A
100
AcDbEntity
  8
0
  6
CENTER
 62
     1
100
AcDbLine
 10
50.00000000000011
 20
-64.9080890000001
 30
0.0
 11
50.00000000000011
 21
-55.09191100000013
 31
0.0
  0
ELLIPSE
  5
4928
330
A
100
AcDbEntity
  8
0
  6
Continuous
 62
     7
100
AcDbEllipse
 10
252.780708
 20
-66.5463730000001
 30
0.0
 11
-2.782804343498534
 21
3.408225342580033
 31
-0.0000000000000003
210
0.0
220
0.0000000000000001
230
1.0
 40
0.816497
 41
0.0000000000000397
 42
0.3639405959545584
  0
LINE
  5
4929
330
A
100
AcDbEntity
  8
0
  6
Continuous
 62
     7
100
AcDbLine
 10
252.780708
 20
-62.52974000000012
 30
0.0
 11
298.9331509999999
 21
-71.95056800000012
 31
0.0
  0
ELLIPSE
  5
492A
330
A
100
AcDbEntity
  8
0
  6
Continuous
 62
     7
100
AcDbEllipse
 10
298.9331509999999
 20
-76.33234900000011
 30
0.0
 11
-3.035786556544017
 21
3.718064010087366
 31
0.0
210
0.0000000000000001
220
0.0000000000000001
230
1.0
 40
0.816497
 41
3.9269908163447
 42
5.497787143139595
  0
LINE
  5
492B
330
A
100
AcDbEntity
  8
0
  6
Continuous
 62
     7
100
AcDbLine
 10
303.226402
 20
-77.20870500000012
 30
0.0
 11
303.226402
 21
-139.2839280000001
 31
0.0
  0
ELLIPSE
  5
492C
330
A
100
AcDbEntity
  8
0
  6
Continuous
 62
     7
100
AcDbEllipse
 10
298.9331509999999
 20
-138.4075720000001
 30
0.0
 11
-3.035786556544018
 21
3.718064010087395
 31
-0.0000000000000001
210
0.0
220
0.0
230
1.0
 40
0.816497
 41
3.141592653589794
 42
3.926990816344714
  0
LINE
  5
492D
330
A
100
AcDbEntity
  8
0
  6
Continuous
 62
     9
100
AcDbLine
 10
303.226402
 20
-77.20870500000012
 30
0.0
 11
303.9419439999999
 21
-76.62446800000012
 31
0.0
  0
LINE
  5
492E
330
A
100
AcDbEntity
  8
0
  6
Continuous
 62
     9
100
AcDbLine
 10
298.9331509999999
 20
-71.95056800000012
 30
0.0
 11
299.6486929999999
 21
-71.36633100000011
 31
0.0
  0
ELLIPSE
  5
492F
330
A
100
AcDbEntity
  8
0
  6
Continuous
 62
     7
100
AcDbEllipse
 10
299.6486929999999
 20
-75.74811200000013
 30
0.0
 11
-3.035786556544018
 21
3.718064010087395
 31
0.0
210
0.0000000000000001
220
0.0000000000000001
230
1.0
 40
0.816497
 41
3.926990816344714
 42
5.497787143139553
  0
LINE
  5
4930
330
A
100
AcDbEntity
  8
0
  6
Continuous
 62
     9
100
AcDbLine
 10
252.780708
 20
-62.52974000000012
 30
0.0
 11
253.4962499999999
 21
-61.94550300000011
 31
0.0
  0
LINE
  5
4931
330
A
100
AcDbEntity
  8
0
  6
Continuous
 62
     7
100
AcDbLine
 10
253.4962499999999
 20
-61.94550300000011
 30
0.0
 11
276.685667
 21
-66.67902300000012
 31
0.0
  0
LINE
  5
4932
330
A
100
AcDbEntity
  8
0
  6
Continuous
 62
     7
100
AcDbLine
 10
276.685667
 20
-66.67902300000012
 30
0.0
 11
299.6486929999999
 21
-71.36633100000011
 31
0.0
  0
LINE
  5
4933
330
A
100
AcDbEntity
  8
0
  6
Continuous
 62
     9
100
AcDbLine
 10
303.226402
 20
-139.2839280000001
 30
0.0
 11
303.9419439999999
 21
-138.6996910000001
 31
0.0
  0
LINE
  5
4934
330
A
100
AcDbEntity
  8
0
  6
Continuous
 62
     7
100
AcDbLine
 10
303.9419439999999
 20
-76.62446800000012
 30
0.0
 11
303.9419439999999
 21
-82.55408400000012
 31
0.0
  0
LINE
  5
4935
330
A
100
AcDbEntity
  8
0
  6
Continuous
 62
     7
100
AcDbLine
 10
303.9419439999999
 20
-82.55408400000012
 30
0.0
 11
303.9419439999999
 21
-138.6996910000001
 31
0.0
  0
ELLIPSE
  5
4936
330
A
100
AcDbEntity
  8
0
  6
Continuous
 62
     7
100
AcDbEllipse
 10
252.780708
 20
-66.5463730000001
 30
0.0
 11
-2.782804343498534
 21
3.408225342580033
 31
-0.0000000000000002
210
-0.0000000000000001
220
0.0
230
1.0
 40
0.816497
 41
5.497787143139627
 42
6.283185307179627
  0
ELLIPSE
  5
4937
330
A
100
AcDbEntity
  8
0
  6
Continuous
 62
     7
100
AcDbEllipse
 10
253.4962499999999
 20
-65.96213500000013
 30
0.0
 11
-2.782804343498534
 21
3.408225342580033
 31
-0.0000000000000002
210
-0.0000000000000001
220
0.0
230
1.0
 40
0.816497
 41
5.497787143139627
 42
6.283185307179627
  0
ELLIPSE
  5
4938
330
A
100
AcDbEntity
  8
0
  6
Continuous
 62
     7
100
AcDbEllipse
 10
298.9331509999999
 20
-138.4075720000001
 30
0.0
 11
-3.035786556544018
 21
3.718064010087395
 31
0.0
210
0.0000000000000001
220
0.0
230
1.0
 40
0.816497
 41
2.832313551102004
 42
3.141592653589794
  0
ELLIPSE
  5
4939
330
A
100
AcDbEntity
  8
0
  6
Continuous
 62
     7
100
AcDbEllipse
 10
299.6486929999999
 20
-137.8233350000001
 30
0.0
 11
-3.035786556544017
 21
3.718064010087383
 31
-0.0000000000000002
210
-0.0000000000000001
220
0.0
230
1.0
 40
0.816497
 41
3.14159265358979
 42
3.92699081634472
  0
LINE
  5
493A
330
A
100
AcDbEntity
  8
0
  6
Continuous
 62
     7
100
AcDbLine
 10
253.138479
 20
-62.2376220000001
 30
0.0
 11
299.2909219999999
 21
-71.6584500000001
 31
0.0
  0
ELLIPSE
  5
493B
330
A
100
AcDbEntity
  8
0
  6
Continuous
 62
     7
100
AcDbEllipse
 10
299.2909219999999
 20
-76.04023000000012
 30
0.0
 11
-3.035786556421226
 21
3.718064010187509
 31
0.0
210
0.0000000000000001
220
0.0
230
1.0
 40
0.816497
 41
3.926990816339348
 42
5.49778714313421
  0
LINE
  5
493C
330
A
100
AcDbEntity
  8
0
  6
Continuous
 62
     7
100
AcDbLine
 10
303.584173
 20
-76.91658600000014
 30
0.0
 11
303.584173
 21
-138.9918090000001
 31
0.0
  0
ELLIPSE
  5
493D
330
A
100
AcDbEntity
  8
0
  6
Continuous
 62
     7
100
AcDbEllipse
 10
299.2909219999999
 20
-138.1154530000001
 30
0.0
 11
-3.035786556421226
 21
3.718064010187495
 31
0.0
210
0.0000000000000001
220
0.0
230
1.0
 40
0.816497
 41
3.141592653589863
 42
3.926990816339348
  0
LINE
  5
493E
330
A
100
AcDbEntity
  8
0
  6
Continuous
 62
     9
100
AcDbLine
 10
303.584173
 20
-76.91658600000014
 30
0.0
 11
303.9419439999999
 21
-76.62446800000012
 31
0.0
  0
LINE
  5
493F
330
A
100
AcDbEntity
  8
0
  6
Continuous
 62
     9
100
AcDbLine
 10
299.2909219999999
 20
-71.6584500000001
 30
0.0
 11
299.6486929999999
 21
-71.36633100000011
 31
0.0
  0
ELLIPSE
  5
4940
330
A
100
AcDbEntity
  8
0
  6
Continuous
 62
     7
100
AcDbEllipse
 10
299.6486929999999
 20
-75.74811200000013
 30
0.0
 11
-3.035786556421226
 21
3.718064010187481
 31
0.0
210
0.0000000000000001
220
0.0
230
1.0
 40
0.816497
 41
3.926990816339333
 42
5.497787143134205
  0
LINE
  5
4941
330
A
100
AcDbEntity
  8
0
  6
Continuous
 62
     9
100
AcDbLine
 10
253.138479
 20
-62.2376220000001
 30
0.0
 11
253.4962499999999
 21
-61.94550300000011
 31
0.0
  0
LINE
  5
4942
330
A
100
AcDbEntity
  8
0
  6
Continuous
 62
     7
100
AcDbLine
 10
253.4962499999999
 20
-61.94550300000011
 30
0.0
 11
276.685667
 21
-66.67902300000012
 31
0.0
  0
LINE
  5
4943
330
A
100
AcDbEntity
  8
0
  6
Continuous
 62
     7
100
AcDbLine
 10
276.685667
 20
-66.67902300000012
 30
0.0
 11
299.6486929999999
 21
-71.36633100000011
 31
0.0
  0
LINE
  5
4944
330
A
100
AcDbEntity
  8
0
  6
Continuous
 62
     9
100
AcDbLine
 10
303.584173
 20
-138.9918090000001
 30
0.0
 11
303.9419439999999
 21
-138.6996910000001
 31
0.0
  0
LINE
  5
4945
330
A
100
AcDbEntity
  8
0
  6
Continuous
 62
     7
100
AcDbLine
 10
303.9419439999999
 20
-76.62446800000012
 30
0.0
 11
303.9419439999999
 21
-82.55408400000012
 31
0.0
  0
LINE
  5
4946
330
A
100
AcDbEntity
  8
0
  6
Continuous
 62
     7
100
AcDbLine
 10
303.9419439999999
 20
-82.55408400000012
 30
0.0
 11
303.9419439999999
 21
-138.6996910000001
 31
0.0
  0
ELLIPSE
  5
4947
330
A
100
AcDbEntity
  8
0
  6
Continuous
 62
     7
100
AcDbEllipse
 10
253.138479
 20
-66.25425400000011
 30
0.0
 11
-2.78280434338618
 21
3.408225342671904
 31
0.0000000000000001
210
0.0000000000000001
220
0.0
230
1.0
 40
0.816497
 41
5.497787143134255
 42
6.283185307179584
  0
ELLIPSE
  5
4948
330
A
100
AcDbEntity
  8
0
  6
Continuous
 62
     7
100
AcDbEllipse
 10
253.4962499999999
 20
-65.96213500000013
 30
0.0
 11
-2.782804343386179
 21
3.408225342672015
 31
-0.0000000000000001
210
0.0
220
0.0000000000000001
230
1.0
 40
0.8164970000000003
 41
5.497787143134217
 42
6.283185307179588
  0
ELLIPSE
  5
4949
330
A
100
AcDbEntity
  8
0
  6
Continuous
 62
     7
100
AcDbEllipse
 10
299.6486929999999
 20
-137.8233350000001
 30
0.0
 11
-3.035786556421226
 21
3.718064010187509
 31
0.0
210
0.0000000000000001
220
0.0
230
1.0
 40
0.816497
 41
3.141592653589792
 42
3.926990816339343
  0
ELLIPSE
  5
494A
330
A
100
AcDbEntity
  8
0
  6
Continuous
 62
     7
100
AcDbEllipse
 10
236.9314589999999
 20
-126.1166780000001
 30
0.0
 11
-2.782804343615996
 21
3.408225342484263
 31
0.0000000000000001
210
0.0
220
-0.0000000000000001
230
1.0
 40
0.816497
 41
3.92699081634812
 42
4.563995357670193
  0
ELLIPSE
  5
494B
330
A
100
AcDbEntity
  8
0
  6
Continuous
 62
     7
100
AcDbEllipse
 10
236.9314589999999
 20
-126.1166780000001
 30
0.0
 11
-2.782804343615996
 21
3.408225342484263
 31
0.0
210
0.0
220
0.0
230
1.0
 40
0.816497
 41
3.14159265358979
 42
3.926990816348122
  0
ELLIPSE
  5
494C
330
A
100
AcDbEntity
  8
0
  6
Continuous
 62
     7
100
AcDbEllipse
 10
190.7790159999999
 20
-54.25547800000012
 30
0.0
 11
-3.035786556671915
 21
3.71806400998281
 31
0.0
210
0.0
220
0.0
230
1.0
 40
0.816497
 41
6.28318530717958
 42
6.592464410441433
  0
LINE
  5
494D
330
A
100
AcDbEntity
  8
0
  6
Continuous
 62
     7
100
AcDbLine
 10
190.7790159999999
 20
-49.8736980000001
 30
0.0
 11
236.9314589999999
 21
-59.2945260000001
 31
0.0
  0
ELLIPSE
  5
494E
330
A
100
AcDbEntity
  8
0
  6
Continuous
 62
     7
100
AcDbEllipse
 10
236.9314589999999
 20
-63.31115800000012
 30
0.0
 11
-2.782804343615996
 21
3.40822534248425
 31
0.0
210
0.0
220
0.0
230
1.0
 40
0.816497
 41
3.926990816348121
 42
5.497787143143009
  0
ELLIPSE
  5
494F
330
A
100
AcDbEntity
  8
0
  6
Continuous
 62
     7
100
AcDbEllipse
 10
236.9314589999999
 20
-63.31115800000012
 30
0.0
 11
-2.782804343615996
 21
3.40822534248425
 31
0.0
210
0.0
220
0.0
230
1.0
 40
0.816497
 41
3.141592653589778
 42
3.926990816348122
  0
LINE
  5
4950
330
A
100
AcDbEntity
  8
0
  6
Continuous
 62
     9
100
AcDbLine
 10
240.8669380000001
 20
-64.11448400000011
 30
0.0
 11
241.58248
 21
-63.53024700000012
 31
0.0
  0
LINE
  5
4951
330
A
100
AcDbEntity
  8
0
  6
Continuous
 62
     9
100
AcDbLine
 10
236.9314589999999
 20
-59.2945260000001
 30
0.0
 11
237.6469999999999
 21
-58.71028800000011
 31
0.0
  0
ELLIPSE
  5
4952
330
A
100
AcDbEntity
  8
0
  6
Continuous
 62
     7
100
AcDbEllipse
 10
237.6469999999999
 20
-62.72692100000011
 30
0.0
 11
-2.782804343615996
 21
3.408225342484278
 31
0.0
210
0.0
220
0.0
230
1.0
 40
0.816497
 41
3.926990816348117
 42
5.49778714314301
  0
LINE
  5
4953
330
A
100
AcDbEntity
  8
0
  6
Continuous
 62
     9
100
AcDbLine
 10
190.7790159999999
 20
-49.8736980000001
 30
0.0
 11
191.494557
 21
-49.28946000000019
 31
0.0
  0
LINE
  5
4954
330
A
100
AcDbEntity
  8
0
  6
Continuous
 62
     7
100
AcDbLine
 10
191.494557
 20
-49.28946000000019
 30
0.0
 11
191.601889
 21
-49.3113690000001
 31
0.0
  0
LINE
  5
4955
330
A
100
AcDbEntity
  8
0
  6
Continuous
 62
     7
100
AcDbLine
 10
191.601889
 20
-49.3113690000001
 30
0.0
 11
237.6469999999999
 21
-58.71028800000011
 31
0.0
  0
ELLIPSE
  5
4956
330
A
100
AcDbEntity
  8
0
  6
Continuous
 62
     7
100
AcDbEllipse
 10
236.9314589999999
 20
-63.31115800000012
 30
0.0
 11
-2.782804343615996
 21
3.40822534248425
 31
-0.0000000000000002
210
0.0
220
0.0
230
1.0
 40
0.816497
 41
3.022621977540671
 42
3.141592653589778
  0
ELLIPSE
  5
4957
330
A
100
AcDbEntity
  8
0
  6
Continuous
 62
     7
100
AcDbEllipse
 10
237.6469999999999
 20
-62.72692100000011
 30
0.0
 11
-2.782804343615996
 21
3.408225342484278
 31
0.0
210
0.0
220
0.0
230
1.0
 40
0.816497
 41
3.141592653589792
 42
3.92699081634812
  0
ELLIPSE
  5
4958
330
A
100
AcDbEntity
  8
0
  6
Continuous
 62
     7
100
AcDbEllipse
 10
190.7790159999999
 20
-54.25547800000012
 30
0.0
 11
-3.035786556671915
 21
3.71806400998281
 31
0.0000000000000001
210
0.0000000000000001
220
0.0
230
1.0
 40
0.816497
 41
5.497787143143034
 42
6.283185307179584
  0
ELLIPSE
  5
4959
330
A
100
AcDbEntity
  8
0
  6
Continuous
 62
     7
100
AcDbEllipse
 10
191.494557
 20
-53.67124100000009
 30
0.0
 11
-3.035786556672137
 21
3.718064009982922
 31
0.0000000000000001
210
0.0000000000000001
220
0.0
230
1.0
 40
0.8164970000000002
 41
5.497787143142999
 42
6.283185307179588
  0
LINE
  5
495A
330
A
100
AcDbEntity
  8
0
  6
Continuous
 62
     9
100
AcDbLine
 10
240.8669380000001
 20
-126.9200040000001
 30
0.0
 11
241.58248
 21
-126.3357670000001
 31
0.0
  0
ELLIPSE
  5
495B
330
A
100
AcDbEntity
  8
0
  6
Continuous
 62
     7
100
AcDbEllipse
 10
237.6469999999999
 20
-125.5324400000001
 30
0.0
 11
-2.782804343615996
 21
3.408225342484263
 31
0.0000000000000001
210
0.0
220
-0.0000000000000001
230
1.0
 40
0.816497
 41
3.92699081634812
 42
4.563995357670193
  0
ELLIPSE
  5
495C
330
A
100
AcDbEntity
  8
0
  6
Continuous
 62
     7
100
AcDbEllipse
 10
236.9314589999999
 20
-126.1166780000001
 30
0.0
 11
-2.782804343615996
 21
3.408225342484263
 31
-0.0000000000000001
210
-0.0000000000000001
220
0.0
230
1.0
 40
0.816497
 41
3.022621977540627
 42
3.141592653589788
  0
ELLIPSE
  5
495D
330
A
100
AcDbEntity
  8
0
  6
Continuous
 62
     7
100
AcDbEllipse
 10
237.6469999999999
 20
-125.5324400000001
 30
0.0
 11
-2.782804343615996
 21
3.408225342484263
 31
0.0
210
0.0
220
0.0
230
1.0
 40
0.816497
 41
3.14159265358979
 42
3.926990816348122
  0
ELLIPSE
  5
495E
330
A
100
AcDbEntity
  8
0
  6
Continuous
 62
     9
100
AcDbEllipse
 10
295.176557
 20
-79.39959500000012
 30
0.0
 11
-1.770875491388764
 21
2.168870672492468
 31
0.0
210
-0.0000000000000001
220
0.0
230
1.0
 40
0.8164970000000002
 41
3.926990816349523
 42
5.497787143144042
  0
ELLIPSE
  5
495F
330
A
100
AcDbEntity
  8
0
  6
Continuous
 62
     9
100
AcDbEllipse
 10
295.534328
 20
-76.5514380000001
 30
0.0
 11
-0.159999999999938
 21
-0.7838367176906114
 31
0.0
210
0.0
220
0.0
230
1.0
 40
0.4082480000000001
 41
3.605240263228421
 42
5.176036590023358
  0
ELLIPSE
  5
4960
330
A
100
AcDbEntity
  8
0
  6
Continuous
 62
     9
100
AcDbEllipse
 10
295.534328
 20
-79.1074770000001
 30
0.0
 11
2.276839917499938
 21
-2.788548007490453
 31
0.0000000000000001
210
0.0
220
0.0000000000000001
230
0.9999999999999998
 40
0.8164970000000002
 41
0.7853981627596554
 42
2.356194489554138
  0
ELLIPSE
  5
4961
330
A
100
AcDbEntity
  8
0
  6
Continuous
 62
     9
100
AcDbEllipse
 10
298.038724
 20
-79.61868400000011
 30
0.0
 11
0.8000000000001339
 21
0.0000000002500222
 31
0.0000000000000001
210
-0.0000000000000001
220
0.0
230
1.0
 40
0.4082480000000001
 41
4.248741371256484
 42
5.819537698051012
  0
LINE
  5
4962
330
A
100
AcDbEntity
  8
0
  6
Continuous
 62
     9
100
AcDbLine
 10
300.900891
 20
-78.01203100000012
 30
0.0
 11
298.7542659999999
 21
-79.76474400000012
 31
0.0
  0
LINE
  5
4963
330
A
100
AcDbEntity
  8
0
  6
Continuous
 62
     9
100
AcDbLine
 10
295.534328
 20
-75.82114100000009
 30
0.0
 11
297.6809529999998
 21
-74.06842900000012
 31
0.0
  0
ELLIPSE
  5
4964
330
A
100
AcDbEntity
  8
0
  6
Continuous
 62
     7
100
AcDbEllipse
 10
297.6809529999998
 20
-77.3547640000001
 30
0.0
 11
-2.276839917500161
 21
2.788548007490481
 31
-0.0000000000000001
210
0.0
220
0.0000000000000001
230
1.0
 40
0.8164970000000002
 41
3.926990816349455
 42
5.497787143143977
  0
ELLIPSE
  5
4965
330
A
100
AcDbEntity
  8
0
  6
Continuous
 62
     9
100
AcDbEllipse
 10
238.290988
 20
-80.24308800000012
 30
0.0
 11
4.047715408888929
 21
-4.957418679982953
 31
0.0000000000000003
210
-0.0000000000000001
220
0.0
230
1.0
 40
0.8164969999999998
 41
6.192285408770878
 42
7.068583469939086
  0
LINE
  5
4966
330
A
100
AcDbEntity
  8
0
  6
Continuous
 62
     9
100
AcDbLine
 10
244.015322
 20
-66.4003130000001
 30
0.0
 11
244.015322
 21
-81.41156300000011
 31
0.0
  0
LINE
  5
4967
330
A
100
AcDbEntity
  8
0
  6
Continuous
 62
     9
100
AcDbLine
 10
295.176557
 20
-76.84355700000011
 30
0.0
 11
244.015322
 21
-66.4003130000001
 31
0.0
  0
LINE
  5
4968
330
A
100
AcDbEntity
  8
0
  6
Continuous
 62
     9
100
AcDbLine
 10
297.6809529999998
 20
-146.3678070000001
 30
0.0
 11
297.6809529999998
 21
-79.91080300000013
 31
0.0
  0
ELLIPSE
  5
4969
330
A
100
AcDbEntity
  8
0
  6
Continuous
 62
     9
100
AcDbEllipse
 10
295.176557
 20
-145.8565990000001
 30
0.0
 11
-1.770875491388989
 21
2.168870672492591
 31
0.0
210
0.0
220
0.0
230
1.0
 40
0.8164970000000003
 41
2.35619448955407
 42
3.926990816349464
  0
LINE
  5
496A
330
A
100
AcDbEntity
  8
0
  6
Continuous
 62
     9
100
AcDbLine
 10
244.015322
 20
-137.9693940000001
 30
0.0
 11
295.176557
 21
-148.4126370000001
 31
0.0
  0
LINE
  5
496B
330
A
100
AcDbEntity
  8
0
  6
Continuous
 62
     9
100
AcDbLine
 10
244.015322
 20
-122.9581440000001
 30
0.0
 11
244.015322
 21
-137.9693940000001
 31
0.0
  0
ELLIPSE
  5
496C
330
A
100
AcDbEntity
  8
0
  6
Continuous
 62
     9
100
AcDbEllipse
 10
238.290988
 20
-121.7896700000001
 30
0.0
 11
4.047715408888929
 21
-4.957418679982937
 31
0.0000000000000003
210
0.0
220
0.0000000000000001
230
1.0
 40
0.8164970000000002
 41
0.7853981627596987
 42
1.661696223927406
  0
LINE
  5
496D
330
A
100
AcDbEntity
  8
0
  6
Continuous
 62
     9
100
AcDbLine
 10
241.9545619999999
 20
-118.0483600000001
 30
0.0
 11
241.9545619999999
 21
-85.48004500000009
 31
0.0
  0
ELLIPSE
  5
496E
330
A
100
AcDbEntity
  8
0
  6
Continuous
 62
     9
100
AcDbEllipse
 10
244.3730929999999
 20
-66.10819500000011
 30
0.0
 11
0.159999999999938
 21
0.7838367176906396
 31
0.0
210
0.0
220
0.0
230
1.0
 40
0.4082480000000002
 41
0.4636476096386221
 42
2.034443936433524
  0
LINE
  5
496F
330
A
100
AcDbEntity
  8
0
  6
Continuous
 62
     9
100
AcDbLine
 10
244.3730929999999
 20
-65.3778980000001
 30
0.0
 11
295.534328
 21
-75.82114100000009
 31
0.0
  0
ELLIPSE
  5
4970
330
A
100
AcDbEntity
  8
0
  6
Continuous
 62
     9
100
AcDbEllipse
 10
298.038724
 20
-146.0756880000001
 30
0.0
 11
-0.8000000000001339
 21
-0.0000000002500222
 31
0.0
210
0.0
220
0.0000000000000001
230
1.0
 40
0.4082480000000001
 41
1.107148717666394
 42
2.677945044461173
  0
LINE
  5
4971
330
A
100
AcDbEntity
  8
0
  6
Continuous
 62
     9
100
AcDbLine
 10
298.7542659999999
 20
-79.76474400000012
 30
0.0
 11
298.7542659999999
 21
-146.2217470000001
 31
0.0
  0
ELLIPSE
  5
4972
330
A
100
AcDbEntity
  8
0
  6
Continuous
 62
     9
100
AcDbEllipse
 10
245.4464050000002
 20
-64.50154200000011
 30
0.0
 11
-2.399999999999957
 21
-0.0000000007500667
 31
-0.0000000000000002
210
-0.0000000000000001
220
0.0
230
1.0
 40
0.4082480000000002
 41
5.819537698051012
 42
7.390334024846238
  0
LINE
  5
4973
330
A
100
AcDbEntity
  8
0
  6
Continuous
 62
     9
100
AcDbLine
 10
244.3730929999999
 20
-63.18700800000013
 30
0.0
 11
243.2997800000001
 21
-64.06336400000009
 31
0.0
  0
LINE
  5
4974
330
A
100
AcDbEntity
  8
0
  6
Continuous
 62
     7
100
AcDbLine
 10
297.6809529999998
 20
-74.06842900000012
 30
0.0
 11
244.3730929999999
 21
-63.18700800000013
 31
0.0
  0
LINE
  5
4975
330
A
100
AcDbEntity
  8
0
  6
Continuous
 62
     9
100
AcDbLine
 10
298.7542659999999
 20
-146.2217470000001
 30
0.0
 11
300.900891
 21
-144.4690350000001
 31
0.0
  0
LINE
  5
4976
330
A
100
AcDbEntity
  8
0
  6
Continuous
 62
     7
100
AcDbLine
 10
300.900891
 20
-144.4690350000001
 30
0.0
 11
300.900891
 21
-78.01203100000012
 31
0.0
  0
ELLIPSE
  5
4977
330
A
100
AcDbEntity
  8
0
  6
Continuous
 62
     9
100
AcDbEllipse
 10
243.2997800000001
 20
-64.79366000000013
 30
0.0
 11
-0.5059644261111718
 21
0.6196773349979035
 31
0.0
210
0.0
220
0.0
230
1.0
 40
0.816497
 41
5.497787143144221
 42
6.283185307179563
  0
ELLIPSE
  5
4978
330
A
100
AcDbEntity
  8
0
  6
Continuous
 62
     9
100
AcDbEllipse
 10
245.4464050000002
 20
-65.23183800000009
 30
0.0
 11
3.200000000000091
 21
0.0000000010000889
 31
0.0
210
0.0
220
0.0000000000000001
230
1.0
 40
0.4082480000000002
 41
3.141599072258141
 42
4.248741371256453
  0
ELLIPSE
  5
4979
330
A
100
AcDbEntity
  8
0
  6
Continuous
 62
     9
100
AcDbEllipse
 10
245.4464050000002
 20
-80.24308800000012
 30
0.0
 11
-3.199999999999868
 21
-0.0000000010000889
 31
0.0
210
0.0
220
0.0
230
1.0
 40
0.4082480000000002
 41
6.283185307179577
 42
7.390334024846129
  0
ELLIPSE
  5
497A
330
A
100
AcDbEntity
  8
0
  6
Continuous
 62
     7
100
AcDbEllipse
 10
244.3730929999999
 20
-63.91730400000011
 30
0.0
 11
-0.5059644261111718
 21
0.6196773349980145
 31
0.0
210
0.0000000000000001
220
0.0
230
1.0
 40
0.816497
 41
5.497787143144023
 42
6.283185307179607
  0
ELLIPSE
  5
497B
330
A
100
AcDbEntity
  8
0
  6
Continuous
 62
     9
100
AcDbEllipse
 10
295.534328
 20
-145.5644800000001
 30
0.0
 11
2.276839917499938
 21
-2.788548007490371
 31
0.0
210
0.0
220
0.0
230
1.0
 40
0.816497
 41
0.0002422525926713
 42
0.7853981627595065
  0
ELLIPSE
  5
497C
330
A
100
AcDbEntity
  8
0
  6
Continuous
 62
     9
100
AcDbEllipse
 10
295.534328
 20
-148.1205190000001
 30
0.0
 11
-0.159999999999938
 21
-0.7838367176905976
 31
0.0
210
0.0
220
0.0
230
1.0
 40
0.4082480000000002
 41
5.176036590023342
 42
6.283184576694377
  0
ELLIPSE
  5
497D
330
A
100
AcDbEntity
  8
0
  6
Continuous
 62
     7
100
AcDbEllipse
 10
297.6809529999998
 20
-143.8117680000001
 30
0.0
 11
-2.276839917499938
 21
2.788548007490371
 31
-0.0000000000000001
210
0.0
220
0.0000000000000001
230
1.0
 40
0.816497
 41
3.141592653589971
 42
3.926990816349507
  0
ELLIPSE
  5
497E
330
A
100
AcDbEntity
  8
0
  6
Continuous
 62
     9
100
AcDbEllipse
 10
239.7220710000001
 20
-79.07461300000012
 30
0.0
 11
-2.023857704444463
 21
2.478709339991501
 31
0.0
210
0.0
220
0.0
230
1.0
 40
0.816497
 41
3.085922145781518
 42
3.141665443019268
  0
ARC
  5
497F
330
A
100
AcDbEntity
  8
0
  6
Continuous
 62
     7
100
AcDbCircle
 10
244.141911
 20
-81.99725200000012
 30
0.0
 40
4.112705
100
AcDbArc
 50
199.1861060000005
 51
237.8693529999992
  0
LINE
  5
4980
330
A
100
AcDbEntity
  8
0
  6
Continuous
 62
     7
100
AcDbLine
 10
241.630183
 20
-81.64142900000014
 30
0.0
 11
241.5034779999999
 21
-81.7416830000001
 31
0.0
  0
ELLIPSE
  5
4981
330
A
100
AcDbEntity
  8
0
  6
Continuous
 62
     9
100
AcDbEllipse
 10
244.3730929999999
 20
-137.6772750000001
 30
0.0
 11
0.159999999999938
 21
0.7838367176905976
 31
0.0
210
0.0
220
0.0
230
1.0
 40
0.4082480000000002
 41
2.034443936433548
 42
3.141592653589233
  0
LINE
  5
4982
330
A
100
AcDbEntity
  8
0
  6
Continuous
 62
     7
100
AcDbLine
 10
241.9545619999999
 20
-118.0483600000001
 30
0.0
 11
240.2576409999999
 21
-118.3937280000001
 31
0.0
  0
LINE
  5
4983
330
A
100
AcDbEntity
  8
0
  6
Continuous
 62
     7
100
AcDbLine
 10
240.2576119999999
 20
-118.3785350000001
 30
0.0
 11
240.2576409999999
 21
-118.3937280000001
 31
0.0
  0
LINE
  5
4984
330
A
100
AcDbEntity
  8
0
  6
Continuous
 62
     7
100
AcDbLine
 10
240.2576119999999
 20
-118.3785350000001
 30
0.0
 11
240.2576119999999
 21
-83.3639260000001
 31
0.0
  0
LINE
  5
4985
330
A
100
AcDbEntity
  8
0
  6
Continuous
 62
     7
100
AcDbLine
 10
240.2576409999999
 20
-83.3488420000001
 30
0.0
 11
240.2576119999999
 21
-83.3639260000001
 31
0.0
  0
ARC
  5
4986
330
A
100
AcDbEntity
  8
0
  6
Continuous
 62
     7
100
AcDbCircle
 10
244.0201039999999
 20
-84.97897400000011
 30
0.0
 40
4.100422
100
AcDbArc
 50
127.8610110000002
 51
156.5747550000007
  0
LINE
  5
4987
330
A
100
AcDbEntity
  8
0
  6
Continuous
 62
     9
100
AcDbLine
 10
241.81645
 20
-81.48934200000011
 30
0.0
 11
241.630183
 21
-81.64142900000014
 31
0.0
  0
ELLIPSE
  5
4988
330
A
100
AcDbEntity
  8
0
  6
Continuous
 62
     9
100
AcDbEllipse
 10
245.4464050000002
 20
-121.7896700000001
 30
0.0
 11
3.199999999999868
 21
0.0000000010001028
 31
0.0
210
0.0
220
0.0000000000000001
230
1.0
 40
0.4082480000000002
 41
3.141593764514916
 42
4.248741371256437
  0
LINE
  5
4989
330
A
100
AcDbEntity
  8
0
  6
Continuous
 62
     7
100
AcDbLine
 10
240.2576409999999
 20
-118.3937280000001
 30
0.0
 11
240.371277
 21
-118.4863600000001
 31
0.0
  0
ELLIPSE
  5
498A
330
A
100
AcDbEntity
  8
0
  6
Continuous
 62
     9
100
AcDbEllipse
 10
245.4464050000002
 20
-136.8009190000001
 30
0.0
 11
-3.199999999999868
 21
-0.0000000010001028
 31
0.0
210
0.0
220
0.0
230
1.0
 40
0.4082480000000002
 41
6.283185307179584
 42
7.390334024846129
  0
LINE
  5
498B
330
A
100
AcDbEntity
  8
0
  6
Continuous
 62
     7
100
AcDbLine
 10
247.5930310000001
 20
-63.84427500000012
 30
0.0
 11
247.5930310000001
 21
-60.55793900000009
 31
0.0
  0
ELLIPSE
  5
498C
330
A
100
AcDbEntity
  8
0
  6
Continuous
 62
     7
100
AcDbEllipse
 10
248.3085719999999
 20
-60.70399900000012
 30
0.0
 11
0.5059644260703156
 21
-0.6196773350313212
 31
0.0
210
0.0
220
0.0
230
1.0
 40
0.816497
 41
2.356194489544499
 42
3.141592653589556
  0
LINE
  5
498D
330
A
100
AcDbEntity
  8
0
  6
Continuous
 62
     7
100
AcDbLine
 10
248.3085719999999
 20
-59.97370200000012
 30
0.0
 11
301.6164329999999
 21
-70.85512300000011
 31
0.0
  0
ELLIPSE
  5
498E
330
A
100
AcDbEntity
  8
0
  6
Continuous
 62
     7
100
AcDbEllipse
 10
301.6164329999999
 20
-74.14145900000011
 30
0.0
 11
2.276839917315864
 21
-2.788548007640611
 31
0.0
210
0.0000000000000001
220
0.0
230
1.0
 40
0.816497
 41
0.7853981627495759
 42
2.356194489544523
  0
LINE
  5
498F
330
A
100
AcDbEntity
  8
0
  6
Continuous
 62
     7
100
AcDbLine
 10
304.8363710000001
 20
-74.7987260000001
 30
0.0
 11
304.8363710000001
 21
-141.2557290000001
 31
0.0
  0
ELLIPSE
  5
4990
330
A
100
AcDbEntity
  8
0
  6
Continuous
 62
     7
100
AcDbEllipse
 10
301.6164329999999
 20
-140.5984620000001
 30
0.0
 11
2.276839917316086
 21
-2.788548007640708
 31
0.0000000000000002
210
0.0
220
0.0000000000000001
230
1.0
 40
0.8164970000000002
 41
5.497787143134261
 42
6.28318530717958
  0
LINE
  5
4991
330
A
100
AcDbEntity
  8
0
  6
Continuous
 62
     7
100
AcDbLine
 10
301.6164329999999
 20
-143.8847980000001
 30
0.0
 11
300.900891
 21
-143.7387380000001
 31
0.0
  0
ELLIPSE
  5
4992
330
A
100
AcDbEntity
  8
0
  6
Continuous
 62
     7
100
AcDbEllipse
 10
299.8275789999998
 20
-138.4075720000001
 30
0.0
 11
3.035786556421226
 21
-3.718064010187509
 31
0.0000000000000001
210
0.0
220
0.0000000000000001
230
1.0
 40
0.816497
 41
5.750467399119322
 42
6.283185307179659
  0
LINE
  5
4993
330
A
100
AcDbEntity
  8
0
  6
Continuous
 62
     7
100
AcDbLine
 10
304.120829
 20
-139.2839280000001
 30
0.0
 11
304.120829
 21
-76.47840800000011
 31
0.0
  0
ELLIPSE
  5
4994
330
A
100
AcDbEntity
  8
0
  6
Continuous
 62
     7
100
AcDbEllipse
 10
299.8275789999998
 20
-75.60205200000012
 30
0.0
 11
3.035786556421226
 21
-3.718064010187481
 31
0.0
210
0.0000000000000001
220
0.0
230
1.0
 40
0.816497
 41
0.7853981627495527
 42
2.356194489544412
  0
LINE
  5
4995
330
A
100
AcDbEntity
  8
0
  6
Continuous
 62
     7
100
AcDbLine
 10
299.8275789999998
 20
-71.22027200000011
 30
0.0
 11
253.3173649999999
 21
-61.72641400000009
 31
0.0
  0
ELLIPSE
  5
4996
330
A
100
AcDbEntity
  8
0
  6
Continuous
 62
     7
100
AcDbEllipse
 10
253.3173649999999
 20
-66.10819400000011
 30
0.0
 11
3.035786556421226
 21
-3.718064010187509
 31
0.0
210
0.0000000000000001
220
0.0
230
1.0
 40
0.816497
 41
2.356194489544416
 42
3.141592653589792
  0
LINE
  5
4997
330
A
100
AcDbEntity
  8
0
  6
Continuous
 62
     9
100
AcDbLine
 10
301.6164329999999
 20
-70.85512300000011
 30
0.0
 11
303.763058
 21
-69.10241100000019
 31
0.0
  0
ELLIPSE
  5
4998
330
A
100
AcDbEntity
  8
0
  6
Continuous
 62
     9
100
AcDbEllipse
 10
303.763058
 20
-72.38874600000011
 30
0.0
 11
2.276839917315864
 21
-2.788548007640611
 31
0.0
210
0.0000000000000001
220
0.0
230
1.0
 40
0.816497
 41
0.7853981627495469
 42
2.3561944895444
  0
LINE
  5
4999
330
A
100
AcDbEntity
  8
0
  6
Continuous
 62
     9
100
AcDbLine
 10
306.982996
 20
-73.04601400000009
 30
0.0
 11
304.8363710000001
 21
-74.7987260000001
 31
0.0
  0
ELLIPSE
  5
499A
330
A
100
AcDbEntity
  8
0
  6
Continuous
 62
     7
100
AcDbEllipse
 10
300.0064640000001
 20
-138.2615130000001
 30
0.0
 11
3.035786556421447
 21
-3.718064010187608
 31
0.0000000000000002
210
-0.0000000000000001
220
0.0
230
1.0
 40
0.816497
 41
5.7076577362127
 42
6.253718258214862
  0
LINE
  5
499B
330
A
100
AcDbEntity
  8
0
  6
Continuous
 62
     9
100
AcDbLine
 10
303.763058
 20
-69.10241100000019
 30
0.0
 11
252.601823
 21
-58.65916800000011
 31
0.0
  0
LINE
  5
499C
330
A
100
AcDbEntity
  8
0
  6
Continuous
 62
     9
100
AcDbLine
 10
249.381885
 20
-59.0973460000001
 30
0.0
 11
248.3085719999999
 21
-59.97370200000012
 31
0.0
  0
ELLIPSE
  5
499D
330
A
100
AcDbEntity
  8
0
  6
Continuous
 62
     9
100
AcDbEllipse
 10
251.5285099999999
 20
-59.53552400000012
 30
0.0
 11
-2.399999999999736
 21
-0.0000000006013245
 31
-0.0000000000000002
210
-0.0000000000000001
220
0.0000000000000001
230
1.0
 40
0.4082480000000002
 41
4.248741371226443
 42
5.819537698021427
  0
LINE
  5
499E
330
A
100
AcDbEntity
  8
0
  6
Continuous
 62
     9
100
AcDbLine
 10
306.982996
 20
-139.5030170000001
 30
0.0
 11
306.982996
 21
-73.04601400000009
 31
0.0
  0
LINE
  5
499F
330
A
100
AcDbEntity
  8
0
  6
Continuous
 62
     9
100
AcDbLine
 10
304.8363710000001
 20
-141.2557290000001
 30
0.0
 11
306.982996
 21
-139.5030170000001
 31
0.0
  0
ELLIPSE
  5
49A0
330
A
100
AcDbEntity
  8
0
  6
Continuous
 62
     9
100
AcDbEllipse
 10
306.2674539999998
 20
-72.89995400000012
 30
0.0
 11
0.7999999999999119
 21
0.0000000002004508
 31
-0.0000000000000001
210
0.0000000000000001
220
0.0
230
1.0
 40
0.4082480000000001
 41
5.819537698021313
 42
6.283186800346667
  0
ELLIPSE
  5
49A1
330
A
100
AcDbEntity
  8
0
  6
Continuous
 62
     9
100
AcDbEllipse
 10
303.763058
 20
-69.83270800000011
 30
0.0
 11
0.1600000000701041
 21
0.7838367176762617
 31
0.0
210
0.0
220
0.0
230
1.0
 40
0.4082480000000002
 41
6.283184181998892
 42
6.746832916855995
  0
ELLIPSE
  5
49A2
330
A
100
AcDbEntity
  8
0
  6
Continuous
 62
     9
100
AcDbEllipse
 10
252.601823
 20
-59.38946400000012
 30
0.0
 11
0.1600000000701041
 21
0.7838367176762617
 31
0.0
210
0.0
220
0.0
230
1.0
 40
0.4082480000000002
 41
0.0000000000002789
 42
0.4636476096764118
  0
ELLIPSE
  5
49A3
330
A
100
AcDbEntity
  8
0
  6
Continuous
 62
     9
100
AcDbEllipse
 10
306.2674539999998
 20
-139.3569580000001
 30
0.0
 11
0.8000000000001339
 21
0.0000000002004508
 31
0.0
210
0.0
220
0.0
230
1.0
 40
0.4082480000000001
 41
5.819537698021452
 42
6.283185307179547
  0
ELLIPSE
  5
49A4
330
A
100
AcDbEntity
  8
0
  6
Continuous
 62
     7
100
AcDbEllipse
 10
253.4962499999999
 20
-65.96213500000013
 30
0.0
 11
3.035786556421447
 21
-3.718064010187593
 31
0.0
210
0.0000000000000001
220
0.0000000000000001
230
1.0
 40
0.816497
 41
3.171059701167988
 42
3.615844648453478
  0
ELLIPSE
  5
49A5
330
A
100
AcDbEntity
  8
0
  6
Continuous
 62
     7
100
AcDbEllipse
 10
253.3173649999999
 20
-66.10819400000011
 30
0.0
 11
3.035786556421226
 21
-3.718064010187509
 31
0.0000000000000002
210
-0.0000000000000001
220
0.0
230
1.0
 40
0.816497
 41
3.141592653589792
 42
3.674310563304563
  0
ELLIPSE
  5
49A6
330
A
100
AcDbEntity
  8
0
  6
Continuous
 62
     7
100
AcDbEllipse
 10
248.3085719999999
 20
-60.70399900000012
 30
0.0
 11
0.5059644260703156
 21
-0.6196773350313212
 31
0.0
210
0.0
220
0.0
230
1.0
 40
0.816497
 41
3.141592653589555
 42
3.926990816339241
  0
ELLIPSE
  5
49A7
330
A
100
AcDbEntity
  8
0
  6
Continuous
 62
     9
100
AcDbEllipse
 10
249.381885
 20
-59.82764200000011
 30
0.0
 11
0.5059644260700935
 21
-0.6196773350312101
 31
0.0
210
0.0000000000000001
220
0.0
230
1.0
 40
0.8164970000000003
 41
2.35619448954499
 42
3.14159265359003
  0
ELLIPSE
  5
49A8
330
A
100
AcDbEntity
  8
0
  6
Continuous
 62
     7
100
AcDbEllipse
 10
299.8275789999998
 20
-138.4075720000001
 30
0.0
 11
3.035786556421226
 21
-3.718064010187495
 31
0.0000000000000002
210
-0.0000000000000001
220
0.0
230
1.0
 40
0.816497
 41
0.0000000000000753
 42
0.7853981627495486
  0
ELLIPSE
  5
49A9
330
A
100
AcDbEntity
  8
0
  6
Continuous
 62
     7
100
AcDbEllipse
 10
301.6164329999999
 20
-140.5984620000001
 30
0.0
 11
2.276839917316086
 21
-2.788548007640708
 31
0.0000000000000001
210
0.0
220
0.0
230
1.0
 40
0.8164970000000002
 41
6.28318530717958
 42
7.068583469929103
  0
ELLIPSE
  5
49AA
330
A
100
AcDbEntity
  8
0
  6
Continuous
 62
     9
100
AcDbEllipse
 10
303.763058
 20
-138.8457500000001
 30
0.0
 11
2.276839917316086
 21
-2.788548007640708
 31
0.0000000000000001
210
0.0
220
0.0
230
1.0
 40
0.8164970000000002
 41
0.0000000000000025
 42
0.7853981627495145
  0
LINE
  5
49AB
330
A
100
AcDbEntity
  8
0
  6
Continuous
 62
     7
100
AcDbLine
 10
240.2587279999998
 20
-83.34319800000011
 30
0.0
 11
228.81006
 21
-81.0062480000001
 31
0.0
  0
ELLIPSE
  5
49AC
330
A
100
AcDbEntity
  8
0
  6
Continuous
 62
     7
100
AcDbEllipse
 10
232.745539
 20
-77.79294200000009
 30
0.0
 11
8.800000000000141
 21
0.0000000027502445
 31
0.0000000000000006
210
-0.0000000000000001
220
0.0
230
1.0
 40
0.4082480000000002
 41
3.79771456034499
 42
4.248741371256277
  0
ELLIPSE
  5
49AD
330
A
100
AcDbEntity
  8
0
  6
Continuous
 62
     7
100
AcDbEllipse
 10
232.960202
 20
-95.0717630000001
 30
0.0
 11
0.1011928852221455
 21
-0.1239354669995418
 31
0.0
210
-0.0000000000000001
220
0.0
230
1.0
 40
0.8164970000000002
 41
0.785398162759708
 42
2.356194489555659
  0
LINE
  5
49AE
330
A
100
AcDbEntity
  8
0
  6
Continuous
 62
     7
100
AcDbLine
 10
232.960202
 20
-94.9257040000001
 30
0.0
 11
228.81006
 21
-94.07856000000013
 31
0.0
  0
LINE
  5
49AF
330
A
100
AcDbEntity
  8
0
  6
Continuous
 62
     9
100
AcDbLine
 10
228.81006
 20
-94.07856000000013
 30
0.0
 11
228.81006
 21
-81.0062480000001
 31
0.0
  0
LINE
  5
49B0
330
A
100
AcDbEntity
  8
0
  6
Continuous
 62
     7
100
AcDbLine
 10
240.2587279999998
 20
-118.3974410000001
 30
0.0
 11
228.81006
 21
-116.0604920000001
 31
0.0
  0
LINE
  5
49B1
330
A
100
AcDbEntity
  8
0
  6
Continuous
 62
     9
100
AcDbLine
 10
228.81006
 20
-116.0604920000001
 30
0.0
 11
228.81006
 21
-105.2332670000001
 31
0.0
  0
ELLIPSE
  5
49B2
330
A
100
AcDbEntity
  8
0
  6
Continuous
 62
     7
100
AcDbEllipse
 10
232.745539
 20
-90.86525400000011
 30
0.0
 11
8.800000000000141
 21
0.0000000027502445
 31
0.0000000000000006
210
-0.0000000000000001
220
0.0000000000000001
230
1.0
 40
0.4082480000000002
 41
3.141592653589798
 42
4.248741371256278
  0
ELLIPSE
  5
49B3
330
A
100
AcDbEntity
  8
0
  6
Continuous
 62
     7
100
AcDbEllipse
 10
232.745539
 20
-112.8471860000002
 30
0.0
 11
8.799999999999917
 21
0.0000000027502445
 31
0.0000000000000006
210
-0.0000000000000001
220
0.0
230
1.0
 40
0.4082480000000002
 41
3.141592653589798
 42
4.248741371256277
  0
LINE
  5
49B4
330
A
100
AcDbEntity
  8
0
  6
Continuous
 62
     9
100
AcDbLine
 10
242.476907
 20
-58.78331800000009
 30
0.0
 11
243.5502199999998
 21
-57.90696200000013
 31
0.0
  0
ELLIPSE
  5
49B5
330
A
100
AcDbEntity
  8
0
  6
Continuous
 62
     9
100
AcDbEllipse
 10
243.5502199999998
 20
-58.63725900000011
 30
0.0
 11
-0.5059644261120601
 21
0.619677334997154
 31
0.0
210
0.0000000000000001
220
0.0
230
1.0
 40
0.816497
 41
3.926990816348043
 42
5.497787143142497
  0
LINE
  5
49B6
330
A
100
AcDbEntity
  8
0
  6
Continuous
 62
     9
100
AcDbLine
 10
244.2657619999998
 20
-58.78331800000009
 30
0.0
 11
243.1924489999999
 21
-59.6596740000001
 31
0.0
  0
ELLIPSE
  5
49B7
330
A
100
AcDbEntity
  8
0
  6
Continuous
 62
     7
100
AcDbEllipse
 10
242.476907
 20
-59.5136150000001
 30
0.0
 11
0.5059644261120601
 21
-0.619677334997154
 31
0.0
210
0.0
220
0.0
230
1.0
 40
0.816497
 41
0.7853981627583188
 42
2.35619448955298
  0
LINE
  5
49B8
330
A
100
AcDbEntity
  8
0
  6
Continuous
 62
     7
100
AcDbLine
 10
242.2464050000001
 20
-131.7659420000001
 30
0.0
 11
239.3643009999999
 21
-131.1776340000001
 31
0.0
  0
LINE
  5
49B9
330
A
100
AcDbEntity
  8
0
  6
Continuous
 62
     7
100
AcDbLine
 10
185.9491089999999
 20
-51.26126200000013
 30
0.0
 11
185.9491089999999
 21
-50.53096500000009
 31
0.0
  0
ELLIPSE
  5
49BA
330
A
100
AcDbEntity
  8
0
  6
Continuous
 62
     7
100
AcDbEllipse
 10
189.169047
 20
-51.18823200000012
 30
0.0
 11
2.276839917503934
 21
-2.788548007487094
 31
0.0
210
0.0
220
0.0
230
1.0
 40
0.8164970000000002
 41
2.356194489553208
 42
3.141592653589849
  0
LINE
  5
49BB
330
A
100
AcDbEntity
  8
0
  6
Continuous
 62
     7
100
AcDbLine
 10
189.169047
 20
-47.9018970000001
 30
0.0
 11
242.476907
 21
-58.78331800000009
 31
0.0
  0
LINE
  5
49BC
330
A
100
AcDbEntity
  8
0
  6
Continuous
 62
     7
100
AcDbLine
 10
243.1924489999999
 20
-59.6596740000001
 30
0.0
 11
243.1924489999999
 21
-63.84850000000011
 31
0.0
  0
ELLIPSE
  5
49BD
330
A
100
AcDbEntity
  8
0
  6
Continuous
 62
     7
100
AcDbEllipse
 10
237.4681149999999
 20
-62.87298000000013
 30
0.0
 11
3.035786556671915
 21
-3.71806400998281
 31
-0.0000000000000001
210
0.0000000000000001
220
0.0
230
1.0
 40
0.816497
 41
5.955242642803955
 42
6.28318530717958
  0
ELLIPSE
  5
49BE
330
A
100
AcDbEntity
  8
0
  6
Continuous
 62
     7
100
AcDbEllipse
 10
237.4681149999999
 20
-62.87298000000013
 30
0.0
 11
3.035786556671915
 21
-3.718064009982868
 31
-0.0000000000000001
210
0.0000000000000001
220
0.0
230
1.0
 40
0.816497
 41
0.7853981627583352
 42
2.356194489553244
  0
LINE
  5
49BF
330
A
100
AcDbEntity
  8
0
  6
Continuous
 62
     7
100
AcDbLine
 10
237.4681149999999
 20
-58.49119900000011
 30
0.0
 11
190.9579009999998
 21
-48.99734200000011
 31
0.0
  0
ELLIPSE
  5
49C0
330
A
100
AcDbEntity
  8
0
  6
Continuous
 62
     7
100
AcDbEllipse
 10
190.9579009999998
 20
-53.37912200000011
 30
0.0
 11
3.035786556671915
 21
-3.71806400998273
 31
0.0
210
0.0
220
0.0
230
1.0
 40
0.8164970000000002
 41
2.356194489553232
 42
3.141592653589823
  0
ELLIPSE
  5
49C1
330
A
100
AcDbEntity
  8
0
  6
Continuous
 62
     7
100
AcDbEllipse
 10
237.4681149999999
 20
-125.6785000000001
 30
0.0
 11
3.035786556671915
 21
-3.71806400998281
 31
0.0000000000000001
210
-0.0000000000000001
220
0.0
230
1.0
 40
0.816497
 41
5.955242642804003
 42
6.283185307179584
  0
ELLIPSE
  5
49C2
330
A
100
AcDbEntity
  8
0
  6
Continuous
 62
     7
100
AcDbEllipse
 10
237.4681149999999
 20
-125.6785000000001
 30
0.0
 11
3.035786556671915
 21
-3.718064009982854
 31
-0.0000000000000001
210
0.0000000000000001
220
0.0
230
1.0
 40
0.816497
 41
0.7853981627583471
 42
1.434849158447985
  0
LINE
  5
49C3
330
A
100
AcDbEntity
  8
0
  6
Continuous
 62
     7
100
AcDbLine
 10
223.9455390000001
 20
-107.3994100000001
 30
0.0
 11
223.819156
 21
-107.3736120000001
 31
0.0
  0
LINE
  5
49C4
330
A
100
AcDbEntity
  8
0
  6
Continuous
 62
     9
100
AcDbLine
 10
191.315672
 20
-46.14918400000013
 30
0.0
 11
189.169047
 21
-47.9018970000001
 31
0.0
  0
LINE
  5
49C5
330
A
100
AcDbEntity
  8
0
  6
Continuous
 62
     9
100
AcDbLine
 10
242.476907
 20
-56.59242800000012
 30
0.0
 11
191.315672
 21
-46.14918400000013
 31
0.0
  0
ELLIPSE
  5
49C6
330
A
100
AcDbEntity
  8
0
  6
Continuous
 62
     9
100
AcDbEllipse
 10
241.4035949999998
 20
-57.46878400000011
 30
0.0
 11
-2.40000000000018
 21
-0.0000000007514545
 31
0.0
210
0.0
220
0.0
230
1.0
 40
0.4082480000000002
 41
2.677945044460995
 42
4.248741371256268
  0
LINE
  5
49C7
330
A
100
AcDbEntity
  8
0
  6
Continuous
 62
     9
100
AcDbLine
 10
244.2657619999998
 20
-63.17336100000011
 30
0.0
 11
244.2657619999998
 21
-58.78331800000009
 31
0.0
  0
ELLIPSE
  5
49C8
330
A
100
AcDbEntity
  8
0
  6
Continuous
 62
     7
100
AcDbEllipse
 10
237.6469999999999
 20
-125.5324400000001
 30
0.0
 11
3.035786556671913
 21
-3.718064009982798
 31
0.0000000000000001
210
0.0
220
0.0000000000000001
230
1.0
 40
0.816497
 41
5.909303988878642
 42
6.253718258553772
  0
ELLIPSE
  5
49C9
330
A
100
AcDbEntity
  8
0
  6
Continuous
 62
     7
100
AcDbEllipse
 10
237.6469999999999
 20
-62.72692100000011
 30
0.0
 11
3.035786556671915
 21
-3.718064009982783
 31
0.0000000000000001
210
0.0
220
0.0000000000000001
230
1.0
 40
0.816497
 41
5.909303988878637
 42
6.253718216492245
  0
ELLIPSE
  5
49CA
330
A
100
AcDbEntity
  8
0
  6
Continuous
 62
     9
100
AcDbEllipse
 10
241.4035949999998
 20
-58.19908100000012
 30
0.0
 11
3.199999999999868
 21
0.0000000010019208
 31
0.0
210
0.0
220
0.0000000000000001
230
1.0
 40
0.4082480000000002
 41
5.819537698050901
 42
6.283191725847721
  0
ELLIPSE
  5
49CB
330
A
100
AcDbEntity
  8
0
  6
Continuous
 62
     9
100
AcDbEllipse
 10
242.476907
 20
-57.32272500000011
 30
0.0
 11
-0.159999999999938
 21
-0.7838367176906396
 31
0.0
210
0.0
220
0.0
230
1.0
 40
0.4082480000000002
 41
3.141591517948718
 42
3.605240263229817
  0
ELLIPSE
  5
49CC
330
A
100
AcDbEntity
  8
0
  6
Continuous
 62
     7
100
AcDbEllipse
 10
237.4681149999999
 20
-62.87298000000013
 30
0.0
 11
3.035786556671915
 21
-3.71806400998281
 31
0.0000000000000001
210
0.0
220
0.0
230
1.0
 40
0.816497
 41
6.28318530717958
 42
7.068583469937911
  0
ELLIPSE
  5
49CD
330
A
100
AcDbEntity
  8
0
  6
Continuous
 62
     9
100
AcDbEllipse
 10
191.315672
 20
-46.87948100000011
 30
0.0
 11
0.159999999999938
 21
0.7838367176906114
 31
0.0
210
0.0
220
0.0
230
1.0
 40
0.4082480000000001
 41
0.0000000000002789
 42
0.4636476096395321
  0
ELLIPSE
  5
49CE
330
A
100
AcDbEntity
  8
0
  6
Continuous
 62
     7
100
AcDbEllipse
 10
191.1367859999999
 20
-53.2330630000001
 30
0.0
 11
3.035786556672137
 21
-3.718064009982922
 31
0.0000000000000002
210
0.0
220
0.0000000000000001
230
1.0
 40
0.8164970000000002
 41
3.171059677975935
 42
3.717120225646315
  0
ELLIPSE
  5
49CF
330
A
100
AcDbEntity
  8
0
  6
Continuous
 62
     7
100
AcDbEllipse
 10
190.9579009999998
 20
-53.37912200000011
 30
0.0
 11
3.035786556671915
 21
-3.718064009982783
 31
-0.0000000000000001
210
0.0000000000000001
220
0.0
230
1.0
 40
0.816497
 41
3.141592653589785
 42
3.674310562714051
  0
ELLIPSE
  5
49D0
330
A
100
AcDbEntity
  8
0
  6
Continuous
 62
     7
100
AcDbEllipse
 10
189.169047
 20
-51.18823200000012
 30
0.0
 11
2.276839917503934
 21
-2.788548007487094
 31
-0.0000000000000001
210
0.0000000000000001
220
0.0
230
1.0
 40
0.8164970000000002
 41
3.141592653589849
 42
3.926990816348131
  0
ELLIPSE
  5
49D1
330
A
100
AcDbEntity
  8
0
  6
Continuous
 62
     9
100
AcDbEllipse
 10
191.315672
 20
-49.43552000000011
 30
0.0
 11
2.276839917503935
 21
-2.788548007487124
 31
0.0
210
0.0
220
0.0
230
1.0
 40
0.816497
 41
2.356194489553212
 42
3.141592653589798
  0
ELLIPSE
  5
49D2
330
A
100
AcDbEntity
  8
0
  6
Continuous
 62
     7
100
AcDbEllipse
 10
237.4681149999999
 20
-125.6785000000001
 30
0.0
 11
3.035786556671915
 21
-3.71806400998281
 31
-0.0000000000000001
210
0.0000000000000001
220
0.0
230
1.0
 40
0.816497
 41
6.28318530717958
 42
7.068583469937927
  0
ELLIPSE
  5
49D3
330
A
100
AcDbEntity
  8
0
  6
Continuous
 62
     7
100
AcDbEllipse
 10
237.3965609999998
 20
-125.8464680000001
 30
0.0
 11
-2.782804343615996
 21
3.408225342484236
 31
0.0
210
0.0000000000000001
220
0.0
230
1.0
 40
0.816497
 41
3.926990815803602
 42
4.583467272657974
  0
ELLIPSE
  5
49D4
330
A
100
AcDbEntity
  8
0
  6
Continuous
 62
     7
100
AcDbEllipse
 10
237.3965609999998
 20
-125.8464680000001
 30
0.0
 11
-2.782804343615996
 21
3.408225342484219
 31
-0.0000000000000001
210
-0.0000000000000001
220
0.0
230
1.0
 40
0.8164970000000002
 41
3.141592653589832
 42
3.926990815803602
  0
LINE
  5
49D5
330
A
100
AcDbEntity
  8
0
  6
Continuous
 62
     7
100
AcDbLine
 10
191.601889
 20
-49.3113690000001
 30
0.0
 11
237.6469999999999
 21
-58.71028800000011
 31
0.0
  0
ELLIPSE
  5
49D6
330
A
100
AcDbEntity
  8
0
  6
Continuous
 62
     7
100
AcDbEllipse
 10
237.3965609999998
 20
-63.0409480000001
 30
0.0
 11
-2.782804343615996
 21
3.40822534248425
 31
0.0
210
0.0
220
0.0
230
1.0
 40
0.816497
 41
2.93726987195445
 42
3.141592653589792
  0
LINE
  5
49D7
330
A
100
AcDbEntity
  8
0
  6
Continuous
 62
     9
100
AcDbLine
 10
241.33204
 20
-126.6497940000001
 30
0.0
 11
241.6898109999999
 21
-126.3576760000001
 31
0.0
  0
ELLIPSE
  5
49D8
330
A
100
AcDbEntity
  8
0
  6
Continuous
 62
     7
100
AcDbEllipse
 10
237.754332
 20
-125.5543490000001
 30
0.0
 11
-2.782804343615996
 21
3.408225342484236
 31
-0.0000000000000001
210
0.0
220
0.0
230
1.0
 40
0.816497
 41
3.926990815803602
 42
4.583467272657967
  0
ELLIPSE
  5
49D9
330
A
100
AcDbEntity
  8
0
  6
Continuous
 62
     7
100
AcDbEllipse
 10
237.3965609999998
 20
-125.8464680000001
 30
0.0
 11
-2.782804343615996
 21
3.408225342484219
 31
-0.0000000000000002
210
0.0
220
0.0000000000000001
230
1.0
 40
0.8164970000000002
 41
2.937269910007768
 42
3.141592653589832
  0
ELLIPSE
  5
49DA
330
A
100
AcDbEntity
  8
0
  6
Continuous
 62
     7
100
AcDbEllipse
 10
237.754332
 20
-125.5543490000001
 30
0.0
 11
-2.782804343615996
 21
3.408225342484236
 31
-0.0000000000000001
210
0.0
220
0.0000000000000001
230
1.0
 40
0.816497
 41
3.141592653589788
 42
3.926990815803602
  0
ELLIPSE
  5
49DB
330
A
100
AcDbEntity
  8
0
  6
Continuous
 62
     7
100
AcDbEllipse
 10
219.8836759999999
 20
-88.67801500000011
 30
0.0
 11
-4.56000000000012
 21
-0.0000000051482707
 31
0.0
210
0.0
220
0.0
230
1.0
 40
0.4082480000000002
 41
3.605240265356131
 42
3.745284746561681
  0
ELLIPSE
  5
49DC
330
A
100
AcDbEntity
  8
0
  6
Continuous
 62
     7
100
AcDbEllipse
 10
219.8836759999999
 20
-88.67801500000011
 30
0.0
 11
4.240000000000021
 21
0.0000000047869764
 31
-0.0000000000000003
210
0.0000000000000001
220
0.0
230
1.0
 40
0.4082480000000002
 41
5.819537695413232
 42
5.992286801881332
  0
ELLIPSE
  5
49DD
330
A
100
AcDbEntity
  8
0
  6
Continuous
 62
     7
100
AcDbEllipse
 10
219.8836759999999
 20
-88.67801500000011
 30
0.0
 11
4.240000000000021
 21
0.0000000047869764
 31
-0.0000000000000003
210
0.0000000000000001
220
0.0
230
1.0
 40
0.4082480000000002
 41
0.290898504631617
 42
0.5616225885258129
  0
ELLIPSE
  5
49DE
330
A
100
AcDbEntity
  8
0
  6
Continuous
 62
     7
100
AcDbEllipse
 10
219.8836759999999
 20
-88.67801500000011
 30
0.0
 11
4.240000000000021
 21
0.0000000047869764
 31
0.0
210
0.0
220
0.0
230
1.0
 40
0.4082480000000002
 41
5.411553860719238
 42
5.819537695413232
  0
ELLIPSE
  5
49DF
330
A
100
AcDbEntity
  8
0
  6
Continuous
 62
     7
100
AcDbEllipse
 10
219.8836759999999
 20
-88.89710400000012
 30
0.0
 11
-4.000000000000004
 21
-0.0000000045160264
 31
0.0
210
0.0
220
0.0
230
1.0
 40
0.4082480000000002
 41
2.737104827693868
 42
3.141592653589778
  0
ELLIPSE
  5
49E0
330
A
100
AcDbEntity
  8
0
  6
Continuous
 62
     7
100
AcDbEllipse
 10
219.8836759999999
 20
-88.89710400000012
 30
0.0
 11
-4.000000000000004
 21
-0.0000000045160264
 31
0.0
210
0.0
220
0.0
230
1.0
 40
0.4082480000000002
 41
3.362566882557976
 42
3.736651616337792
  0
ELLIPSE
  5
49E1
330
A
100
AcDbEntity
  8
0
  6
Continuous
 62
     7
100
AcDbEllipse
 10
219.8836759999999
 20
-88.89710400000012
 30
0.0
 11
-4.000000000000004
 21
-0.0000000045160264
 31
0.0
210
0.0
220
0.0
230
1.0
 40
0.4082480000000002
 41
3.141592653589778
 42
3.362566882557976
  0
ELLIPSE
  5
49E2
330
A
100
AcDbEntity
  8
0
  6
Continuous
 62
     7
100
AcDbEllipse
 10
219.8836759999999
 20
-96.49219000000011
 30
0.0
 11
-4.800000000000136
 21
-0.0000000054192206
 31
-0.0000000000000003
210
-0.0000000000000001
220
0.0
230
1.0
 40
0.4082480000000002
 41
1.548433782249751
 42
1.604116391004945
  0
ELLIPSE
  5
49E3
330
A
100
AcDbEntity
  8
0
  6
Continuous
 62
     7
100
AcDbEllipse
 10
219.8836759999999
 20
-96.71128000000013
 30
0.0
 11
4.559999999999896
 21
0.0000000051482707
 31
0.0
210
0.0
220
0.0
230
1.0
 40
0.4082480000000002
 41
4.688849247789737
 42
4.747463433644853
  0
ELLIPSE
  5
49E4
330
A
100
AcDbEntity
  8
0
  6
Continuous
 62
     9
100
AcDbEllipse
 10
219.8836759999999
 20
-82.47049300000012
 30
0.0
 11
2.399999999999957
 21
0.0000000016694979
 31
0.0000000000000003
210
-0.0000000000000001
220
0.0
230
1.0
 40
0.4082480000000002
 41
5.218159227998983
 42
6.283200048756665
  0
ELLIPSE
  5
49E5
330
A
100
AcDbEntity
  8
0
  6
Continuous
 62
     9
100
AcDbEllipse
 10
219.8836759999999
 20
-102.9188020000001
 30
0.0
 11
-2.399999999999957
 21
-0.0000000016694979
 31
-0.0000000000000002
210
-0.0000000000000001
220
0.0
230
1.0
 40
0.4082480000000002
 41
2.076566570683699
 42
2.698608226376574
  0
ELLIPSE
  5
49E6
330
A
100
AcDbEntity
  8
0
  6
Continuous
 62
     7
100
AcDbEllipse
 10
219.8836759999999
 20
-89.40831200000022
 30
0.0
 11
-4.000000000000004
 21
-0.0000000036492476
 31
0.0
210
0.0
220
0.0
230
1.0
 40
0.4082480000000002
 41
3.298763711449145
 42
4.068887871502908
  0
ELLIPSE
  5
49E7
330
A
100
AcDbEntity
  8
0
  6
Continuous
 62
     7
100
AcDbEllipse
 10
219.8836759999999
 20
-89.40831200000022
 30
0.0
 11
2.40000000000018
 21
0.0000000021895541
 31
0.0
210
0.0
220
0.0000000000000001
230
1.0
 40
0.4082480000000002
 41
5.218159226646464
 42
6.283185307179597
  0
LINE
  5
49E8
330
A
100
AcDbEntity
  8
0
  6
Continuous
 62
     7
100
AcDbLine
 10
219.3470199999999
 20
-92.01912300000012
 30
0.0
 11
219.3470199999999
 21
-100.5088230000001
 31
0.0
  0
LINE
  5
49E9
330
A
100
AcDbEntity
  8
0
  6
Continuous
 62
     7
100
AcDbLine
 10
222.0303019999999
 20
-108.8342050000001
 30
0.0
 11
223.9455390000001
 21
-107.2704200000001
 31
0.0
  0
LINE
  5
49EA
330
A
100
AcDbEntity
  8
0
  6
Continuous
 62
     7
100
AcDbLine
 10
222.0303019999999
 20
-111.4997890000001
 30
0.0
 11
222.0303019999999
 21
-108.8342050000001
 31
0.0
  0
LINE
  5
49EB
330
A
100
AcDbEntity
  8
0
  6
Continuous
 62
     7
100
AcDbLine
 10
221.654642
 20
-111.8065130000001
 30
0.0
 11
222.0303019999999
 21
-111.4997890000001
 31
0.0
  0
LINE
  5
49EC
330
A
100
AcDbEntity
  8
0
  6
Continuous
 62
     7
100
AcDbLine
 10
221.3147669999998
 20
-110.1487410000001
 30
0.0
 11
221.3147669999998
 21
-110.9885820000001
 31
0.0
  0
ELLIPSE
  5
49ED
330
A
100
AcDbEntity
  8
0
  6
Continuous
 62
     7
100
AcDbEllipse
 10
220.9569960000001
 20
-110.4408600000001
 30
0.0
 11
-0.1600000000392399
 21
-0.7838367176825899
 31
0.0000000000000001
210
0.0
220
0.0000000000000001
230
1.0
 40
0.4082480000000002
 41
3.141592653589513
 42
3.352580668535579
  0
LINE
  5
49EE
330
A
100
AcDbEntity
  8
0
  6
Continuous
 62
     7
100
AcDbLine
 10
219.776345
 20
-99.17238000000011
 30
0.0
 11
220.0435829999999
 21
-98.95418100000012
 31
0.0
  0
LINE
  5
49EF
330
A
100
AcDbEntity
  8
0
  6
Continuous
 62
     7
100
AcDbLine
 10
221.0464320000001
 20
-104.8906030000001
 30
0.0
 11
222.561717
 21
-103.6533780000001
 31
0.0
  0
LINE
  5
49F0
330
A
100
AcDbEntity
  8
0
  6
Continuous
 62
     7
100
AcDbLine
 10
223.1036140000001
 20
-88.05726300000008
 30
0.0
 11
223.9455390000001
 21
-87.36983400000012
 31
0.0
  0
LINE
  5
49F1
330
A
100
AcDbEntity
  8
0
  6
Continuous
 62
     7
100
AcDbLine
 10
223.1036140000001
 20
-88.05726300000008
 30
0.0
 11
223.1036140000001
 21
-81.30201800000012
 31
0.0
  0
LINE
  5
49F2
330
A
100
AcDbEntity
  8
0
  6
Continuous
 62
     7
100
AcDbLine
 10
221.0464320000001
 20
-82.9817010000001
 30
0.0
 11
223.1036140000001
 21
-81.30201800000012
 31
0.0
  0
LINE
  5
49F3
330
A
100
AcDbEntity
  8
0
  6
Continuous
 62
     7
100
AcDbLine
 10
219.776345
 20
-91.66858100000013
 30
0.0
 11
219.776345
 21
-99.17238000000011
 31
0.0
  0
LINE
  5
49F4
330
A
100
AcDbEntity
  8
0
  6
Continuous
 62
     7
100
AcDbLine
 10
223.1036140000001
 20
-88.05726300000008
 30
0.0
 11
222.283676
 21
-87.8898940000001
 31
0.0
  0
ELLIPSE
  5
49F5
330
A
100
AcDbEntity
  8
0
  6
Continuous
 62
     7
100
AcDbEllipse
 10
220.9569960000001
 20
-110.4408600000001
 30
0.0
 11
-0.1600000000392399
 21
-0.7838367176825899
 31
0.0000000000000001
210
0.0
220
0.0000000000000001
230
1.0
 40
0.4082480000000002
 41
2.034443936793675
 42
3.141592653589241
  0
LINE
  5
49F6
330
A
100
AcDbEntity
  8
0
  6
Continuous
 62
     9
100
AcDbLine
 10
221.3147669999998
 20
-110.1487410000001
 30
0.0
 11
221.0464320000001
 21
-110.0939670000001
 31
0.0
  0
ELLIPSE
  5
49F7
330
A
100
AcDbEntity
  8
0
  6
Continuous
 62
     9
100
AcDbEllipse
 10
235.4288209999999
 20
-63.18700800000013
 30
0.0
 11
3.200000000000091
 21
0.0000000010019208
 31
0.0
210
0.0
220
0.0
230
1.0
 40
0.4082480000000002
 41
4.248741371256026
 42
5.819537698050942
  0
ELLIPSE
  5
49F8
330
A
100
AcDbEntity
  8
0
  6
Continuous
 62
     9
100
AcDbEllipse
 10
234.3555079999999
 20
-64.06336400000009
 30
0.0
 11
-0.159999999999938
 21
-0.7838367176906396
 31
0.0
210
0.0
220
0.0
230
1.0
 40
0.4082480000000002
 41
3.605240263229041
 42
5.176036590024528
  0
ELLIPSE
  5
49F9
330
A
100
AcDbEntity
  8
0
  6
Continuous
 62
     9
100
AcDbEllipse
 10
235.4288209999999
 20
-62.45671100000013
 30
0.0
 11
-2.399999999999957
 21
-0.0000000007514545
 31
0.0
210
0.0
220
0.0
230
1.0
 40
0.4082480000000002
 41
1.107148717666317
 42
2.677945044461167
  0
ELLIPSE
  5
49FA
330
A
100
AcDbEntity
  8
0
  6
Continuous
 62
     9
100
AcDbEllipse
 10
237.575446
 20
-63.62518600000012
 30
0.0
 11
0.5059644261120601
 21
-0.6196773349971818
 31
0.0
210
0.0
220
0.0
230
1.0
 40
0.8164969999999998
 41
0.7853981627583
 42
2.35619448955272
  0
ELLIPSE
  5
49FB
330
A
100
AcDbEntity
  8
0
  6
Continuous
 62
     7
100
AcDbEllipse
 10
235.4288209999999
 20
-80.49504000000011
 30
0.0
 11
3.199999999999868
 21
0.0000000010019208
 31
-0.0000000000000002
210
0.0000000000000001
220
0.0
230
1.0
 40
0.4082480000000002
 41
4.248741371256026
 42
5.819537698050942
  0
LINE
  5
49FC
330
A
100
AcDbEntity
  8
0
  6
Continuous
 62
     9
100
AcDbLine
 10
233.9977369999999
 20
-81.66351500000009
 30
0.0
 11
233.9977369999999
 21
-64.35548200000011
 31
0.0
  0
LINE
  5
49FD
330
A
100
AcDbEntity
  8
0
  6
Continuous
 62
     9
100
AcDbLine
 10
238.290988
 20
-63.77124500000011
 30
0.0
 11
238.290988
 21
-81.07927800000013
 31
0.0
  0
LINE
  5
49FE
330
A
100
AcDbEntity
  8
0
  6
Continuous
 62
     9
100
AcDbLine
 10
183.1942729999999
 20
-52.88982300000012
 30
0.0
 11
234.3555079999999
 21
-63.33306700000012
 31
0.0
  0
LINE
  5
49FF
330
A
100
AcDbEntity
  8
0
  6
Continuous
 62
     9
100
AcDbLine
 10
185.340898
 20
-51.13711100000012
 30
0.0
 11
183.1942729999999
 21
-52.88982300000012
 31
0.0
  0
LINE
  5
4A00
330
A
100
AcDbEntity
  8
0
  6
Continuous
 62
     7
100
AcDbLine
 10
185.340898
 20
-51.13711100000012
 30
0.0
 11
238.6487589999999
 21
-62.01853300000014
 31
0.0
  0
LINE
  5
4A01
330
A
100
AcDbEntity
  8
0
  6
Continuous
 62
     9
100
AcDbLine
 10
237.575446
 20
-62.89488900000009
 30
0.0
 11
238.6487589999999
 21
-62.01853300000014
 31
0.0
  0
LINE
  5
4A02
330
A
100
AcDbEntity
  8
0
  6
Continuous
 62
     9
100
AcDbLine
 10
233.9977369999999
 20
-64.35548200000011
 30
0.0
 11
182.8365019999998
 21
-53.91223900000011
 31
0.0
  0
ELLIPSE
  5
4A03
330
A
100
AcDbEntity
  8
0
  6
Continuous
 62
     9
100
AcDbEllipse
 10
183.1942729999999
 20
-53.6201200000001
 30
0.0
 11
-0.159999999999938
 21
-0.7838367176905836
 31
0.0
210
0.0
220
0.0
230
1.0
 40
0.4082480000000001
 41
3.605240263229571
 42
5.176036590024509
  0
LINE
  5
4A04
330
A
100
AcDbEntity
  8
0
  6
Continuous
 62
     7
100
AcDbLine
 10
219.329131
 20
-78.66929800000011
 30
0.0
 11
233.9977369999999
 21
-81.66351500000009
 31
0.0
  0
LINE
  5
4A05
330
A
100
AcDbEntity
  8
0
  6
Continuous
 62
     7
100
AcDbLine
 10
219.329131
 20
-92.0337290000001
 30
0.0
 11
219.329131
 21
-78.66929800000011
 31
0.0
  0
LINE
  5
4A06
330
A
100
AcDbEntity
  8
0
  6
Continuous
 62
     7
100
AcDbLine
 10
214.6781099999998
 20
-91.08434300000011
 30
0.0
 11
219.329131
 21
-92.0337290000001
 31
0.0
  0
LINE
  5
4A07
330
A
100
AcDbEntity
  8
0
  6
Continuous
 62
     7
100
AcDbLine
 10
214.6781099999998
 20
-101.3084980000001
 30
0.0
 11
214.6781099999998
 21
-91.08434300000011
 31
0.0
  0
LINE
  5
4A08
330
A
100
AcDbEntity
  8
0
  6
Continuous
 62
     7
100
AcDbLine
 10
219.329131
 20
-102.2578830000001
 30
0.0
 11
214.6781099999998
 21
-101.3084980000001
 31
0.0
  0
LINE
  5
4A09
330
A
100
AcDbEntity
  8
0
  6
Continuous
 62
     7
100
AcDbLine
 10
219.329131
 20
-115.6223140000001
 30
0.0
 11
219.329131
 21
-102.2578830000001
 31
0.0
  0
LINE
  5
4A0A
330
A
100
AcDbEntity
  8
0
  6
Continuous
 62
     7
100
AcDbLine
 10
233.9977369999999
 20
-118.6165300000001
 30
0.0
 11
219.329131
 21
-115.6223140000001
 31
0.0
  0
LINE
  5
4A0B
330
A
100
AcDbEntity
  8
0
  6
Continuous
 62
     9
100
AcDbLine
 10
233.9977369999999
 20
-135.9245630000001
 30
0.0
 11
233.9977369999999
 21
-118.6165300000001
 31
0.0
  0
LINE
  5
4A0C
330
A
100
AcDbEntity
  8
0
  6
Continuous
 62
     9
100
AcDbLine
 10
182.8365019999998
 20
-125.4813200000001
 30
0.0
 11
233.9977369999999
 21
-135.9245630000001
 31
0.0
  0
ELLIPSE
  5
4A0D
330
A
100
AcDbEntity
  8
0
  6
Continuous
 62
     9
100
AcDbEllipse
 10
182.8365019999998
 20
-122.9252810000001
 30
0.0
 11
1.770875491391871
 21
-2.168870672489913
 31
0.0000000000000001
210
0.0
220
0.0
230
1.0
 40
0.8164970000000002
 41
3.926990816348143
 42
5.497787143142985
  0
LINE
  5
4A0E
330
A
100
AcDbEntity
  8
0
  6
Continuous
 62
     9
100
AcDbLine
 10
180.3321059999999
 20
-55.9570700000001
 30
0.0
 11
180.3321059999999
 21
-122.4140730000001
 31
0.0
  0
ELLIPSE
  5
4A0F
330
A
100
AcDbEntity
  8
0
  6
Continuous
 62
     9
100
AcDbEllipse
 10
182.8365019999998
 20
-56.46827700000011
 30
0.0
 11
1.770875491392098
 21
-2.168870672490025
 31
0.0
210
0.0
220
0.0
230
1.0
 40
0.816497
 41
2.356194489553127
 42
3.926990816348087
  0
LINE
  5
4A10
330
A
100
AcDbEntity
  8
0
  6
Continuous
 62
     9
100
AcDbLine
 10
239.3643009999999
 20
-62.89488900000009
 30
0.0
 11
238.290988
 21
-63.77124500000011
 31
0.0
  0
ELLIPSE
  5
4A11
330
A
100
AcDbEntity
  8
0
  6
Continuous
 62
     7
100
AcDbEllipse
 10
238.6487589999999
 20
-62.74882900000012
 30
0.0
 11
-0.5059644261120601
 21
0.6196773349971818
 31
0.0
210
0.0000000000000001
220
0.0
230
1.0
 40
0.8164969999999998
 41
3.926990816348062
 42
5.497787143143065
  0
LINE
  5
4A12
330
A
100
AcDbEntity
  8
0
  6
Continuous
 62
     7
100
AcDbLine
 10
239.3643009999999
 20
-72.38874600000011
 30
0.0
 11
242.2464050000001
 21
-70.0355180000001
 31
0.0
  0
LINE
  5
4A13
330
A
100
AcDbEntity
  8
0
  6
Continuous
 62
     7
100
AcDbLine
 10
242.2464050000001
 20
-77.84969300000011
 30
0.0
 11
238.290988
 21
-81.07927800000013
 31
0.0
  0
LINE
  5
4A14
330
A
100
AcDbEntity
  8
0
  6
Continuous
 62
     7
100
AcDbLine
 10
239.3643009999999
 20
-62.89488900000009
 30
0.0
 11
239.3643009999999
 21
-72.38874600000011
 31
0.0
  0
LINE
  5
4A15
330
A
100
AcDbEntity
  8
0
  6
Continuous
 62
     7
100
AcDbLine
 10
239.3643009999999
 20
-68.55468900000011
 30
0.0
 11
242.2464050000001
 21
-69.1429960000001
 31
0.0
  0
LINE
  5
4A16
330
A
100
AcDbEntity
  8
0
  6
Continuous
 62
     7
100
AcDbLine
 10
221.0464320000001
 20
-90.63155900000012
 30
0.0
 11
221.0464320000001
 21
-79.93271200000013
 31
0.0
  0
LINE
  5
4A17
330
A
100
AcDbEntity
  8
0
  6
Continuous
 62
     7
100
AcDbLine
 10
219.329131
 20
-92.0337290000001
 30
0.0
 11
221.0464320000001
 21
-90.63155900000012
 31
0.0
  0
LINE
  5
4A18
330
A
100
AcDbEntity
  8
0
  6
Continuous
 62
     7
100
AcDbLine
 10
221.654642
 20
-79.43611000000013
 30
0.0
 11
221.0464320000001
 21
-79.93271200000013
 31
0.0
  0
LINE
  5
4A19
330
A
100
AcDbEntity
  8
0
  6
Continuous
 62
     7
100
AcDbLine
 10
221.654642
 20
-79.14399100000011
 30
0.0
 11
221.654642
 21
-79.43611000000013
 31
0.0
  0
LINE
  5
4A1A
330
A
100
AcDbEntity
  8
0
  6
Continuous
 62
     7
100
AcDbLine
 10
214.6781099999998
 20
-101.3084980000001
 30
0.0
 11
216.3954099999998
 21
-99.90632800000012
 31
0.0
  0
LINE
  5
4A1B
330
A
100
AcDbEntity
  8
0
  6
Continuous
 62
     7
100
AcDbLine
 10
216.3954099999998
 20
-99.90632800000012
 30
0.0
 11
216.3954099999998
 21
-91.43488600000011
 31
0.0
  0
LINE
  5
4A1C
330
A
100
AcDbEntity
  8
0
  6
Continuous
 62
     7
100
AcDbLine
 10
219.329131
 20
-115.6223140000001
 30
0.0
 11
221.654642
 21
-113.7235420000001
 31
0.0
  0
LINE
  5
4A1D
330
A
100
AcDbEntity
  8
0
  6
Continuous
 62
     7
100
AcDbLine
 10
221.9229699999999
 20
-111.5874240000001
 30
0.0
 11
223.8012670000001
 21
-111.9708300000001
 31
0.0
  0
LINE
  5
4A1E
330
A
100
AcDbEntity
  8
0
  6
Continuous
 62
     7
100
AcDbLine
 10
223.8012670000001
 20
-111.9708300000001
 30
0.0
 11
223.9455390000001
 21
-111.8530320000001
 31
0.0
  0
LINE
  5
4A1F
330
A
100
AcDbEntity
  8
0
  6
Continuous
 62
     7
100
AcDbLine
 10
238.290988
 20
-118.0322930000001
 30
0.0
 11
238.326765
 21
-118.0030810000001
 31
0.0
  0
ELLIPSE
  5
4A20
330
A
100
AcDbEntity
  8
0
  6
Continuous
 62
     7
100
AcDbEllipse
 10
235.4288209999999
 20
-117.4480560000001
 30
0.0
 11
-3.199999999999868
 21
-0.0000000010019485
 31
0.0
210
0.0
220
0.0
230
1.0
 40
0.4082480000000002
 41
1.107148717666281
 42
2.677945044461147
  0
LINE
  5
4A21
330
A
100
AcDbEntity
  8
0
  6
Continuous
 62
     9
100
AcDbLine
 10
238.290988
 20
-118.0322930000001
 30
0.0
 11
238.290988
 21
-135.3403260000001
 31
0.0
  0
ELLIPSE
  5
4A22
330
A
100
AcDbEntity
  8
0
  6
Continuous
 62
     9
100
AcDbEllipse
 10
235.4288209999999
 20
-134.7560880000001
 30
0.0
 11
-3.199999999999868
 21
-0.0000000010019208
 31
0.0
210
0.0
220
0.0
230
1.0
 40
0.4082480000000002
 41
1.10714871766623
 42
2.677945044461154
  0
ELLIPSE
  5
4A23
330
A
100
AcDbEntity
  8
0
  6
Continuous
 62
     9
100
AcDbEllipse
 10
183.1942729999999
 20
-56.17615900000012
 30
0.0
 11
-2.276839917503935
 21
2.788548007487124
 31
-0.0000000000000002
210
-0.0000000000000001
220
0.0
230
1.0
 40
0.816497
 41
5.497787143143005
 42
6.283427559772196
  0
ELLIPSE
  5
4A24
330
A
100
AcDbEntity
  8
0
  6
Continuous
 62
     9
100
AcDbEllipse
 10
180.6898769999999
 20
-55.66495100000011
 30
0.0
 11
0.7999999999999119
 21
0.0000000002504941
 31
0.0
210
0.0
220
0.0000000000000001
230
1.0
 40
0.4082480000000001
 41
3.141593693778423
 42
4.248741371255777
  0
ELLIPSE
  5
4A25
330
A
100
AcDbEntity
  8
0
  6
Continuous
 62
     7
100
AcDbEllipse
 10
185.340898
 20
-54.42344700000012
 30
0.0
 11
-2.276839917504158
 21
2.788548007487205
 31
-0.0000000000000002
210
0.0
220
0.0000000000000001
230
1.0
 40
0.816497
 41
5.497787143142955
 42
6.283185307179637
  0
LINE
  5
4A26
330
A
100
AcDbEntity
  8
0
  6
Continuous
 62
     7
100
AcDbLine
 10
219.329131
 20
-102.2578830000001
 30
0.0
 11
220.285353
 21
-101.4771320000001
 31
0.0
  0
LINE
  5
4A27
330
A
100
AcDbEntity
  8
0
  6
Continuous
 62
     7
100
AcDbLine
 10
221.654642
 20
-111.0579590000001
 30
0.0
 11
221.0464320000001
 21
-111.5545610000001
 31
0.0
  0
LINE
  5
4A28
330
A
100
AcDbEntity
  8
0
  6
Continuous
 62
     7
100
AcDbLine
 10
221.0464320000001
 20
-111.5545610000001
 30
0.0
 11
221.0464320000001
 21
-102.5274010000001
 31
0.0
  0
LINE
  5
4A29
330
A
100
AcDbEntity
  8
0
  6
Continuous
 62
     7
100
AcDbLine
 10
221.654642
 20
-111.0579590000001
 30
0.0
 11
221.654642
 21
-113.7235420000001
 31
0.0
  0
LINE
  5
4A2A
330
A
100
AcDbEntity
  8
0
  6
Continuous
 62
     7
100
AcDbLine
 10
220.0540960000001
 20
-100.6531540000001
 30
0.0
 11
216.3954099999998
 21
-99.90632800000012
 31
0.0
  0
LINE
  5
4A2B
330
A
100
AcDbEntity
  8
0
  6
Continuous
 62
     7
100
AcDbLine
 10
242.2464050000001
 20
-122.6168830000001
 30
0.0
 11
239.3643009999999
 21
-124.9701120000001
 31
0.0
  0
LINE
  5
4A2C
330
A
100
AcDbEntity
  8
0
  6
Continuous
 62
     9
100
AcDbLine
 10
238.290988
 20
-135.3403260000001
 30
0.0
 11
239.3643009999999
 21
-134.4639700000001
 31
0.0
  0
LINE
  5
4A2D
330
A
100
AcDbEntity
  8
0
  6
Continuous
 62
     7
100
AcDbLine
 10
239.3643009999999
 20
-124.9701120000001
 30
0.0
 11
239.3643009999999
 21
-134.4639700000001
 31
0.0
  0
ELLIPSE
  5
4A2E
330
A
100
AcDbEntity
  8
0
  6
Continuous
 62
     9
100
AcDbEllipse
 10
180.6898769999999
 20
-122.1219550000001
 30
0.0
 11
-0.7999999999999119
 21
-0.0000000002504802
 31
0.0
210
0.0
220
0.0
230
1.0
 40
0.4082480000000001
 41
6.283185307179584
 42
7.390334024845834
  0
ELLIPSE
  5
4A2F
330
A
100
AcDbEntity
  8
0
  6
Continuous
 62
     9
100
AcDbEllipse
 10
234.3555079999999
 20
-135.6324440000001
 30
0.0
 11
-0.159999999999938
 21
-0.7838367176906114
 31
0.0
210
0.0
220
0.0
230
1.0
 40
0.4082480000000001
 41
5.176036590024499
 42
6.283184393125192
  0
ELLIPSE
  5
4A30
330
A
100
AcDbEntity
  8
0
  6
Continuous
 62
     9
100
AcDbEllipse
 10
237.575446
 20
-135.1942660000001
 30
0.0
 11
0.5059644261120601
 21
-0.619677334997168
 31
0.0
210
0.0
220
0.0
230
1.0
 40
0.8164969999999998
 41
6.28318530717927
 42
7.068583469937848
  0
ELLIPSE
  5
4A31
330
A
100
AcDbEntity
  8
0
  6
Continuous
 62
     9
100
AcDbEllipse
 10
183.1942729999999
 20
-125.1892010000001
 30
0.0
 11
-0.159999999999938
 21
-0.7838367176905976
 31
0.0
210
0.0
220
0.0
230
1.0
 40
0.4082480000000002
 41
5.176036590024502
 42
6.283185307179857
  0
LINE
  5
4A32
330
A
100
AcDbEntity
  8
0
  6
Continuous
 62
     7
100
AcDbLine
 10
221.0464320000001
 20
-110.9338090000001
 30
0.0
 11
221.654642
 21
-111.0579590000001
 31
0.0
  0
ELLIPSE
  5
4A33
330
A
100
AcDbEntity
  8
0
  6
Continuous
 62
     7
100
AcDbEllipse
 10
238.6487589999999
 20
-134.3179100000001
 30
0.0
 11
-0.5059644261120601
 21
0.619677334997168
 31
0.0
210
0.0
220
0.0
230
1.0
 40
0.8164969999999998
 41
3.141592653589801
 42
3.926990816347991
  0
LINE
  5
4A34
330
A
100
AcDbEntity
  8
0
  6
Continuous
 62
     7
100
AcDbLine
 10
223.8012670000001
 20
-109.3052470000001
 30
0.0
 11
223.9455390000001
 21
-109.1874490000001
 31
0.0
  0
LINE
  5
4A35
330
A
100
AcDbEntity
  8
0
  6
Continuous
 62
     7
100
AcDbLine
 10
222.0303019999999
 20
-108.9437500000001
 30
0.0
 11
223.8012670000001
 21
-109.3052470000001
 31
0.0
  0
LINE
  5
4A36
330
A
100
AcDbEntity
  8
0
  6
Continuous
 62
     7
100
AcDbLine
 10
223.7118249999999
 20
-107.4612480000001
 30
0.0
 11
223.9455390000001
 21
-107.5089540000001
 31
0.0
  0
LINE
  5
4A37
330
A
100
AcDbEntity
  8
0
  6
Continuous
 62
     7
100
AcDbLine
 10
223.8012670000001
 20
-111.9708300000001
 30
0.0
 11
223.8012670000001
 21
-109.3052470000001
 31
0.0
  0
ELLIPSE
  5
4A38
330
A
100
AcDbEntity
  8
0
  6
Continuous
 62
     7
100
AcDbEllipse
 10
229.4506309999999
 20
-94.36298400000012
 30
0.0
 11
-5.199999999999872
 21
-0.0000000016251445
 31
-0.0000000000000004
210
-0.0000000000000001
220
0.0000000000000001
230
1.0
 40
0.4082480000000002
 41
1.196691484440467
 42
2.657599310292687
  0
ELLIPSE
  5
4A39
330
A
100
AcDbEntity
  8
0
  6
Continuous
 62
     7
100
AcDbEllipse
 10
228.135049
 20
-95.73102700000021
 30
0.0
 11
-1.600000000000043
 21
-0.0000000005000445
 31
0.0
210
0.0
220
0.0
230
1.0
 40
0.4082480000000002
 41
0.7918811474441208
 42
1.196691484440409
  0
ELLIPSE
  5
4A3A
330
A
100
AcDbEntity
  8
0
  6
Continuous
 62
     7
100
AcDbEllipse
 10
223.779501
 20
-97.53237800000011
 30
0.0
 11
4.599999999999936
 21
0.0000000014376278
 31
0.0000000000000003
210
-0.0000000000000001
220
0.0000000000000001
230
1.0
 40
0.4082480000000002
 41
0.7918811474441111
 42
1.38156346878273
  0
ELLIPSE
  5
4A3B
330
A
100
AcDbEntity
  8
0
  6
Continuous
 62
     7
100
AcDbEllipse
 10
224.945755
 20
-95.04642200000011
 30
0.0
 11
-1.600000000000043
 21
-0.0000000005000445
 31
-0.0000000000000001
210
-0.0000000000000001
220
0.0
230
1.0
 40
0.4082480000000002
 41
0.7600247124326223
 42
1.381563468782607
  0
ELLIPSE
  5
4A3C
330
A
100
AcDbEntity
  8
0
  6
Continuous
 62
     7
100
AcDbEllipse
 10
233.643583
 20
-91.67132300000011
 30
0.0
 11
-13.60000000000005
 21
-0.0000000042504056
 31
0.0
210
0.0
220
0.0
230
1.0
 40
0.4082480000000002
 41
6.241655278874312
 42
6.283185307179584
  0
ELLIPSE
  5
4A3D
330
A
100
AcDbEntity
  8
0
  6
Continuous
 62
     7
100
AcDbEllipse
 10
221.8250579999999
 20
-90.83842900000011
 30
0.0
 11
-1.600000000000043
 21
-0.0000000005000445
 31
-0.0000000000000001
210
-0.0000000000000001
220
0.0000000000000001
230
1.0
 40
0.4082480000000002
 41
4.967805894879465
 42
5.220630233901141
  0
LINE
  5
4A3E
330
A
100
AcDbEntity
  8
0
  6
Continuous
 62
     7
100
AcDbLine
 10
233.1211989999999
 20
-95.01334000000012
 30
0.0
 11
234.0533789999999
 21
-95.35080300000013
 31
0.0
  0
ELLIPSE
  5
4A3F
330
A
100
AcDbEntity
  8
0
  6
Continuous
 62
     7
100
AcDbEllipse
 10
229.4506309999999
 20
-103.1265450000001
 30
0.0
 11
-5.199999999999872
 21
-0.0000000016251445
 31
-0.0000000000000004
210
-0.0000000000000001
220
0.0000000000000001
230
1.0
 40
0.4082480000000002
 41
1.196691484440471
 42
2.657599310292706
  0
LINE
  5
4A40
330
A
100
AcDbEntity
  8
0
  6
Continuous
 62
     9
100
AcDbLine
 10
227.550346
 20
-96.33904600000011
 30
0.0
 11
227.550346
 21
-105.1026070000001
 31
0.0
  0
LINE
  5
4A41
330
A
100
AcDbEntity
  8
0
  6
Continuous
 62
     7
100
AcDbLine
 10
234.0533789999999
 20
-95.35080300000013
 30
0.0
 11
234.0533789999999
 21
-104.1143640000001
 31
0.0
  0
LINE
  5
4A42
330
A
100
AcDbEntity
  8
0
  6
Continuous
 62
     9
100
AcDbLine
 10
227.0110369999998
 20
-104.9594530000001
 30
0.0
 11
227.0110369999998
 21
-96.1958920000001
 31
0.0
  0
ELLIPSE
  5
4A43
330
A
100
AcDbEntity
  8
0
  6
Continuous
 62
     7
100
AcDbEllipse
 10
228.135049
 20
-104.4945880000001
 30
0.0
 11
1.600000000000043
 21
0.0000000005000445
 31
0.0000000000000001
210
-0.0000000000000001
220
0.0000000000000001
230
1.0
 40
0.4082480000000002
 41
3.93347380103395
 42
4.338284138030216
  0
LINE
  5
4A44
330
A
100
AcDbEntity
  8
0
  6
Continuous
 62
     9
100
AcDbLine
 10
224.6447859999999
 20
-95.68795900000012
 30
0.0
 11
224.6447859999999
 21
-104.4515200000001
 31
0.0
  0
ELLIPSE
  5
4A45
330
A
100
AcDbEntity
  8
0
  6
Continuous
 62
     7
100
AcDbEllipse
 10
223.779501
 20
-106.2959390000001
 30
0.0
 11
4.60000000000016
 21
0.0000000014376278
 31
0.0000000000000003
210
-0.0000000000000001
220
0.0000000000000001
230
1.0
 40
0.4082480000000002
 41
0.7918811474440565
 42
1.381563468782684
  0
LINE
  5
4A46
330
A
100
AcDbEntity
  8
0
  6
Continuous
 62
     9
100
AcDbLine
 10
223.7860449999999
 20
-104.2599970000001
 30
0.0
 11
223.7860449999999
 21
-95.49643600000013
 31
0.0
  0
ELLIPSE
  5
4A47
330
A
100
AcDbEntity
  8
0
  6
Continuous
 62
     7
100
AcDbEllipse
 10
224.945755
 20
-103.8099830000001
 30
0.0
 11
1.599999999999823
 21
0.0000000005000445
 31
0.0
210
0.0
220
0.0
230
1.0
 40
0.4082480000000002
 41
3.901617366022415
 42
4.523156122372391
  0
ELLIPSE
  5
4A48
330
A
100
AcDbEntity
  8
0
  6
Continuous
 62
     7
100
AcDbEllipse
 10
233.643583
 20
-91.67132300000011
 30
0.0
 11
-13.60000000000005
 21
-0.0000000042504056
 31
-0.0000000000000009
210
-0.0000000000000001
220
0.0
230
1.0
 40
0.4082480000000002
 41
0.0000000000000001
 42
0.7600247124326947
  0
ELLIPSE
  5
4A49
330
A
100
AcDbEntity
  8
0
  6
Continuous
 62
     7
100
AcDbEllipse
 10
233.643583
 20
-100.4348840000001
 30
0.0
 11
-13.60000000000005
 21
-0.0000000042504056
 31
0.0
210
0.0
220
0.0
230
1.0
 40
0.4082480000000002
 41
0.0000000000000061
 42
0.7600247124326957
  0
ELLIPSE
  5
4A4A
330
A
100
AcDbEntity
  8
0
  6
Continuous
 62
     7
100
AcDbEllipse
 10
220.2586349999999
 20
-88.38940500000012
 30
0.0
 11
4.599999999999936
 21
0.0000000014376278
 31
0.0
210
0.0
220
0.0
230
1.0
 40
0.4082480000000002
 41
4.967805894879488
 42
5.642189781060091
  0
LINE
  5
4A4B
330
A
100
AcDbEntity
  8
0
  6
Continuous
 62
     7
100
AcDbLine
 10
250.713446
 20
-62.55391000000011
 30
0.0
 11
250.355675
 21
-62.84602900000013
 31
0.0
  0
LINE
  5
4A4C
330
A
100
AcDbEntity
  8
0
  6
Continuous
 62
     7
100
AcDbLine
 10
250.355675
 20
-62.84602900000013
 30
0.0
 11
249.9979039999999
 21
-63.13814700000012
 31
0.0
  0
LINE
  5
4A4D
330
A
100
AcDbEntity
  8
0
  6
Continuous
 62
     7
100
AcDbLine
 10
301.968938
 20
-142.1256360000001
 30
0.0
 11
302.326709
 21
-141.8335170000001
 31
0.0
  0
LINE
  5
4A4E
330
A
100
AcDbEntity
  8
0
  6
Continuous
 62
     7
100
AcDbLine
 10
302.326709
 20
-141.8335170000001
 30
0.0
 11
302.6844800000001
 21
-141.5413990000001
 31
0.0
  0
LINE
  5
4A4F
330
A
100
AcDbEntity
  8
0
  6
Continuous
 62
     7
100
AcDbLine
 10
250.713446
 20
-62.55391000000011
 30
0.0
 11
250.355675
 21
-62.84602900000013
 31
0.0
  0
LINE
  5
4A50
330
A
100
AcDbEntity
  8
0
  6
Continuous
 62
     7
100
AcDbLine
 10
302.326709
 20
-141.8335170000001
 30
0.0
 11
302.6844800000001
 21
-141.5413990000001
 31
0.0
  0
LINE
  5
4A51
330
A
100
AcDbEntity
  8
0
  6
Continuous
 62
     7
100
AcDbLine
 10
239.7142630000001
 20
-66.71938300000011
 30
0.0
 11
240.429805
 21
-66.1351460000001
 31
0.0
  0
LINE
  5
4A52
330
A
100
AcDbEntity
  8
0
  6
Continuous
 62
     7
100
AcDbLine
 10
188.458771
 20
-49.95317700000012
 30
0.0
 11
187.7432289999998
 21
-50.5374140000001
 31
0.0
  0
LINE
  5
4A53
330
A
100
AcDbEntity
  8
0
  6
Continuous
 62
     7
100
AcDbLine
 10
239.7142630000001
 20
-129.5249030000001
 30
0.0
 11
240.429805
 21
-128.9406660000001
 31
0.0
  0
LINE
  5
4A66
330
A
100
AcDbEntity
  8
0
  6
Continuous
 62
     7
100
AcDbLine
 10
242.2464050000001
 20
-65.23183800000009
 30
0.0
 11
242.2464050000001
 21
-80.24308800000012
 31
0.0
  0
LINE
  5
4A67
330
A
100
AcDbEntity
  8
0
  6
Continuous
 62
     7
100
AcDbLine
 10
243.8671279999998
 20
-63.29762700000012
 30
0.0
 11
242.7938159999999
 21
-64.17398300000013
 31
0.0
  0
ARC
  5
4A68
330
A
100
AcDbEntity
  8
0
  6
Continuous
 62
     7
100
AcDbCircle
 10
296.0165609999999
 20
-146.0820370000001
 30
0.0
 40
2.894467999999998
100
AcDbArc
 50
257.1803519999994
 51
308.3321379999976
  0
LINE
  5
4A69
330
A
100
AcDbEntity
  8
0
  6
Continuous
 62
     7
100
AcDbLine
 10
297.8111679999999
 20
-148.3530280000001
 30
0.0
 11
299.957793
 21
-146.6003160000001
 31
0.0
  0
LINE
  5
4A70
330
A
100
AcDbEntity
  8
0
  6
Continuous
 62
     7
100
AcDbLine
 10
244.2130929999998
 20
-138.4611120000001
 30
0.0
 11
295.3743279999999
 21
-148.9043550000001
 31
0.0
  0
LINE
  5
4A71
330
A
100
AcDbEntity
  8
0
  6
Continuous
 62
     7
100
AcDbLine
 10
241.8347079999999
 20
-81.47123500000011
 30
0.0
 11
241.5034499999999
 21
-81.74170500000011
 31
0.0
  0
ARC
  5
4A72
330
A
100
AcDbEntity
  8
0
  6
Continuous
 62
     7
100
AcDbCircle
 10
237.9756929999999
 20
-122.0300790000001
 30
0.0
 40
4.277473
100
AcDbArc
 50
3.221932000000549
 51
55.94241099999892
  0
LINE
  5
4A73
330
A
100
AcDbEntity
  8
0
  6
Continuous
 62
     7
100
AcDbLine
 10
242.2464050000001
 20
-121.7896700000001
 30
0.0
 11
242.2464050000001
 21
-136.8009190000001
 31
0.0
  0
ARC
  5
4A7E
330
A
100
AcDbEntity
  8
0
  6
Continuous
 62
     7
100
AcDbCircle
 10
303.0085449999999
 20
-73.00480400000012
 30
0.0
 40
4.060264
100
AcDbArc
 50
1.479737000000572
 51
76.98330399999907
  0
LINE
  5
4A7F
330
A
100
AcDbEntity
  8
0
  6
Continuous
 62
     7
100
AcDbLine
 10
303.9230579999999
 20
-69.0488710000001
 30
0.0
 11
252.7618230000001
 21
-58.6056280000001
 31
0.0
  0
LINE
  5
4A80
330
A
100
AcDbEntity
  8
0
  6
Continuous
 62
     7
100
AcDbLine
 10
307.0674539999998
 20
-139.3569580000001
 30
0.0
 11
307.0674539999998
 21
-72.89995400000012
 31
0.0
  0
LINE
  5
4A81
330
A
100
AcDbEntity
  8
0
  6
Continuous
 62
     7
100
AcDbLine
 10
248.8759210000001
 20
-59.20796500000012
 30
0.0
 11
247.802608
 21
-60.0843210000001
 31
0.0
  0
ARC
  5
4A82
330
A
100
AcDbEntity
  8
0
  6
Continuous
 62
     7
100
AcDbCircle
 10
251.562433
 20
-63.70378700000012
 30
0.0
 40
5.237343
100
AcDbArc
 50
76.76136500000133
 51
120.8607510000011
  0
LINE
  5
4A83
330
A
100
AcDbEntity
  8
0
  6
Continuous
 62
     7
100
AcDbLine
 10
303.8932729999999
 20
-143.3870100000001
 30
0.0
 11
306.039898
 21
-141.6342980000001
 31
0.0
  0
LINE
  5
4A84
330
A
100
AcDbEntity
  8
0
  6
Continuous
 62
     7
100
AcDbLine
 10
306.040495
 20
-141.6338100000001
 30
0.0
 11
306.0683730000001
 21
-141.6107180000001
 31
0.0
  0
LINE
  5
4A85
330
A
100
AcDbEntity
  8
0
  6
Continuous
 62
     7
100
AcDbLine
 10
306.0683730000001
 20
-141.6107180000001
 30
0.0
 11
306.1670899999999
 21
-141.5235640000001
 31
0.0
  0
ARC
  5
4A86
330
A
100
AcDbEntity
  8
0
  6
Continuous
 62
     7
100
AcDbCircle
 10
304.1417550000001
 20
-139.4115240000001
 30
0.0
 40
2.926208
100
AcDbArc
 50
313.7994609999997
 51
1.068479999999434
  0
LINE
  5
4A87
330
A
100
AcDbEntity
  8
0
  6
Continuous
 62
     7
100
AcDbLine
 10
223.9455390000001
 20
-79.61161900000011
 30
0.0
 11
223.9455390000001
 21
-90.86525400000011
 31
0.0
  0
LINE
  5
4A88
330
A
100
AcDbEntity
  8
0
  6
Continuous
 62
     7
100
AcDbLine
 10
223.9455390000001
 20
-104.3198150000001
 30
0.0
 11
223.9455390000001
 21
-112.8471860000002
 31
0.0
  0
LINE
  5
4A93
330
A
100
AcDbEntity
  8
0
  6
Continuous
 62
     7
100
AcDbLine
 10
244.6035949999998
 20
-63.23405800000012
 30
0.0
 11
244.6035949999998
 21
-58.19908100000012
 31
0.0
  0
LINE
  5
4A94
330
A
100
AcDbEntity
  8
0
  6
Continuous
 62
     7
100
AcDbLine
 10
242.6369070000001
 20
-56.5388880000001
 30
0.0
 11
191.475672
 21
-46.0956450000001
 31
0.0
  0
LINE
  5
4A95
330
A
100
AcDbEntity
  8
0
  6
Continuous
 62
     7
100
AcDbLine
 10
189.0388319999999
 20
-46.64697200000012
 30
0.0
 11
186.892207
 21
-48.39968400000012
 31
0.0
  0
ARC
  5
4A96
330
A
100
AcDbEntity
  8
0
  6
Continuous
 62
     7
100
AcDbCircle
 10
190.8334849999999
 20
-48.93252100000012
 30
0.0
 40
2.908654999999998
100
AcDbArc
 50
77.24486000000021
 51
124.9062069999985
  0
LINE
  5
4A97
330
A
100
AcDbEntity
  8
0
  6
Continuous
 62
     7
100
AcDbLine
 10
189.1690509999999
 20
-46.5471630000001
 30
0.0
 11
189.0594769999999
 21
-46.63028600000012
 31
0.0
  0
LINE
  5
4A98
330
A
100
AcDbEntity
  8
0
  6
Continuous
 62
     7
100
AcDbLine
 10
189.0594769999999
 20
-46.63028600000012
 30
0.0
 11
189.0382349999999
 21
-46.64745900000011
 31
0.0
  0
LINE
  5
4A99
330
A
100
AcDbEntity
  8
0
  6
Continuous
 62
     7
100
AcDbLine
 10
240.179365
 20
-66.44917400000011
 30
0.0
 11
240.5371359999999
 21
-66.15705500000013
 31
0.0
  0
LINE
  5
4A9A
330
A
100
AcDbEntity
  8
0
  6
Continuous
 62
     7
100
AcDbLine
 10
240.179365
 20
-129.2546930000001
 30
0.0
 11
240.5371359999999
 21
-128.9625750000001
 31
0.0
  0
LINE
  5
4A9B
330
A
100
AcDbEntity
  8
0
  6
Continuous
 62
     7
100
AcDbLine
 10
222.283676
 20
-82.47045600000021
 30
0.0
 11
222.1953779999999
 21
-82.04354500000011
 31
0.0
  0
LINE
  5
4A9C
330
A
100
AcDbEntity
  8
0
  6
Continuous
 62
     7
100
AcDbLine
 10
222.283676
 20
-89.40831200000022
 30
0.0
 11
222.283676
 21
-82.47049300000012
 31
0.0
  0
ARC
  5
4AA6
330
A
100
AcDbEntity
  8
0
  6
Continuous
 62
     7
100
AcDbCircle
 10
182.7853
 20
-55.60088400000012
 30
0.0
 40
2.896132
100
AcDbArc
 50
130.1775550000002
 51
181.2675719999992
  0
LINE
  5
4AA7
330
A
100
AcDbEntity
  8
0
  6
Continuous
 62
     7
100
AcDbLine
 10
183.0640579999999
 20
-51.6348990000001
 30
0.0
 11
180.9174329999999
 21
-53.38761100000013
 31
0.0
  0
LINE
  5
4AA8
330
A
100
AcDbEntity
  8
0
  6
Continuous
 62
     7
100
AcDbLine
 10
179.8898769999999
 20
-55.66495100000011
 30
0.0
 11
179.8898769999999
 21
-122.1219550000001
 31
0.0
  0
ARC
  5
4AA9
330
A
100
AcDbEntity
  8
0
  6
Continuous
 62
     7
100
AcDbCircle
 10
235.394898
 20
-131.3181220000001
 30
0.0
 40
5.237343
100
AcDbArc
 50
256.7613650000014
 51
300.8607510000012
  0
LINE
  5
4AAA
330
A
100
AcDbEntity
  8
0
  6
Continuous
 62
     7
100
AcDbLine
 10
183.034273
 20
-125.9730380000001
 30
0.0
 11
234.195508
 21
-136.4162810000001
 31
0.0
  0
LINE
  5
4AAB
330
A
100
AcDbEntity
  8
0
  6
Continuous
 62
     7
100
AcDbLine
 10
238.0814109999999
 20
-135.8139440000001
 30
0.0
 11
239.1547230000001
 21
-134.9375880000001
 31
0.0
  0
ARC
  5
4AAC
330
A
100
AcDbEntity
  8
0
  6
Continuous
 62
     7
100
AcDbCircle
 10
183.9487859999999
 20
-122.0171050000001
 30
0.0
 40
4.060264
100
AcDbArc
 50
181.4797370000006
 51
256.9833039999991
  0
LINE
  5
4AAD
330
A
100
AcDbEntity
  8
0
  6
Continuous
 62
     7
100
AcDbLine
 10
220.0435829999999
 20
-91.67132300000011
 30
0.0
 11
220.0435829999999
 21
-100.4348840000001
 31
0.0
  0
LINE
  5
4AAE
330
A
100
AcDbEntity
  8
0
  6
Continuous
 62
     9
100
AcDbLine
 10
77.0
 20
-56.00000000000012
 30
0.0
 11
77.0
 21
-55.00000000000011
 31
0.0
  0
LINE
  5
4AAF
330
A
100
AcDbEntity
  8
0
  6
Continuous
 62
     9
100
AcDbLine
 10
77.0
 20
-55.00000000000011
 30
0.0
 11
77.0
 21
-54.50000000000011
 31
0.0
  0
LINE
  5
4AB0
330
A
100
AcDbEntity
  8
0
  6
Continuous
 62
     7
100
AcDbLine
 10
71.50000000000011
 20
-56.00000000000012
 30
0.0
 11
77.0
 21
-56.00000000000012
 31
0.0
  0
LINE
  5
4AB1
330
A
100
AcDbEntity
  8
0
  6
Continuous
 62
     7
100
AcDbLine
 10
71.50000000000011
 20
-56.00000000000012
 30
0.0
 11
71.50000000000011
 21
-55.00000000000011
 31
0.0
  0
LINE
  5
4AB2
330
A
100
AcDbEntity
  8
0
  6
Continuous
 62
     7
100
AcDbLine
 10
71.50000000000011
 20
-55.00000000000011
 30
0.0
 11
71.50000000000011
 21
-54.50000000000011
 31
0.0
  0
LINE
  5
4AB3
330
A
100
AcDbEntity
  8
0
  6
Continuous
 62
     9
100
AcDbLine
 10
141.5
 20
-56.00000000000012
 30
0.0
 11
141.5
 21
-55.00000000000011
 31
0.0
  0
LINE
  5
4AB4
330
A
100
AcDbEntity
  8
0
  6
Continuous
 62
     9
100
AcDbLine
 10
141.5
 20
-55.00000000000011
 30
0.0
 11
141.5
 21
-54.50000000000011
 31
0.0
  0
LINE
  5
4AB5
330
A
100
AcDbEntity
  8
0
  6
Continuous
 62
     7
100
AcDbLine
 10
77.0
 20
-56.00000000000012
 30
0.0
 11
141.5
 21
-56.00000000000012
 31
0.0
  0
LINE
  5
4AB6
330
A
100
AcDbEntity
  8
0
  6
Continuous
 62
     7
100
AcDbLine
 10
147.5
 20
-56.00000000000012
 30
0.0
 11
147.5
 21
-55.00000000000011
 31
0.0
  0
LINE
  5
4AB7
330
A
100
AcDbEntity
  8
0
  6
Continuous
 62
     7
100
AcDbLine
 10
147.5
 20
-55.00000000000011
 30
0.0
 11
147.5
 21
-54.50000000000011
 31
0.0
  0
LINE
  5
4AB8
330
A
100
AcDbEntity
  8
0
  6
Continuous
 62
     7
100
AcDbLine
 10
141.5
 20
-56.00000000000012
 30
0.0
 11
147.5
 21
-56.00000000000012
 31
0.0
  0
LINE
  5
4AB9
330
A
100
AcDbEntity
  8
0
  6
Continuous
 62
     7
100
AcDbLine
 10
147.5
 20
-65.50000000000011
 30
0.0
 11
147.5
 21
-65.00000000000011
 31
0.0
  0
LINE
  5
4ABA
330
A
100
AcDbEntity
  8
0
  6
Continuous
 62
     7
100
AcDbLine
 10
147.5
 20
-65.00000000000011
 30
0.0
 11
147.5
 21
-64.00000000000011
 31
0.0
  0
LINE
  5
4ABB
330
A
100
AcDbEntity
  8
0
  6
Continuous
 62
     9
100
AcDbLine
 10
141.5
 20
-65.50000000000011
 30
0.0
 11
141.5
 21
-65.00000000000011
 31
0.0
  0
LINE
  5
4ABC
330
A
100
AcDbEntity
  8
0
  6
Continuous
 62
     9
100
AcDbLine
 10
141.5
 20
-65.00000000000011
 30
0.0
 11
141.5
 21
-64.00000000000011
 31
0.0
  0
LINE
  5
4ABD
330
A
100
AcDbEntity
  8
0
  6
Continuous
 62
     7
100
AcDbLine
 10
141.5
 20
-64.00000000000011
 30
0.0
 11
147.5
 21
-64.00000000000011
 31
0.0
  0
LINE
  5
4ABE
330
A
100
AcDbEntity
  8
0
  6
Continuous
 62
     9
100
AcDbLine
 10
77.0
 20
-65.50000000000011
 30
0.0
 11
77.0
 21
-65.00000000000011
 31
0.0
  0
LINE
  5
4ABF
330
A
100
AcDbEntity
  8
0
  6
Continuous
 62
     9
100
AcDbLine
 10
77.0
 20
-65.00000000000011
 30
0.0
 11
77.0
 21
-64.00000000000011
 31
0.0
  0
LINE
  5
4AC0
330
A
100
AcDbEntity
  8
0
  6
Continuous
 62
     7
100
AcDbLine
 10
77.0
 20
-64.00000000000011
 30
0.0
 11
141.5
 21
-64.00000000000011
 31
0.0
  0
LINE
  5
4AC1
330
A
100
AcDbEntity
  8
0
  6
Continuous
 62
     7
100
AcDbLine
 10
71.50000000000011
 20
-65.50000000000011
 30
0.0
 11
71.50000000000011
 21
-65.00000000000011
 31
0.0
  0
LINE
  5
4AC2
330
A
100
AcDbEntity
  8
0
  6
Continuous
 62
     7
100
AcDbLine
 10
71.50000000000011
 20
-65.00000000000011
 30
0.0
 11
71.50000000000011
 21
-64.00000000000011
 31
0.0
  0
LINE
  5
4AC3
330
A
100
AcDbEntity
  8
0
  6
Continuous
 62
     7
100
AcDbLine
 10
71.50000000000011
 20
-64.00000000000011
 30
0.0
 11
77.0
 21
-64.00000000000011
 31
0.0
  0
LINE
  5
4AC4
330
A
100
AcDbEntity
  8
0
  6
Continuous
 62
     9
100
AcDbLine
 10
77.0
 20
-55.00000000000011
 30
0.0
 11
77.0
 21
-54.50000000000011
 31
0.0
  0
LINE
  5
4AC5
330
A
100
AcDbEntity
  8
0
  6
Continuous
 62
     7
100
AcDbLine
 10
71.50000000000011
 20
-55.00000000000011
 30
0.0
 11
77.0
 21
-55.00000000000011
 31
0.0
  0
LINE
  5
4AC6
330
A
100
AcDbEntity
  8
0
  6
Continuous
 62
     7
100
AcDbLine
 10
71.50000000000011
 20
-55.00000000000011
 30
0.0
 11
71.50000000000011
 21
-54.50000000000011
 31
0.0
  0
LINE
  5
4AC7
330
A
100
AcDbEntity
  8
0
  6
Continuous
 62
     9
100
AcDbLine
 10
141.5
 20
-55.00000000000011
 30
0.0
 11
141.5
 21
-54.50000000000011
 31
0.0
  0
LINE
  5
4AC8
330
A
100
AcDbEntity
  8
0
  6
Continuous
 62
     7
100
AcDbLine
 10
77.0
 20
-55.00000000000011
 30
0.0
 11
141.5
 21
-55.00000000000011
 31
0.0
  0
LINE
  5
4AC9
330
A
100
AcDbEntity
  8
0
  6
Continuous
 62
     7
100
AcDbLine
 10
147.5
 20
-55.00000000000011
 30
0.0
 11
147.5
 21
-54.50000000000011
 31
0.0
  0
LINE
  5
4ACA
330
A
100
AcDbEntity
  8
0
  6
Continuous
 62
     7
100
AcDbLine
 10
141.5
 20
-55.00000000000011
 30
0.0
 11
147.5
 21
-55.00000000000011
 31
0.0
  0
LINE
  5
4ACB
330
A
100
AcDbEntity
  8
0
  6
Continuous
 62
     9
100
AcDbLine
 10
141.5
 20
-65.50000000000011
 30
0.0
 11
141.5
 21
-65.00000000000011
 31
0.0
  0
LINE
  5
4ACC
330
A
100
AcDbEntity
  8
0
  6
Continuous
 62
     9
100
AcDbLine
 10
77.0
 20
-65.50000000000011
 30
0.0
 11
77.0
 21
-65.00000000000011
 31
0.0
  0
LINE
  5
4ACD
330
A
100
AcDbEntity
  8
0
  6
Continuous
 62
     7
100
AcDbLine
 10
77.0
 20
-65.00000000000011
 30
0.0
 11
141.5
 21
-65.00000000000011
 31
0.0
  0
LINE
  5
4ACE
330
A
100
AcDbEntity
  8
0
  6
Continuous
 62
     7
100
AcDbLine
 10
147.5
 20
-65.50000000000011
 30
0.0
 11
147.5
 21
-65.00000000000011
 31
0.0
  0
LINE
  5
4ACF
330
A
100
AcDbEntity
  8
0
  6
Continuous
 62
     7
100
AcDbLine
 10
141.5
 20
-65.00000000000011
 30
0.0
 11
147.5
 21
-65.00000000000011
 31
0.0
  0
LINE
  5
4AD0
330
A
100
AcDbEntity
  8
0
  6
Continuous
 62
     7
100
AcDbLine
 10
71.50000000000011
 20
-65.50000000000011
 30
0.0
 11
71.50000000000011
 21
-65.00000000000011
 31
0.0
  0
LINE
  5
4AD1
330
A
100
AcDbEntity
  8
0
  6
Continuous
 62
     7
100
AcDbLine
 10
71.50000000000011
 20
-65.00000000000011
 30
0.0
 11
77.0
 21
-65.00000000000011
 31
0.0
  0
LINE
  5
4AD2
330
A
100
AcDbEntity
  8
0
  6
Continuous
 62
     9
100
AcDbLine
 10
54.84999999999991
 20
-56.00000000000012
 30
0.0
 11
54.84999999999991
 21
-55.00000000000011
 31
0.0
  0
LINE
  5
4AD3
330
A
100
AcDbEntity
  8
0
  6
Continuous
 62
     9
100
AcDbLine
 10
54.84999999999991
 20
-55.00000000000011
 30
0.0
 11
54.84999999999991
 21
-54.50000000000011
 31
0.0
  0
LINE
  5
4AD4
330
A
100
AcDbEntity
  8
0
  6
Continuous
 62
     7
100
AcDbLine
 10
-9.65000000000009
 20
-56.00000000000012
 30
0.0
 11
54.84999999999991
 21
-56.00000000000012
 31
0.0
  0
LINE
  5
4AD5
330
A
100
AcDbEntity
  8
0
  6
Continuous
 62
     9
100
AcDbLine
 10
-9.65000000000009
 20
-56.00000000000012
 30
0.0
 11
-9.65000000000009
 21
-54.50000000000011
 31
0.0
  0
LINE
  5
4AD6
330
A
100
AcDbEntity
  8
0
  6
Continuous
 62
     7
100
AcDbLine
 10
-15.65000000000032
 20
-56.00000000000012
 30
0.0
 11
-9.65000000000009
 21
-56.00000000000012
 31
0.0
  0
LINE
  5
4AD7
330
A
100
AcDbEntity
  8
0
  6
Continuous
 62
     7
100
AcDbLine
 10
-15.65000000000032
 20
-56.00000000000012
 30
0.0
 11
-15.65000000000032
 21
-54.50000000000011
 31
0.0
  0
LINE
  5
4AD8
330
A
100
AcDbEntity
  8
0
  6
Continuous
 62
     7
100
AcDbLine
 10
60.34999999999968
 20
-56.00000000000012
 30
0.0
 11
60.34999999999968
 21
-55.00000000000011
 31
0.0
  0
LINE
  5
4AD9
330
A
100
AcDbEntity
  8
0
  6
Continuous
 62
     7
100
AcDbLine
 10
54.84999999999991
 20
-56.00000000000012
 30
0.0
 11
60.34999999999968
 21
-56.00000000000012
 31
0.0
  0
LINE
  5
4ADA
330
A
100
AcDbEntity
  8
0
  6
Continuous
 62
     9
100
AcDbLine
 10
54.84999999999991
 20
-65.50000000000011
 30
0.0
 11
54.84999999999991
 21
-65.00000000000011
 31
0.0
  0
LINE
  5
4ADB
330
A
100
AcDbEntity
  8
0
  6
Continuous
 62
     9
100
AcDbLine
 10
54.84999999999991
 20
-65.00000000000011
 30
0.0
 11
54.84999999999991
 21
-64.00000000000011
 31
0.0
  0
LINE
  5
4ADC
330
A
100
AcDbEntity
  8
0
  6
Continuous
 62
     9
100
AcDbLine
 10
-9.65000000000009
 20
-65.50000000000011
 30
0.0
 11
-9.65000000000009
 21
-64.00000000000011
 31
0.0
  0
LINE
  5
4ADD
330
A
100
AcDbEntity
  8
0
  6
Continuous
 62
     7
100
AcDbLine
 10
-9.65000000000009
 20
-64.00000000000011
 30
0.0
 11
54.84999999999991
 21
-64.00000000000011
 31
0.0
  0
LINE
  5
4ADE
330
A
100
AcDbEntity
  8
0
  6
Continuous
 62
     7
100
AcDbLine
 10
-15.65000000000032
 20
-65.50000000000011
 30
0.0
 11
-15.65000000000032
 21
-64.00000000000011
 31
0.0
  0
LINE
  5
4ADF
330
A
100
AcDbEntity
  8
0
  6
Continuous
 62
     7
100
AcDbLine
 10
-15.65000000000032
 20
-64.00000000000011
 30
0.0
 11
-9.65000000000009
 21
-64.00000000000011
 31
0.0
  0
LINE
  5
4AE0
330
A
100
AcDbEntity
  8
0
  6
Continuous
 62
     7
100
AcDbLine
 10
60.34999999999968
 20
-65.00000000000011
 30
0.0
 11
60.34999999999968
 21
-64.00000000000011
 31
0.0
  0
LINE
  5
4AE1
330
A
100
AcDbEntity
  8
0
  6
Continuous
 62
     7
100
AcDbLine
 10
54.84999999999991
 20
-64.00000000000011
 30
0.0
 11
60.34999999999968
 21
-64.00000000000011
 31
0.0
  0
LINE
  5
4AE2
330
A
100
AcDbEntity
  8
0
  6
Continuous
 62
     7
100
AcDbLine
 10
123.1999999999999
 20
-56.00000000000012
 30
0.0
 11
123.1999999999999
 21
-64.00000000000011
 31
0.0
  0
LINE
  5
4AE3
330
A
100
AcDbEntity
  8
0
  6
Continuous
 62
     9
100
AcDbLine
 10
130.1999999999999
 20
-56.00000000000012
 30
0.0
 11
130.1999999999999
 21
-64.00000000000011
 31
0.0
  0
LINE
  5
4AE4
330
A
100
AcDbEntity
  8
0
  6
Continuous
 62
     7
100
AcDbLine
 10
137.1999999999999
 20
-56.00000000000012
 30
0.0
 11
137.1999999999999
 21
-64.00000000000011
 31
0.0
  0
LINE
  5
4AE5
330
A
100
AcDbEntity
  8
0
  6
Continuous
 62
     7
100
AcDbLine
 10
149.0
 20
-65.50000000000011
 30
0.0
 11
149.0
 21
-71.50000000000011
 31
0.0
  0
LINE
  5
4AE6
330
A
100
AcDbEntity
  8
0
  6
Continuous
 62
     9
100
AcDbLine
 10
149.0
 20
-71.50000000000011
 30
0.0
 11
144.5
 21
-71.50000000000011
 31
0.0
  0
LINE
  5
4AE7
330
A
100
AcDbEntity
  8
0
  6
Continuous
 62
     9
100
AcDbLine
 10
144.5
 20
-71.50000000000011
 30
0.0
 11
144.5
 21
-65.50000000000011
 31
0.0
  0
LINE
  5
4AE8
330
A
100
AcDbEntity
  8
0
  6
Continuous
 62
     7
100
AcDbLine
 10
144.5
 20
-65.50000000000011
 30
0.0
 11
149.0
 21
-65.50000000000011
 31
0.0
  0
LINE
  5
4AE9
330
A
100
AcDbEntity
  8
0
  6
Continuous
 62
     9
100
AcDbLine
 10
73.0
 20
-71.50000000000011
 30
0.0
 11
144.5
 21
-71.50000000000011
 31
0.0
  0
ARC
  5
4AEA
330
A
100
AcDbEntity
  8
0
  6
Continuous
 62
     9
100
AcDbCircle
 10
73.0
 20
-68.50000000000012
 30
0.0
 40
3.0
100
AcDbArc
 50
180.0
 51
270.0
  0
LINE
  5
4AEB
330
A
100
AcDbEntity
  8
0
  6
Continuous
 62
     9
100
AcDbLine
 10
70.0
 20
-65.50000000000011
 30
0.0
 11
70.0
 21
-68.50000000000012
 31
0.0
  0
LINE
  5
4AEC
330
A
100
AcDbEntity
  8
0
  6
Continuous
 62
     7
100
AcDbLine
 10
144.5
 20
-65.50000000000011
 30
0.0
 11
70.0
 21
-65.50000000000011
 31
0.0
  0
LINE
  5
4AED
330
A
100
AcDbEntity
  8
0
  6
Continuous
 62
     9
100
AcDbLine
 10
69.0
 20
-68.50000000000012
 30
0.0
 11
70.0
 21
-68.50000000000012
 31
0.0
  0
LINE
  5
4AEE
330
A
100
AcDbEntity
  8
0
  6
Continuous
 62
     7
100
AcDbLine
 10
69.0
 20
-68.50000000000012
 30
0.0
 11
69.0
 21
-65.50000000000011
 31
0.0
  0
LINE
  5
4AEF
330
A
100
AcDbEntity
  8
0
  6
Continuous
 62
     7
100
AcDbLine
 10
69.0
 20
-65.50000000000011
 30
0.0
 11
70.0
 21
-65.50000000000011
 31
0.0
  0
ARC
  5
4AF0
330
A
100
AcDbEntity
  8
0
  6
Continuous
 62
     7
100
AcDbCircle
 10
73.0
 20
-68.50000000000012
 30
0.0
 40
4.0
100
AcDbArc
 50
180.0
 51
270.0
  0
LINE
  5
4AF1
330
A
100
AcDbEntity
  8
0
  6
Continuous
 62
     9
100
AcDbLine
 10
73.0
 20
-71.50000000000011
 30
0.0
 11
73.0
 21
-72.50000000000011
 31
0.0
  0
LINE
  5
4AF2
330
A
100
AcDbEntity
  8
0
  6
Continuous
 62
     7
100
AcDbLine
 10
144.5
 20
-72.50000000000011
 30
0.0
 11
148.0
 21
-72.50000000000011
 31
0.0
  0
LINE
  5
4AF3
330
A
100
AcDbEntity
  8
0
  6
Continuous
 62
     9
100
AcDbLine
 10
144.5
 20
-72.50000000000011
 30
0.0
 11
144.5
 21
-71.50000000000011
 31
0.0
  0
ARC
  5
4AF4
330
A
100
AcDbEntity
  8
0
  6
Continuous
 62
     7
100
AcDbCircle
 10
148.0
 20
-71.50000000000011
 30
0.0
 40
1.0
100
AcDbArc
 50
270.0
 51
0.0
  0
LINE
  5
4AF5
330
A
100
AcDbEntity
  8
0
  6
Continuous
 62
     7
100
AcDbLine
 10
144.5
 20
-72.50000000000011
 30
0.0
 11
73.0
 21
-72.50000000000011
 31
0.0
  0
LINE
  5
4AF6
330
A
100
AcDbEntity
  8
0
  6
Continuous
 62
     7
100
AcDbLine
 10
71.50000000000011
 20
-55.00000000000011
 30
0.0
 11
69.0
 21
-55.00000000000011
 31
0.0
  0
LINE
  5
4AF7
330
A
100
AcDbEntity
  8
0
  6
Continuous
 62
     7
100
AcDbLine
 10
123.0999999999999
 20
-64.00000000000011
 30
0.0
 11
123.0999999999999
 21
-56.00000000000012
 31
0.0
  0
LINE
  5
4AF8
330
A
100
AcDbEntity
  8
0
  6
Continuous
 62
     7
100
AcDbLine
 10
69.0
 20
-55.00000000000011
 30
0.0
 11
69.0
 21
-65.50000000000011
 31
0.0
  0
LINE
  5
4AF9
330
A
100
AcDbEntity
  8
0
  6
Continuous
 62
     9
100
AcDbLine
 10
67.66666699999996
 20
-68.50000000000012
 30
0.0
 11
69.0
 21
-68.50000000000012
 31
0.0
  0
LINE
  5
4AFA
330
A
100
AcDbEntity
  8
0
  6
Continuous
 62
     9
100
AcDbLine
 10
67.66666699999996
 20
-66.50000000000011
 30
0.0
 11
67.66666699999996
 21
-68.50000000000012
 31
0.0
  0
LINE
  5
4AFB
330
A
100
AcDbEntity
  8
0
  6
Continuous
 62
     7
100
AcDbLine
 10
69.0
 20
-66.50000000000011
 30
0.0
 11
67.66666699999996
 21
-66.50000000000011
 31
0.0
  0
ARC
  5
4AFC
330
A
100
AcDbEntity
  8
0
  6
Continuous
 62
     7
100
AcDbCircle
 10
70.12000000000012
 20
-68.50000000000012
 30
0.0
 40
4.0
100
AcDbArc
 50
218.7418840000017
 51
270.0
  0
ARC
  5
4AFD
330
A
100
AcDbEntity
  8
0
  6
Continuous
 62
     7
100
AcDbCircle
 10
74.27716199999963
 20
-71.61486500000009
 30
0.0
 40
7.307600999999999
100
AcDbArc
 50
154.7701900000005
 51
174.614097999999
  0
LINE
  5
4AFE
330
A
100
AcDbEntity
  8
0
  6
Continuous
 62
     7
100
AcDbLine
 10
67.00182299999983
 20
-70.9289490000001
 30
0.0
 11
67.00010699999996
 21
-71.00325200000011
 31
0.0
  0
LINE
  5
4AFF
330
A
100
AcDbEntity
  8
0
  6
Continuous
 62
     7
100
AcDbLine
 10
73.0
 20
-72.50000000000011
 30
0.0
 11
70.12000000000012
 21
-72.50000000000011
 31
0.0
  0
LINE
  5
4B00
330
A
100
AcDbEntity
  8
0
  6
Continuous
 62
     7
100
AcDbLine
 10
67.00010699999996
 20
-71.00325200000011
 30
0.0
 11
67.00000000000011
 21
-71.00311800000011
 31
0.0
  0
LINE
  5
4B01
330
A
100
AcDbEntity
  8
0
  6
Continuous
 62
     7
100
AcDbLine
 10
67.00000000000011
 20
-71.00311800000011
 30
0.0
 11
67.00000000000011
 21
-71.00000000000012
 31
0.0
  0
LINE
  5
4B02
330
A
100
AcDbEntity
  8
0
  6
Continuous
 62
     7
100
AcDbLine
 10
67.00000000000011
 20
-66.50000000000011
 30
0.0
 11
67.66666699999996
 21
-66.50000000000011
 31
0.0
  0
LINE
  5
4B03
330
A
100
AcDbEntity
  8
0
  6
Continuous
 62
     7
100
AcDbLine
 10
104.020171
 20
-47.40000000000011
 30
0.0
 11
109.0
 21
-47.40000000000011
 31
0.0
  0
LINE
  5
4B04
330
A
100
AcDbEntity
  8
0
  6
Continuous
 62
     7
100
AcDbLine
 10
109.0
 20
-47.40000000000011
 30
0.0
 11
113.979829
 21
-47.40000000000011
 31
0.0
  0
ARC
  5
4B05
330
A
100
AcDbEntity
  8
0
  6
Continuous
 62
     9
100
AcDbCircle
 10
73.0
 20
-51.50000000000011
 30
0.0
 40
3.0
100
AcDbArc
 50
90.0
 51
180.0
  0
LINE
  5
4B06
330
A
100
AcDbEntity
  8
0
  6
Continuous
 62
     9
100
AcDbLine
 10
70.0
 20
-51.50000000000011
 30
0.0
 11
69.0
 21
-51.50000000000011
 31
0.0
  0
ARC
  5
4B07
330
A
100
AcDbEntity
  8
0
  6
Continuous
 62
     7
100
AcDbCircle
 10
73.0
 20
-51.50000000000011
 30
0.0
 40
4.0
100
AcDbArc
 50
90.0
 51
180.0
  0
LINE
  5
4B08
330
A
100
AcDbEntity
  8
0
  6
Continuous
 62
     9
100
AcDbLine
 10
73.0
 20
-47.50000000000011
 30
0.0
 11
73.0
 21
-48.50000000000012
 31
0.0
  0
LINE
  5
4B09
330
A
100
AcDbEntity
  8
0
  6
Continuous
 62
     9
100
AcDbLine
 10
144.5
 20
-47.50000000000011
 30
0.0
 11
144.5
 21
-48.50000000000012
 31
0.0
  0
LINE
  5
4B0A
330
A
100
AcDbEntity
  8
0
  6
Continuous
 62
     9
100
AcDbLine
 10
144.5
 20
-48.50000000000012
 30
0.0
 11
73.0
 21
-48.50000000000012
 31
0.0
  0
LINE
  5
4B0B
330
A
100
AcDbEntity
  8
0
  6
Continuous
 62
     7
100
AcDbLine
 10
73.0
 20
-47.50000000000011
 30
0.0
 11
144.5
 21
-47.50000000000011
 31
0.0
  0
LINE
  5
4B0C
330
A
100
AcDbEntity
  8
0
  6
Continuous
 62
     9
100
AcDbLine
 10
144.5
 20
-54.50000000000011
 30
0.0
 11
144.5
 21
-48.50000000000012
 31
0.0
  0
LINE
  5
4B0D
330
A
100
AcDbEntity
  8
0
  6
Continuous
 62
     7
100
AcDbLine
 10
70.0
 20
-54.50000000000011
 30
0.0
 11
144.5
 21
-54.50000000000011
 31
0.0
  0
LINE
  5
4B0E
330
A
100
AcDbEntity
  8
0
  6
Continuous
 62
     9
100
AcDbLine
 10
70.0
 20
-51.50000000000011
 30
0.0
 11
70.0
 21
-54.50000000000011
 31
0.0
  0
LINE
  5
4B0F
330
A
100
AcDbEntity
  8
0
  6
Continuous
 62
     7
100
AcDbLine
 10
70.0
 20
-54.50000000000011
 30
0.0
 11
69.0
 21
-54.50000000000011
 31
0.0
  0
LINE
  5
4B10
330
A
100
AcDbEntity
  8
0
  6
Continuous
 62
     7
100
AcDbLine
 10
69.0
 20
-54.50000000000011
 30
0.0
 11
69.0
 21
-51.50000000000011
 31
0.0
  0
LINE
  5
4B11
330
A
100
AcDbEntity
  8
0
  6
Continuous
 62
     7
100
AcDbLine
 10
144.5
 20
-47.50000000000011
 30
0.0
 11
148.0
 21
-47.50000000000011
 31
0.0
  0
ARC
  5
4B12
330
A
100
AcDbEntity
  8
0
  6
Continuous
 62
     7
100
AcDbCircle
 10
148.0
 20
-48.50000000000012
 30
0.0
 40
1.0
100
AcDbArc
 50
0.0
 51
90.0
  0
LINE
  5
4B13
330
A
100
AcDbEntity
  8
0
  6
Continuous
 62
     9
100
AcDbLine
 10
149.0
 20
-48.50000000000012
 30
0.0
 11
144.5
 21
-48.50000000000012
 31
0.0
  0
LINE
  5
4B14
330
A
100
AcDbEntity
  8
0
  6
Continuous
 62
     7
100
AcDbLine
 10
149.0
 20
-48.50000000000012
 30
0.0
 11
149.0
 21
-54.50000000000011
 31
0.0
  0
LINE
  5
4B15
330
A
100
AcDbEntity
  8
0
  6
Continuous
 62
     7
100
AcDbLine
 10
149.0
 20
-54.50000000000011
 30
0.0
 11
144.5
 21
-54.50000000000011
 31
0.0
  0
LINE
  5
4B16
330
A
100
AcDbEntity
  8
0
  6
Continuous
 62
     9
100
AcDbLine
 10
69.0
 20
-51.50000000000011
 30
0.0
 11
67.66666699999996
 21
-51.50000000000011
 31
0.0
  0
LINE
  5
4B17
330
A
100
AcDbEntity
  8
0
  6
Continuous
 62
     7
100
AcDbLine
 10
67.00010699999996
 20
-48.99674800000011
 30
0.0
 11
67.00174900000002
 21
-49.06901000000013
 31
0.0
  0
ARC
  5
4B18
330
A
100
AcDbEntity
  8
0
  6
Continuous
 62
     7
100
AcDbCircle
 10
74.51281500000004
 20
-48.32103400000011
 30
0.0
 40
7.548217
100
AcDbArc
 50
185.6869519999991
 51
204.9075050000004
  0
ARC
  5
4B19
330
A
100
AcDbEntity
  8
0
  6
Continuous
 62
     7
100
AcDbCircle
 10
70.12000000000012
 20
-51.50000000000011
 30
0.0
 40
4.0
100
AcDbArc
 50
90.0
 51
141.2581159999983
  0
LINE
  5
4B1A
330
A
100
AcDbEntity
  8
0
  6
Continuous
 62
     7
100
AcDbLine
 10
70.12000000000012
 20
-47.50000000000011
 30
0.0
 11
73.0
 21
-47.50000000000011
 31
0.0
  0
LINE
  5
4B1B
330
A
100
AcDbEntity
  8
0
  6
Continuous
 62
     9
100
AcDbLine
 10
67.66666699999996
 20
-51.50000000000011
 30
0.0
 11
67.66666699999996
 21
-54.50000000000011
 31
0.0
  0
LINE
  5
4B1C
330
A
100
AcDbEntity
  8
0
  6
Continuous
 62
     7
100
AcDbLine
 10
67.66666699999996
 20
-54.50000000000011
 30
0.0
 11
69.0
 21
-54.50000000000011
 31
0.0
  0
LINE
  5
4B1D
330
A
100
AcDbEntity
  8
0
  6
Continuous
 62
     7
100
AcDbLine
 10
67.00000000000011
 20
-49.00000000000011
 30
0.0
 11
67.00000000000011
 21
-48.99688200000011
 31
0.0
  0
LINE
  5
4B1E
330
A
100
AcDbEntity
  8
0
  6
Continuous
 62
     7
100
AcDbLine
 10
67.00000000000011
 20
-48.99688200000011
 30
0.0
 11
67.00010699999996
 21
-48.99674800000011
 31
0.0
  0
LINE
  5
4B1F
330
A
100
AcDbEntity
  8
0
  6
Continuous
 62
     7
100
AcDbLine
 10
67.66666699999996
 20
-54.50000000000011
 30
0.0
 11
67.00000000000011
 21
-54.50000000000011
 31
0.0
  0
LINE
  5
4B20
330
A
100
AcDbEntity
  8
0
  6
Continuous
 62
     7
100
AcDbLine
 10
67.00000000000011
 20
-50.00000000000011
 30
0.0
 11
67.00000000000011
 21
-59.50000000000011
 31
0.0
  0
LINE
  5
4B21
330
A
100
AcDbEntity
  8
0
  6
Continuous
 62
     7
100
AcDbLine
 10
67.00000000000011
 20
-66.50000000000011
 30
0.0
 11
67.00000000000011
 21
-70.00000000000011
 31
0.0
  0
LINE
  5
4B22
330
A
100
AcDbEntity
  8
0
  6
Continuous
 62
     7
100
AcDbLine
 10
67.00000000000011
 20
-70.00000000000011
 30
0.0
 11
67.00000000000011
 21
-71.00000000000012
 31
0.0
  0
LINE
  5
4B23
330
A
100
AcDbEntity
  8
0
  6
Continuous
 62
     7
100
AcDbLine
 10
67.00000000000011
 20
-71.00000000000012
 30
0.0
 11
62.12249899999983
 21
-71.00000000000012
 31
0.0
  0
LINE
  5
4B24
330
A
100
AcDbEntity
  8
0
  6
Continuous
 62
     7
100
AcDbLine
 10
61.97249900000008
 20
-49.00000000000011
 30
0.0
 11
67.00000000000011
 21
-49.00000000000011
 31
0.0
  0
LINE
  5
4B25
330
A
100
AcDbEntity
  8
0
  6
Continuous
 62
     7
100
AcDbLine
 10
67.66666699999996
 20
-66.50000000000011
 30
0.0
 11
67.00018399999999
 21
-66.50000000000011
 31
0.0
  0
LINE
  5
4B26
330
A
100
AcDbEntity
  8
0
  6
Continuous
 62
     7
100
AcDbLine
 10
67.00018399999999
 20
-66.50000000000011
 30
0.0
 11
67.00000000000011
 21
-66.50000000000011
 31
0.0
  0
LINE
  5
4B27
330
A
100
AcDbEntity
  8
0
  6
Continuous
 62
     7
100
AcDbLine
 10
67.00000000000011
 20
-59.50000000000011
 30
0.0
 11
69.0
 21
-59.50000000000011
 31
0.0
  0
LINE
  5
4B28
330
A
100
AcDbEntity
  8
0
  6
Continuous
 62
     7
100
AcDbLine
 10
-12.6500000000002
 20
-47.50000000000011
 30
0.0
 11
58.8499999999998
 21
-47.50000000000011
 31
0.0
  0
LINE
  5
4B29
330
A
100
AcDbEntity
  8
0
  6
Continuous
 62
     9
100
AcDbLine
 10
58.8499999999998
 20
-48.50000000000012
 30
0.0
 11
58.8499999999998
 21
-47.50000000000011
 31
0.0
  0
LINE
  5
4B2A
330
A
100
AcDbEntity
  8
0
  6
Continuous
 62
     9
100
AcDbLine
 10
58.8499999999998
 20
-48.50000000000012
 30
0.0
 11
-12.6500000000002
 21
-48.50000000000012
 31
0.0
  0
LINE
  5
4B2B
330
A
100
AcDbEntity
  8
0
  6
Continuous
 62
     9
100
AcDbLine
 10
-12.6500000000002
 20
-47.50000000000011
 30
0.0
 11
-12.6500000000002
 21
-48.50000000000012
 31
0.0
  0
LINE
  5
4B2C
330
A
100
AcDbEntity
  8
0
  6
Continuous
 62
     7
100
AcDbLine
 10
-16.1500000000002
 20
-47.50000000000011
 30
0.0
 11
-12.6500000000002
 21
-47.50000000000011
 31
0.0
  0
LINE
  5
4B2D
330
A
100
AcDbEntity
  8
0
  6
Continuous
 62
     9
100
AcDbLine
 10
-12.6500000000002
 20
-48.50000000000012
 30
0.0
 11
-17.1500000000002
 21
-48.50000000000012
 31
0.0
  0
ARC
  5
4B2E
330
A
100
AcDbEntity
  8
0
  6
Continuous
 62
     7
100
AcDbCircle
 10
-16.1500000000002
 20
-48.50000000000012
 30
0.0
 40
1.0
100
AcDbArc
 50
90.0
 51
180.0
  0
ARC
  5
4B2F
330
A
100
AcDbEntity
  8
0
  6
Continuous
 62
     9
100
AcDbCircle
 10
58.8499999999998
 20
-51.50000000000011
 30
0.0
 40
3.0
100
AcDbArc
 50
0.0
 51
90.0
  0
ARC
  5
4B30
330
A
100
AcDbEntity
  8
0
  6
Continuous
 62
     7
100
AcDbCircle
 10
58.8499999999998
 20
-51.50000000000011
 30
0.0
 40
4.0
100
AcDbArc
 50
0.0
 51
90.0
  0
LINE
  5
4B31
330
A
100
AcDbEntity
  8
0
  6
Continuous
 62
     9
100
AcDbLine
 10
61.84999999999991
 20
-51.50000000000011
 30
0.0
 11
62.84999999999991
 21
-51.50000000000011
 31
0.0
  0
LINE
  5
4B32
330
A
100
AcDbEntity
  8
0
  6
Continuous
 62
     7
100
AcDbLine
 10
-12.6500000000002
 20
-54.50000000000011
 30
0.0
 11
-17.1500000000002
 21
-54.50000000000011
 31
0.0
  0
LINE
  5
4B33
330
A
100
AcDbEntity
  8
0
  6
Continuous
 62
     7
100
AcDbLine
 10
-17.1500000000002
 20
-54.50000000000011
 30
0.0
 11
-17.1500000000002
 21
-48.50000000000012
 31
0.0
  0
LINE
  5
4B34
330
A
100
AcDbEntity
  8
0
  6
Continuous
 62
     9
100
AcDbLine
 10
-12.6500000000002
 20
-48.50000000000012
 30
0.0
 11
-12.6500000000002
 21
-54.50000000000011
 31
0.0
  0
LINE
  5
4B35
330
A
100
AcDbEntity
  8
0
  6
Continuous
 62
     9
100
AcDbLine
 10
61.84999999999991
 20
-54.50000000000011
 30
0.0
 11
61.84999999999991
 21
-51.50000000000011
 31
0.0
  0
LINE
  5
4B36
330
A
100
AcDbEntity
  8
0
  6
Continuous
 62
     7
100
AcDbLine
 10
-12.6500000000002
 20
-54.50000000000011
 30
0.0
 11
61.84999999999991
 21
-54.50000000000011
 31
0.0
  0
LINE
  5
4B37
330
A
100
AcDbEntity
  8
0
  6
Continuous
 62
     7
100
AcDbLine
 10
62.84999999999991
 20
-51.50000000000011
 30
0.0
 11
62.84999999999991
 21
-54.50000000000011
 31
0.0
  0
LINE
  5
4B38
330
A
100
AcDbEntity
  8
0
  6
Continuous
 62
     7
100
AcDbLine
 10
62.84999999999991
 20
-54.50000000000011
 30
0.0
 11
61.84999999999991
 21
-54.50000000000011
 31
0.0
  0
LINE
  5
4B39
330
A
100
AcDbEntity
  8
0
  6
Continuous
 62
     9
100
AcDbLine
 10
-9.5
 20
-55.00000000000011
 30
0.0
 11
-9.5
 21
-54.50000000000011
 31
0.0
  0
LINE
  5
4B3A
330
A
100
AcDbEntity
  8
0
  6
Continuous
 62
     9
100
AcDbLine
 10
55.0
 20
-55.00000000000011
 30
0.0
 11
55.0
 21
-54.50000000000011
 31
0.0
  0
LINE
  5
4B3B
330
A
100
AcDbEntity
  8
0
  6
Continuous
 62
     7
100
AcDbLine
 10
-9.5
 20
-55.00000000000011
 30
0.0
 11
55.0
 21
-55.00000000000011
 31
0.0
  0
LINE
  5
4B3C
330
A
100
AcDbEntity
  8
0
  6
Continuous
 62
     7
100
AcDbLine
 10
60.49999999999966
 20
-55.00000000000011
 30
0.0
 11
60.49999999999966
 21
-54.50000000000011
 31
0.0
  0
LINE
  5
4B3D
330
A
100
AcDbEntity
  8
0
  6
Continuous
 62
     7
100
AcDbLine
 10
55.0
 20
-55.00000000000011
 30
0.0
 11
60.49999999999966
 21
-55.00000000000011
 31
0.0
  0
LINE
  5
4B3E
330
A
100
AcDbEntity
  8
0
  6
Continuous
 62
     9
100
AcDbLine
 10
-9.5
 20
-65.50000000000011
 30
0.0
 11
-9.5
 21
-65.00000000000011
 31
0.0
  0
LINE
  5
4B3F
330
A
100
AcDbEntity
  8
0
  6
Continuous
 62
     9
100
AcDbLine
 10
55.0
 20
-65.50000000000011
 30
0.0
 11
55.0
 21
-65.00000000000011
 31
0.0
  0
LINE
  5
4B40
330
A
100
AcDbEntity
  8
0
  6
Continuous
 62
     7
100
AcDbLine
 10
-9.5
 20
-65.00000000000011
 30
0.0
 11
55.0
 21
-65.00000000000011
 31
0.0
  0
LINE
  5
4B41
330
A
100
AcDbEntity
  8
0
  6
Continuous
 62
     7
100
AcDbLine
 10
60.49999999999966
 20
-65.50000000000011
 30
0.0
 11
60.49999999999966
 21
-65.00000000000011
 31
0.0
  0
LINE
  5
4B42
330
A
100
AcDbEntity
  8
0
  6
Continuous
 62
     7
100
AcDbLine
 10
55.0
 20
-65.00000000000011
 30
0.0
 11
60.49999999999966
 21
-65.00000000000011
 31
0.0
  0
LINE
  5
4B43
330
A
100
AcDbEntity
  8
0
  6
Continuous
 62
     7
100
AcDbLine
 10
17.87017100000014
 20
-47.40000000000011
 30
0.0
 11
22.84999999999968
 21
-47.40000000000011
 31
0.0
  0
LINE
  5
4B44
330
A
100
AcDbEntity
  8
0
  6
Continuous
 62
     7
100
AcDbLine
 10
22.84999999999968
 20
-47.40000000000011
 30
0.0
 11
27.82982899999968
 21
-47.40000000000011
 31
0.0
  0
ARC
  5
4B45
330
A
100
AcDbEntity
  8
0
  6
Continuous
 62
     7
100
AcDbCircle
 10
50.00000000000011
 20
-60.00000000000011
 30
0.0
 40
4.0
100
AcDbArc
 50
90.0
 51
128.2573410000004
  0
ARC
  5
4B46
330
A
100
AcDbEntity
  8
0
  6
Continuous
 62
     7
100
AcDbCircle
 10
50.00000000000011
 20
-60.00000000000011
 30
0.0
 40
4.0
100
AcDbArc
 50
270.0
 51
90.0
  0
ARC
  5
4B47
330
A
100
AcDbEntity
  8
0
  6
Continuous
 62
     7
100
AcDbCircle
 10
50.00000000000011
 20
-60.00000000000011
 30
0.0
 40
4.0
100
AcDbArc
 50
128.2573410000004
 51
270.0
  0
CIRCLE
  5
4B48
330
A
100
AcDbEntity
  8
0
  6
Continuous
 62
     7
100
AcDbCircle
 10
50.00000000000011
 20
-60.00000000000011
 30
0.0
 40
2.908089
  0
LINE
  5
4B49
330
A
100
AcDbEntity
  8
0
  6
Continuous
 62
     7
100
AcDbLine
 10
-5.350000000000363
 20
-56.00000000000012
 30
0.0
 11
-5.350000000000363
 21
-64.00000000000011
 31
0.0
  0
LINE
  5
4B4A
330
A
100
AcDbEntity
  8
0
  6
Continuous
 62
     9
100
AcDbLine
 10
1.649999999999977
 20
-56.00000000000012
 30
0.0
 11
1.649999999999977
 21
-64.00000000000011
 31
0.0
  0
LINE
  5
4B4B
330
A
100
AcDbEntity
  8
0
  6
Continuous
 62
     7
100
AcDbLine
 10
8.649999999999977
 20
-56.00000000000012
 30
0.0
 11
8.649999999999977
 21
-64.00000000000011
 31
0.0
  0
LINE
  5
4B4C
330
A
100
AcDbEntity
  8
0
  6
Continuous
 62
     7
100
AcDbLine
 10
63.0
 20
-65.50000000000011
 30
0.0
 11
63.0
 21
-68.50000000000012
 31
0.0
  0
LINE
  5
4B4D
330
A
100
AcDbEntity
  8
0
  6
Continuous
 62
     9
100
AcDbLine
 10
63.0
 20
-68.50000000000012
 30
0.0
 11
62.0
 21
-68.50000000000012
 31
0.0
  0
LINE
  5
4B4E
330
A
100
AcDbEntity
  8
0
  6
Continuous
 62
     9
100
AcDbLine
 10
62.0
 20
-68.50000000000012
 30
0.0
 11
62.0
 21
-65.50000000000011
 31
0.0
  0
LINE
  5
4B4F
330
A
100
AcDbEntity
  8
0
  6
Continuous
 62
     7
100
AcDbLine
 10
62.0
 20
-65.50000000000011
 30
0.0
 11
63.0
 21
-65.50000000000011
 31
0.0
  0
LINE
  5
4B50
330
A
100
AcDbEntity
  8
0
  6
Continuous
 62
     9
100
AcDbLine
 10
-12.49999999999988
 20
-65.50000000000011
 30
0.0
 11
-12.49999999999988
 21
-71.50000000000011
 31
0.0
  0
LINE
  5
4B51
330
A
100
AcDbEntity
  8
0
  6
Continuous
 62
     9
100
AcDbLine
 10
-16.99999999999988
 20
-71.50000000000011
 30
0.0
 11
-12.49999999999988
 21
-71.50000000000011
 31
0.0
  0
LINE
  5
4B52
330
A
100
AcDbEntity
  8
0
  6
Continuous
 62
     7
100
AcDbLine
 10
-16.99999999999988
 20
-71.50000000000011
 30
0.0
 11
-16.99999999999988
 21
-65.50000000000011
 31
0.0
  0
LINE
  5
4B53
330
A
100
AcDbEntity
  8
0
  6
Continuous
 62
     7
100
AcDbLine
 10
-16.99999999999988
 20
-65.50000000000011
 30
0.0
 11
-12.49999999999988
 21
-65.50000000000011
 31
0.0
  0
LINE
  5
4B54
330
A
100
AcDbEntity
  8
0
  6
Continuous
 62
     9
100
AcDbLine
 10
-12.49999999999988
 20
-71.50000000000011
 30
0.0
 11
59.00000000000011
 21
-71.50000000000011
 31
0.0
  0
ARC
  5
4B55
330
A
100
AcDbEntity
  8
0
  6
Continuous
 62
     9
100
AcDbCircle
 10
59.00000000000011
 20
-68.50000000000012
 30
0.0
 40
3.0
100
AcDbArc
 50
270.0
 51
0.0
  0
LINE
  5
4B56
330
A
100
AcDbEntity
  8
0
  6
Continuous
 62
     7
100
AcDbLine
 10
-12.49999999999988
 20
-65.50000000000011
 30
0.0
 11
62.0
 21
-65.50000000000011
 31
0.0
  0
ARC
  5
4B57
330
A
100
AcDbEntity
  8
0
  6
Continuous
 62
     7
100
AcDbCircle
 10
59.00000000000011
 20
-68.50000000000012
 30
0.0
 40
4.0
100
AcDbArc
 50
270.0
 51
0.0
  0
LINE
  5
4B58
330
A
100
AcDbEntity
  8
0
  6
Continuous
 62
     9
100
AcDbLine
 10
59.00000000000011
 20
-72.50000000000011
 30
0.0
 11
59.00000000000011
 21
-71.50000000000011
 31
0.0
  0
LINE
  5
4B59
330
A
100
AcDbEntity
  8
0
  6
Continuous
 62
     7
100
AcDbLine
 10
-12.49999999999988
 20
-72.50000000000011
 30
0.0
 11
-15.99999999999988
 21
-72.50000000000011
 31
0.0
  0
ARC
  5
4B5A
330
A
100
AcDbEntity
  8
0
  6
Continuous
 62
     7
100
AcDbCircle
 10
-15.99999999999988
 20
-71.50000000000011
 30
0.0
 40
1.0
100
AcDbArc
 50
180.0
 51
270.0
  0
LINE
  5
4B5B
330
A
100
AcDbEntity
  8
0
  6
Continuous
 62
     9
100
AcDbLine
 10
-12.49999999999988
 20
-72.50000000000011
 30
0.0
 11
-12.49999999999988
 21
-71.50000000000011
 31
0.0
  0
LINE
  5
4B5C
330
A
100
AcDbEntity
  8
0
  6
Continuous
 62
     7
100
AcDbLine
 10
59.00000000000011
 20
-72.50000000000011
 30
0.0
 11
-12.49999999999988
 21
-72.50000000000011
 31
0.0
  0
LINE
  5
4B5D
330
A
100
AcDbEntity
  8
0
  6
Continuous
 62
     7
100
AcDbLine
 10
60.49999999999966
 20
-55.00000000000011
 30
0.0
 11
63.0
 21
-55.00000000000011
 31
0.0
  0
ARC
  5
4B5E
330
A
100
AcDbEntity
  8
0
  6
Continuous
 62
     7
100
AcDbCircle
 10
50.00000000000011
 20
-60.00000000000011
 30
0.0
 40
4.009999999999998
100
AcDbArc
 50
274.0472190000025
 51
85.95279999999842
  0
ARC
  5
4B5F
330
A
100
AcDbEntity
  8
0
  6
Continuous
 62
     7
100
AcDbCircle
 10
50.00000000000011
 20
-60.00000000000011
 30
0.0
 40
4.009999999999998
100
AcDbArc
 50
94.04720000000159
 51
265.9527809999975
  0
LINE
  5
4B60
330
A
100
AcDbEntity
  8
0
  6
Continuous
 62
     7
100
AcDbLine
 10
8.799999999999954
 20
-56.00000000000012
 30
0.0
 11
8.799999999999954
 21
-64.00000000000011
 31
0.0
  0
LINE
  5
4B61
330
A
100
AcDbEntity
  8
0
  6
Continuous
 62
     7
100
AcDbLine
 10
63.0
 20
-65.50000000000011
 30
0.0
 11
63.0
 21
-55.00000000000011
 31
0.0
  0
LINE
  5
4B62
330
A
100
AcDbEntity
  8
0
  6
Continuous
 62
     7
100
AcDbLine
 10
-15.65000000000032
 20
-65.50000000000011
 30
0.0
 11
-15.99999999999988
 21
-65.50000000000011
 31
0.0
  0
ARC
  5
4B63
330
A
100
AcDbEntity
  8
0
  6
Continuous
 62
     7
100
AcDbCircle
 10
52.00564499999984
 20
-71.2208380000001
 30
0.0
 40
6.5
100
AcDbArc
 50
275.130423000001
 51
348.6504460000003
  0
ARC
  5
4B64
330
A
100
AcDbEntity
  8
0
  6
Continuous
 62
     7
100
AcDbCircle
 10
52.408049
 20
-75.70281000000012
 30
0.0
 40
2.0
100
AcDbArc
 50
251.9364990000006
 51
275.130423000001
  0
ARC
  5
4B65
330
A
100
AcDbEntity
  8
0
  6
Continuous
 62
     7
100
AcDbCircle
 10
50.00500000000011
 20
-83.07083900000009
 30
0.0
 40
5.75
100
AcDbArc
 50
71.93649900000059
 51
105.722807
  0
ARC
  5
4B66
330
A
100
AcDbEntity
  8
0
  6
Continuous
 62
     7
100
AcDbCircle
 10
47.90487699999983
 20
-75.61081300000009
 30
0.0
 40
2.0
100
AcDbArc
 50
250.1112599999992
 51
285.722807
  0
ARC
  5
4B67
330
A
100
AcDbEntity
  8
0
  6
Continuous
 62
     7
100
AcDbCircle
 10
53.00779799999998
 20
-61.50548800000009
 30
0.0
 40
17.0
100
AcDbArc
 50
220.2959590000005
 51
250.1112599999992
  0
ARC
  5
4B68
330
A
100
AcDbEntity
  8
0
  6
Continuous
 62
     7
100
AcDbCircle
 10
53.00779799999998
 20
-58.49451200000013
 30
0.0
 40
17.0
100
AcDbArc
 50
109.8887400000008
 51
139.704040000001
  0
ARC
  5
4B69
330
A
100
AcDbEntity
  8
0
  6
Continuous
 62
     7
100
AcDbCircle
 10
47.90487699999983
 20
-44.38918700000018
 30
0.0
 40
2.0
100
AcDbArc
 50
74.27719300000001
 51
109.8887400000008
  0
ARC
  5
4B6A
330
A
100
AcDbEntity
  8
0
  6
Continuous
 62
     7
100
AcDbCircle
 10
50.00500000000011
 20
-36.92916100000014
 30
0.0
 40
5.75
100
AcDbArc
 50
254.277193
 51
288.0635009999994
  0
ARC
  5
4B6B
330
A
100
AcDbEntity
  8
0
  6
Continuous
 62
     7
100
AcDbCircle
 10
52.408049
 20
-44.29719100000011
 30
0.0
 40
2.0
100
AcDbArc
 50
84.86957699999903
 51
108.0635009999994
  0
ARC
  5
4B6C
330
A
100
AcDbEntity
  8
0
  6
Continuous
 62
     7
100
AcDbCircle
 10
52.00564499999984
 20
-48.77916200000012
 30
0.0
 40
6.5
100
AcDbArc
 50
11.3495550000003
 51
84.86957699999903
  0
ARC
  5
4B6D
330
A
100
AcDbEntity
  8
0
  6
Continuous
 62
     7
100
AcDbCircle
 10
104.020171
 20
-47.90000000000012
 30
0.0
 40
0.5
100
AcDbArc
 50
90.0
 51
126.8698999999985
  0
ARC
  5
4B6E
330
A
100
AcDbEntity
  8
0
  6
Continuous
 62
     7
100
AcDbCircle
 10
113.979829
 20
-47.90000000000012
 30
0.0
 40
0.5
100
AcDbArc
 50
53.13010000000144
 51
90.0
  0
ARC
  5
4B6F
330
A
100
AcDbEntity
  8
0
  6
Continuous
 62
     7
100
AcDbCircle
 10
17.87017100000014
 20
-47.90000000000012
 30
0.0
 40
0.5
100
AcDbArc
 50
90.0
 51
126.8698999999985
  0
ARC
  5
4B70
330
A
100
AcDbEntity
  8
0
  6
Continuous
 62
     7
100
AcDbCircle
 10
27.82982899999968
 20
-47.90000000000012
 30
0.0
 40
0.5
100
AcDbArc
 50
53.13010000000144
 51
90.0
  0
LINE
  5
4B71
330
A
100
AcDbEntity
  8
0
  6
Continuous
 62
     9
100
AcDbLine
 10
141.5
 20
125.9999999999999
 30
0.0
 11
141.5
 21
124.9999999999999
 31
0.0
  0
LINE
  5
4B72
330
A
100
AcDbEntity
  8
0
  6
Continuous
 62
     9
100
AcDbLine
 10
141.5
 20
124.9999999999999
 30
0.0
 11
141.5
 21
124.4999999999999
 31
0.0
  0
LINE
  5
4B73
330
A
100
AcDbEntity
  8
0
  6
Continuous
 62
     7
100
AcDbLine
 10
147.5
 20
125.9999999999999
 30
0.0
 11
141.5
 21
125.9999999999999
 31
0.0
  0
LINE
  5
4B74
330
A
100
AcDbEntity
  8
0
  6
Continuous
 62
     7
100
AcDbLine
 10
147.5
 20
125.9999999999999
 30
0.0
 11
147.5
 21
124.9999999999999
 31
0.0
  0
LINE
  5
4B75
330
A
100
AcDbEntity
  8
0
  6
Continuous
 62
     7
100
AcDbLine
 10
147.5
 20
124.9999999999999
 30
0.0
 11
147.5
 21
124.4999999999999
 31
0.0
  0
LINE
  5
4B76
330
A
100
AcDbEntity
  8
0
  6
Continuous
 62
     9
100
AcDbLine
 10
77.0
 20
125.9999999999999
 30
0.0
 11
77.0
 21
124.9999999999999
 31
0.0
  0
LINE
  5
4B77
330
A
100
AcDbEntity
  8
0
  6
Continuous
 62
     9
100
AcDbLine
 10
77.0
 20
124.9999999999999
 30
0.0
 11
77.0
 21
124.4999999999999
 31
0.0
  0
LINE
  5
4B78
330
A
100
AcDbEntity
  8
0
  6
Continuous
 62
     7
100
AcDbLine
 10
141.5
 20
125.9999999999999
 30
0.0
 11
77.0
 21
125.9999999999999
 31
0.0
  0
LINE
  5
4B79
330
A
100
AcDbEntity
  8
0
  6
Continuous
 62
     7
100
AcDbLine
 10
71.50000000000011
 20
125.9999999999999
 30
0.0
 11
71.50000000000011
 21
124.9999999999999
 31
0.0
  0
LINE
  5
4B7A
330
A
100
AcDbEntity
  8
0
  6
Continuous
 62
     7
100
AcDbLine
 10
71.50000000000011
 20
124.9999999999999
 30
0.0
 11
71.50000000000011
 21
124.4999999999999
 31
0.0
  0
LINE
  5
4B7B
330
A
100
AcDbEntity
  8
0
  6
Continuous
 62
     7
100
AcDbLine
 10
77.0
 20
125.9999999999999
 30
0.0
 11
71.50000000000011
 21
125.9999999999999
 31
0.0
  0
LINE
  5
4B7C
330
A
100
AcDbEntity
  8
0
  6
Continuous
 62
     9
100
AcDbLine
 10
77.0
 20
135.4999999999999
 30
0.0
 11
77.0
 21
134.9999999999999
 31
0.0
  0
LINE
  5
4B7D
330
A
100
AcDbEntity
  8
0
  6
Continuous
 62
     9
100
AcDbLine
 10
77.0
 20
134.9999999999999
 30
0.0
 11
77.0
 21
133.9999999999999
 31
0.0
  0
LINE
  5
4B7E
330
A
100
AcDbEntity
  8
0
  6
Continuous
 62
     9
100
AcDbLine
 10
141.5
 20
135.4999999999999
 30
0.0
 11
141.5
 21
134.9999999999999
 31
0.0
  0
LINE
  5
4B7F
330
A
100
AcDbEntity
  8
0
  6
Continuous
 62
     9
100
AcDbLine
 10
141.5
 20
134.9999999999999
 30
0.0
 11
141.5
 21
133.9999999999999
 31
0.0
  0
LINE
  5
4B80
330
A
100
AcDbEntity
  8
0
  6
Continuous
 62
     7
100
AcDbLine
 10
141.5
 20
133.9999999999999
 30
0.0
 11
77.0
 21
133.9999999999999
 31
0.0
  0
LINE
  5
4B81
330
A
100
AcDbEntity
  8
0
  6
Continuous
 62
     7
100
AcDbLine
 10
71.50000000000011
 20
135.4999999999999
 30
0.0
 11
71.50000000000011
 21
134.9999999999999
 31
0.0
  0
LINE
  5
4B82
330
A
100
AcDbEntity
  8
0
  6
Continuous
 62
     7
100
AcDbLine
 10
71.50000000000011
 20
134.9999999999999
 30
0.0
 11
71.50000000000011
 21
133.9999999999999
 31
0.0
  0
LINE
  5
4B83
330
A
100
AcDbEntity
  8
0
  6
Continuous
 62
     7
100
AcDbLine
 10
77.0
 20
133.9999999999999
 30
0.0
 11
71.50000000000011
 21
133.9999999999999
 31
0.0
  0
LINE
  5
4B84
330
A
100
AcDbEntity
  8
0
  6
Continuous
 62
     7
100
AcDbLine
 10
147.5
 20
135.4999999999999
 30
0.0
 11
147.5
 21
134.9999999999999
 31
0.0
  0
LINE
  5
4B85
330
A
100
AcDbEntity
  8
0
  6
Continuous
 62
     7
100
AcDbLine
 10
147.5
 20
134.9999999999999
 30
0.0
 11
147.5
 21
133.9999999999999
 31
0.0
  0
LINE
  5
4B86
330
A
100
AcDbEntity
  8
0
  6
Continuous
 62
     7
100
AcDbLine
 10
147.5
 20
133.9999999999999
 30
0.0
 11
141.5
 21
133.9999999999999
 31
0.0
  0
LINE
  5
4B87
330
A
100
AcDbEntity
  8
0
  6
Continuous
 62
     9
100
AcDbLine
 10
141.5
 20
124.9999999999999
 30
0.0
 11
141.5
 21
124.4999999999999
 31
0.0
  0
LINE
  5
4B88
330
A
100
AcDbEntity
  8
0
  6
Continuous
 62
     7
100
AcDbLine
 10
147.5
 20
124.9999999999999
 30
0.0
 11
141.5
 21
124.9999999999999
 31
0.0
  0
LINE
  5
4B89
330
A
100
AcDbEntity
  8
0
  6
Continuous
 62
     7
100
AcDbLine
 10
147.5
 20
124.9999999999999
 30
0.0
 11
147.5
 21
124.4999999999999
 31
0.0
  0
LINE
  5
4B8A
330
A
100
AcDbEntity
  8
0
  6
Continuous
 62
     9
100
AcDbLine
 10
77.0
 20
124.9999999999999
 30
0.0
 11
77.0
 21
124.4999999999999
 31
0.0
  0
LINE
  5
4B8B
330
A
100
AcDbEntity
  8
0
  6
Continuous
 62
     7
100
AcDbLine
 10
141.5
 20
124.9999999999999
 30
0.0
 11
77.0
 21
124.9999999999999
 31
0.0
  0
LINE
  5
4B8C
330
A
100
AcDbEntity
  8
0
  6
Continuous
 62
     7
100
AcDbLine
 10
71.50000000000011
 20
124.9999999999999
 30
0.0
 11
71.50000000000011
 21
124.4999999999999
 31
0.0
  0
LINE
  5
4B8D
330
A
100
AcDbEntity
  8
0
  6
Continuous
 62
     7
100
AcDbLine
 10
77.0
 20
124.9999999999999
 30
0.0
 11
71.50000000000011
 21
124.9999999999999
 31
0.0
  0
LINE
  5
4B8E
330
A
100
AcDbEntity
  8
0
  6
Continuous
 62
     9
100
AcDbLine
 10
77.0
 20
135.4999999999999
 30
0.0
 11
77.0
 21
134.9999999999999
 31
0.0
  0
LINE
  5
4B8F
330
A
100
AcDbEntity
  8
0
  6
Continuous
 62
     9
100
AcDbLine
 10
141.5
 20
135.4999999999999
 30
0.0
 11
141.5
 21
134.9999999999999
 31
0.0
  0
LINE
  5
4B90
330
A
100
AcDbEntity
  8
0
  6
Continuous
 62
     7
100
AcDbLine
 10
141.5
 20
134.9999999999999
 30
0.0
 11
77.0
 21
134.9999999999999
 31
0.0
  0
LINE
  5
4B91
330
A
100
AcDbEntity
  8
0
  6
Continuous
 62
     7
100
AcDbLine
 10
71.50000000000011
 20
135.4999999999999
 30
0.0
 11
71.50000000000011
 21
134.9999999999999
 31
0.0
  0
LINE
  5
4B92
330
A
100
AcDbEntity
  8
0
  6
Continuous
 62
     7
100
AcDbLine
 10
77.0
 20
134.9999999999999
 30
0.0
 11
71.50000000000011
 21
134.9999999999999
 31
0.0
  0
LINE
  5
4B93
330
A
100
AcDbEntity
  8
0
  6
Continuous
 62
     7
100
AcDbLine
 10
147.5
 20
135.4999999999999
 30
0.0
 11
147.5
 21
134.9999999999999
 31
0.0
  0
LINE
  5
4B94
330
A
100
AcDbEntity
  8
0
  6
Continuous
 62
     7
100
AcDbLine
 10
147.5
 20
134.9999999999999
 30
0.0
 11
141.5
 21
134.9999999999999
 31
0.0
  0
LINE
  5
4B95
330
A
100
AcDbEntity
  8
0
  6
Continuous
 62
     9
100
AcDbLine
 10
54.84999999999991
 20
125.9999999999999
 30
0.0
 11
54.84999999999991
 21
124.9999999999999
 31
0.0
  0
LINE
  5
4B96
330
A
100
AcDbEntity
  8
0
  6
Continuous
 62
     9
100
AcDbLine
 10
54.84999999999991
 20
124.9999999999999
 30
0.0
 11
54.84999999999991
 21
124.4999999999999
 31
0.0
  0
LINE
  5
4B97
330
A
100
AcDbEntity
  8
0
  6
Continuous
 62
     7
100
AcDbLine
 10
60.34999999999968
 20
125.9999999999999
 30
0.0
 11
54.84999999999991
 21
125.9999999999999
 31
0.0
  0
LINE
  5
4B98
330
A
100
AcDbEntity
  8
0
  6
Continuous
 62
     7
100
AcDbLine
 10
60.34999999999968
 20
125.9999999999999
 30
0.0
 11
60.34999999999968
 21
124.9999999999999
 31
0.0
  0
LINE
  5
4B99
330
A
100
AcDbEntity
  8
0
  6
Continuous
 62
     7
100
AcDbLine
 10
-15.65000000000032
 20
125.9999999999999
 30
0.0
 11
-15.65000000000032
 21
124.4999999999999
 31
0.0
  0
LINE
  5
4B9A
330
A
100
AcDbEntity
  8
0
  6
Continuous
 62
     7
100
AcDbLine
 10
-9.65000000000009
 20
125.9999999999999
 30
0.0
 11
-15.65000000000032
 21
125.9999999999999
 31
0.0
  0
LINE
  5
4B9B
330
A
100
AcDbEntity
  8
0
  6
Continuous
 62
     9
100
AcDbLine
 10
-9.65000000000009
 20
125.9999999999999
 30
0.0
 11
-9.65000000000009
 21
124.4999999999999
 31
0.0
  0
LINE
  5
4B9C
330
A
100
AcDbEntity
  8
0
  6
Continuous
 62
     7
100
AcDbLine
 10
54.84999999999991
 20
125.9999999999999
 30
0.0
 11
-9.65000000000009
 21
125.9999999999999
 31
0.0
  0
LINE
  5
4B9D
330
A
100
AcDbEntity
  8
0
  6
Continuous
 62
     9
100
AcDbLine
 10
54.84999999999991
 20
135.4999999999999
 30
0.0
 11
54.84999999999991
 21
134.9999999999999
 31
0.0
  0
LINE
  5
4B9E
330
A
100
AcDbEntity
  8
0
  6
Continuous
 62
     9
100
AcDbLine
 10
54.84999999999991
 20
134.9999999999999
 30
0.0
 11
54.84999999999991
 21
133.9999999999999
 31
0.0
  0
LINE
  5
4B9F
330
A
100
AcDbEntity
  8
0
  6
Continuous
 62
     7
100
AcDbLine
 10
60.34999999999968
 20
134.9999999999999
 30
0.0
 11
60.34999999999968
 21
133.9999999999999
 31
0.0
  0
LINE
  5
4BA0
330
A
100
AcDbEntity
  8
0
  6
Continuous
 62
     7
100
AcDbLine
 10
60.34999999999968
 20
133.9999999999999
 30
0.0
 11
54.84999999999991
 21
133.9999999999999
 31
0.0
  0
LINE
  5
4BA1
330
A
100
AcDbEntity
  8
0
  6
Continuous
 62
     7
100
AcDbLine
 10
54.84999999999991
 20
133.9999999999999
 30
0.0
 11
-9.65000000000009
 21
133.9999999999999
 31
0.0
  0
LINE
  5
4BA2
330
A
100
AcDbEntity
  8
0
  6
Continuous
 62
     7
100
AcDbLine
 10
-15.65000000000032
 20
135.4999999999999
 30
0.0
 11
-15.65000000000032
 21
133.9999999999999
 31
0.0
  0
LINE
  5
4BA3
330
A
100
AcDbEntity
  8
0
  6
Continuous
 62
     9
100
AcDbLine
 10
-9.65000000000009
 20
135.4999999999999
 30
0.0
 11
-9.65000000000009
 21
133.9999999999999
 31
0.0
  0
LINE
  5
4BA4
330
A
100
AcDbEntity
  8
0
  6
Continuous
 62
     7
100
AcDbLine
 10
-9.65000000000009
 20
133.9999999999999
 30
0.0
 11
-15.65000000000032
 21
133.9999999999999
 31
0.0
  0
LINE
  5
4BA5
330
A
100
AcDbEntity
  8
0
  6
Continuous
 62
     7
100
AcDbLine
 10
137.1999999999999
 20
125.9999999999999
 30
0.0
 11
137.1999999999999
 21
133.9999999999999
 31
0.0
  0
LINE
  5
4BA6
330
A
100
AcDbEntity
  8
0
  6
Continuous
 62
     9
100
AcDbLine
 10
130.1999999999999
 20
125.9999999999999
 30
0.0
 11
130.1999999999999
 21
133.9999999999999
 31
0.0
  0
LINE
  5
4BA7
330
A
100
AcDbEntity
  8
0
  6
Continuous
 62
     7
100
AcDbLine
 10
123.1999999999999
 20
125.9999999999999
 30
0.0
 11
123.1999999999999
 21
133.9999999999999
 31
0.0
  0
LINE
  5
4BA8
330
A
100
AcDbEntity
  8
0
  6
Continuous
 62
     9
100
AcDbLine
 10
144.5
 20
141.4999999999999
 30
0.0
 11
144.5
 21
142.4999999999999
 31
0.0
  0
LINE
  5
4BA9
330
A
100
AcDbEntity
  8
0
  6
Continuous
 62
     9
100
AcDbLine
 10
144.5
 20
141.4999999999999
 30
0.0
 11
73.0
 21
141.4999999999999
 31
0.0
  0
LINE
  5
4BAA
330
A
100
AcDbEntity
  8
0
  6
Continuous
 62
     9
100
AcDbLine
 10
73.0
 20
142.4999999999999
 30
0.0
 11
73.0
 21
141.4999999999999
 31
0.0
  0
LINE
  5
4BAB
330
A
100
AcDbEntity
  8
0
  6
Continuous
 62
     7
100
AcDbLine
 10
73.0
 20
142.4999999999999
 30
0.0
 11
144.5
 21
142.4999999999999
 31
0.0
  0
ARC
  5
4BAC
330
A
100
AcDbEntity
  8
0
  6
Continuous
 62
     9
100
AcDbCircle
 10
73.0
 20
138.4999999999999
 30
0.0
 40
3.0
100
AcDbArc
 50
90.0
 51
180.0
  0
LINE
  5
4BAD
330
A
100
AcDbEntity
  8
0
  6
Continuous
 62
     9
100
AcDbLine
 10
70.0
 20
138.4999999999999
 30
0.0
 11
69.0
 21
138.4999999999999
 31
0.0
  0
ARC
  5
4BAE
330
A
100
AcDbEntity
  8
0
  6
Continuous
 62
     7
100
AcDbCircle
 10
73.0
 20
138.4999999999999
 30
0.0
 40
4.0
100
AcDbArc
 50
90.0
 51
180.0
  0
LINE
  5
4BAF
330
A
100
AcDbEntity
  8
0
  6
Continuous
 62
     7
100
AcDbLine
 10
148.0
 20
142.4999999999999
 30
0.0
 11
144.5
 21
142.4999999999999
 31
0.0
  0
ARC
  5
4BB0
330
A
100
AcDbEntity
  8
0
  6
Continuous
 62
     7
100
AcDbCircle
 10
148.0
 20
141.4999999999999
 30
0.0
 40
1.0
100
AcDbArc
 50
0.0
 51
90.0
  0
LINE
  5
4BB1
330
A
100
AcDbEntity
  8
0
  6
Continuous
 62
     9
100
AcDbLine
 10
144.5
 20
141.4999999999999
 30
0.0
 11
149.0
 21
141.4999999999999
 31
0.0
  0
LINE
  5
4BB2
330
A
100
AcDbEntity
  8
0
  6
Continuous
 62
     9
100
AcDbLine
 10
144.5
 20
135.4999999999999
 30
0.0
 11
144.5
 21
141.4999999999999
 31
0.0
  0
LINE
  5
4BB3
330
A
100
AcDbEntity
  8
0
  6
Continuous
 62
     7
100
AcDbLine
 10
144.5
 20
135.4999999999999
 30
0.0
 11
70.0
 21
135.4999999999999
 31
0.0
  0
LINE
  5
4BB4
330
A
100
AcDbEntity
  8
0
  6
Continuous
 62
     9
100
AcDbLine
 10
70.0
 20
138.4999999999999
 30
0.0
 11
70.0
 21
135.4999999999999
 31
0.0
  0
LINE
  5
4BB5
330
A
100
AcDbEntity
  8
0
  6
Continuous
 62
     7
100
AcDbLine
 10
149.0
 20
141.4999999999999
 30
0.0
 11
149.0
 21
135.4999999999999
 31
0.0
  0
LINE
  5
4BB6
330
A
100
AcDbEntity
  8
0
  6
Continuous
 62
     7
100
AcDbLine
 10
149.0
 20
135.4999999999999
 30
0.0
 11
144.5
 21
135.4999999999999
 31
0.0
  0
LINE
  5
4BB7
330
A
100
AcDbEntity
  8
0
  6
Continuous
 62
     7
100
AcDbLine
 10
70.0
 20
135.4999999999999
 30
0.0
 11
69.0
 21
135.4999999999999
 31
0.0
  0
LINE
  5
4BB8
330
A
100
AcDbEntity
  8
0
  6
Continuous
 62
     7
100
AcDbLine
 10
69.0
 20
135.4999999999999
 30
0.0
 11
69.0
 21
138.4999999999999
 31
0.0
  0
LINE
  5
4BB9
330
A
100
AcDbEntity
  8
0
  6
Continuous
 62
     7
100
AcDbLine
 10
71.50000000000011
 20
124.9999999999999
 30
0.0
 11
69.0
 21
124.9999999999999
 31
0.0
  0
LINE
  5
4BBA
330
A
100
AcDbEntity
  8
0
  6
Continuous
 62
     7
100
AcDbLine
 10
123.0999999999999
 20
125.9999999999999
 30
0.0
 11
123.0999999999999
 21
133.9999999999999
 31
0.0
  0
LINE
  5
4BBB
330
A
100
AcDbEntity
  8
0
  6
Continuous
 62
     7
100
AcDbLine
 10
69.0
 20
135.4999999999999
 30
0.0
 11
69.0
 21
124.9999999999999
 31
0.0
  0
LINE
  5
4BBC
330
A
100
AcDbEntity
  8
0
  6
Continuous
 62
     9
100
AcDbLine
 10
69.0
 20
138.4999999999999
 30
0.0
 11
67.66666699999996
 21
138.4999999999999
 31
0.0
  0
LINE
  5
4BBD
330
A
100
AcDbEntity
  8
0
  6
Continuous
 62
     7
100
AcDbLine
 10
67.00010699999996
 20
141.0032519999998
 30
0.0
 11
67.00174099999981
 21
140.9312259999999
 31
0.0
  0
ARC
  5
4BBE
330
A
100
AcDbEntity
  8
0
  6
Continuous
 62
     7
100
AcDbCircle
 10
74.26488299999994
 20
141.6111119999998
 30
0.0
 40
7.294894
100
AcDbArc
 50
185.3477449999998
 51
205.2442540000008
  0
ARC
  5
4BBF
330
A
100
AcDbEntity
  8
0
  6
Continuous
 62
     7
100
AcDbCircle
 10
70.12000000000012
 20
138.4999999999999
 30
0.0
 40
4.0
100
AcDbArc
 50
90.0
 51
141.2581159999983
  0
LINE
  5
4BC0
330
A
100
AcDbEntity
  8
0
  6
Continuous
 62
     7
100
AcDbLine
 10
70.12000000000012
 20
142.4999999999999
 30
0.0
 11
73.0
 21
142.4999999999999
 31
0.0
  0
LINE
  5
4BC1
330
A
100
AcDbEntity
  8
0
  6
Continuous
 62
     9
100
AcDbLine
 10
67.66666699999996
 20
138.4999999999999
 30
0.0
 11
67.66666699999996
 21
136.4999999999999
 31
0.0
  0
LINE
  5
4BC2
330
A
100
AcDbEntity
  8
0
  6
Continuous
 62
     7
100
AcDbLine
 10
67.66666699999996
 20
136.4999999999999
 30
0.0
 11
69.0
 21
136.4999999999999
 31
0.0
  0
LINE
  5
4BC3
330
A
100
AcDbEntity
  8
0
  6
Continuous
 62
     7
100
AcDbLine
 10
67.00000000000011
 20
141.0031179999999
 30
0.0
 11
67.00010699999996
 21
141.0032519999998
 31
0.0
  0
LINE
  5
4BC4
330
A
100
AcDbEntity
  8
0
  6
Continuous
 62
     7
100
AcDbLine
 10
67.00000000000011
 20
140.9999999999999
 30
0.0
 11
67.00000000000011
 21
141.0031179999999
 31
0.0
  0
LINE
  5
4BC5
330
A
100
AcDbEntity
  8
0
  6
Continuous
 62
     7
100
AcDbLine
 10
67.66666699999996
 20
136.4999999999999
 30
0.0
 11
67.00000000000011
 21
136.4999999999999
 31
0.0
  0
LINE
  5
4BC6
330
A
100
AcDbEntity
  8
0
  6
Continuous
 62
     7
100
AcDbLine
 10
113.979829
 20
117.3999999999998
 30
0.0
 11
104.020171
 21
117.3999999999998
 31
0.0
  0
LINE
  5
4BC7
330
A
100
AcDbEntity
  8
0
  6
Continuous
 62
     7
100
AcDbLine
 10
149.0
 20
124.4999999999999
 30
0.0
 11
149.0
 21
118.4999999999999
 31
0.0
  0
LINE
  5
4BC8
330
A
100
AcDbEntity
  8
0
  6
Continuous
 62
     9
100
AcDbLine
 10
144.5
 20
118.4999999999999
 30
0.0
 11
149.0
 21
118.4999999999999
 31
0.0
  0
LINE
  5
4BC9
330
A
100
AcDbEntity
  8
0
  6
Continuous
 62
     9
100
AcDbLine
 10
144.5
 20
118.4999999999999
 30
0.0
 11
144.5
 21
124.4999999999999
 31
0.0
  0
LINE
  5
4BCA
330
A
100
AcDbEntity
  8
0
  6
Continuous
 62
     7
100
AcDbLine
 10
144.5
 20
124.4999999999999
 30
0.0
 11
149.0
 21
124.4999999999999
 31
0.0
  0
LINE
  5
4BCB
330
A
100
AcDbEntity
  8
0
  6
Continuous
 62
     9
100
AcDbLine
 10
73.0
 20
118.4999999999999
 30
0.0
 11
144.5
 21
118.4999999999999
 31
0.0
  0
ARC
  5
4BCC
330
A
100
AcDbEntity
  8
0
  6
Continuous
 62
     9
100
AcDbCircle
 10
73.0
 20
121.4999999999999
 30
0.0
 40
3.0
100
AcDbArc
 50
180.0
 51
270.0
  0
LINE
  5
4BCD
330
A
100
AcDbEntity
  8
0
  6
Continuous
 62
     9
100
AcDbLine
 10
70.0
 20
124.4999999999999
 30
0.0
 11
70.0
 21
121.4999999999999
 31
0.0
  0
LINE
  5
4BCE
330
A
100
AcDbEntity
  8
0
  6
Continuous
 62
     7
100
AcDbLine
 10
144.5
 20
124.4999999999999
 30
0.0
 11
70.0
 21
124.4999999999999
 31
0.0
  0
LINE
  5
4BCF
330
A
100
AcDbEntity
  8
0
  6
Continuous
 62
     7
100
AcDbLine
 10
148.0
 20
117.4999999999999
 30
0.0
 11
144.5
 21
117.4999999999999
 31
0.0
  0
LINE
  5
4BD0
330
A
100
AcDbEntity
  8
0
  6
Continuous
 62
     9
100
AcDbLine
 10
144.5
 20
117.4999999999999
 30
0.0
 11
144.5
 21
118.4999999999999
 31
0.0
  0
ARC
  5
4BD1
330
A
100
AcDbEntity
  8
0
  6
Continuous
 62
     7
100
AcDbCircle
 10
148.0
 20
118.4999999999999
 30
0.0
 40
1.0
100
AcDbArc
 50
270.0
 51
0.0
  0
LINE
  5
4BD2
330
A
100
AcDbEntity
  8
0
  6
Continuous
 62
     7
100
AcDbLine
 10
144.5
 20
117.4999999999999
 30
0.0
 11
73.0
 21
117.4999999999999
 31
0.0
  0
LINE
  5
4BD3
330
A
100
AcDbEntity
  8
0
  6
Continuous
 62
     9
100
AcDbLine
 10
73.0
 20
118.4999999999999
 30
0.0
 11
73.0
 21
117.4999999999999
 31
0.0
  0
LINE
  5
4BD4
330
A
100
AcDbEntity
  8
0
  6
Continuous
 62
     7
100
AcDbLine
 10
69.0
 20
121.4999999999999
 30
0.0
 11
69.0
 21
124.4999999999999
 31
0.0
  0
LINE
  5
4BD5
330
A
100
AcDbEntity
  8
0
  6
Continuous
 62
     9
100
AcDbLine
 10
69.0
 20
121.4999999999999
 30
0.0
 11
70.0
 21
121.4999999999999
 31
0.0
  0
LINE
  5
4BD6
330
A
100
AcDbEntity
  8
0
  6
Continuous
 62
     7
100
AcDbLine
 10
69.0
 20
124.4999999999999
 30
0.0
 11
70.0
 21
124.4999999999999
 31
0.0
  0
ARC
  5
4BD7
330
A
100
AcDbEntity
  8
0
  6
Continuous
 62
     7
100
AcDbCircle
 10
73.0
 20
121.4999999999999
 30
0.0
 40
4.0
100
AcDbArc
 50
180.0
 51
270.0
  0
LINE
  5
4BD8
330
A
100
AcDbEntity
  8
0
  6
Continuous
 62
     9
100
AcDbLine
 10
67.66666699999996
 20
121.4999999999999
 30
0.0
 11
69.0
 21
121.4999999999999
 31
0.0
  0
LINE
  5
4BD9
330
A
100
AcDbEntity
  8
0
  6
Continuous
 62
     9
100
AcDbLine
 10
67.66666699999996
 20
124.4999999999999
 30
0.0
 11
67.66666699999996
 21
121.4999999999999
 31
0.0
  0
LINE
  5
4BDA
330
A
100
AcDbEntity
  8
0
  6
Continuous
 62
     7
100
AcDbLine
 10
69.0
 20
124.4999999999999
 30
0.0
 11
67.66666699999996
 21
124.4999999999999
 31
0.0
  0
ARC
  5
4BDB
330
A
100
AcDbEntity
  8
0
  6
Continuous
 62
     7
100
AcDbCircle
 10
70.12000000000012
 20
121.4999999999999
 30
0.0
 40
4.0
100
AcDbArc
 50
218.7418840000017
 51
270.0
  0
ARC
  5
4BDC
330
A
100
AcDbEntity
  8
0
  6
Continuous
 62
     7
100
AcDbCircle
 10
74.19217199999991
 20
118.4084509999997
 30
0.0
 40
7.220796
100
AcDbArc
 50
154.6500969999988
 51
174.7375570000006
  0
LINE
  5
4BDD
330
A
100
AcDbEntity
  8
0
  6
Continuous
 62
     7
100
AcDbLine
 10
67.00181199999963
 20
119.0707279999998
 30
0.0
 11
67.00010699999996
 21
118.9967479999999
 31
0.0
  0
LINE
  5
4BDE
330
A
100
AcDbEntity
  8
0
  6
Continuous
 62
     7
100
AcDbLine
 10
73.0
 20
117.4999999999999
 30
0.0
 11
70.12000000000012
 21
117.4999999999999
 31
0.0
  0
LINE
  5
4BDF
330
A
100
AcDbEntity
  8
0
  6
Continuous
 62
     7
100
AcDbLine
 10
67.00010699999996
 20
118.9967479999999
 30
0.0
 11
67.00000000000011
 21
118.9968819999998
 31
0.0
  0
LINE
  5
4BE0
330
A
100
AcDbEntity
  8
0
  6
Continuous
 62
     7
100
AcDbLine
 10
67.00000000000011
 20
118.9968819999998
 30
0.0
 11
67.00000000000011
 21
118.9999999999999
 31
0.0
  0
LINE
  5
4BE1
330
A
100
AcDbEntity
  8
0
  6
Continuous
 62
     7
100
AcDbLine
 10
67.00000000000011
 20
124.4999999999999
 30
0.0
 11
67.66666699999996
 21
124.4999999999999
 31
0.0
  0
LINE
  5
4BE2
330
A
100
AcDbEntity
  8
0
  6
Continuous
 62
     7
100
AcDbLine
 10
67.00000000000011
 20
139.9999999999999
 30
0.0
 11
67.00000000000011
 21
140.9999999999999
 31
0.0
  0
LINE
  5
4BE3
330
A
100
AcDbEntity
  8
0
  6
Continuous
 62
     7
100
AcDbLine
 10
67.00000000000011
 20
136.4999999999999
 30
0.0
 11
67.00000000000011
 21
139.9999999999999
 31
0.0
  0
LINE
  5
4BE4
330
A
100
AcDbEntity
  8
0
  6
Continuous
 62
     7
100
AcDbLine
 10
67.00000000000011
 20
119.9999999999999
 30
0.0
 11
67.00000000000011
 21
129.4999999999999
 31
0.0
  0
LINE
  5
4BE5
330
A
100
AcDbEntity
  8
0
  6
Continuous
 62
     7
100
AcDbLine
 10
61.97249900000008
 20
118.9999999999999
 30
0.0
 11
67.00000000000011
 21
118.9999999999999
 31
0.0
  0
LINE
  5
4BE6
330
A
100
AcDbEntity
  8
0
  6
Continuous
 62
     7
100
AcDbLine
 10
67.00000000000011
 20
140.9999999999999
 30
0.0
 11
62.12249899999983
 21
140.9999999999999
 31
0.0
  0
LINE
  5
4BE7
330
A
100
AcDbEntity
  8
0
  6
Continuous
 62
     7
100
AcDbLine
 10
69.0
 20
129.4999999999999
 30
0.0
 11
67.00000000000011
 21
129.4999999999999
 31
0.0
  0
LINE
  5
4BE8
330
A
100
AcDbEntity
  8
0
  6
Continuous
 62
     7
100
AcDbLine
 10
67.00000000000011
 20
136.4999999999999
 30
0.0
 11
67.00018399999999
 21
136.4999999999999
 31
0.0
  0
LINE
  5
4BE9
330
A
100
AcDbEntity
  8
0
  6
Continuous
 62
     7
100
AcDbLine
 10
67.00018399999999
 20
136.4999999999999
 30
0.0
 11
67.66666699999996
 21
136.4999999999999
 31
0.0
  0
LINE
  5
4BEA
330
A
100
AcDbEntity
  8
0
  6
Continuous
 62
     9
100
AcDbLine
 10
-12.6500000000002
 20
118.4999999999999
 30
0.0
 11
58.8499999999998
 21
118.4999999999999
 31
0.0
  0
LINE
  5
4BEB
330
A
100
AcDbEntity
  8
0
  6
Continuous
 62
     9
100
AcDbLine
 10
-12.6500000000002
 20
124.4999999999999
 30
0.0
 11
-12.6500000000002
 21
118.4999999999999
 31
0.0
  0
LINE
  5
4BEC
330
A
100
AcDbEntity
  8
0
  6
Continuous
 62
     7
100
AcDbLine
 10
61.84999999999991
 20
124.4999999999999
 30
0.0
 11
-12.6500000000002
 21
124.4999999999999
 31
0.0
  0
LINE
  5
4BED
330
A
100
AcDbEntity
  8
0
  6
Continuous
 62
     9
100
AcDbLine
 10
61.84999999999991
 20
121.4999999999999
 30
0.0
 11
61.84999999999991
 21
124.4999999999999
 31
0.0
  0
ARC
  5
4BEE
330
A
100
AcDbEntity
  8
0
  6
Continuous
 62
     9
100
AcDbCircle
 10
58.8499999999998
 20
121.4999999999999
 30
0.0
 40
3.0
100
AcDbArc
 50
270.0
 51
0.0
  0
LINE
  5
4BEF
330
A
100
AcDbEntity
  8
0
  6
Continuous
 62
     9
100
AcDbLine
 10
-17.1500000000002
 20
118.4999999999999
 30
0.0
 11
-12.6500000000002
 21
118.4999999999999
 31
0.0
  0
LINE
  5
4BF0
330
A
100
AcDbEntity
  8
0
  6
Continuous
 62
     7
100
AcDbLine
 10
-17.1500000000002
 20
118.4999999999999
 30
0.0
 11
-17.1500000000002
 21
124.4999999999999
 31
0.0
  0
LINE
  5
4BF1
330
A
100
AcDbEntity
  8
0
  6
Continuous
 62
     7
100
AcDbLine
 10
-17.1500000000002
 20
124.4999999999999
 30
0.0
 11
-12.6500000000002
 21
124.4999999999999
 31
0.0
  0
LINE
  5
4BF2
330
A
100
AcDbEntity
  8
0
  6
Continuous
 62
     7
100
AcDbLine
 10
62.84999999999991
 20
124.4999999999999
 30
0.0
 11
62.84999999999991
 21
121.4999999999999
 31
0.0
  0
LINE
  5
4BF3
330
A
100
AcDbEntity
  8
0
  6
Continuous
 62
     9
100
AcDbLine
 10
62.84999999999991
 20
121.4999999999999
 30
0.0
 11
61.84999999999991
 21
121.4999999999999
 31
0.0
  0
LINE
  5
4BF4
330
A
100
AcDbEntity
  8
0
  6
Continuous
 62
     7
100
AcDbLine
 10
61.84999999999991
 20
124.4999999999999
 30
0.0
 11
62.84999999999991
 21
124.4999999999999
 31
0.0
  0
ARC
  5
4BF5
330
A
100
AcDbEntity
  8
0
  6
Continuous
 62
     7
100
AcDbCircle
 10
58.8499999999998
 20
121.4999999999999
 30
0.0
 40
4.0
100
AcDbArc
 50
270.0
 51
0.0
  0
LINE
  5
4BF6
330
A
100
AcDbEntity
  8
0
  6
Continuous
 62
     9
100
AcDbLine
 10
58.8499999999998
 20
117.4999999999999
 30
0.0
 11
58.8499999999998
 21
118.4999999999999
 31
0.0
  0
LINE
  5
4BF7
330
A
100
AcDbEntity
  8
0
  6
Continuous
 62
     7
100
AcDbLine
 10
58.8499999999998
 20
117.4999999999999
 30
0.0
 11
-12.6500000000002
 21
117.4999999999999
 31
0.0
  0
LINE
  5
4BF8
330
A
100
AcDbEntity
  8
0
  6
Continuous
 62
     9
100
AcDbLine
 10
-12.6500000000002
 20
117.4999999999999
 30
0.0
 11
-12.6500000000002
 21
118.4999999999999
 31
0.0
  0
LINE
  5
4BF9
330
A
100
AcDbEntity
  8
0
  6
Continuous
 62
     7
100
AcDbLine
 10
-12.6500000000002
 20
117.4999999999999
 30
0.0
 11
-16.1500000000002
 21
117.4999999999999
 31
0.0
  0
ARC
  5
4BFA
330
A
100
AcDbEntity
  8
0
  6
Continuous
 62
     7
100
AcDbCircle
 10
-16.1500000000002
 20
118.4999999999999
 30
0.0
 40
1.0
100
AcDbArc
 50
180.0
 51
270.0
  0
LINE
  5
4BFB
330
A
100
AcDbEntity
  8
0
  6
Continuous
 62
     9
100
AcDbLine
 10
55.0
 20
124.9999999999999
 30
0.0
 11
55.0
 21
124.4999999999999
 31
0.0
  0
LINE
  5
4BFC
330
A
100
AcDbEntity
  8
0
  6
Continuous
 62
     7
100
AcDbLine
 10
60.49999999999966
 20
124.9999999999999
 30
0.0
 11
55.0
 21
124.9999999999999
 31
0.0
  0
LINE
  5
4BFD
330
A
100
AcDbEntity
  8
0
  6
Continuous
 62
     7
100
AcDbLine
 10
60.49999999999966
 20
124.9999999999999
 30
0.0
 11
60.49999999999966
 21
124.4999999999999
 31
0.0
  0
LINE
  5
4BFE
330
A
100
AcDbEntity
  8
0
  6
Continuous
 62
     9
100
AcDbLine
 10
-9.5
 20
124.9999999999999
 30
0.0
 11
-9.5
 21
124.4999999999999
 31
0.0
  0
LINE
  5
4BFF
330
A
100
AcDbEntity
  8
0
  6
Continuous
 62
     7
100
AcDbLine
 10
55.0
 20
124.9999999999999
 30
0.0
 11
-9.5
 21
124.9999999999999
 31
0.0
  0
LINE
  5
4C00
330
A
100
AcDbEntity
  8
0
  6
Continuous
 62
     9
100
AcDbLine
 10
55.0
 20
135.4999999999999
 30
0.0
 11
55.0
 21
134.9999999999999
 31
0.0
  0
LINE
  5
4C01
330
A
100
AcDbEntity
  8
0
  6
Continuous
 62
     7
100
AcDbLine
 10
60.49999999999966
 20
135.4999999999999
 30
0.0
 11
60.49999999999966
 21
134.9999999999999
 31
0.0
  0
LINE
  5
4C02
330
A
100
AcDbEntity
  8
0
  6
Continuous
 62
     7
100
AcDbLine
 10
60.49999999999966
 20
134.9999999999999
 30
0.0
 11
55.0
 21
134.9999999999999
 31
0.0
  0
LINE
  5
4C03
330
A
100
AcDbEntity
  8
0
  6
Continuous
 62
     9
100
AcDbLine
 10
-9.5
 20
135.4999999999999
 30
0.0
 11
-9.5
 21
134.9999999999999
 31
0.0
  0
LINE
  5
4C04
330
A
100
AcDbEntity
  8
0
  6
Continuous
 62
     7
100
AcDbLine
 10
55.0
 20
134.9999999999999
 30
0.0
 11
-9.5
 21
134.9999999999999
 31
0.0
  0
LINE
  5
4C05
330
A
100
AcDbEntity
  8
0
  6
Continuous
 62
     7
100
AcDbLine
 10
27.82982899999968
 20
117.3999999999998
 30
0.0
 11
17.87017100000014
 21
117.3999999999998
 31
0.0
  0
ARC
  5
4C06
330
A
100
AcDbEntity
  8
0
  6
Continuous
 62
     7
100
AcDbCircle
 10
51.80365699999993
 20
133.3557379999998
 30
0.0
 40
0.1
100
AcDbArc
 50
206.7426590000006
 51
276.7426590000005
  0
LINE
  5
4C07
330
A
100
AcDbEntity
  8
0
  6
Continuous
 62
     7
100
AcDbLine
 10
51.81539799999995
 20
133.2564289999999
 30
0.0
 11
51.85201400000005
 21
133.2607579999999
 31
0.0
  0
ARC
  5
4C08
330
A
100
AcDbEntity
  8
0
  6
Continuous
 62
     7
100
AcDbCircle
 10
50.00000000000011
 20
129.9999999999999
 30
0.0
 40
3.75
100
AcDbArc
 50
43.08060299999936
 51
60.40471499999775
  0
LINE
  5
4C09
330
A
100
AcDbEntity
  8
0
  6
Continuous
 62
     7
100
AcDbLine
 10
52.73897600000009
 20
132.5613499999999
 30
0.0
 11
52.7433050000003
 21
132.5247339999998
 31
0.0
  0
ARC
  5
4C0A
330
A
100
AcDbEntity
  8
0
  6
Continuous
 62
     7
100
AcDbCircle
 10
52.84261300000003
 20
132.5364749999998
 30
0.0
 40
0.1
100
AcDbArc
 50
186.7426590000006
 51
256.7426590000015
  0
LINE
  5
4C0B
330
A
100
AcDbEntity
  8
0
  6
Continuous
 62
     7
100
AcDbLine
 10
52.81968100000006
 20
132.4391399999999
 30
0.0
 11
52.85556899999995
 21
132.4306849999999
 31
0.0
  0
ARC
  5
4C0C
330
A
100
AcDbEntity
  8
0
  6
Continuous
 62
     7
100
AcDbCircle
 10
50.00000000000011
 20
129.9999999999999
 30
0.0
 40
3.75
100
AcDbArc
 50
23.08060299999987
 51
40.40471500000056
  0
LINE
  5
4C0D
330
A
100
AcDbEntity
  8
0
  6
Continuous
 62
     7
100
AcDbLine
 10
53.44982799999991
 20
131.4700959999999
 30
0.0
 11
53.44137299999999
 21
131.4342079999999
 31
0.0
  0
ARC
  5
4C0E
330
A
100
AcDbEntity
  8
0
  6
Continuous
 62
     7
100
AcDbCircle
 10
53.53870799999993
 20
131.4112759999998
 30
0.0
 40
0.1
100
AcDbArc
 50
166.7426590000002
 51
236.7426589999985
  0
LINE
  5
4C0F
330
A
100
AcDbEntity
  8
0
  6
Continuous
 62
     7
100
AcDbLine
 10
53.4838679999998
 20
131.3276539999999
 30
0.0
 11
53.51469999999983
 21
131.3074339999999
 31
0.0
  0
ARC
  5
4C10
330
A
100
AcDbEntity
  8
0
  6
Continuous
 62
     7
100
AcDbCircle
 10
50.00000000000011
 20
129.9999999999999
 30
0.0
 40
3.75
100
AcDbArc
 50
3.080602999999836
 51
20.40471499999944
  0
LINE
  5
4C11
330
A
100
AcDbEntity
  8
0
  6
Continuous
 62
     7
100
AcDbLine
 10
53.74458100000004
 20
130.2015279999999
 30
0.0
 11
53.72436099999993
 21
130.1706959999999
 31
0.0
  0
ARC
  5
4C12
330
A
100
AcDbEntity
  8
0
  6
Continuous
 62
     7
100
AcDbCircle
 10
53.80798299999992
 20
130.1158559999999
 30
0.0
 40
0.1
100
AcDbArc
 50
146.7426589999989
 51
216.7426589999981
  0
LINE
  5
4C13
330
A
100
AcDbEntity
  8
0
  6
Continuous
 62
     7
100
AcDbLine
 10
53.72784999999999
 20
130.0560339999999
 30
0.0
 11
53.74990600000012
 21
130.0264879999998
 31
0.0
  0
ARC
  5
4C14
330
A
100
AcDbEntity
  8
0
  6
Continuous
 62
     7
100
AcDbCircle
 10
50.00000000000011
 20
129.9999999999999
 30
0.0
 40
3.75
100
AcDbArc
 50
343.0806030000002
 51
0.4047149999997015
  0
LINE
  5
4C15
330
A
100
AcDbEntity
  8
0
  6
Continuous
 62
     7
100
AcDbLine
 10
53.58768199999963
 20
128.9086519999999
 30
0.0
 11
53.55813599999965
 21
128.8865949999999
 31
0.0
  0
ARC
  5
4C16
330
A
100
AcDbEntity
  8
0
  6
Continuous
 62
     7
100
AcDbCircle
 10
53.61795799999993
 20
128.8064619999999
 30
0.0
 40
0.1
100
AcDbArc
 50
126.7426589999991
 51
196.7426589999998
  0
LINE
  5
4C17
330
A
100
AcDbEntity
  8
0
  6
Continuous
 62
     7
100
AcDbLine
 10
53.522198
 20
128.7776549999998
 30
0.0
 11
53.53281899999967
 21
128.7423469999999
 31
0.0
  0
ARC
  5
4C18
330
A
100
AcDbEntity
  8
0
  6
Continuous
 62
     7
100
AcDbCircle
 10
50.00000000000011
 20
129.9999999999999
 30
0.0
 40
3.75
100
AcDbArc
 50
323.0806029999988
 51
340.4047149999995
  0
LINE
  5
4C19
330
A
100
AcDbEntity
  8
0
  6
Continuous
 62
     7
100
AcDbLine
 10
52.99805500000002
 20
127.7474089999999
 30
0.0
 11
52.96274700000004
 21
127.7367879999999
 31
0.0
  0
ARC
  5
4C1A
330
A
100
AcDbEntity
  8
0
  6
Continuous
 62
     7
100
AcDbCircle
 10
52.99155500000006
 20
127.6410269999999
 30
0.0
 40
0.1
100
AcDbArc
 50
106.7426589999993
 51
176.7426589999997
  0
LINE
  5
4C1B
330
A
100
AcDbEntity
  8
0
  6
Continuous
 62
     7
100
AcDbLine
 10
52.89171599999997
 20
127.6467089999999
 30
0.0
 11
52.88962100000003
 21
127.6098979999998
 31
0.0
  0
ARC
  5
4C1C
330
A
100
AcDbEntity
  8
0
  6
Continuous
 62
     7
100
AcDbCircle
 10
50.00000000000011
 20
129.9999999999999
 30
0.0
 40
3.75
100
AcDbArc
 50
303.0806029999997
 51
320.4047150000009
  0
LINE
  5
4C1D
330
A
100
AcDbEntity
  8
0
  6
Continuous
 62
     7
100
AcDbLine
 10
52.04681899999991
 20
126.8578619999999
 30
0.0
 11
52.01000799999997
 21
126.8599569999999
 31
0.0
  0
ARC
  5
4C1E
330
A
100
AcDbEntity
  8
0
  6
Continuous
 62
     7
100
AcDbCircle
 10
52.00432599999965
 20
126.7601179999999
 30
0.0
 40
0.1
100
AcDbArc
 50
86.74265899999971
 51
156.7426590000006
  0
LINE
  5
4C1F
330
A
100
AcDbEntity
  8
0
  6
Continuous
 62
     7
100
AcDbLine
 10
51.9124519999998
 20
126.7996039999998
 30
0.0
 11
51.89789299999995
 21
126.7657299999998
 31
0.0
  0
ARC
  5
4C20
330
A
100
AcDbEntity
  8
0
  6
Continuous
 62
     7
100
AcDbCircle
 10
50.00000000000011
 20
129.9999999999999
 30
0.0
 40
3.75
100
AcDbArc
 50
283.080603000002
 51
300.4047150000027
  0
LINE
  5
4C21
330
A
100
AcDbEntity
  8
0
  6
Continuous
 62
     7
100
AcDbLine
 10
50.84870600000011
 20
126.3473029999998
 30
0.0
 11
50.81483100000003
 21
126.3618609999998
 31
0.0
  0
ARC
  5
4C22
330
A
100
AcDbEntity
  8
0
  6
Continuous
 62
     7
100
AcDbCircle
 10
50.7753449999999
 20
126.2699869999999
 30
0.0
 40
0.1
100
AcDbArc
 50
66.74265900000086
 51
136.7426590000009
  0
LINE
  5
4C23
330
A
100
AcDbEntity
  8
0
  6
Continuous
 62
     7
100
AcDbLine
 10
50.70251699999983
 20
126.3385149999998
 30
0.0
 11
50.67724999999985
 21
126.3116629999999
 31
0.0
  0
ARC
  5
4C24
330
A
100
AcDbEntity
  8
0
  6
Continuous
 62
     7
100
AcDbCircle
 10
50.00000000000011
 20
129.9999999999999
 30
0.0
 40
3.75
100
AcDbArc
 50
263.080603000003
 51
280.4047149999988
  0
LINE
  5
4C25
330
A
100
AcDbEntity
  8
0
  6
Continuous
 62
     7
100
AcDbLine
 10
49.54822699999965
 20
126.2773129999999
 30
0.0
 11
49.52137399999969
 21
126.3025789999998
 31
0.0
  0
ARC
  5
4C26
330
A
100
AcDbEntity
  8
0
  6
Continuous
 62
     7
100
AcDbCircle
 10
49.45284700000013
 20
126.2297509999998
 30
0.0
 40
0.1
100
AcDbArc
 50
46.74265899999861
 51
116.7426589999977
  0
LINE
  5
4C27
330
A
100
AcDbEntity
  8
0
  6
Continuous
 62
     7
100
AcDbLine
 10
49.40784799999994
 20
126.3190549999999
 30
0.0
 11
49.37492100000008
 21
126.3024629999998
 31
0.0
  0
ARC
  5
4C28
330
A
100
AcDbEntity
  8
0
  6
Continuous
 62
     7
100
AcDbCircle
 10
50.00000000000011
 20
129.9999999999999
 30
0.0
 40
3.75
100
AcDbArc
 50
243.0806030000013
 51
260.4047150000007
  0
LINE
  5
4C29
330
A
100
AcDbEntity
  8
0
  6
Continuous
 62
     7
100
AcDbLine
 10
48.30223799999998
 20
126.6563339999998
 30
0.0
 11
48.28564700000004
 21
126.6892609999999
 31
0.0
  0
ARC
  5
4C2A
330
A
100
AcDbEntity
  8
0
  6
Continuous
 62
     7
100
AcDbCircle
 10
48.19634299999984
 20
126.6442619999999
 30
0.0
 40
0.1
100
AcDbArc
 50
26.74265900000059
 51
96.74265900000047
  0
LINE
  5
4C2B
330
A
100
AcDbEntity
  8
0
  6
Continuous
 62
     7
100
AcDbLine
 10
48.18460199999993
 20
126.7435709999998
 30
0.0
 11
48.14798599999983
 21
126.7392419999999
 31
0.0
  0
ARC
  5
4C2C
330
A
100
AcDbEntity
  8
0
  6
Continuous
 62
     7
100
AcDbCircle
 10
50.00000000000011
 20
129.9999999999999
 30
0.0
 40
3.75
100
AcDbArc
 50
223.0806029999993
 51
240.4047149999978
  0
LINE
  5
4C2D
330
A
100
AcDbEntity
  8
0
  6
Continuous
 62
     7
100
AcDbLine
 10
47.26102400000025
 20
127.4386499999998
 30
0.0
 11
47.25669499999992
 21
127.4752659999999
 31
0.0
  0
ARC
  5
4C2E
330
A
100
AcDbEntity
  8
0
  6
Continuous
 62
     7
100
AcDbCircle
 10
47.15738699999985
 20
127.4635249999999
 30
0.0
 40
0.1
100
AcDbArc
 50
6.742659000000667
 51
76.7426590000015
  0
LINE
  5
4C2F
330
A
100
AcDbEntity
  8
0
  6
Continuous
 62
     7
100
AcDbLine
 10
47.18031899999994
 20
127.5608599999999
 30
0.0
 11
47.14443100000005
 21
127.5693149999999
 31
0.0
  0
ARC
  5
4C30
330
A
100
AcDbEntity
  8
0
  6
Continuous
 62
     7
100
AcDbCircle
 10
50.00000000000011
 20
129.9999999999999
 30
0.0
 40
3.75
100
AcDbArc
 50
203.0806029999999
 51
220.4047150000005
  0
LINE
  5
4C31
330
A
100
AcDbEntity
  8
0
  6
Continuous
 62
     7
100
AcDbLine
 10
46.55017199999997
 20
128.5299039999999
 30
0.0
 11
46.55862699999966
 21
128.5657919999998
 31
0.0
  0
ARC
  5
4C32
330
A
100
AcDbEntity
  8
0
  6
Continuous
 62
     7
100
AcDbCircle
 10
46.46129199999984
 20
128.5887239999999
 30
0.0
 40
0.1
100
AcDbArc
 50
346.7426590000003
 51
56.74265899999845
  0
LINE
  5
4C33
330
A
100
AcDbEntity
  8
0
  6
Continuous
 62
     7
100
AcDbLine
 10
46.51613200000008
 20
128.6723459999999
 30
0.0
 11
46.48529999999993
 21
128.6925659999999
 31
0.0
  0
ARC
  5
4C34
330
A
100
AcDbEntity
  8
0
  6
Continuous
 62
     7
100
AcDbCircle
 10
50.00000000000011
 20
129.9999999999999
 30
0.0
 40
3.75
100
AcDbArc
 50
183.0806029999998
 51
200.4047149999995
  0
LINE
  5
4C35
330
A
100
AcDbEntity
  8
0
  6
Continuous
 62
     7
100
AcDbLine
 10
46.25541899999984
 20
129.7984719999999
 30
0.0
 11
46.27563900000029
 21
129.8293039999999
 31
0.0
  0
ARC
  5
4C36
330
A
100
AcDbEntity
  8
0
  6
Continuous
 62
     7
100
AcDbCircle
 10
46.19201699999996
 20
129.8841439999999
 30
0.0
 40
0.1
100
AcDbArc
 50
326.7426589999989
 51
36.74265899999814
  0
LINE
  5
4C37
330
A
100
AcDbEntity
  8
0
  6
Continuous
 62
     7
100
AcDbLine
 10
46.27215000000001
 20
129.9439659999999
 30
0.0
 11
46.25009399999965
 21
129.9735119999999
 31
0.0
  0
ARC
  5
4C38
330
A
100
AcDbEntity
  8
0
  6
Continuous
 62
     7
100
AcDbCircle
 10
50.00000000000011
 20
129.9999999999999
 30
0.0
 40
3.75
100
AcDbArc
 50
163.0806030000002
 51
180.4047149999997
  0
LINE
  5
4C39
330
A
100
AcDbEntity
  8
0
  6
Continuous
 62
     7
100
AcDbLine
 10
46.4123179999998
 20
131.0913479999998
 30
0.0
 11
46.44186400000012
 21
131.1134049999999
 31
0.0
  0
ARC
  5
4C3A
330
A
100
AcDbEntity
  8
0
  6
Continuous
 62
     7
100
AcDbCircle
 10
46.38204199999996
 20
131.1935379999999
 30
0.0
 40
0.1
100
AcDbArc
 50
306.7426589999991
 51
16.74265899999983
  0
LINE
  5
4C3B
330
A
100
AcDbEntity
  8
0
  6
Continuous
 62
     7
100
AcDbLine
 10
46.47780199999988
 20
131.2223449999999
 30
0.0
 11
46.46718099999964
 21
131.2576529999999
 31
0.0
  0
ARC
  5
4C3C
330
A
100
AcDbEntity
  8
0
  6
Continuous
 62
     7
100
AcDbCircle
 10
50.00000000000011
 20
129.9999999999999
 30
0.0
 40
3.75
100
AcDbArc
 50
143.0806029999987
 51
160.4047149999994
  0
LINE
  5
4C3D
330
A
100
AcDbEntity
  8
0
  6
Continuous
 62
     7
100
AcDbLine
 10
47.00194499999963
 20
132.2525909999999
 30
0.0
 11
47.03725299999985
 21
132.2632119999999
 31
0.0
  0
ARC
  5
4C3E
330
A
100
AcDbEntity
  8
0
  6
Continuous
 62
     7
100
AcDbCircle
 10
47.00844499999982
 20
132.3589729999999
 30
0.0
 40
0.1
100
AcDbArc
 50
286.7426589999994
 51
356.7426589999997
  0
LINE
  5
4C3F
330
A
100
AcDbEntity
  8
0
  6
Continuous
 62
     7
100
AcDbLine
 10
47.10828399999991
 20
132.3532909999999
 30
0.0
 11
47.11037899999962
 21
132.3901019999999
 31
0.0
  0
ARC
  5
4C40
330
A
100
AcDbEntity
  8
0
  6
Continuous
 62
     7
100
AcDbCircle
 10
50.00000000000011
 20
129.9999999999999
 30
0.0
 40
3.75
100
AcDbArc
 50
123.0806029999996
 51
140.4047150000009
  0
LINE
  5
4C41
330
A
100
AcDbEntity
  8
0
  6
Continuous
 62
     7
100
AcDbLine
 10
47.95318099999997
 20
133.1421379999998
 30
0.0
 11
47.98999199999991
 21
133.1400429999999
 31
0.0
  0
ARC
  5
4C42
330
A
100
AcDbEntity
  8
0
  6
Continuous
 62
     7
100
AcDbCircle
 10
47.99567400000012
 20
133.2398819999998
 30
0.0
 40
0.1
100
AcDbArc
 50
266.7426589999998
 51
336.7426590000006
  0
LINE
  5
4C43
330
A
100
AcDbEntity
  8
0
  6
Continuous
 62
     7
100
AcDbLine
 10
48.08754800000008
 20
133.2003959999999
 30
0.0
 11
48.1021069999997
 21
133.2342699999999
 31
0.0
  0
ARC
  5
4C44
330
A
100
AcDbEntity
  8
0
  6
Continuous
 62
     7
100
AcDbCircle
 10
50.00000000000011
 20
129.9999999999999
 30
0.0
 40
3.75
100
AcDbArc
 50
103.080603000002
 51
120.4047150000027
  0
LINE
  5
4C45
330
A
100
AcDbEntity
  8
0
  6
Continuous
 62
     7
100
AcDbLine
 10
49.15129399999978
 20
133.6526969999999
 30
0.0
 11
49.18516899999985
 21
133.6381389999999
 31
0.0
  0
ARC
  5
4C46
330
A
100
AcDbEntity
  8
0
  6
Continuous
 62
     7
100
AcDbCircle
 10
49.22465499999998
 20
133.7300129999998
 30
0.0
 40
0.1
100
AcDbArc
 50
246.7426590000008
 51
316.742659000001
  0
LINE
  5
4C47
330
A
100
AcDbEntity
  8
0
  6
Continuous
 62
     7
100
AcDbLine
 10
49.29748299999994
 20
133.6614849999999
 30
0.0
 11
49.32274999999981
 21
133.6883369999998
 31
0.0
  0
ARC
  5
4C48
330
A
100
AcDbEntity
  8
0
  6
Continuous
 62
     7
100
AcDbCircle
 10
50.00000000000011
 20
129.9999999999999
 30
0.0
 40
3.75
100
AcDbArc
 50
83.08060300000295
 51
100.4047149999987
  0
LINE
  5
4C49
330
A
100
AcDbEntity
  8
0
  6
Continuous
 62
     7
100
AcDbLine
 10
50.45177300000012
 20
133.7226869999999
 30
0.0
 11
50.47862599999996
 21
133.6974209999999
 31
0.0
  0
ARC
  5
4C4A
330
A
100
AcDbEntity
  8
0
  6
Continuous
 62
     7
100
AcDbCircle
 10
50.54715299999964
 20
133.7702489999999
 30
0.0
 40
0.1
100
AcDbArc
 50
226.7426589999986
 51
296.7426589999977
  0
LINE
  5
4C4B
330
A
100
AcDbEntity
  8
0
  6
Continuous
 62
     7
100
AcDbLine
 10
50.59215199999994
 20
133.6809449999999
 30
0.0
 11
50.62507899999991
 21
133.6975369999999
 31
0.0
  0
ARC
  5
4C4C
330
A
100
AcDbEntity
  8
0
  6
Continuous
 62
     7
100
AcDbCircle
 10
50.00000000000011
 20
129.9999999999999
 30
0.0
 40
3.75
100
AcDbArc
 50
63.08060300000135
 51
80.40471500000075
  0
LINE
  5
4C4D
330
A
100
AcDbEntity
  8
0
  6
Continuous
 62
     7
100
AcDbLine
 10
51.69776199999967
 20
133.3436659999999
 30
0.0
 11
51.71435299999984
 21
133.3107389999999
 31
0.0
  0
LINE
  5
4C4E
330
A
100
AcDbEntity
  8
0
  6
Continuous
 62
     7
100
AcDbLine
 10
49.32274999999981
 20
133.6883369999998
 30
0.0
 11
49.61644199999966
 21
134.0004619999999
 31
0.0
  0
LINE
  5
4C4F
330
A
100
AcDbEntity
  8
0
  6
Continuous
 62
     7
100
AcDbLine
 10
50.1611519999999
 20
133.9961469999999
 30
0.0
 11
50.45177300000012
 21
133.7226869999999
 31
0.0
  0
LINE
  5
4C50
330
A
100
AcDbEntity
  8
0
  6
Continuous
 62
     7
100
AcDbLine
 10
50.62507899999991
 20
133.6975369999999
 30
0.0
 11
51.11574800000005
 21
133.9447749999999
 31
0.0
  0
LINE
  5
4C51
330
A
100
AcDbEntity
  8
0
  6
Continuous
 62
     7
100
AcDbLine
 10
51.45011800000009
 20
133.8351399999998
 30
0.0
 11
51.69776199999967
 21
133.3436659999999
 31
0.0
  0
LINE
  5
4C52
330
A
100
AcDbEntity
  8
0
  6
Continuous
 62
     7
100
AcDbLine
 10
48.1021069999997
 20
133.2342699999999
 30
0.0
 11
48.31948299999965
 21
133.7400479999999
 31
0.0
  0
LINE
  5
4C53
330
A
100
AcDbEntity
  8
0
  6
Continuous
 62
     7
100
AcDbLine
 10
48.64689200000009
 20
133.8694819999999
 30
0.0
 11
49.15129399999978
 21
133.6526969999999
 31
0.0
  0
LINE
  5
4C54
330
A
100
AcDbEntity
  8
0
  6
Continuous
 62
     7
100
AcDbLine
 10
51.85201400000005
 20
133.2607579999999
 30
0.0
 11
52.39871799999992
 21
133.3253939999999
 31
0.0
  0
LINE
  5
4C55
330
A
100
AcDbEntity
  8
0
  6
Continuous
 62
     7
100
AcDbLine
 10
52.67451599999993
 20
133.1065669999998
 30
0.0
 11
52.73897600000009
 21
132.5613499999999
 31
0.0
  0
LINE
  5
4C56
330
A
100
AcDbEntity
  8
0
  6
Continuous
 62
     7
100
AcDbLine
 10
47.11037899999962
 20
132.3901019999999
 30
0.0
 11
47.14159800000004
 21
132.9386529999998
 31
0.0
  0
LINE
  5
4C57
330
A
100
AcDbEntity
  8
0
  6
Continuous
 62
     7
100
AcDbLine
 10
47.40372999999999
 20
133.1734089999998
 30
0.0
 11
47.95318099999997
 21
133.1421379999998
 31
0.0
  0
LINE
  5
4C58
330
A
100
AcDbEntity
  8
0
  6
Continuous
 62
     7
100
AcDbLine
 10
53.57584499999962
 20
132.0049619999999
 30
0.0
 11
53.44982799999991
 21
131.4700959999999
 31
0.0
  0
LINE
  5
4C59
330
A
100
AcDbEntity
  8
0
  6
Continuous
 62
     7
100
AcDbLine
 10
52.85556899999995
 20
132.4306849999999
 30
0.0
 11
53.38997499999982
 21
132.3047759999999
 31
0.0
  0
LINE
  5
4C5A
330
A
100
AcDbEntity
  8
0
  6
Continuous
 62
     7
100
AcDbLine
 10
46.46718099999964
 20
131.2576529999999
 30
0.0
 11
46.30897200000004
 21
131.7835679999999
 31
0.0
  0
LINE
  5
4C5B
330
A
100
AcDbEntity
  8
0
  6
Continuous
 62
     7
100
AcDbLine
 10
46.47557799999993
 20
132.0942459999999
 30
0.0
 11
47.00194499999963
 21
132.2525909999999
 31
0.0
  0
LINE
  5
4C5C
330
A
100
AcDbEntity
  8
0
  6
Continuous
 62
     7
100
AcDbLine
 10
54.04638800000009
 20
130.6617309999999
 30
0.0
 11
53.74458100000004
 21
130.2015279999999
 31
0.0
  0
LINE
  5
4C5D
330
A
100
AcDbEntity
  8
0
  6
Continuous
 62
     7
100
AcDbLine
 10
53.51469999999983
 20
131.3074339999999
 30
0.0
 11
53.97414900000001
 21
131.0061219999999
 31
0.0
  0
LINE
  5
4C5E
330
A
100
AcDbEntity
  8
0
  6
Continuous
 62
     7
100
AcDbLine
 10
46.25009399999965
 20
129.9735119999999
 30
0.0
 11
45.92076499999996
 21
130.4146539999998
 31
0.0
  0
LINE
  5
4C5F
330
A
100
AcDbEntity
  8
0
  6
Continuous
 62
     7
100
AcDbLine
 10
45.97237599999994
 20
130.7629149999997
 30
0.0
 11
46.4123179999998
 21
131.0913479999998
 31
0.0
  0
LINE
  5
4C60
330
A
100
AcDbEntity
  8
0
  6
Continuous
 62
     7
100
AcDbLine
 10
54.02762399999994
 20
129.2370849999999
 30
0.0
 11
53.58768199999963
 21
128.9086519999999
 31
0.0
  0
LINE
  5
4C61
330
A
100
AcDbEntity
  8
0
  6
Continuous
 62
     7
100
AcDbLine
 10
53.74990600000012
 20
130.0264879999998
 30
0.0
 11
54.07923499999981
 21
129.5853459999999
 31
0.0
  0
LINE
  5
4C62
330
A
100
AcDbEntity
  8
0
  6
Continuous
 62
     7
100
AcDbLine
 10
46.48529999999993
 20
128.6925659999999
 30
0.0
 11
46.02585099999998
 21
128.9938779999999
 31
0.0
  0
LINE
  5
4C63
330
A
100
AcDbEntity
  8
0
  6
Continuous
 62
     7
100
AcDbLine
 10
45.95361199999991
 20
129.3382689999998
 30
0.0
 11
46.25541899999984
 21
129.7984719999999
 31
0.0
  0
LINE
  5
4C64
330
A
100
AcDbEntity
  8
0
  6
Continuous
 62
     7
100
AcDbLine
 10
53.52427100000011
 20
127.9057079999999
 30
0.0
 11
52.99805500000002
 21
127.7474089999999
 31
0.0
  0
LINE
  5
4C65
330
A
100
AcDbEntity
  8
0
  6
Continuous
 62
     7
100
AcDbLine
 10
53.53281899999967
 20
128.7423469999999
 30
0.0
 11
53.69098200000007
 21
128.2165839999999
 31
0.0
  0
LINE
  5
4C66
330
A
100
AcDbEntity
  8
0
  6
Continuous
 62
     7
100
AcDbLine
 10
47.14443100000005
 20
127.5693149999999
 30
0.0
 11
46.61002499999983
 21
127.6952239999999
 31
0.0
  0
LINE
  5
4C67
330
A
100
AcDbEntity
  8
0
  6
Continuous
 62
     7
100
AcDbLine
 10
46.42415500000015
 20
127.9950379999998
 30
0.0
 11
46.55017199999997
 21
128.5299039999999
 31
0.0
  0
LINE
  5
4C68
330
A
100
AcDbEntity
  8
0
  6
Continuous
 62
     7
100
AcDbLine
 10
52.88962100000003
 20
127.6098979999998
 30
0.0
 11
52.85840199999984
 21
127.0613469999999
 31
0.0
  0
LINE
  5
4C69
330
A
100
AcDbEntity
  8
0
  6
Continuous
 62
     7
100
AcDbLine
 10
52.59626999999989
 20
126.8265909999999
 30
0.0
 11
52.04681899999991
 21
126.8578619999999
 31
0.0
  0
LINE
  5
4C6A
330
A
100
AcDbEntity
  8
0
  6
Continuous
 62
     7
100
AcDbLine
 10
48.14798599999983
 20
126.7392419999999
 30
0.0
 11
47.60128199999996
 21
126.6746059999998
 31
0.0
  0
LINE
  5
4C6B
330
A
100
AcDbEntity
  8
0
  6
Continuous
 62
     7
100
AcDbLine
 10
47.32548399999996
 20
126.8934329999999
 30
0.0
 11
47.26102400000025
 21
127.4386499999998
 31
0.0
  0
LINE
  5
4C6C
330
A
100
AcDbEntity
  8
0
  6
Continuous
 62
     7
100
AcDbLine
 10
51.89789299999995
 20
126.7657299999998
 30
0.0
 11
51.68051699999967
 21
126.2599519999999
 31
0.0
  0
LINE
  5
4C6D
330
A
100
AcDbEntity
  8
0
  6
Continuous
 62
     7
100
AcDbLine
 10
51.35310799999979
 20
126.1305179999999
 30
0.0
 11
50.84870600000011
 21
126.3473029999998
 31
0.0
  0
LINE
  5
4C6E
330
A
100
AcDbEntity
  8
0
  6
Continuous
 62
     7
100
AcDbLine
 10
49.37492100000008
 20
126.3024629999998
 30
0.0
 11
48.88425199999983
 21
126.0552249999999
 31
0.0
  0
LINE
  5
4C6F
330
A
100
AcDbEntity
  8
0
  6
Continuous
 62
     7
100
AcDbLine
 10
48.54988200000014
 20
126.1648599999999
 30
0.0
 11
48.30223799999998
 21
126.6563339999998
 31
0.0
  0
LINE
  5
4C70
330
A
100
AcDbEntity
  8
0
  6
Continuous
 62
     7
100
AcDbLine
 10
50.67724999999985
 20
126.3116629999999
 30
0.0
 11
50.38355799999965
 21
125.9995379999998
 31
0.0
  0
LINE
  5
4C71
330
A
100
AcDbEntity
  8
0
  6
Continuous
 62
     7
100
AcDbLine
 10
49.83884799999998
 20
126.0038529999998
 30
0.0
 11
49.54822699999965
 21
126.2773129999999
 31
0.0
  0
ARC
  5
4C72
330
A
100
AcDbEntity
  8
0
  6
Continuous
 62
     7
100
AcDbCircle
 10
50.00000000000011
 20
129.9999999999999
 30
0.0
 40
4.0
100
AcDbArc
 50
55.78463700000084
 51
67.70068100000242
  0
ARC
  5
4C73
330
A
100
AcDbEntity
  8
0
  6
Continuous
 62
     7
100
AcDbCircle
 10
50.00000000000011
 20
129.9999999999999
 30
0.0
 40
4.0
100
AcDbArc
 50
75.78463700000283
 51
87.70068100000157
  0
ARC
  5
4C74
330
A
100
AcDbEntity
  8
0
  6
Continuous
 62
     7
100
AcDbCircle
 10
50.00000000000011
 20
129.9999999999999
 30
0.0
 40
4.0
100
AcDbArc
 50
95.78463700000082
 51
107.7006810000029
  0
ARC
  5
4C75
330
A
100
AcDbEntity
  8
0
  6
Continuous
 62
     7
100
AcDbCircle
 10
50.00000000000011
 20
129.9999999999999
 30
0.0
 40
4.0
100
AcDbArc
 50
115.7846370000003
 51
127.7006810000021
  0
ARC
  5
4C76
330
A
100
AcDbEntity
  8
0
  6
Continuous
 62
     7
100
AcDbCircle
 10
50.00000000000011
 20
129.9999999999999
 30
0.0
 40
4.0
100
AcDbArc
 50
135.7846369999995
 51
147.7006809999993
  0
ARC
  5
4C77
330
A
100
AcDbEntity
  8
0
  6
Continuous
 62
     7
100
AcDbCircle
 10
50.00000000000011
 20
129.9999999999999
 30
0.0
 40
4.0
100
AcDbArc
 50
155.7846370000007
 51
167.7006809999999
  0
ARC
  5
4C78
330
A
100
AcDbEntity
  8
0
  6
Continuous
 62
     7
100
AcDbCircle
 10
50.00000000000011
 20
129.9999999999999
 30
0.0
 40
4.0
100
AcDbArc
 50
175.7846369999999
 51
187.7006809999995
  0
ARC
  5
4C79
330
A
100
AcDbEntity
  8
0
  6
Continuous
 62
     7
100
AcDbCircle
 10
50.00000000000011
 20
129.9999999999999
 30
0.0
 40
4.0
100
AcDbArc
 50
195.7846369999985
 51
207.7006810000003
  0
ARC
  5
4C7A
330
A
100
AcDbEntity
  8
0
  6
Continuous
 62
     7
100
AcDbCircle
 10
50.00000000000011
 20
129.9999999999999
 30
0.0
 40
4.0
100
AcDbArc
 50
215.7846369999997
 51
227.7006809999993
  0
ARC
  5
4C7B
330
A
100
AcDbEntity
  8
0
  6
Continuous
 62
     7
100
AcDbCircle
 10
50.00000000000011
 20
129.9999999999999
 30
0.0
 40
4.0
100
AcDbArc
 50
235.7846370000009
 51
247.7006810000024
  0
ARC
  5
4C7C
330
A
100
AcDbEntity
  8
0
  6
Continuous
 62
     7
100
AcDbCircle
 10
50.00000000000011
 20
129.9999999999999
 30
0.0
 40
4.0
100
AcDbArc
 50
255.7846370000028
 51
267.7006810000015
  0
ARC
  5
4C7D
330
A
100
AcDbEntity
  8
0
  6
Continuous
 62
     7
100
AcDbCircle
 10
50.00000000000011
 20
129.9999999999999
 30
0.0
 40
4.0
100
AcDbArc
 50
275.7846370000008
 51
287.7006810000029
  0
ARC
  5
4C7E
330
A
100
AcDbEntity
  8
0
  6
Continuous
 62
     7
100
AcDbCircle
 10
50.00000000000011
 20
129.9999999999999
 30
0.0
 40
4.0
100
AcDbArc
 50
295.7846370000003
 51
307.7006810000022
  0
ARC
  5
4C7F
330
A
100
AcDbEntity
  8
0
  6
Continuous
 62
     7
100
AcDbCircle
 10
50.00000000000011
 20
129.9999999999999
 30
0.0
 40
4.0
100
AcDbArc
 50
315.7846369999995
 51
327.7006809999993
  0
ARC
  5
4C80
330
A
100
AcDbEntity
  8
0
  6
Continuous
 62
     7
100
AcDbCircle
 10
50.00000000000011
 20
129.9999999999999
 30
0.0
 40
4.0
100
AcDbArc
 50
335.7846370000006
 51
347.7006809999999
  0
ARC
  5
4C81
330
A
100
AcDbEntity
  8
0
  6
Continuous
 62
     7
100
AcDbCircle
 10
50.00000000000011
 20
129.9999999999999
 30
0.0
 40
4.0
100
AcDbArc
 50
355.7846369999999
 51
7.700680999999513
  0
ARC
  5
4C82
330
A
100
AcDbEntity
  8
0
  6
Continuous
 62
     7
100
AcDbCircle
 10
50.00000000000011
 20
129.9999999999999
 30
0.0
 40
4.0
100
AcDbArc
 50
15.78463699999852
 51
27.70068100000029
  0
ARC
  5
4C83
330
A
100
AcDbEntity
  8
0
  6
Continuous
 62
     7
100
AcDbCircle
 10
50.00000000000011
 20
129.9999999999999
 30
0.0
 40
4.0
100
AcDbArc
 50
35.78463699999974
 51
47.70068099999935
  0
LINE
  5
4C84
330
A
100
AcDbEntity
  8
0
  6
Continuous
 62
     7
100
AcDbLine
 10
8.649999999999977
 20
125.9999999999999
 30
0.0
 11
8.649999999999977
 21
133.9999999999999
 31
0.0
  0
LINE
  5
4C85
330
A
100
AcDbEntity
  8
0
  6
Continuous
 62
     9
100
AcDbLine
 10
1.649999999999977
 20
125.9999999999999
 30
0.0
 11
1.649999999999977
 21
133.9999999999999
 31
0.0
  0
LINE
  5
4C86
330
A
100
AcDbEntity
  8
0
  6
Continuous
 62
     7
100
AcDbLine
 10
-5.350000000000363
 20
125.9999999999999
 30
0.0
 11
-5.350000000000363
 21
133.9999999999999
 31
0.0
  0
ARC
  5
4C87
330
A
100
AcDbEntity
  8
0
  6
Continuous
 62
     9
100
AcDbCircle
 10
59.00000000000011
 20
138.4999999999999
 30
0.0
 40
3.0
100
AcDbArc
 50
0.0
 51
90.0
  0
LINE
  5
4C88
330
A
100
AcDbEntity
  8
0
  6
Continuous
 62
     9
100
AcDbLine
 10
59.00000000000011
 20
141.4999999999999
 30
0.0
 11
59.00000000000011
 21
142.4999999999999
 31
0.0
  0
ARC
  5
4C89
330
A
100
AcDbEntity
  8
0
  6
Continuous
 62
     7
100
AcDbCircle
 10
59.00000000000011
 20
138.4999999999999
 30
0.0
 40
4.0
100
AcDbArc
 50
0.0
 51
90.0
  0
LINE
  5
4C8A
330
A
100
AcDbEntity
  8
0
  6
Continuous
 62
     9
100
AcDbLine
 10
62.0
 20
138.4999999999999
 30
0.0
 11
63.0
 21
138.4999999999999
 31
0.0
  0
LINE
  5
4C8B
330
A
100
AcDbEntity
  8
0
  6
Continuous
 62
     9
100
AcDbLine
 10
59.00000000000011
 20
141.4999999999999
 30
0.0
 11
-12.49999999999988
 21
141.4999999999999
 31
0.0
  0
LINE
  5
4C8C
330
A
100
AcDbEntity
  8
0
  6
Continuous
 62
     9
100
AcDbLine
 10
-12.49999999999988
 20
141.4999999999999
 30
0.0
 11
-12.49999999999988
 21
142.4999999999999
 31
0.0
  0
LINE
  5
4C8D
330
A
100
AcDbEntity
  8
0
  6
Continuous
 62
     7
100
AcDbLine
 10
-12.49999999999988
 20
142.4999999999999
 30
0.0
 11
59.00000000000011
 21
142.4999999999999
 31
0.0
  0
LINE
  5
4C8E
330
A
100
AcDbEntity
  8
0
  6
Continuous
 62
     9
100
AcDbLine
 10
-12.49999999999988
 20
141.4999999999999
 30
0.0
 11
-16.99999999999988
 21
141.4999999999999
 31
0.0
  0
ARC
  5
4C8F
330
A
100
AcDbEntity
  8
0
  6
Continuous
 62
     7
100
AcDbCircle
 10
-15.99999999999988
 20
141.4999999999999
 30
0.0
 40
1.0
100
AcDbArc
 50
90.0
 51
180.0
  0
LINE
  5
4C90
330
A
100
AcDbEntity
  8
0
  6
Continuous
 62
     7
100
AcDbLine
 10
-15.99999999999988
 20
142.4999999999999
 30
0.0
 11
-12.49999999999988
 21
142.4999999999999
 31
0.0
  0
LINE
  5
4C91
330
A
100
AcDbEntity
  8
0
  6
Continuous
 62
     9
100
AcDbLine
 10
-12.49999999999988
 20
141.4999999999999
 30
0.0
 11
-12.49999999999988
 21
135.4999999999999
 31
0.0
  0
LINE
  5
4C92
330
A
100
AcDbEntity
  8
0
  6
Continuous
 62
     9
100
AcDbLine
 10
62.0
 20
135.4999999999999
 30
0.0
 11
62.0
 21
138.4999999999999
 31
0.0
  0
LINE
  5
4C93
330
A
100
AcDbEntity
  8
0
  6
Continuous
 62
     7
100
AcDbLine
 10
-12.49999999999988
 20
135.4999999999999
 30
0.0
 11
62.0
 21
135.4999999999999
 31
0.0
  0
LINE
  5
4C94
330
A
100
AcDbEntity
  8
0
  6
Continuous
 62
     7
100
AcDbLine
 10
-12.49999999999988
 20
135.4999999999999
 30
0.0
 11
-16.99999999999988
 21
135.4999999999999
 31
0.0
  0
LINE
  5
4C95
330
A
100
AcDbEntity
  8
0
  6
Continuous
 62
     7
100
AcDbLine
 10
-16.99999999999988
 20
135.4999999999999
 30
0.0
 11
-16.99999999999988
 21
141.4999999999999
 31
0.0
  0
LINE
  5
4C96
330
A
100
AcDbEntity
  8
0
  6
Continuous
 62
     7
100
AcDbLine
 10
63.0
 20
138.4999999999999
 30
0.0
 11
63.0
 21
135.4999999999999
 31
0.0
  0
LINE
  5
4C97
330
A
100
AcDbEntity
  8
0
  6
Continuous
 62
     7
100
AcDbLine
 10
63.0
 20
135.4999999999999
 30
0.0
 11
62.0
 21
135.4999999999999
 31
0.0
  0
LINE
  5
4C98
330
A
100
AcDbEntity
  8
0
  6
Continuous
 62
     7
100
AcDbLine
 10
60.49999999999966
 20
124.9999999999999
 30
0.0
 11
63.0
 21
124.9999999999999
 31
0.0
  0
ARC
  5
4C99
330
A
100
AcDbEntity
  8
0
  6
Continuous
 62
     7
100
AcDbCircle
 10
50.00000000000011
 20
129.9999999999999
 30
0.0
 40
4.099999999999996
100
AcDbArc
 50
102.680381
 51
257.3196139999994
  0
ARC
  5
4C9A
330
A
100
AcDbEntity
  8
0
  6
Continuous
 62
     7
100
AcDbCircle
 10
50.00000000000011
 20
129.9999999999999
 30
0.0
 40
4.099999999999996
100
AcDbArc
 50
282.6803860000006
 51
77.31961899999998
  0
LINE
  5
4C9B
330
A
100
AcDbEntity
  8
0
  6
Continuous
 62
     7
100
AcDbLine
 10
8.799999999999954
 20
133.9999999999999
 30
0.0
 11
8.799999999999954
 21
125.9999999999999
 31
0.0
  0
LINE
  5
4C9C
330
A
100
AcDbEntity
  8
0
  6
Continuous
 62
     7
100
AcDbLine
 10
63.0
 20
124.9999999999999
 30
0.0
 11
63.0
 21
135.4999999999999
 31
0.0
  0
ARC
  5
4C9D
330
A
100
AcDbEntity
  8
0
  6
Continuous
 62
     7
100
AcDbCircle
 10
50.00000000000011
 20
129.9999999999999
 30
0.0
 40
4.009999999999998
100
AcDbArc
 50
95.62991600000065
 51
107.8609909999972
  0
ARC
  5
4C9E
330
A
100
AcDbEntity
  8
0
  6
Continuous
 62
     7
100
AcDbCircle
 10
50.00000000000011
 20
129.9999999999999
 30
0.0
 40
4.009999999999998
100
AcDbArc
 50
115.642563999999
 51
127.8436259999996
  0
ARC
  5
4C9F
330
A
100
AcDbEntity
  8
0
  6
Continuous
 62
     7
100
AcDbCircle
 10
50.00000000000011
 20
129.9999999999999
 30
0.0
 40
4.009999999999998
100
AcDbArc
 50
135.6354529999985
 51
147.8469079999992
  0
ARC
  5
4CA0
330
A
100
AcDbEntity
  8
0
  6
Continuous
 62
     7
100
AcDbCircle
 10
50.00000000000011
 20
129.9999999999999
 30
0.0
 40
4.009999999999998
100
AcDbArc
 50
155.6299159999993
 51
167.8609909999993
  0
ARC
  5
4CA1
330
A
100
AcDbEntity
  8
0
  6
Continuous
 62
     7
100
AcDbCircle
 10
50.00000000000011
 20
129.9999999999999
 30
0.0
 40
4.009999999999998
100
AcDbArc
 50
176.1466059999998
 51
187.8436260000002
  0
ARC
  5
4CA2
330
A
100
AcDbEntity
  8
0
  6
Continuous
 62
     7
100
AcDbCircle
 10
50.00000000000011
 20
129.9999999999999
 30
0.0
 40
4.009999999999998
100
AcDbArc
 50
195.635453000001
 51
207.8469079999998
  0
ARC
  5
4CA3
330
A
100
AcDbEntity
  8
0
  6
Continuous
 62
     7
100
AcDbCircle
 10
50.00000000000011
 20
129.9999999999999
 30
0.0
 40
4.009999999999998
100
AcDbArc
 50
215.6299160000012
 51
227.8609909999998
  0
ARC
  5
4CA4
330
A
100
AcDbEntity
  8
0
  6
Continuous
 62
     7
100
AcDbCircle
 10
50.00000000000011
 20
129.9999999999999
 30
0.0
 40
4.009999999999998
100
AcDbArc
 50
235.642563999999
 51
247.843626000003
  0
ARC
  5
4CA5
330
A
100
AcDbEntity
  8
0
  6
Continuous
 62
     7
100
AcDbCircle
 10
50.00000000000011
 20
129.9999999999999
 30
0.0
 40
4.009999999999998
100
AcDbArc
 50
255.6354529999999
 51
266.1466059999982
  0
ARC
  5
4CA6
330
A
100
AcDbEntity
  8
0
  6
Continuous
 62
     7
100
AcDbCircle
 10
50.00000000000011
 20
129.9999999999999
 30
0.0
 40
4.009999999999998
100
AcDbArc
 50
275.6299160000007
 51
287.8609909999972
  0
ARC
  5
4CA7
330
A
100
AcDbEntity
  8
0
  6
Continuous
 62
     7
100
AcDbCircle
 10
50.00000000000011
 20
129.9999999999999
 30
0.0
 40
4.009999999999998
100
AcDbArc
 50
295.642563999999
 51
307.8436259999997
  0
ARC
  5
4CA8
330
A
100
AcDbEntity
  8
0
  6
Continuous
 62
     7
100
AcDbCircle
 10
50.00000000000011
 20
129.9999999999999
 30
0.0
 40
4.009999999999998
100
AcDbArc
 50
315.6354529999986
 51
327.8469079999993
  0
ARC
  5
4CA9
330
A
100
AcDbEntity
  8
0
  6
Continuous
 62
     7
100
AcDbCircle
 10
50.00000000000011
 20
129.9999999999999
 30
0.0
 40
4.009999999999998
100
AcDbArc
 50
335.6299159999993
 51
347.8609909999993
  0
ARC
  5
4CAA
330
A
100
AcDbEntity
  8
0
  6
Continuous
 62
     7
100
AcDbCircle
 10
50.00000000000011
 20
129.9999999999999
 30
0.0
 40
4.009999999999998
100
AcDbArc
 50
355.6425640000006
 51
7.843626000000236
  0
ARC
  5
4CAB
330
A
100
AcDbEntity
  8
0
  6
Continuous
 62
     7
100
AcDbCircle
 10
50.00000000000011
 20
129.9999999999999
 30
0.0
 40
4.009999999999998
100
AcDbArc
 50
15.63545300000105
 51
27.84690799999979
  0
ARC
  5
4CAC
330
A
100
AcDbEntity
  8
0
  6
Continuous
 62
     7
100
AcDbCircle
 10
50.00000000000011
 20
129.9999999999999
 30
0.0
 40
4.009999999999998
100
AcDbArc
 50
35.62991600000128
 51
47.86099099999979
  0
ARC
  5
4CAD
330
A
100
AcDbEntity
  8
0
  6
Continuous
 62
     7
100
AcDbCircle
 10
50.00000000000011
 20
129.9999999999999
 30
0.0
 40
4.009999999999998
100
AcDbArc
 50
55.64256399999905
 51
67.84362600000299
  0
ARC
  5
4CAE
330
A
100
AcDbEntity
  8
0
  6
Continuous
 62
     7
100
AcDbCircle
 10
50.00000000000011
 20
129.9999999999999
 30
0.0
 40
4.009999999999998
100
AcDbArc
 50
75.63545299999994
 51
85.95279899999804
  0
LINE
  5
4CAF
330
A
100
AcDbEntity
  8
0
  6
Continuous
 62
     7
100
AcDbLine
 10
-15.99999999999988
 20
135.4999999999999
 30
0.0
 11
-15.65000000000032
 21
135.4999999999999
 31
0.0
  0
ARC
  5
4CB0
330
A
100
AcDbEntity
  8
0
  6
Continuous
 62
     7
100
AcDbCircle
 10
52.00564499999984
 20
118.7791619999998
 30
0.0
 40
6.5
100
AcDbArc
 50
275.130423000001
 51
348.6504460000003
  0
ARC
  5
4CB1
330
A
100
AcDbEntity
  8
0
  6
Continuous
 62
     7
100
AcDbCircle
 10
52.408049
 20
114.2971899999999
 30
0.0
 40
2.0
100
AcDbArc
 50
251.9364990000006
 51
275.130423000001
  0
ARC
  5
4CB2
330
A
100
AcDbEntity
  8
0
  6
Continuous
 62
     7
100
AcDbCircle
 10
50.00500000000011
 20
106.9291609999998
 30
0.0
 40
5.75
100
AcDbArc
 50
71.93649900000059
 51
105.722807
  0
ARC
  5
4CB3
330
A
100
AcDbEntity
  8
0
  6
Continuous
 62
     7
100
AcDbCircle
 10
47.90487699999983
 20
114.3891869999999
 30
0.0
 40
2.0
100
AcDbArc
 50
250.1112599999992
 51
285.722807
  0
ARC
  5
4CB4
330
A
100
AcDbEntity
  8
0
  6
Continuous
 62
     7
100
AcDbCircle
 10
53.00779799999998
 20
128.4945119999999
 30
0.0
 40
17.0
100
AcDbArc
 50
220.2959590000005
 51
250.1112599999992
  0
ARC
  5
4CB5
330
A
100
AcDbEntity
  8
0
  6
Continuous
 62
     7
100
AcDbCircle
 10
53.00779799999998
 20
131.5054879999999
 30
0.0
 40
17.0
100
AcDbArc
 50
109.8887400000008
 51
139.704040000001
  0
ARC
  5
4CB6
330
A
100
AcDbEntity
  8
0
  6
Continuous
 62
     7
100
AcDbCircle
 10
47.90487699999983
 20
145.6108129999999
 30
0.0
 40
2.0
100
AcDbArc
 50
74.27719300000001
 51
109.8887400000008
  0
ARC
  5
4CB7
330
A
100
AcDbEntity
  8
0
  6
Continuous
 62
     7
100
AcDbCircle
 10
50.00500000000011
 20
153.070839
 30
0.0
 40
5.75
100
AcDbArc
 50
254.277193
 51
288.0635009999994
  0
ARC
  5
4CB8
330
A
100
AcDbEntity
  8
0
  6
Continuous
 62
     7
100
AcDbCircle
 10
52.408049
 20
145.7028089999999
 30
0.0
 40
2.0
100
AcDbArc
 50
84.86957699999903
 51
108.0635009999994
  0
ARC
  5
4CB9
330
A
100
AcDbEntity
  8
0
  6
Continuous
 62
     7
100
AcDbCircle
 10
52.00564499999984
 20
141.2208379999999
 30
0.0
 40
6.5
100
AcDbArc
 50
11.3495550000003
 51
84.86957699999903
  0
ARC
  5
4CBA
330
A
100
AcDbEntity
  8
0
  6
Continuous
 62
     7
100
AcDbCircle
 10
113.979829
 20
117.8999999999998
 30
0.0
 40
0.5
100
AcDbArc
 50
270.0
 51
306.8698949999996
  0
ARC
  5
4CBB
330
A
100
AcDbEntity
  8
0
  6
Continuous
 62
     7
100
AcDbCircle
 10
104.020171
 20
117.8999999999998
 30
0.0
 40
0.5
100
AcDbArc
 50
233.1301050000003
 51
270.0
  0
ARC
  5
4CBC
330
A
100
AcDbEntity
  8
0
  6
Continuous
 62
     7
100
AcDbCircle
 10
27.82982899999968
 20
117.8999999999998
 30
0.0
 40
0.5
100
AcDbArc
 50
270.0
 51
306.8698949999996
  0
ARC
  5
4CBD
330
A
100
AcDbEntity
  8
0
  6
Continuous
 62
     7
100
AcDbCircle
 10
17.87017100000014
 20
117.8999999999998
 30
0.0
 40
0.5
100
AcDbArc
 50
233.1301050000003
 51
270.0
  0
LINE
  5
4CBE
330
A
100
AcDbEntity
  8
0
  6
Continuous
 62
     9
100
AcDbLine
 10
-62.57500000000004
 20
77.49999999999989
 30
0.0
 11
-61.57500000000005
 21
77.49999999999989
 31
0.0
  0
LINE
  5
4CBF
330
A
100
AcDbEntity
  8
0
  6
Continuous
 62
     9
100
AcDbLine
 10
-61.57500000000005
 20
77.49999999999989
 30
0.0
 11
-61.07500000000005
 21
77.49999999999989
 31
0.0
  0
LINE
  5
4CC0
330
A
100
AcDbEntity
  8
0
  6
Continuous
 62
     7
100
AcDbLine
 10
-62.57500000000004
 20
83.49999999999988
 30
0.0
 11
-62.57500000000004
 21
77.49999999999989
 31
0.0
  0
LINE
  5
4CC1
330
A
100
AcDbEntity
  8
0
  6
Continuous
 62
     7
100
AcDbLine
 10
-62.57500000000004
 20
83.49999999999988
 30
0.0
 11
-61.57500000000005
 21
83.49999999999988
 31
0.0
  0
LINE
  5
4CC2
330
A
100
AcDbEntity
  8
0
  6
Continuous
 62
     7
100
AcDbLine
 10
-61.57500000000005
 20
83.49999999999988
 30
0.0
 11
-61.07500000000005
 21
83.49999999999988
 31
0.0
  0
LINE
  5
4CC3
330
A
100
AcDbEntity
  8
0
  6
Continuous
 62
     9
100
AcDbLine
 10
-62.57500000000004
 20
-7.500000000000113
 30
0.0
 11
-61.57500000000005
 21
-7.500000000000113
 31
0.0
  0
LINE
  5
4CC4
330
A
100
AcDbEntity
  8
0
  6
Continuous
 62
     9
100
AcDbLine
 10
-61.57500000000005
 20
-7.500000000000113
 30
0.0
 11
-61.07500000000005
 21
-7.500000000000113
 31
0.0
  0
LINE
  5
4CC5
330
A
100
AcDbEntity
  8
0
  6
Continuous
 62
     7
100
AcDbLine
 10
-62.57500000000004
 20
77.49999999999989
 30
0.0
 11
-62.57500000000004
 21
-7.500000000000113
 31
0.0
  0
LINE
  5
4CC6
330
A
100
AcDbEntity
  8
0
  6
Continuous
 62
     7
100
AcDbLine
 10
-62.57500000000004
 20
-13.50000000000011
 30
0.0
 11
-61.57500000000005
 21
-13.50000000000011
 31
0.0
  0
LINE
  5
4CC7
330
A
100
AcDbEntity
  8
0
  6
Continuous
 62
     7
100
AcDbLine
 10
-61.57500000000005
 20
-13.50000000000011
 30
0.0
 11
-61.07500000000005
 21
-13.50000000000011
 31
0.0
  0
LINE
  5
4CC8
330
A
100
AcDbEntity
  8
0
  6
Continuous
 62
     7
100
AcDbLine
 10
-62.57500000000004
 20
-7.500000000000113
 30
0.0
 11
-62.57500000000004
 21
-13.50000000000011
 31
0.0
  0
LINE
  5
4CC9
330
A
100
AcDbEntity
  8
0
  6
Continuous
 62
     7
100
AcDbLine
 10
-72.07500000000004
 20
-13.50000000000011
 30
0.0
 11
-71.57500000000005
 21
-13.50000000000011
 31
0.0
  0
LINE
  5
4CCA
330
A
100
AcDbEntity
  8
0
  6
Continuous
 62
     7
100
AcDbLine
 10
-71.57500000000005
 20
-13.50000000000011
 30
0.0
 11
-70.57500000000004
 21
-13.50000000000011
 31
0.0
  0
LINE
  5
4CCB
330
A
100
AcDbEntity
  8
0
  6
Continuous
 62
     9
100
AcDbLine
 10
-72.07500000000004
 20
-7.500000000000113
 30
0.0
 11
-71.57500000000005
 21
-7.500000000000113
 31
0.0
  0
LINE
  5
4CCC
330
A
100
AcDbEntity
  8
0
  6
Continuous
 62
     9
100
AcDbLine
 10
-71.57500000000005
 20
-7.500000000000113
 30
0.0
 11
-70.57500000000004
 21
-7.500000000000113
 31
0.0
  0
LINE
  5
4CCD
330
A
100
AcDbEntity
  8
0
  6
Continuous
 62
     7
100
AcDbLine
 10
-70.57500000000004
 20
-7.500000000000113
 30
0.0
 11
-70.57500000000004
 21
-13.50000000000011
 31
0.0
  0
LINE
  5
4CCE
330
A
100
AcDbEntity
  8
0
  6
Continuous
 62
     9
100
AcDbLine
 10
-72.07500000000004
 20
77.49999999999989
 30
0.0
 11
-71.57500000000005
 21
77.49999999999989
 31
0.0
  0
LINE
  5
4CCF
330
A
100
AcDbEntity
  8
0
  6
Continuous
 62
     9
100
AcDbLine
 10
-71.57500000000005
 20
77.49999999999989
 30
0.0
 11
-70.57500000000004
 21
77.49999999999989
 31
0.0
  0
LINE
  5
4CD0
330
A
100
AcDbEntity
  8
0
  6
Continuous
 62
     7
100
AcDbLine
 10
-70.57500000000004
 20
77.49999999999989
 30
0.0
 11
-70.57500000000004
 21
-7.500000000000113
 31
0.0
  0
LINE
  5
4CD1
330
A
100
AcDbEntity
  8
0
  6
Continuous
 62
     7
100
AcDbLine
 10
-72.07500000000004
 20
83.49999999999988
 30
0.0
 11
-71.57500000000005
 21
83.49999999999988
 31
0.0
  0
LINE
  5
4CD2
330
A
100
AcDbEntity
  8
0
  6
Continuous
 62
     7
100
AcDbLine
 10
-71.57500000000005
 20
83.49999999999988
 30
0.0
 11
-70.57500000000004
 21
83.49999999999988
 31
0.0
  0
LINE
  5
4CD3
330
A
100
AcDbEntity
  8
0
  6
Continuous
 62
     7
100
AcDbLine
 10
-70.57500000000004
 20
83.49999999999988
 30
0.0
 11
-70.57500000000004
 21
77.49999999999989
 31
0.0
  0
LINE
  5
4CD4
330
A
100
AcDbEntity
  8
0
  6
Continuous
 62
     9
100
AcDbLine
 10
-61.57500000000005
 20
77.49999999999989
 30
0.0
 11
-61.07500000000005
 21
77.49999999999989
 31
0.0
  0
LINE
  5
4CD5
330
A
100
AcDbEntity
  8
0
  6
Continuous
 62
     7
100
AcDbLine
 10
-61.57500000000005
 20
83.49999999999988
 30
0.0
 11
-61.57500000000005
 21
77.49999999999989
 31
0.0
  0
LINE
  5
4CD6
330
A
100
AcDbEntity
  8
0
  6
Continuous
 62
     7
100
AcDbLine
 10
-61.57500000000005
 20
83.49999999999988
 30
0.0
 11
-61.07500000000005
 21
83.49999999999988
 31
0.0
  0
LINE
  5
4CD7
330
A
100
AcDbEntity
  8
0
  6
Continuous
 62
     9
100
AcDbLine
 10
-61.57500000000005
 20
-7.500000000000113
 30
0.0
 11
-61.07500000000005
 21
-7.500000000000113
 31
0.0
  0
LINE
  5
4CD8
330
A
100
AcDbEntity
  8
0
  6
Continuous
 62
     7
100
AcDbLine
 10
-61.57500000000005
 20
77.49999999999989
 30
0.0
 11
-61.57500000000005
 21
-7.500000000000113
 31
0.0
  0
LINE
  5
4CD9
330
A
100
AcDbEntity
  8
0
  6
Continuous
 62
     7
100
AcDbLine
 10
-61.57500000000005
 20
-13.50000000000011
 30
0.0
 11
-61.07500000000005
 21
-13.50000000000011
 31
0.0
  0
LINE
  5
4CDA
330
A
100
AcDbEntity
  8
0
  6
Continuous
 62
     7
100
AcDbLine
 10
-61.57500000000005
 20
-7.500000000000113
 30
0.0
 11
-61.57500000000005
 21
-13.50000000000011
 31
0.0
  0
LINE
  5
4CDB
330
A
100
AcDbEntity
  8
0
  6
Continuous
 62
     9
100
AcDbLine
 10
-72.07500000000004
 20
-7.500000000000113
 30
0.0
 11
-71.57500000000005
 21
-7.500000000000113
 31
0.0
  0
LINE
  5
4CDC
330
A
100
AcDbEntity
  8
0
  6
Continuous
 62
     9
100
AcDbLine
 10
-72.07500000000004
 20
77.49999999999989
 30
0.0
 11
-71.57500000000005
 21
77.49999999999989
 31
0.0
  0
LINE
  5
4CDD
330
A
100
AcDbEntity
  8
0
  6
Continuous
 62
     7
100
AcDbLine
 10
-71.57500000000005
 20
77.49999999999989
 30
0.0
 11
-71.57500000000005
 21
-7.500000000000113
 31
0.0
  0
LINE
  5
4CDE
330
A
100
AcDbEntity
  8
0
  6
Continuous
 62
     7
100
AcDbLine
 10
-72.07500000000004
 20
-13.50000000000011
 30
0.0
 11
-71.57500000000005
 21
-13.50000000000011
 31
0.0
  0
LINE
  5
4CDF
330
A
100
AcDbEntity
  8
0
  6
Continuous
 62
     7
100
AcDbLine
 10
-71.57500000000005
 20
-7.500000000000113
 30
0.0
 11
-71.57500000000005
 21
-13.50000000000011
 31
0.0
  0
LINE
  5
4CE0
330
A
100
AcDbEntity
  8
0
  6
Continuous
 62
     7
100
AcDbLine
 10
-72.07500000000004
 20
83.49999999999988
 30
0.0
 11
-71.57500000000005
 21
83.49999999999988
 31
0.0
  0
LINE
  5
4CE1
330
A
100
AcDbEntity
  8
0
  6
Continuous
 62
     7
100
AcDbLine
 10
-71.57500000000005
 20
83.49999999999988
 30
0.0
 11
-71.57500000000005
 21
77.49999999999989
 31
0.0
  0
LINE
  5
4CE2
330
A
100
AcDbEntity
  8
0
  6
Continuous
 62
     9
100
AcDbLine
 10
-62.57500000000004
 20
0.9999999999998863
 30
0.0
 11
-70.57500000000004
 21
0.9999999999998863
 31
0.0
  0
LINE
  5
4CE3
330
A
100
AcDbEntity
  8
0
  6
Continuous
 62
     7
100
AcDbLine
 10
-62.57500000000004
 20
-6.000000000000113
 30
0.0
 11
-70.57500000000004
 21
-6.000000000000113
 31
0.0
  0
LINE
  5
4CE4
330
A
100
AcDbEntity
  8
0
  6
Continuous
 62
     7
100
AcDbLine
 10
-62.57500000000004
 20
75.99999999999988
 30
0.0
 11
-70.57500000000004
 21
75.99999999999988
 31
0.0
  0
LINE
  5
4CE5
330
A
100
AcDbEntity
  8
0
  6
Continuous
 62
     9
100
AcDbLine
 10
-62.57500000000004
 20
68.99999999999988
 30
0.0
 11
-70.57500000000004
 21
68.99999999999988
 31
0.0
  0
LINE
  5
4CE6
330
A
100
AcDbEntity
  8
0
  6
Continuous
 62
     9
100
AcDbLine
 10
-79.07500000000005
 20
-10.50000000000011
 30
0.0
 11
-78.07500000000004
 21
-10.50000000000011
 31
0.0
  0
LINE
  5
4CE7
330
A
100
AcDbEntity
  8
0
  6
Continuous
 62
     7
100
AcDbLine
 10
-79.07500000000005
 20
-10.50000000000011
 30
0.0
 11
-79.07500000000005
 21
80.49999999999988
 31
0.0
  0
LINE
  5
4CE8
330
A
100
AcDbEntity
  8
0
  6
Continuous
 62
     9
100
AcDbLine
 10
-78.07500000000004
 20
80.49999999999988
 30
0.0
 11
-79.07500000000005
 21
80.49999999999988
 31
0.0
  0
LINE
  5
4CE9
330
A
100
AcDbEntity
  8
0
  6
Continuous
 62
     9
100
AcDbLine
 10
-78.07500000000004
 20
80.49999999999988
 30
0.0
 11
-78.07500000000004
 21
-10.50000000000011
 31
0.0
  0
LINE
  5
4CEA
330
A
100
AcDbEntity
  8
0
  6
Continuous
 62
     9
100
AcDbLine
 10
-78.07500000000004
 20
-10.50000000000011
 30
0.0
 11
-72.07500000000004
 21
-10.50000000000011
 31
0.0
  0
LINE
  5
4CEB
330
A
100
AcDbEntity
  8
0
  6
Continuous
 62
     9
100
AcDbLine
 10
-72.07500000000004
 20
80.49999999999988
 30
0.0
 11
-78.07500000000004
 21
80.49999999999988
 31
0.0
  0
LINE
  5
4CEC
330
A
100
AcDbEntity
  8
0
  6
Continuous
 62
     7
100
AcDbLine
 10
-72.07500000000004
 20
-10.50000000000011
 30
0.0
 11
-72.07500000000004
 21
80.49999999999988
 31
0.0
  0
LINE
  5
4CED
330
A
100
AcDbEntity
  8
0
  6
Continuous
 62
     7
100
AcDbLine
 10
-79.07500000000005
 20
-10.50000000000011
 30
0.0
 11
-79.07500000000005
 21
-14.00000000000011
 31
0.0
  0
LINE
  5
4CEE
330
A
100
AcDbEntity
  8
0
  6
Continuous
 62
     9
100
AcDbLine
 10
-78.07500000000004
 20
-15.00000000000011
 30
0.0
 11
-78.07500000000004
 21
-10.50000000000011
 31
0.0
  0
ARC
  5
4CEF
330
A
100
AcDbEntity
  8
0
  6
Continuous
 62
     7
100
AcDbCircle
 10
-78.07500000000004
 20
-14.00000000000011
 30
0.0
 40
1.0
100
AcDbArc
 50
180.0
 51
270.0
  0
LINE
  5
4CF0
330
A
100
AcDbEntity
  8
0
  6
Continuous
 62
     7
100
AcDbLine
 10
-72.07500000000004
 20
-15.00000000000011
 30
0.0
 11
-78.07500000000004
 21
-15.00000000000011
 31
0.0
  0
LINE
  5
4CF1
330
A
100
AcDbEntity
  8
0
  6
Continuous
 62
     7
100
AcDbLine
 10
-72.07500000000004
 20
-10.50000000000011
 30
0.0
 11
-72.07500000000004
 21
-15.00000000000011
 31
0.0
  0
LINE
  5
4CF2
330
A
100
AcDbEntity
  8
0
  6
Continuous
 62
     9
100
AcDbLine
 10
-78.07500000000004
 20
80.49999999999988
 30
0.0
 11
-78.07500000000004
 21
84.99999999999989
 31
0.0
  0
LINE
  5
4CF3
330
A
100
AcDbEntity
  8
0
  6
Continuous
 62
     7
100
AcDbLine
 10
-78.07500000000004
 20
84.99999999999989
 30
0.0
 11
-72.07500000000004
 21
84.99999999999989
 31
0.0
  0
LINE
  5
4CF4
330
A
100
AcDbEntity
  8
0
  6
Continuous
 62
     7
100
AcDbLine
 10
-72.07500000000004
 20
84.99999999999989
 30
0.0
 11
-72.07500000000004
 21
80.49999999999988
 31
0.0
  0
LINE
  5
4CF5
330
A
100
AcDbEntity
  8
0
  6
Continuous
 62
     7
100
AcDbLine
 10
-79.07500000000005
 20
83.99999999999989
 30
0.0
 11
-79.07500000000005
 21
80.49999999999988
 31
0.0
  0
ARC
  5
4CF6
330
A
100
AcDbEntity
  8
0
  6
Continuous
 62
     7
100
AcDbCircle
 10
-78.07500000000004
 20
83.99999999999989
 30
0.0
 40
1.0
100
AcDbArc
 50
90.0
 51
180.0
  0
LINE
  5
4CF7
330
A
100
AcDbEntity
  8
0
  6
Continuous
 62
     7
100
AcDbLine
 10
-53.97500000000002
 20
9.979828999999881
 30
0.0
 11
-53.97500000000002
 21
0.0201709999998911
 31
0.0
  0
LINE
  5
4CF8
330
A
100
AcDbEntity
  8
0
  6
Continuous
 62
     7
100
AcDbLine
 10
-53.97500000000002
 20
69.97982899999988
 30
0.0
 11
-53.97500000000002
 21
60.02017099999989
 31
0.0
  0
LINE
  5
4CF9
330
A
100
AcDbEntity
  8
0
  6
Continuous
 62
     7
100
AcDbLine
 10
-54.07500000000005
 20
83.99999999999989
 30
0.0
 11
-54.07500000000005
 21
80.49999999999988
 31
0.0
  0
LINE
  5
4CFA
330
A
100
AcDbEntity
  8
0
  6
Continuous
 62
     9
100
AcDbLine
 10
-54.07500000000005
 20
80.49999999999988
 30
0.0
 11
-55.07500000000004
 21
80.49999999999988
 31
0.0
  0
LINE
  5
4CFB
330
A
100
AcDbEntity
  8
0
  6
Continuous
 62
     9
100
AcDbLine
 10
-55.07500000000004
 20
80.49999999999988
 30
0.0
 11
-55.07500000000004
 21
84.99999999999989
 31
0.0
  0
ARC
  5
4CFC
330
A
100
AcDbEntity
  8
0
  6
Continuous
 62
     7
100
AcDbCircle
 10
-55.07500000000004
 20
83.99999999999989
 30
0.0
 40
1.0
100
AcDbArc
 50
0.0
 51
90.0
  0
LINE
  5
4CFD
330
A
100
AcDbEntity
  8
0
  6
Continuous
 62
     7
100
AcDbLine
 10
-61.07500000000005
 20
80.49999999999988
 30
0.0
 11
-61.07500000000005
 21
84.99999999999989
 31
0.0
  0
LINE
  5
4CFE
330
A
100
AcDbEntity
  8
0
  6
Continuous
 62
     7
100
AcDbLine
 10
-61.07500000000005
 20
84.99999999999989
 30
0.0
 11
-55.07500000000004
 21
84.99999999999989
 31
0.0
  0
LINE
  5
4CFF
330
A
100
AcDbEntity
  8
0
  6
Continuous
 62
     9
100
AcDbLine
 10
-55.07500000000004
 20
80.49999999999988
 30
0.0
 11
-61.07500000000005
 21
80.49999999999988
 31
0.0
  0
LINE
  5
4D00
330
A
100
AcDbEntity
  8
0
  6
Continuous
 62
     7
100
AcDbLine
 10
-54.07500000000005
 20
80.49999999999988
 30
0.0
 11
-54.07500000000005
 21
-10.50000000000011
 31
0.0
  0
LINE
  5
4D01
330
A
100
AcDbEntity
  8
0
  6
Continuous
 62
     9
100
AcDbLine
 10
-54.07500000000005
 20
-10.50000000000011
 30
0.0
 11
-55.07500000000004
 21
-10.50000000000011
 31
0.0
  0
LINE
  5
4D02
330
A
100
AcDbEntity
  8
0
  6
Continuous
 62
     9
100
AcDbLine
 10
-55.07500000000004
 20
-10.50000000000011
 30
0.0
 11
-55.07500000000004
 21
80.49999999999988
 31
0.0
  0
LINE
  5
4D03
330
A
100
AcDbEntity
  8
0
  6
Continuous
 62
     7
100
AcDbLine
 10
-61.07500000000005
 20
80.49999999999988
 30
0.0
 11
-61.07500000000005
 21
-10.50000000000011
 31
0.0
  0
LINE
  5
4D04
330
A
100
AcDbEntity
  8
0
  6
Continuous
 62
     9
100
AcDbLine
 10
-61.07500000000005
 20
-10.50000000000011
 30
0.0
 11
-55.07500000000004
 21
-10.50000000000011
 31
0.0
  0
LINE
  5
4D05
330
A
100
AcDbEntity
  8
0
  6
Continuous
 62
     7
100
AcDbLine
 10
-54.07500000000005
 20
-10.50000000000011
 30
0.0
 11
-54.07500000000005
 21
-14.00000000000011
 31
0.0
  0
ARC
  5
4D06
330
A
100
AcDbEntity
  8
0
  6
Continuous
 62
     7
100
AcDbCircle
 10
-55.07500000000004
 20
-14.00000000000011
 30
0.0
 40
1.0
100
AcDbArc
 50
270.0
 51
0.0
  0
LINE
  5
4D07
330
A
100
AcDbEntity
  8
0
  6
Continuous
 62
     9
100
AcDbLine
 10
-55.07500000000004
 20
-15.00000000000011
 30
0.0
 11
-55.07500000000004
 21
-10.50000000000011
 31
0.0
  0
LINE
  5
4D08
330
A
100
AcDbEntity
  8
0
  6
Continuous
 62
     7
100
AcDbLine
 10
-55.07500000000004
 20
-15.00000000000011
 30
0.0
 11
-61.07500000000005
 21
-15.00000000000011
 31
0.0
  0
LINE
  5
4D09
330
A
100
AcDbEntity
  8
0
  6
Continuous
 62
     7
100
AcDbLine
 10
-61.07500000000005
 20
-15.00000000000011
 30
0.0
 11
-61.07500000000005
 21
-10.50000000000011
 31
0.0
  0
LINE
  5
4D0A
330
A
100
AcDbEntity
  8
0
  6
Continuous
 62
     7
100
AcDbLine
 10
-61.07500000000005
 20
83.99999999999989
 30
0.0
 11
-61.07500000000005
 21
84.99999999999989
 31
0.0
  0
LINE
  5
4D0B
330
A
100
AcDbEntity
  8
0
  6
Continuous
 62
     7
100
AcDbLine
 10
-61.07500000000005
 20
-15.00000000000011
 30
0.0
 11
-61.07500000000005
 21
-14.00000000000011
 31
0.0
  0
LINE
  5
4D0C
330
A
100
AcDbEntity
  8
0
  6
Continuous
 62
     7
100
AcDbLine
 10
-53.97500000000002
 20
9.979828999999881
 30
0.0
 11
-53.97500000000002
 21
5.000530999999881
 31
0.0
  0
LINE
  5
4D0D
330
A
100
AcDbEntity
  8
0
  6
Continuous
 62
     7
100
AcDbLine
 10
-53.97500000000002
 20
5.000530999999881
 30
0.0
 11
-53.97500000000002
 21
0.0201709999998911
 31
0.0
  0
LINE
  5
4D0E
330
A
100
AcDbEntity
  8
0
  6
Continuous
 62
     7
100
AcDbLine
 10
-53.97500000000002
 20
69.97982899999988
 30
0.0
 11
-53.97500000000002
 21
60.02017099999989
 31
0.0
  0
LINE
  5
4D0F
330
A
100
AcDbEntity
  8
0
  6
Continuous
 62
     7
100
AcDbLine
 10
-54.07500000000005
 20
40.99999999999988
 30
0.0
 11
-48.88020300000039
 21
40.99999999999988
 31
0.0
  0
LINE
  5
4D10
330
A
100
AcDbEntity
  8
0
  6
Continuous
 62
     9
100
AcDbLine
 10
-48.88020300000039
 20
28.99999999999989
 30
0.0
 11
-48.88020300000039
 21
40.99999999999988
 31
0.0
  0
LINE
  5
4D11
330
A
100
AcDbEntity
  8
0
  6
Continuous
 62
     7
100
AcDbLine
 10
-54.07500000000005
 20
28.99999999999989
 30
0.0
 11
-48.88020300000039
 21
28.99999999999989
 31
0.0
  0
LINE
  5
4D12
330
A
100
AcDbEntity
  8
0
  6
Continuous
 62
     9
100
AcDbLine
 10
-84.26979700000003
 20
40.99999999999988
 30
0.0
 11
-84.26979700000003
 21
28.99999999999989
 31
0.0
  0
LINE
  5
4D13
330
A
100
AcDbEntity
  8
0
  6
Continuous
 62
     7
100
AcDbLine
 10
-84.26979700000003
 20
40.99999999999988
 30
0.0
 11
-79.07500000000005
 21
40.99999999999988
 31
0.0
  0
LINE
  5
4D14
330
A
100
AcDbEntity
  8
0
  6
Continuous
 62
     7
100
AcDbLine
 10
-84.26979700000003
 20
28.99999999999989
 30
0.0
 11
-79.07500000000005
 21
28.99999999999989
 31
0.0
  0
LINE
  5
4D15
330
A
100
AcDbEntity
  8
0
  6
Continuous
 62
     7
100
AcDbLine
 10
-84.27781000000015
 20
40.99999999999988
 30
0.0
 11
-84.26979700000003
 21
40.99999999999988
 31
0.0
  0
LINE
  5
4D16
330
A
100
AcDbEntity
  8
0
  6
Continuous
 62
     7
100
AcDbLine
 10
-84.26979700000003
 20
28.99999999999989
 30
0.0
 11
-84.27780900000016
 21
28.99999999999989
 31
0.0
  0
LINE
  5
4D17
330
A
100
AcDbEntity
  8
0
  6
Continuous
 62
     7
100
AcDbLine
 10
-48.87219000000005
 20
28.99999999999989
 30
0.0
 11
-48.88020300000039
 21
28.99999999999989
 31
0.0
  0
LINE
  5
4D18
330
A
100
AcDbEntity
  8
0
  6
Continuous
 62
     7
100
AcDbLine
 10
-48.88020300000039
 20
40.99999999999988
 30
0.0
 11
-48.87219100000004
 21
40.99999999999988
 31
0.0
  0
ARC
  5
4D19
330
A
100
AcDbEntity
  8
0
  6
Continuous
 62
     7
100
AcDbCircle
 10
-54.47500000000002
 20
9.979828999999881
 30
0.0
 40
0.5
100
AcDbArc
 50
0.0
 51
36.86989800000063
  0
ARC
  5
4D1A
330
A
100
AcDbEntity
  8
0
  6
Continuous
 62
     7
100
AcDbCircle
 10
-54.47500000000002
 20
0.0201709999998911
 30
0.0
 40
0.5
100
AcDbArc
 50
323.1301019999994
 51
0.0
  0
ARC
  5
4D1B
330
A
100
AcDbEntity
  8
0
  6
Continuous
 62
     7
100
AcDbCircle
 10
-54.47500000000002
 20
69.97982899999988
 30
0.0
 40
0.5
100
AcDbArc
 50
0.0
 51
36.86989800000063
  0
ARC
  5
4D1C
330
A
100
AcDbEntity
  8
0
  6
Continuous
 62
     7
100
AcDbCircle
 10
-54.47500000000002
 20
60.02017099999989
 30
0.0
 40
0.5
100
AcDbArc
 50
323.1301019999994
 51
0.0
  0
LINE
  5
4D1D
330
A
100
AcDbEntity
  8
0
  6
Continuous
 62
     7
100
AcDbLine
 10
-84.27781000000015
 20
40.99999999999988
 30
0.0
 11
-84.27780900000016
 21
28.99999999999989
 31
0.0
  0
LINE
  5
4D1E
330
A
100
AcDbEntity
  8
0
  6
Continuous
 62
     7
100
AcDbLine
 10
-48.87219000000005
 20
28.99999999999989
 30
0.0
 11
-48.87219100000004
 21
40.99999999999988
 31
0.0
  0
LINE
  5
4D1F
330
A
100
AcDbEntity
  8
0
  6
Continuous
 62
     9
100
AcDbLine
 10
194.4249999999999
 20
77.49999999999989
 30
0.0
 11
192.9249999999999
 21
77.49999999999989
 31
0.0
  0
LINE
  5
4D20
330
A
100
AcDbEntity
  8
0
  6
Continuous
 62
     7
100
AcDbLine
 10
194.4249999999999
 20
-7.500000000000113
 30
0.0
 11
194.4249999999999
 21
77.49999999999989
 31
0.0
  0
LINE
  5
4D21
330
A
100
AcDbEntity
  8
0
  6
Continuous
 62
     9
100
AcDbLine
 10
194.4249999999999
 20
-7.500000000000113
 30
0.0
 11
192.9249999999999
 21
-7.500000000000113
 31
0.0
  0
LINE
  5
4D22
330
A
100
AcDbEntity
  8
0
  6
Continuous
 62
     7
100
AcDbLine
 10
194.4249999999999
 20
-13.50000000000011
 30
0.0
 11
194.4249999999999
 21
-7.500000000000113
 31
0.0
  0
LINE
  5
4D23
330
A
100
AcDbEntity
  8
0
  6
Continuous
 62
     7
100
AcDbLine
 10
194.4249999999999
 20
-13.50000000000011
 30
0.0
 11
192.9249999999999
 21
-13.50000000000011
 31
0.0
  0
LINE
  5
4D24
330
A
100
AcDbEntity
  8
0
  6
Continuous
 62
     7
100
AcDbLine
 10
194.4249999999999
 20
83.49999999999988
 30
0.0
 11
192.9249999999999
 21
83.49999999999988
 31
0.0
  0
LINE
  5
4D25
330
A
100
AcDbEntity
  8
0
  6
Continuous
 62
     7
100
AcDbLine
 10
194.4249999999999
 20
77.49999999999989
 30
0.0
 11
194.4249999999999
 21
83.49999999999988
 31
0.0
  0
LINE
  5
4D26
330
A
100
AcDbEntity
  8
0
  6
Continuous
 62
     7
100
AcDbLine
 10
203.925
 20
83.49999999999988
 30
0.0
 11
202.4249999999999
 21
83.49999999999988
 31
0.0
  0
LINE
  5
4D27
330
A
100
AcDbEntity
  8
0
  6
Continuous
 62
     7
100
AcDbLine
 10
202.4249999999999
 20
77.49999999999989
 30
0.0
 11
202.4249999999999
 21
83.49999999999988
 31
0.0
  0
LINE
  5
4D28
330
A
100
AcDbEntity
  8
0
  6
Continuous
 62
     9
100
AcDbLine
 10
203.925
 20
77.49999999999989
 30
0.0
 11
202.4249999999999
 21
77.49999999999989
 31
0.0
  0
LINE
  5
4D29
330
A
100
AcDbEntity
  8
0
  6
Continuous
 62
     9
100
AcDbLine
 10
203.925
 20
-7.500000000000113
 30
0.0
 11
202.4249999999999
 21
-7.500000000000113
 31
0.0
  0
LINE
  5
4D2A
330
A
100
AcDbEntity
  8
0
  6
Continuous
 62
     7
100
AcDbLine
 10
202.4249999999999
 20
-7.500000000000113
 30
0.0
 11
202.4249999999999
 21
77.49999999999989
 31
0.0
  0
LINE
  5
4D2B
330
A
100
AcDbEntity
  8
0
  6
Continuous
 62
     7
100
AcDbLine
 10
203.925
 20
-13.50000000000011
 30
0.0
 11
202.4249999999999
 21
-13.50000000000011
 31
0.0
  0
LINE
  5
4D2C
330
A
100
AcDbEntity
  8
0
  6
Continuous
 62
     7
100
AcDbLine
 10
202.4249999999999
 20
-13.50000000000011
 30
0.0
 11
202.4249999999999
 21
-7.500000000000113
 31
0.0
  0
LINE
  5
4D2D
330
A
100
AcDbEntity
  8
0
  6
Continuous
 62
     7
100
AcDbLine
 10
185.8249999999999
 20
0.0201709999998911
 30
0.0
 11
185.8249999999999
 21
9.979828999999881
 31
0.0
  0
LINE
  5
4D2E
330
A
100
AcDbEntity
  8
0
  6
Continuous
 62
     7
100
AcDbLine
 10
185.8249999999999
 20
60.02017099999989
 30
0.0
 11
185.8249999999999
 21
64.99944399999987
 31
0.0
  0
LINE
  5
4D2F
330
A
100
AcDbEntity
  8
0
  6
Continuous
 62
     7
100
AcDbLine
 10
185.8249999999999
 20
64.99944399999987
 30
0.0
 11
185.8249999999999
 21
69.97982899999988
 31
0.0
  0
LINE
  5
4D30
330
A
100
AcDbEntity
  8
0
  6
Continuous
 62
     7
100
AcDbLine
 10
192.9249999999999
 20
-14.00000000000011
 30
0.0
 11
192.9249999999999
 21
-15.00000000000011
 31
0.0
  0
LINE
  5
4D31
330
A
100
AcDbEntity
  8
0
  6
Continuous
 62
     7
100
AcDbLine
 10
192.9249999999999
 20
84.99999999999989
 30
0.0
 11
192.9249999999999
 21
83.99999999999989
 31
0.0
  0
LINE
  5
4D32
330
A
100
AcDbEntity
  8
0
  6
Continuous
 62
     7
100
AcDbLine
 10
185.9249999999999
 20
80.49999999999988
 30
0.0
 11
185.9249999999999
 21
83.99999999999989
 31
0.0
  0
ARC
  5
4D33
330
A
100
AcDbEntity
  8
0
  6
Continuous
 62
     7
100
AcDbCircle
 10
186.9249999999999
 20
83.99999999999989
 30
0.0
 40
1.0
100
AcDbArc
 50
90.0
 51
180.0
  0
LINE
  5
4D34
330
A
100
AcDbEntity
  8
0
  6
Continuous
 62
     9
100
AcDbLine
 10
186.9249999999999
 20
84.99999999999989
 30
0.0
 11
186.9249999999999
 21
80.49999999999988
 31
0.0
  0
LINE
  5
4D35
330
A
100
AcDbEntity
  8
0
  6
Continuous
 62
     9
100
AcDbLine
 10
185.9249999999999
 20
80.49999999999988
 30
0.0
 11
186.9249999999999
 21
80.49999999999988
 31
0.0
  0
LINE
  5
4D36
330
A
100
AcDbEntity
  8
0
  6
Continuous
 62
     7
100
AcDbLine
 10
185.9249999999999
 20
-14.00000000000011
 30
0.0
 11
185.9249999999999
 21
-10.50000000000011
 31
0.0
  0
LINE
  5
4D37
330
A
100
AcDbEntity
  8
0
  6
Continuous
 62
     9
100
AcDbLine
 10
185.9249999999999
 20
-10.50000000000011
 30
0.0
 11
186.9249999999999
 21
-10.50000000000011
 31
0.0
  0
LINE
  5
4D38
330
A
100
AcDbEntity
  8
0
  6
Continuous
 62
     9
100
AcDbLine
 10
186.9249999999999
 20
-10.50000000000011
 30
0.0
 11
186.9249999999999
 21
-15.00000000000011
 31
0.0
  0
ARC
  5
4D39
330
A
100
AcDbEntity
  8
0
  6
Continuous
 62
     7
100
AcDbCircle
 10
186.9249999999999
 20
-14.00000000000011
 30
0.0
 40
1.0
100
AcDbArc
 50
180.0
 51
270.0
  0
LINE
  5
4D3A
330
A
100
AcDbEntity
  8
0
  6
Continuous
 62
     7
100
AcDbLine
 10
185.9249999999999
 20
-10.50000000000011
 30
0.0
 11
185.9249999999999
 21
80.49999999999988
 31
0.0
  0
LINE
  5
4D3B
330
A
100
AcDbEntity
  8
0
  6
Continuous
 62
     9
100
AcDbLine
 10
186.9249999999999
 20
80.49999999999988
 30
0.0
 11
186.9249999999999
 21
-10.50000000000011
 31
0.0
  0
LINE
  5
4D3C
330
A
100
AcDbEntity
  8
0
  6
Continuous
 62
     9
100
AcDbLine
 10
186.9249999999999
 20
-10.50000000000011
 30
0.0
 11
192.9249999999999
 21
-10.50000000000011
 31
0.0
  0
LINE
  5
4D3D
330
A
100
AcDbEntity
  8
0
  6
Continuous
 62
     9
100
AcDbLine
 10
192.9249999999999
 20
80.49999999999988
 30
0.0
 11
186.9249999999999
 21
80.49999999999988
 31
0.0
  0
LINE
  5
4D3E
330
A
100
AcDbEntity
  8
0
  6
Continuous
 62
     7
100
AcDbLine
 10
192.9249999999999
 20
-10.50000000000011
 30
0.0
 11
192.9249999999999
 21
80.49999999999988
 31
0.0
  0
LINE
  5
4D3F
330
A
100
AcDbEntity
  8
0
  6
Continuous
 62
     7
100
AcDbLine
 10
192.9249999999999
 20
-15.00000000000011
 30
0.0
 11
186.9249999999999
 21
-15.00000000000011
 31
0.0
  0
LINE
  5
4D40
330
A
100
AcDbEntity
  8
0
  6
Continuous
 62
     7
100
AcDbLine
 10
192.9249999999999
 20
-10.50000000000011
 30
0.0
 11
192.9249999999999
 21
-15.00000000000011
 31
0.0
  0
LINE
  5
4D41
330
A
100
AcDbEntity
  8
0
  6
Continuous
 62
     7
100
AcDbLine
 10
186.9249999999999
 20
84.99999999999989
 30
0.0
 11
192.9249999999999
 21
84.99999999999989
 31
0.0
  0
LINE
  5
4D42
330
A
100
AcDbEntity
  8
0
  6
Continuous
 62
     7
100
AcDbLine
 10
192.9249999999999
 20
84.99999999999989
 30
0.0
 11
192.9249999999999
 21
80.49999999999988
 31
0.0
  0
LINE
  5
4D43
330
A
100
AcDbEntity
  8
0
  6
Continuous
 62
     7
100
AcDbLine
 10
185.8249999999999
 20
0.0201709999998911
 30
0.0
 11
185.8249999999999
 21
9.979828999999881
 31
0.0
  0
LINE
  5
4D44
330
A
100
AcDbEntity
  8
0
  6
Continuous
 62
     7
100
AcDbLine
 10
185.8249999999999
 20
60.02017099999989
 30
0.0
 11
185.8249999999999
 21
69.97982899999988
 31
0.0
  0
LINE
  5
4D45
330
A
100
AcDbEntity
  8
0
  6
Continuous
 62
     9
100
AcDbLine
 10
194.4249999999999
 20
0.9999999999998863
 30
0.0
 11
202.4249999999999
 21
0.9999999999998863
 31
0.0
  0
LINE
  5
4D46
330
A
100
AcDbEntity
  8
0
  6
Continuous
 62
     9
100
AcDbLine
 10
194.4249999999999
 20
68.99999999999988
 30
0.0
 11
202.4249999999999
 21
68.99999999999988
 31
0.0
  0
LINE
  5
4D47
330
A
100
AcDbEntity
  8
0
  6
Continuous
 62
     7
100
AcDbLine
 10
194.4249999999999
 20
-6.000000000000113
 30
0.0
 11
202.4249999999999
 21
-6.000000000000113
 31
0.0
  0
LINE
  5
4D48
330
A
100
AcDbEntity
  8
0
  6
Continuous
 62
     7
100
AcDbLine
 10
194.4249999999999
 20
75.99999999999988
 30
0.0
 11
202.4249999999999
 21
75.99999999999988
 31
0.0
  0
LINE
  5
4D49
330
A
100
AcDbEntity
  8
0
  6
Continuous
 62
     7
100
AcDbLine
 10
210.9249999999999
 20
83.99999999999989
 30
0.0
 11
210.9249999999999
 21
80.49999999999988
 31
0.0
  0
LINE
  5
4D4A
330
A
100
AcDbEntity
  8
0
  6
Continuous
 62
     9
100
AcDbLine
 10
210.9249999999999
 20
80.49999999999988
 30
0.0
 11
209.925
 21
80.49999999999988
 31
0.0
  0
LINE
  5
4D4B
330
A
100
AcDbEntity
  8
0
  6
Continuous
 62
     9
100
AcDbLine
 10
209.925
 20
80.49999999999988
 30
0.0
 11
209.925
 21
84.99999999999989
 31
0.0
  0
ARC
  5
4D4C
330
A
100
AcDbEntity
  8
0
  6
Continuous
 62
     7
100
AcDbCircle
 10
209.925
 20
83.99999999999989
 30
0.0
 40
1.0
100
AcDbArc
 50
0.0
 51
90.0
  0
LINE
  5
4D4D
330
A
100
AcDbEntity
  8
0
  6
Continuous
 62
     9
100
AcDbLine
 10
209.925
 20
-15.00000000000011
 30
0.0
 11
209.925
 21
-10.50000000000011
 31
0.0
  0
LINE
  5
4D4E
330
A
100
AcDbEntity
  8
0
  6
Continuous
 62
     9
100
AcDbLine
 10
209.925
 20
-10.50000000000011
 30
0.0
 11
210.9249999999999
 21
-10.50000000000011
 31
0.0
  0
LINE
  5
4D4F
330
A
100
AcDbEntity
  8
0
  6
Continuous
 62
     7
100
AcDbLine
 10
210.9249999999999
 20
-10.50000000000011
 30
0.0
 11
210.9249999999999
 21
-14.00000000000011
 31
0.0
  0
ARC
  5
4D50
330
A
100
AcDbEntity
  8
0
  6
Continuous
 62
     7
100
AcDbCircle
 10
209.925
 20
-14.00000000000011
 30
0.0
 40
1.0
100
AcDbArc
 50
270.0
 51
0.0
  0
LINE
  5
4D51
330
A
100
AcDbEntity
  8
0
  6
Continuous
 62
     9
100
AcDbLine
 10
209.925
 20
80.49999999999988
 30
0.0
 11
203.925
 21
80.49999999999988
 31
0.0
  0
LINE
  5
4D52
330
A
100
AcDbEntity
  8
0
  6
Continuous
 62
     9
100
AcDbLine
 10
209.925
 20
-10.50000000000011
 30
0.0
 11
209.925
 21
80.49999999999988
 31
0.0
  0
LINE
  5
4D53
330
A
100
AcDbEntity
  8
0
  6
Continuous
 62
     9
100
AcDbLine
 10
203.925
 20
-10.50000000000011
 30
0.0
 11
209.925
 21
-10.50000000000011
 31
0.0
  0
LINE
  5
4D54
330
A
100
AcDbEntity
  8
0
  6
Continuous
 62
     7
100
AcDbLine
 10
203.925
 20
-10.50000000000011
 30
0.0
 11
203.925
 21
80.49999999999988
 31
0.0
  0
LINE
  5
4D55
330
A
100
AcDbEntity
  8
0
  6
Continuous
 62
     7
100
AcDbLine
 10
203.925
 20
84.99999999999989
 30
0.0
 11
209.925
 21
84.99999999999989
 31
0.0
  0
LINE
  5
4D56
330
A
100
AcDbEntity
  8
0
  6
Continuous
 62
     7
100
AcDbLine
 10
203.925
 20
80.49999999999988
 30
0.0
 11
203.925
 21
84.99999999999989
 31
0.0
  0
LINE
  5
4D57
330
A
100
AcDbEntity
  8
0
  6
Continuous
 62
     7
100
AcDbLine
 10
209.925
 20
-15.00000000000011
 30
0.0
 11
203.925
 21
-15.00000000000011
 31
0.0
  0
LINE
  5
4D58
330
A
100
AcDbEntity
  8
0
  6
Continuous
 62
     7
100
AcDbLine
 10
203.925
 20
-15.00000000000011
 30
0.0
 11
203.925
 21
-10.50000000000011
 31
0.0
  0
LINE
  5
4D59
330
A
100
AcDbEntity
  8
0
  6
Continuous
 62
     7
100
AcDbLine
 10
210.9249999999999
 20
80.49999999999988
 30
0.0
 11
210.9249999999999
 21
-10.50000000000011
 31
0.0
  0
LINE
  5
4D5A
330
A
100
AcDbEntity
  8
0
  6
Continuous
 62
     9
100
AcDbLine
 10
180.9334769999999
 20
40.99999999999988
 30
0.0
 11
180.9334769999999
 21
28.99999999999989
 31
0.0
  0
LINE
  5
4D5B
330
A
100
AcDbEntity
  8
0
  6
Continuous
 62
     7
100
AcDbLine
 10
180.9334769999999
 20
40.99999999999988
 30
0.0
 11
185.9249999999999
 21
40.99999999999988
 31
0.0
  0
LINE
  5
4D5C
330
A
100
AcDbEntity
  8
0
  6
Continuous
 62
     7
100
AcDbLine
 10
180.9334769999999
 20
28.99999999999989
 30
0.0
 11
185.9249999999999
 21
28.99999999999989
 31
0.0
  0
LINE
  5
4D5D
330
A
100
AcDbEntity
  8
0
  6
Continuous
 62
     9
100
AcDbLine
 10
215.9165230000001
 20
28.99999999999989
 30
0.0
 11
215.9165230000001
 21
40.99999999999988
 31
0.0
  0
LINE
  5
4D5E
330
A
100
AcDbEntity
  8
0
  6
Continuous
 62
     7
100
AcDbLine
 10
210.9249999999999
 20
40.99999999999988
 30
0.0
 11
215.9165230000001
 21
40.99999999999988
 31
0.0
  0
LINE
  5
4D5F
330
A
100
AcDbEntity
  8
0
  6
Continuous
 62
     7
100
AcDbLine
 10
210.9249999999999
 20
28.99999999999989
 30
0.0
 11
215.9165230000001
 21
28.99999999999989
 31
0.0
  0
LINE
  5
4D60
330
A
100
AcDbEntity
  8
0
  6
Continuous
 62
     7
100
AcDbLine
 10
216.035813
 20
28.99999999999989
 30
0.0
 11
215.9165230000001
 21
28.99999999999989
 31
0.0
  0
LINE
  5
4D61
330
A
100
AcDbEntity
  8
0
  6
Continuous
 62
     7
100
AcDbLine
 10
215.9165230000001
 20
40.99999999999988
 30
0.0
 11
216.035813
 21
40.99999999999988
 31
0.0
  0
LINE
  5
4D62
330
A
100
AcDbEntity
  8
0
  6
Continuous
 62
     7
100
AcDbLine
 10
180.8141869999998
 20
40.99999999999988
 30
0.0
 11
180.9334769999999
 21
40.99999999999988
 31
0.0
  0
LINE
  5
4D63
330
A
100
AcDbEntity
  8
0
  6
Continuous
 62
     7
100
AcDbLine
 10
180.9334769999999
 20
28.99999999999989
 30
0.0
 11
180.8141869999998
 21
28.99999999999989
 31
0.0
  0
LINE
  5
4D64
330
A
100
AcDbEntity
  8
0
  6
Continuous
 62
     7
100
AcDbLine
 10
216.1278089999998
 20
28.99999999999989
 30
0.0
 11
216.0292359999999
 21
28.99999999999989
 31
0.0
  0
LINE
  5
4D65
330
A
100
AcDbEntity
  8
0
  6
Continuous
 62
     7
100
AcDbLine
 10
216.0292359999999
 20
40.99999999999988
 30
0.0
 11
216.12781
 21
40.99999999999988
 31
0.0
  0
LINE
  5
4D66
330
A
100
AcDbEntity
  8
0
  6
Continuous
 62
     7
100
AcDbLine
 10
180.7221909999999
 20
40.99999999999988
 30
0.0
 11
180.820764
 21
40.99999999999988
 31
0.0
  0
LINE
  5
4D67
330
A
100
AcDbEntity
  8
0
  6
Continuous
 62
     7
100
AcDbLine
 10
180.820764
 20
28.99999999999989
 30
0.0
 11
180.7221899999999
 21
28.99999999999989
 31
0.0
  0
ARC
  5
4D68
330
A
100
AcDbEntity
  8
0
  6
Continuous
 62
     7
100
AcDbCircle
 10
186.3249999999999
 20
0.0201709999998911
 30
0.0
 40
0.5
100
AcDbArc
 50
180.0
 51
216.8698980000006
  0
ARC
  5
4D69
330
A
100
AcDbEntity
  8
0
  6
Continuous
 62
     7
100
AcDbCircle
 10
186.3249999999999
 20
9.979828999999881
 30
0.0
 40
0.5
100
AcDbArc
 50
143.1301019999994
 51
180.0
  0
ARC
  5
4D6A
330
A
100
AcDbEntity
  8
0
  6
Continuous
 62
     7
100
AcDbCircle
 10
186.3249999999999
 20
60.02017099999989
 30
0.0
 40
0.5
100
AcDbArc
 50
180.0
 51
216.8698980000006
  0
ARC
  5
4D6B
330
A
100
AcDbEntity
  8
0
  6
Continuous
 62
     7
100
AcDbCircle
 10
186.3249999999999
 20
69.97982899999988
 30
0.0
 40
0.5
100
AcDbArc
 50
143.1301019999994
 51
180.0
  0
LINE
  5
4D6C
330
A
100
AcDbEntity
  8
0
  6
Continuous
 62
     7
100
AcDbLine
 10
216.035813
 20
28.99999999999989
 30
0.0
 11
216.035813
 21
40.99999999999988
 31
0.0
  0
LINE
  5
4D6D
330
A
100
AcDbEntity
  8
0
  6
Continuous
 62
     7
100
AcDbLine
 10
180.8141869999998
 20
40.99999999999988
 30
0.0
 11
180.8141869999998
 21
28.99999999999989
 31
0.0
  0
LINE
  5
4D6E
330
A
100
AcDbEntity
  8
0
  6
Continuous
 62
     7
100
AcDbLine
 10
216.1278089999998
 20
28.99999999999989
 30
0.0
 11
216.12781
 21
40.99999999999988
 31
0.0
  0
LINE
  5
4D6F
330
A
100
AcDbEntity
  8
0
  6
Continuous
 62
     7
100
AcDbLine
 10
180.7221909999999
 20
40.99999999999988
 30
0.0
 11
180.7221899999999
 21
28.99999999999989
 31
0.0
  0
LINE
  5
4D70
330
A
100
AcDbEntity
  8
0
  6
Continuous
 62
     9
100
AcDbLine
 10
144.5
 20
83.99999999999989
 30
0.0
 11
144.5
 21
84.99999999999989
 31
0.0
  0
LINE
  5
4D71
330
A
100
AcDbEntity
  8
0
  6
Continuous
 62
     9
100
AcDbLine
 10
144.5
 20
83.99999999999989
 30
0.0
 11
73.0
 21
83.99999999999989
 31
0.0
  0
LINE
  5
4D72
330
A
100
AcDbEntity
  8
0
  6
Continuous
 62
     9
100
AcDbLine
 10
73.0
 20
84.99999999999989
 30
0.0
 11
73.0
 21
83.99999999999989
 31
0.0
  0
LINE
  5
4D73
330
A
100
AcDbEntity
  8
0
  6
Continuous
 62
     7
100
AcDbLine
 10
73.0
 20
84.99999999999989
 30
0.0
 11
144.5
 21
84.99999999999989
 31
0.0
  0
LINE
  5
4D74
330
A
100
AcDbEntity
  8
0
  6
Continuous
 62
     9
100
AcDbLine
 10
73.0
 20
83.99999999999989
 30
0.0
 11
69.0
 21
83.99999999999989
 31
0.0
  0
ARC
  5
4D75
330
A
100
AcDbEntity
  8
0
  6
Continuous
 62
     7
100
AcDbCircle
 10
70.0
 20
83.99999999999989
 30
0.0
 40
1.0
100
AcDbArc
 50
90.0
 51
180.0
  0
LINE
  5
4D76
330
A
100
AcDbEntity
  8
0
  6
Continuous
 62
     7
100
AcDbLine
 10
70.0
 20
84.99999999999989
 30
0.0
 11
73.0
 21
84.99999999999989
 31
0.0
  0
ARC
  5
4D77
330
A
100
AcDbEntity
  8
0
  6
Continuous
 62
     9
100
AcDbCircle
 10
144.5
 20
80.49999999999988
 30
0.0
 40
3.5
100
AcDbArc
 50
0.0
 51
90.0
  0
ARC
  5
4D78
330
A
100
AcDbEntity
  8
0
  6
Continuous
 62
     7
100
AcDbCircle
 10
144.5
 20
80.49999999999988
 30
0.0
 40
4.5
100
AcDbArc
 50
0.0
 51
90.0
  0
LINE
  5
4D79
330
A
100
AcDbEntity
  8
0
  6
Continuous
 62
     9
100
AcDbLine
 10
149.0
 20
80.49999999999988
 30
0.0
 11
148.0
 21
80.49999999999988
 31
0.0
  0
LINE
  5
4D7A
330
A
100
AcDbEntity
  8
0
  6
Continuous
 62
     9
100
AcDbLine
 10
69.0
 20
63.44499999999988
 30
0.0
 11
73.0
 21
63.44499999999988
 31
0.0
  0
LINE
  5
4D7B
330
A
100
AcDbEntity
  8
0
  6
Continuous
 62
     7
100
AcDbLine
 10
69.0
 20
63.44499999999988
 30
0.0
 11
69.0
 21
83.99999999999989
 31
0.0
  0
LINE
  5
4D7C
330
A
100
AcDbEntity
  8
0
  6
Continuous
 62
     9
100
AcDbLine
 10
73.0
 20
83.99999999999989
 30
0.0
 11
73.0
 21
63.44499999999988
 31
0.0
  0
ARC
  5
4D7D
330
A
100
AcDbEntity
  8
0
  6
Continuous
 62
     9
100
AcDbCircle
 10
65.00000000000011
 20
63.44499999999988
 30
0.0
 40
8.0
100
AcDbArc
 50
309.7918190000024
 51
0.0
  0
LINE
  5
4D7E
330
A
100
AcDbEntity
  8
0
  6
Continuous
 62
     9
100
AcDbLine
 10
148.0
 20
-10.50000000000011
 30
0.0
 11
148.0
 21
80.49999999999988
 31
0.0
  0
ARC
  5
4D7F
330
A
100
AcDbEntity
  8
0
  6
Continuous
 62
     9
100
AcDbCircle
 10
144.5
 20
-10.50000000000011
 30
0.0
 40
3.5
100
AcDbArc
 50
270.0
 51
0.0
  0
LINE
  5
4D80
330
A
100
AcDbEntity
  8
0
  6
Continuous
 62
     9
100
AcDbLine
 10
73.0
 20
-14.00000000000011
 30
0.0
 11
144.5
 21
-14.00000000000011
 31
0.0
  0
LINE
  5
4D81
330
A
100
AcDbEntity
  8
0
  6
Continuous
 62
     9
100
AcDbLine
 10
73.0
 20
6.554999999999893
 30
0.0
 11
73.0
 21
-14.00000000000011
 31
0.0
  0
ARC
  5
4D82
330
A
100
AcDbEntity
  8
0
  6
Continuous
 62
     9
100
AcDbCircle
 10
65.00000000000011
 20
6.554999999999893
 30
0.0
 40
8.0
100
AcDbArc
 50
0.0
 51
50.20818099999762
  0
LINE
  5
4D83
330
A
100
AcDbEntity
  8
0
  6
Continuous
 62
     9
100
AcDbLine
 10
70.12000000000012
 20
12.70199899999989
 30
0.0
 11
70.12000000000012
 21
57.29800099999988
 31
0.0
  0
LINE
  5
4D84
330
A
100
AcDbEntity
  8
0
  6
Continuous
 62
     9
100
AcDbLine
 10
148.0
 20
-10.50000000000011
 30
0.0
 11
149.0
 21
-10.50000000000011
 31
0.0
  0
LINE
  5
4D85
330
A
100
AcDbEntity
  8
0
  6
Continuous
 62
     7
100
AcDbLine
 10
149.0
 20
80.49999999999988
 30
0.0
 11
149.0
 21
-10.50000000000011
 31
0.0
  0
ARC
  5
4D86
330
A
100
AcDbEntity
  8
0
  6
Continuous
 62
     7
100
AcDbCircle
 10
81.15067799999996
 20
81.31255799999991
 30
0.0
 40
26.426782
100
AcDbArc
 50
237.6246670000002
 51
245.3291209999993
  0
ARC
  5
4D87
330
A
100
AcDbEntity
  8
0
  6
Continuous
 62
     7
100
AcDbCircle
 10
69.0
 20
58.9728639999999
 30
0.0
 40
2.0
100
AcDbArc
 50
131.8103149999994
 51
179.4061309999994
  0
ARC
  5
4D88
330
A
100
AcDbEntity
  8
0
  6
Continuous
 62
     7
100
AcDbCircle
 10
65.00000000000011
 20
63.44499999999988
 30
0.0
 40
4.0
100
AcDbArc
 50
311.8103149999994
 51
0.0
  0
ARC
  5
4D89
330
A
100
AcDbEntity
  8
0
  6
Continuous
 62
     7
100
AcDbCircle
 10
81.15067799999996
 20
-11.31255800000011
 30
0.0
 40
26.426782
100
AcDbArc
 50
114.6708790000006
 51
122.3753329999998
  0
LINE
  5
4D8A
330
A
100
AcDbEntity
  8
0
  6
Continuous
 62
     7
100
AcDbLine
 10
67.00000000000011
 20
11.02713599999987
 30
0.0
 11
67.00010699999996
 21
11.00640599999988
 31
0.0
  0
LINE
  5
4D8B
330
A
100
AcDbEntity
  8
0
  6
Continuous
 62
     7
100
AcDbLine
 10
67.00000000000011
 20
11.02713599999987
 30
0.0
 11
67.00000000000011
 21
58.9728639999999
 31
0.0
  0
LINE
  5
4D8C
330
A
100
AcDbEntity
  8
0
  6
Continuous
 62
     7
100
AcDbLine
 10
67.00010699999996
 20
58.99359399999986
 30
0.0
 11
67.00000000000011
 21
58.9728639999999
 31
0.0
  0
LINE
  5
4D8D
330
A
100
AcDbEntity
  8
0
  6
Continuous
 62
     9
100
AcDbLine
 10
73.0
 20
6.554999999999893
 30
0.0
 11
69.0
 21
6.554999999999893
 31
0.0
  0
ARC
  5
4D8E
330
A
100
AcDbEntity
  8
0
  6
Continuous
 62
     7
100
AcDbCircle
 10
65.00000000000011
 20
6.554999999999893
 30
0.0
 40
4.0
100
AcDbArc
 50
0.0
 51
48.18968500000053
  0
ARC
  5
4D8F
330
A
100
AcDbEntity
  8
0
  6
Continuous
 62
     7
100
AcDbCircle
 10
69.0
 20
11.02713599999987
 30
0.0
 40
2.0
100
AcDbArc
 50
180.5938690000005
 51
228.1896850000006
  0
LINE
  5
4D90
330
A
100
AcDbEntity
  8
0
  6
Continuous
 62
     9
100
AcDbLine
 10
69.0
 20
-14.00000000000011
 30
0.0
 11
73.0
 21
-14.00000000000011
 31
0.0
  0
LINE
  5
4D91
330
A
100
AcDbEntity
  8
0
  6
Continuous
 62
     7
100
AcDbLine
 10
69.0
 20
-14.00000000000011
 30
0.0
 11
69.0
 21
6.554999999999893
 31
0.0
  0
ARC
  5
4D92
330
A
100
AcDbEntity
  8
0
  6
Continuous
 62
     7
100
AcDbCircle
 10
144.5
 20
-10.50000000000011
 30
0.0
 40
4.5
100
AcDbArc
 50
270.0
 51
0.0
  0
LINE
  5
4D93
330
A
100
AcDbEntity
  8
0
  6
Continuous
 62
     9
100
AcDbLine
 10
144.5
 20
-15.00000000000011
 30
0.0
 11
144.5
 21
-14.00000000000011
 31
0.0
  0
LINE
  5
4D94
330
A
100
AcDbEntity
  8
0
  6
Continuous
 62
     7
100
AcDbLine
 10
73.0
 20
-15.00000000000011
 30
0.0
 11
70.0
 21
-15.00000000000011
 31
0.0
  0
ARC
  5
4D95
330
A
100
AcDbEntity
  8
0
  6
Continuous
 62
     7
100
AcDbCircle
 10
70.0
 20
-14.00000000000011
 30
0.0
 40
1.0
100
AcDbArc
 50
180.0
 51
270.0
  0
LINE
  5
4D96
330
A
100
AcDbEntity
  8
0
  6
Continuous
 62
     9
100
AcDbLine
 10
73.0
 20
-14.00000000000011
 30
0.0
 11
73.0
 21
-15.00000000000011
 31
0.0
  0
LINE
  5
4D97
330
A
100
AcDbEntity
  8
0
  6
Continuous
 62
     7
100
AcDbLine
 10
144.5
 20
-15.00000000000011
 30
0.0
 11
73.0
 21
-15.00000000000011
 31
0.0
  0
LINE
  5
4D98
330
A
100
AcDbEntity
  8
0
  6
Continuous
 62
     9
100
AcDbLine
 10
51.0
 20
41.09999999999991
 30
0.0
 11
51.0
 21
58.99999999999988
 31
0.0
  0
LINE
  5
4D99
330
A
100
AcDbEntity
  8
0
  6
Continuous
 62
     7
100
AcDbLine
 10
51.0
 20
41.09999999999991
 30
0.0
 11
40.00000000000011
 21
41.09999999999991
 31
0.0
  0
LINE
  5
4D9A
330
A
100
AcDbEntity
  8
0
  6
Continuous
 62
     7
100
AcDbLine
 10
51.0
 20
58.99999999999988
 30
0.0
 11
40.00000000000011
 21
58.99999999999988
 31
0.0
  0
ARC
  5
4D9B
330
A
100
AcDbEntity
  8
0
  6
Continuous
 62
     7
100
AcDbCircle
 10
56.79999999999996
 20
29.09999999999991
 30
0.0
 40
0.2
100
AcDbArc
 50
270.0
 51
0.0
  0
ARC
  5
4D9C
330
A
100
AcDbEntity
  8
0
  6
Continuous
 62
     7
100
AcDbCircle
 10
56.79999999999996
 20
40.89999999999986
 30
0.0
 40
0.2
100
AcDbArc
 50
29.99920499999861
 51
90.0
  0
LINE
  5
4D9D
330
A
100
AcDbEntity
  8
0
  6
Continuous
 62
     7
100
AcDbLine
 10
56.79999999999996
 20
41.09999999999991
 30
0.0
 11
51.0
 21
41.09999999999991
 31
0.0
  0
LINE
  5
4D9E
330
A
100
AcDbEntity
  8
0
  6
Continuous
 62
     7
100
AcDbLine
 10
67.00000000000011
 20
10.99999999999988
 30
0.0
 11
67.00000000000011
 21
11.01677099999989
 31
0.0
  0
LINE
  5
4D9F
330
A
100
AcDbEntity
  8
0
  6
Continuous
 62
     7
100
AcDbLine
 10
67.00000000000011
 20
11.01677099999989
 30
0.0
 11
67.00000000000011
 21
11.02713599999987
 31
0.0
  0
LINE
  5
4DA0
330
A
100
AcDbEntity
  8
0
  6
Continuous
 62
     7
100
AcDbLine
 10
67.00000000000011
 20
58.9728639999999
 30
0.0
 11
67.00000000000011
 21
58.98322899999988
 31
0.0
  0
LINE
  5
4DA1
330
A
100
AcDbEntity
  8
0
  6
Continuous
 62
     7
100
AcDbLine
 10
67.00000000000011
 20
58.98322899999988
 30
0.0
 11
67.00000000000011
 21
58.99999999999988
 31
0.0
  0
LINE
  5
4DA2
330
A
100
AcDbEntity
  8
0
  6
Continuous
 62
     7
100
AcDbLine
 10
67.00000000000011
 20
10.99999999999988
 30
0.0
 11
51.0
 21
10.99999999999988
 31
0.0
  0
LINE
  5
4DA3
330
A
100
AcDbEntity
  8
0
  6
Continuous
 62
     9
100
AcDbLine
 10
51.0
 20
10.99999999999988
 30
0.0
 11
51.0
 21
28.89999999999986
 31
0.0
  0
LINE
  5
4DA4
330
A
100
AcDbEntity
  8
0
  6
Continuous
 62
     7
100
AcDbLine
 10
51.0
 20
28.89999999999986
 30
0.0
 11
56.79999999999996
 21
28.89999999999986
 31
0.0
  0
LINE
  5
4DA5
330
A
100
AcDbEntity
  8
0
  6
Continuous
 62
     7
100
AcDbLine
 10
67.00000000000011
 20
58.99999999999988
 30
0.0
 11
51.0
 21
58.99999999999988
 31
0.0
  0
LINE
  5
4DA6
330
A
100
AcDbEntity
  8
0
  6
Continuous
 62
     7
100
AcDbLine
 10
40.00000000000011
 20
28.89999999999986
 30
0.0
 11
51.0
 21
28.89999999999986
 31
0.0
  0
LINE
  5
4DA7
330
A
100
AcDbEntity
  8
0
  6
Continuous
 62
     7
100
AcDbLine
 10
51.0
 20
10.99999999999988
 30
0.0
 11
40.00000000000011
 21
10.99999999999988
 31
0.0
  0
LINE
  5
4DA8
330
A
100
AcDbEntity
  8
0
  6
Continuous
 62
     7
100
AcDbLine
 10
-12.49999999999988
 20
-15.00000000000011
 30
0.0
 11
-12.6500000000002
 21
-15.00000000000011
 31
0.0
  0
ARC
  5
4DA9
330
A
100
AcDbEntity
  8
0
  6
Continuous
 62
     7
100
AcDbCircle
 10
-12.6500000000002
 20
-10.50000000000011
 30
0.0
 40
4.5
100
AcDbArc
 50
180.0
 51
270.0
  0
LINE
  5
4DAA
330
A
100
AcDbEntity
  8
0
  6
Continuous
 62
     7
100
AcDbLine
 10
-17.1500000000002
 20
-10.50000000000011
 30
0.0
 11
-17.1500000000002
 21
80.49999999999988
 31
0.0
  0
ARC
  5
4DAB
330
A
100
AcDbEntity
  8
0
  6
Continuous
 62
     7
100
AcDbCircle
 10
-12.6500000000002
 20
80.49999999999988
 30
0.0
 40
4.5
100
AcDbArc
 50
90.0
 51
180.0
  0
LINE
  5
4DAC
330
A
100
AcDbEntity
  8
0
  6
Continuous
 62
     7
100
AcDbLine
 10
-12.6500000000002
 20
84.99999999999989
 30
0.0
 11
-12.49999999999988
 21
84.99999999999989
 31
0.0
  0
LINE
  5
4DAD
330
A
100
AcDbEntity
  8
0
  6
Continuous
 62
     7
100
AcDbLine
 10
36.02499999999998
 20
40.49999999999989
 30
0.0
 11
36.65379999999982
 21
40.49999999999989
 31
0.0
  0
LINE
  5
4DAE
330
A
100
AcDbEntity
  8
0
  6
Continuous
 62
     7
100
AcDbLine
 10
36.65379999999982
 20
40.19999999999988
 30
0.0
 11
36.02499999999998
 21
40.19999999999988
 31
0.0
  0
LINE
  5
4DAF
330
A
100
AcDbEntity
  8
0
  6
Continuous
 62
     7
100
AcDbLine
 10
36.02499999999998
 20
29.7999999999999
 30
0.0
 11
36.65379999999982
 21
29.7999999999999
 31
0.0
  0
LINE
  5
4DB0
330
A
100
AcDbEntity
  8
0
  6
Continuous
 62
     7
100
AcDbLine
 10
36.65379999999982
 20
29.49999999999988
 30
0.0
 11
36.02499999999998
 21
29.49999999999988
 31
0.0
  0
LINE
  5
4DB1
330
A
100
AcDbEntity
  8
0
  6
Continuous
 62
     9
100
AcDbLine
 10
58.25
 20
59.44999999999987
 30
0.0
 11
41.74999999999966
 21
59.44999999999987
 31
0.0
  0
LINE
  5
4DB2
330
A
100
AcDbEntity
  8
0
  6
Continuous
 62
     7
100
AcDbLine
 10
57.64999999999997
 20
60.0499999999999
 30
0.0
 11
42.34999999999991
 21
60.0499999999999
 31
0.0
  0
LINE
  5
4DB3
330
A
100
AcDbEntity
  8
0
  6
Continuous
 62
     7
100
AcDbLine
 10
54.84999999999991
 20
60.0499999999999
 30
0.0
 11
50.69043800000009
 21
60.0499999999999
 31
0.0
  0
LINE
  5
4DB4
330
A
100
AcDbEntity
  8
0
  6
Continuous
 62
     7
100
AcDbLine
 10
49.17317699999967
 20
60.0499999999999
 30
0.0
 11
47.52368999999965
 21
60.0499999999999
 31
0.0
  0
LINE
  5
4DB5
330
A
100
AcDbEntity
  8
0
  6
Continuous
 62
     7
100
AcDbLine
 10
47.52368999999965
 20
60.0499999999999
 30
0.0
 11
45.14999999999997
 21
60.0499999999999
 31
0.0
  0
LINE
  5
4DB6
330
A
100
AcDbEntity
  8
0
  6
Continuous
 62
     7
100
AcDbLine
 10
36.02499999999998
 20
41.99999999999988
 30
0.0
 11
36.02499999999998
 21
27.99999999999989
 31
0.0
  0
LINE
  5
4DB7
330
A
100
AcDbEntity
  8
0
  6
Continuous
 62
     7
100
AcDbLine
 10
45.29999999999995
 20
28.94999999999988
 30
0.0
 11
54.6999999999997
 21
28.94999999999988
 31
0.0
  0
LINE
  5
4DB8
330
A
100
AcDbEntity
  8
0
  6
Continuous
 62
     7
100
AcDbLine
 10
54.6999999999997
 20
41.04999999999989
 30
0.0
 11
45.29999999999995
 21
41.04999999999989
 31
0.0
  0
ARC
  5
4DB9
330
A
100
AcDbEntity
  8
0
  6
Continuous
 62
     9
100
AcDbCircle
 10
-12.49999999999988
 20
80.49999999999988
 30
0.0
 40
3.5
100
AcDbArc
 50
90.0
 51
180.0
  0
LINE
  5
4DBA
330
A
100
AcDbEntity
  8
0
  6
Continuous
 62
     9
100
AcDbLine
 10
-15.99999999999988
 20
80.49999999999988
 30
0.0
 11
-16.99999999999988
 21
80.49999999999988
 31
0.0
  0
ARC
  5
4DBB
330
A
100
AcDbEntity
  8
0
  6
Continuous
 62
     7
100
AcDbCircle
 10
-12.49999999999988
 20
80.49999999999988
 30
0.0
 40
4.5
100
AcDbArc
 50
90.0
 51
180.0
  0
LINE
  5
4DBC
330
A
100
AcDbEntity
  8
0
  6
Continuous
 62
     9
100
AcDbLine
 10
-12.49999999999988
 20
83.99999999999989
 30
0.0
 11
-12.49999999999988
 21
84.99999999999989
 31
0.0
  0
LINE
  5
4DBD
330
A
100
AcDbEntity
  8
0
  6
Continuous
 62
     9
100
AcDbLine
 10
59.00000000000011
 20
83.99999999999989
 30
0.0
 11
-12.49999999999988
 21
83.99999999999989
 31
0.0
  0
LINE
  5
4DBE
330
A
100
AcDbEntity
  8
0
  6
Continuous
 62
     7
100
AcDbLine
 10
-12.49999999999988
 20
84.99999999999989
 30
0.0
 11
59.00000000000011
 21
84.99999999999989
 31
0.0
  0
LINE
  5
4DBF
330
A
100
AcDbEntity
  8
0
  6
Continuous
 62
     9
100
AcDbLine
 10
59.00000000000011
 20
83.99999999999989
 30
0.0
 11
59.00000000000011
 21
84.99999999999989
 31
0.0
  0
LINE
  5
4DC0
330
A
100
AcDbEntity
  8
0
  6
Continuous
 62
     9
100
AcDbLine
 10
63.0
 20
83.99999999999989
 30
0.0
 11
59.00000000000011
 21
83.99999999999989
 31
0.0
  0
LINE
  5
4DC1
330
A
100
AcDbEntity
  8
0
  6
Continuous
 62
     7
100
AcDbLine
 10
59.00000000000011
 20
84.99999999999989
 30
0.0
 11
62.0
 21
84.99999999999989
 31
0.0
  0
ARC
  5
4DC2
330
A
100
AcDbEntity
  8
0
  6
Continuous
 62
     7
100
AcDbCircle
 10
62.0
 20
83.99999999999989
 30
0.0
 40
1.0
100
AcDbArc
 50
0.0
 51
90.0
  0
LINE
  5
4DC3
330
A
100
AcDbEntity
  8
0
  6
Continuous
 62
     7
100
AcDbLine
 10
63.0
 20
60.2999999999999
 30
0.0
 11
59.00000000000011
 21
60.2999999999999
 31
0.0
  0
LINE
  5
4DC4
330
A
100
AcDbEntity
  8
0
  6
Continuous
 62
     9
100
AcDbLine
 10
59.00000000000011
 20
60.2999999999999
 30
0.0
 11
59.00000000000011
 21
83.99999999999989
 31
0.0
  0
LINE
  5
4DC5
330
A
100
AcDbEntity
  8
0
  6
Continuous
 62
     7
100
AcDbLine
 10
63.0
 20
83.99999999999989
 30
0.0
 11
63.0
 21
60.2999999999999
 31
0.0
  0
LINE
  5
4DC6
330
A
100
AcDbEntity
  8
0
  6
Continuous
 62
     7
100
AcDbLine
 10
38.5
 20
60.2999999999999
 30
0.0
 11
59.00000000000011
 21
60.2999999999999
 31
0.0
  0
LINE
  5
4DC7
330
A
100
AcDbEntity
  8
0
  6
Continuous
 62
     7
100
AcDbLine
 10
38.5
 20
41.99999999999988
 30
0.0
 11
38.5
 21
60.2999999999999
 31
0.0
  0
LINE
  5
4DC8
330
A
100
AcDbEntity
  8
0
  6
Continuous
 62
     7
100
AcDbLine
 10
32.00000000000012
 20
41.99999999999988
 30
0.0
 11
38.5
 21
41.99999999999988
 31
0.0
  0
LINE
  5
4DC9
330
A
100
AcDbEntity
  8
0
  6
Continuous
 62
     7
100
AcDbLine
 10
32.00000000000012
 20
27.99999999999989
 30
0.0
 11
32.00000000000012
 21
41.99999999999988
 31
0.0
  0
LINE
  5
4DCA
330
A
100
AcDbEntity
  8
0
  6
Continuous
 62
     7
100
AcDbLine
 10
38.5
 20
27.99999999999989
 30
0.0
 11
32.00000000000012
 21
27.99999999999989
 31
0.0
  0
LINE
  5
4DCB
330
A
100
AcDbEntity
  8
0
  6
Continuous
 62
     7
100
AcDbLine
 10
38.5
 20
9.699999999999874
 30
0.0
 11
38.5
 21
27.99999999999989
 31
0.0
  0
LINE
  5
4DCC
330
A
100
AcDbEntity
  8
0
  6
Continuous
 62
     7
100
AcDbLine
 10
59.00000000000011
 20
9.699999999999874
 30
0.0
 11
38.5
 21
9.699999999999874
 31
0.0
  0
LINE
  5
4DCD
330
A
100
AcDbEntity
  8
0
  6
Continuous
 62
     9
100
AcDbLine
 10
59.00000000000011
 20
-14.00000000000011
 30
0.0
 11
59.00000000000011
 21
9.699999999999874
 31
0.0
  0
LINE
  5
4DCE
330
A
100
AcDbEntity
  8
0
  6
Continuous
 62
     9
100
AcDbLine
 10
-12.49999999999988
 20
-14.00000000000011
 30
0.0
 11
59.00000000000011
 21
-14.00000000000011
 31
0.0
  0
ARC
  5
4DCF
330
A
100
AcDbEntity
  8
0
  6
Continuous
 62
     9
100
AcDbCircle
 10
-12.49999999999988
 20
-10.50000000000011
 30
0.0
 40
3.5
100
AcDbArc
 50
180.0
 51
270.0
  0
LINE
  5
4DD0
330
A
100
AcDbEntity
  8
0
  6
Continuous
 62
     9
100
AcDbLine
 10
-15.99999999999988
 20
80.49999999999988
 30
0.0
 11
-15.99999999999988
 21
-10.50000000000011
 31
0.0
  0
LINE
  5
4DD1
330
A
100
AcDbEntity
  8
0
  6
Continuous
 62
     9
100
AcDbLine
 10
-16.99999999999988
 20
-10.50000000000011
 30
0.0
 11
-15.99999999999988
 21
-10.50000000000011
 31
0.0
  0
LINE
  5
4DD2
330
A
100
AcDbEntity
  8
0
  6
Continuous
 62
     7
100
AcDbLine
 10
-16.99999999999988
 20
-10.50000000000011
 30
0.0
 11
-16.99999999999988
 21
80.49999999999988
 31
0.0
  0
LINE
  5
4DD3
330
A
100
AcDbEntity
  8
0
  6
Continuous
 62
     7
100
AcDbLine
 10
63.0
 20
9.699999999999874
 30
0.0
 11
63.0
 21
-14.00000000000011
 31
0.0
  0
LINE
  5
4DD4
330
A
100
AcDbEntity
  8
0
  6
Continuous
 62
     9
100
AcDbLine
 10
59.00000000000011
 20
-14.00000000000011
 30
0.0
 11
63.0
 21
-14.00000000000011
 31
0.0
  0
LINE
  5
4DD5
330
A
100
AcDbEntity
  8
0
  6
Continuous
 62
     7
100
AcDbLine
 10
59.00000000000011
 20
9.699999999999874
 30
0.0
 11
63.0
 21
9.699999999999874
 31
0.0
  0
ARC
  5
4DD6
330
A
100
AcDbEntity
  8
0
  6
Continuous
 62
     7
100
AcDbCircle
 10
-12.49999999999988
 20
-10.50000000000011
 30
0.0
 40
4.5
100
AcDbArc
 50
180.0
 51
270.0
  0
LINE
  5
4DD7
330
A
100
AcDbEntity
  8
0
  6
Continuous
 62
     9
100
AcDbLine
 10
-12.49999999999988
 20
-15.00000000000011
 30
0.0
 11
-12.49999999999988
 21
-14.00000000000011
 31
0.0
  0
LINE
  5
4DD8
330
A
100
AcDbEntity
  8
0
  6
Continuous
 62
     7
100
AcDbLine
 10
59.00000000000011
 20
-15.00000000000011
 30
0.0
 11
-12.49999999999988
 21
-15.00000000000011
 31
0.0
  0
LINE
  5
4DD9
330
A
100
AcDbEntity
  8
0
  6
Continuous
 62
     9
100
AcDbLine
 10
59.00000000000011
 20
-15.00000000000011
 30
0.0
 11
59.00000000000011
 21
-14.00000000000011
 31
0.0
  0
LINE
  5
4DDA
330
A
100
AcDbEntity
  8
0
  6
Continuous
 62
     7
100
AcDbLine
 10
62.0
 20
-15.00000000000011
 30
0.0
 11
59.00000000000011
 21
-15.00000000000011
 31
0.0
  0
ARC
  5
4DDB
330
A
100
AcDbEntity
  8
0
  6
Continuous
 62
     7
100
AcDbCircle
 10
62.0
 20
-14.00000000000011
 30
0.0
 40
1.0
100
AcDbArc
 50
270.0
 51
0.0
  0
LINE
  5
4DDC
330
A
100
AcDbEntity
  8
0
  6
Continuous
 62
     9
100
AcDbLine
 10
41.74999999999966
 20
10.54999999999989
 30
0.0
 11
41.77784399999995
 21
10.54999999999989
 31
0.0
  0
LINE
  5
4DDD
330
A
100
AcDbEntity
  8
0
  6
Continuous
 62
     9
100
AcDbLine
 10
41.77784399999995
 20
10.54999999999989
 30
0.0
 11
58.25
 21
10.54999999999989
 31
0.0
  0
LINE
  5
4DDE
330
A
100
AcDbEntity
  8
0
  6
Continuous
 62
     7
100
AcDbLine
 10
42.34999999999991
 20
9.949999999999874
 30
0.0
 11
42.37581899999963
 21
9.949999999999874
 31
0.0
  0
LINE
  5
4DDF
330
A
100
AcDbEntity
  8
0
  6
Continuous
 62
     7
100
AcDbLine
 10
42.37581899999963
 20
9.949999999999874
 30
0.0
 11
57.64999999999997
 21
9.949999999999874
 31
0.0
  0
LINE
  5
4DE0
330
A
100
AcDbEntity
  8
0
  6
Continuous
 62
     7
100
AcDbLine
 10
45.14999999999997
 20
9.949999999999874
 30
0.0
 11
45.1663689999998
 21
9.949999999999874
 31
0.0
  0
LINE
  5
4DE1
330
A
100
AcDbEntity
  8
0
  6
Continuous
 62
     7
100
AcDbLine
 10
45.1663689999998
 20
9.949999999999874
 30
0.0
 11
48.63947200000007
 21
9.949999999999874
 31
0.0
  0
LINE
  5
4DE2
330
A
100
AcDbEntity
  8
0
  6
Continuous
 62
     7
100
AcDbLine
 10
51.39440199999967
 20
9.949999999999874
 30
0.0
 11
54.84999999999991
 21
9.949999999999874
 31
0.0
  0
LINE
  5
4DE3
330
A
100
AcDbEntity
  8
0
  6
Continuous
 62
     9
100
AcDbLine
 10
51.78790700000002
 20
28.99999999999989
 30
0.0
 11
51.78790700000002
 21
40.99999999999988
 31
0.0
  0
LINE
  5
4DE4
330
A
100
AcDbEntity
  8
0
  6
Continuous
 62
     7
100
AcDbLine
 10
51.78790700000002
 20
40.99999999999988
 30
0.0
 11
52.58689600000014
 21
40.99999999999988
 31
0.0
  0
LINE
  5
4DE5
330
A
100
AcDbEntity
  8
0
  6
Continuous
 62
     9
100
AcDbLine
 10
52.58689600000014
 20
40.99999999999988
 30
0.0
 11
52.58689600000014
 21
28.99999999999989
 31
0.0
  0
LINE
  5
4DE6
330
A
100
AcDbEntity
  8
0
  6
Continuous
 62
     7
100
AcDbLine
 10
52.58689600000014
 20
28.99999999999989
 30
0.0
 11
51.78790700000002
 21
28.99999999999989
 31
0.0
  0
LINE
  5
4DE7
330
A
100
AcDbEntity
  8
0
  6
Continuous
 62
     7
100
AcDbLine
 10
58.50429999999994
 20
40.99999999999988
 30
0.0
 11
58.50429999999994
 21
28.99999999999989
 31
0.0
  0
LINE
  5
4DE8
330
A
100
AcDbEntity
  8
0
  6
Continuous
 62
     7
100
AcDbLine
 10
52.58689600000014
 20
28.99999999999989
 30
0.0
 11
58.50429999999994
 21
28.99999999999989
 31
0.0
  0
LINE
  5
4DE9
330
A
100
AcDbEntity
  8
0
  6
Continuous
 62
     7
100
AcDbLine
 10
52.58689600000014
 20
40.99999999999988
 30
0.0
 11
58.50429999999994
 21
40.99999999999988
 31
0.0
  0
LINE
  5
4DEA
330
A
100
AcDbEntity
  8
0
  6
Continuous
 62
     9
100
AcDbLine
 10
47.22448699999961
 20
28.99999999999989
 30
0.0
 11
47.22448699999961
 21
40.99999999999988
 31
0.0
  0
LINE
  5
4DEB
330
A
100
AcDbEntity
  8
0
  6
Continuous
 62
     9
100
AcDbLine
 10
48.4468439999996
 20
40.99999999999988
 30
0.0
 11
48.4468439999996
 21
28.99999999999989
 31
0.0
  0
LINE
  5
4DEC
330
A
100
AcDbEntity
  8
0
  6
Continuous
 62
     7
100
AcDbLine
 10
48.4468439999996
 20
28.99999999999989
 30
0.0
 11
47.22448699999961
 21
28.99999999999989
 31
0.0
  0
LINE
  5
4DED
330
A
100
AcDbEntity
  8
0
  6
Continuous
 62
     7
100
AcDbLine
 10
47.22448699999961
 20
40.99999999999988
 30
0.0
 11
48.4468439999996
 21
40.99999999999988
 31
0.0
  0
LINE
  5
4DEE
330
A
100
AcDbEntity
  8
0
  6
Continuous
 62
     7
100
AcDbLine
 10
51.78790700000002
 20
28.99999999999989
 30
0.0
 11
48.4468439999996
 21
28.99999999999989
 31
0.0
  0
LINE
  5
4DEF
330
A
100
AcDbEntity
  8
0
  6
Continuous
 62
     7
100
AcDbLine
 10
51.78790700000002
 20
40.99999999999988
 30
0.0
 11
48.4468439999996
 21
40.99999999999988
 31
0.0
  0
LINE
  5
4DF0
330
A
100
AcDbEntity
  8
0
  6
Continuous
 62
     7
100
AcDbLine
 10
36.90999999999997
 20
28.99999999999989
 30
0.0
 11
36.90999999999997
 21
40.99999999999988
 31
0.0
  0
LINE
  5
4DF1
330
A
100
AcDbEntity
  8
0
  6
Continuous
 62
     7
100
AcDbLine
 10
36.90999999999997
 20
28.99999999999989
 30
0.0
 11
47.22448699999961
 21
28.99999999999989
 31
0.0
  0
LINE
  5
4DF2
330
A
100
AcDbEntity
  8
0
  6
Continuous
 62
     7
100
AcDbLine
 10
36.90999999999997
 20
40.99999999999988
 30
0.0
 11
47.22448699999961
 21
40.99999999999988
 31
0.0
  0
LINE
  5
4DF3
330
A
100
AcDbEntity
  8
0
  6
Continuous
 62
     9
100
AcDbLine
 10
36.71455700000013
 20
40.99999999999988
 30
0.0
 11
36.71455700000013
 21
28.99999999999989
 31
0.0
  0
LINE
  5
4DF4
330
A
100
AcDbEntity
  8
0
  6
Continuous
 62
     7
100
AcDbLine
 10
36.71455700000013
 20
28.99999999999989
 30
0.0
 11
36.90999999999997
 21
28.99999999999989
 31
0.0
  0
LINE
  5
4DF5
330
A
100
AcDbEntity
  8
0
  6
Continuous
 62
     7
100
AcDbLine
 10
36.71455700000013
 20
40.99999999999988
 30
0.0
 11
36.90999999999997
 21
40.99999999999988
 31
0.0
  0
LINE
  5
4DF6
330
A
100
AcDbEntity
  8
0
  6
Continuous
 62
     7
100
AcDbLine
 10
36.65379999999982
 20
40.99999999999988
 30
0.0
 11
36.71455700000013
 21
40.99999999999988
 31
0.0
  0
LINE
  5
4DF7
330
A
100
AcDbEntity
  8
0
  6
Continuous
 62
     7
100
AcDbLine
 10
36.71455700000013
 20
28.99999999999989
 30
0.0
 11
36.65379999999982
 21
28.99999999999989
 31
0.0
  0
LINE
  5
4DF8
330
A
100
AcDbEntity
  8
0
  6
Continuous
 62
     7
100
AcDbLine
 10
40.00000000000011
 20
58.99999999999988
 30
0.0
 11
40.00000000000011
 21
41.09999999999991
 31
0.0
  0
LINE
  5
4DF9
330
A
100
AcDbEntity
  8
0
  6
Continuous
 62
     7
100
AcDbLine
 10
40.00000000000011
 20
28.89999999999986
 30
0.0
 11
40.00000000000011
 21
10.99999999999988
 31
0.0
  0
LINE
  5
4DFA
330
A
100
AcDbEntity
  8
0
  6
Continuous
 62
     7
100
AcDbLine
 10
58.25
 20
58.99999999999988
 30
0.0
 11
58.25
 21
59.44999999999987
 31
0.0
  0
LINE
  5
4DFB
330
A
100
AcDbEntity
  8
0
  6
Continuous
 62
     7
100
AcDbLine
 10
41.74999999999966
 20
59.44999999999987
 30
0.0
 11
41.74999999999966
 21
58.99999999999988
 31
0.0
  0
ARC
  5
4DFC
330
A
100
AcDbEntity
  8
0
  6
Continuous
 62
     7
100
AcDbCircle
 10
57.64999999999997
 20
59.44999999999987
 30
0.0
 40
0.6
100
AcDbArc
 50
0.0
 51
90.0
  0
ARC
  5
4DFD
330
A
100
AcDbEntity
  8
0
  6
Continuous
 62
     7
100
AcDbCircle
 10
42.34999999999991
 20
59.44999999999987
 30
0.0
 40
0.6
100
AcDbArc
 50
90.0
 51
180.0
  0
LINE
  5
4DFE
330
A
100
AcDbEntity
  8
0
  6
Continuous
 62
     7
100
AcDbLine
 10
54.75
 20
28.89999999999986
 30
0.0
 11
54.6999999999997
 21
28.94999999999988
 31
0.0
  0
LINE
  5
4DFF
330
A
100
AcDbEntity
  8
0
  6
Continuous
 62
     7
100
AcDbLine
 10
45.29999999999995
 20
28.94999999999988
 30
0.0
 11
45.24999999999965
 21
28.89999999999986
 31
0.0
  0
LINE
  5
4E00
330
A
100
AcDbEntity
  8
0
  6
Continuous
 62
     7
100
AcDbLine
 10
45.24999999999965
 20
41.09999999999991
 30
0.0
 11
45.29999999999995
 21
41.04999999999989
 31
0.0
  0
LINE
  5
4E01
330
A
100
AcDbEntity
  8
0
  6
Continuous
 62
     7
100
AcDbLine
 10
54.6999999999997
 20
41.04999999999989
 30
0.0
 11
54.75
 21
41.09999999999991
 31
0.0
  0
LINE
  5
4E02
330
A
100
AcDbEntity
  8
0
  6
Continuous
 62
     7
100
AcDbLine
 10
54.0
 20
9.699999999999874
 30
0.0
 11
54.0
 21
9.949999999999874
 31
0.0
  0
LINE
  5
4E03
330
A
100
AcDbEntity
  8
0
  6
Continuous
 62
     7
100
AcDbLine
 10
54.0
 20
28.94999999999988
 30
0.0
 11
54.0
 21
28.99999999999989
 31
0.0
  0
LINE
  5
4E04
330
A
100
AcDbEntity
  8
0
  6
Continuous
 62
     7
100
AcDbLine
 10
54.0
 20
40.99999999999988
 30
0.0
 11
54.0
 21
41.04999999999989
 31
0.0
  0
LINE
  5
4E05
330
A
100
AcDbEntity
  8
0
  6
Continuous
 62
     7
100
AcDbLine
 10
54.0
 20
60.0499999999999
 30
0.0
 11
54.0
 21
60.2999999999999
 31
0.0
  0
LINE
  5
4E06
330
A
100
AcDbEntity
  8
0
  6
Continuous
 62
     7
100
AcDbLine
 10
46.0
 20
60.2999999999999
 30
0.0
 11
46.0
 21
60.0499999999999
 31
0.0
  0
LINE
  5
4E07
330
A
100
AcDbEntity
  8
0
  6
Continuous
 62
     7
100
AcDbLine
 10
46.0
 20
41.04999999999989
 30
0.0
 11
46.0
 21
40.99999999999988
 31
0.0
  0
LINE
  5
4E08
330
A
100
AcDbEntity
  8
0
  6
Continuous
 62
     7
100
AcDbLine
 10
46.0
 20
28.99999999999989
 30
0.0
 11
46.0
 21
28.94999999999988
 31
0.0
  0
LINE
  5
4E09
330
A
100
AcDbEntity
  8
0
  6
Continuous
 62
     7
100
AcDbLine
 10
46.0
 20
9.949999999999874
 30
0.0
 11
46.0
 21
9.699999999999874
 31
0.0
  0
LINE
  5
4E0A
330
A
100
AcDbEntity
  8
0
  6
Continuous
 62
     7
100
AcDbLine
 10
41.74999999999966
 20
10.99999999999988
 30
0.0
 11
41.74999999999966
 21
10.54999999999989
 31
0.0
  0
LINE
  5
4E0B
330
A
100
AcDbEntity
  8
0
  6
Continuous
 62
     7
100
AcDbLine
 10
58.25
 20
10.54999999999989
 30
0.0
 11
58.25
 21
10.99999999999988
 31
0.0
  0
ARC
  5
4E0C
330
A
100
AcDbEntity
  8
0
  6
Continuous
 62
     7
100
AcDbCircle
 10
42.34999999999991
 20
10.54999999999989
 30
0.0
 40
0.6
100
AcDbArc
 50
180.0
 51
270.0
  0
ARC
  5
4E0D
330
A
100
AcDbEntity
  8
0
  6
Continuous
 62
     7
100
AcDbCircle
 10
57.64999999999997
 20
10.54999999999989
 30
0.0
 40
0.6
100
AcDbArc
 50
270.0
 51
0.0
  0
LINE
  5
4E0E
330
A
100
AcDbEntity
  8
0
  6
Continuous
 62
     7
100
AcDbLine
 10
36.65379999999982
 20
40.99999999999988
 30
0.0
 11
36.65379999999982
 21
28.99999999999989
 31
0.0
  0
TEXT
  5
709D
330
A
100
AcDbEntity
  8
0
  6
Continuous
 62
     7
370
     0
100
AcDbText
 10
164.2534291361638
 20
125.0073206442166
 30
0.0
 40
10.0
  1
8635
100
AcDbText
  0
ARC
  5
709E
330
A
100
AcDbEntity
  8
0
  6
Continuous
 62
     7
100
AcDbCircle
 10
220.3897237333249
 20
-101.886977443817
 30
0.0
 40
2.419602869326106
100
AcDbArc
 50
285.7500781244421
 51
301.7241210656557
  0
LINE
  5
709F
330
A
100
AcDbEntity
  8
0
  6
Continuous
 62
     7
100
AcDbLine
 10
221.6620230000001
 20
-103.9450670000001
 30
0.0
 11
221.8161359999999
 21
-103.8343290000001
 31
0.0
  0
LINE
  5
70A0
330
A
100
AcDbEntity
  8
0
  6
Continuous
 62
     7
100
AcDbLine
 10
221.8161359999999
 20
-103.8343290000001
 30
0.0
 11
221.938797
 21
-103.7231830000001
 31
0.0
  0
LINE
  5
70A1
330
A
100
AcDbEntity
  8
0
  6
Continuous
 62
     7
100
AcDbLine
 10
221.938797
 20
-103.7231830000001
 30
0.0
 11
222.0361679999999
 21
-103.6127010000001
 31
0.0
  0
LINE
  5
70A2
330
A
100
AcDbEntity
  8
0
  6
Continuous
 62
     7
100
AcDbLine
 10
222.0361679999999
 20
-103.6127010000001
 30
0.0
 11
222.113709
 21
-103.5022000000001
 31
0.0
  0
LINE
  5
70A3
330
A
100
AcDbEntity
  8
0
  6
Continuous
 62
     7
100
AcDbLine
 10
222.113709
 20
-103.5022000000001
 30
0.0
 11
222.165614
 21
-103.4097590000001
 31
0.0
  0
LINE
  5
70A4
330
A
100
AcDbEntity
  8
0
  6
Continuous
 62
     7
100
AcDbLine
 10
244.6035949999998
 20
-58.1990540000001
 30
0.0
 11
244.5963359999999
 21
-58.06723700000012
 31
0.0
  0
LINE
  5
70A5
330
A
100
AcDbEntity
  8
0
  6
Continuous
 62
     7
100
AcDbLine
 10
244.5963359999999
 20
-58.06723700000012
 30
0.0
 11
244.5709960000002
 21
-57.92073900000011
 31
0.0
  0
LINE
  5
70A6
330
A
100
AcDbEntity
  8
0
  6
Continuous
 62
     7
100
AcDbLine
 10
244.5709960000002
 20
-57.92073900000011
 30
0.0
 11
244.5274029999998
 21
-57.77632300000011
 31
0.0
  0
LINE
  5
70A7
330
A
100
AcDbEntity
  8
0
  6
Continuous
 62
     7
100
AcDbLine
 10
244.5274029999998
 20
-57.77632300000011
 30
0.0
 11
244.4647460000001
 21
-57.6336940000001
 31
0.0
  0
LINE
  5
70A8
330
A
100
AcDbEntity
  8
0
  6
Continuous
 62
     7
100
AcDbLine
 10
244.4647460000001
 20
-57.6336940000001
 30
0.0
 11
244.3810720000001
 21
-57.49215700000019
 31
0.0
  0
LINE
  5
70A9
330
A
100
AcDbEntity
  8
0
  6
Continuous
 62
     7
100
AcDbLine
 10
244.3810720000001
 20
-57.49215700000019
 30
0.0
 11
244.272657
 21
-57.35058300000011
 31
0.0
  0
ARC
  5
70AA
330
A
100
AcDbEntity
  8
0
  6
Continuous
 62
     7
100
AcDbCircle
 10
242.2333952892029
 20
-59.40610745890854
 30
0.0
 40
2.895473903576665
100
AcDbArc
 50
45.2275532573246
 51
81.98921671364281
  0
LINE
  5
70AB
330
A
100
AcDbEntity
  8
0
  6
Continuous
 62
     7
100
AcDbLine
 10
242.2464050000001
 20
-136.8009460000001
 30
0.0
 11
242.2536640000001
 21
-136.9327630000001
 31
0.0
  0
LINE
  5
70AC
330
A
100
AcDbEntity
  8
0
  6
Continuous
 62
     7
100
AcDbLine
 10
242.2536640000001
 20
-136.9327630000001
 30
0.0
 11
242.2790039999997
 21
-137.0792610000002
 31
0.0
  0
LINE
  5
70AD
330
A
100
AcDbEntity
  8
0
  6
Continuous
 62
     7
100
AcDbLine
 10
242.2790039999997
 20
-137.0792610000002
 30
0.0
 11
242.3225970000001
 21
-137.2236770000001
 31
0.0
  0
LINE
  5
70AE
330
A
100
AcDbEntity
  8
0
  6
Continuous
 62
     7
100
AcDbLine
 10
242.3225970000001
 20
-137.2236770000001
 30
0.0
 11
242.3852539999998
 21
-137.3663060000001
 31
0.0
  0
LINE
  5
70AF
330
A
100
AcDbEntity
  8
0
  6
Continuous
 62
     7
100
AcDbLine
 10
242.3852539999998
 20
-137.3663060000001
 30
0.0
 11
242.4689279999998
 21
-137.5078430000001
 31
0.0
  0
LINE
  5
70B0
330
A
100
AcDbEntity
  8
0
  6
Continuous
 62
     7
100
AcDbLine
 10
242.4689279999998
 20
-137.5078430000001
 30
0.0
 11
242.5773429999999
 21
-137.6494170000001
 31
0.0
  0
ARC
  5
70B1
330
A
100
AcDbEntity
  8
0
  6
Continuous
 62
     7
100
AcDbCircle
 10
244.616604710797
 20
-135.5938925410917
 30
0.0
 40
2.895473903576683
100
AcDbArc
 50
225.2275532573246
 51
261.9892167136428
  0
ARC
  5
70B2
330
A
100
AcDbEntity
  8
0
  6
Continuous
 62
     7
100
AcDbCircle
 10
239.9846133036469
 20
-80.26480874325802
 30
0.0
 40
2.261895989734425
100
AcDbArc
 50
342.1821136773399
 51
0.5502136482623312
  0
LINE
  5
70B3
330
A
100
AcDbEntity
  8
0
  6
Continuous
 62
     7
100
AcDbLine
 10
242.138015
 20
-80.95693200000011
 30
0.0
 11
242.0650800000001
 21
-81.13688500000012
 31
0.0
  0
ARC
  5
70B4
330
A
100
AcDbEntity
  8
0
  6
Continuous
 62
     7
100
AcDbCircle
 10
240.987428635287
 20
-80.64150829379554
 30
0.0
 40
1.186056720784343
100
AcDbArc
 50
309.759013126637
 51
335.3126196281108
  0
LINE
  5
70B5
330
A
100
AcDbEntity
  8
0
  6
Continuous
 62
     7
100
AcDbLine
 10
242.7938159999999
 20
-64.17398300000013
 30
0.0
 11
242.699905
 21
-64.25602000000012
 31
0.0
  0
LINE
  5
70B6
330
A
100
AcDbEntity
  8
0
  6
Continuous
 62
     7
100
AcDbLine
 10
242.699905
 20
-64.25602000000012
 30
0.0
 11
242.62626
 21
-64.3292310000001
 31
0.0
  0
LINE
  5
70B7
330
A
100
AcDbEntity
  8
0
  6
Continuous
 62
     7
100
AcDbLine
 10
242.62626
 20
-64.3292310000001
 30
0.0
 11
242.561682
 21
-64.40176700000012
 31
0.0
  0
LINE
  5
70B8
330
A
100
AcDbEntity
  8
0
  6
Continuous
 62
     7
100
AcDbLine
 10
242.561682
 20
-64.40176700000012
 30
0.0
 11
242.5051529999998
 21
-64.47360000000012
 31
0.0
  0
LINE
  5
70B9
330
A
100
AcDbEntity
  8
0
  6
Continuous
 62
     7
100
AcDbLine
 10
242.5051529999998
 20
-64.47360000000012
 30
0.0
 11
242.455743
 21
-64.5448410000001
 31
0.0
  0
LINE
  5
70BA
330
A
100
AcDbEntity
  8
0
  6
Continuous
 62
     7
100
AcDbLine
 10
242.455743
 20
-64.5448410000001
 30
0.0
 11
242.412681
 21
-64.61564300000012
 31
0.0
  0
LINE
  5
70BB
330
A
100
AcDbEntity
  8
0
  6
Continuous
 62
     7
100
AcDbLine
 10
242.412681
 20
-64.61564300000012
 30
0.0
 11
242.375364
 21
-64.68615600000013
 31
0.0
  0
LINE
  5
70BC
330
A
100
AcDbEntity
  8
0
  6
Continuous
 62
     7
100
AcDbLine
 10
242.375364
 20
-64.68615600000013
 30
0.0
 11
242.343325
 21
-64.75650600000012
 31
0.0
  0
LINE
  5
70BD
330
A
100
AcDbEntity
  8
0
  6
Continuous
 62
     7
100
AcDbLine
 10
242.343325
 20
-64.75650600000012
 30
0.0
 11
242.3135890000001
 21
-64.83432200000009
 31
0.0
  0
LINE
  5
70BE
330
A
100
AcDbEntity
  8
0
  6
Continuous
 62
     7
100
AcDbLine
 10
242.3135890000001
 20
-64.83432200000009
 30
0.0
 11
242.2896880000001
 21
-64.91162700000012
 31
0.0
  0
LINE
  5
70BF
330
A
100
AcDbEntity
  8
0
  6
Continuous
 62
     7
100
AcDbLine
 10
242.2896880000001
 20
-64.91162700000012
 30
0.0
 11
242.2713039999999
 21
-64.98830000000012
 31
0.0
  0
LINE
  5
70C0
330
A
100
AcDbEntity
  8
0
  6
Continuous
 62
     7
100
AcDbLine
 10
242.2713039999999
 20
-64.98830000000012
 30
0.0
 11
242.2581269999998
 21
-65.06441100000012
 31
0.0
  0
LINE
  5
70C1
330
A
100
AcDbEntity
  8
0
  6
Continuous
 62
     7
100
AcDbLine
 10
242.2581269999998
 20
-65.06441100000012
 30
0.0
 11
242.249924
 21
-65.1399970000001
 31
0.0
  0
LINE
  5
70C2
330
A
100
AcDbEntity
  8
0
  6
Continuous
 62
     7
100
AcDbLine
 10
242.249924
 20
-65.1399970000001
 30
0.0
 11
242.246523
 21
-65.2150730000001
 31
0.0
  0
LINE
  5
70C3
330
A
100
AcDbEntity
  8
0
  6
Continuous
 62
     7
100
AcDbLine
 10
242.246523
 20
-65.2150730000001
 30
0.0
 11
242.2464050000001
 21
-65.23186500000011
 31
0.0
  0
LINE
  5
7814
330
A
100
AcDbEntity
  8
0
  6
CENTER
 62
     1
100
AcDbLine
 10
63.0
 20
73.49999999999977
 30
0.0
 11
12.35920709430775
 21
73.49999999999977
 31
0.0
  0
LINE
  5
7815
330
A
100
AcDbEntity
  8
0
  6
CENTER
 62
     1
100
AcDbLine
 10
-10.0
 20
0.0
 30
0.0
 11
-10.0
 21
70.0
 31
0.0
  0
LINE
  5
7816
330
A
100
AcDbEntity
  8
0
  6
CENTER
 62
     1
100
AcDbLine
 10
-15.0
 20
70.0
 30
0.0
 11
15.0
 21
70.0
 31
0.0
  0
LINE
  5
7817
330
A
100
AcDbEntity
  8
0
  6
CENTER
 62
     1
100
AcDbLine
 10
0.0
 20
55.0
 30
0.0
 11
0.0
 21
84.99999999999976
 31
0.0
  0
LINE
  5
7818
330
A
100
AcDbEntity
  8
0
  6
CENTER
 62
     1
100
AcDbLine
 10
-15.0
 20
0.0
 30
0.0
 11
15.0
 21
0.0
 31
0.0
  0
LINE
  5
7819
330
A
100
AcDbEntity
  8
0
  6
CENTER
 62
     1
100
AcDbLine
 10
0.0
 20
-15.00000000000023
 30
0.0
 11
0.0
 21
14.99999999999977
 31
0.0
  0
ARC
  5
781A
330
A
100
AcDbEntity
  8
0
  6
CENTER
 62
     1
100
AcDbCircle
 10
0.0
 20
70.0
 30
0.0
 40
10.0
100
AcDbArc
 50
34.51810784106724
 51
180.0
  0
ARC
  5
781B
330
A
100
AcDbEntity
  8
0
  6
CENTER
 62
     1
100
AcDbCircle
 10
12.35920709430775
 20
78.49999999999977
 30
0.0
 40
5.0
100
AcDbArc
 50
214.5181078410672
 51
270.0
  0
LINE
  5
781C
330
A
100
AcDbEntity
  8
0
  6
CENTER
 62
     1
100
AcDbLine
 10
63.0
 20
-3.5
 30
0.0
 11
12.35920709430775
 21
-3.5
 31
0.0
  0
ARC
  5
781D
330
A
100
AcDbEntity
  8
0
  6
CENTER
 62
     1
100
AcDbCircle
 10
12.35920709430775
 20
-8.5
 30
0.0
 40
5.0
100
AcDbArc
 50
90.0
 51
145.4818921589327
  0
ARC
  5
781E
330
A
100
AcDbEntity
  8
0
  6
CENTER
 62
     1
100
AcDbCircle
 10
0.0
 20
0.0
 30
0.0
 40
10.0
100
AcDbArc
 50
180.0
 51
325.4818921589328
  0
LINE
  5
782F
330
A
100
AcDbEntity
  8
0
  6
CENTER
 62
     1
100
AcDbLine
 10
69.0
 20
73.49999999999977
 30
0.0
 11
119.6407929056922
 21
73.49999999999977
 31
0.0
  0
LINE
  5
7830
330
A
100
AcDbEntity
  8
0
  6
CENTER
 62
     1
100
AcDbLine
 10
142.0
 20
0.0
 30
0.0
 11
142.0
 21
70.0
 31
0.0
  0
LINE
  5
7831
330
A
100
AcDbEntity
  8
0
  6
CENTER
 62
     1
100
AcDbLine
 10
147.0
 20
70.0
 30
0.0
 11
117.0
 21
70.0
 31
0.0
  0
LINE
  5
7832
330
A
100
AcDbEntity
  8
0
  6
CENTER
 62
     1
100
AcDbLine
 10
132.0
 20
55.0
 30
0.0
 11
132.0
 21
84.99999999999976
 31
0.0
  0
LINE
  5
7833
330
A
100
AcDbEntity
  8
0
  6
CENTER
 62
     1
100
AcDbLine
 10
147.0
 20
0.0
 30
0.0
 11
117.0
 21
0.0
 31
0.0
  0
LINE
  5
7834
330
A
100
AcDbEntity
  8
0
  6
CENTER
 62
     1
100
AcDbLine
 10
132.0
 20
-15.00000000000023
 30
0.0
 11
132.0
 21
14.99999999999977
 31
0.0
  0
ARC
  5
7835
330
A
100
AcDbEntity
  8
0
  6
CENTER
 62
     1
100
AcDbCircle
 10
132.0
 20
70.0
 30
0.0
 40
10.0
100
AcDbArc
 50
0.0
 51
145.4818921589327
  0
ARC
  5
7836
330
A
100
AcDbEntity
  8
0
  6
CENTER
 62
     1
100
AcDbCircle
 10
119.6407929056922
 20
78.49999999999977
 30
0.0
 40
5.0
100
AcDbArc
 50
270.0
 51
325.4818921589328
  0
LINE
  5
7837
330
A
100
AcDbEntity
  8
0
  6
CENTER
 62
     1
100
AcDbLine
 10
69.0
 20
-3.5
 30
0.0
 11
119.6407929056922
 21
-3.5
 31
0.0
  0
ARC
  5
7838
330
A
100
AcDbEntity
  8
0
  6
CENTER
 62
     1
100
AcDbCircle
 10
119.6407929056922
 20
-8.5
 30
0.0
 40
5.0
100
AcDbArc
 50
34.51810784106724
 51
90.0
  0
ARC
  5
7839
330
A
100
AcDbEntity
  8
0
  6
CENTER
 62
     1
100
AcDbCircle
 10
132.0
 20
0.0
 30
0.0
 40
10.0
100
AcDbArc
 50
214.5181078410672
 51
0.0
  0
ENDSEC
  0
SECTION
  2
OBJECTS
  0
DICTIONARY
  5
19
330
0
100
AcDbDictionary
281
     1
  3
ACAD_COLOR
350
3988
  3
ACAD_GROUP
350
1A
  3
ACAD_LAYOUT
350
1E
  3
ACAD_MATERIAL
350
395E
  3
ACAD_MLEADERSTYLE
350
39AD
  3
ACAD_MLINESTYLE
350
1B
  3
ACAD_PLOTSETTINGS
350
22
  3
ACAD_PLOTSTYLENAME
350
1F
  3
ACAD_SCALELIST
350
398B
  3
ACAD_TABLESTYLE
350
3989
  3
ACAD_VISUALSTYLE
350
3977
  3
ACAD_WIPEOUT_VARS
350
23
  3
ACDB_RECOMPOSE_DATA
350
72EC
  3
AcDbVariableDictionary
350
72CB
  3
ASE_INDEX_DICTIONARY
350
72C6
  3
DWGPROPS
350
784A
  0
DICTIONARY
  5
72C9
330
14
100
AcDbDictionary
280
     1
281
     1
  3
ADSK_XREC_LAYER_RECONCILED
360
72CA
  0
DICTIONARY
  5
39B7
330
A
100
AcDbDictionary
280
     1
281
     1
  3
ACAD_SORTENTS
360
39B8
  0
DICTIONARY
  5
3988
102
{ACAD_REACTORS
330
19
102
}
330
19
100
AcDbDictionary
281
     1
  0
DICTIONARY
  5
1A
102
{ACAD_REACTORS
330
19
102
}
330
19
100
AcDbDictionary
281
     1
  0
DICTIONARY
  5
1E
102
{ACAD_REACTORS
330
19
102
}
330
19
100
AcDbDictionary
281
     1
  3
Layout1
350
21
  3
Model
350
20
  0
DICTIONARY
  5
395E
102
{ACAD_REACTORS
330
19
102
}
330
19
100
AcDbDictionary
281
     1
  3
ByBlock
350
3967
  3
ByLayer
350
395F
  3
Global
350
396F
  0
DICTIONARY
  5
39AD
102
{ACAD_REACTORS
330
19
102
}
330
19
100
AcDbDictionary
281
     1
  3
Standard
350
39AE
  0
DICTIONARY
  5
1B
102
{ACAD_REACTORS
330
19
102
}
330
19
100
AcDbDictionary
281
     1
  3
Standard
350
1C
  0
DICTIONARY
  5
22
102
{ACAD_REACTORS
330
19
102
}
330
19
100
AcDbDictionary
281
     1
  0
ACDBDICTIONARYWDFLT
  5
1F
102
{ACAD_REACTORS
330
19
102
}
330
19
100
AcDbDictionary
281
     1
  3
Normal
350
1D
100
AcDbDictionaryWithDefault
340
1D
  0
DICTIONARY
  5
398B
102
{ACAD_REACTORS
330
19
102
}
330
19
100
AcDbDictionary
281
     1
  3
A0
350
398C
  3
A1
350
398D
  3
A2
350
398E
  3
A3
350
398F
  3
A4
350
3990
  3
A5
350
3991
  3
A6
350
3992
  3
A7
350
3993
  3
A8
350
3994
  3
A9
350
3995
  3
B0
350
3996
  3
B1
350
3997
  3
B2
350
3998
  3
B3
350
3999
  3
B4
350
399A
  3
B5
350
399B
  3
B6
350
399C
  3
B7
350
399D
  3
B8
350
399E
  3
B9
350
399F
  3
C0
350
39A0
  3
C1
350
39A1
  3
C2
350
39A2
  3
C3
350
39A3
  3
C4
350
39A4
  3
C5
350
39A5
  3
C6
350
39A6
  3
C7
350
39A7
  3
C8
350
39A8
  3
C9
350
39A9
  3
D0
350
39AA
  3
D1
350
39AB
  3
D2
350
39AC
  0
DICTIONARY
  5
3989
102
{ACAD_REACTORS
330
19
102
}
330
19
100
AcDbDictionary
281
     1
  3
Standard
350
398A
  0
DICTIONARY
  5
3977
102
{ACAD_REACTORS
330
19
102
}
330
19
100
AcDbDictionary
281
     1
  3
2dWireframe
350
397D
  3
3D Hidden
350
397F
  3
3dWireframe
350
397E
  3
Basic
350
397C
  3
Brighten
350
3983
  3
ColorChange
350
3987
  3
Conceptual
350
3980
  3
Dim
350
3982
  3
Facepattern
350
3986
  3
Flat
350
3978
  3
FlatWithEdges
350
3979
  3
Gouraud
350
397A
  3
GouraudWithEdges
350
397B
  3
Linepattern
350
3985
  3
Realistic
350
3981
  3
Thicken
350
3984
  0
WIPEOUTVARIABLES
  5
23
330
19
100
AcDbWipeoutVariables
 70
     1
  0
XRECORD
  5
72EC
102
{ACAD_REACTORS
330
19
102
}
330
19
100
AcDbXrecord
280
     1
 90
        1
330
398A
  0
DICTIONARY
  5
72CB
102
{ACAD_REACTORS
330
19
102
}
330
19
100
AcDbDictionary
281
     1
  3
CANNOSCALE
350
72CE
  3
CMLEADERSTYLE
350
72CD
  3
CTABLESTYLE
350
72CC
  3
DIMASSOC
350
72D1
  3
INDEXCTL
350
72D0
  3
SORTENTS
350
72CF
  0
DICTIONARY
  5
72C6
102
{ACAD_REACTORS
330
19
102
}
330
19
100
AcDbDictionary
281
     1
  3
ASEBlockHierarchyIndexRecord
350
72C8
1001
DCO15
1040
1687090590.691
  0
XRECORD
  5
784A
102
{ACAD_REACTORS
330
19
102
}
330
19
100
AcDbXrecord
280
     1
  1
DWGPROPS COOKIE
  2

  3

  4

  6

  7

  8
renzo.ceresoli
  9

300
=
301
=
302
=
303
=
304
=
305
=
306
=
307
=
308
=
309
=
 40
0.029084212962963
 41
2455329.702198484
 42
2455383.397564525
  1

 90
        0
  0
XRECORD
  5
72CA
102
{ACAD_REACTORS
330
72C9
102
}
330
72C9
100
AcDbXrecord
280
     1
290
     1
  0
SORTENTSTABLE
  5
39B8
102
{ACAD_REACTORS
330
39B7
102
}
330
39B7
100
AcDbSortentsTable
330
A
331
4B5F
  5
5DF3
331
4B92
  5
5C0E
331
4BBD
  5
5C39
331
4A46
  5
5F39
331
4A81
  5
5F55
331
4AAC
  5
5F6F
331
4DCC
  5
5AF8
331
4DF7
  5
5B23
331
496F
  5
5E4C
331
49A2
  5
5E7F
331
4CE7
  5
5BB5
331
4D20
  5
5B3C
331
4C3B
  5
5CBF
331
4AFF
  5
5D93
331
4B31
  5
5DC5
331
4B64
  5
5DF8
331
49ED
  5
5ECA
331
4A20
  5
5EFD
331
4A4B
  5
5F3E
331
4D73
  5
5A99
331
4D9E
  5
5ACA
331
4941
  5
5E1E
331
4CB9
  5
5D3D
331
4CEC
  5
5BBA
331
4BAF
  5
5C2B
331
4BE2
  5
5C66
331
4AA6
  5
5F69
331
4AD1
  5
5D65
331
4994
  5
5E71
331
49BF
  5
5E9C
331
49F2
  5
5ECF
331
4D12
  5
5BE0
331
4D45
  5
5B61
331
4C2D
  5
5CB1
331
4C60
  5
5CE4
331
4C8B
  5
5D0F
331
4B56
  5
5DEA
331
4B89
  5
5C05
331
4A3D
  5
5F30
331
4D90
  5
5ABC
331
4DC3
  5
5AEF
331
4966
  5
5E43
331
4999
  5
5E76
331
4CDE
  5
5BAC
331
4BD4
  5
5C58
331
4C07
  5
5C8B
331
4C32
  5
5CB6
331
4AC3
  5
5D57
331
4AF6
  5
5D8A
331
4E0E
  5
5B3A
331
4B28
  5
5DBC
331
49E4
  5
5EC1
331
4A17
  5
5EF4
331
4D37
  5
5B53
331
4D6A
  5
5B86
331
4932
  5
5E0F
331
4938
  5
5E15
331
4C85
  5
5D09
331
4CB0
  5
5D34
331
4B7B
  5
5BF7
331
4BA6
  5
5C22
331
4BD9
  5
5C5D
331
4AC8
  5
5D5C
331
4DB5
  5
5AE1
331
4DE8
  5
5B14
331
498B
  5
5E68
331
49B6
  5
5E93
331
4D09
  5
5BD7
331
4C24
  5
5CA8
331
4C57
  5
5CDB
331
4B1B
  5
5DAF
331
4B4D
  5
5DE1
331
4B80
  5
5BFC
331
4A09
  5
5EE6
331
4A34
  5
5F27
331
4D5C
  5
5B78
331
4D87
  5
5AB3
331
4DBA
  5
5AE6
331
495D
  5
5E3A
331
4CA2
  5
5D26
331
4CD5
  5
5BA3
331
4BCB
  5
5C4F
331
4BFE
  5
5C82
331
4ABA
  5
5D4E
331
4AED
  5
5D81
331
4E05
  5
5B31
331
49DB
  5
5EB8
331
4D2E
  5
5B4A
331
4D61
  5
5B7D
331
4929
  5
5E06
331
4C49
  5
5CCD
331
4C7C
  5
5D00
331
4B3F
  5
5DD3
331
4B72
  5
5BEE
331
4B9D
  5
5C19
331
4A94
  5
5F5F
331
4DAC
  5
5AD8
331
4DDF
  5
5B0B
331
494F
  5
5E2C
331
4982
  5
5E5F
331
4CC7
  5
5B95
331
4CFA
  5
5BC8
331
4D00
  5
5BCE
331
4BF0
  5
5C74
331
4C1B
  5
5C9F
331
4ADF
  5
5D73
331
4B12
  5
5DA6
331
4B44
  5
5DD8
331
49CD
  5
5EAA
331
4A00
  5
5EDD
331
4A2B
  5
5F08
331
4D53
  5
5B6F
331
4D7E
  5
5AAA
331
4C6E
  5
5CF2
331
4C99
  5
5D1D
331
4CCC
  5
5B9A
331
4B97
  5
5C13
331
4BC2
  5
5C3E
331
4A86
  5
5F5A
331
4AB1
  5
5D45
331
4DD1
  5
5AFD
331
4DFC
  5
5B28
331
4974
  5
5E51
331
49A7
  5
5E84
331
49D2
  5
5EAF
331
4D25
  5
5B41
331
4C40
  5
5CC4
331
4C73
  5
5CF7
331
4B04
  5
5D98
331
4B36
  5
5DCA
331
4B69
  5
5DFD
331
4A25
  5
5F02
331
4A50
  5
5F43
331
4DA3
  5
5ACF
331
4946
  5
5E23
331
4979
  5
5E56
331
4CBE
  5
5B8C
331
4CF1
  5
5BBF
331
4BB4
  5
5C30
331
4BE7
  5
5C6B
331
4C12
  5
5C96
331
4AD6
  5
5D6A
331
4B09
  5
5D9D
331
49C4
  5
5EA1
331
49F7
  5
5ED4
331
4D17
  5
5BE5
331
4D4A
  5
5B66
331
4C65
  5
5CE9
331
4C90
  5
5D14
331
4B5B
  5
5DEF
331
4B8E
  5
5C0A
331
4BB9
  5
5C35
331
291D
  5
5F75
331
4A42
  5
5F35
331
4AA8
  5
5F6B
331
4D95
  5
5AC1
331
4DC8
  5
5AF4
331
4DF3
  5
5B1F
331
496B
  5
5E48
331
499E
  5
5E7B
331
4CE3
  5
5BB1
331
4C0C
  5
5C90
331
4C37
  5
5CBB
331
4AFB
  5
5D8F
331
4B2D
  5
5DC1
331
4B60
  5
5DF4
331
49E9
  5
5EC6
331
4A1C
  5
5EF9
331
4D3C
  5
5B58
331
4D6F
  5
5B8B
331
4D9A
  5
5AC6
331
4937
  5
5E14
331
493D
  5
5E1A
331
4CB5
  5
5D39
331
4CE8
  5
5BB6
331
4BAB
  5
5C27
331
4BDE
  5
5C62
331
4ACD
  5
5D61
331
4DED
  5
5B19
331
4990
  5
5E6D
331
49BB
  5
5E98
331
4D0E
  5
5BDC
331
4D41
  5
5B5D
331
4C29
  5
5CAD
331
4C5C
  5
5CE0
331
4B52
  5
5DE6
331
4B85
  5
5C01
331
4A0E
  5
5EEB
331
4A39
  5
5F2C
331
4D8C
  5
5AB8
331
4DBF
  5
5AEB
331
4962
  5
5E3F
331
4CA7
  5
5D2B
331
4CDA
  5
5BA8
331
4BD0
  5
5C54
331
4C03
  5
5C87
331
4ABF
  5
5D53
331
4AF2
  5
5D86
331
4E0A
  5
5B36
331
4B24
  5
5DB8
331
49E0
  5
5EBD
331
4A13
  5
5EF0
331
4D33
  5
5B4F
331
4D66
  5
5B82
331
492E
  5
5E0B
331
4C4E
  5
5CD2
331
4C81
  5
5D05
331
4CAC
  5
5D30
331
4B77
  5
5BF3
331
4BA2
  5
5C1E
331
4A66
  5
5F48
331
4A99
  5
5F64
331
4DB1
  5
5ADD
331
4DE4
  5
5B10
331
4954
  5
5E31
331
4987
  5
5E64
331
49B2
  5
5E8F
331
4CFF
  5
5BCD
331
4D05
  5
5BD3
331
4BF5
  5
5C79
331
4C20
  5
5CA4
331
4C53
  5
5CD7
331
4AE4
  5
5D78
331
4B17
  5
5DAB
331
4B49
  5
5DDD
331
4A05
  5
5EE2
331
4A30
  5
5F23
331
4D58
  5
5B74
331
4D83
  5
5AAF
331
4959
  5
5E36
331
4C9E
  5
5D22
331
4CD1
  5
5B9F
331
4BC7
  5
5C4B
331
4BFA
  5
5C7E
331
4AB6
  5
5D4A
331
4AE9
  5
5D7D
331
4DD6
  5
5B02
331
4E01
  5
5B2D
331
49AC
  5
5E89
331
49D7
  5
5EB4
331
4D2A
  5
5B46
331
4C45
  5
5CC9
331
4C78
  5
5CFC
331
4B3B
  5
5DCF
331
4B6E
  5
5E02
331
4B99
  5
5C15
331
4DA8
  5
5AD4
331
4DDB
  5
5B07
331
494B
  5
5E28
331
497E
  5
5E5B
331
4CC3
  5
5B91
331
4CF6
  5
5BC4
331
4BEC
  5
5C70
331
4C17
  5
5C9B
331
4ADB
  5
5D6F
331
4B0E
  5
5DA2
331
4B40
  5
5DD4
331
49C9
  5
5EA6
331
49FC
  5
5ED9
331
4D1C
  5
5BEA
331
4D4F
  5
5B6B
331
4D7A
  5
5AA0
331
4C6A
  5
5CEE
331
4C95
  5
5D19
331
4CC8
  5
5B96
331
4B93
  5
5C0F
331
4BBE
  5
5C3A
331
4A47
  5
5F3A
331
4A82
  5
5F56
331
4AAD
  5
5F70
331
4DCD
  5
5AF9
331
4DF8
  5
5B24
331
4970
  5
5E4D
331
49A3
  5
5E80
331
4D21
  5
5B3D
331
4C3C
  5
5CC0
331
4B00
  5
5D94
331
4B32
  5
5DC6
331
4B65
  5
5DF9
331
49EE
  5
5ECB
331
4A21
  5
5EFE
331
4A4C
  5
5F3F
331
4D74
  5
5A9A
331
4D9F
  5
5ACB
331
4942
  5
5E1F
331
4CBA
  5
5D3E
331
4CED
  5
5BBB
331
4BB0
  5
5C2C
331
4BE3
  5
5C67
331
4AA7
  5
5F6A
331
4AD2
  5
5D66
331
4995
  5
5E72
331
49C0
  5
5E9D
331
49F3
  5
5ED0
331
4D13
  5
5BE1
331
4D46
  5
5B62
331
4C2E
  5
5CB2
331
4C61
  5
5CE5
331
4C8C
  5
5D10
331
4B57
  5
5DEB
331
4B8A
  5
5C06
331
4A3E
  5
5F31
331
4D91
  5
5ABD
331
4DC4
  5
5AF0
331
4967
  5
5E44
331
499A
  5
5E77
331
4CDF
  5
5BAD
331
4BD5
  5
5C59
331
4C08
  5
5C8C
331
4C33
  5
5CB7
331
4AC4
  5
5D58
331
4AF7
  5
5D8B
331
4B29
  5
5DBD
331
49E5
  5
5EC2
331
4A18
  5
5EF5
331
4D38
  5
5B54
331
4D6B
  5
5B87
331
4933
  5
5E10
331
4939
  5
5E16
331
4C86
  5
5D0A
331
4CB1
  5
5D35
331
4B7C
  5
5BF8
331
4BA7
  5
5C23
331
4BDA
  5
5C5E
331
4AC9
  5
5D5D
331
4DB6
  5
5AE2
331
4DE9
  5
5B15
331
498C
  5
5E69
331
49B7
  5
5E94
331
4D0A
  5
5BD8
331
4C25
  5
5CA9
331
4C58
  5
5CDC
331
4B1C
  5
5DB0
331
4B4E
  5
5DE2
331
4B81
  5
5BFD
331
4A0A
  5
5EE7
331
4A35
  5
5F28
331
4A70
  5
5F4D
331
4D5D
  5
5B79
331
4D88
  5
5AB4
331
4DBB
  5
5AE7
331
495E
  5
5E3B
331
4CA3
  5
5D27
331
4CD6
  5
5BA4
331
4BCC
  5
5C50
331
4BFF
  5
5C83
331
4ABB
  5
5D4F
331
4AEE
  5
5D82
331
4E06
  5
5B32
331
4B20
  5
5DB4
331
49DC
  5
5EB9
331
4D2F
  5
5B4B
331
4D62
  5
5B7E
331
492A
  5
5E07
331
4C4A
  5
5CCE
331
4C7D
  5
5D01
331
4CA8
  5
5D2C
331
4B73
  5
5BEF
331
4B9E
  5
5C1A
331
4A95
  5
5F60
331
4DAD
  5
5AD9
331
4DE0
  5
5B0C
331
4950
  5
5E2D
331
4983
  5
5E60
331
4CFB
  5
5BC9
331
4D01
  5
5BCF
331
4BF1
  5
5C75
331
4C1C
  5
5CA0
331
4AE0
  5
5D74
331
4B13
  5
5DA7
331
4B45
  5
5DD9
331
49CE
  5
5EAB
331
4A01
  5
5EDE
331
4A2C
  5
5F09
331
4D54
  5
5B70
331
4D7F
  5
5AAB
331
4C6F
  5
5CF3
331
4C9A
  5
5D1E
331
4CCD
  5
5B9B
331
4BC3
  5
5C3F
331
4A87
  5
5F5B
331
4AB2
  5
5D46
331
4DD2
  5
5AFE
331
4DFD
  5
5B29
331
4975
  5
5E52
331
49A8
  5
5E85
331
49D3
  5
5EB0
331
4D26
  5
5B42
331
4C41
  5
5CC5
331
4C74
  5
5CF8
331
4B05
  5
5D99
331
4B37
  5
5DCB
331
4B6A
  5
5DFE
331
4A26
  5
5F03
331
4A51
  5
5F44
331
4DA4
  5
5AD0
331
4947
  5
5E24
331
497A
  5
5E57
331
4CBF
  5
5B8D
331
4CF2
  5
5BC0
331
4BB5
  5
5C31
331
4BE8
  5
5C6C
331
4C13
  5
5C97
331
4AD7
  5
5D6B
331
4B0A
  5
5D9E
331
49C5
  5
5EA2
331
49F8
  5
5ED5
331
4D18
  5
5BE6
331
4D4B
  5
5B67
331
4C66
  5
5CEA
331
4C91
  5
5D15
331
4B5C
  5
5DF0
331
4B8F
  5
5C0B
331
4BBA
  5
5C36
331
291E
  5
5F76
331
4A43
  5
5F36
331
4A7E
  5
5F52
331
4AA9
  5
5F6C
331
4D96
  5
5AC2
331
4DC9
  5
5AF5
331
4DF4
  5
5B20
331
496C
  5
5E49
331
499F
  5
5E7C
331
4CE4
  5
5BB2
331
4C0D
  5
5C91
331
4C38
  5
5CBC
331
4AFC
  5
5D90
331
4B2E
  5
5DC2
331
4B61
  5
5DF5
331
49EA
  5
5EC7
331
4A1D
  5
5EFA
331
4A48
  5
5F3B
331
4D3D
  5
5B59
331
4D70
  5
5A96
331
4D9B
  5
5AC7
331
493E
  5
5E1B
331
4CB6
  5
5D3A
331
4CE9
  5
5BB7
331
4BAC
  5
5C28
331
4BDF
  5
5C63
331
4ACE
  5
5D62
331
4DEE
  5
5B1A
331
4991
  5
5E6E
331
49BC
  5
5E99
331
4D0F
  5
5BDD
331
4D42
  5
5B5E
331
4C2A
  5
5CAE
331
4C5D
  5
5CE1
331
4C88
  5
5D0C
331
4B53
  5
5DE7
331
4B86
  5
5C02
331
4A0F
  5
5EEC
331
4A3A
  5
5F2D
331
4D8D
  5
5AB9
331
4DC0
  5
5AEC
331
4963
  5
5E40
331
4CDB
  5
5BA9
331
4BD1
  5
5C55
331
4C04
  5
5C88
331
4AC0
  5
5D54
331
4AF3
  5
5D87
331
4E0B
  5
5B37
331
4B25
  5
5DB9
331
49E1
  5
5EBE
331
4A14
  5
5EF1
331
4D34
  5
5B50
331
4D67
  5
5B83
331
492F
  5
5E0C
331
4C4F
  5
5CD3
331
4C82
  5
5D06
331
4CAD
  5
5D31
331
4B78
  5
5BF4
331
4BA3
  5
5C1F
331
4A67
  5
5F49
331
4A9A
  5
5F65
331
4DB2
  5
5ADE
331
4DE5
  5
5B11
331
4955
  5
5E32
331
4988
  5
5E65
331
49B3
  5
5E90
331
4D06
  5
5BD4
331
4BF6
  5
5C7A
331
4C21
  5
5CA5
331
4C54
  5
5CD8
331
4AE5
  5
5D79
331
4B18
  5
5DAC
331
4B4A
  5
5DDE
331
4A06
  5
5EE3
331
4A31
  5
5F24
331
4D59
  5
5B75
331
4D84
  5
5AB0
331
495A
  5
5E37
331
4C9F
  5
5D23
331
4CD2
  5
5BA0
331
4BC8
  5
5C4C
331
4BFB
  5
5C7F
331
4AB7
  5
5D4B
331
4AEA
  5
5D7E
331
4DD7
  5
5B03
331
4E02
  5
5B2E
331
49AD
  5
5E8A
331
49D8
  5
5EB5
331
4D2B
  5
5B47
331
4C46
  5
5CCA
331
4C79
  5
5CFD
331
4B3C
  5
5DD0
331
4B6F
  5
5E03
331
4B9A
  5
5C16
331
4DA9
  5
5AD5
331
4DDC
  5
5B08
331
494C
  5
5E29
331
497F
  5
5E5C
331
4CC4
  5
5B92
331
4CF7
  5
5BC5
331
4BED
  5
5C71
331
4C18
  5
5C9C
331
4ADC
  5
5D70
331
4B0F
  5
5DA3
331
4B41
  5
5DD5
331
49CA
  5
5EA7
331
49FD
  5
5EDA
331
4A28
  5
5F05
331
4D1D
  5
5BEB
331
4D50
  5
5B6C
331
4D7B
  5
5AA1
331
4C6B
  5
5CEF
331
4C96
  5
5D1A
331
4CC9
  5
5B97
331
4B94
  5
5C10
331
4BBF
  5
5C3B
331
4A83
  5
5F57
331
4AAE
  5
5D42
331
4DCE
  5
5AFA
331
4DF9
  5
5B25
331
4971
  5
5E4E
331
49A4
  5
5E81
331
4D22
  5
5B3E
331
4C3D
  5
5CC1
331
4C70
  5
5CF4
331
4B01
  5
5D95
331
4B33
  5
5DC7
331
4B66
  5
5DFA
331
2920
  5
5F78
331
49EF
  5
5ECC
331
4A22
  5
5EFF
331
4A4D
  5
5F40
331
4D75
  5
5A9B
331
4DA0
  5
5ACC
331
4943
  5
5E20
331
4CBB
  5
5D3F
331
4CEE
  5
5BBC
331
4BB1
  5
5C2D
331
4BE4
  5
5C68
331
4AD3
  5
5D67
331
4996
  5
5E73
331
49C1
  5
5E9E
331
49F4
  5
5ED1
331
4D14
  5
5BE2
331
4D47
  5
5B63
331
4C2F
  5
5CB3
331
4C62
  5
5CE6
331
4C8D
  5
5D11
331
4B58
  5
5DEC
331
4B8B
  5
5C07
331
4A3F
  5
5F32
331
4D92
  5
5ABE
331
4DC5
  5
5AF1
331
4DF0
  5
5B1C
331
4968
  5
5E45
331
499B
  5
5E78
331
4CE0
  5
5BAE
331
4BD6
  5
5C5A
331
4C09
  5
5C8D
331
4C34
  5
5CB8
331
4AC5
  5
5D59
331
4AF8
  5
5D8C
331
4B2A
  5
5DBE
331
49E6
  5
5EC3
331
4A19
  5
5EF6
331
4D39
  5
5B55
331
4D6C
  5
5B88
331
4934
  5
5E11
331
493A
  5
5E17
331
4C87
  5
5D0B
331
4CB2
  5
5D36
331
4B7D
  5
5BF9
331
4BA8
  5
5C24
331
4BDB
  5
5C5F
331
4ACA
  5
5D5E
331
4DB7
  5
5AE3
331
4DEA
  5
5B16
331
498D
  5
5E6A
331
49B8
  5
5E95
331
4D0B
  5
5BD9
331
4C26
  5
5CAA
331
4C59
  5
5CDD
331
4B1D
  5
5DB1
331
4B4F
  5
5DE3
331
4B82
  5
5BFE
331
4A0B
  5
5EE8
331
4A36
  5
5F29
331
4A71
  5
5F4E
331
4D5E
  5
5B7A
331
4D89
  5
5AB5
331
4DBC
  5
5AE8
331
495F
  5
5E3C
331
4CA4
  5
5D28
331
4CD7
  5
5BA5
331
4BCD
  5
5C51
331
4C00
  5
5C84
331
4ABC
  5
5D50
331
4AEF
  5
5D83
331
4E07
  5
5B33
331
4B21
  5
5DB5
331
49DD
  5
5EBA
331
4A10
  5
5EED
331
4D30
  5
5B4C
331
4D63
  5
5B7F
331
492B
  5
5E08
331
4C4B
  5
5CCF
331
4C7E
  5
5D02
331
4CA9
  5
5D2D
331
4B74
  5
5BF0
331
4B9F
  5
5C1B
331
4A96
  5
5F61
331
4DAE
  5
5ADA
331
4DE1
  5
5B0D
331
4951
  5
5E2E
331
4984
  5
5E61
331
4CFC
  5
5BCA
331
4D02
  5
5BD0
331
4BF2
  5
5C76
331
4C1D
  5
5CA1
331
4C50
  5
5CD4
331
4AE1
  5
5D75
331
4B14
  5
5DA8
331
4B46
  5
5DDA
331
49CF
  5
5EAC
331
4A02
  5
5EDF
331
4A2D
  5
5F15
331
4D55
  5
5B71
331
4D80
  5
5AAC
331
4C9B
  5
5D1F
331
4CCE
  5
5B9C
331
4BC4
  5
5C48
331
4A88
  5
5F5C
331
4AB3
  5
5D47
331
4DD3
  5
5AFF
331
4DFE
  5
5B2A
331
4976
  5
5E53
331
49A9
  5
5E86
331
49D4
  5
5EB1
331
4D27
  5
5B43
331
4C42
  5
5CC6
331
4C75
  5
5CF9
331
4B06
  5
5D9A
331
4B38
  5
5DCC
331
4B6B
  5
5DFF
331
4A27
  5
5F04
331
4A52
  5
5F45
331
4DA5
  5
5AD1
331
4DD8
  5
5B04
331
4948
  5
5E25
331
497B
  5
5E58
331
4CC0
  5
5B8E
331
4CF3
  5
5BC1
331
4BB6
  5
5C32
331
4BE9
  5
5C6D
331
4C14
  5
5C98
331
4AD8
  5
5D6C
331
4B0B
  5
5D9F
331
49C6
  5
5EA3
331
49F9
  5
5ED6
331
4D19
  5
5BE7
331
4D4C
  5
5B68
331
4C67
  5
5CEB
331
4C92
  5
5D16
331
4B5D
  5
5DF1
331
4B90
  5
5C0C
331
4BBB
  5
5C37
331
291F
  5
5F77
331
4A44
  5
5F37
331
4A7F
  5
5F53
331
4AAA
  5
5F6D
331
4D97
  5
5AC3
331
4DCA
  5
5AF6
331
4DF5
  5
5B21
331
496D
  5
5E4A
331
49A0
  5
5E7D
331
4CE5
  5
5BB3
331
4C0E
  5
5C92
331
4C39
  5
5CBD
331
4AFD
  5
5D91
331
4B2F
  5
5DC3
331
4B62
  5
5DF6
331
49EB
  5
5EC8
331
4A1E
  5
5EFB
331
4A49
  5
5F3C
331
4D3E
  5
5B5A
331
4D71
  5
5A97
331
4D9C
  5
5AC8
331
493F
  5
5E1C
331
4CB7
  5
5D3B
331
4CEA
  5
5BB8
331
4BAD
  5
5C29
331
4BE0
  5
5C64
331
4ACF
  5
5D63
331
4DEF
  5
5B1B
331
4992
  5
5E6F
331
49BD
  5
5E9A
331
49F0
  5
5ECD
331
4D10
  5
5BDE
331
4D43
  5
5B5F
331
4C2B
  5
5CAF
331
4C5E
  5
5CE2
331
4C89
  5
5D0D
331
4B54
  5
5DE8
331
4B87
  5
5C03
331
4A3B
  5
5F2E
331
4D8E
  5
5ABA
331
4DC1
  5
5AED
331
4964
  5
5E41
331
4CDC
  5
5BAA
331
4BD2
  5
5C56
331
4C05
  5
5C89
331
4C30
  5
5CB4
331
4AC1
  5
5D55
331
4AF4
  5
5D88
331
4E0C
  5
5B38
331
4B26
  5
5DBA
331
49E2
  5
5EBF
331
4A15
  5
5EF2
331
4D35
  5
5B51
331
4D68
  5
5B84
331
4930
  5
5E0D
331
4C83
  5
5D07
331
4CAE
  5
5D32
331
4B79
  5
5BF5
331
4BA4
  5
5C20
331
4A68
  5
5F4A
331
4A9B
  5
5F66
331
4DB3
  5
5ADF
331
4DE6
  5
5B12
331
4956
  5
5E33
331
4989
  5
5E66
331
49B4
  5
5E91
331
4D07
  5
5BD5
331
4BF7
  5
5C7B
331
4C22
  5
5CA6
331
4C55
  5
5CD9
331
4AE6
  5
5D7A
331
4B19
  5
5DAD
331
4B4B
  5
5DDF
331
4A07
  5
5EE4
331
4A32
  5
5F25
331
4D5A
  5
5B76
331
4D85
  5
5AB1
331
4DB8
  5
5AE4
331
495B
  5
5E38
331
4CA0
  5
5D24
331
4CD3
  5
5BA1
331
4BC9
  5
5C4D
331
4BFC
  5
5C80
331
4AB8
  5
5D4C
331
4AEB
  5
5D7F
331
4E03
  5
5B2F
331
49AE
  5
5E8B
331
49D9
  5
5EB6
331
4D2C
  5
5B48
331
4C47
  5
5CCB
331
4C7A
  5
5CFE
331
4B3D
  5
5DD1
331
4B70
  5
5E04
331
4B9B
  5
5C17
331
4DAA
  5
5AD6
331
4DDD
  5
5B09
331
494D
  5
5E2A
331
4980
  5
5E5D
331
4CC5
  5
5B93
331
4CF8
  5
5BC6
331
4BEE
  5
5C72
331
4C19
  5
5C9D
331
4ADD
  5
5D71
331
4B10
  5
5DA4
331
4B42
  5
5DD6
331
49CB
  5
5EA8
331
49FE
  5
5EDB
331
4A29
  5
5F06
331
4D1E
  5
5BEC
331
4D51
  5
5B6D
331
4D7C
  5
5AA8
331
4C6C
  5
5CF0
331
4C97
  5
5D1B
331
4CCA
  5
5B98
331
4B95
  5
5C11
331
4BC0
  5
5C3C
331
4A84
  5
5F58
331
4AAF
  5
5D43
331
4DCF
  5
5AFB
331
4DFA
  5
5B26
331
4972
  5
5E4F
331
49A5
  5
5E82
331
49D0
  5
5EAD
331
4D23
  5
5B3F
331
4C3E
  5
5CC2
331
4C71
  5
5CF5
331
4B02
  5
5D96
331
4B34
  5
5DC8
331
4B67
  5
5DFB
331
2921
  5
5F79
331
4A23
  5
5F00
331
4A4E
  5
5F41
331
4D76
  5
5A9C
331
4DA1
  5
5ACD
331
4944
  5
5E21
331
4CBC
  5
5D40
331
4CEF
  5
5BBD
331
4BB2
  5
5C2E
331
4BE5
  5
5C69
331
4C10
  5
5C94
331
4AD4
  5
5D68
331
4997
  5
5E74
331
49C2
  5
5E9F
331
49F5
  5
5ED2
331
4D15
  5
5BE3
331
4D48
  5
5B64
331
4C63
  5
5CE7
331
4C8E
  5
5D12
331
4B59
  5
5DED
331
4B8C
  5
5C08
331
4A40
  5
5F33
331
4D93
  5
5ABF
331
4DC6
  5
5AF2
331
4DF1
  5
5B1D
331
4969
  5
5E46
331
499C
  5
5E79
331
4CE1
  5
5BAF
331
4BD7
  5
5C5B
331
4C0A
  5
5C8E
331
4C35
  5
5CB9
331
4AC6
  5
5D5A
331
4AF9
  5
5D8D
331
4B2B
  5
5DBF
331
49E7
  5
5EC4
331
4A1A
  5
5EF7
331
4D3A
  5
5B56
331
4D6D
  5
5B89
331
4D98
  5
5AC4
331
4935
  5
5E12
331
493B
  5
5E18
331
4CB3
  5
5D37
331
4B7E
  5
5BFA
331
4BA9
  5
5C25
331
4BDC
  5
5C60
331
4ACB
  5
5D5F
331
4DEB
  5
5B17
331
498E
  5
5E6B
331
49B9
  5
5E96
331
4D0C
  5
5BDA
331
4C27
  5
5CAB
331
4C5A
  5
5CDE
331
4B1E
  5
5DB2
331
4B50
  5
5DE4
331
4B83
  5
5BFF
331
4A0C
  5
5EE9
331
4A37
  5
5F2A
331
4A72
  5
5F4F
331
4D5F
  5
5B7B
331
4D8A
  5
5AB6
331
4DBD
  5
5AE9
331
4960
  5
5E3D
331
4CA5
  5
5D29
331
4CD8
  5
5BA6
331
4BCE
  5
5C52
331
4C01
  5
5C85
331
4ABD
  5
5D51
331
4AF0
  5
5D84
331
4E08
  5
5B34
331
4B22
  5
5DB6
331
49DE
  5
5EBB
331
4A11
  5
5EEE
331
4D31
  5
5B4D
331
4D64
  5
5B80
331
492C
  5
5E09
331
4C4C
  5
5CD0
331
4C7F
  5
5D03
331
4CAA
  5
5D2E
331
4B75
  5
5BF1
331
4BA0
  5
5C1C
331
4A97
  5
5F62
331
4DAF
  5
5ADB
331
4DE2
  5
5B0E
331
4952
  5
5E2F
331
4985
  5
5E62
331
49B0
  5
5E8D
331
4CFD
  5
5BCB
331
4D03
  5
5BD1
331
4BF3
  5
5C77
331
4C1E
  5
5CA2
331
4C51
  5
5CD5
331
4AE2
  5
5D76
331
4B15
  5
5DA9
331
4B47
  5
5DDB
331
4A03
  5
5EE0
331
4A2E
  5
5F16
331
4D56
  5
5B72
331
4D81
  5
5AAD
331
4C9C
  5
5D20
331
4CCF
  5
5B9D
331
4BC5
  5
5C49
331
4BF8
  5
5C7C
331
4AB4
  5
5D48
331
4DD4
  5
5B00
331
4DFF
  5
5B2B
331
4977
  5
5E54
331
49AA
  5
5E87
331
49D5
  5
5EB2
331
4D28
  5
5B44
331
4C43
  5
5CC7
331
4C76
  5
5CFA
331
4B07
  5
5D9B
331
4B39
  5
5DCD
331
4B6C
  5
5E00
331
4A53
  5
5F46
331
4DA6
  5
5AD2
331
4DD9
  5
5B05
331
4949
  5
5E26
331
497C
  5
5E59
331
4CC1
  5
5B8F
331
4CF4
  5
5BC2
331
4BB7
  5
5C33
331
4BEA
  5
5C6E
331
4C15
  5
5C99
331
4AD9
  5
5D6D
331
4B0C
  5
5DA0
331
49C7
  5
5EA4
331
49FA
  5
5ED7
331
4D1A
  5
5BE8
331
4D4D
  5
5B69
331
4D78
  5
5A9E
331
4C68
  5
5CEC
331
4C93
  5
5D17
331
4B5E
  5
5DF2
331
4B91
  5
5C0D
331
4BBC
  5
5C38
331
4A45
  5
5F38
331
4A80
  5
5F54
331
4AAB
  5
5F6E
331
4DCB
  5
5AF7
331
4DF6
  5
5B22
331
496E
  5
5E4B
331
49A1
  5
5E7E
331
4CE6
  5
5BB4
331
4C0F
  5
5C93
331
4C3A
  5
5CBE
331
4AFE
  5
5D92
331
4B30
  5
5DC4
331
4B63
  5
5DF7
331
49EC
  5
5EC9
331
4A1F
  5
5EFC
331
4A4A
  5
5F3D
331
4D3F
  5
5B5B
331
4D72
  5
5A98
331
4D9D
  5
5AC9
331
4940
  5
5E1D
331
4CB8
  5
5D3C
331
4CEB
  5
5BB9
331
4BAE
  5
5C2A
331
4BE1
  5
5C65
331
4AD0
  5
5D64
331
4993
  5
5E70
331
49BE
  5
5E9B
331
49F1
  5
5ECE
331
4D11
  5
5BDF
331
4D44
  5
5B60
331
4C2C
  5
5CB0
331
4C5F
  5
5CE3
331
4C8A
  5
5D0E
331
4B55
  5
5DE9
331
4B88
  5
5C04
331
4A3C
  5
5F2F
331
4D8F
  5
5ABB
331
4DC2
  5
5AEE
331
4965
  5
5E42
331
4998
  5
5E75
331
4CDD
  5
5BAB
331
4BD3
  5
5C57
331
4C06
  5
5C8A
331
4C31
  5
5CB5
331
4AC2
  5
5D56
331
4AF5
  5
5D89
331
4E0D
  5
5B39
331
4B27
  5
5DBB
331
49E3
  5
5EC0
331
4A16
  5
5EF3
331
4D36
  5
5B52
331
4D69
  5
5B85
331
4931
  5
5E0E
331
4C84
  5
5D08
331
4CAF
  5
5D33
331
4B7A
  5
5BF6
331
4BA5
  5
5C21
331
4BD8
  5
5C5C
331
4A69
  5
5F4B
331
4A9C
  5
5F67
331
4DB4
  5
5AE0
331
4DE7
  5
5B13
331
4957
  5
5E34
331
498A
  5
5E67
331
49B5
  5
5E92
331
4D08
  5
5BD6
331
4C23
  5
5CA7
331
4C56
  5
5CDA
331
4AE7
  5
5D7B
331
4B1A
  5
5DAE
331
4B4C
  5
5DE0
331
4A08
  5
5EE5
331
4A33
  5
5F26
331
4D5B
  5
5B77
331
4D86
  5
5AB2
331
4DB9
  5
5AE5
331
495C
  5
5E39
331
4CA1
  5
5D25
331
4CD4
  5
5BA2
331
4BCA
  5
5C4E
331
4BFD
  5
5C81
331
4AB9
  5
5D4D
331
4AEC
  5
5D80
331
4E04
  5
5B30
331
49AF
  5
5E8C
331
49DA
  5
5EB7
331
4D2D
  5
5B49
331
4D60
  5
5B7C
331
4928
  5
5E05
331
4C48
  5
5CCC
331
4C7B
  5
5CFF
331
4B3E
  5
5DD2
331
4B71
  5
5BED
331
4B9C
  5
5C18
331
4A93
  5
5F5E
331
4DAB
  5
5AD7
331
4DDE
  5
5B0A
331
494E
  5
5E2B
331
4981
  5
5E5E
331
4CC6
  5
5B94
331
4CF9
  5
5BC7
331
4BEF
  5
5C73
331
4C1A
  5
5C9E
331
4ADE
  5
5D72
331
4B11
  5
5DA5
331
4B43
  5
5DD7
331
49CC
  5
5EA9
331
49FF
  5
5EDC
331
4A2A
  5
5F07
331
4D1F
  5
5B3B
331
4D52
  5
5B6E
331
4D7D
  5
5AA9
331
4C6D
  5
5CF1
331
4C98
  5
5D1C
331
4CCB
  5
5B99
331
4B96
  5
5C12
331
4BC1
  5
5C3D
331
4A85
  5
5F59
331
4AB0
  5
5D44
331
4DD0
  5
5AFC
331
4DFB
  5
5B27
331
4973
  5
5E50
331
49A6
  5
5E83
331
49D1
  5
5EAE
331
4D24
  5
5B40
331
4C3F
  5
5CC3
331
4C72
  5
5CF6
331
4B03
  5
5D97
331
4B35
  5
5DC9
331
4B68
  5
5DFC
331
4A24
  5
5F01
331
4A4F
  5
5F42
331
4D77
  5
5A9D
331
4DA2
  5
5ACE
331
4945
  5
5E22
331
4978
  5
5E55
331
4CBD
  5
5D41
331
4CF0
  5
5BBE
331
4BB3
  5
5C2F
331
4BE6
  5
5C6A
331
4C11
  5
5C95
331
4AD5
  5
5D69
331
4B08
  5
5D9C
331
49C3
  5
5EA0
331
49F6
  5
5ED3
331
4D16
  5
5BE4
331
4D49
  5
5B65
331
4C64
  5
5CE8
331
4C8F
  5
5D13
331
4B5A
  5
5DEE
331
4B8D
  5
5C09
331
4BB8
  5
5C34
331
4A41
  5
5F34
331
4D94
  5
5AC0
331
4DC7
  5
5AF3
331
4DF2
  5
5B1E
331
496A
  5
5E47
331
499D
  5
5E7A
331
4CE2
  5
5BB0
331
4C0B
  5
5C8F
331
4C36
  5
5CBA
331
4AC7
  5
5D5B
331
4AFA
  5
5D8E
331
4B2C
  5
5DC0
331
49E8
  5
5EC5
331
4A1B
  5
5EF8
331
4D3B
  5
5B57
331
4D6E
  5
5B8A
331
4D99
  5
5AC5
331
4936
  5
5E13
331
493C
  5
5E19
331
4CB4
  5
5D38
331
4B7F
  5
5BFB
331
4BAA
  5
5C26
331
4BDD
  5
5C61
331
4ACC
  5
5D60
331
4DEC
  5
5B18
331
498F
  5
5E6C
331
49BA
  5
5E97
331
4D0D
  5
5BDB
331
4D40
  5
5B5C
331
4C28
  5
5CAC
331
4C5B
  5
5CDF
331
4B1F
  5
5DB3
331
4B51
  5
5DE5
331
4B84
  5
5C00
331
4A0D
  5
5EEA
331
4A38
  5
5F2B
331
4A73
  5
5F50
331
4D8B
  5
5AB7
331
4DBE
  5
5AEA
331
4961
  5
5E3E
331
4CA6
  5
5D2A
331
4CD9
  5
5BA7
331
4BCF
  5
5C53
331
4C02
  5
5C86
331
4ABE
  5
5D52
331
4AF1
  5
5D85
331
4E09
  5
5B35
331
4B23
  5
5DB7
331
49DF
  5
5EBC
331
4A12
  5
5EEF
331
4D32
  5
5B4E
331
4D65
  5
5B81
331
492D
  5
5E0A
331
4C4D
  5
5CD1
331
4C80
  5
5D04
331
4CAB
  5
5D2F
331
4B76
  5
5BF2
331
4BA1
  5
5C1D
331
4A98
  5
5F63
331
4DB0
  5
5ADC
331
4DE3
  5
5B0F
331
4953
  5
5E30
331
4986
  5
5E63
331
49B1
  5
5E8E
331
4CFE
  5
5BCC
331
4D04
  5
5BD2
331
4BF4
  5
5C78
331
4C1F
  5
5CA3
331
4C52
  5
5CD6
331
4AE3
  5
5D77
331
4B16
  5
5DAA
331
4B48
  5
5DDC
331
4A04
  5
5EE1
331
4A2F
  5
5F17
331
4D57
  5
5B73
331
4D82
  5
5AAE
331
4958
  5
5E35
331
4C9D
  5
5D21
331
4CD0
  5
5B9E
331
4BC6
  5
5C4A
331
4BF9
  5
5C7D
331
4AB5
  5
5D49
331
4AE8
  5
5D7C
331
4DD5
  5
5B01
331
4E00
  5
5B2C
331
49AB
  5
5E88
331
49D6
  5
5EB3
331
4D29
  5
5B45
331
4C44
  5
5CC8
331
4C77
  5
5CFB
331
4B3A
  5
5DCE
331
4B6D
  5
5E01
331
4B98
  5
5C14
331
4DA7
  5
5AD3
331
4DDA
  5
5B06
331
494A
  5
5E27
331
497D
  5
5E5A
331
4CC2
  5
5B90
331
4CF5
  5
5BC3
331
4BEB
  5
5C6F
331
4C16
  5
5C9A
331
4ADA
  5
5D6E
331
4B0D
  5
5DA1
331
49C8
  5
5EA5
331
49FB
  5
5ED8
331
4D1B
  5
5BE9
331
4D4E
  5
5B6A
331
4D79
  5
5A9F
331
4C69
  5
5CED
331
4C94
  5
5D18
  0
LAYOUT
  5
21
102
{ACAD_XDICTIONARY
360
784D
102
}
102
{ACAD_REACTORS
330
1E
102
}
330
1E
100
AcDbPlotSettings
  1

  2

  4

  6

 40
0.0
 41
0.0
 42
0.0
 43
0.0
 44
0.0
 45
0.0
 46
0.0
 47
0.0
 48
0.0
 49
0.0
140
0.0
141
0.0
142
1.0
143
1.0
 70
     0
 72
     0
 73
     0
 74
     0
  7

 75
     0
147
1.0
148
0.0
149
0.0
100
AcDbLayout
  1
Layout1
 70
     0
 71
     1
 10
0.0
 20
0.0
 11
12.0
 21
9.0
 12
0.0
 22
0.0
 32
0.0
 14
1.000000000000000E+20
 24
1.000000000000000E+20
 34
1.000000000000000E+20
 15
-1.000000000000000E+20
 25
-1.000000000000000E+20
 35
-1.000000000000000E+20
146
0.0
 13
0.0
 23
0.0
 33
0.0
 16
1.0
 26
0.0
 36
0.0
 17
0.0
 27
1.0
 37
0.0
 76
     0
330
B
  0
LAYOUT
  5
20
102
{ACAD_XDICTIONARY
360
784B
102
}
102
{ACAD_REACTORS
330
1E
102
}
330
1E
100
AcDbPlotSettings
  1

  2

  4

  6

 40
0.0
 41
0.0
 42
0.0
 43
0.0
 44
0.0
 45
0.0
 46
0.0
 47
0.0
 48
0.0
 49
0.0
140
0.0
141
0.0
142
1.0
143
1.0
 70
  1024
 72
     0
 73
     0
 74
     0
  7

 75
     0
147
1.0
148
0.0
149
0.0
100
AcDbLayout
  1
Model
 70
     0
 71
     0
 10
0.0
 20
0.0
 11
0.0
 21
0.0
 12
0.0
 22
0.0
 32
0.0
 14
0.0
 24
0.0
 34
0.0
 15
0.0
 25
0.0
 35
0.0
146
0.0
 13
0.0
 23
0.0
 33
0.0
 16
0.0
 26
0.0
 36
0.0
 17
0.0
 27
0.0
 37
0.0
 76
     0
330
A
331
15
  0
MATERIAL
  5
3967
102
{ACAD_XDICTIONARY
360
3968
102
}
102
{ACAD_REACTORS
330
395E
102
}
330
395E
100
AcDbMaterial
  1
ByBlock
 72
     0
 43
0.0208333333333333
 43
0.0
 43
0.0
 43
0.0
 43
0.0
 43
0.0208333333333333
 43
0.0
 43
0.0
 43
0.0
 43
0.0
 43
1.0
 43
0.0
 43
0.0
 43
0.0
 43
0.0
 43
1.0
 77
     0
 47
0.0208333333333333
 47
0.0
 47
0.0
 47
0.0
 47
0.0
 47
0.0208333333333333
 47
0.0
 47
0.0
 47
0.0
 47
0.0
 47
1.0
 47
0.0
 47
0.0
 47
0.0
 47
0.0
 47
1.0
171
     0
 49
0.0208333333333333
 49
0.0
 49
0.0
 49
0.0
 49
0.0
 49
0.0208333333333333
 49
0.0
 49
0.0
 49
0.0
 49
0.0
 49
1.0
 49
0.0
 49
0.0
 49
0.0
 49
0.0
 49
1.0
175
     0
142
0.0208333333333333
142
0.0
142
0.0
142
0.0
142
0.0
142
0.0208333333333333
142
0.0
142
0.0
142
0.0
142
0.0
142
1.0
142
0.0
142
0.0
142
0.0
142
0.0
142
1.0
179
     0
144
0.0208333333333333
144
0.0
144
0.0
144
0.0
144
0.0
144
0.0208333333333333
144
0.0
144
0.0
144
0.0
144
0.0
144
1.0
144
0.0
144
0.0
144
0.0
144
0.0
144
1.0
147
0.0208333333333333
147
0.0
147
0.0
147
0.0
147
0.0
147
0.0208333333333333
147
0.0
147
0.0
147
0.0
147
0.0
147
1.0
147
0.0
147
0.0
147
0.0
147
0.0
147
1.0
  0
MATERIAL
  5
395F
102
{ACAD_XDICTIONARY
360
3960
102
}
102
{ACAD_REACTORS
330
395E
102
}
330
395E
100
AcDbMaterial
  1
ByLayer
 72
     0
 43
0.0208333333333333
 43
0.0
 43
0.0
 43
0.0
 43
0.0
 43
0.0208333333333333
 43
0.0
 43
0.0
 43
0.0
 43
0.0
 43
1.0
 43
0.0
 43
0.0
 43
0.0
 43
0.0
 43
1.0
 77
     0
 47
0.0208333333333333
 47
0.0
 47
0.0
 47
0.0
 47
0.0
 47
0.0208333333333333
 47
0.0
 47
0.0
 47
0.0
 47
0.0
 47
1.0
 47
0.0
 47
0.0
 47
0.0
 47
0.0
 47
1.0
171
     0
 49
0.0208333333333333
 49
0.0
 49
0.0
 49
0.0
 49
0.0
 49
0.0208333333333333
 49
0.0
 49
0.0
 49
0.0
 49
0.0
 49
1.0
 49
0.0
 49
0.0
 49
0.0
 49
0.0
 49
1.0
175
     0
142
0.0208333333333333
142
0.0
142
0.0
142
0.0
142
0.0
142
0.0208333333333333
142
0.0
142
0.0
142
0.0
142
0.0
142
1.0
142
0.0
142
0.0
142
0.0
142
0.0
142
1.0
179
     0
144
0.0208333333333333
144
0.0
144
0.0
144
0.0
144
0.0
144
0.0208333333333333
144
0.0
144
0.0
144
0.0
144
0.0
144
1.0
144
0.0
144
0.0
144
0.0
144
0.0
144
1.0
147
0.0208333333333333
147
0.0
147
0.0
147
0.0
147
0.0
147
0.0208333333333333
147
0.0
147
0.0
147
0.0
147
0.0
147
1.0
147
0.0
147
0.0
147
0.0
147
0.0
147
1.0
  0
MATERIAL
  5
396F
102
{ACAD_XDICTIONARY
360
3970
102
}
102
{ACAD_REACTORS
330
395E
102
}
330
395E
100
AcDbMaterial
  1
Global
 72
     0
 43
0.0208333333333333
 43
0.0
 43
0.0
 43
0.0
 43
0.0
 43
0.0208333333333333
 43
0.0
 43
0.0
 43
0.0
 43
0.0
 43
1.0
 43
0.0
 43
0.0
 43
0.0
 43
0.0
 43
1.0
 77
     0
 47
0.0208333333333333
 47
0.0
 47
0.0
 47
0.0
 47
0.0
 47
0.0208333333333333
 47
0.0
 47
0.0
 47
0.0
 47
0.0
 47
1.0
 47
0.0
 47
0.0
 47
0.0
 47
0.0
 47
1.0
171
     0
 49
0.0208333333333333
 49
0.0
 49
0.0
 49
0.0
 49
0.0
 49
0.0208333333333333
 49
0.0
 49
0.0
 49
0.0
 49
0.0
 49
1.0
 49
0.0
 49
0.0
 49
0.0
 49
0.0
 49
1.0
175
     0
142
0.0208333333333333
142
0.0
142
0.0
142
0.0
142
0.0
142
0.0208333333333333
142
0.0
142
0.0
142
0.0
142
0.0
142
1.0
142
0.0
142
0.0
142
0.0
142
0.0
142
1.0
179
     0
144
0.0208333333333333
144
0.0
144
0.0
144
0.0
144
0.0
144
0.0208333333333333
144
0.0
144
0.0
144
0.0
144
0.0
144
1.0
144
0.0
144
0.0
144
0.0
144
0.0
144
1.0
147
0.0208333333333333
147
0.0
147
0.0
147
0.0
147
0.0
147
0.0208333333333333
147
0.0
147
0.0
147
0.0
147
0.0
147
1.0
147
0.0
147
0.0
147
0.0
147
0.0
147
1.0
  0
MLEADERSTYLE
  5
39AE
102
{ACAD_REACTORS
330
39AD
102
}
330
39AD
100
AcDbMLeaderStyle
170
     2
171
     1
172
     0
 90
        2
 40
0.0
 41
0.0
173
     1
 91
-1056964608
340
11
 92
       -2
290
     1
 42
2.0
291
     1
 43
0.36
  3
Standard
 44
4.0
300

342
17
174
     1
178
     6
175
     1
176
     0
 93
-1056964608
 45
4.0
292
     0
297
     0
 46
4.0
 94
-1056964608
 47
1.0
 49
1.0
140
1.0
293
     1
141
0.0
294
     1
177
     0
142
1.0
295
     0
296
     0
143
0.125
1001
ACAD_MLEADERVER
1070
     2
  0
MLINESTYLE
  5
1C
102
{ACAD_REACTORS
330
1B
102
}
330
1B
100
AcDbMlineStyle
  2
STANDARD
 70
     0
  3

 62
     0
 51
90.0
 52
90.0
 71
     2
 49
0.5
 62
   256
  6
BYLAYER
 49
-0.5
 62
   256
  6
BYLAYER
  0
ACDBPLACEHOLDER
  5
1D
102
{ACAD_REACTORS
330
1F
102
}
330
1F
  0
SCALE
  5
398C
102
{ACAD_REACTORS
330
398B
102
}
330
398B
100
AcDbScale
 70
     0
300
1:1
140
1.0
141
1.0
290
     1
  0
SCALE
  5
398D
102
{ACAD_REACTORS
330
398B
102
}
330
398B
100
AcDbScale
 70
     0
300
1:2
140
1.0
141
2.0
290
     0
  0
SCALE
  5
398E
102
{ACAD_REACTORS
330
398B
102
}
330
398B
100
AcDbScale
 70
     0
300
1:4
140
1.0
141
4.0
290
     0
  0
SCALE
  5
398F
102
{ACAD_REACTORS
330
398B
102
}
330
398B
100
AcDbScale
 70
     0
300
1:5
140
1.0
141
5.0
290
     0
  0
SCALE
  5
3990
102
{ACAD_REACTORS
330
398B
102
}
330
398B
100
AcDbScale
 70
     0
300
1:8
140
1.0
141
8.0
290
     0
  0
SCALE
  5
3991
102
{ACAD_REACTORS
330
398B
102
}
330
398B
100
AcDbScale
 70
     0
300
1:10
140
1.0
141
10.0
290
     0
  0
SCALE
  5
3992
102
{ACAD_REACTORS
330
398B
102
}
330
398B
100
AcDbScale
 70
     0
300
1:16
140
1.0
141
16.0
290
     0
  0
SCALE
  5
3993
102
{ACAD_REACTORS
330
398B
102
}
330
398B
100
AcDbScale
 70
     0
300
1:20
140
1.0
141
20.0
290
     0
  0
SCALE
  5
3994
102
{ACAD_REACTORS
330
398B
102
}
330
398B
100
AcDbScale
 70
     0
300
1:30
140
1.0
141
30.0
290
     0
  0
SCALE
  5
3995
102
{ACAD_REACTORS
330
398B
102
}
330
398B
100
AcDbScale
 70
     0
300
1:40
140
1.0
141
40.0
290
     0
  0
SCALE
  5
3996
102
{ACAD_REACTORS
330
398B
102
}
330
398B
100
AcDbScale
 70
     0
300
1:50
140
1.0
141
50.0
290
     0
  0
SCALE
  5
3997
102
{ACAD_REACTORS
330
398B
102
}
330
398B
100
AcDbScale
 70
     0
300
1:100
140
1.0
141
100.0
290
     0
  0
SCALE
  5
3998
102
{ACAD_REACTORS
330
398B
102
}
330
398B
100
AcDbScale
 70
     0
300
2:1
140
2.0
141
1.0
290
     0
  0
SCALE
  5
3999
102
{ACAD_REACTORS
330
398B
102
}
330
398B
100
AcDbScale
 70
     0
300
4:1
140
4.0
141
1.0
290
     0
  0
SCALE
  5
399A
102
{ACAD_REACTORS
330
398B
102
}
330
398B
100
AcDbScale
 70
     0
300
8:1
140
8.0
141
1.0
290
     0
  0
SCALE
  5
399B
102
{ACAD_REACTORS
330
398B
102
}
330
398B
100
AcDbScale
 70
     0
300
10:1
140
10.0
141
1.0
290
     0
  0
SCALE
  5
399C
102
{ACAD_REACTORS
330
398B
102
}
330
398B
100
AcDbScale
 70
     0
300
100:1
140
100.0
141
1.0
290
     0
  0
SCALE
  5
399D
102
{ACAD_REACTORS
330
398B
102
}
330
398B
100
AcDbScale
 70
     0
300
1/128" = 1'-0"
140
0.0078125
141
12.0
290
     0
  0
SCALE
  5
399E
102
{ACAD_REACTORS
330
398B
102
}
330
398B
100
AcDbScale
 70
     0
300
1/64" = 1'-0"
140
0.015625
141
12.0
290
     0
  0
SCALE
  5
399F
102
{ACAD_REACTORS
330
398B
102
}
330
398B
100
AcDbScale
 70
     0
300
1/32" = 1'-0"
140
0.03125
141
12.0
290
     0
  0
SCALE
  5
39A0
102
{ACAD_REACTORS
330
398B
102
}
330
398B
100
AcDbScale
 70
     0
300
1/16" = 1'-0"
140
0.0625
141
12.0
290
     0
  0
SCALE
  5
39A1
102
{ACAD_REACTORS
330
398B
102
}
330
398B
100
AcDbScale
 70
     0
300
3/32" = 1'-0"
140
0.09375
141
12.0
290
     0
  0
SCALE
  5
39A2
102
{ACAD_REACTORS
330
398B
102
}
330
398B
100
AcDbScale
 70
     0
300
1/8" = 1'-0"
140
0.125
141
12.0
290
     0
  0
SCALE
  5
39A3
102
{ACAD_REACTORS
330
398B
102
}
330
398B
100
AcDbScale
 70
     0
300
3/16" = 1'-0"
140
0.1875
141
12.0
290
     0
  0
SCALE
  5
39A4
102
{ACAD_REACTORS
330
398B
102
}
330
398B
100
AcDbScale
 70
     0
300
1/4" = 1'-0"
140
0.25
141
12.0
290
     0
  0
SCALE
  5
39A5
102
{ACAD_REACTORS
330
398B
102
}
330
398B
100
AcDbScale
 70
     0
300
3/8" = 1'-0"
140
0.375
141
12.0
290
     0
  0
SCALE
  5
39A6
102
{ACAD_REACTORS
330
398B
102
}
330
398B
100
AcDbScale
 70
     0
300
1/2" = 1'-0"
140
0.5
141
12.0
290
     0
  0
SCALE
  5
39A7
102
{ACAD_REACTORS
330
398B
102
}
330
398B
100
AcDbScale
 70
     0
300
3/4" = 1'-0"
140
0.75
141
12.0
290
     0
  0
SCALE
  5
39A8
102
{ACAD_REACTORS
330
398B
102
}
330
398B
100
AcDbScale
 70
     0
300
1" = 1'-0"
140
1.0
141
12.0
290
     0
  0
SCALE
  5
39A9
102
{ACAD_REACTORS
330
398B
102
}
330
398B
100
AcDbScale
 70
     0
300
1-1/2" = 1'-0"
140
1.5
141
12.0
290
     0
  0
SCALE
  5
39AA
102
{ACAD_REACTORS
330
398B
102
}
330
398B
100
AcDbScale
 70
     0
300
3" = 1'-0"
140
3.0
141
12.0
290
     0
  0
SCALE
  5
39AB
102
{ACAD_REACTORS
330
398B
102
}
330
398B
100
AcDbScale
 70
     0
300
6" = 1'-0"
140
6.0
141
12.0
290
     0
  0
SCALE
  5
39AC
102
{ACAD_REACTORS
330
398B
102
}
330
398B
100
AcDbScale
 70
     0
300
1'-0" = 1'-0"
140
12.0
141
12.0
290
     0
  0
TABLESTYLE
  5
398A
102
{ACAD_XDICTIONARY
360
72EA
102
}
102
{ACAD_REACTORS
330
3989
102
}
330
3989
100
AcDbTableStyle
  3
Standard
 70
     0
 71
     0
 40
1.5
 41
1.5
280
     0
281
     0
  7
Standard
140
4.5
170
     2
 62
     0
 63
     7
283
     0
274
    -2
284
     1
 64
     0
275
    -2
285
     1
 65
     0
276
    -2
286
     1
 66
     0
277
    -2
287
     1
 67
     0
278
    -2
288
     1
 68
     0
279
    -2
289
     1
 69
     0
  7
Standard
140
6.0
170
     5
 62
     0
 63
     7
283
     0
274
    -2
284
     1
 64
     0
275
    -2
285
     1
 65
     0
276
    -2
286
     1
 66
     0
277
    -2
287
     1
 67
     0
278
    -2
288
     1
 68
     0
279
    -2
289
     1
 69
     0
  7
Standard
140
4.5
170
     5
 62
     0
 63
     7
283
     0
274
    -2
284
     1
 64
     0
275
    -2
285
     1
 65
     0
276
    -2
286
     1
 66
     0
277
    -2
287
     1
 67
     0
278
    -2
288
     1
 68
     0
279
    -2
289
     1
 69
     0
  0
VISUALSTYLE
  5
397D
102
{ACAD_REACTORS
330
3977
102
}
330
3977
100
AcDbVisualStyle
  2
2dWireframe
 70
     4
 71
     0
 72
     2
 73
     0
 90
        0
 40
-0.6
 41
-30.0
 62
     5
 63
     7
 74
     1
 91
        4
 64
     7
 65
   257
 75
     1
175
     1
 42
1.0
 92
        0
 66
   257
 43
1.0
 76
     1
 77
     6
 78
     2
 67
     7
 79
     5
170
     0
171
     0
290
     0
174
     0
 93
        1
 44
0.0
173
     0
291
     0
 45
0.0
1001
ACAD
1000
AcDbSavedByObjectVersion
1070
     0
1000
AcDbSavedByObjectVersion
1070
     0
1000
AcDbSavedByObjectVersion
1070
     0
1000
AcDbSavedByObjectVersion
1070
     0
1000
AcDbSavedByObjectVersion
1070
     0
1000
AcDbSavedByObjectVersion
1070
     0
  0
VISUALSTYLE
  5
397F
102
{ACAD_REACTORS
330
3977
102
}
330
3977
100
AcDbVisualStyle
  2
3D Hidden
 70
     6
 71
     1
 72
     2
 73
     2
 90
        0
 40
-0.6
 41
-30.0
 62
     5
 63
     7
 74
     2
 91
        2
 64
     7
 65
   257
 75
     2
175
     1
 42
40.0
 92
        0
 66
   257
 43
1.0
 76
     1
 77
     6
 78
     2
 67
     7
 79
     3
170
     0
171
     0
290
     0
174
     0
 93
        1
 44
0.0
173
     0
291
     0
 45
0.0
1001
ACAD
1000
AcDbSavedByObjectVersion
1070
     0
1000
AcDbSavedByObjectVersion
1070
     0
1000
AcDbSavedByObjectVersion
1070
     0
1000
AcDbSavedByObjectVersion
1070
     0
1000
AcDbSavedByObjectVersion
1070
     0
1000
AcDbSavedByObjectVersion
1070
     0
  0
VISUALSTYLE
  5
397E
102
{ACAD_REACTORS
330
3977
102
}
330
3977
100
AcDbVisualStyle
  2
3dWireframe
 70
     5
 71
     0
 72
     2
 73
     0
 90
        0
 40
-0.6
 41
-30.0
 62
     5
 63
     7
 74
     1
 91
        4
 64
     7
 65
   257
 75
     1
175
     1
 42
1.0
 92
        0
 66
   257
 43
1.0
 76
     1
 77
     6
 78
     2
 67
     7
 79
     5
170
     0
171
     0
290
     0
174
     0
 93
        1
 44
0.0
173
     0
291
     0
 45
0.0
1001
ACAD
1000
AcDbSavedByObjectVersion
1070
     0
1000
AcDbSavedByObjectVersion
1070
     0
1000
AcDbSavedByObjectVersion
1070
     0
1000
AcDbSavedByObjectVersion
1070
     0
1000
AcDbSavedByObjectVersion
1070
     0
1000
AcDbSavedByObjectVersion
1070
     0
  0
VISUALSTYLE
  5
397C
102
{ACAD_REACTORS
330
3977
102
}
330
3977
100
AcDbVisualStyle
  2
Basic
 70
     7
 71
     1
 72
     0
 73
     1
 90
        0
 40
-0.6
 41
-30.0
 62
     5
 63
     7
 74
     0
 91
        4
 64
     7
 65
   257
 75
     1
175
     1
 42
1.0
 92
        8
 66
     7
 43
1.0
 76
     1
 77
     6
 78
     2
 67
     7
 79
     5
170
     0
171
     0
290
     0
174
     0
 93
        1
 44
0.0
173
     0
291
     1
 45
0.0
1001
ACAD
1000
AcDbSavedByObjectVersion
1070
     0
1000
AcDbSavedByObjectVersion
1070
     0
1000
AcDbSavedByObjectVersion
1070
     0
1000
AcDbSavedByObjectVersion
1070
     0
1000
AcDbSavedByObjectVersion
1070
     0
1000
AcDbSavedByObjectVersion
1070
     0
  0
VISUALSTYLE
  5
3983
102
{ACAD_REACTORS
330
3977
102
}
330
3977
100
AcDbVisualStyle
  2
Brighten
 70
    12
 71
     2
 72
     2
 73
     0
 90
        0
 40
-0.6
 41
-30.0
 62
     5
 63
     7
 74
     1
 91
        4
 64
     7
 65
   257
 75
     1
175
     1
 42
1.0
 92
        8
 66
     7
 43
1.0
 76
     1
 77
     6
 78
     2
 67
     7
 79
     5
170
     0
171
     0
290
     0
174
     0
 93
        1
 44
50.0
173
     0
291
     1
 45
0.0
1001
ACAD
1000
AcDbSavedByObjectVersion
1070
     0
1000
AcDbSavedByObjectVersion
1070
     0
1000
AcDbSavedByObjectVersion
1070
     0
1000
AcDbSavedByObjectVersion
1070
     0
1000
AcDbSavedByObjectVersion
1070
     0
1000
AcDbSavedByObjectVersion
1070
     0
  0
VISUALSTYLE
  5
3987
102
{ACAD_REACTORS
330
3977
102
}
330
3977
100
AcDbVisualStyle
  2
ColorChange
 70
    16
 71
     2
 72
     2
 73
     3
 90
        0
 40
-0.6
 41
-30.0
 62
     5
 63
     8
 74
     1
 91
        4
 64
     7
 65
   257
 75
     1
175
     1
 42
1.0
 92
        8
 66
     8
 43
1.0
 76
     1
 77
     6
 78
     2
 67
     7
 79
     5
170
     0
171
     0
290
     0
174
     0
 93
        1
 44
0.0
173
     0
291
     1
 45
0.0
1001
ACAD
1000
AcDbSavedByObjectVersion
1070
     0
1000
AcDbSavedByObjectVersion
1070
     0
1000
AcDbSavedByObjectVersion
1070
     0
1000
AcDbSavedByObjectVersion
1070
     0
1000
AcDbSavedByObjectVersion
1070
     0
1000
AcDbSavedByObjectVersion
1070
     0
  0
VISUALSTYLE
  5
3980
102
{ACAD_REACTORS
330
3977
102
}
330
3977
100
AcDbVisualStyle
  2
Conceptual
 70
     9
 71
     3
 72
     2
 73
     0
 90
        0
 40
-0.6
 41
-30.0
 62
     5
 63
     7
 74
     2
 91
        2
 64
     7
 65
   257
 75
     1
175
     1
 42
40.0
 92
        8
 66
     7
 43
1.0
 76
     1
 77
     6
 78
     2
 67
     7
 79
     3
170
     0
171
     0
290
     0
174
     0
 93
        1
 44
0.0
173
     0
291
     0
 45
0.0
1001
ACAD
1000
AcDbSavedByObjectVersion
1070
     0
1000
AcDbSavedByObjectVersion
1070
     0
1000
AcDbSavedByObjectVersion
1070
     0
1000
AcDbSavedByObjectVersion
1070
     0
1000
AcDbSavedByObjectVersion
1070
     0
1000
AcDbSavedByObjectVersion
1070
     0
  0
VISUALSTYLE
  5
3982
102
{ACAD_REACTORS
330
3977
102
}
330
3977
100
AcDbVisualStyle
  2
Dim
 70
    11
 71
     2
 72
     2
 73
     0
 90
        0
 40
-0.6
 41
-30.0
 62
     5
 63
     7
 74
     1
 91
        4
 64
     7
 65
   257
 75
     1
175
     1
 42
1.0
 92
        8
 66
     7
 43
1.0
 76
     1
 77
     6
 78
     2
 67
     7
 79
     5
170
     0
171
     0
290
     0
174
     0
 93
        1
 44
-50.0
173
     0
291
     1
 45
0.0
1001
ACAD
1000
AcDbSavedByObjectVersion
1070
     0
1000
AcDbSavedByObjectVersion
1070
     0
1000
AcDbSavedByObjectVersion
1070
     0
1000
AcDbSavedByObjectVersion
1070
     0
1000
AcDbSavedByObjectVersion
1070
     0
1000
AcDbSavedByObjectVersion
1070
     0
  0
VISUALSTYLE
  5
3986
102
{ACAD_REACTORS
330
3977
102
}
330
3977
100
AcDbVisualStyle
  2
Facepattern
 70
    15
 71
     2
 72
     2
 73
     0
 90
        0
 40
-0.6
 41
-30.0
 62
     5
 63
     7
 74
     1
 91
        4
 64
     7
 65
   257
 75
     1
175
     1
 42
1.0
 92
        8
 66
     7
 43
1.0
 76
     1
 77
     6
 78
     2
 67
     7
 79
     5
170
     0
171
     0
290
     0
174
     0
 93
        1
 44
0.0
173
     0
291
     1
 45
0.0
1001
ACAD
1000
AcDbSavedByObjectVersion
1070
     0
1000
AcDbSavedByObjectVersion
1070
     0
1000
AcDbSavedByObjectVersion
1070
     0
1000
AcDbSavedByObjectVersion
1070
     0
1000
AcDbSavedByObjectVersion
1070
     0
1000
AcDbSavedByObjectVersion
1070
     0
  0
VISUALSTYLE
  5
3978
102
{ACAD_REACTORS
330
3977
102
}
330
3977
100
AcDbVisualStyle
  2
Flat
 70
     0
 71
     2
 72
     1
 73
     1
 90
        2
 40
-0.6
 41
30.0
 62
     5
 63
     7
 74
     0
 91
        4
 64
     7
 65
   257
 75
     1
175
     1
 42
1.0
 92
        8
 66
     7
 43
1.0
 76
     1
 77
     6
 78
     2
 67
     7
 79
     5
170
     0
171
     0
290
     0
174
     0
 93
       13
 44
0.0
173
     0
291
     1
 45
0.0
1001
ACAD
1000
AcDbSavedByObjectVersion
1070
     0
1000
AcDbSavedByObjectVersion
1070
     0
1000
AcDbSavedByObjectVersion
1070
     0
1000
AcDbSavedByObjectVersion
1070
     0
1000
AcDbSavedByObjectVersion
1070
     0
1000
AcDbSavedByObjectVersion
1070
     0
  0
VISUALSTYLE
  5
3979
102
{ACAD_REACTORS
330
3977
102
}
330
3977
100
AcDbVisualStyle
  2
FlatWithEdges
 70
     1
 71
     2
 72
     1
 73
     1
 90
        2
 40
-0.6
 41
30.0
 62
     5
 63
     7
 74
     1
 91
        4
 64
     7
 65
   257
 75
     1
175
     1
 42
1.0
 92
        0
 66
   257
 43
1.0
 76
     1
 77
     6
 78
     2
 67
     7
 79
     5
170
     0
171
     0
290
     0
174
     0
 93
       13
 44
0.0
173
     0
291
     1
 45
0.0
1001
ACAD
1000
AcDbSavedByObjectVersion
1070
     0
1000
AcDbSavedByObjectVersion
1070
     0
1000
AcDbSavedByObjectVersion
1070
     0
1000
AcDbSavedByObjectVersion
1070
     0
1000
AcDbSavedByObjectVersion
1070
     0
1000
AcDbSavedByObjectVersion
1070
     0
  0
VISUALSTYLE
  5
397A
102
{ACAD_REACTORS
330
3977
102
}
330
3977
100
AcDbVisualStyle
  2
Gouraud
 70
     2
 71
     2
 72
     2
 73
     1
 90
        2
 40
-0.6
 41
30.0
 62
     5
 63
     7
 74
     0
 91
        4
 64
     7
 65
   257
 75
     1
175
     1
 42
1.0
 92
        0
 66
     7
 43
1.0
 76
     1
 77
     6
 78
     2
 67
     7
 79
     5
170
     0
171
     0
290
     0
174
     0
 93
       13
 44
0.0
173
     0
291
     1
 45
0.0
1001
ACAD
1000
AcDbSavedByObjectVersion
1070
     0
1000
AcDbSavedByObjectVersion
1070
     0
1000
AcDbSavedByObjectVersion
1070
     0
1000
AcDbSavedByObjectVersion
1070
     0
1000
AcDbSavedByObjectVersion
1070
     0
1000
AcDbSavedByObjectVersion
1070
     0
  0
VISUALSTYLE
  5
397B
102
{ACAD_REACTORS
330
3977
102
}
330
3977
100
AcDbVisualStyle
  2
GouraudWithEdges
 70
     3
 71
     2
 72
     2
 73
     1
 90
        2
 40
-0.6
 41
30.0
 62
     5
 63
     7
 74
     1
 91
        4
 64
     7
 65
   257
 75
     1
175
     1
 42
1.0
 92
        0
 66
   257
 43
1.0
 76
     1
 77
     6
 78
     2
 67
     7
 79
     5
170
     0
171
     0
290
     0
174
     0
 93
       13
 44
0.0
173
     0
291
     1
 45
0.0
1001
ACAD
1000
AcDbSavedByObjectVersion
1070
     0
1000
AcDbSavedByObjectVersion
1070
     0
1000
AcDbSavedByObjectVersion
1070
     0
1000
AcDbSavedByObjectVersion
1070
     0
1000
AcDbSavedByObjectVersion
1070
     0
1000
AcDbSavedByObjectVersion
1070
     0
  0
VISUALSTYLE
  5
3985
102
{ACAD_REACTORS
330
3977
102
}
330
3977
100
AcDbVisualStyle
  2
Linepattern
 70
    14
 71
     2
 72
     2
 73
     0
 90
        0
 40
-0.6
 41
-30.0
 62
     5
 63
     7
 74
     1
 91
        4
 64
     7
 65
   257
 75
     7
175
     7
 42
1.0
 92
        8
 66
     7
 43
1.0
 76
     1
 77
     6
 78
     2
 67
     7
 79
     5
170
     0
171
     0
290
     0
174
     0
 93
        1
 44
0.0
173
     0
291
     1
 45
0.0
1001
ACAD
1000
AcDbSavedByObjectVersion
1070
     0
1000
AcDbSavedByObjectVersion
1070
     0
1000
AcDbSavedByObjectVersion
1070
     0
1000
AcDbSavedByObjectVersion
1070
     0
1000
AcDbSavedByObjectVersion
1070
     0
1000
AcDbSavedByObjectVersion
1070
     0
  0
VISUALSTYLE
  5
3981
102
{ACAD_REACTORS
330
3977
102
}
330
3977
100
AcDbVisualStyle
  2
Realistic
 70
     8
 71
     2
 72
     2
 73
     0
 90
        0
 40
-0.6
 41
-30.0
 62
     5
 63
     7
 74
     1
 91
        0
 64
     7
 65
   257
 75
     1
175
     1
 42
1.0
 92
        8
 66
     8
 43
1.0
 76
     1
 77
     6
 78
     2
 67
     7
 79
     5
170
     0
171
     0
290
     0
174
     0
 93
       13
 44
0.0
173
     0
291
     0
 45
0.0
1001
ACAD
1000
AcDbSavedByObjectVersion
1070
     0
1000
AcDbSavedByObjectVersion
1070
     0
1000
AcDbSavedByObjectVersion
1070
     0
1000
AcDbSavedByObjectVersion
1070
     0
1000
AcDbSavedByObjectVersion
1070
     0
1000
AcDbSavedByObjectVersion
1070
     0
  0
VISUALSTYLE
  5
3984
102
{ACAD_REACTORS
330
3977
102
}
330
3977
100
AcDbVisualStyle
  2
Thicken
 70
    13
 71
     2
 72
     2
 73
     0
 90
        0
 40
-0.6
 41
-30.0
 62
     5
 63
     7
 74
     1
 91
        4
 64
     7
 65
   257
 75
     1
175
     1
 42
1.0
 92
       12
 66
     7
 43
1.0
 76
     1
 77
     6
 78
     2
 67
     7
 79
     5
170
     0
171
     0
290
     0
174
     0
 93
        1
 44
0.0
173
     0
291
     1
 45
0.0
1001
ACAD
1000
AcDbSavedByObjectVersion
1070
     0
1000
AcDbSavedByObjectVersion
1070
     0
1000
AcDbSavedByObjectVersion
1070
     0
1000
AcDbSavedByObjectVersion
1070
     0
1000
AcDbSavedByObjectVersion
1070
     0
1000
AcDbSavedByObjectVersion
1070
     0
  0
DICTIONARYVAR
  5
72CE
102
{ACAD_REACTORS
330
72CB
102
}
330
72CB
100
DictionaryVariables
280
     0
  1
1:1
  0
DICTIONARYVAR
  5
72CD
102
{ACAD_REACTORS
330
72CB
102
}
330
72CB
100
DictionaryVariables
280
     0
  1
STANDARD
  0
DICTIONARYVAR
  5
72CC
102
{ACAD_REACTORS
330
72CB
102
}
330
72CB
100
DictionaryVariables
280
     0
  1
STANDARD
  0
DICTIONARYVAR
  5
72D1
102
{ACAD_REACTORS
330
72CB
102
}
330
72CB
100
DictionaryVariables
280
     0
  1
1
  0
DICTIONARYVAR
  5
72D0
102
{ACAD_REACTORS
330
72CB
102
}
330
72CB
100
DictionaryVariables
280
     0
  1
0
  0
DICTIONARYVAR
  5
72CF
102
{ACAD_REACTORS
330
72CB
102
}
330
72CB
100
DictionaryVariables
280
     0
  1
127
  0
XRECORD
  5
72C8
102
{ACAD_REACTORS
330
72C6
102
}
330
72C6
100
AcDbXrecord
280
     1
  0
DICTIONARY
  5
784D
330
21
100
AcDbDictionary
280
     1
281
     1
  3
ACAD_XREC_ROUNDTRIP
360
784E
  0
DICTIONARY
  5
784B
330
20
100
AcDbDictionary
280
     1
281
     1
  3
ACAD_XREC_ROUNDTRIP
360
784C
  0
DICTIONARY
  5
3968
330
3967
100
AcDbDictionary
280
     1
281
     1
  3
ACAD_XREC_ROUNDTRIP
360
72F3
  3
BUMPTILE
360
396A
  3
DIFFUSETILE
360
3969
  3
OPACITYTILE
360
396D
  3
REFLECTIONTILE
360
396C
  3
REFRACTIONTILE
360
396E
  3
SPECULARTILE
360
396B
  0
DICTIONARY
  5
3960
330
395F
100
AcDbDictionary
280
     1
281
     1
  3
ACAD_XREC_ROUNDTRIP
360
72F2
  3
BUMPTILE
360
3962
  3
DIFFUSETILE
360
3961
  3
OPACITYTILE
360
3965
  3
REFLECTIONTILE
360
3964
  3
REFRACTIONTILE
360
3966
  3
SPECULARTILE
360
3963
  0
DICTIONARY
  5
3970
330
396F
100
AcDbDictionary
280
     1
281
     1
  3
ACAD_XREC_ROUNDTRIP
360
72F4
  3
BUMPTILE
360
3972
  3
DIFFUSETILE
360
3971
  3
OPACITYTILE
360
3975
  3
REFLECTIONTILE
360
3974
  3
REFRACTIONTILE
360
3976
  3
SPECULARTILE
360
3973
  0
DICTIONARY
  5
72EA
330
398A
100
AcDbDictionary
280
     1
281
     1
  3
ACAD_ROUNDTRIP_2008_TABLESTYLE_CELLSTYLEMAP
360
7849
  3
ACAD_XREC_ROUNDTRIP
360
784F
  0
XRECORD
  5
784E
102
{ACAD_REACTORS
330
784D
102
}
330
784D
100
AcDbXrecord
280
     1
102
SHADEPLOT
 70
     0
102
SHADEPLOTRESLEVEL
 70
     2
102
SHADEPLOTCUSTOMDPI
 70
   300
  0
XRECORD
  5
784C
102
{ACAD_REACTORS
330
784B
102
}
330
784B
100
AcDbXrecord
280
     1
102
SHADEPLOT
 70
     0
102
SHADEPLOTRESLEVEL
 70
     2
102
SHADEPLOTCUSTOMDPI
 70
   300
  0
XRECORD
  5
72F3
102
{ACAD_REACTORS
330
3968
102
}
330
3968
100
AcDbXrecord
280
     1
102
MATERIAL
148
0.0
149
0.0
149
0.0
 93
        0
 94
      127
282
     0
 72
     0
 77
     0
171
     0
175
     0
179
     0
273
     0
  0
XRECORD
  5
396A
102
{ACAD_REACTORS
330
3968
102
}
330
3968
100
AcDbXrecord
280
     1
270
     1
271
     1
  0
XRECORD
  5
3969
102
{ACAD_REACTORS
330
3968
102
}
330
3968
100
AcDbXrecord
280
     1
270
     1
271
     1
  0
XRECORD
  5
396D
102
{ACAD_REACTORS
330
3968
102
}
330
3968
100
AcDbXrecord
280
     1
270
     1
271
     1
  0
XRECORD
  5
396C
102
{ACAD_REACTORS
330
3968
102
}
330
3968
100
AcDbXrecord
280
     1
270
     1
271
     1
  0
XRECORD
  5
396E
102
{ACAD_REACTORS
330
3968
102
}
330
3968
100
AcDbXrecord
280
     1
270
     1
271
     1
  0
XRECORD
  5
396B
102
{ACAD_REACTORS
330
3968
102
}
330
3968
100
AcDbXrecord
280
     1
270
     1
271
     1
  0
XRECORD
  5
72F2
102
{ACAD_REACTORS
330
3960
102
}
330
3960
100
AcDbXrecord
280
     1
102
MATERIAL
148
0.0
149
0.0
149
0.0
 93
        0
 94
      127
282
     0
 72
     0
 77
     0
171
     0
175
     0
179
     0
273
     0
  0
XRECORD
  5
3962
102
{ACAD_REACTORS
330
3960
102
}
330
3960
100
AcDbXrecord
280
     1
270
     1
271
     1
  0
XRECORD
  5
3961
102
{ACAD_REACTORS
330
3960
102
}
330
3960
100
AcDbXrecord
280
     1
270
     1
271
     1
  0
XRECORD
  5
3965
102
{ACAD_REACTORS
330
3960
102
}
330
3960
100
AcDbXrecord
280
     1
270
     1
271
     1
  0
XRECORD
  5
3964
102
{ACAD_REACTORS
330
3960
102
}
330
3960
100
AcDbXrecord
280
     1
270
     1
271
     1
  0
XRECORD
  5
3966
102
{ACAD_REACTORS
330
3960
102
}
330
3960
100
AcDbXrecord
280
     1
270
     1
271
     1
  0
XRECORD
  5
3963
102
{ACAD_REACTORS
330
3960
102
}
330
3960
100
AcDbXrecord
280
     1
270
     1
271
     1
  0
XRECORD
  5
72F4
102
{ACAD_REACTORS
330
3970
102
}
330
3970
100
AcDbXrecord
280
     1
102
MATERIAL
148
0.0
149
0.0
149
0.0
 93
        0
 94
      127
282
     0
 72
     0
 77
     0
171
     0
175
     0
179
     0
273
     0
  0
XRECORD
  5
3972
102
{ACAD_REACTORS
330
3970
102
}
330
3970
100
AcDbXrecord
280
     1
270
     1
271
     1
  0
XRECORD
  5
3971
102
{ACAD_REACTORS
330
3970
102
}
330
3970
100
AcDbXrecord
280
     1
270
     1
271
     1
  0
XRECORD
  5
3975
102
{ACAD_REACTORS
330
3970
102
}
330
3970
100
AcDbXrecord
280
     1
270
     1
271
     1
  0
XRECORD
  5
3974
102
{ACAD_REACTORS
330
3970
102
}
330
3970
100
AcDbXrecord
280
     1
270
     1
271
     1
  0
XRECORD
  5
3976
102
{ACAD_REACTORS
330
3970
102
}
330
3970
100
AcDbXrecord
280
     1
270
     1
271
     1
  0
XRECORD
  5
3973
102
{ACAD_REACTORS
330
3970
102
}
330
3970
100
AcDbXrecord
280
     1
270
     1
271
     1
  0
CELLSTYLEMAP
  5
7849
102
{ACAD_REACTORS
330
72EA
102
}
330
72EA
100
AcDbCellStyleMap
 90
        3
300
CELLSTYLE
  1
TABLEFORMAT_BEGIN
 90
        5
170
     1
 91
        0
 92
    32768
 62
   257
 93
        1
300
CONTENTFORMAT
  1
CONTENTFORMAT_BEGIN
 90
        0
 91
        0
 92
      512
 93
        0
300

 40
0.0
140
1.0
 94
        5
 62
     0
340
17
144
6.0
309
CONTENTFORMAT_END
171
     1
301
MARGIN
  1
CELLMARGIN_BEGIN
 40
1.5
 40
1.5
 40
1.5
 40
1.5
 40
0.18
 40
0.18
309
CELLMARGIN_END
 94
        6
 95
        1
302
GRIDFORMAT
  1
GRIDFORMAT_BEGIN
 90
        0
 91
        1
 62
     0
 92
       -2
340
0
 93
        0
 40
1.125
309
GRIDFORMAT_END
 95
        2
302
GRIDFORMAT
  1
GRIDFORMAT_BEGIN
 90
        0
 91
        1
 62
     0
 92
       -2
340
0
 93
        0
 40
1.125
309
GRIDFORMAT_END
 95
        4
302
GRIDFORMAT
  1
GRIDFORMAT_BEGIN
 90
        0
 91
        1
 62
     0
 92
       -2
340
0
 93
        0
 40
1.125
309
GRIDFORMAT_END
 95
        8
302
GRIDFORMAT
  1
GRIDFORMAT_BEGIN
 90
        0
 91
        1
 62
     0
 92
       -2
340
0
 93
        0
 40
1.125
309
GRIDFORMAT_END
 95
       16
302
GRIDFORMAT
  1
GRIDFORMAT_BEGIN
 90
        0
 91
        1
 62
     0
 92
       -2
340
0
 93
        0
 40
1.125
309
GRIDFORMAT_END
 95
       32
302
GRIDFORMAT
  1
GRIDFORMAT_BEGIN
 90
        0
 91
        1
 62
     0
 92
       -2
340
0
 93
        0
 40
1.125
309
GRIDFORMAT_END
309
TABLEFORMAT_END
  1
CELLSTYLE_BEGIN
 90
        1
 91
        1
300
_TITLE
309
CELLSTYLE_END
300
CELLSTYLE
  1
TABLEFORMAT_BEGIN
 90
        5
170
     1
 91
        0
 92
        0
 62
   257
 93
        1
300
CONTENTFORMAT
  1
CONTENTFORMAT_BEGIN
 90
        0
 91
        0
 92
      512
 93
        0
300

 40
0.0
140
1.0
 94
        5
 62
     0
340
17
144
4.5
309
CONTENTFORMAT_END
171
     1
301
MARGIN
  1
CELLMARGIN_BEGIN
 40
1.5
 40
1.5
 40
1.5
 40
1.5
 40
0.18
 40
0.18
309
CELLMARGIN_END
 94
        6
 95
        1
302
GRIDFORMAT
  1
GRIDFORMAT_BEGIN
 90
        0
 91
        1
 62
     0
 92
       -2
340
0
 93
        0
 40
1.125
309
GRIDFORMAT_END
 95
        2
302
GRIDFORMAT
  1
GRIDFORMAT_BEGIN
 90
        0
 91
        1
 62
     0
 92
       -2
340
0
 93
        0
 40
1.125
309
GRIDFORMAT_END
 95
        4
302
GRIDFORMAT
  1
GRIDFORMAT_BEGIN
 90
        0
 91
        1
 62
     0
 92
       -2
340
0
 93
        0
 40
1.125
309
GRIDFORMAT_END
 95
        8
302
GRIDFORMAT
  1
GRIDFORMAT_BEGIN
 90
        0
 91
        1
 62
     0
 92
       -2
340
0
 93
        0
 40
1.125
309
GRIDFORMAT_END
 95
       16
302
GRIDFORMAT
  1
GRIDFORMAT_BEGIN
 90
        0
 91
        1
 62
     0
 92
       -2
340
0
 93
        0
 40
1.125
309
GRIDFORMAT_END
 95
       32
302
GRIDFORMAT
  1
GRIDFORMAT_BEGIN
 90
        0
 91
        1
 62
     0
 92
       -2
340
0
 93
        0
 40
1.125
309
GRIDFORMAT_END
309
TABLEFORMAT_END
  1
CELLSTYLE_BEGIN
 90
        2
 91
        1
300
_HEADER
309
CELLSTYLE_END
300
CELLSTYLE
  1
TABLEFORMAT_BEGIN
 90
        5
170
     1
 91
        0
 92
        0
 62
   257
 93
        1
300
CONTENTFORMAT
  1
CONTENTFORMAT_BEGIN
 90
        0
 91
        0
 92
      512
 93
        0
300

 40
0.0
140
1.0
 94
        2
 62
     0
340
17
144
4.5
309
CONTENTFORMAT_END
171
     1
301
MARGIN
  1
CELLMARGIN_BEGIN
 40
1.5
 40
1.5
 40
1.5
 40
1.5
 40
0.18
 40
0.18
309
CELLMARGIN_END
 94
        6
 95
        1
302
GRIDFORMAT
  1
GRIDFORMAT_BEGIN
 90
        0
 91
        1
 62
     0
 92
       -2
340
0
 93
        0
 40
1.125
309
GRIDFORMAT_END
 95
        2
302
GRIDFORMAT
  1
GRIDFORMAT_BEGIN
 90
        0
 91
        1
 62
     0
 92
       -2
340
0
 93
        0
 40
1.125
309
GRIDFORMAT_END
 95
        4
302
GRIDFORMAT
  1
GRIDFORMAT_BEGIN
 90
        0
 91
        1
 62
     0
 92
       -2
340
0
 93
        0
 40
1.125
309
GRIDFORMAT_END
 95
        8
302
GRIDFORMAT
  1
GRIDFORMAT_BEGIN
 90
        0
 91
        1
 62
     0
 92
       -2
340
0
 93
        0
 40
1.125
309
GRIDFORMAT_END
 95
       16
302
GRIDFORMAT
  1
GRIDFORMAT_BEGIN
 90
        0
 91
        1
 62
     0
 92
       -2
340
0
 93
        0
 40
1.125
309
GRIDFORMAT_END
 95
       32
302
GRIDFORMAT
  1
GRIDFORMAT_BEGIN
 90
        0
 91
        1
 62
     0
 92
       -2
340
0
 93
        0
 40
1.125
309
GRIDFORMAT_END
309
TABLEFORMAT_END
  1
CELLSTYLE_BEGIN
 90
        3
 91
        2
300
_DATA
309
CELLSTYLE_END
  0
XRECORD
  5
784F
102
{ACAD_REACTORS
330
72EA
102
}
330
72EA
100
AcDbXrecord
280
     1
102
ACAD_ROUNDTRIP_PRE2007_TABLESTYLE
 90
      512
 91
        0
  1

 92
      512
 93
        0
  2

 94
      512
 95
        0
  3

  0
ENDSEC
  0
EOF
