  0
SECTION
  2
HEADER
  9
$ACADVER
  1
AC1015
  9
$ACADMAINTVER
 70
    20
  9
$DWGCODEPAGE
  3
ANSI_1252
  9
$INSBASE
 10
0.0
 20
0.0
 30
0.0
  9
$EXTMIN
 10
-105.75
 20
-119.7306759999999
 30
-0.0000000000000011
  9
$EXTMAX
 10
181.8159420000002
 20
169.9999999999996
 30
0.0000000000000009
  9
$LIMMIN
 10
-20.0
 20
-0.021978
  9
$LIMMAX
 10
2645.85
 20
758.35
  9
$ORTHOMODE
 70
     0
  9
$REGENMODE
 70
     1
  9
$FILLMODE
 70
     1
  9
$QTEXTMODE
 70
     0
  9
$MIRRTEXT
 70
     1
  9
$LTSCALE
 40
10.0
  9
$ATTMODE
 70
     1
  9
$TEXTSIZE
 40
0.0
  9
$TRACEWID
 40
0.05
  9
$TEXTSTYLE
  7
Standard
  9
$CLAYER
  8
0
  9
$CELTYPE
  6
Continuous
  9
$CECOLOR
 62
   256
  9
$CELTSCALE
 40
1.0
  9
$DISPSILH
 70
     0
  9
$DIMSCALE
 40
1.0
  9
$DIMASZ
 40
1.25
  9
$DIMEXO
 40
0.0
  9
$DIMDLI
 40
0.38
  9
$DIMRND
 40
0.0
  9
$DIMDLE
 40
0.0
  9
$DIMEXE
 40
0.75
  9
$DIMTP
 40
0.0
  9
$DIMTM
 40
0.0
  9
$DIMTXT
 40
2.5
  9
$DIMCEN
 40
0.09
  9
$DIMTSZ
 40
0.0
  9
$DIMTOL
 70
     0
  9
$DIMLIM
 70
     0
  9
$DIMTIH
 70
     0
  9
$DIMTOH
 70
     0
  9
$DIMSE1
 70
     0
  9
$DIMSE2
 70
     0
  9
$DIMTAD
 70
     1
  9
$DIMZIN
 70
     0
  9
$DIMBLK
  1

  9
$DIMASO
 70
     1
  9
$DIMSHO
 70
     1
  9
$DIMPOST
  1

  9
$DIMAPOST
  1

  9
$DIMALT
 70
     0
  9
$DIMALTD
 70
     2
  9
$DIMALTF
 40
25.4
  9
$DIMLFAC
 40
1.0
  9
$DIMTOFL
 70
     0
  9
$DIMTVP
 40
0.0
  9
$DIMTIX
 70
     0
  9
$DIMSOXD
 70
     0
  9
$DIMSAH
 70
     0
  9
$DIMBLK1
  1

  9
$DIMBLK2
  1

  9
$DIMSTYLE
  2
Standard
  9
$DIMCLRD
 70
     7
  9
$DIMCLRE
 70
     7
  9
$DIMCLRT
 70
     7
  9
$DIMTFAC
 40
0.8
  9
$DIMGAP
 40
1.25
  9
$DIMJUST
 70
     0
  9
$DIMSD1
 70
     0
  9
$DIMSD2
 70
     0
  9
$DIMTOLJ
 70
     1
  9
$DIMTZIN
 70
     0
  9
$DIMALTZ
 70
     0
  9
$DIMALTTZ
 70
     0
  9
$DIMUPT
 70
     0
  9
$DIMDEC
 70
     2
  9
$DIMTDEC
 70
     4
  9
$DIMALTU
 70
     2
  9
$DIMALTTD
 70
     2
  9
$DIMTXSTY
  7
Standard
  9
$DIMAUNIT
 70
     0
  9
$DIMADEC
 70
     0
  9
$DIMALTRND
 40
0.0
  9
$DIMAZIN
 70
     0
  9
$DIMDSEP
 70
     0
  9
$DIMATFIT
 70
     3
  9
$DIMFRAC
 70
     0
  9
$DIMLDRBLK
  1

  9
$DIMLUNIT
 70
     2
  9
$DIMLWD
 70
     0
  9
$DIMLWE
 70
     0
  9
$DIMTMOVE
 70
     0
  9
$LUNITS
 70
     2
  9
$LUPREC
 70
     4
  9
$SKETCHINC
 40
0.1
  9
$FILLETRAD
 40
0.0
  9
$AUNITS
 70
     0
  9
$AUPREC
 70
     0
  9
$MENU
  1
acad
  9
$ELEVATION
 40
0.0
  9
$PELEVATION
 40
0.0
  9
$THICKNESS
 40
0.0
  9
$LIMCHECK
 70
     0
  9
$CHAMFERA
 40
0.0
  9
$CHAMFERB
 40
0.0
  9
$CHAMFERC
 40
0.0
  9
$CHAMFERD
 40
0.0
  9
$SKPOLY
 70
     0
  9
$TDCREATE
 40
2455329.702198484
  9
$TDUCREATE
 40
2455329.618865150
  9
$TDUPDATE
 40
2455380.512511678
  9
$TDUUPDATE
 40
2455380.429178345
  9
$TDINDWG
 40
0.0349724074
  9
$TDUSRTIMER
 40
0.0349702431
  9
$USRTIMER
 70
     1
  9
$ANGBASE
 50
0.0
  9
$ANGDIR
 70
     0
  9
$PDMODE
 70
     0
  9
$PDSIZE
 40
0.0
  9
$PLINEWID
 40
0.0
  9
$SPLFRAME
 70
     0
  9
$SPLINETYPE
 70
     6
  9
$SPLINESEGS
 70
     8
  9
$HANDSEED
  5
79E3
  9
$SURFTAB1
 70
     6
  9
$SURFTAB2
 70
     6
  9
$SURFTYPE
 70
     6
  9
$SURFU
 70
     6
  9
$SURFV
 70
     6
  9
$UCSBASE
  2

  9
$UCSNAME
  2

  9
$UCSORG
 10
0.0
 20
0.0
 30
0.0
  9
$UCSXDIR
 10
1.0
 20
0.0
 30
0.0
  9
$UCSYDIR
 10
0.0
 20
1.0
 30
0.0
  9
$UCSORTHOREF
  2

  9
$UCSORTHOVIEW
 70
     0
  9
$UCSORGTOP
 10
0.0
 20
0.0
 30
0.0
  9
$UCSORGBOTTOM
 10
0.0
 20
0.0
 30
0.0
  9
$UCSORGLEFT
 10
0.0
 20
0.0
 30
0.0
  9
$UCSORGRIGHT
 10
0.0
 20
0.0
 30
0.0
  9
$UCSORGFRONT
 10
0.0
 20
0.0
 30
0.0
  9
$UCSORGBACK
 10
0.0
 20
0.0
 30
0.0
  9
$PUCSBASE
  2

  9
$PUCSNAME
  2

  9
$PUCSORG
 10
0.0
 20
0.0
 30
0.0
  9
$PUCSXDIR
 10
1.0
 20
0.0
 30
0.0
  9
$PUCSYDIR
 10
0.0
 20
1.0
 30
0.0
  9
$PUCSORTHOREF
  2

  9
$PUCSORTHOVIEW
 70
     0
  9
$PUCSORGTOP
 10
0.0
 20
0.0
 30
0.0
  9
$PUCSORGBOTTOM
 10
0.0
 20
0.0
 30
0.0
  9
$PUCSORGLEFT
 10
0.0
 20
0.0
 30
0.0
  9
$PUCSORGRIGHT
 10
0.0
 20
0.0
 30
0.0
  9
$PUCSORGFRONT
 10
0.0
 20
0.0
 30
0.0
  9
$PUCSORGBACK
 10
0.0
 20
0.0
 30
0.0
  9
$USERI1
 70
     0
  9
$USERI2
 70
     0
  9
$USERI3
 70
     0
  9
$USERI4
 70
     0
  9
$USERI5
 70
     0
  9
$USERR1
 40
0.0
  9
$USERR2
 40
0.0
  9
$USERR3
 40
0.0
  9
$USERR4
 40
0.0
  9
$USERR5
 40
0.0
  9
$WORLDVIEW
 70
     1
  9
$SHADEDGE
 70
     3
  9
$SHADEDIF
 70
    70
  9
$TILEMODE
 70
     1
  9
$MAXACTVP
 70
    16
  9
$PINSBASE
 10
0.0
 20
0.0
 30
0.0
  9
$PLIMCHECK
 70
     0
  9
$PEXTMIN
 10
1.000000000000000E+20
 20
1.000000000000000E+20
 30
1.000000000000000E+20
  9
$PEXTMAX
 10
-1.000000000000000E+20
 20
-1.000000000000000E+20
 30
-1.000000000000000E+20
  9
$PLIMMIN
 10
0.0
 20
0.0
  9
$PLIMMAX
 10
12.0
 20
9.0
  9
$UNITMODE
 70
     0
  9
$VISRETAIN
 70
     0
  9
$PLINEGEN
 70
     1
  9
$PSLTSCALE
 70
     0
  9
$TREEDEPTH
 70
  3020
  9
$CMLSTYLE
  2
Standard
  9
$CMLJUST
 70
     0
  9
$CMLSCALE
 40
1.0
  9
$PROXYGRAPHICS
 70
     0
  9
$MEASUREMENT
 70
     1
  9
$CELWEIGHT
370
     0
  9
$ENDCAPS
280
     0
  9
$JOINSTYLE
280
     0
  9
$LWDISPLAY
290
     0
  9
$INSUNITS
 70
     0
  9
$HYPERLINKBASE
  1

  9
$STYLESHEET
  1

  9
$XEDIT
290
     1
  9
$CEPSNTYPE
380
     0
  9
$PSTYLEMODE
290
     1
  9
$FINGERPRINTGUID
  2

  9
$VERSIONGUID
  2
{7C76E730-8BBA-4B9B-9799-C2E541EA780A}
  9
$EXTNAMES
290
     1
  9
$PSVPSCALE
 40
0.0
  9
$OLESTARTUP
290
     0
  0
ENDSEC
  0
SECTION
  2
CLASSES
  0
CLASS
  1
IMAGE
  2
AcDbRasterImage
  3
ISM
 90
    34943
280
     0
281
     1
  0
CLASS
  1
DICTIONARYVAR
  2
AcDbDictionaryVar
  3
ObjectDBX Classes
 90
        0
280
     0
281
     0
  0
CLASS
  1
RASTERVARIABLES
  2
AcDbRasterVariables
  3
ISM
 90
    32768
280
     0
281
     0
  0
CLASS
  1
IMAGEDEF
  2
AcDbRasterImageDef
  3
ISM
 90
    32768
280
     0
281
     0
  0
CLASS
  1
IMAGEDEF_REACTOR
  2
AcDbRasterImageDefReactor
  3
ISM
 90
    32769
280
     0
281
     0
  0
CLASS
  1
IDBUFFER
  2
AcDbIdBuffer
  3
ObjectDBX Classes
 90
    32768
280
     0
281
     0
  0
CLASS
  1
SPATIAL_FILTER
  2
AcDbSpatialFilter
  3
ObjectDBX Classes
 90
    32768
280
     0
281
     0
  0
CLASS
  1
SORTENTSTABLE
  2
AcDbSortentsTable
  3
ObjectDBX Classes
 90
        0
280
     0
281
     0
  0
CLASS
  1
LAYER_INDEX
  2
AcDbLayerIndex
  3
ObjectDBX Classes
 90
    32768
280
     0
281
     0
  0
CLASS
  1
SPATIAL_INDEX
  2
AcDbSpatialIndex
  3
ObjectDBX Classes
 90
    32768
280
     0
281
     0
  0
CLASS
  1
OBJECT_PTR
  2
CAseDLPNTableRecord
  3
ASE-LPNTableRecord
 90
    32769
280
     0
281
     0
  0
CLASS
  1
LAYOUT
  2
AcDbLayout
  3
ObjectDBX Classes
 90
        0
280
     0
281
     0
  0
CLASS
  1
PLOTSETTINGS
  2
AcDbPlotSettings
  3
ObjectDBX Classes
 90
    32768
280
     0
281
     0
  0
CLASS
  1
ACDBDICTIONARYWDFLT
  2
AcDbDictionaryWithDefault
  3
ObjectDBX Classes
 90
        0
280
     0
281
     0
  0
CLASS
  1
ACDBPLACEHOLDER
  2
AcDbPlaceHolder
  3
ObjectDBX Classes
 90
        0
280
     0
281
     0
  0
CLASS
  1
VBA_PROJECT
  2
AcDbVbaProject
  3
acad
 90
    32768
280
     0
281
     0
  0
CLASS
  1
WIPEOUT
  2
AcDbWipeout
  3
"WipeOut|Product Desc: Object Enabler for WipeOut entity                        |Company: Autodesk, Inc.                        |WEB Address: www.autodesk.com"
 90
    34943
280
     0
281
     1
  0
CLASS
  1
WIPEOUTVARIABLES
  2
AcDbWipeoutVariables
  3
"WipeOut|Product Desc:     WipeOut Dbx Application|Company:          Autodesk, Inc.|WEB Address:      www.autodesk.com"
 90
        0
280
     0
281
     0
  0
CLASS
  1
RTEXT
  2
RText
  3
RText|AutoCAD Express Tool|expresstools@autodesk.com
 90
    35839
280
     0
281
     1
  0
CLASS
  1
ARCALIGNEDTEXT
  2
AcDbArcAlignedText
  3
ATEXT|AutoCAD Express Tool|expresstools@autodesk.com
 90
    32768
280
     0
281
     1
  0
CLASS
  1
MATERIAL
  2
AcDbMaterial
  3
ObjectDBX Classes
 90
     1153
280
     0
281
     0
  0
CLASS
  1
VISUALSTYLE
  2
AcDbVisualStyle
  3
ObjectDBX Classes
 90
     4095
280
     0
281
     0
  0
CLASS
  1
TABLESTYLE
  2
AcDbTableStyle
  3
ObjectDBX Classes
 90
     4095
280
     0
281
     0
  0
CLASS
  1
SCALE
  2
AcDbScale
  3
ObjectDBX Classes
 90
     1153
280
     0
281
     0
  0
CLASS
  1
MLEADERSTYLE
  2
AcDbMLeaderStyle
  3
ACDB_MLEADERSTYLE_CLASS
 90
     4095
280
     0
281
     0
  0
CLASS
  1
CELLSTYLEMAP
  2
AcDbCellStyleMap
  3
ObjectDBX Classes
 90
     1152
280
     0
281
     0
  0
ENDSEC
  0
SECTION
  2
TABLES
  0
TABLE
  2
VPORT
  5
7
330
0
100
AcDbSymbolTable
 70
     1
  0
VPORT
  5
15
330
7
100
AcDbSymbolTableRecord
100
AcDbViewportTableRecord
  2
*ACTIVE
 70
     0
 10
0.0
 20
0.0
 11
1.0
 21
1.0
 12
22.41015300079778
 22
28.42208541047808
 13
0.0
 23
0.0
 14
1.0
 24
1.0
 15
0.0
 25
0.0
 16
0.0
 26
0.0
 36
1.0
 17
0.0
 27
0.0
 37
0.0
 40
327.8692882016989
 41
1.611330698287219
 42
50.0
 43
0.0
 44
0.0
 50
0.0
 51
0.0
 71
     0
 72
   100
 73
     1
 74
     1
 75
     0
 76
     0
 77
     0
 78
     0
281
     0
 65
     0
110
0.0
120
0.0
130
0.0
111
1.0
121
0.0
131
0.0
112
0.0
122
1.0
132
0.0
 79
     0
146
0.0
  0
ENDTAB
  0
TABLE
  2
LTYPE
  5
4
330
0
100
AcDbSymbolTable
 70
     2
  0
LTYPE
  5
11
330
4
100
AcDbSymbolTableRecord
100
AcDbLinetypeTableRecord
  2
ByBlock
 70
     0
  3

 72
    65
 73
     0
 40
0.0
  0
LTYPE
  5
12
330
4
100
AcDbSymbolTableRecord
100
AcDbLinetypeTableRecord
  2
ByLayer
 70
     0
  3

 72
    65
 73
     0
 40
0.0
  0
LTYPE
  5
13
330
4
100
AcDbSymbolTableRecord
100
AcDbLinetypeTableRecord
  2
Continuous
 70
     0
  3
Solid line
 72
    65
 73
     0
 40
0.0
  0
LTYPE
  5
2A2
330
4
100
AcDbSymbolTableRecord
100
AcDbLinetypeTableRecord
  2
CENTER
 70
     0
  3
____ _ ____ _ ____ _ ____ _ ____ _ ____ _ ____
 72
    65
 73
     4
 40
2.0
 49
1.25
 74
     0
 49
-0.25
 74
     0
 49
0.25
 74
     0
 49
-0.25
 74
     0
  0
ENDTAB
  0
TABLE
  2
LAYER
  5
2
330
0
100
AcDbSymbolTable
 70
     1
  0
LAYER
  5
14
102
{ACAD_XDICTIONARY
360
72C9
102
}
330
2
100
AcDbSymbolTableRecord
100
AcDbLayerTableRecord
  2
0
 70
     0
 62
     7
  6
Continuous
370
    -3
390
1D
  0
ENDTAB
  0
TABLE
  2
STYLE
  5
3
330
0
100
AcDbSymbolTable
 70
     1
  0
STYLE
  5
17
330
3
100
AcDbSymbolTableRecord
100
AcDbTextStyleTableRecord
  2
Standard
 70
     0
 40
0.0
 41
1.0
 50
0.0
 71
     0
 42
0.0
  3
IsonormD
  4

1001
ACAD
1000
IsonormD
1071
        0
  0
ENDTAB
  0
TABLE
  2
VIEW
  5
5
330
0
100
AcDbSymbolTable
 70
     0
  0
ENDTAB
  0
TABLE
  2
UCS
  5
6
330
0
100
AcDbSymbolTable
 70
     0
  0
ENDTAB
  0
TABLE
  2
APPID
  5
8
330
0
100
AcDbSymbolTable
 70
     4
  0
APPID
  5
16
330
8
100
AcDbSymbolTableRecord
100
AcDbRegAppTableRecord
  2
ACAD
 70
     0
  0
APPID
  5
26
330
8
100
AcDbSymbolTableRecord
100
AcDbRegAppTableRecord
  2
TopSolid_Draft
 70
     0
  0
APPID
  5
39AF
330
8
100
AcDbSymbolTableRecord
100
AcDbRegAppTableRecord
  2
ACAD_MLEADERVER
 70
     0
  0
APPID
  5
72C7
330
8
100
AcDbSymbolTableRecord
100
AcDbRegAppTableRecord
  2
DCO15
 70
     0
  0
ENDTAB
  0
TABLE
  2
DIMSTYLE
  5
9
330
0
100
AcDbSymbolTable
 70
     1
100
AcDbDimStyleTable
 71
     0
  0
DIMSTYLE
105
18
330
9
100
AcDbSymbolTableRecord
100
AcDbDimStyleTableRecord
  2
Standard
 70
     0
 41
1.25
 42
0.0
 44
0.75
 73
     0
 74
     0
 77
     1
140
2.5
146
0.8
147
1.25
176
     7
177
     7
178
     7
271
     2
340
17
  0
ENDTAB
  0
TABLE
  2
BLOCK_RECORD
  5
1
330
0
100
AcDbSymbolTable
 70
     0
  0
BLOCK_RECORD
  5
A
102
{ACAD_XDICTIONARY
360
39B7
102
}
330
1
100
AcDbSymbolTableRecord
100
AcDbBlockTableRecord
  2
*MODEL_SPACE
340
20
  0
BLOCK_RECORD
  5
B
330
1
100
AcDbSymbolTableRecord
100
AcDbBlockTableRecord
  2
*PAPER_SPACE
340
21
  0
ENDTAB
  0
ENDSEC
  0
SECTION
  2
BLOCKS
  0
BLOCK
  5
D
330
A
100
AcDbEntity
  8
0
100
AcDbBlockBegin
  2
*MODEL_SPACE
 70
     0
 10
0.0
 20
0.0
 30
0.0
  3
*MODEL_SPACE
  1

  0
ENDBLK
  5
E
330
A
100
AcDbEntity
  8
0
100
AcDbBlockEnd
  0
BLOCK
  5
F
330
B
100
AcDbEntity
 67
     1
  8
0
100
AcDbBlockBegin
  2
*PAPER_SPACE
 70
     0
 10
0.0
 20
0.0
 30
0.0
  3
*PAPER_SPACE
  1

  0
ENDBLK
  5
10
330
B
100
AcDbEntity
 67
     1
  8
0
100
AcDbBlockEnd
  0
ENDSEC
  0
SECTION
  2
ENTITIES
  0
LINE
  5
1FB2
330
A
100
AcDbEntity
  8
0
  6
CENTER
 62
     1
100
AcDbLine
 10
40.0
 20
69.75
 30
0.0
 11
40.0
 21
3.75
 31
0.0
  0
LINE
  5
1FB3
330
A
100
AcDbEntity
  8
0
  6
CENTER
 62
     1
100
AcDbLine
 10
34.25
 20
142.5
 30
0.0
 11
45.75
 21
142.5
 31
0.0
  0
LINE
  5
1FB4
330
A
100
AcDbEntity
  8
0
  6
CENTER
 62
     1
100
AcDbLine
 10
40.0
 20
136.75
 30
0.0
 11
40.0
 21
148.25
 31
0.0
  0
LINE
  5
1FB5
330
A
100
AcDbEntity
  8
0
  6
CENTER
 62
     1
100
AcDbLine
 10
99.75000000000001
 20
0.0
 30
0.0
 11
113.75
 21
0.0
 31
0.0
  0
LINE
  5
1FB6
330
A
100
AcDbEntity
  8
0
  6
CENTER
 62
     1
100
AcDbLine
 10
102.6500000000001
 20
9.0
 30
0.0
 11
110.8499999999999
 21
9.0
 31
0.0
  0
LINE
  5
1FB7
330
A
100
AcDbEntity
  8
0
  6
CENTER
 62
     1
100
AcDbLine
 10
103.0
 20
60.99999999999988
 30
0.0
 11
110.5
 21
60.99999999999988
 31
0.0
  0
LINE
  5
1FB8
330
A
100
AcDbEntity
  8
0
  6
CENTER
 62
     1
100
AcDbLine
 10
99.75000000000001
 20
69.99999999999977
 30
0.0
 11
113.75
 21
69.99999999999977
 31
0.0
  0
LINE
  5
1FB9
330
A
100
AcDbEntity
  8
0
  6
CENTER
 62
     1
100
AcDbLine
 10
139.75
 20
0.0
 30
0.0
 11
153.75
 21
0.0
 31
0.0
  0
LINE
  5
1FBA
330
A
100
AcDbEntity
  8
0
  6
CENTER
 62
     1
100
AcDbLine
 10
143.0
 20
9.0
 30
0.0
 11
150.5
 21
9.0
 31
0.0
  0
LINE
  5
1FBB
330
A
100
AcDbEntity
  8
0
  6
CENTER
 62
     1
100
AcDbLine
 10
142.25
 20
60.99999999999988
 30
0.0
 11
151.25
 21
60.99999999999988
 31
0.0
  0
LINE
  5
1FBC
330
A
100
AcDbEntity
  8
0
  6
CENTER
 62
     1
100
AcDbLine
 10
139.75
 20
69.99999999999977
 30
0.0
 11
153.75
 21
69.99999999999977
 31
0.0
  0
LINE
  5
1FBD
330
A
100
AcDbEntity
  8
0
  6
CENTER
 62
     1
100
AcDbLine
 10
146.75
 20
-7.0
 30
0.0
 11
146.75
 21
12.75
 31
0.0
  0
LINE
  5
1FBE
330
A
100
AcDbEntity
  8
0
  6
CENTER
 62
     1
100
AcDbLine
 10
146.75
 20
56.5
 30
0.0
 11
146.75
 21
77.0
 31
0.0
  0
LINE
  5
1FBF
330
A
100
AcDbEntity
  8
0
  6
CENTER
 62
     1
100
AcDbLine
 10
106.75
 20
-7.0
 30
0.0
 11
106.75
 21
13.10000000000002
 31
0.0
  0
LINE
  5
1FC0
330
A
100
AcDbEntity
  8
0
  6
CENTER
 62
     1
100
AcDbLine
 10
106.75
 20
57.25
 30
0.0
 11
106.75
 21
77.0
 31
0.0
  0
LINE
  5
1FC1
330
A
100
AcDbEntity
  8
0
  6
CENTER
 62
     1
100
AcDbLine
 10
-102.9000000000001
 20
0.0
 30
0.0
 11
-93.5999999999999
 21
0.0
 31
0.0
  0
LINE
  5
1FC2
330
A
100
AcDbEntity
  8
0
  6
CENTER
 62
     1
100
AcDbLine
 10
-98.25000000000001
 20
-4.649999999999976
 30
0.0
 11
-98.25000000000001
 21
4.649999999999749
 31
0.0
  0
LINE
  5
1FC3
330
A
100
AcDbEntity
  8
0
  6
CENTER
 62
     1
100
AcDbLine
 10
-102.3499999999999
 20
9.0
 30
0.0
 11
-94.15000000000008
 21
9.0
 31
0.0
  0
LINE
  5
1FC4
330
A
100
AcDbEntity
  8
0
  6
CENTER
 62
     1
100
AcDbLine
 10
-98.25000000000001
 20
4.899999999999863
 30
0.0
 11
-98.25000000000001
 21
13.10000000000002
 31
0.0
  0
LINE
  5
1FC5
330
A
100
AcDbEntity
  8
0
  6
CENTER
 62
     1
100
AcDbLine
 10
-102.75
 20
60.99999999999988
 30
0.0
 11
-93.75
 21
60.99999999999988
 31
0.0
  0
LINE
  5
1FC6
330
A
100
AcDbEntity
  8
0
  6
CENTER
 62
     1
100
AcDbLine
 10
-102.9000000000001
 20
69.99999999999977
 30
0.0
 11
-93.5999999999999
 21
69.99999999999977
 31
0.0
  0
LINE
  5
1FC7
330
A
100
AcDbEntity
  8
0
  6
CENTER
 62
     1
100
AcDbLine
 10
-62.90000000000009
 20
0.0
 30
0.0
 11
-53.5999999999999
 21
0.0
 31
0.0
  0
LINE
  5
1FC8
330
A
100
AcDbEntity
  8
0
  6
CENTER
 62
     1
100
AcDbLine
 10
-58.25
 20
-4.649999999999976
 30
0.0
 11
-58.25
 21
4.649999999999749
 31
0.0
  0
LINE
  5
1FC9
330
A
100
AcDbEntity
  8
0
  6
CENTER
 62
     1
100
AcDbLine
 10
-62.3499999999999
 20
9.0
 30
0.0
 11
-54.15000000000009
 21
9.0
 31
0.0
  0
LINE
  5
1FCA
330
A
100
AcDbEntity
  8
0
  6
CENTER
 62
     1
100
AcDbLine
 10
-58.25
 20
4.899999999999863
 30
0.0
 11
-58.25
 21
13.10000000000002
 31
0.0
  0
LINE
  5
1FCB
330
A
100
AcDbEntity
  8
0
  6
CENTER
 62
     1
100
AcDbLine
 10
-62.75
 20
60.99999999999988
 30
0.0
 11
-53.75
 21
60.99999999999988
 31
0.0
  0
LINE
  5
1FCC
330
A
100
AcDbEntity
  8
0
  6
CENTER
 62
     1
100
AcDbLine
 10
-62.90000000000009
 20
69.99999999999977
 30
0.0
 11
-53.5999999999999
 21
69.99999999999977
 31
0.0
  0
LINE
  5
1FCD
330
A
100
AcDbEntity
  8
0
  6
CENTER
 62
     1
100
AcDbLine
 10
-58.25
 20
56.5
 30
0.0
 11
-58.25
 21
74.64999999999974
 31
0.0
  0
LINE
  5
1FCE
330
A
100
AcDbEntity
  8
0
  6
CENTER
 62
     1
100
AcDbLine
 10
-98.25000000000001
 20
56.5
 30
0.0
 11
-98.25000000000001
 21
74.64999999999974
 31
0.0
  0
LINE
  5
1FCF
330
A
100
AcDbEntity
  8
0
  6
CENTER
 62
     1
100
AcDbLine
 10
35.09191099999998
 20
-70.0
 30
0.0
 11
44.90808900000001
 21
-70.0
 31
0.0
  0
LINE
  5
1FD0
330
A
100
AcDbEntity
  8
0
  6
CENTER
 62
     1
100
AcDbLine
 10
40.0
 20
-74.90808899999994
 30
0.0
 11
40.0
 21
-65.09191100000015
 31
0.0
  0
ELLIPSE
  5
5B36
330
A
100
AcDbEntity
  8
0
  6
Continuous
 62
     7
100
AcDbEllipse
 10
179.1326600000002
 20
-55.82970999999997
 30
0.0
 11
0.2799999998681635
 21
1.371714255985587
 31
0.0000000000000001
210
0.0
220
-0.0000000000000001
230
1.0
 40
0.4082480000000002
 41
5.819537698414086
 42
9.888424909038628
  0
ELLIPSE
  5
5B37
330
A
100
AcDbEntity
  8
0
  6
Continuous
 62
     7
100
AcDbEllipse
 10
179.1326600000002
 20
-55.82970999999997
 30
0.0
 11
0.2799999998681635
 21
1.371714255985587
 31
0.0
210
0.0000000000000001
220
0.0
230
1.0
 40
0.4082480000000002
 41
3.60523960185904
 42
5.819537698414086
  0
ELLIPSE
  5
5B38
330
A
100
AcDbEntity
  8
0
  6
Continuous
 62
     7
100
AcDbEllipse
 10
164.821825
 20
-105.4898889999999
 30
0.0
 11
0.2799999998681635
 21
1.371714255985478
 31
0.0
210
0.0000000000000001
220
0.0
230
1.0
 40
0.4082480000000002
 41
5.819537698413727
 42
9.888424908623481
  0
ELLIPSE
  5
5B39
330
A
100
AcDbEntity
  8
0
  6
Continuous
 62
     7
100
AcDbEllipse
 10
164.821825
 20
-105.4898889999999
 30
0.0
 11
0.2799999998681635
 21
1.371714255985478
 31
-0.0000000000000001
210
0.0
220
0.0000000000000001
230
1.0
 40
0.4082480000000002
 41
3.605239601443896
 42
5.819537698413727
  0
ELLIPSE
  5
5B3A
330
A
100
AcDbEntity
  8
0
  6
Continuous
 62
     7
100
AcDbEllipse
 10
145.2911129999997
 20
-71.19588399999997
 30
0.0
 11
-4.56000000000012
 21
0.0000000001984524
 31
0.0000000000000003
210
0.0000000000000001
220
0.0
230
1.0
 40
0.4082480000000002
 41
3.672171375326175
 42
3.745284749221953
  0
ELLIPSE
  5
5B3B
330
A
100
AcDbEntity
  8
0
  6
Continuous
 62
     7
100
AcDbEllipse
 10
145.2911129999997
 20
-71.19588399999997
 30
0.0
 11
4.239999999999798
 21
-0.0000000001845191
 31
0.0000000000000003
210
-0.0000000000000001
220
0.0
230
1.0
 40
0.4082480000000002
 41
0.3828338193894031
 42
0.561622591188608
  0
ELLIPSE
  5
5B3C
330
A
100
AcDbEntity
  8
0
  6
Continuous
 62
     7
100
AcDbEllipse
 10
145.2911129999997
 20
-71.19588399999997
 30
0.0
 11
4.239999999999798
 21
-0.0000000001845191
 31
0.0
210
0.0
220
0.0
230
1.0
 40
0.4082480000000002
 41
5.819537698285372
 42
5.900351487825702
  0
ELLIPSE
  5
5B3D
330
A
100
AcDbEntity
  8
0
  6
Continuous
 62
     7
100
AcDbEllipse
 10
145.2911129999997
 20
-71.19588399999997
 30
0.0
 11
4.239999999999798
 21
-0.0000000001845191
 31
0.0000000000000003
210
-0.0000000000000001
220
0.0
230
1.0
 40
0.4082480000000002
 41
5.597391883114003
 42
5.819537698285367
  0
ELLIPSE
  5
5B3E
330
A
100
AcDbEntity
  8
0
  6
Continuous
 62
     7
100
AcDbEllipse
 10
145.2911129999997
 20
-71.41497300000016
 30
0.0
 11
-4.000000000000004
 21
0.000000000174083
 31
0.0
210
0.0
220
0.0
230
1.0
 40
0.4082480000000002
 41
2.737104628453634
 42
2.958396012338768
  0
ELLIPSE
  5
5B3F
330
A
100
AcDbEntity
  8
0
  6
Continuous
 62
     7
100
AcDbEllipse
 10
145.2911129999997
 20
-71.41497300000016
 30
0.0
 11
-4.000000000000004
 21
0.000000000174083
 31
0.0
210
0.0
220
0.0
230
1.0
 40
0.4082480000000002
 41
3.324789294876366
 42
3.736651619034147
  0
ELLIPSE
  5
5B40
330
A
100
AcDbEntity
  8
0
  6
Continuous
 62
     7
100
AcDbEllipse
 10
145.2911129999997
 20
-79.01005900000012
 30
0.0
 11
-4.799999999999914
 21
0.0000000002088885
 31
0.0
210
0.0
220
0.0
230
1.0
 40
0.4082480000000002
 41
1.548433783995198
 42
1.577277457006173
  0
ELLIPSE
  5
5B41
330
A
100
AcDbEntity
  8
0
  6
Continuous
 62
     7
100
AcDbEllipse
 10
145.2911129999997
 20
-79.22914800000019
 30
0.0
 11
4.56000000000012
 21
-0.0000000001984524
 31
0.0
210
0.0
220
0.0
230
1.0
 40
0.4082480000000002
 41
4.688849249645532
 42
4.719211227873388
  0
ELLIPSE
  5
5B42
330
A
100
AcDbEntity
  8
0
  6
Continuous
 62
     9
100
AcDbEllipse
 10
145.2911129999997
 20
-64.98836200000017
 30
0.0
 11
2.40000000000018
 21
-0.00000000003475
 31
-0.0000000000000002
210
0.0000000000000001
220
0.0
230
1.0
 40
0.4082480000000002
 41
5.819537698626706
 42
6.283182048747681
  0
ELLIPSE
  5
5B43
330
A
100
AcDbEntity
  8
0
  6
Continuous
 62
     9
100
AcDbEllipse
 10
145.2911129999997
 20
-64.98836200000017
 30
0.0
 11
2.40000000000018
 21
-0.00000000003475
 31
-0.0000000000000002
210
0.0000000000000001
220
0.0
230
1.0
 40
0.4082480000000002
 41
5.157785517983191
 42
5.819537698626706
  0
ELLIPSE
  5
5B44
330
A
100
AcDbEntity
  8
0
  6
Continuous
 62
     9
100
AcDbEllipse
 10
145.2911129999997
 20
-85.43667099999998
 30
0.0
 11
-2.40000000000018
 21
0.0000000000346945
 31
0.0
210
0.0
220
0.0
230
1.0
 40
0.4082480000000002
 41
2.016192864529938
 42
2.661724965946357
  0
ELLIPSE
  5
5B45
330
A
100
AcDbEntity
  8
0
  6
Continuous
 62
     7
100
AcDbEllipse
 10
145.2911129999997
 20
-71.92618099999998
 30
0.0
 11
-4.000000000000004
 21
0.0000000001159628
 31
0.0
210
0.0
220
0.0
230
1.0
 40
0.4082480000000002
 41
3.32478929485441
 42
4.068887871597326
  0
ELLIPSE
  5
5B46
330
A
100
AcDbEntity
  8
0
  6
Continuous
 62
     7
100
AcDbEllipse
 10
145.2911129999997
 20
-71.92618099999998
 30
0.0
 11
2.399999999999736
 21
-0.0000000000695555
 31
-0.0000000000000002
210
0.0000000000000001
220
0.0
230
1.0
 40
0.4082480000000002
 41
5.395601360087955
 42
6.283185307179607
  0
LINE
  5
5B47
330
A
100
AcDbEntity
  8
0
  6
Continuous
 62
     7
100
AcDbLine
 10
173.724587
 20
-79.96339599999997
 30
0.0
 11
173.4147480000001
 21
-79.12093399999998
 31
0.0
  0
LINE
  5
5B48
330
A
100
AcDbEntity
  8
0
  6
Continuous
 62
     7
100
AcDbLine
 10
174.3442639999998
 20
-79.45743100000015
 30
0.0
 11
173.724587
 21
-79.96339599999997
 31
0.0
  0
LINE
  5
5B49
330
A
100
AcDbEntity
  8
0
  6
Continuous
 62
     7
100
AcDbLine
 10
174.6541030000003
 20
-78.10900400000003
 30
0.0
 11
174.3442639999998
 21
-79.45743100000015
 31
0.0
  0
LINE
  5
5B4A
330
A
100
AcDbEntity
  8
0
  6
Continuous
 62
     7
100
AcDbLine
 10
174.3442639999998
 20
-77.26654100000011
 30
0.0
 11
174.6541030000003
 21
-78.10900400000003
 31
0.0
  0
LINE
  5
5B4B
330
A
100
AcDbEntity
  8
0
  6
Continuous
 62
     7
100
AcDbLine
 10
173.7245859999998
 20
-77.77250700000012
 30
0.0
 11
174.3442639999998
 21
-77.26654100000011
 31
0.0
  0
LINE
  5
5B4C
330
A
100
AcDbEntity
  8
0
  6
Continuous
 62
     7
100
AcDbLine
 10
173.4147480000001
 20
-79.12093399999998
 30
0.0
 11
173.7245859999998
 21
-77.77250700000012
 31
0.0
  0
ELLIPSE
  5
5B4D
330
A
100
AcDbEntity
  8
0
  6
Continuous
 62
     7
100
AcDbEllipse
 10
174.0344249999998
 20
-78.61496900000014
 30
0.0
 11
-0.559999999736327
 21
-2.743428511971009
 31
-0.0000000000000001
210
0.0
220
0.0
230
1.0
 40
0.4082480000000003
 41
3.141592653589948
 42
3.605240921195528
  0
ELLIPSE
  5
5B4E
330
A
100
AcDbEntity
  8
0
  6
Continuous
 62
     7
100
AcDbEllipse
 10
174.0344249999998
 20
-78.61496900000014
 30
0.0
 11
-0.559999999736327
 21
-2.743428511971009
 31
0.0
210
0.0
220
0.0
230
1.0
 40
0.4082480000000003
 41
3.605240921195373
 42
6.283185307179584
  0
ELLIPSE
  5
5B4F
330
A
100
AcDbEntity
  8
0
  6
Continuous
 62
     7
100
AcDbEllipse
 10
174.0344249999998
 20
-78.61496900000014
 30
0.0
 11
-0.559999999736327
 21
-2.743428511971009
 31
-0.0000000000000002
210
0.0
220
-0.0000000000000001
230
1.0
 40
0.4082480000000003
 41
2.70139027994915
 42
3.141592653589948
  0
ELLIPSE
  5
5B50
330
A
100
AcDbEntity
  8
0
  6
Continuous
 62
     7
100
AcDbEllipse
 10
174.0344249999998
 20
-78.61496900000014
 30
0.0
 11
-0.559999999736327
 21
-2.743428511971009
 31
0.0000000000000001
210
0.0
220
0.0
230
1.0
 40
0.4082480000000003
 41
1.367497591753365
 42
2.70139027994915
  0
ELLIPSE
  5
5B51
330
A
100
AcDbEntity
  8
0
  6
Continuous
 62
     7
100
AcDbEllipse
 10
174.0344249999998
 20
-78.61496900000014
 30
0.0
 11
-0.559999999736327
 21
-2.743428511971009
 31
0.0
210
0.0
220
0.0
230
1.0
 40
0.4082480000000003
 41
6.283185307179567
 42
7.650682898932752
  0
LINE
  5
5B52
330
A
100
AcDbEntity
  8
0
  6
Continuous
 62
     7
100
AcDbLine
 10
174.3442639999998
 20
-79.45743100000015
 30
0.0
 11
173.4731039999997
 21
-79.27960599999996
 31
0.0
  0
LINE
  5
5B53
330
A
100
AcDbEntity
  8
0
  6
Continuous
 62
     7
100
AcDbLine
 10
174.6541030000003
 20
-78.10900400000003
 30
0.0
 11
173.692375
 21
-77.91269199999998
 31
0.0
  0
ELLIPSE
  5
5B54
330
A
100
AcDbEntity
  8
0
  6
Continuous
 62
     7
100
AcDbEllipse
 10
169.2045190000003
 20
-82.55857099999998
 30
0.0
 11
-0.5599999997367711
 21
-2.743428511970899
 31
0.0
210
0.0000000000000001
220
0.0
230
1.0
 40
0.4082480000000002
 41
6.048610444785281
 42
6.283185307179588
  0
ELLIPSE
  5
5B55
330
A
100
AcDbEntity
  8
0
  6
Continuous
 62
     7
100
AcDbEllipse
 10
169.2045190000003
 20
-82.55857099999998
 30
0.0
 11
-0.5599999997367711
 21
-2.743428511970899
 31
0.0000000000000001
210
0.0000000000000001
220
0.0
230
1.0
 40
0.4082480000000002
 41
3.605240921499556
 42
4.303462733907339
  0
ELLIPSE
  5
5B56
330
A
100
AcDbEntity
  8
0
  6
Continuous
 62
     7
100
AcDbEllipse
 10
169.2045190000003
 20
-82.55857099999998
 30
0.0
 11
-0.5599999997367711
 21
-2.743428511970899
 31
0.0
210
0.0000000000000001
220
0.0
230
1.0
 40
0.4082480000000002
 41
0.000000000000004
 42
3.141592653589473
  0
ELLIPSE
  5
5B57
330
A
100
AcDbEntity
  8
0
  6
Continuous
 62
     7
100
AcDbEllipse
 10
169.2045190000003
 20
-82.55857099999998
 30
0.0
 11
-0.5599999997367711
 21
-2.743428511970899
 31
0.0
210
0.0
220
0.0
230
1.0
 40
0.4082480000000002
 41
3.141592653589473
 42
3.605240921499551
  0
LINE
  5
5B58
330
A
100
AcDbEntity
  8
0
  6
Continuous
 62
     7
100
AcDbLine
 10
168.8946799999999
 20
-83.90699900000004
 30
0.0
 11
168.5848409999998
 21
-83.06453700000014
 31
0.0
  0
LINE
  5
5B59
330
A
100
AcDbEntity
  8
0
  6
Continuous
 62
     7
100
AcDbLine
 10
169.5143579999999
 20
-83.40103299999999
 30
0.0
 11
168.8946799999999
 21
-83.90699900000004
 31
0.0
  0
LINE
  5
5B5A
330
A
100
AcDbEntity
  8
0
  6
Continuous
 62
     7
100
AcDbLine
 10
169.824196
 20
-82.05260599999997
 30
0.0
 11
169.5143579999999
 21
-83.40103299999999
 31
0.0
  0
LINE
  5
5B5B
330
A
100
AcDbEntity
  8
0
  6
Continuous
 62
     7
100
AcDbLine
 10
169.514357
 20
-81.21014400000001
 30
0.0
 11
169.824196
 21
-82.05260599999997
 31
0.0
  0
LINE
  5
5B5C
330
A
100
AcDbEntity
  8
0
  6
Continuous
 62
     7
100
AcDbLine
 10
168.8946799999999
 20
-81.71610899999995
 30
0.0
 11
169.514357
 21
-81.21014400000001
 31
0.0
  0
LINE
  5
5B5D
330
A
100
AcDbEntity
  8
0
  6
Continuous
 62
     7
100
AcDbLine
 10
168.5848409999998
 20
-83.06453700000014
 30
0.0
 11
168.8946799999999
 21
-81.71610899999995
 31
0.0
  0
LINE
  5
5B5E
330
A
100
AcDbEntity
  8
0
  6
Continuous
 62
     7
100
AcDbLine
 10
169.5143579999999
 20
-83.40103299999999
 30
0.0
 11
168.6431969999999
 21
-83.22320900000017
 31
0.0
  0
LINE
  5
5B5F
330
A
100
AcDbEntity
  8
0
  6
Continuous
 62
     7
100
AcDbLine
 10
169.824196
 20
-82.05260599999997
 30
0.0
 11
168.8624679999998
 21
-81.85629400000015
 31
0.0
  0
ELLIPSE
  5
5B60
330
A
100
AcDbEntity
  8
0
  6
Continuous
 62
     7
100
AcDbEllipse
 10
123.320404
 20
-38.229559
 30
0.0
 11
3.035786556666143
 21
-3.71806400998731
 31
0.0
210
0.0000000000000001
220
0.0
230
1.0
 40
0.816497
 41
2.356194489554218
 42
3.141592653589865
  0
LINE
  5
5B61
330
A
100
AcDbEntity
  8
0
  6
Continuous
 62
     7
100
AcDbLine
 10
162.3174289999997
 20
-41.80801299999996
 30
0.0
 11
123.320404
 21
-33.84777900000017
 31
0.0
  0
ELLIPSE
  5
5B62
330
A
100
AcDbEntity
  8
0
  6
Continuous
 62
     7
100
AcDbEllipse
 10
162.3174289999997
 20
-45.82464500000014
 30
0.0
 11
2.782804343610667
 21
-3.408225342488301
 31
-0.0000000000000002
210
0.0000000000000001
220
0.0
230
1.0
 40
0.816497
 41
0.7853981627592611
 42
2.356194489554146
  0
ELLIPSE
  5
5B63
330
A
100
AcDbEntity
  8
0
  6
Continuous
 62
     7
100
AcDbEllipse
 10
162.3174289999997
 20
-45.82464500000014
 30
0.0
 11
2.782804343610667
 21
-3.408225342488301
 31
0.0
210
0.0
220
0.0
230
1.0
 40
0.816497
 41
6.120761850850891
 42
6.283185307179584
  0
LINE
  5
5B64
330
A
100
AcDbEntity
  8
0
  6
Continuous
 62
     9
100
AcDbLine
 10
163.0329710000001
 20
-41.22377599999992
 30
0.0
 11
162.6752000000001
 21
-41.515894
 31
0.0
  0
LINE
  5
5B65
330
A
100
AcDbEntity
  8
0
  6
Continuous
 62
     9
100
AcDbLine
 10
162.6752000000001
 20
-41.515894
 30
0.0
 11
162.3174289999997
 21
-41.80801299999996
 31
0.0
  0
ELLIPSE
  5
5B66
330
A
100
AcDbEntity
  8
0
  6
Continuous
 62
     7
100
AcDbEllipse
 10
163.0329710000001
 20
-45.240408
 30
0.0
 11
2.782804343611111
 21
-3.408225342488634
 31
0.0
210
0.0
220
0.0
230
1.0
 40
0.8164970000000002
 41
0.7853981627592193
 42
2.356194489554082
  0
LINE
  5
5B67
330
A
100
AcDbEntity
  8
0
  6
Continuous
 62
     9
100
AcDbLine
 10
166.9684510000002
 20
-46.04373399999997
 30
0.0
 11
166.6106800000002
 21
-46.33585300000015
 31
0.0
  0
LINE
  5
5B68
330
A
100
AcDbEntity
  8
0
  6
Continuous
 62
     9
100
AcDbLine
 10
166.6106800000002
 20
-46.33585300000015
 30
0.0
 11
166.2529089999998
 21
-46.62797199999999
 31
0.0
  0
LINE
  5
5B69
330
A
100
AcDbEntity
  8
0
  6
Continuous
 62
     9
100
AcDbLine
 10
124.0359450000001
 20
-33.26354100000015
 30
0.0
 11
123.678175
 21
-33.55565999999999
 31
0.0
  0
LINE
  5
5B6A
330
A
100
AcDbEntity
  8
0
  6
Continuous
 62
     9
100
AcDbLine
 10
123.678175
 20
-33.55565999999999
 30
0.0
 11
123.320404
 21
-33.84777900000017
 31
0.0
  0
LINE
  5
5B6B
330
A
100
AcDbEntity
  8
0
  6
Continuous
 62
     7
100
AcDbLine
 10
163.0329710000001
 20
-41.22377599999992
 30
0.0
 11
124.0359450000001
 21
-33.26354100000015
 31
0.0
  0
ELLIPSE
  5
5B6C
330
A
100
AcDbEntity
  8
0
  6
Continuous
 62
     7
100
AcDbEllipse
 10
163.0329710000001
 20
-45.240408
 30
0.0
 11
2.782804343611111
 21
-3.408225342488523
 31
0.0000000000000002
210
0.0
220
0.0
230
1.0
 40
0.816497
 41
0.0000000000000941
 42
0.7853981627592436
  0
ELLIPSE
  5
5B6D
330
A
100
AcDbEntity
  8
0
  6
Continuous
 62
     7
100
AcDbEllipse
 10
162.3174289999997
 20
-45.82464500000014
 30
0.0
 11
2.782804343610667
 21
-3.408225342488301
 31
0.0000000000000002
210
0.0
220
0.0
230
1.0
 40
0.816497
 41
6.283185307179584
 42
7.068583469938848
  0
ELLIPSE
  5
5B6E
330
A
100
AcDbEntity
  8
0
  6
Continuous
 62
     7
100
AcDbEllipse
 10
123.320404
 20
-38.229559
 30
0.0
 11
3.035786556666143
 21
-3.71806400998731
 31
0.0
210
0.0
220
0.0
230
1.0
 40
0.816497
 41
3.141592653589863
 42
3.455296548817064
  0
ELLIPSE
  5
5B6F
330
A
100
AcDbEntity
  8
0
  6
Continuous
 62
     7
100
AcDbEllipse
 10
124.0359450000001
 20
-37.64532199999996
 30
0.0
 11
3.035786556666586
 21
-3.718064009987531
 31
0.0000000000000002
210
0.0
220
0.0000000000000001
230
1.0
 40
0.8164970000000002
 41
2.356194489554146
 42
3.141592653589721
  0
LINE
  5
5B70
330
A
100
AcDbEntity
  8
0
  6
Continuous
 62
     7
100
AcDbLine
 10
145.183782
 20
-81.69024800000014
 30
0.0
 11
145.3222219999998
 21
-81.57721200000016
 31
0.0
  0
LINE
  5
5B71
330
A
100
AcDbEntity
  8
0
  6
Continuous
 62
     7
100
AcDbLine
 10
146.3644260000001
 20
-85.05804000000017
 30
0.0
 11
146.3644260000001
 21
-87.48150199999995
 31
0.0
  0
LINE
  5
5B72
330
A
100
AcDbEntity
  8
0
  6
Continuous
 62
     7
100
AcDbLine
 10
146.3644260000001
 20
-87.48150199999995
 30
0.0
 11
147.9353949999999
 21
-86.19881100000004
 31
0.0
  0
LINE
  5
5B73
330
A
100
AcDbEntity
  8
0
  6
Continuous
 62
     7
100
AcDbLine
 10
148.5110509999999
 20
-70.57513200000015
 30
0.0
 11
149.2241789999998
 21
-69.99286599999999
 31
0.0
  0
LINE
  5
5B74
330
A
100
AcDbEntity
  8
0
  6
Continuous
 62
     7
100
AcDbLine
 10
148.5110509999999
 20
-70.57513200000015
 30
0.0
 11
148.5110509999999
 21
-63.81988699999999
 31
0.0
  0
LINE
  5
5B75
330
A
100
AcDbEntity
  8
0
  6
Continuous
 62
     7
100
AcDbLine
 10
146.3644260000001
 20
-65.57259900000014
 30
0.0
 11
148.5110509999999
 21
-63.81988699999999
 31
0.0
  0
LINE
  5
5B76
330
A
100
AcDbEntity
  8
0
  6
Continuous
 62
     7
100
AcDbLine
 10
146.3644260000001
 20
-65.57259900000014
 30
0.0
 11
146.3644260000001
 21
-72.32784400000014
 31
0.0
  0
LINE
  5
5B77
330
A
100
AcDbEntity
  8
0
  6
Continuous
 62
     7
100
AcDbLine
 10
146.3250710000002
 20
-72.35997699999995
 30
0.0
 11
146.3644260000001
 21
-72.32784400000014
 31
0.0
  0
LINE
  5
5B78
330
A
100
AcDbEntity
  8
0
  6
Continuous
 62
     7
100
AcDbLine
 10
145.183782
 20
-74.05499600000013
 30
0.0
 11
145.183782
 21
-81.69024800000014
 31
0.0
  0
LINE
  5
5B79
330
A
100
AcDbEntity
  8
0
  6
Continuous
 62
     7
100
AcDbLine
 10
147.4377380000001
 20
-91.35207400000012
 30
0.0
 11
149.2241789999998
 21
-89.89345199999997
 31
0.0
  0
LINE
  5
5B7A
330
A
100
AcDbEntity
  8
0
  6
Continuous
 62
     7
100
AcDbLine
 10
147.4377380000001
 20
-94.01765700000016
 30
0.0
 11
147.4377380000001
 21
-91.35207400000012
 31
0.0
  0
LINE
  5
5B7B
330
A
100
AcDbEntity
  8
0
  6
Continuous
 62
     7
100
AcDbLine
 10
146.9332819999999
 20
-94.42954500000002
 30
0.0
 11
147.4377380000001
 21
-94.01765700000016
 31
0.0
  0
LINE
  5
5B7C
330
A
100
AcDbEntity
  8
0
  6
Continuous
 62
     7
100
AcDbLine
 10
146.7222039999997
 20
-92.66660999999984
 30
0.0
 11
146.7222039999997
 21
-93.50645099999995
 31
0.0
  0
ELLIPSE
  5
5B7D
330
A
100
AcDbEntity
  8
0
  6
Continuous
 62
     7
100
AcDbEllipse
 10
146.3644329999997
 20
-92.95872900000018
 30
0.0
 11
-0.1599999997545787
 21
-0.7838367177407379
 31
0.0
210
0.0
220
0.0
230
0.9999999999999996
 40
0.4082480000000003
 41
3.141592653589778
 42
3.715483427204457
  0
LINE
  5
5B7E
330
A
100
AcDbEntity
  8
0
  6
Continuous
 62
     7
100
AcDbLine
 10
144.754457
 20
-74.40553799999998
 30
0.0
 11
144.754457
 21
-83.02669199999995
 31
0.0
  0
LINE
  5
5B7F
330
A
100
AcDbEntity
  8
0
  6
Continuous
 62
     7
100
AcDbLine
 10
148.5110509999999
 20
-70.57513200000015
 30
0.0
 11
147.6911129999998
 21
-70.40776299999997
 31
0.0
  0
ELLIPSE
  5
5B80
330
A
100
AcDbEntity
  8
0
  6
Continuous
 62
     7
100
AcDbEllipse
 10
146.3644329999997
 20
-92.95872900000018
 30
0.0
 11
-0.1599999997545787
 21
-0.7838367177407379
 31
0.0
210
0.0
220
0.0
230
0.9999999999999996
 40
0.4082480000000003
 41
2.034443935667539
 42
3.141592653589778
  0
LINE
  5
5B81
330
A
100
AcDbEntity
  8
0
  6
Continuous
 62
     9
100
AcDbLine
 10
146.7222039999997
 20
-92.66660999999984
 30
0.0
 11
146.3250710000002
 21
-92.585546
 31
0.0
  0
ELLIPSE
  5
5B82
330
A
100
AcDbEntity
  8
0
  6
Continuous
 62
     7
100
AcDbEllipse
 10
123.8570600000007
 20
-37.79138100000011
 30
0.0
 11
-3.794733195840117
 21
4.647580012478668
 31
0.0
210
0.0000000000000001
220
0.0
230
1.0
 40
0.816497
 41
0.0
 42
0.5451483844172375
  0
LINE
  5
5B83
330
A
100
AcDbEntity
  8
0
  6
Continuous
 62
     7
100
AcDbLine
 10
123.8570600000007
 20
-32.31415500000014
 30
0.0
 11
163.2118559999999
 21
-40.34742000000017
 31
0.0
  0
ELLIPSE
  5
5B84
330
A
100
AcDbEntity
  8
0
  6
Continuous
 62
     7
100
AcDbEllipse
 10
163.2118559999999
 20
-45.82464500000014
 30
0.0
 11
-3.794733195839671
 21
4.647580012478447
 31
0.0000000000000004
210
0.0
220
-0.0000000000000001
230
1.0
 40
0.816497
 41
3.926990816348168
 42
5.497787143143085
  0
LINE
  5
5B85
330
A
100
AcDbEntity
  8
0
  6
Continuous
 62
     7
100
AcDbLine
 10
168.5784199999998
 20
-46.92009000000019
 30
0.0
 11
168.5784199999998
 21
-50.85660399999993
 31
0.0
  0
ELLIPSE
  5
5B86
330
A
100
AcDbEntity
  8
0
  6
Continuous
 62
     7
100
AcDbEllipse
 10
162.8540859999998
 20
-45.38646700000015
 30
0.0
 11
3.035786556671915
 21
-3.718064009982868
 31
-0.0000000000000002
210
0.0
220
0.0
230
1.0
 40
0.816497
 41
5.924038012063361
 42
6.283185307179571
  0
ELLIPSE
  5
5B87
330
A
100
AcDbEntity
  8
0
  6
Continuous
 62
     7
100
AcDbEllipse
 10
162.8540859999998
 20
-45.38646700000015
 30
0.0
 11
3.035786556671915
 21
-3.718064009982868
 31
-0.0000000000000002
210
0.0
220
-0.0000000000000001
230
1.0
 40
0.816497
 41
0.785398162758348
 42
2.356194489553246
  0
LINE
  5
5B88
330
A
100
AcDbEntity
  8
0
  6
Continuous
 62
     7
100
AcDbLine
 10
162.8540859999998
 20
-41.00468699999999
 30
0.0
 11
123.4992889999998
 21
-32.97142199999996
 31
0.0
  0
ELLIPSE
  5
5B89
330
A
100
AcDbEntity
  8
0
  6
Continuous
 62
     7
100
AcDbEllipse
 10
123.4992889999998
 20
-37.35320300000012
 30
0.0
 11
3.035786556671913
 21
-3.718064009982756
 31
-0.0000000000000003
210
0.0
220
-0.0000000000000001
230
1.0
 40
0.816497
 41
2.35619448955314
 42
3.141592653589865
  0
LINE
  5
5B8A
330
A
100
AcDbEntity
  8
0
  6
Continuous
 62
     9
100
AcDbLine
 10
164.2851690000002
 20
-39.47106299999997
 30
0.0
 11
163.2118559999999
 21
-40.34742000000017
 31
0.0
  0
ELLIPSE
  5
5B8B
330
A
100
AcDbEntity
  8
0
  6
Continuous
 62
     9
100
AcDbEllipse
 10
164.2851690000002
 20
-44.94828899999993
 30
0.0
 11
3.794733195840117
 21
-4.647580012478668
 31
-0.0000000000000002
210
0.0
220
-0.0000000000000001
230
1.0
 40
0.816497
 41
0.7853981627583181
 42
2.356194489553232
  0
LINE
  5
5B8C
330
A
100
AcDbEntity
  8
0
  6
Continuous
 62
     9
100
AcDbLine
 10
169.6517319999998
 20
-46.04373399999997
 30
0.0
 11
168.5784199999998
 21
-46.92009000000019
 31
0.0
  0
ELLIPSE
  5
5B8D
330
A
100
AcDbEntity
  8
0
  6
Continuous
 62
     7
100
AcDbEllipse
 10
163.0329710000001
 20
-45.240408
 30
0.0
 11
3.035786556671915
 21
-3.718064009982868
 31
0.0
210
0.0
220
0.0
230
1.0
 40
0.816497
 41
5.876707863229227
 42
6.253718201542036
  0
ELLIPSE
  5
5B8E
330
A
100
AcDbEntity
  8
0
  6
Continuous
 62
     9
100
AcDbEllipse
 10
164.2851690000002
 20
-42.3922500000001
 30
0.0
 11
-0.6399999990183149
 21
-3.135346870962841
 31
-0.0000000000000001
210
0.0
220
0.0
230
1.0
 40
0.4082480000000002
 41
3.141590962334331
 42
3.605240262462761
  0
ELLIPSE
  5
5B8F
330
A
100
AcDbEntity
  8
0
  6
Continuous
 62
     9
100
AcDbEllipse
 10
166.789565
 20
-45.45949699999993
 30
0.0
 11
-3.200000000000091
 21
0.0
 31
0.0
210
0.0
220
0.0
230
1.0
 40
0.4082480000000002
 41
2.677945045228208
 42
3.141594875320336
  0
LINE
  5
5B90
330
A
100
AcDbEntity
  8
0
  6
Continuous
 62
     9
100
AcDbLine
 10
124.9303730000001
 20
-31.43779900000016
 30
0.0
 11
123.8570600000007
 21
-32.31415500000014
 31
0.0
  0
LINE
  5
5B91
330
A
100
AcDbEntity
  8
0
  6
Continuous
 62
     9
100
AcDbLine
 10
164.2851690000002
 20
-39.47106299999997
 30
0.0
 11
124.9303730000001
 21
-31.43779900000016
 31
0.0
  0
LINE
  5
5B92
330
A
100
AcDbEntity
  8
0
  6
Continuous
 62
     9
100
AcDbLine
 10
169.6517319999998
 20
-50.3117440000002
 30
0.0
 11
169.6517319999998
 21
-46.04373399999997
 31
0.0
  0
ELLIPSE
  5
5B93
330
A
100
AcDbEntity
  8
0
  6
Continuous
 62
     7
100
AcDbEllipse
 10
162.8540859999998
 20
-45.38646700000015
 30
0.0
 11
3.035786556671915
 21
-3.718064009982868
 31
0.0000000000000002
210
0.0
220
0.0
230
1.0
 40
0.816497
 41
6.283185307179571
 42
7.068583469937932
  0
ELLIPSE
  5
5B94
330
A
100
AcDbEntity
  8
0
  6
Continuous
 62
     9
100
AcDbEllipse
 10
124.9303730000001
 20
-34.35898600000019
 30
0.0
 11
0.6399999990183149
 21
3.135346870962841
 31
0.0000000000000001
210
0.0
220
0.0
230
1.0
 40
0.4082480000000002
 41
6.283185307179584
 42
6.746832916052812
  0
ELLIPSE
  5
5B95
330
A
100
AcDbEntity
  8
0
  6
Continuous
 62
     7
100
AcDbEllipse
 10
123.8570600000007
 20
-37.79138100000011
 30
0.0
 11
-3.794733195840117
 21
4.647580012478668
 31
0.0000000000000004
210
0.0
220
-0.0000000000000001
230
1.0
 40
0.816497
 41
5.497787143143023
 42
6.283185307179584
  0
ELLIPSE
  5
5B96
330
A
100
AcDbEntity
  8
0
  6
Continuous
 62
     9
100
AcDbEllipse
 10
124.9303730000001
 20
-36.91502500000014
 30
0.0
 11
3.794733195839671
 21
-4.647580012478447
 31
-0.0000000000000004
210
0.0
220
-0.0000000000000001
230
1.0
 40
0.816497
 41
2.356194489553288
 42
3.141592653589849
  0
ELLIPSE
  5
5B97
330
A
100
AcDbEntity
  8
0
  6
Continuous
 62
     7
100
AcDbEllipse
 10
123.678175
 20
-37.20714400000043
 30
0.0
 11
3.035786556671913
 21
-3.718064009982756
 31
0.0
210
-0.0000000000000001
220
0.0
230
1.0
 40
0.816497
 41
3.171059164608818
 42
3.721546775015188
  0
ELLIPSE
  5
5B98
330
A
100
AcDbEntity
  8
0
  6
Continuous
 62
     7
100
AcDbEllipse
 10
123.4992889999998
 20
-37.35320300000012
 30
0.0
 11
3.035786556671913
 21
-3.718064009982756
 31
0.0000000000000002
210
-0.0000000000000001
220
0.0
230
1.0
 40
0.816497
 41
3.141592653589778
 42
3.682059723356761
  0
ELLIPSE
  5
5B99
330
A
100
AcDbEntity
  8
0
  6
Continuous
 62
     7
100
AcDbEllipse
 10
171.7983570000001
 20
-45.02131900000017
 30
0.0
 11
-1.199999999999863
 21
0.0
 31
0.0000000000000001
210
0.0000000000000001
220
0.0
230
1.0
 40
0.4082480000000002
 41
2.145762634574083
 42
2.677945045228073
  0
LINE
  5
5B9A
330
A
100
AcDbEntity
  8
0
  6
Continuous
 62
     7
100
AcDbLine
 10
172.87167
 20
-45.240408
 30
0.0
 11
178.238233
 21
-40.85862699999995
 31
0.0
  0
LINE
  5
5B9B
330
A
100
AcDbEntity
  8
0
  6
Continuous
 62
     7
100
AcDbLine
 10
178.238233
 20
-40.85862699999995
 30
0.0
 11
181.8159420000002
 21
-41.58892400000001
 31
0.0
  0
LINE
  5
5B9C
330
A
100
AcDbEntity
  8
0
  6
Continuous
 62
     7
100
AcDbLine
 10
181.8159420000002
 20
-41.58892400000001
 30
0.0
 11
175.5549519999999
 21
-46.70100100000013
 31
0.0
  0
LINE
  5
5B9D
330
A
100
AcDbEntity
  8
0
  6
Continuous
 62
     7
100
AcDbLine
 10
175.5549519999999
 20
-46.70100100000013
 30
0.0
 11
175.0182949999998
 21
-46.77403099999992
 31
0.0
  0
LINE
  5
5B9E
330
A
100
AcDbEntity
  8
0
  6
Continuous
 62
     7
100
AcDbLine
 10
175.0182949999998
 20
-46.77403099999992
 30
0.0
 11
168.2206489999998
 21
-52.32428600000014
 31
0.0
  0
LINE
  5
5B9F
330
A
100
AcDbEntity
  8
0
  6
Continuous
 62
     7
100
AcDbLine
 10
168.2206489999998
 20
-52.32428600000014
 30
0.0
 11
168.3995340000001
 21
-52.54337499999997
 31
0.0
  0
LINE
  5
5BA0
330
A
100
AcDbEntity
  8
0
  6
Continuous
 62
     7
100
AcDbLine
 10
168.3995340000001
 20
-52.54337499999997
 30
0.0
 11
162.1385439999999
 21
-57.65545199999997
 31
0.0
  0
LINE
  5
5BA1
330
A
100
AcDbEntity
  8
0
  6
Continuous
 62
     7
100
AcDbLine
 10
162.1385439999999
 20
-57.65545199999997
 30
0.0
 11
158.5608350000002
 21
-56.92515599999996
 31
0.0
  0
LINE
  5
5BA2
330
A
100
AcDbEntity
  8
0
  6
Continuous
 62
     7
100
AcDbLine
 10
158.5608350000002
 20
-56.92515599999996
 30
0.0
 11
163.9273980000007
 21
-52.54337499999997
 31
0.0
  0
ELLIPSE
  5
5BA3
330
A
100
AcDbEntity
  8
0
  6
Continuous
 62
     7
100
AcDbEllipse
 10
162.8540859999998
 20
-52.32428600000014
 30
0.0
 11
-1.200000000000311
 21
0.0
 31
0.0
210
0.0
220
0.0
230
1.0
 40
0.4082480000000002
 41
2.677945045227908
 42
3.141592653589792
  0
ELLIPSE
  5
5BA4
330
A
100
AcDbEntity
  8
0
  6
Continuous
 62
     7
100
AcDbEllipse
 10
156.6646489999998
 20
-46.49651799999981
 30
0.0
 11
-16.00000000000002
 21
0.0
 31
0.0000000000000011
210
0.0000000000000001
220
0.0
230
1.0
 40
0.4082480000000002
 41
2.050666134127672
 42
3.141592653589792
  0
LINE
  5
5BA5
330
A
100
AcDbEntity
  8
0
  6
Continuous
 62
     7
100
AcDbLine
 10
162.1385439999999
 20
-119.7306759999999
 30
0.0
 11
162.1385439999999
 21
-57.65545199999997
 31
0.0
  0
LINE
  5
5BA6
330
A
100
AcDbEntity
  8
0
  6
Continuous
 62
     7
100
AcDbLine
 10
162.1385439999999
 20
-119.7306759999999
 30
0.0
 11
158.5608350000002
 21
-119.000379
 31
0.0
  0
LINE
  5
5BA7
330
A
100
AcDbEntity
  8
0
  6
Continuous
 62
     7
100
AcDbLine
 10
158.5608350000002
 20
-119.000379
 30
0.0
 11
158.5608350000002
 21
-56.92515599999996
 31
0.0
  0
LINE
  5
5BA8
330
A
100
AcDbEntity
  8
0
  6
Continuous
 62
     7
100
AcDbLine
 10
168.3995340000001
 20
-114.618598
 30
0.0
 11
162.1385439999999
 21
-119.7306759999999
 31
0.0
  0
LINE
  5
5BA9
330
A
100
AcDbEntity
  8
0
  6
Continuous
 62
     7
100
AcDbLine
 10
168.3995340000001
 20
-82.63230300000016
 30
0.0
 11
168.3995340000001
 21
-52.54337499999997
 31
0.0
  0
ELLIPSE
  5
5BAA
330
A
100
AcDbEntity
  8
0
  6
Continuous
 62
     7
100
AcDbEllipse
 10
169.5622899999998
 20
-82.63160099999998
 30
0.0
 11
-0.5599999991408035
 21
-2.743428512092414
 31
0.0000000000000002
210
0.0
220
0.0000000000000001
230
1.0
 40
0.4082480000000002
 41
4.795785382564686
 42
5.556287795950665
  0
LINE
  5
5BAB
330
A
100
AcDbEntity
  8
0
  6
Continuous
 62
     7
100
AcDbLine
 10
168.3995340000001
 20
-114.618598
 30
0.0
 11
168.3995340000001
 21
-84.52967000000002
 31
0.0
  0
ELLIPSE
  5
5BAC
330
A
100
AcDbEntity
  8
0
  6
Continuous
 62
     7
100
AcDbEllipse
 10
164.821825
 20
-112.0625599999999
 30
0.0
 11
-0.4239999993496113
 21
-2.077167302012902
 31
0.0
210
0.0
220
0.0
230
1.0
 40
0.4082480000000002
 41
3.141592653589786
 42
5.176036589257603
  0
ELLIPSE
  5
5BAD
330
A
100
AcDbEntity
  8
0
  6
Continuous
 62
     7
100
AcDbEllipse
 10
164.821825
 20
-60.94178800000014
 30
0.0
 11
-0.4239999993496113
 21
-2.077167302012902
 31
0.0
210
0.0
220
0.0
230
1.0
 40
0.4082480000000002
 41
3.141592653589792
 42
5.17603658925758
  0
ELLIPSE
  5
5BAE
330
A
100
AcDbEntity
  8
0
  6
Continuous
 62
     7
100
AcDbEllipse
 10
164.821825
 20
-105.4898889999999
 30
0.0
 11
-0.3359999994847487
 21
-1.646057107255515
 31
0.0
210
0.0
220
0.0
230
1.0
 40
0.4082480000000002
 41
3.141592653589527
 42
5.176036589257827
  0
ELLIPSE
  5
5BAF
330
A
100
AcDbEntity
  8
0
  6
Continuous
 62
     7
100
AcDbEllipse
 10
164.821825
 20
-67.51445799999999
 30
0.0
 11
-0.3359999994847487
 21
-1.646057107255515
 31
0.0
210
0.0
220
0.0
230
1.0
 40
0.4082480000000002
 41
3.141592653589508
 42
5.176036589257796
  0
ELLIPSE
  5
5BB0
330
A
100
AcDbEntity
  8
0
  6
Continuous
 62
     7
100
AcDbEllipse
 10
163.5696269999998
 20
-60.68618399999997
 30
0.0
 11
0.4239999993496113
 21
2.077167302012902
 31
0.0
210
0.0
220
0.0
230
1.0
 40
0.4082480000000002
 41
3.972175112521115
 42
5.452602848248261
  0
ELLIPSE
  5
5BB1
330
A
100
AcDbEntity
  8
0
  6
Continuous
 62
     7
100
AcDbEllipse
 10
164.821825
 20
-60.94178800000014
 30
0.0
 11
-0.4239999993496113
 21
-2.077167302012902
 31
0.0
210
0.0000000000000001
220
0.0
230
1.0
 40
0.4082480000000002
 41
5.17603658925758
 42
6.283185307179584
  0
ELLIPSE
  5
5BB2
330
A
100
AcDbEntity
  8
0
  6
Continuous
 62
     7
100
AcDbEllipse
 10
164.821825
 20
-60.94178800000014
 30
0.0
 11
-0.4239999993496113
 21
-2.077167302012902
 31
0.0
210
0.0000000000000001
220
0.0
230
1.0
 40
0.4082480000000002
 41
0.0
 42
3.141592653589792
  0
ELLIPSE
  5
5BB3
330
A
100
AcDbEntity
  8
0
  6
Continuous
 62
     7
100
AcDbEllipse
 10
164.821825
 20
-67.51445799999999
 30
0.0
 11
-0.3359999994847487
 21
-1.646057107255515
 31
0.0
210
0.0000000000000001
220
0.0
230
1.0
 40
0.4082480000000002
 41
5.176036589257796
 42
6.283185307179317
  0
ELLIPSE
  5
5BB4
330
A
100
AcDbEntity
  8
0
  6
Continuous
 62
     7
100
AcDbEllipse
 10
164.821825
 20
-67.51445799999999
 30
0.0
 11
-0.3359999994847487
 21
-1.646057107255515
 31
0.0000000000000001
210
0.0
220
0.0000000000000001
230
1.0
 40
0.4082480000000002
 41
6.283185307179317
 42
9.424777960769091
  0
ELLIPSE
  5
5BB5
330
A
100
AcDbEntity
  8
0
  6
Continuous
 62
     7
100
AcDbEllipse
 10
156.6646489999998
 20
-46.49651799999981
 30
0.0
 11
-16.00000000000002
 21
0.0
 31
0.0
210
0.0
220
0.0
230
1.0
 40
0.4082480000000002
 41
3.141592653589792
 42
3.305223956328521
  0
LINE
  5
5BB6
330
A
100
AcDbEntity
  8
0
  6
Continuous
 62
     7
100
AcDbLine
 10
164.0512680000001
 20
-52.29073700000004
 30
0.0
 11
164.0512680000001
 21
-52.35783499999978
 31
0.0
  0
LINE
  5
5BB7
330
A
100
AcDbEntity
  8
0
  6
Continuous
 62
     7
100
AcDbLine
 10
172.450925
 20
-47.56059000000015
 30
0.0
 11
172.450925
 21
-45.43244600000003
 31
0.0
  0
ELLIPSE
  5
5BB8
330
A
100
AcDbEntity
  8
0
  6
Continuous
 62
     7
100
AcDbEllipse
 10
162.8540859999998
 20
-52.32428600000014
 30
0.0
 11
-1.200000000000311
 21
0.0
 31
0.0000000000000001
210
0.0000000000000001
220
0.0
230
1.0
 40
0.4082480000000002
 41
3.141592653589792
 42
3.210127455882211
  0
LINE
  5
5BB9
330
A
100
AcDbEntity
  8
0
  6
Continuous
 62
     7
100
AcDbLine
 10
175.0182949999998
 20
-108.8492540000001
 30
0.0
 11
168.3995340000001
 21
-114.25345
 31
0.0
  0
ELLIPSE
  5
5BBA
330
A
100
AcDbEntity
  8
0
  6
Continuous
 62
     7
100
AcDbEllipse
 10
169.2045190000003
 20
-82.55857099999998
 30
0.0
 11
-0.5599999991408035
 21
-2.74342851209247
 31
0.0000000000000001
210
0.0
220
0.0
230
1.0
 40
0.4082480000000002
 41
3.605240921917672
 42
4.303462735229167
  0
ELLIPSE
  5
5BBB
330
A
100
AcDbEntity
  8
0
  6
Continuous
 62
     7
100
AcDbEllipse
 10
169.2045190000003
 20
-82.55857099999998
 30
0.0
 11
-0.5599999991408035
 21
-2.74342851209247
 31
0.0
210
0.0
220
0.0
230
1.0
 40
0.4082480000000002
 41
3.141592653589478
 42
3.605240921917672
  0
LINE
  5
5BBC
330
A
100
AcDbEntity
  8
0
  6
Continuous
 62
     7
100
AcDbLine
 10
175.0182949999998
 20
-76.23050400000001
 30
0.0
 11
175.0182949999998
 21
-46.77403099999992
 31
0.0
  0
ELLIPSE
  5
5BBD
330
A
100
AcDbEntity
  8
0
  6
Continuous
 62
     7
100
AcDbEllipse
 10
174.0344249999998
 20
-78.61496900000014
 30
0.0
 11
-0.5599999991412476
 21
-2.743428512092527
 31
0.0000000000000001
210
0.0000000000000001
220
0.0
230
1.0
 40
0.4082480000000003
 41
6.283185307179427
 42
7.650682898343871
  0
LINE
  5
5BBE
330
A
100
AcDbEntity
  8
0
  6
Continuous
 62
     7
100
AcDbLine
 10
175.0182949999998
 20
-108.8492540000001
 30
0.0
 11
175.0182949999998
 21
-79.39278099999995
 31
0.0
  0
LINE
  5
5BBF
330
A
100
AcDbEntity
  8
0
  6
Continuous
 62
     7
100
AcDbLine
 10
158.5608350000002
 20
-64.41069699999997
 30
0.0
 11
154.0886989999999
 21
-63.49782599999997
 31
0.0
  0
ELLIPSE
  5
5BC0
330
A
100
AcDbEntity
  8
0
  6
Continuous
 62
     7
100
AcDbEllipse
 10
158.024179
 20
-60.28452099999999
 30
0.0
 11
8.799999999999917
 21
0.0
 31
0.0
210
0.0
220
0.0
230
1.0
 40
0.4082480000000002
 41
3.797714560056828
 42
4.248741372023022
  0
ELLIPSE
  5
5BC1
330
A
100
AcDbEntity
  8
0
  6
Continuous
 62
     7
100
AcDbEllipse
 10
158.2388409999999
 20
-77.56334199999997
 30
0.0
 11
0.1011928852223676
 21
-0.1239354669994031
 31
0.0
210
0.0
220
0.0
230
1.0
 40
0.8164969999999998
 41
0.7853981627587717
 42
2.356194489551181
  0
LINE
  5
5BC2
330
A
100
AcDbEntity
  8
0
  6
Continuous
 62
     7
100
AcDbLine
 10
158.2388409999999
 20
-77.41728200000017
 30
0.0
 11
154.0886989999999
 21
-76.57013799999998
 31
0.0
  0
LINE
  5
5BC3
330
A
100
AcDbEntity
  8
0
  6
Continuous
 62
     9
100
AcDbLine
 10
154.0886989999999
 20
-76.57013799999998
 30
0.0
 11
154.0886989999999
 21
-63.49782599999997
 31
0.0
  0
LINE
  5
5BC4
330
A
100
AcDbEntity
  8
0
  6
Continuous
 62
     7
100
AcDbLine
 10
158.5608350000002
 20
-99.46494100000002
 30
0.0
 11
154.0886989999999
 21
-98.55207
 31
0.0
  0
LINE
  5
5BC5
330
A
100
AcDbEntity
  8
0
  6
Continuous
 62
     9
100
AcDbLine
 10
154.0886989999999
 20
-98.55207
 30
0.0
 11
154.0886989999999
 21
-87.72484500000013
 31
0.0
  0
ELLIPSE
  5
5BC6
330
A
100
AcDbEntity
  8
0
  6
Continuous
 62
     7
100
AcDbEllipse
 10
158.024179
 20
-73.35683200000016
 30
0.0
 11
8.799999999999917
 21
0.0
 31
0.0
210
0.0
220
0.0
230
1.0
 40
0.4082480000000002
 41
3.141592653589792
 42
4.248741372023014
  0
ELLIPSE
  5
5BC7
330
A
100
AcDbEntity
  8
0
  6
Continuous
 62
     7
100
AcDbEllipse
 10
169.2045190000003
 20
-82.55857099999998
 30
0.0
 11
-0.5599999991412476
 21
-2.743428512092469
 31
0.0000000000000001
210
0.0
220
0.0
230
1.0
 40
0.4082480000000003
 41
6.04861044328608
 42
6.283185307179588
  0
ELLIPSE
  5
5BC8
330
A
100
AcDbEntity
  8
0
  6
Continuous
 62
     7
100
AcDbEllipse
 10
169.2045190000003
 20
-82.55857099999998
 30
0.0
 11
-0.5599999991412476
 21
-2.743428512092469
 31
-0.0000000000000001
210
0.0
220
0.0
230
1.0
 40
0.4082480000000003
 41
0.000000000000004
 42
3.141592653589476
  0
LINE
  5
5BC9
330
A
100
AcDbEntity
  8
0
  6
Continuous
 62
     7
100
AcDbLine
 10
175.5549519999999
 20
-76.78992900000014
 30
0.0
 11
175.5549519999999
 21
-46.70100100000013
 31
0.0
  0
ELLIPSE
  5
5BCA
330
A
100
AcDbEntity
  8
0
  6
Continuous
 62
     7
100
AcDbEllipse
 10
172.0666860000001
 20
-78.21330599999993
 30
0.0
 11
-3.708087019404171
 21
-0.9140387273280927
 31
0.0
210
0.0
220
0.0
230
1.0
 40
0.658331
 41
3.360968582700933
 42
3.647663720511662
  0
LINE
  5
5BCB
330
A
100
AcDbEntity
  8
0
  6
Continuous
 62
     7
100
AcDbLine
 10
181.8159420000002
 20
-103.6641469999999
 30
0.0
 11
181.8159420000002
 21
-41.58892400000001
 31
0.0
  0
LINE
  5
5BCC
330
A
100
AcDbEntity
  8
0
  6
Continuous
 62
     7
100
AcDbLine
 10
181.8159420000002
 20
-103.6641469999999
 30
0.0
 11
175.5549519999999
 21
-108.7762240000001
 31
0.0
  0
LINE
  5
5BCD
330
A
100
AcDbEntity
  8
0
  6
Continuous
 62
     7
100
AcDbLine
 10
175.5549519999999
 20
-108.7762240000001
 30
0.0
 11
175.5549519999999
 21
-78.68729599999999
 31
0.0
  0
ELLIPSE
  5
5BCE
330
A
100
AcDbEntity
  8
0
  6
Continuous
 62
     7
100
AcDbEllipse
 10
174.3921960000001
 20
-78.68799900000015
 30
0.0
 11
-0.5599999991408035
 21
-2.743428512092527
 31
0.0
210
0.0
220
0.0
230
1.0
 40
0.408248
 41
1.654192728975044
 42
2.414695142361028
  0
ELLIPSE
  5
5BCF
330
A
100
AcDbEntity
  8
0
  6
Continuous
 62
     7
100
AcDbEllipse
 10
179.1326600000002
 20
-100.3778120000001
 30
0.0
 11
-0.4239999993496113
 21
-2.077167302012902
 31
0.0
210
0.0
220
0.0
230
1.0
 40
0.4082480000000002
 41
3.141592653589786
 42
5.176036589257603
  0
ELLIPSE
  5
5BD0
330
A
100
AcDbEntity
  8
0
  6
Continuous
 62
     7
100
AcDbEllipse
 10
179.1326600000002
 20
-49.25704000000042
 30
0.0
 11
-0.4239999993496113
 21
-2.077167302012902
 31
0.0
210
0.0
220
0.0
230
1.0
 40
0.4082480000000002
 41
3.141592653589792
 42
5.17603658925758
  0
ELLIPSE
  5
5BD1
330
A
100
AcDbEntity
  8
0
  6
Continuous
 62
     7
100
AcDbEllipse
 10
179.1326600000002
 20
-93.805141
 30
0.0
 11
-0.3359999994847487
 21
-1.646057107255515
 31
0.0
210
0.0
220
0.0
230
1.0
 40
0.4082480000000002
 41
3.141592653590318
 42
5.176036589257558
  0
ELLIPSE
  5
5BD2
330
A
100
AcDbEntity
  8
0
  6
Continuous
 62
     7
100
AcDbEllipse
 10
179.1326600000002
 20
-55.82970999999997
 30
0.0
 11
-0.3359999994847485
 21
-1.646057107255403
 31
0.0
210
0.0
220
0.0
230
0.9999999999999998
 40
0.4082480000000002
 41
3.141592653590323
 42
5.17603658925754
  0
ELLIPSE
  5
5BD3
330
A
100
AcDbEntity
  8
0
  6
Continuous
 62
     7
100
AcDbEllipse
 10
164.821825
 20
-105.4898889999999
 30
0.0
 11
-0.3359999994847487
 21
-1.646057107255515
 31
0.0000000000000001
210
0.0
220
0.0000000000000001
230
1.0
 40
0.4082480000000002
 41
5.176036589257827
 42
6.283185307179317
  0
ELLIPSE
  5
5BD4
330
A
100
AcDbEntity
  8
0
  6
Continuous
 62
     7
100
AcDbEllipse
 10
164.821825
 20
-105.4898889999999
 30
0.0
 11
-0.3359999994847487
 21
-1.646057107255515
 31
0.0000000000000001
210
0.0
220
0.0000000000000001
230
1.0
 40
0.4082480000000002
 41
6.283185307179317
 42
9.424777960769112
  0
ELLIPSE
  5
5BD5
330
A
100
AcDbEntity
  8
0
  6
Continuous
 62
     7
100
AcDbEllipse
 10
163.5696269999998
 20
-111.8069559999999
 30
0.0
 11
0.4239999993496113
 21
2.077167302012902
 31
0.0
210
0.0
220
0.0
230
1.0
 40
0.4082480000000002
 41
3.972175112527123
 42
5.45260284824198
  0
ELLIPSE
  5
5BD6
330
A
100
AcDbEntity
  8
0
  6
Continuous
 62
     7
100
AcDbEllipse
 10
164.821825
 20
-112.0625599999999
 30
0.0
 11
-0.4239999993496113
 21
-2.077167302012902
 31
0.0
210
0.0000000000000001
220
0.0
230
1.0
 40
0.4082480000000002
 41
5.176036589257603
 42
6.283185307179584
  0
ELLIPSE
  5
5BD7
330
A
100
AcDbEntity
  8
0
  6
Continuous
 62
     7
100
AcDbEllipse
 10
164.821825
 20
-112.0625599999999
 30
0.0
 11
-0.4239999993496113
 21
-2.077167302012902
 31
0.0
210
0.0000000000000001
220
0.0
230
1.0
 40
0.4082480000000002
 41
0.0
 42
3.141592653589786
  0
ELLIPSE
  5
5BD8
330
A
100
AcDbEntity
  8
0
  6
Continuous
 62
     7
100
AcDbEllipse
 10
177.880462
 20
-49.00143600000014
 30
0.0
 11
0.4239999993496113
 21
2.077167302012902
 31
0.0
210
0.0
220
0.0
230
1.0
 40
0.4082480000000002
 41
3.972175112518698
 42
5.452602848250704
  0
ELLIPSE
  5
5BD9
330
A
100
AcDbEntity
  8
0
  6
Continuous
 62
     7
100
AcDbEllipse
 10
179.1326600000002
 20
-49.25704000000042
 30
0.0
 11
-0.4239999993496113
 21
-2.077167302012902
 31
-0.0000000000000001
210
0.0000000000000001
220
-0.0000000000000001
230
1.0
 40
0.4082480000000002
 41
5.17603658925758
 42
6.283185307179584
  0
ELLIPSE
  5
5BDA
330
A
100
AcDbEntity
  8
0
  6
Continuous
 62
     7
100
AcDbEllipse
 10
179.1326600000002
 20
-49.25704000000042
 30
0.0
 11
-0.4239999993496113
 21
-2.077167302012902
 31
-0.0000000000000001
210
0.0000000000000001
220
-0.0000000000000001
230
1.0
 40
0.4082480000000002
 41
0.0
 42
3.141592653589792
  0
ELLIPSE
  5
5BDB
330
A
100
AcDbEntity
  8
0
  6
Continuous
 62
     7
100
AcDbEllipse
 10
174.0344249999998
 20
-78.61496900000014
 30
0.0
 11
-0.5599999991412476
 21
-2.743428512092527
 31
-0.0000000000000001
210
0.0
220
0.0
230
1.0
 40
0.4082480000000003
 41
2.70139028017175
 42
3.141592653589956
  0
ELLIPSE
  5
5BDC
330
A
100
AcDbEntity
  8
0
  6
Continuous
 62
     7
100
AcDbEllipse
 10
174.0344249999998
 20
-78.61496900000014
 30
0.0
 11
-0.5599999991408035
 21
-2.743428512092527
 31
-0.0000000000000001
210
0.0
220
0.0
230
1.0
 40
0.408248
 41
3.605240921612982
 42
6.28318530717958
  0
ELLIPSE
  5
5BDD
330
A
100
AcDbEntity
  8
0
  6
Continuous
 62
     7
100
AcDbEllipse
 10
174.0344249999998
 20
-78.61496900000014
 30
0.0
 11
-0.5599999991412476
 21
-2.743428512092527
 31
0.0
210
0.0
220
0.0
230
1.0
 40
0.4082480000000003
 41
3.141592653590111
 42
3.605240921612982
  0
ELLIPSE
  5
5BDE
330
A
100
AcDbEntity
  8
0
  6
Continuous
 62
     7
100
AcDbEllipse
 10
172.0666860000001
 20
-78.21330599999993
 30
0.0
 11
-3.708087019404171
 21
-0.9140387273280927
 31
0.0
210
0.0
220
0.0
230
1.0
 40
0.658331
 41
2.313771031504323
 42
2.600466169315053
  0
ELLIPSE
  5
5BDF
330
A
100
AcDbEntity
  8
0
  6
Continuous
 62
     7
100
AcDbEllipse
 10
158.024179
 20
-95.33876399999995
 30
0.0
 11
8.799999999999917
 21
0.0
 31
0.0
210
0.0
220
0.0
230
1.0
 40
0.4082480000000002
 41
3.141592653589792
 42
4.248741372023016
  0
ELLIPSE
  5
5BE0
330
A
100
AcDbEntity
  8
0
  6
Continuous
 62
     7
100
AcDbEllipse
 10
179.1326600000002
 20
-55.82970999999997
 30
0.0
 11
-0.3359999994847485
 21
-1.646057107255403
 31
0.0
210
0.0
220
0.0
230
0.9999999999999998
 40
0.4082480000000002
 41
5.176036589257538
 42
6.283185307179312
  0
ELLIPSE
  5
5BE1
330
A
100
AcDbEntity
  8
0
  6
Continuous
 62
     7
100
AcDbEllipse
 10
179.1326600000002
 20
-55.82970999999997
 30
0.0
 11
-0.3359999994847485
 21
-1.646057107255403
 31
0.0000000000000001
210
0.0
220
0.0000000000000001
230
0.9999999999999998
 40
0.4082480000000002
 41
6.283185307179312
 42
9.42477796076991
  0
LINE
  5
5BE2
330
A
100
AcDbEntity
  8
0
  6
Continuous
 62
     7
100
AcDbLine
 10
175.5549519999999
 20
-108.7762240000001
 30
0.0
 11
175.0182949999998
 21
-108.8492540000001
 31
0.0
  0
ELLIPSE
  5
5BE3
330
A
100
AcDbEntity
  8
0
  6
Continuous
 62
     7
100
AcDbEllipse
 10
179.1326600000002
 20
-93.805141
 30
0.0
 11
-0.3359999994847487
 21
-1.646057107255515
 31
0.0
210
0.0
220
0.0
230
1.0
 40
0.4082480000000002
 41
5.176036589257558
 42
6.283185307179317
  0
ELLIPSE
  5
5BE4
330
A
100
AcDbEntity
  8
0
  6
Continuous
 62
     7
100
AcDbEllipse
 10
179.1326600000002
 20
-93.805141
 30
0.0
 11
-0.3359999994847487
 21
-1.646057107255515
 31
0.0
210
0.0
220
0.0
230
1.0
 40
0.4082480000000002
 41
6.283185307179317
 42
9.424777960769905
  0
ELLIPSE
  5
5BE5
330
A
100
AcDbEntity
  8
0
  6
Continuous
 62
     7
100
AcDbEllipse
 10
177.880462
 20
-100.1222080000002
 30
0.0
 11
0.4239999993496113
 21
2.077167302012902
 31
0.0
210
0.0
220
0.0
230
1.0
 40
0.4082480000000002
 41
3.972175112521578
 42
5.452602848247948
  0
ELLIPSE
  5
5BE6
330
A
100
AcDbEntity
  8
0
  6
Continuous
 62
     7
100
AcDbEllipse
 10
179.1326600000002
 20
-100.3778120000001
 30
0.0
 11
-0.4239999993496113
 21
-2.077167302012902
 31
-0.0000000000000001
210
0.0000000000000001
220
-0.0000000000000001
230
1.0
 40
0.4082480000000002
 41
5.176036589257603
 42
6.283185307179584
  0
ELLIPSE
  5
5BE7
330
A
100
AcDbEntity
  8
0
  6
Continuous
 62
     7
100
AcDbEllipse
 10
179.1326600000002
 20
-100.3778120000001
 30
0.0
 11
-0.4239999993496113
 21
-2.077167302012902
 31
-0.0000000000000001
210
0.0000000000000001
220
-0.0000000000000001
230
1.0
 40
0.4082480000000002
 41
0.0
 42
3.141592653589786
  0
ELLIPSE
  5
5BE8
330
A
100
AcDbEntity
  8
0
  6
Continuous
 62
     7
100
AcDbEllipse
 10
123.678175
 20
-37.93744000000014
 30
0.0
 11
3.035786556671915
 21
-3.718064009982978
 31
0.0000000000000002
210
0.0
220
0.0
230
1.0
 40
0.816497
 41
2.35619448955316
 42
3.141592653589705
  0
LINE
  5
5BE9
330
A
100
AcDbEntity
  8
0
  6
Continuous
 62
     7
100
AcDbLine
 10
162.6752000000001
 20
-41.515894
 30
0.0
 11
123.678175
 21
-33.55565999999999
 31
0.0
  0
ELLIPSE
  5
5BEA
330
A
100
AcDbEntity
  8
0
  6
Continuous
 62
     7
100
AcDbEllipse
 10
162.6752000000001
 20
-45.53252599999995
 30
0.0
 11
2.782804343615996
 21
-3.408225342484194
 31
0.0000000000000002
210
0.0
220
0.0
230
1.0
 40
0.8164970000000002
 41
0.7853981627583143
 42
2.356194489553208
  0
LINE
  5
5BEB
330
A
100
AcDbEntity
  8
0
  6
Continuous
 62
     9
100
AcDbLine
 10
163.0329710000001
 20
-41.22377599999992
 30
0.0
 11
162.6752000000001
 21
-41.515894
 31
0.0
  0
ELLIPSE
  5
5BEC
330
A
100
AcDbEntity
  8
0
  6
Continuous
 62
     7
100
AcDbEllipse
 10
163.0329710000001
 20
-45.240408
 30
0.0
 11
2.782804343615995
 21
-3.408225342484302
 31
0.0000000000000002
210
0.0
220
0.0
230
1.0
 40
0.816497
 41
0.7853981627583303
 42
2.356194489553227
  0
LINE
  5
5BED
330
A
100
AcDbEntity
  8
0
  6
Continuous
 62
     9
100
AcDbLine
 10
166.9684510000002
 20
-46.04373399999997
 30
0.0
 11
166.6106800000002
 21
-46.33585300000015
 31
0.0
  0
LINE
  5
5BEE
330
A
100
AcDbEntity
  8
0
  6
Continuous
 62
     9
100
AcDbLine
 10
124.0359450000001
 20
-33.26354100000015
 30
0.0
 11
123.678175
 21
-33.55565999999999
 31
0.0
  0
LINE
  5
5BEF
330
A
100
AcDbEntity
  8
0
  6
Continuous
 62
     7
100
AcDbLine
 10
163.0329710000001
 20
-41.22377599999992
 30
0.0
 11
124.0359450000001
 21
-33.26354100000015
 31
0.0
  0
ELLIPSE
  5
5BF0
330
A
100
AcDbEntity
  8
0
  6
Continuous
 62
     7
100
AcDbEllipse
 10
163.0329710000001
 20
-45.240408
 30
0.0
 11
2.782804343615995
 21
-3.408225342484302
 31
0.0
210
-0.0000000000000001
220
0.0
230
1.0
 40
0.816497
 41
6.283185307179584
 42
7.068583469937914
  0
ELLIPSE
  5
5BF1
330
A
100
AcDbEntity
  8
0
  6
Continuous
 62
     7
100
AcDbEllipse
 10
162.6752000000001
 20
-45.53252599999995
 30
0.0
 11
2.782804343615996
 21
-3.408225342484194
 31
0.0
210
-0.0000000000000001
220
0.0
230
1.0
 40
0.8164970000000002
 41
0.0
 42
0.7853981627583143
  0
ELLIPSE
  5
5BF2
330
A
100
AcDbEntity
  8
0
  6
Continuous
 62
     7
100
AcDbEllipse
 10
124.0359450000001
 20
-37.64532199999996
 30
0.0
 11
3.035786556671913
 21
-3.718064009982756
 31
0.0000000000000002
210
0.0
220
0.0
230
1.0
 40
0.816497
 41
2.356194489553246
 42
3.141592653589808
  0
ELLIPSE
  5
5BF3
330
A
100
AcDbEntity
  8
0
  6
Continuous
 62
     9
100
AcDbEllipse
 10
156.7719809999998
 20
-51.08278200000018
 30
0.0
 11
1.770875491391876
 21
-2.168870672489942
 31
0.0
210
0.0
220
0.0
230
0.9999999999999998
 40
0.8164969999999996
 41
0.785398162758355
 42
2.356194489553185
  0
ELLIPSE
  5
5BF4
330
A
100
AcDbEntity
  8
0
  6
Continuous
 62
     9
100
AcDbEllipse
 10
158.2030640000007
 20
-47.35826799999995
 30
0.0
 11
-0.6399999990183149
 21
-3.135346870962841
 31
0.0
210
0.0
220
0.0
230
1.0
 40
0.4082480000000002
 41
3.605240262462761
 42
5.176036589257653
  0
ELLIPSE
  5
5BF5
330
A
100
AcDbEntity
  8
0
  6
Continuous
 62
     9
100
AcDbEllipse
 10
158.2030640000007
 20
-49.91430700000011
 30
0.0
 11
-3.794733195840116
 21
4.647580012478558
 31
0.0
210
0.0
220
0.0
230
0.9999999999999998
 40
0.8164969999999998
 41
3.92699081634807
 42
5.49778714314301
  0
ELLIPSE
  5
5BF6
330
A
100
AcDbEntity
  8
0
  6
Continuous
 62
     9
100
AcDbEllipse
 10
160.7074600000001
 20
-50.42551500000013
 30
0.0
 11
-3.200000000000091
 21
0.0
 31
0.0
210
0.0
220
0.0
230
1.0
 40
0.4082480000000002
 41
1.107148718433188
 42
2.677945045228053
  0
LINE
  5
5BF7
330
A
100
AcDbEntity
  8
0
  6
Continuous
 62
     9
100
AcDbLine
 10
156.7719809999998
 20
-48.52674300000001
 30
0.0
 11
117.4171839999999
 21
-40.49347899999998
 31
0.0
  0
ELLIPSE
  5
5BF8
330
A
100
AcDbEntity
  8
0
  6
Continuous
 62
     9
100
AcDbEllipse
 10
118.8482680000002
 20
-39.32500400000015
 30
0.0
 11
0.6399999990183149
 21
3.135346870962841
 31
0.0000000000000002
210
0.0
220
-0.0000000000000001
230
1.0
 40
0.4082480000000002
 41
0.4636476088729684
 42
2.034443935667828
  0
LINE
  5
5BF9
330
A
100
AcDbEntity
  8
0
  6
Continuous
 62
     9
100
AcDbLine
 10
118.8482680000002
 20
-36.40381700000012
 30
0.0
 11
158.2030640000007
 21
-44.43708099999992
 31
0.0
  0
LINE
  5
5BFA
330
A
100
AcDbEntity
  8
0
  6
Continuous
 62
     9
100
AcDbLine
 10
159.2763770000001
 20
-56.34091799999999
 30
0.0
 11
159.2763770000001
 21
-51.59398899999996
 31
0.0
  0
LINE
  5
5BFB
330
A
100
AcDbEntity
  8
0
  6
Continuous
 62
     9
100
AcDbLine
 10
163.5696269999998
 20
-51.00975199999993
 30
0.0
 11
163.5696269999998
 21
-52.83549400000016
 31
0.0
  0
LINE
  5
5BFC
330
A
100
AcDbEntity
  8
0
  6
Continuous
 62
     7
100
AcDbLine
 10
144.6077709999999
 20
-74.52530700000017
 30
0.0
 11
144.6077709999999
 21
-61.16087699999997
 31
0.0
  0
LINE
  5
5BFD
330
A
100
AcDbEntity
  8
0
  6
Continuous
 62
     7
100
AcDbLine
 10
139.9567489999999
 20
-73.57592099999997
 30
0.0
 11
144.6077709999999
 21
-74.52530700000017
 31
0.0
  0
LINE
  5
5BFE
330
A
100
AcDbEntity
  8
0
  6
Continuous
 62
     7
100
AcDbLine
 10
139.9567489999999
 20
-83.80007599999997
 30
0.0
 11
139.9567489999999
 21
-73.57592099999997
 31
0.0
  0
LINE
  5
5BFF
330
A
100
AcDbEntity
  8
0
  6
Continuous
 62
     7
100
AcDbLine
 10
144.6077709999999
 20
-84.74946199999997
 30
0.0
 11
139.9567489999999
 21
-83.80007599999997
 31
0.0
  0
LINE
  5
5C00
330
A
100
AcDbEntity
  8
0
  6
Continuous
 62
     7
100
AcDbLine
 10
144.6077709999999
 20
-98.11389199999997
 30
0.0
 11
144.6077709999999
 21
-84.74946199999997
 31
0.0
  0
LINE
  5
5C01
330
A
100
AcDbEntity
  8
0
  6
Continuous
 62
     7
100
AcDbLine
 10
158.5608350000002
 20
-100.9620490000001
 30
0.0
 11
144.6077709999999
 21
-98.11389199999997
 31
0.0
  0
ELLIPSE
  5
5C02
330
A
100
AcDbEntity
  8
0
  6
Continuous
 62
     9
100
AcDbEllipse
 10
156.7719809999998
 20
-113.158005
 30
0.0
 11
1.770875491391876
 21
-2.168870672489942
 31
0.0
210
0.0
220
0.0
230
0.9999999999999998
 40
0.8164969999999996
 41
5.497787143142992
 42
6.293390101523927
  0
LINE
  5
5C03
330
A
100
AcDbEntity
  8
0
  6
Continuous
 62
     9
100
AcDbLine
 10
117.4171839999999
 20
-107.6807790000001
 30
0.0
 11
156.7719809999998
 21
-115.7140429999999
 31
0.0
  0
ELLIPSE
  5
5C04
330
A
100
AcDbEntity
  8
0
  6
Continuous
 62
     9
100
AcDbEllipse
 10
117.4171839999999
 20
-105.1247410000001
 30
0.0
 11
1.770875491391876
 21
-2.168870672489942
 31
0.0
210
0.0
220
0.0
230
0.9999999999999998
 40
0.8164969999999996
 41
3.926990816348153
 42
5.497787143143002
  0
LINE
  5
5C05
330
A
100
AcDbEntity
  8
0
  6
Continuous
 62
     9
100
AcDbLine
 10
114.9127880000001
 20
-42.53830999999979
 30
0.0
 11
114.9127880000001
 21
-104.613533
 31
0.0
  0
ELLIPSE
  5
5C06
330
A
100
AcDbEntity
  8
0
  6
Continuous
 62
     9
100
AcDbEllipse
 10
117.4171839999999
 20
-43.04951700000002
 30
0.0
 11
1.770875491391876
 21
-2.168870672489942
 31
0.0
210
0.0
220
0.0
230
0.9999999999999998
 40
0.8164969999999996
 41
2.356194489553188
 42
3.926990816348148
  0
LINE
  5
5C07
330
A
100
AcDbEntity
  8
0
  6
Continuous
 62
     7
100
AcDbLine
 10
144.6077709999999
 20
-61.16087699999997
 30
0.0
 11
158.5608350000002
 21
-64.00903399999998
 31
0.0
  0
ELLIPSE
  5
5C08
330
A
100
AcDbEntity
  8
0
  6
Continuous
 62
     7
100
AcDbEllipse
 10
159.2763770000001
 20
-49.03795100000002
 30
0.0
 11
-3.794733195840117
 21
4.647580012478668
 31
0.0
210
0.0
220
0.0
230
1.0
 40
0.816497
 41
3.926990816348108
 42
5.497787143143026
  0
LINE
  5
5C09
330
A
100
AcDbEntity
  8
0
  6
Continuous
 62
     9
100
AcDbLine
 10
164.6429399999997
 20
-50.13339599999993
 30
0.0
 11
163.5696269999998
 21
-51.00975199999993
 31
0.0
  0
LINE
  5
5C0A
330
A
100
AcDbEntity
  8
0
  6
Continuous
 62
     9
100
AcDbLine
 10
158.2030640000007
 20
-44.43708099999992
 30
0.0
 11
159.2763770000001
 21
-43.56072500000015
 31
0.0
  0
LINE
  5
5C0B
330
A
100
AcDbEntity
  8
0
  6
Continuous
 62
     9
100
AcDbLine
 10
119.9215800000001
 20
-35.52746100000002
 30
0.0
 11
118.8482680000002
 21
-36.40381700000012
 31
0.0
  0
LINE
  5
5C0C
330
A
100
AcDbEntity
  8
0
  6
Continuous
 62
     7
100
AcDbLine
 10
119.9215800000001
 20
-35.52746100000002
 30
0.0
 11
159.2763770000001
 21
-43.56072500000015
 31
0.0
  0
LINE
  5
5C0D
330
A
100
AcDbEntity
  8
0
  6
Continuous
 62
     7
100
AcDbLine
 10
164.6429399999997
 20
-52.15847999999983
 30
0.0
 11
164.6429399999997
 21
-50.13339599999993
 31
0.0
  0
LINE
  5
5C0E
330
A
100
AcDbEntity
  8
0
  6
Continuous
 62
     7
100
AcDbLine
 10
164.6429399999997
 20
-51.04626699999993
 30
0.0
 11
166.9185790000001
 21
-51.51077999999995
 31
0.0
  0
LINE
  5
5C0F
330
A
100
AcDbEntity
  8
0
  6
Continuous
 62
     7
100
AcDbLine
 10
146.3250710000002
 20
-62.42429000000004
 30
0.0
 11
146.9332819999999
 21
-61.92768799999999
 31
0.0
  0
LINE
  5
5C10
330
A
100
AcDbEntity
  8
0
  6
Continuous
 62
     7
100
AcDbLine
 10
146.3250710000002
 20
-73.12313700000015
 30
0.0
 11
146.3250710000002
 21
-62.42429000000004
 31
0.0
  0
LINE
  5
5C11
330
A
100
AcDbEntity
  8
0
  6
Continuous
 62
     7
100
AcDbLine
 10
146.3250710000002
 20
-73.12313700000015
 30
0.0
 11
144.6077709999999
 21
-74.52530700000017
 31
0.0
  0
LINE
  5
5C12
330
A
100
AcDbEntity
  8
0
  6
Continuous
 62
     7
100
AcDbLine
 10
146.9332819999999
 20
-61.63557000000015
 30
0.0
 11
146.9332819999999
 21
-61.92768799999999
 31
0.0
  0
ELLIPSE
  5
5C13
330
A
100
AcDbEntity
  8
0
  6
Continuous
 62
     9
100
AcDbEllipse
 10
118.8482680000002
 20
-41.88104299999998
 30
0.0
 11
-3.794733195840116
 21
4.647580012478558
 31
0.0
210
0.0
220
0.0
230
0.9999999999999998
 40
0.8164969999999998
 41
5.497787143143023
 42
6.2831965768671
  0
ELLIPSE
  5
5C14
330
A
100
AcDbEntity
  8
0
  6
Continuous
 62
     9
100
AcDbEllipse
 10
116.3438719999999
 20
-41.36983499999995
 30
0.0
 11
-3.199999999999647
 21
0.0
 31
0.0000000000000002
210
0.0000000000000001
220
0.0
230
1.0
 40
0.4082480000000002
 41
0.0000005596853536
 42
1.107148718433311
  0
ELLIPSE
  5
5C15
330
A
100
AcDbEntity
  8
0
  6
Continuous
 62
     7
100
AcDbEllipse
 10
119.9215800000001
 20
-41.00468699999999
 30
0.0
 11
-3.794733195840117
 21
4.647580012478668
 31
0.0
210
0.0
220
0.0
230
1.0
 40
0.816497
 41
5.497787143143023
 42
6.283185307179584
  0
ELLIPSE
  5
5C16
330
A
100
AcDbEntity
  8
0
  6
Continuous
 62
     9
100
AcDbEllipse
 10
116.3438719999999
 20
-103.4450580000001
 30
0.0
 11
-3.199999999999647
 21
0.0
 31
0.0000000000000002
210
0.0000000000000001
220
0.0
230
1.0
 40
0.4082480000000002
 41
0.0000000000000001
 42
1.107148718433279
  0
LINE
  5
5C17
330
A
100
AcDbEntity
  8
0
  6
Continuous
 62
     7
100
AcDbLine
 10
141.6740500000001
 20
-82.39790599999997
 30
0.0
 11
139.9567489999999
 21
-83.80007599999997
 31
0.0
  0
LINE
  5
5C18
330
A
100
AcDbEntity
  8
0
  6
Continuous
 62
     7
100
AcDbLine
 10
141.6740500000001
 20
-82.39790599999997
 30
0.0
 11
141.6740500000001
 21
-73.92646399999995
 31
0.0
  0
LINE
  5
5C19
330
A
100
AcDbEntity
  8
0
  6
Continuous
 62
     7
100
AcDbLine
 10
146.9332819999999
 20
-96.21512000000002
 30
0.0
 11
144.6077709999999
 21
-98.11389199999997
 31
0.0
  0
LINE
  5
5C1A
330
A
100
AcDbEntity
  8
0
  6
Continuous
 62
     7
100
AcDbLine
 10
147.3304069999999
 20
-94.10529299999996
 30
0.0
 11
149.0799069999998
 21
-94.46240800000015
 31
0.0
  0
LINE
  5
5C1B
330
A
100
AcDbEntity
  8
0
  6
Continuous
 62
     7
100
AcDbLine
 10
149.2241789999998
 20
-94.34461100000016
 30
0.0
 11
149.0799069999998
 21
-94.46240800000015
 31
0.0
  0
LINE
  5
5C1C
330
A
100
AcDbEntity
  8
0
  6
Continuous
 62
     7
100
AcDbLine
 10
145.5639920000003
 20
-83.96870999999999
 30
0.0
 11
144.6077709999999
 21
-84.74946199999997
 31
0.0
  0
LINE
  5
5C1D
330
A
100
AcDbEntity
  8
0
  6
Continuous
 62
     7
100
AcDbLine
 10
145.3327359999998
 20
-83.14473200000014
 30
0.0
 11
141.6740500000001
 21
-82.39790599999997
 31
0.0
  0
LINE
  5
5C1E
330
A
100
AcDbEntity
  8
0
  6
Continuous
 62
     7
100
AcDbLine
 10
146.9332819999999
 20
-93.54953700000001
 30
0.0
 11
146.3250710000002
 21
-94.04613899999999
 31
0.0
  0
LINE
  5
5C1F
330
A
100
AcDbEntity
  8
0
  6
Continuous
 62
     7
100
AcDbLine
 10
146.3250710000002
 20
-94.04613899999999
 30
0.0
 11
146.3250710000002
 21
-85.01897900000017
 31
0.0
  0
LINE
  5
5C20
330
A
100
AcDbEntity
  8
0
  6
Continuous
 62
     7
100
AcDbLine
 10
146.9332819999999
 20
-93.54953700000001
 30
0.0
 11
146.9332819999999
 21
-96.21512000000002
 31
0.0
  0
ELLIPSE
  5
5C21
330
A
100
AcDbEntity
  8
0
  6
Continuous
 62
     9
100
AcDbEllipse
 10
158.2030640000007
 20
-114.5455690000001
 30
0.0
 11
-0.6399999990183149
 21
-3.135346870962841
 31
-0.0000000000000001
210
0.0
220
0.0
230
1.0
 40
0.4082480000000002
 41
5.176036589257622
 42
6.283185076703521
  0
ELLIPSE
  5
5C22
330
A
100
AcDbEntity
  8
0
  6
Continuous
 62
     9
100
AcDbEllipse
 10
118.8482680000002
 20
-106.512304
 30
0.0
 11
-0.6399999990183149
 21
-3.135346870962896
 31
0.0000000000000001
210
0.0
220
0.0
230
0.9999999999999998
 40
0.4082480000000001
 41
5.176036589257619
 42
6.283185307179584
  0
LINE
  5
5C23
330
A
100
AcDbEntity
  8
0
  6
Continuous
 62
     7
100
AcDbLine
 10
146.3250710000002
 20
-93.425387
 30
0.0
 11
146.9332819999999
 21
-93.54953700000001
 31
0.0
  0
LINE
  5
5C24
330
A
100
AcDbEntity
  8
0
  6
Continuous
 62
     7
100
AcDbLine
 10
149.0799069999998
 20
-91.796825
 30
0.0
 11
149.2241789999998
 21
-91.67902800000012
 31
0.0
  0
LINE
  5
5C25
330
A
100
AcDbEntity
  8
0
  6
Continuous
 62
     7
100
AcDbLine
 10
147.4377380000001
 20
-91.46161900000015
 30
0.0
 11
149.0799069999998
 21
-91.796825
 31
0.0
  0
LINE
  5
5C26
330
A
100
AcDbEntity
  8
0
  6
Continuous
 62
     7
100
AcDbLine
 10
149.1192620000001
 20
-89.97911699999995
 30
0.0
 11
149.2241789999998
 21
-90.00053300000013
 31
0.0
  0
LINE
  5
5C27
330
A
100
AcDbEntity
  8
0
  6
Continuous
 62
     7
100
AcDbLine
 10
149.0799069999998
 20
-94.46240800000015
 30
0.0
 11
149.0799069999998
 21
-91.796825
 31
0.0
  0
ELLIPSE
  5
5C28
330
A
100
AcDbEntity
  8
0
  6
Continuous
 62
     7
100
AcDbEllipse
 10
154.7292710000001
 20
-76.85456199999999
 30
0.0
 11
-5.199999999999872
 21
0.0
 31
0.0000000000000004
210
0.0000000000000001
220
0.0
230
1.0
 40
0.4082480000000002
 41
1.196691485207355
 42
2.399179555815381
  0
ELLIPSE
  5
5C29
330
A
100
AcDbEntity
  8
0
  6
Continuous
 62
     7
100
AcDbEllipse
 10
153.413689
 20
-78.22260499999998
 30
0.0
 11
-1.600000000000265
 21
0.0
 31
0.0000000000000001
210
0.0000000000000001
220
0.0
230
1.0
 40
0.4082480000000002
 41
0.7918811482108403
 42
1.196691485207047
  0
ELLIPSE
  5
5C2A
330
A
100
AcDbEntity
  8
0
  6
Continuous
 62
     7
100
AcDbEllipse
 10
149.058141
 20
-80.02395599999992
 30
0.0
 11
4.599999999999936
 21
0.0
 31
0.0
210
0.0
220
0.0
230
1.0
 40
0.4082480000000002
 41
0.7918811482109776
 42
1.381563469549494
  0
ELLIPSE
  5
5C2B
330
A
100
AcDbEntity
  8
0
  6
Continuous
 62
     7
100
AcDbEllipse
 10
150.2243949999997
 20
-77.53800099999995
 30
0.0
 11
-1.599999999999823
 21
0.0
 31
0.0
210
0.0
220
0.0
230
1.0
 40
0.4082480000000002
 41
0.7600247131994019
 42
1.381563469549311
  0
ELLIPSE
  5
5C2C
330
A
100
AcDbEntity
  8
0
  6
Continuous
 62
     7
100
AcDbEllipse
 10
158.9222219999997
 20
-74.16290099999997
 30
0.0
 11
-13.60000000000028
 21
0.0
 31
0.0000000000000009
210
0.0000000000000001
220
0.0
230
0.9999999999999998
 40
0.4082480000000002
 41
6.241655279135302
 42
6.283185307179563
  0
ELLIPSE
  5
5C2D
330
A
100
AcDbEntity
  8
0
  6
Continuous
 62
     7
100
AcDbEllipse
 10
147.1036979999999
 20
-73.33000800000002
 30
0.0
 11
-1.600000000000265
 21
0.0
 31
0.0000000000000001
210
0.0000000000000001
220
0.0
230
1.0
 40
0.4082480000000002
 41
4.967805895646308
 42
5.220630231878335
  0
ELLIPSE
  5
5C2E
330
A
100
AcDbEntity
  8
0
  6
Continuous
 62
     7
100
AcDbEllipse
 10
154.7292710000001
 20
-85.61812300000012
 30
0.0
 11
-5.199999999999872
 21
0.0
 31
0.0000000000000004
210
0.0000000000000001
220
0.0
230
1.0
 40
0.4082480000000002
 41
1.196691485207355
 42
2.399179555815381
  0
LINE
  5
5C2F
330
A
100
AcDbEntity
  8
0
  6
Continuous
 62
     9
100
AcDbLine
 10
152.828986
 20
-78.83062400000017
 30
0.0
 11
152.828986
 21
-87.59418499999998
 31
0.0
  0
LINE
  5
5C30
330
A
100
AcDbEntity
  8
0
  6
Continuous
 62
     9
100
AcDbLine
 10
152.2896760000003
 20
-87.45103099999994
 30
0.0
 11
152.2896760000003
 21
-78.68747000000002
 31
0.0
  0
ELLIPSE
  5
5C31
330
A
100
AcDbEntity
  8
0
  6
Continuous
 62
     7
100
AcDbEllipse
 10
153.413689
 20
-86.98616600000013
 30
0.0
 11
1.599999999999823
 21
0.0
 31
-0.0000000000000001
210
0.0000000000000001
220
0.0
230
1.0
 40
0.4082480000000002
 41
3.93347380180072
 42
4.338284138797154
  0
LINE
  5
5C32
330
A
100
AcDbEntity
  8
0
  6
Continuous
 62
     9
100
AcDbLine
 10
149.9234260000003
 20
-78.17953799999997
 30
0.0
 11
149.9234260000003
 21
-86.94309900000012
 31
0.0
  0
ELLIPSE
  5
5C33
330
A
100
AcDbEntity
  8
0
  6
Continuous
 62
     7
100
AcDbEllipse
 10
149.058141
 20
-88.78751699999998
 30
0.0
 11
4.599999999999936
 21
0.0
 31
0.0
210
0.0
220
0.0
230
1.0
 40
0.4082480000000002
 41
0.7918811482109894
 42
1.381563469549508
  0
LINE
  5
5C34
330
A
100
AcDbEntity
  8
0
  6
Continuous
 62
     9
100
AcDbLine
 10
149.0646839999999
 20
-86.75157500000016
 30
0.0
 11
149.0646839999999
 21
-77.98801399999994
 31
0.0
  0
ELLIPSE
  5
5C35
330
A
100
AcDbEntity
  8
0
  6
Continuous
 62
     7
100
AcDbEllipse
 10
150.2243949999997
 20
-86.30156200000014
 30
0.0
 11
1.599999999999823
 21
0.0
 31
-0.0000000000000001
210
0.0000000000000001
220
0.0
230
1.0
 40
0.4082480000000002
 41
3.901617366789384
 42
4.523156123139409
  0
ELLIPSE
  5
5C36
330
A
100
AcDbEntity
  8
0
  6
Continuous
 62
     7
100
AcDbEllipse
 10
158.9222219999997
 20
-74.16290099999997
 30
0.0
 11
-13.60000000000028
 21
0.0
 31
0.0000000000000009
210
0.0000000000000001
220
0.0
230
0.9999999999999998
 40
0.4082480000000002
 41
0.0000000000000001
 42
0.7600247131992739
  0
ELLIPSE
  5
5C37
330
A
100
AcDbEntity
  8
0
  6
Continuous
 62
     7
100
AcDbEllipse
 10
158.9222219999997
 20
-82.92646200000012
 30
0.0
 11
-13.60000000000028
 21
0.0
 31
0.0000000000000009
210
0.0000000000000001
220
0.0
230
0.9999999999999998
 40
0.4082480000000002
 41
0.0000000000000001
 42
0.7600247131992799
  0
ELLIPSE
  5
5C38
330
A
100
AcDbEntity
  8
0
  6
Continuous
 62
     7
100
AcDbEllipse
 10
145.5372750000001
 20
-70.88098300000012
 30
0.0
 11
4.599999999999936
 21
0.0
 31
-0.0000000000000003
210
0.0000000000000001
220
0.0
230
1.0
 40
0.4082480000000002
 41
4.967805895646462
 42
5.642189783471282
  0
LINE
  5
5C39
330
A
100
AcDbEntity
  8
0
  6
Continuous
 62
     7
100
AcDbLine
 10
178.717353
 20
-57.44682699999994
 30
0.0
 11
179.1326600000002
 21
-57.10773000000017
 31
0.0
  0
LINE
  5
5C3A
330
A
100
AcDbEntity
  8
0
  6
Continuous
 62
     7
100
AcDbLine
 10
179.6335399999998
 20
-54.65393300000015
 30
0.0
 11
179.3843550000001
 21
-54.17919699999981
 31
0.0
  0
LINE
  5
5C3B
330
A
100
AcDbEntity
  8
0
  6
Continuous
 62
     7
100
AcDbLine
 10
164.4065179999998
 20
-107.1070049999999
 30
0.0
 11
164.821825
 21
-106.767908
 31
0.0
  0
LINE
  5
5C3C
330
A
100
AcDbEntity
  8
0
  6
Continuous
 62
     7
100
AcDbLine
 10
165.322705
 20
-104.3141110000001
 30
0.0
 11
165.0735199999999
 21
-103.8393759999999
 31
0.0
  0
LINE
  5
5C3D
330
A
100
AcDbEntity
  8
0
  6
Continuous
 62
     7
100
AcDbLine
 10
147.6911129999998
 20
-64.98836600000004
 30
0.0
 11
147.60282
 21
-64.56142599999998
 31
0.0
  0
LINE
  5
5C3E
330
A
100
AcDbEntity
  8
0
  6
Continuous
 62
     7
100
AcDbLine
 10
147.6911129999998
 20
-71.92618099999998
 30
0.0
 11
147.6911129999998
 21
-64.98836200000017
 31
0.0
  0
LINE
  5
5C48
330
A
100
AcDbEntity
  8
0
  6
Continuous
 62
     7
100
AcDbLine
 10
165.100234
 20
-49.23287000000016
 30
0.0
 11
165.458004
 21
-48.94075199999997
 31
0.0
  0
LINE
  5
5C49
330
A
100
AcDbEntity
  8
0
  6
Continuous
 62
     7
100
AcDbLine
 10
165.458004
 20
-48.94075199999997
 30
0.0
 11
165.815775
 21
-48.64863300000013
 31
0.0
  0
LINE
  5
5C4A
330
A
100
AcDbEntity
  8
0
  6
Continuous
 62
     7
100
AcDbLine
 10
121.0001590000001
 20
-33.92725800000017
 30
0.0
 11
120.6423879999997
 21
-34.21937600000013
 31
0.0
  0
LINE
  5
5C4B
330
A
100
AcDbEntity
  8
0
  6
Continuous
 62
     7
100
AcDbLine
 10
120.6423879999997
 20
-34.21937600000013
 30
0.0
 11
120.2846170000002
 21
-34.51149499999997
 31
0.0
  0
ARC
  5
5C4C
330
A
100
AcDbEntity
  8
0
  6
Continuous
 62
     7
100
AcDbCircle
 10
163.5325420000004
 20
-45.5628059999999
 30
0.0
 40
6.457849999999997
100
AcDbArc
 50
0.916629999999291
 51
77.54641100000551
  0
LINE
  5
5C4D
330
A
100
AcDbEntity
  8
0
  6
Continuous
 62
     7
100
AcDbLine
 10
164.9251690000001
 20
-39.25690399999997
 30
0.0
 11
125.570373
 21
-31.22363899999994
 31
0.0
  0
LINE
  5
5C4E
330
A
100
AcDbEntity
  8
0
  6
Continuous
 62
     7
100
AcDbLine
 10
169.9895649999998
 20
-50.11237699999992
 30
0.0
 11
169.9895649999998
 21
-45.45949699999993
 31
0.0
  0
LINE
  5
5C4F
330
A
100
AcDbEntity
  8
0
  6
Continuous
 62
     7
100
AcDbLine
 10
121.1356390000001
 20
-32.26744500000018
 30
0.0
 11
120.0623270000001
 21
-33.14380099999983
 31
0.0
  0
ARC
  5
5C50
330
A
100
AcDbEntity
  8
0
  6
Continuous
 62
     7
100
AcDbCircle
 10
124.4446299999999
 20
-36.38406199999997
 30
0.0
 40
5.281785
100
AcDbArc
 50
77.69375700000026
 51
128.616176999996
  0
LINE
  5
5C51
330
A
100
AcDbEntity
  8
0
  6
Continuous
 62
     7
100
AcDbLine
 10
121.1482660000001
 20
-32.25716900000043
 30
0.0
 11
121.1355929999999
 21
-32.26748299999997
 31
0.0
  0
LINE
  5
5C52
330
A
100
AcDbEntity
  8
0
  6
Continuous
 62
     7
100
AcDbLine
 10
149.2241789999998
 20
-62.10319699999995
 30
0.0
 11
149.2241789999998
 21
-73.35683200000016
 31
0.0
  0
LINE
  5
5C53
330
A
100
AcDbEntity
  8
0
  6
Continuous
 62
     7
100
AcDbLine
 10
149.2241789999998
 20
-86.81139299999996
 30
0.0
 11
149.2241789999998
 21
-95.33876399999995
 31
0.0
  0
LINE
  5
5C54
330
A
100
AcDbEntity
  8
0
  6
Continuous
 62
     7
100
AcDbLine
 10
165.458004
 20
-48.94075199999997
 30
0.0
 11
165.815775
 21
-48.64863300000013
 31
0.0
  0
LINE
  5
5C55
330
A
100
AcDbEntity
  8
0
  6
Continuous
 62
     7
100
AcDbLine
 10
121.0001590000001
 20
-33.92725800000017
 30
0.0
 11
120.6423879999997
 21
-34.21937600000013
 31
0.0
  0
ARC
  5
5C56
330
A
100
AcDbEntity
  8
0
  6
Continuous
 62
     7
100
AcDbCircle
 10
118.4325589999998
 20
-41.30248499999981
 30
0.0
 40
5.289115999999999
100
AcDbArc
 50
129.7077949999972
 51
180.7296099999976
  0
LINE
  5
5C57
330
A
100
AcDbEntity
  8
0
  6
Continuous
 62
     7
100
AcDbLine
 10
116.126847
 20
-36.35710700000016
 30
0.0
 11
115.053535
 21
-37.23346300000013
 31
0.0
  0
LINE
  5
5C58
330
A
100
AcDbEntity
  8
0
  6
Continuous
 62
     7
100
AcDbLine
 10
113.1438720000001
 20
-41.36983499999995
 30
0.0
 11
113.1438720000001
 21
-103.4450580000001
 31
0.0
  0
LINE
  5
5C59
330
A
100
AcDbEntity
  8
0
  6
Continuous
 62
     7
100
AcDbLine
 10
157.5630639999999
 20
-117.680916
 30
0.0
 11
158.5605399999999
 21
-117.794571
 31
0.0
  0
LINE
  5
5C5A
330
A
100
AcDbEntity
  8
0
  6
Continuous
 62
     7
100
AcDbLine
 10
118.2082679999998
 20
-109.647651
 30
0.0
 11
157.5630639999999
 21
-117.680916
 31
0.0
  0
ARC
  5
5C5B
330
A
100
AcDbEntity
  8
0
  6
Continuous
 62
     7
100
AcDbCircle
 10
119.600895
 20
-103.3417490000001
 30
0.0
 40
6.457849999999997
100
AcDbArc
 50
180.9166299999993
 51
257.5464110000055
  0
LINE
  5
5C5C
330
A
100
AcDbEntity
  8
0
  6
Continuous
 62
     7
100
AcDbLine
 10
145.3222219999998
 20
-74.16290099999997
 30
0.0
 11
145.3222219999998
 21
-82.92646200000012
 31
0.0
  0
LINE
  5
5C5D
330
A
100
AcDbEntity
  8
0
  6
Continuous
 62
     7
100
AcDbLine
 10
8.020171000000116
 20
-57.44999999999999
 30
0.0
 11
17.97982899999988
 21
-57.44999999999999
 31
0.0
  0
LINE
  5
5C5E
330
A
100
AcDbEntity
  8
0
  6
Continuous
 62
     9
100
AcDbLine
 10
-9.5
 20
-75.5
 30
0.0
 11
-9.5
 21
-75.0
 31
0.0
  0
LINE
  5
5C5F
330
A
100
AcDbEntity
  8
0
  6
Continuous
 62
     9
100
AcDbLine
 10
-9.5
 20
-75.0
 30
0.0
 11
-9.5
 21
-74.0
 31
0.0
  0
LINE
  5
5C60
330
A
100
AcDbEntity
  8
0
  6
Continuous
 62
     7
100
AcDbLine
 10
-15.5
 20
-75.5
 30
0.0
 11
-15.5
 21
-75.0
 31
0.0
  0
LINE
  5
5C61
330
A
100
AcDbEntity
  8
0
  6
Continuous
 62
     7
100
AcDbLine
 10
-15.5
 20
-75.0
 30
0.0
 11
-15.5
 21
-74.0
 31
0.0
  0
LINE
  5
5C62
330
A
100
AcDbEntity
  8
0
  6
Continuous
 62
     7
100
AcDbLine
 10
-15.5
 20
-74.0
 30
0.0
 11
-9.5
 21
-74.0
 31
0.0
  0
LINE
  5
5C63
330
A
100
AcDbEntity
  8
0
  6
Continuous
 62
     9
100
AcDbLine
 10
45.0
 20
-75.5
 30
0.0
 11
45.0
 21
-75.0
 31
0.0
  0
LINE
  5
5C64
330
A
100
AcDbEntity
  8
0
  6
Continuous
 62
     9
100
AcDbLine
 10
45.0
 20
-75.0
 30
0.0
 11
45.0
 21
-74.0
 31
0.0
  0
LINE
  5
5C65
330
A
100
AcDbEntity
  8
0
  6
Continuous
 62
     7
100
AcDbLine
 10
-9.5
 20
-74.0
 30
0.0
 11
45.0
 21
-74.0
 31
0.0
  0
LINE
  5
5C66
330
A
100
AcDbEntity
  8
0
  6
Continuous
 62
     7
100
AcDbLine
 10
50.5
 20
-75.5
 30
0.0
 11
50.5
 21
-75.0
 31
0.0
  0
LINE
  5
5C67
330
A
100
AcDbEntity
  8
0
  6
Continuous
 62
     7
100
AcDbLine
 10
50.5
 20
-75.0
 30
0.0
 11
50.5
 21
-74.0
 31
0.0
  0
LINE
  5
5C68
330
A
100
AcDbEntity
  8
0
  6
Continuous
 62
     7
100
AcDbLine
 10
45.0
 20
-74.0
 30
0.0
 11
50.5
 21
-74.0
 31
0.0
  0
LINE
  5
5C69
330
A
100
AcDbEntity
  8
0
  6
Continuous
 62
     7
100
AcDbLine
 10
-15.5
 20
-64.5
 30
0.0
 11
-15.5
 21
-65.0
 31
0.0
  0
LINE
  5
5C6A
330
A
100
AcDbEntity
  8
0
  6
Continuous
 62
     7
100
AcDbLine
 10
-15.5
 20
-65.0
 30
0.0
 11
-15.5
 21
-66.0
 31
0.0
  0
LINE
  5
5C6B
330
A
100
AcDbEntity
  8
0
  6
Continuous
 62
     9
100
AcDbLine
 10
-9.5
 20
-64.5
 30
0.0
 11
-9.5
 21
-65.0
 31
0.0
  0
LINE
  5
5C6C
330
A
100
AcDbEntity
  8
0
  6
Continuous
 62
     9
100
AcDbLine
 10
-9.5
 20
-65.0
 30
0.0
 11
-9.5
 21
-66.0
 31
0.0
  0
LINE
  5
5C6D
330
A
100
AcDbEntity
  8
0
  6
Continuous
 62
     7
100
AcDbLine
 10
-9.5
 20
-66.0
 30
0.0
 11
-15.5
 21
-66.0
 31
0.0
  0
LINE
  5
5C6E
330
A
100
AcDbEntity
  8
0
  6
Continuous
 62
     9
100
AcDbLine
 10
45.0
 20
-64.5
 30
0.0
 11
45.0
 21
-65.0
 31
0.0
  0
LINE
  5
5C6F
330
A
100
AcDbEntity
  8
0
  6
Continuous
 62
     9
100
AcDbLine
 10
45.0
 20
-65.0
 30
0.0
 11
45.0
 21
-66.0
 31
0.0
  0
LINE
  5
5C70
330
A
100
AcDbEntity
  8
0
  6
Continuous
 62
     7
100
AcDbLine
 10
45.0
 20
-66.0
 30
0.0
 11
-9.5
 21
-66.0
 31
0.0
  0
LINE
  5
5C71
330
A
100
AcDbEntity
  8
0
  6
Continuous
 62
     7
100
AcDbLine
 10
50.5
 20
-64.5
 30
0.0
 11
50.5
 21
-65.0
 31
0.0
  0
LINE
  5
5C72
330
A
100
AcDbEntity
  8
0
  6
Continuous
 62
     7
100
AcDbLine
 10
50.5
 20
-65.0
 30
0.0
 11
50.5
 21
-66.0
 31
0.0
  0
LINE
  5
5C73
330
A
100
AcDbEntity
  8
0
  6
Continuous
 62
     7
100
AcDbLine
 10
50.5
 20
-66.0
 30
0.0
 11
45.0
 21
-66.0
 31
0.0
  0
LINE
  5
5C74
330
A
100
AcDbEntity
  8
0
  6
Continuous
 62
     9
100
AcDbLine
 10
-9.5
 20
-61.5
 30
0.0
 11
-9.5
 21
-64.5
 31
0.0
  0
LINE
  5
5C75
330
A
100
AcDbEntity
  8
0
  6
Continuous
 62
     9
100
AcDbLine
 10
45.49999999999999
 20
-61.5
 30
0.0
 11
-9.5
 21
-61.5
 31
0.0
  0
LINE
  5
5C76
330
A
100
AcDbEntity
  8
0
  6
Continuous
 62
     9
100
AcDbLine
 10
45.49999999999999
 20
-61.5
 30
0.0
 11
45.49999999999999
 21
-64.5
 31
0.0
  0
LINE
  5
5C77
330
A
100
AcDbEntity
  8
0
  6
Continuous
 62
     7
100
AcDbLine
 10
-9.5
 20
-64.5
 30
0.0
 11
45.49999999999999
 21
-64.5
 31
0.0
  0
LINE
  5
5C78
330
A
100
AcDbEntity
  8
0
  6
Continuous
 62
     7
100
AcDbLine
 10
-9.5
 20
-57.5
 30
0.0
 11
45.49999999999999
 21
-57.5
 31
0.0
  0
LINE
  5
5C79
330
A
100
AcDbEntity
  8
0
  6
Continuous
 62
     9
100
AcDbLine
 10
45.49999999999999
 20
-61.5
 30
0.0
 11
45.49999999999999
 21
-57.5
 31
0.0
  0
LINE
  5
5C7A
330
A
100
AcDbEntity
  8
0
  6
Continuous
 62
     9
100
AcDbLine
 10
-9.5
 20
-57.5
 30
0.0
 11
-9.5
 21
-61.5
 31
0.0
  0
LINE
  5
5C7B
330
A
100
AcDbEntity
  8
0
  6
Continuous
 62
     7
100
AcDbLine
 10
-13.0
 20
-57.5
 30
0.0
 11
-9.5
 21
-57.5
 31
0.0
  0
LINE
  5
5C7C
330
A
100
AcDbEntity
  8
0
  6
Continuous
 62
     9
100
AcDbLine
 10
-9.5
 20
-61.5
 30
0.0
 11
-17.0
 21
-61.5
 31
0.0
  0
ARC
  5
5C7D
330
A
100
AcDbEntity
  8
0
  6
Continuous
 62
     7
100
AcDbCircle
 10
-13.0
 20
-61.5
 30
0.0
 40
4.0
100
AcDbArc
 50
90.0
 51
180.0
  0
LINE
  5
5C7E
330
A
100
AcDbEntity
  8
0
  6
Continuous
 62
     7
100
AcDbLine
 10
-17.0
 20
-61.5
 30
0.0
 11
-17.0
 21
-64.5
 31
0.0
  0
LINE
  5
5C7F
330
A
100
AcDbEntity
  8
0
  6
Continuous
 62
     7
100
AcDbLine
 10
-17.0
 20
-64.5
 30
0.0
 11
-9.5
 21
-64.5
 31
0.0
  0
LINE
  5
5C80
330
A
100
AcDbEntity
  8
0
  6
Continuous
 62
     9
100
AcDbLine
 10
53.0
 20
-61.5
 30
0.0
 11
45.49999999999999
 21
-61.5
 31
0.0
  0
LINE
  5
5C81
330
A
100
AcDbEntity
  8
0
  6
Continuous
 62
     7
100
AcDbLine
 10
45.49999999999999
 20
-57.5
 30
0.0
 11
49.0
 21
-57.5
 31
0.0
  0
ARC
  5
5C82
330
A
100
AcDbEntity
  8
0
  6
Continuous
 62
     7
100
AcDbCircle
 10
49.0
 20
-61.5
 30
0.0
 40
4.0
100
AcDbArc
 50
0.0
 51
90.0
  0
LINE
  5
5C83
330
A
100
AcDbEntity
  8
0
  6
Continuous
 62
     7
100
AcDbLine
 10
53.0
 20
-61.5
 30
0.0
 11
53.0
 21
-64.5
 31
0.0
  0
LINE
  5
5C84
330
A
100
AcDbEntity
  8
0
  6
Continuous
 62
     7
100
AcDbLine
 10
45.49999999999999
 20
-64.5
 30
0.0
 11
53.0
 21
-64.5
 31
0.0
  0
ARC
  5
5C85
330
A
100
AcDbEntity
  8
0
  6
Continuous
 62
     7
100
AcDbCircle
 10
54.0
 20
-57.5
 30
0.0
 40
1.5
100
AcDbArc
 50
329.5081939999972
 51
0.0
  0
LINE
  5
5C86
330
A
100
AcDbEntity
  8
0
  6
Continuous
 62
     7
100
AcDbLine
 10
55.5
 20
-57.5
 30
0.0
 11
55.5
 21
-42.5
 31
0.0
  0
LINE
  5
5C87
330
A
100
AcDbEntity
  8
0
  6
Continuous
 62
     7
100
AcDbLine
 10
60.5
 20
-97.5
 30
0.0
 11
55.5
 21
-97.5
 31
0.0
  0
LINE
  5
5C88
330
A
100
AcDbEntity
  8
0
  6
Continuous
 62
     7
100
AcDbLine
 10
55.5
 20
-97.5
 30
0.0
 11
55.5
 21
-82.5
 31
0.0
  0
ARC
  5
5C89
330
A
100
AcDbEntity
  8
0
  6
Continuous
 62
     7
100
AcDbCircle
 10
54.0
 20
-82.5
 30
0.0
 40
1.5
100
AcDbArc
 50
0.0
 51
30.49180600000282
  0
ARC
  5
5C8A
330
A
100
AcDbEntity
  8
0
  6
Continuous
 62
     7
100
AcDbCircle
 10
39.0999999999999
 20
-70.0
 30
0.0
 40
20.0
100
AcDbArc
 50
324.0595659999999
 51
35.9404340000001
  0
LINE
  5
5C8B
330
A
100
AcDbEntity
  8
0
  6
Continuous
 62
     7
100
AcDbLine
 10
60.0
 20
-60.5
 30
0.0
 11
60.0
 21
-79.5
 31
0.0
  0
LINE
  5
5C8C
330
A
100
AcDbEntity
  8
0
  6
Continuous
 62
     7
100
AcDbLine
 10
60.0
 20
-79.5
 30
0.0
 11
60.5
 21
-80.00000000000017
 31
0.0
  0
LINE
  5
5C8D
330
A
100
AcDbEntity
  8
0
  6
Continuous
 62
     7
100
AcDbLine
 10
60.5
 20
-42.5
 30
0.0
 11
60.5
 21
-60.00000000000017
 31
0.0
  0
LINE
  5
5C8E
330
A
100
AcDbEntity
  8
0
  6
Continuous
 62
     7
100
AcDbLine
 10
55.5
 20
-42.5
 30
0.0
 11
60.5
 21
-42.5
 31
0.0
  0
LINE
  5
5C8F
330
A
100
AcDbEntity
  8
0
  6
Continuous
 62
     7
100
AcDbLine
 10
60.5
 20
-60.00000000000017
 30
0.0
 11
60.0
 21
-60.5
 31
0.0
  0
LINE
  5
5C90
330
A
100
AcDbEntity
  8
0
  6
Continuous
 62
     7
100
AcDbLine
 10
60.5
 20
-80.00000000000017
 30
0.0
 11
60.5
 21
-97.5
 31
0.0
  0
ARC
  5
5C91
330
A
100
AcDbEntity
  8
0
  6
Continuous
 62
     9
100
AcDbCircle
 10
39.0999999999999
 20
-70.0
 30
0.0
 40
19.0
100
AcDbArc
 50
324.2727539999979
 51
35.72724600000212
  0
ARC
  5
5C92
330
A
100
AcDbEntity
  8
0
  6
Continuous
 62
     7
100
AcDbCircle
 10
54.0
 20
-82.5
 30
0.0
 40
1.5
100
AcDbArc
 50
30.49180600000282
 51
69.54069699999632
  0
ARC
  5
5C93
330
A
100
AcDbEntity
  8
0
  6
Continuous
 62
     7
100
AcDbCircle
 10
54.0
 20
-57.5
 30
0.0
 40
1.5
100
AcDbArc
 50
290.4593030000037
 51
329.5081939999972
  0
LINE
  5
5C94
330
A
100
AcDbEntity
  8
0
  6
Continuous
 62
     7
100
AcDbLine
 10
54.0
 20
-81.0
 30
0.0
 11
52.12249900000006
 21
-81.0
 31
0.0
  0
LINE
  5
5C95
330
A
100
AcDbEntity
  8
0
  6
Continuous
 62
     7
100
AcDbLine
 10
52.12249900000006
 20
-59.00000000000027
 30
0.0
 11
54.0
 21
-59.00000000000027
 31
0.0
  0
ARC
  5
5C96
330
A
100
AcDbEntity
  8
0
  6
Continuous
 62
     7
100
AcDbCircle
 10
54.0
 20
-82.5
 30
0.0
 40
1.5
100
AcDbArc
 50
69.54069699999632
 51
90.0
  0
ARC
  5
5C97
330
A
100
AcDbEntity
  8
0
  6
Continuous
 62
     7
100
AcDbCircle
 10
54.0
 20
-57.5
 30
0.0
 40
1.5
100
AcDbArc
 50
270.0
 51
290.4593030000037
  0
LINE
  5
5C98
330
A
100
AcDbEntity
  8
0
  6
Continuous
 62
     9
100
AcDbLine
 10
45.0
 20
-64.5
 30
0.0
 11
45.0
 21
-65.0
 31
0.0
  0
LINE
  5
5C99
330
A
100
AcDbEntity
  8
0
  6
Continuous
 62
     7
100
AcDbLine
 10
50.5
 20
-64.5
 30
0.0
 11
50.5
 21
-65.0
 31
0.0
  0
LINE
  5
5C9A
330
A
100
AcDbEntity
  8
0
  6
Continuous
 62
     7
100
AcDbLine
 10
50.5
 20
-65.0
 30
0.0
 11
45.0
 21
-65.0
 31
0.0
  0
LINE
  5
5C9B
330
A
100
AcDbEntity
  8
0
  6
Continuous
 62
     9
100
AcDbLine
 10
-9.5
 20
-64.5
 30
0.0
 11
-9.5
 21
-65.0
 31
0.0
  0
LINE
  5
5C9C
330
A
100
AcDbEntity
  8
0
  6
Continuous
 62
     7
100
AcDbLine
 10
45.0
 20
-65.0
 30
0.0
 11
-9.5
 21
-65.0
 31
0.0
  0
LINE
  5
5C9D
330
A
100
AcDbEntity
  8
0
  6
Continuous
 62
     7
100
AcDbLine
 10
-15.5
 20
-64.5
 30
0.0
 11
-15.5
 21
-65.0
 31
0.0
  0
LINE
  5
5C9E
330
A
100
AcDbEntity
  8
0
  6
Continuous
 62
     7
100
AcDbLine
 10
-9.5
 20
-65.0
 30
0.0
 11
-15.5
 21
-65.0
 31
0.0
  0
LINE
  5
5C9F
330
A
100
AcDbEntity
  8
0
  6
Continuous
 62
     9
100
AcDbLine
 10
45.0
 20
-75.5
 30
0.0
 11
45.0
 21
-75.0
 31
0.0
  0
LINE
  5
5CA0
330
A
100
AcDbEntity
  8
0
  6
Continuous
 62
     9
100
AcDbLine
 10
-9.5
 20
-75.5
 30
0.0
 11
-9.5
 21
-75.0
 31
0.0
  0
LINE
  5
5CA1
330
A
100
AcDbEntity
  8
0
  6
Continuous
 62
     7
100
AcDbLine
 10
-9.5
 20
-75.0
 30
0.0
 11
45.0
 21
-75.0
 31
0.0
  0
LINE
  5
5CA2
330
A
100
AcDbEntity
  8
0
  6
Continuous
 62
     7
100
AcDbLine
 10
-15.5
 20
-75.5
 30
0.0
 11
-15.5
 21
-75.0
 31
0.0
  0
LINE
  5
5CA3
330
A
100
AcDbEntity
  8
0
  6
Continuous
 62
     7
100
AcDbLine
 10
-15.5
 20
-75.0
 30
0.0
 11
-9.5
 21
-75.0
 31
0.0
  0
LINE
  5
5CA4
330
A
100
AcDbEntity
  8
0
  6
Continuous
 62
     7
100
AcDbLine
 10
50.5
 20
-75.5
 30
0.0
 11
50.5
 21
-75.0
 31
0.0
  0
LINE
  5
5CA5
330
A
100
AcDbEntity
  8
0
  6
Continuous
 62
     7
100
AcDbLine
 10
45.0
 20
-75.0
 30
0.0
 11
50.5
 21
-75.0
 31
0.0
  0
ARC
  5
5CA6
330
A
100
AcDbEntity
  8
0
  6
Continuous
 62
     7
100
AcDbCircle
 10
40.0
 20
-70.0
 30
0.0
 40
4.0
100
AcDbArc
 50
90.0
 51
218.2399819999965
  0
ARC
  5
5CA7
330
A
100
AcDbEntity
  8
0
  6
Continuous
 62
     7
100
AcDbCircle
 10
40.0
 20
-70.0
 30
0.0
 40
4.0
100
AcDbArc
 50
270.0
 51
90.0
  0
ARC
  5
5CA8
330
A
100
AcDbEntity
  8
0
  6
Continuous
 62
     7
100
AcDbCircle
 10
40.0
 20
-70.0
 30
0.0
 40
4.0
100
AcDbArc
 50
218.2399819999965
 51
270.0
  0
CIRCLE
  5
5CA9
330
A
100
AcDbEntity
  8
0
  6
Continuous
 62
     7
100
AcDbCircle
 10
40.0
 20
-70.0
 30
0.0
 40
2.908089
  0
LINE
  5
5CAA
330
A
100
AcDbEntity
  8
0
  6
Continuous
 62
     7
100
AcDbLine
 10
-5.174999999999954
 20
-66.0
 30
0.0
 11
-5.174999999999954
 21
-74.0
 31
0.0
  0
LINE
  5
5CAB
330
A
100
AcDbEntity
  8
0
  6
Continuous
 62
     9
100
AcDbLine
 10
1.825000000000045
 20
-66.0
 30
0.0
 11
1.825000000000045
 21
-74.0
 31
0.0
  0
LINE
  5
5CAC
330
A
100
AcDbEntity
  8
0
  6
Continuous
 62
     7
100
AcDbLine
 10
8.825000000000045
 20
-66.0
 30
0.0
 11
8.825000000000045
 21
-74.0
 31
0.0
  0
LINE
  5
5CAD
330
A
100
AcDbEntity
  8
0
  6
Continuous
 62
     7
100
AcDbLine
 10
49.0
 20
-82.5
 30
0.0
 11
45.49999999999999
 21
-82.5
 31
0.0
  0
LINE
  5
5CAE
330
A
100
AcDbEntity
  8
0
  6
Continuous
 62
     9
100
AcDbLine
 10
45.49999999999999
 20
-82.5
 30
0.0
 11
45.49999999999999
 21
-78.5
 31
0.0
  0
LINE
  5
5CAF
330
A
100
AcDbEntity
  8
0
  6
Continuous
 62
     9
100
AcDbLine
 10
45.49999999999999
 20
-78.5
 30
0.0
 11
53.0
 21
-78.5
 31
0.0
  0
ARC
  5
5CB0
330
A
100
AcDbEntity
  8
0
  6
Continuous
 62
     7
100
AcDbCircle
 10
49.0
 20
-78.5
 30
0.0
 40
4.0
100
AcDbArc
 50
270.0
 51
0.0
  0
LINE
  5
5CB1
330
A
100
AcDbEntity
  8
0
  6
Continuous
 62
     7
100
AcDbLine
 10
45.49999999999999
 20
-75.5
 30
0.0
 11
53.0
 21
-75.5
 31
0.0
  0
LINE
  5
5CB2
330
A
100
AcDbEntity
  8
0
  6
Continuous
 62
     7
100
AcDbLine
 10
53.0
 20
-75.5
 30
0.0
 11
53.0
 21
-78.5
 31
0.0
  0
LINE
  5
5CB3
330
A
100
AcDbEntity
  8
0
  6
Continuous
 62
     9
100
AcDbLine
 10
45.49999999999999
 20
-78.5
 30
0.0
 11
45.49999999999999
 21
-75.5
 31
0.0
  0
LINE
  5
5CB4
330
A
100
AcDbEntity
  8
0
  6
Continuous
 62
     7
100
AcDbLine
 10
-17.0
 20
-75.5
 30
0.0
 11
-9.5
 21
-75.5
 31
0.0
  0
LINE
  5
5CB5
330
A
100
AcDbEntity
  8
0
  6
Continuous
 62
     9
100
AcDbLine
 10
-9.5
 20
-75.5
 30
0.0
 11
-9.5
 21
-78.5
 31
0.0
  0
LINE
  5
5CB6
330
A
100
AcDbEntity
  8
0
  6
Continuous
 62
     9
100
AcDbLine
 10
-17.0
 20
-78.5
 30
0.0
 11
-9.5
 21
-78.5
 31
0.0
  0
LINE
  5
5CB7
330
A
100
AcDbEntity
  8
0
  6
Continuous
 62
     7
100
AcDbLine
 10
-17.0
 20
-78.5
 30
0.0
 11
-17.0
 21
-75.5
 31
0.0
  0
LINE
  5
5CB8
330
A
100
AcDbEntity
  8
0
  6
Continuous
 62
     7
100
AcDbLine
 10
45.49999999999999
 20
-82.5
 30
0.0
 11
-9.5
 21
-82.5
 31
0.0
  0
LINE
  5
5CB9
330
A
100
AcDbEntity
  8
0
  6
Continuous
 62
     9
100
AcDbLine
 10
-9.5
 20
-78.5
 30
0.0
 11
-9.5
 21
-82.5
 31
0.0
  0
LINE
  5
5CBA
330
A
100
AcDbEntity
  8
0
  6
Continuous
 62
     9
100
AcDbLine
 10
-9.5
 20
-78.5
 30
0.0
 11
45.49999999999999
 21
-78.5
 31
0.0
  0
LINE
  5
5CBB
330
A
100
AcDbEntity
  8
0
  6
Continuous
 62
     7
100
AcDbLine
 10
-9.5
 20
-82.5
 30
0.0
 11
-13.0
 21
-82.5
 31
0.0
  0
ARC
  5
5CBC
330
A
100
AcDbEntity
  8
0
  6
Continuous
 62
     7
100
AcDbCircle
 10
-13.0
 20
-78.5
 30
0.0
 40
4.0
100
AcDbArc
 50
180.0
 51
270.0
  0
LINE
  5
5CBD
330
A
100
AcDbEntity
  8
0
  6
Continuous
 62
     7
100
AcDbLine
 10
-9.5
 20
-75.5
 30
0.0
 11
45.49999999999999
 21
-75.5
 31
0.0
  0
ARC
  5
5CBE
330
A
100
AcDbEntity
  8
0
  6
Continuous
 62
     7
100
AcDbCircle
 10
40.0
 20
-70.0
 30
0.0
 40
4.009999999999998
100
AcDbArc
 50
274.0472100000056
 51
0.0
  0
ARC
  5
5CBF
330
A
100
AcDbEntity
  8
0
  6
Continuous
 62
     7
100
AcDbCircle
 10
40.0
 20
-70.0
 30
0.0
 40
4.009999999999998
100
AcDbArc
 50
94.04721000000559
 51
265.9527899999944
  0
ARC
  5
5CC0
330
A
100
AcDbEntity
  8
0
  6
Continuous
 62
     7
100
AcDbCircle
 10
40.0
 20
-70.0
 30
0.0
 40
4.009999999999998
100
AcDbArc
 50
0.0
 51
85.95278999999441
  0
LINE
  5
5CC1
330
A
100
AcDbEntity
  8
0
  6
Continuous
 62
     7
100
AcDbLine
 10
50.5
 20
-65.0
 30
0.0
 11
53.0
 21
-65.0
 31
0.0
  0
LINE
  5
5CC2
330
A
100
AcDbEntity
  8
0
  6
Continuous
 62
     7
100
AcDbLine
 10
8.875
 20
-66.0
 30
0.0
 11
8.875
 21
-74.0
 31
0.0
  0
LINE
  5
5CC3
330
A
100
AcDbEntity
  8
0
  6
Continuous
 62
     7
100
AcDbLine
 10
53.0
 20
-65.0
 30
0.0
 11
53.0
 21
-75.5
 31
0.0
  0
ARC
  5
5CC4
330
A
100
AcDbEntity
  8
0
  6
Continuous
 62
     7
100
AcDbCircle
 10
42.00564499999972
 20
-81.22083800000002
 30
0.0
 40
6.5
100
AcDbArc
 50
275.130423000001
 51
348.6504459999971
  0
ARC
  5
5CC5
330
A
100
AcDbEntity
  8
0
  6
Continuous
 62
     7
100
AcDbCircle
 10
42.40804899999965
 20
-85.70280999999992
 30
0.0
 40
2.0
100
AcDbArc
 50
251.9364990000001
 51
275.130423000001
  0
ARC
  5
5CC6
330
A
100
AcDbEntity
  8
0
  6
Continuous
 62
     7
100
AcDbCircle
 10
40.00500000000011
 20
-93.07083899999998
 30
0.0
 40
5.75
100
AcDbArc
 50
71.9364990000001
 51
105.7228069999937
  0
ARC
  5
5CC7
330
A
100
AcDbEntity
  8
0
  6
Continuous
 62
     7
100
AcDbCircle
 10
37.90487699999995
 20
-85.61081300000017
 30
0.0
 40
2.0
100
AcDbArc
 50
250.1112599999992
 51
285.7228069999937
  0
ARC
  5
5CC8
330
A
100
AcDbEntity
  8
0
  6
Continuous
 62
     7
100
AcDbCircle
 10
43.00779800000009
 20
-71.50548800000001
 30
0.0
 40
17.0
100
AcDbArc
 50
220.2959600000032
 51
250.1112599999992
  0
ARC
  5
5CC9
330
A
100
AcDbEntity
  8
0
  6
Continuous
 62
     7
100
AcDbCircle
 10
43.00779800000009
 20
-68.49451199999998
 30
0.0
 40
17.0
100
AcDbArc
 50
109.8887410000006
 51
139.7040399999968
  0
ARC
  5
5CCA
330
A
100
AcDbEntity
  8
0
  6
Continuous
 62
     7
100
AcDbCircle
 10
37.90487699999995
 20
-54.38918699999999
 30
0.0
 40
2.0
100
AcDbArc
 50
74.27719300000628
 51
109.8887410000006
  0
ARC
  5
5CCB
330
A
100
AcDbEntity
  8
0
  6
Continuous
 62
     7
100
AcDbCircle
 10
40.00500000000011
 20
-46.92916100000013
 30
0.0
 40
5.75
100
AcDbArc
 50
254.2771930000062
 51
288.0635009999998
  0
ARC
  5
5CCC
330
A
100
AcDbEntity
  8
0
  6
Continuous
 62
     7
100
AcDbCircle
 10
42.40804899999965
 20
-54.29719099999999
 30
0.0
 40
2.0
100
AcDbArc
 50
84.86957699999903
 51
108.0635009999999
  0
ARC
  5
5CCD
330
A
100
AcDbEntity
  8
0
  6
Continuous
 62
     7
100
AcDbCircle
 10
42.00564499999972
 20
-58.77916199999997
 30
0.0
 40
6.5
100
AcDbArc
 50
11.3495549999987
 51
84.86957699999903
  0
ARC
  5
5CCE
330
A
100
AcDbEntity
  8
0
  6
Continuous
 62
     7
100
AcDbCircle
 10
8.020171000000116
 20
-57.94999999999999
 30
0.0
 40
0.5
100
AcDbArc
 50
90.0
 51
115.8419330000012
  0
ARC
  5
5CCF
330
A
100
AcDbEntity
  8
0
  6
Continuous
 62
     7
100
AcDbCircle
 10
17.97982899999988
 20
-57.94999999999999
 30
0.0
 40
0.5
100
AcDbArc
 50
64.15806699999878
 51
90.0
  0
LINE
  5
5CD0
330
A
100
AcDbEntity
  8
0
  6
Continuous
 62
     7
100
AcDbLine
 10
17.97982899999988
 20
129.95
 30
0.0
 11
11.84226700000022
 21
129.95
 31
0.0
  0
LINE
  5
5CD1
330
A
100
AcDbEntity
  8
0
  6
Continuous
 62
     7
100
AcDbLine
 10
11.84226700000022
 20
129.95
 30
0.0
 11
8.020171000000116
 21
129.95
 31
0.0
  0
LINE
  5
5CD2
330
A
100
AcDbEntity
  8
0
  6
Continuous
 62
     9
100
AcDbLine
 10
45.0
 20
148.0
 30
0.0
 11
45.0
 21
147.5
 31
0.0
  0
LINE
  5
5CD3
330
A
100
AcDbEntity
  8
0
  6
Continuous
 62
     9
100
AcDbLine
 10
45.0
 20
147.5
 30
0.0
 11
45.0
 21
146.5
 31
0.0
  0
LINE
  5
5CD4
330
A
100
AcDbEntity
  8
0
  6
Continuous
 62
     7
100
AcDbLine
 10
50.5
 20
148.0
 30
0.0
 11
50.5
 21
147.5
 31
0.0
  0
LINE
  5
5CD5
330
A
100
AcDbEntity
  8
0
  6
Continuous
 62
     7
100
AcDbLine
 10
50.5
 20
147.5
 30
0.0
 11
50.5
 21
146.5
 31
0.0
  0
LINE
  5
5CD6
330
A
100
AcDbEntity
  8
0
  6
Continuous
 62
     7
100
AcDbLine
 10
50.5
 20
146.5
 30
0.0
 11
45.0
 21
146.5
 31
0.0
  0
LINE
  5
5CD7
330
A
100
AcDbEntity
  8
0
  6
Continuous
 62
     9
100
AcDbLine
 10
-9.5
 20
148.0
 30
0.0
 11
-9.5
 21
147.5
 31
0.0
  0
LINE
  5
5CD8
330
A
100
AcDbEntity
  8
0
  6
Continuous
 62
     9
100
AcDbLine
 10
-9.5
 20
147.5
 30
0.0
 11
-9.5
 21
146.5
 31
0.0
  0
LINE
  5
5CD9
330
A
100
AcDbEntity
  8
0
  6
Continuous
 62
     7
100
AcDbLine
 10
45.0
 20
146.5
 30
0.0
 11
-9.5
 21
146.5
 31
0.0
  0
LINE
  5
5CDA
330
A
100
AcDbEntity
  8
0
  6
Continuous
 62
     7
100
AcDbLine
 10
-15.5
 20
148.0
 30
0.0
 11
-15.5
 21
147.5
 31
0.0
  0
LINE
  5
5CDB
330
A
100
AcDbEntity
  8
0
  6
Continuous
 62
     7
100
AcDbLine
 10
-15.5
 20
147.5
 30
0.0
 11
-15.5
 21
146.5
 31
0.0
  0
LINE
  5
5CDC
330
A
100
AcDbEntity
  8
0
  6
Continuous
 62
     7
100
AcDbLine
 10
-9.5
 20
146.5
 30
0.0
 11
-15.5
 21
146.5
 31
0.0
  0
LINE
  5
5CDD
330
A
100
AcDbEntity
  8
0
  6
Continuous
 62
     7
100
AcDbLine
 10
50.5
 20
136.9999999999996
 30
0.0
 11
50.5
 21
137.5
 31
0.0
  0
LINE
  5
5CDE
330
A
100
AcDbEntity
  8
0
  6
Continuous
 62
     7
100
AcDbLine
 10
50.5
 20
137.5
 30
0.0
 11
50.5
 21
138.5
 31
0.0
  0
LINE
  5
5CDF
330
A
100
AcDbEntity
  8
0
  6
Continuous
 62
     9
100
AcDbLine
 10
45.0
 20
136.9999999999996
 30
0.0
 11
45.0
 21
137.5
 31
0.0
  0
LINE
  5
5CE0
330
A
100
AcDbEntity
  8
0
  6
Continuous
 62
     9
100
AcDbLine
 10
45.0
 20
137.5
 30
0.0
 11
45.0
 21
138.5
 31
0.0
  0
LINE
  5
5CE1
330
A
100
AcDbEntity
  8
0
  6
Continuous
 62
     7
100
AcDbLine
 10
45.0
 20
138.5
 30
0.0
 11
50.5
 21
138.5
 31
0.0
  0
LINE
  5
5CE2
330
A
100
AcDbEntity
  8
0
  6
Continuous
 62
     9
100
AcDbLine
 10
-9.5
 20
136.9999999999996
 30
0.0
 11
-9.5
 21
137.5
 31
0.0
  0
LINE
  5
5CE3
330
A
100
AcDbEntity
  8
0
  6
Continuous
 62
     9
100
AcDbLine
 10
-9.5
 20
137.5
 30
0.0
 11
-9.5
 21
138.5
 31
0.0
  0
LINE
  5
5CE4
330
A
100
AcDbEntity
  8
0
  6
Continuous
 62
     7
100
AcDbLine
 10
-9.5
 20
138.5
 30
0.0
 11
45.0
 21
138.5
 31
0.0
  0
LINE
  5
5CE5
330
A
100
AcDbEntity
  8
0
  6
Continuous
 62
     7
100
AcDbLine
 10
-15.5
 20
136.9999999999996
 30
0.0
 11
-15.5
 21
137.5
 31
0.0
  0
LINE
  5
5CE6
330
A
100
AcDbEntity
  8
0
  6
Continuous
 62
     7
100
AcDbLine
 10
-15.5
 20
137.5
 30
0.0
 11
-15.5
 21
138.5
 31
0.0
  0
LINE
  5
5CE7
330
A
100
AcDbEntity
  8
0
  6
Continuous
 62
     7
100
AcDbLine
 10
-15.5
 20
138.5
 30
0.0
 11
-9.5
 21
138.5
 31
0.0
  0
LINE
  5
5CE8
330
A
100
AcDbEntity
  8
0
  6
Continuous
 62
     7
100
AcDbLine
 10
-9.5
 20
130.0
 30
0.0
 11
-13.0
 21
130.0
 31
0.0
  0
ARC
  5
5CE9
330
A
100
AcDbEntity
  8
0
  6
Continuous
 62
     7
100
AcDbCircle
 10
-13.0
 20
134.0
 30
0.0
 40
4.0
100
AcDbArc
 50
180.0
 51
270.0
  0
LINE
  5
5CEA
330
A
100
AcDbEntity
  8
0
  6
Continuous
 62
     9
100
AcDbLine
 10
-17.0
 20
134.0
 30
0.0
 11
-9.5
 21
134.0
 31
0.0
  0
LINE
  5
5CEB
330
A
100
AcDbEntity
  8
0
  6
Continuous
 62
     9
100
AcDbLine
 10
-9.5
 20
130.0
 30
0.0
 11
-9.5
 21
134.0
 31
0.0
  0
LINE
  5
5CEC
330
A
100
AcDbEntity
  8
0
  6
Continuous
 62
     7
100
AcDbLine
 10
53.0
 20
136.9999999999996
 30
0.0
 11
45.49999999999999
 21
136.9999999999996
 31
0.0
  0
LINE
  5
5CED
330
A
100
AcDbEntity
  8
0
  6
Continuous
 62
     7
100
AcDbLine
 10
53.0
 20
134.0
 30
0.0
 11
53.0
 21
136.9999999999996
 31
0.0
  0
LINE
  5
5CEE
330
A
100
AcDbEntity
  8
0
  6
Continuous
 62
     9
100
AcDbLine
 10
45.49999999999999
 20
134.0
 30
0.0
 11
53.0
 21
134.0
 31
0.0
  0
LINE
  5
5CEF
330
A
100
AcDbEntity
  8
0
  6
Continuous
 62
     9
100
AcDbLine
 10
45.49999999999999
 20
134.0
 30
0.0
 11
45.49999999999999
 21
136.9999999999996
 31
0.0
  0
LINE
  5
5CF0
330
A
100
AcDbEntity
  8
0
  6
Continuous
 62
     7
100
AcDbLine
 10
45.49999999999999
 20
130.0
 30
0.0
 11
-9.5
 21
130.0
 31
0.0
  0
LINE
  5
5CF1
330
A
100
AcDbEntity
  8
0
  6
Continuous
 62
     9
100
AcDbLine
 10
-9.5
 20
134.0
 30
0.0
 11
45.49999999999999
 21
134.0
 31
0.0
  0
LINE
  5
5CF2
330
A
100
AcDbEntity
  8
0
  6
Continuous
 62
     9
100
AcDbLine
 10
45.49999999999999
 20
130.0
 30
0.0
 11
45.49999999999999
 21
134.0
 31
0.0
  0
LINE
  5
5CF3
330
A
100
AcDbEntity
  8
0
  6
Continuous
 62
     7
100
AcDbLine
 10
45.49999999999999
 20
136.9999999999996
 30
0.0
 11
-9.5
 21
136.9999999999996
 31
0.0
  0
LINE
  5
5CF4
330
A
100
AcDbEntity
  8
0
  6
Continuous
 62
     9
100
AcDbLine
 10
-9.5
 20
134.0
 30
0.0
 11
-9.5
 21
136.9999999999996
 31
0.0
  0
LINE
  5
5CF5
330
A
100
AcDbEntity
  8
0
  6
Continuous
 62
     7
100
AcDbLine
 10
-9.5
 20
136.9999999999996
 30
0.0
 11
-17.0
 21
136.9999999999996
 31
0.0
  0
LINE
  5
5CF6
330
A
100
AcDbEntity
  8
0
  6
Continuous
 62
     7
100
AcDbLine
 10
-17.0
 20
134.0
 30
0.0
 11
-17.0
 21
136.9999999999996
 31
0.0
  0
LINE
  5
5CF7
330
A
100
AcDbEntity
  8
0
  6
Continuous
 62
     7
100
AcDbLine
 10
49.0
 20
130.0
 30
0.0
 11
45.49999999999999
 21
130.0
 31
0.0
  0
ARC
  5
5CF8
330
A
100
AcDbEntity
  8
0
  6
Continuous
 62
     7
100
AcDbCircle
 10
49.0
 20
134.0
 30
0.0
 40
4.0
100
AcDbArc
 50
270.0
 51
0.0
  0
LINE
  5
5CF9
330
A
100
AcDbEntity
  8
0
  6
Continuous
 62
     7
100
AcDbLine
 10
60.5
 20
132.5
 30
0.0
 11
60.0
 21
133.0
 31
0.0
  0
LINE
  5
5CFA
330
A
100
AcDbEntity
  8
0
  6
Continuous
 62
     7
100
AcDbLine
 10
60.5
 20
114.9999999999999
 30
0.0
 11
60.5
 21
132.5
 31
0.0
  0
LINE
  5
5CFB
330
A
100
AcDbEntity
  8
0
  6
Continuous
 62
     7
100
AcDbLine
 10
60.5
 20
152.5
 30
0.0
 11
60.5
 21
169.9999999999996
 31
0.0
  0
ARC
  5
5CFC
330
A
100
AcDbEntity
  8
0
  6
Continuous
 62
     7
100
AcDbCircle
 10
39.0999999999999
 20
142.5
 30
0.0
 40
20.0
100
AcDbArc
 50
324.0595659999999
 51
35.9404340000001
  0
LINE
  5
5CFD
330
A
100
AcDbEntity
  8
0
  6
Continuous
 62
     7
100
AcDbLine
 10
60.0
 20
152.0
 30
0.0
 11
60.5
 21
152.5
 31
0.0
  0
ARC
  5
5CFE
330
A
100
AcDbEntity
  8
0
  6
Continuous
 62
     7
100
AcDbCircle
 10
54.0
 20
130.0
 30
0.0
 40
1.5
100
AcDbArc
 50
0.0
 51
30.49180600000282
  0
LINE
  5
5CFF
330
A
100
AcDbEntity
  8
0
  6
Continuous
 62
     7
100
AcDbLine
 10
60.0
 20
133.0
 30
0.0
 11
60.0
 21
152.0
 31
0.0
  0
LINE
  5
5D00
330
A
100
AcDbEntity
  8
0
  6
Continuous
 62
     7
100
AcDbLine
 10
55.5
 20
169.9999999999996
 30
0.0
 11
55.5
 21
155.0
 31
0.0
  0
LINE
  5
5D01
330
A
100
AcDbEntity
  8
0
  6
Continuous
 62
     7
100
AcDbLine
 10
60.5
 20
169.9999999999996
 30
0.0
 11
55.5
 21
169.9999999999996
 31
0.0
  0
ARC
  5
5D02
330
A
100
AcDbEntity
  8
0
  6
Continuous
 62
     7
100
AcDbCircle
 10
54.0
 20
155.0
 30
0.0
 40
1.5
100
AcDbArc
 50
329.5081939999972
 51
0.0
  0
LINE
  5
5D03
330
A
100
AcDbEntity
  8
0
  6
Continuous
 62
     7
100
AcDbLine
 10
55.5
 20
114.9999999999999
 30
0.0
 11
60.5
 21
114.9999999999999
 31
0.0
  0
LINE
  5
5D04
330
A
100
AcDbEntity
  8
0
  6
Continuous
 62
     7
100
AcDbLine
 10
55.5
 20
130.0
 30
0.0
 11
55.5
 21
114.9999999999999
 31
0.0
  0
ARC
  5
5D05
330
A
100
AcDbEntity
  8
0
  6
Continuous
 62
     9
100
AcDbCircle
 10
39.0999999999999
 20
142.5
 30
0.0
 40
19.0
100
AcDbArc
 50
324.2727539999979
 51
35.72724600000212
  0
ARC
  5
5D06
330
A
100
AcDbEntity
  8
0
  6
Continuous
 62
     7
100
AcDbCircle
 10
54.0
 20
130.0
 30
0.0
 40
1.5
100
AcDbArc
 50
30.49180600000282
 51
69.54069699999632
  0
ARC
  5
5D07
330
A
100
AcDbEntity
  8
0
  6
Continuous
 62
     7
100
AcDbCircle
 10
54.0
 20
155.0
 30
0.0
 40
1.5
100
AcDbArc
 50
290.4593030000037
 51
329.2076189999982
  0
LINE
  5
5D08
330
A
100
AcDbEntity
  8
0
  6
Continuous
 62
     7
100
AcDbLine
 10
55.28854200000022
 20
154.232107
 30
0.0
 11
55.29255300000023
 21
154.238877
 31
0.0
  0
LINE
  5
5D09
330
A
100
AcDbEntity
  8
0
  6
Continuous
 62
     7
100
AcDbLine
 10
52.12249900000006
 20
131.5
 30
0.0
 11
54.0
 21
131.5
 31
0.0
  0
LINE
  5
5D0A
330
A
100
AcDbEntity
  8
0
  6
Continuous
 62
     7
100
AcDbLine
 10
54.0
 20
153.5
 30
0.0
 11
52.12249900000006
 21
153.5
 31
0.0
  0
ARC
  5
5D0B
330
A
100
AcDbEntity
  8
0
  6
Continuous
 62
     7
100
AcDbCircle
 10
54.0
 20
130.0
 30
0.0
 40
1.5
100
AcDbArc
 50
69.54069699999632
 51
90.0
  0
ARC
  5
5D0C
330
A
100
AcDbEntity
  8
0
  6
Continuous
 62
     7
100
AcDbCircle
 10
54.0
 20
155.0
 30
0.0
 40
1.5
100
AcDbArc
 50
270.0
 51
290.4593030000037
  0
LINE
  5
5D0D
330
A
100
AcDbEntity
  8
0
  6
Continuous
 62
     9
100
AcDbLine
 10
45.0
 20
136.9999999999996
 30
0.0
 11
45.0
 21
137.5
 31
0.0
  0
LINE
  5
5D0E
330
A
100
AcDbEntity
  8
0
  6
Continuous
 62
     9
100
AcDbLine
 10
-9.5
 20
136.9999999999996
 30
0.0
 11
-9.5
 21
137.5
 31
0.0
  0
LINE
  5
5D0F
330
A
100
AcDbEntity
  8
0
  6
Continuous
 62
     7
100
AcDbLine
 10
-9.5
 20
137.5
 30
0.0
 11
45.0
 21
137.5
 31
0.0
  0
LINE
  5
5D10
330
A
100
AcDbEntity
  8
0
  6
Continuous
 62
     7
100
AcDbLine
 10
-15.5
 20
136.9999999999996
 30
0.0
 11
-15.5
 21
137.5
 31
0.0
  0
LINE
  5
5D11
330
A
100
AcDbEntity
  8
0
  6
Continuous
 62
     7
100
AcDbLine
 10
-15.5
 20
137.5
 30
0.0
 11
-9.5
 21
137.5
 31
0.0
  0
LINE
  5
5D12
330
A
100
AcDbEntity
  8
0
  6
Continuous
 62
     7
100
AcDbLine
 10
50.5
 20
136.9999999999996
 30
0.0
 11
50.5
 21
137.5
 31
0.0
  0
LINE
  5
5D13
330
A
100
AcDbEntity
  8
0
  6
Continuous
 62
     7
100
AcDbLine
 10
45.0
 20
137.5
 30
0.0
 11
50.5
 21
137.5
 31
0.0
  0
LINE
  5
5D14
330
A
100
AcDbEntity
  8
0
  6
Continuous
 62
     9
100
AcDbLine
 10
-9.5
 20
148.0
 30
0.0
 11
-9.5
 21
147.5
 31
0.0
  0
LINE
  5
5D15
330
A
100
AcDbEntity
  8
0
  6
Continuous
 62
     9
100
AcDbLine
 10
45.0
 20
148.0
 30
0.0
 11
45.0
 21
147.5
 31
0.0
  0
LINE
  5
5D16
330
A
100
AcDbEntity
  8
0
  6
Continuous
 62
     7
100
AcDbLine
 10
45.0
 20
147.5
 30
0.0
 11
-9.5
 21
147.5
 31
0.0
  0
LINE
  5
5D17
330
A
100
AcDbEntity
  8
0
  6
Continuous
 62
     7
100
AcDbLine
 10
50.5
 20
148.0
 30
0.0
 11
50.5
 21
147.5
 31
0.0
  0
LINE
  5
5D18
330
A
100
AcDbEntity
  8
0
  6
Continuous
 62
     7
100
AcDbLine
 10
50.5
 20
147.5
 30
0.0
 11
45.0
 21
147.5
 31
0.0
  0
LINE
  5
5D19
330
A
100
AcDbEntity
  8
0
  6
Continuous
 62
     7
100
AcDbLine
 10
-15.5
 20
148.0
 30
0.0
 11
-15.5
 21
147.5
 31
0.0
  0
LINE
  5
5D1A
330
A
100
AcDbEntity
  8
0
  6
Continuous
 62
     7
100
AcDbLine
 10
-9.5
 20
147.5
 30
0.0
 11
-15.5
 21
147.5
 31
0.0
  0
ARC
  5
5D1B
330
A
100
AcDbEntity
  8
0
  6
Continuous
 62
     7
100
AcDbCircle
 10
40.0
 20
142.5
 30
0.0
 40
3.75
100
AcDbArc
 50
173.0979619999974
 51
190.4220739999986
  0
LINE
  5
5D1C
330
A
100
AcDbEntity
  8
0
  6
Continuous
 62
     7
100
AcDbLine
 10
36.311868
 20
141.821632
 30
0.0
 11
35.91190500000016
 21
142.197748
 31
0.0
  0
LINE
  5
5D1D
330
A
100
AcDbEntity
  8
0
  6
Continuous
 62
     7
100
AcDbLine
 10
35.90071400000011
 20
142.5503139999997
 30
0.0
 11
36.27717600000006
 21
142.950646
 31
0.0
  0
ARC
  5
5D1E
330
A
100
AcDbEntity
  8
0
  6
Continuous
 62
     7
100
AcDbCircle
 10
40.0
 20
142.5
 30
0.0
 40
3.75
100
AcDbArc
 50
273.0979619999953
 51
290.4220740000042
  0
LINE
  5
5D1F
330
A
100
AcDbEntity
  8
0
  6
Continuous
 62
     7
100
AcDbLine
 10
41.30849899999975
 20
138.9856959999997
 30
0.0
 11
41.00731300000005
 21
138.5261360000001
 31
0.0
  0
LINE
  5
5D20
330
A
100
AcDbEntity
  8
0
  6
Continuous
 62
     7
100
AcDbLine
 10
40.59316600000011
 20
138.4995519999999
 30
0.0
 11
40.20266200000015
 21
138.75548
 31
0.0
  0
ARC
  5
5D21
330
A
100
AcDbEntity
  8
0
  6
Continuous
 62
     7
100
AcDbCircle
 10
40.0
 20
142.5
 30
0.0
 40
3.75
100
AcDbArc
 50
253.0979620000007
 51
270.4220740000065
  0
LINE
  5
5D22
330
A
100
AcDbEntity
  8
0
  6
Continuous
 62
     7
100
AcDbLine
 10
39.21804799999995
 20
138.499262
 30
0.0
 11
38.90973900000017
 21
138.9119879999997
 31
0.0
  0
LINE
  5
5D23
330
A
100
AcDbEntity
  8
0
  6
Continuous
 62
     7
100
AcDbLine
 10
40.02762399999983
 20
138.7501019999997
 30
0.0
 11
39.69621000000007
 21
138.502532
 31
0.0
  0
ARC
  5
5D24
330
A
100
AcDbEntity
  8
0
  6
Continuous
 62
     7
100
AcDbCircle
 10
40.0
 20
142.5
 30
0.0
 40
3.75
100
AcDbArc
 50
233.0979619999956
 51
250.4220739999999
  0
LINE
  5
5D25
330
A
100
AcDbEntity
  8
0
  6
Continuous
 62
     7
100
AcDbLine
 10
37.90678400000003
 20
138.9750709999997
 30
0.0
 11
37.74831799999993
 21
139.5012629999996
 31
0.0
  0
LINE
  5
5D26
330
A
100
AcDbEntity
  8
0
  6
Continuous
 62
     7
100
AcDbLine
 10
38.74341800000003
 20
138.9668
 30
0.0
 11
38.21771100000001
 21
138.80848
 31
0.0
  0
ARC
  5
5D27
330
A
100
AcDbEntity
  8
0
  6
Continuous
 62
     7
100
AcDbCircle
 10
43.35628399999996
 20
140.69736
 30
0.0
 40
0.1
100
AcDbArc
 50
116.7600180000015
 51
186.7600179999995
  0
LINE
  5
5D28
330
A
100
AcDbEntity
  8
0
  6
Continuous
 62
     7
100
AcDbLine
 10
43.25697899999977
 20
140.6855889999997
 30
0.0
 11
43.26131900000017
 21
140.648974
 31
0.0
  0
ARC
  5
5D29
330
A
100
AcDbEntity
  8
0
  6
Continuous
 62
     7
100
AcDbCircle
 10
40.0
 20
142.5
 30
0.0
 40
3.75
100
AcDbArc
 50
313.0979620000067
 51
330.4220739999992
  0
LINE
  5
5D2A
330
A
100
AcDbEntity
  8
0
  6
Continuous
 62
     7
100
AcDbLine
 10
42.56217900000001
 20
139.7618
 30
0.0
 11
42.5255649999999
 21
139.7574599999997
 31
0.0
  0
ARC
  5
5D2B
330
A
100
AcDbEntity
  8
0
  6
Continuous
 62
     7
100
AcDbCircle
 10
42.53733599999987
 20
139.6581549999999
 30
0.0
 40
0.1
100
AcDbArc
 50
96.76001799999957
 51
166.7600180000024
  0
LINE
  5
5D2C
330
A
100
AcDbEntity
  8
0
  6
Continuous
 62
     7
100
AcDbLine
 10
42.4399940000003
 20
139.6810589999999
 30
0.0
 11
42.43154999999979
 21
139.645168
 31
0.0
  0
ARC
  5
5D2D
330
A
100
AcDbEntity
  8
0
  6
Continuous
 62
     7
100
AcDbCircle
 10
40.0
 20
142.5
 30
0.0
 40
3.75
100
AcDbArc
 50
293.0979620000036
 51
310.4220740000053
  0
LINE
  5
5D2E
330
A
100
AcDbEntity
  8
0
  6
Continuous
 62
     7
100
AcDbLine
 10
41.47114200000078
 20
139.0506169999996
 30
0.0
 11
41.43525100000032
 21
139.059062
 31
0.0
  0
ARC
  5
5D2F
330
A
100
AcDbEntity
  8
0
  6
Continuous
 62
     7
100
AcDbCircle
 10
41.41234799999984
 20
138.9617199999999
 30
0.0
 40
0.1
100
AcDbArc
 50
76.76001799999461
 51
146.7600180000007
  0
LINE
  5
5D30
330
A
100
AcDbEntity
  8
0
  6
Continuous
 62
     7
100
AcDbLine
 10
41.32871000000114
 20
139.0165339999997
 30
0.0
 11
41.30849899999975
 21
138.9856959999997
 31
0.0
  0
LINE
  5
5D31
330
A
100
AcDbEntity
  8
0
  6
Continuous
 62
     7
100
AcDbLine
 10
37.74831799999993
 20
139.5012629999996
 30
0.0
 11
37.73768500000006
 21
139.5365669999999
 31
0.0
  0
ARC
  5
5D32
330
A
100
AcDbEntity
  8
0
  6
Continuous
 62
     7
100
AcDbCircle
 10
37.64193299999988
 20
139.5077309999997
 30
0.0
 40
0.1
100
AcDbArc
 50
16.76001799999673
 51
86.76001799999836
  0
LINE
  5
5D33
330
A
100
AcDbEntity
  8
0
  6
Continuous
 62
     7
100
AcDbLine
 10
37.64758500000084
 20
139.607571
 30
0.0
 11
37.61077300000011
 21
139.6096549999997
 31
0.0
  0
ARC
  5
5D34
330
A
100
AcDbEntity
  8
0
  6
Continuous
 62
     7
100
AcDbCircle
 10
40.0
 20
142.5
 30
0.0
 40
3.75
100
AcDbArc
 50
213.0979619999972
 51
230.422073999996
  0
ARC
  5
5D35
330
A
100
AcDbEntity
  8
0
  6
Continuous
 62
     7
100
AcDbCircle
 10
40.0
 20
142.5
 30
0.0
 40
3.75
100
AcDbArc
 50
193.0979619999974
 51
210.4220740000041
  0
LINE
  5
5D36
330
A
100
AcDbEntity
  8
0
  6
Continuous
 62
     7
100
AcDbLine
 10
36.34756000000016
 20
141.6501869999997
 30
0.0
 11
36.36210799999981
 21
141.684066
 31
0.0
  0
LINE
  5
5D37
330
A
100
AcDbEntity
  8
0
  6
Continuous
 62
     7
100
AcDbLine
 10
36.33872800000017
 20
141.7963739999995
 30
0.0
 11
36.311868
 21
141.821632
 31
0.0
  0
LINE
  5
5D38
330
A
100
AcDbEntity
  8
0
  6
Continuous
 62
     7
100
AcDbLine
 10
36.27717600000006
 20
142.950646
 30
0.0
 11
36.30243399999996
 21
142.9775049999997
 31
0.0
  0
ARC
  5
5D39
330
A
100
AcDbEntity
  8
0
  6
Continuous
 62
     7
100
AcDbCircle
 10
36.22958500000005
 20
143.046011
 30
0.0
 40
0.1
100
AcDbArc
 50
316.7600179999981
 51
26.76001799999864
  0
LINE
  5
5D3A
330
A
100
AcDbEntity
  8
0
  6
Continuous
 62
     7
100
AcDbLine
 10
36.31887499999994
 20
143.091036
 30
0.0
 11
36.3022739999999
 21
143.123958
 31
0.0
  0
ARC
  5
5D3B
330
A
100
AcDbEntity
  8
0
  6
Continuous
 62
     7
100
AcDbCircle
 10
40.0
 20
142.5
 30
0.0
 40
3.75
100
AcDbArc
 50
153.0979619999967
 51
170.4220740000022
  0
LINE
  5
5D3C
330
A
100
AcDbEntity
  8
0
  6
Continuous
 62
     7
100
AcDbLine
 10
36.65581999999995
 20
144.1967490000002
 30
0.0
 11
36.68874099999994
 21
144.21335
 31
0.0
  0
ARC
  5
5D3D
330
A
100
AcDbEntity
  8
0
  6
Continuous
 62
     7
100
AcDbCircle
 10
36.64371600000004
 20
144.30264
 30
0.0
 40
0.1
100
AcDbArc
 50
296.7600180000015
 51
6.760017999999567
  0
LINE
  5
5D3E
330
A
100
AcDbEntity
  8
0
  6
Continuous
 62
     7
100
AcDbLine
 10
36.743021
 20
144.314411
 30
0.0
 11
36.73868099999982
 21
144.3510259999997
 31
0.0
  0
ARC
  5
5D3F
330
A
100
AcDbEntity
  8
0
  6
Continuous
 62
     7
100
AcDbCircle
 10
40.0
 20
142.5
 30
0.0
 40
3.75
100
AcDbArc
 50
133.0979620000067
 51
150.4220739999992
  0
LINE
  5
5D40
330
A
100
AcDbEntity
  8
0
  6
Continuous
 62
     7
100
AcDbLine
 10
37.43782099999999
 20
145.2382
 30
0.0
 11
37.47443500000009
 21
145.24254
 31
0.0
  0
ARC
  5
5D41
330
A
100
AcDbEntity
  8
0
  6
Continuous
 62
     7
100
AcDbCircle
 10
37.46266400000013
 20
145.341845
 30
0.0
 40
0.1
100
AcDbArc
 50
276.7600179999996
 51
346.7600180000025
  0
LINE
  5
5D42
330
A
100
AcDbEntity
  8
0
  6
Continuous
 62
     7
100
AcDbLine
 10
37.56000599999993
 20
145.3189419999996
 30
0.0
 11
37.56844999999998
 21
145.3548319999999
 31
0.0
  0
ARC
  5
5D43
330
A
100
AcDbEntity
  8
0
  6
Continuous
 62
     7
100
AcDbCircle
 10
40.0
 20
142.5
 30
0.0
 40
3.75
100
AcDbArc
 50
113.0979620000036
 51
130.4220740000052
  0
LINE
  5
5D44
330
A
100
AcDbEntity
  8
0
  6
Continuous
 62
     7
100
AcDbLine
 10
38.5288579999999
 20
145.949383
 30
0.0
 11
38.56474899999989
 21
145.9409379999998
 31
0.0
  0
ARC
  5
5D45
330
A
100
AcDbEntity
  8
0
  6
Continuous
 62
     7
100
AcDbCircle
 10
38.58765199999993
 20
146.03828
 30
0.0
 40
0.1
100
AcDbArc
 50
256.7600179999947
 51
326.7600180000008
  0
LINE
  5
5D46
330
A
100
AcDbEntity
  8
0
  6
Continuous
 62
     7
100
AcDbLine
 10
38.67128999999977
 20
145.983466
 30
0.0
 11
38.69150100000093
 21
146.014304
 31
0.0
  0
ARC
  5
5D47
330
A
100
AcDbEntity
  8
0
  6
Continuous
 62
     7
100
AcDbCircle
 10
40.0
 20
142.5
 30
0.0
 40
3.75
100
AcDbArc
 50
93.09796199999537
 51
110.4220740000042
  0
LINE
  5
5D48
330
A
100
AcDbEntity
  8
0
  6
Continuous
 62
     7
100
AcDbLine
 10
39.79733799999986
 20
146.2445199999998
 30
0.0
 11
39.82817600000021
 21
146.2243089999997
 31
0.0
  0
ARC
  5
5D49
330
A
100
AcDbEntity
  8
0
  6
Continuous
 62
     7
100
AcDbCircle
 10
39.88298999999983
 20
146.3079469999996
 30
0.0
 40
0.1
100
AcDbArc
 50
236.7600180000026
 51
306.7600179999969
  0
LINE
  5
5D4A
330
A
100
AcDbEntity
  8
0
  6
Continuous
 62
     7
100
AcDbLine
 10
39.94283700000006
 20
146.227833
 30
0.0
 11
39.97237600000018
 21
146.249898
 31
0.0
  0
ARC
  5
5D4B
330
A
100
AcDbEntity
  8
0
  6
Continuous
 62
     7
100
AcDbCircle
 10
40.0
 20
142.5
 30
0.0
 40
3.75
100
AcDbArc
 50
73.09796200000069
 51
90.42207399999352
  0
LINE
  5
5D4C
330
A
100
AcDbEntity
  8
0
  6
Continuous
 62
     7
100
AcDbLine
 10
41.09026099999982
 20
146.0880120000001
 30
0.0
 11
41.11232699999981
 21
146.058473
 31
0.0
  0
ARC
  5
5D4D
330
A
100
AcDbEntity
  8
0
  6
Continuous
 62
     7
100
AcDbCircle
 10
41.19244100000013
 20
146.1183199999999
 30
0.0
 40
0.1
100
AcDbArc
 50
216.7600180000021
 51
286.760018000003
  0
LINE
  5
5D4E
330
A
100
AcDbEntity
  8
0
  6
Continuous
 62
     7
100
AcDbLine
 10
41.22127799999997
 20
146.0225679999999
 30
0.0
 11
41.25658199999997
 21
146.0331999999997
 31
0.0
  0
ARC
  5
5D4F
330
A
100
AcDbEntity
  8
0
  6
Continuous
 62
     7
100
AcDbCircle
 10
40.0
 20
142.5
 30
0.0
 40
3.75
100
AcDbArc
 50
53.09796199999571
 51
70.42207399999989
  0
LINE
  5
5D50
330
A
100
AcDbEntity
  8
0
  6
Continuous
 62
     7
100
AcDbLine
 10
42.25168200000007
 20
145.498737
 30
0.0
 11
42.26231499999993
 21
145.4634329999996
 31
0.0
  0
ARC
  5
5D51
330
A
100
AcDbEntity
  8
0
  6
Continuous
 62
     7
100
AcDbCircle
 10
42.35806700000011
 20
145.492269
 30
0.0
 40
0.1
100
AcDbArc
 50
196.7600179999966
 51
266.7600179999984
  0
LINE
  5
5D52
330
A
100
AcDbEntity
  8
0
  6
Continuous
 62
     7
100
AcDbLine
 10
42.35241499999983
 20
145.392429
 30
0.0
 11
42.38922700000012
 21
145.390345
 31
0.0
  0
ARC
  5
5D53
330
A
100
AcDbEntity
  8
0
  6
Continuous
 62
     7
100
AcDbCircle
 10
40.0
 20
142.5
 30
0.0
 40
3.75
100
AcDbArc
 50
33.09796199999718
 51
50.422073999996
  0
LINE
  5
5D54
330
A
100
AcDbEntity
  8
0
  6
Continuous
 62
     7
100
AcDbLine
 10
43.14151799999989
 20
144.547771
 30
0.0
 11
43.13943400000015
 21
144.5109589999997
 31
0.0
  0
ARC
  5
5D55
330
A
100
AcDbEntity
  8
0
  6
Continuous
 62
     7
100
AcDbCircle
 10
43.23927400000001
 20
144.505307
 30
0.0
 40
0.1
100
AcDbArc
 50
176.760017999998
 51
246.7600179999944
  0
LINE
  5
5D56
330
A
100
AcDbEntity
  8
0
  6
Continuous
 62
     7
100
AcDbLine
 10
43.19981599999983
 20
144.4134209999999
 30
0.0
 11
43.2336949999999
 21
144.3988730000003
 31
0.0
  0
ARC
  5
5D57
330
A
100
AcDbEntity
  8
0
  6
Continuous
 62
     7
100
AcDbCircle
 10
40.0
 20
142.5
 30
0.0
 40
3.75
100
AcDbArc
 50
13.09796199999746
 51
30.4220740000041
  0
LINE
  5
5D58
330
A
100
AcDbEntity
  8
0
  6
Continuous
 62
     7
100
AcDbLine
 10
43.65243999999985
 20
143.349813
 30
0.0
 11
43.63789200000019
 21
143.315934
 31
0.0
  0
ARC
  5
5D59
330
A
100
AcDbEntity
  8
0
  6
Continuous
 62
     7
100
AcDbCircle
 10
43.72977799999989
 20
143.276475
 30
0.0
 40
0.1
100
AcDbArc
 50
156.7600180000004
 51
226.7600179999981
  0
LINE
  5
5D5A
330
A
100
AcDbEntity
  8
0
  6
Continuous
 62
     7
100
AcDbLine
 10
43.66127199999982
 20
143.2036259999998
 30
0.0
 11
43.68813200000022
 21
143.178368
 31
0.0
  0
ARC
  5
5D5B
330
A
100
AcDbEntity
  8
0
  6
Continuous
 62
     7
100
AcDbCircle
 10
40.0
 20
142.5
 30
0.0
 40
3.75
100
AcDbArc
 50
353.0979619999974
 51
10.42207399999861
  0
LINE
  5
5D5C
330
A
100
AcDbEntity
  8
0
  6
Continuous
 62
     7
100
AcDbLine
 10
43.72282399999995
 20
142.049354
 30
0.0
 11
43.69756599999981
 21
142.022495
 31
0.0
  0
ARC
  5
5D5D
330
A
100
AcDbEntity
  8
0
  6
Continuous
 62
     7
100
AcDbCircle
 10
43.77041499999996
 20
141.9539889999997
 30
0.0
 40
0.1
100
AcDbArc
 50
136.7600179999981
 51
206.7600179999987
  0
LINE
  5
5D5E
330
A
100
AcDbEntity
  8
0
  6
Continuous
 62
     7
100
AcDbLine
 10
43.68112500000006
 20
141.9089639999997
 30
0.0
 11
43.69772600000032
 21
141.876042
 31
0.0
  0
ARC
  5
5D5F
330
A
100
AcDbEntity
  8
0
  6
Continuous
 62
     7
100
AcDbCircle
 10
40.0
 20
142.5
 30
0.0
 40
3.75
100
AcDbArc
 50
333.0979619999967
 51
350.4220740000022
  0
LINE
  5
5D60
330
A
100
AcDbEntity
  8
0
  6
Continuous
 62
     7
100
AcDbLine
 10
43.34418000000005
 20
140.8032509999997
 30
0.0
 11
43.31125900000006
 21
140.78665
 31
0.0
  0
LINE
  5
5D61
330
A
100
AcDbEntity
  8
0
  6
Continuous
 62
     7
100
AcDbLine
 10
36.80018399999994
 20
140.586579
 30
0.0
 11
36.76630500000011
 21
140.6011269999996
 31
0.0
  0
ARC
  5
5D62
330
A
100
AcDbEntity
  8
0
  6
Continuous
 62
     7
100
AcDbCircle
 10
40.11701000000015
 20
138.6920529999996
 30
0.0
 40
0.1
100
AcDbArc
 50
56.7600180000026
 51
126.7600179999969
  0
ARC
  5
5D63
330
A
100
AcDbEntity
  8
0
  6
Continuous
 62
     7
100
AcDbCircle
 10
38.80755799999974
 20
138.8816799999997
 30
0.0
 40
0.1
100
AcDbArc
 50
36.76001800000211
 51
106.7600180000029
  0
ARC
  5
5D64
330
A
100
AcDbEntity
  8
0
  6
Continuous
 62
     7
100
AcDbCircle
 10
36.27022199999988
 20
141.7235249999996
 30
0.0
 40
0.1
100
AcDbArc
 50
336.7600180000004
 51
46.76001799999812
  0
LINE
  5
5D65
330
A
100
AcDbEntity
  8
0
  6
Continuous
 62
     7
100
AcDbLine
 10
40.20266200000015
 20
138.75548
 30
0.0
 11
40.17182399999978
 21
138.775691
 31
0.0
  0
LINE
  5
5D66
330
A
100
AcDbEntity
  8
0
  6
Continuous
 62
     7
100
AcDbLine
 10
38.77872199999979
 20
138.977432
 30
0.0
 11
38.74341800000003
 21
138.9668
 31
0.0
  0
LINE
  5
5D67
330
A
100
AcDbEntity
  8
0
  6
Continuous
 62
     7
100
AcDbLine
 10
38.90973900000017
 20
138.9119879999997
 30
0.0
 11
38.88767299999995
 21
138.9415269999997
 31
0.0
  0
LINE
  5
5D68
330
A
100
AcDbEntity
  8
0
  6
Continuous
 62
     7
100
AcDbLine
 10
40.05716299999995
 20
138.7721679999998
 30
0.0
 11
40.02762399999983
 21
138.7501019999997
 31
0.0
  0
ARC
  5
5D69
330
A
100
AcDbEntity
  8
0
  6
Continuous
 62
     7
100
AcDbCircle
 10
36.76072600000021
 20
140.4946929999999
 30
0.0
 40
0.1
100
AcDbArc
 50
356.7600179999979
 51
66.76001799999443
  0
LINE
  5
5D6A
330
A
100
AcDbEntity
  8
0
  6
Continuous
 62
     7
100
AcDbLine
 10
36.85848200000009
 20
140.4522289999996
 30
0.0
 11
36.86056600000006
 21
140.489041
 31
0.0
  0
LINE
  5
5D6B
330
A
100
AcDbEntity
  8
0
  6
Continuous
 62
     7
100
AcDbLine
 10
36.13093099999993
 20
141.1457259999999
 30
0.0
 11
36.34756000000016
 21
141.6501869999997
 31
0.0
  0
LINE
  5
5D6C
330
A
100
AcDbEntity
  8
0
  6
Continuous
 62
     7
100
AcDbLine
 10
36.76630500000011
 20
140.6011269999996
 30
0.0
 11
36.26050000000009
 21
140.8183339999997
 31
0.0
  0
LINE
  5
5D6D
330
A
100
AcDbEntity
  8
0
  6
Continuous
 62
     7
100
AcDbLine
 10
37.61077300000011
 20
139.6096549999997
 30
0.0
 11
37.06218999999987
 21
139.6407089999999
 31
0.0
  0
LINE
  5
5D6E
330
A
100
AcDbEntity
  8
0
  6
Continuous
 62
     7
100
AcDbLine
 10
36.82738000000018
 20
139.902807
 30
0.0
 11
36.85848200000009
 21
140.4522289999996
 31
0.0
  0
LINE
  5
5D6F
330
A
100
AcDbEntity
  8
0
  6
Continuous
 62
     7
100
AcDbLine
 10
43.69772600000032
 20
141.876042
 30
0.0
 11
43.94512299999997
 21
141.3854269999997
 31
0.0
  0
LINE
  5
5D70
330
A
100
AcDbEntity
  8
0
  6
Continuous
 62
     7
100
AcDbLine
 10
43.8355449999999
 20
141.051027
 30
0.0
 11
43.34418000000005
 21
140.8032509999997
 31
0.0
  0
LINE
  5
5D71
330
A
100
AcDbEntity
  8
0
  6
Continuous
 62
     7
100
AcDbLine
 10
43.26131900000017
 20
140.648974
 30
0.0
 11
43.32611600000018
 21
140.1023309999997
 31
0.0
  0
LINE
  5
5D72
330
A
100
AcDbEntity
  8
0
  6
Continuous
 62
     7
100
AcDbLine
 10
43.10736999999972
 20
139.8264249999999
 30
0.0
 11
42.56217900000001
 21
139.7618
 31
0.0
  0
LINE
  5
5D73
330
A
100
AcDbEntity
  8
0
  6
Continuous
 62
     7
100
AcDbLine
 10
36.73868099999982
 20
144.3510259999997
 30
0.0
 11
36.67388400000004
 21
144.897669
 31
0.0
  0
LINE
  5
5D74
330
A
100
AcDbEntity
  8
0
  6
Continuous
 62
     7
100
AcDbLine
 10
36.89263000000006
 20
145.173575
 30
0.0
 11
37.43782099999999
 21
145.2382
 31
0.0
  0
LINE
  5
5D75
330
A
100
AcDbEntity
  8
0
  6
Continuous
 62
     7
100
AcDbLine
 10
36.1644550000001
 20
143.948973
 30
0.0
 11
36.65581999999995
 21
144.1967490000002
 31
0.0
  0
LINE
  5
5D76
330
A
100
AcDbEntity
  8
0
  6
Continuous
 62
     7
100
AcDbLine
 10
36.3022739999999
 20
143.123958
 30
0.0
 11
36.05487700000003
 21
143.6145730000003
 31
0.0
  0
LINE
  5
5D77
330
A
100
AcDbEntity
  8
0
  6
Continuous
 62
     7
100
AcDbLine
 10
37.9939300000001
 20
146.0752429999999
 30
0.0
 11
38.5288579999999
 21
145.949383
 31
0.0
  0
LINE
  5
5D78
330
A
100
AcDbEntity
  8
0
  6
Continuous
 62
     7
100
AcDbLine
 10
37.56844999999998
 20
145.3548319999999
 30
0.0
 11
37.69419500000004
 21
145.889268
 31
0.0
  0
LINE
  5
5D79
330
A
100
AcDbEntity
  8
0
  6
Continuous
 62
     7
100
AcDbLine
 10
42.43154999999979
 20
139.645168
 30
0.0
 11
42.30580499999996
 21
139.110732
 31
0.0
  0
LINE
  5
5D7A
330
A
100
AcDbEntity
  8
0
  6
Continuous
 62
     7
100
AcDbLine
 10
42.00606999999989
 20
138.9247569999996
 30
0.0
 11
41.47114200000078
 21
139.0506169999996
 31
0.0
  0
LINE
  5
5D7B
330
A
100
AcDbEntity
  8
0
  6
Continuous
 62
     7
100
AcDbLine
 10
43.68813200000022
 20
143.178368
 30
0.0
 11
44.08809500000006
 21
142.8022519999997
 31
0.0
  0
LINE
  5
5D7C
330
A
100
AcDbEntity
  8
0
  6
Continuous
 62
     7
100
AcDbLine
 10
44.09928600000011
 20
142.449686
 30
0.0
 11
43.72282399999995
 21
142.049354
 31
0.0
  0
LINE
  5
5D7D
330
A
100
AcDbEntity
  8
0
  6
Continuous
 62
     7
100
AcDbLine
 10
41.25658199999997
 20
146.0331999999997
 30
0.0
 11
41.78244099999982
 21
146.1915659999997
 31
0.0
  0
LINE
  5
5D7E
330
A
100
AcDbEntity
  8
0
  6
Continuous
 62
     7
100
AcDbLine
 10
42.09317099999998
 20
146.025081
 30
0.0
 11
42.25168200000007
 21
145.498737
 31
0.0
  0
LINE
  5
5D7F
330
A
100
AcDbEntity
  8
0
  6
Continuous
 62
     7
100
AcDbLine
 10
43.17261999999981
 20
145.0971929999997
 30
0.0
 11
43.14151799999989
 21
144.547771
 31
0.0
  0
LINE
  5
5D80
330
A
100
AcDbEntity
  8
0
  6
Continuous
 62
     7
100
AcDbLine
 10
42.38922700000012
 20
145.390345
 30
0.0
 11
42.93781000000035
 21
145.3592909999995
 31
0.0
  0
LINE
  5
5D81
330
A
100
AcDbEntity
  8
0
  6
Continuous
 62
     7
100
AcDbLine
 10
43.2336949999999
 20
144.3988730000003
 30
0.0
 11
43.73950000000013
 21
144.1816660000003
 31
0.0
  0
LINE
  5
5D82
330
A
100
AcDbEntity
  8
0
  6
Continuous
 62
     7
100
AcDbLine
 10
43.86906900000029
 20
143.854274
 30
0.0
 11
43.65243999999985
 21
143.349813
 31
0.0
  0
LINE
  5
5D83
330
A
100
AcDbEntity
  8
0
  6
Continuous
 62
     7
100
AcDbLine
 10
39.97237600000018
 20
146.249898
 30
0.0
 11
40.30378999999992
 21
146.497468
 31
0.0
  0
LINE
  5
5D84
330
A
100
AcDbEntity
  8
0
  6
Continuous
 62
     7
100
AcDbLine
 10
40.78195199999981
 20
146.5007379999997
 30
0.0
 11
41.09026099999982
 21
146.0880120000001
 31
0.0
  0
LINE
  5
5D85
330
A
100
AcDbEntity
  8
0
  6
Continuous
 62
     7
100
AcDbLine
 10
38.69150100000093
 20
146.014304
 30
0.0
 11
38.99268700000016
 21
146.4738639999997
 31
0.0
  0
LINE
  5
5D86
330
A
100
AcDbEntity
  8
0
  6
Continuous
 62
     7
100
AcDbLine
 10
39.40683399999989
 20
146.5004479999996
 30
0.0
 11
39.79733799999986
 21
146.2445199999998
 31
0.0
  0
ARC
  5
5D87
330
A
100
AcDbEntity
  8
0
  6
Continuous
 62
     7
100
AcDbCircle
 10
40.0
 20
142.5
 30
0.0
 40
4.0
100
AcDbArc
 50
205.8019959999995
 51
217.7180399999966
  0
ARC
  5
5D88
330
A
100
AcDbEntity
  8
0
  6
Continuous
 62
     7
100
AcDbCircle
 10
40.0
 20
142.5
 30
0.0
 40
4.0
100
AcDbArc
 50
225.8019960000009
 51
237.7180400000016
  0
ARC
  5
5D89
330
A
100
AcDbEntity
  8
0
  6
Continuous
 62
     7
100
AcDbCircle
 10
40.0
 20
142.5
 30
0.0
 40
4.0
100
AcDbArc
 50
325.8019960000003
 51
337.7180399999991
  0
ARC
  5
5D8A
330
A
100
AcDbEntity
  8
0
  6
Continuous
 62
     7
100
AcDbCircle
 10
40.0
 20
142.5
 30
0.0
 40
4.0
100
AcDbArc
 50
345.8019960000005
 51
357.7180400000007
  0
ARC
  5
5D8B
330
A
100
AcDbEntity
  8
0
  6
Continuous
 62
     7
100
AcDbCircle
 10
40.0
 20
142.5
 30
0.0
 40
4.0
100
AcDbArc
 50
5.801995999998825
 51
17.71804000000412
  0
ARC
  5
5D8C
330
A
100
AcDbEntity
  8
0
  6
Continuous
 62
     7
100
AcDbCircle
 10
40.0
 20
142.5
 30
0.0
 40
4.0
100
AcDbArc
 50
25.80199599999946
 51
37.71803999999665
  0
ARC
  5
5D8D
330
A
100
AcDbEntity
  8
0
  6
Continuous
 62
     7
100
AcDbCircle
 10
40.0
 20
142.5
 30
0.0
 40
4.0
100
AcDbArc
 50
45.80199600000088
 51
57.71804000000157
  0
ARC
  5
5D8E
330
A
100
AcDbEntity
  8
0
  6
Continuous
 62
     7
100
AcDbCircle
 10
40.0
 20
142.5
 30
0.0
 40
4.0
100
AcDbArc
 50
65.80199600000191
 51
77.71804000000279
  0
ARC
  5
5D8F
330
A
100
AcDbEntity
  8
0
  6
Continuous
 62
     7
100
AcDbCircle
 10
40.0
 20
142.5
 30
0.0
 40
4.0
100
AcDbArc
 50
85.80199600000439
 51
90.0
  0
ARC
  5
5D90
330
A
100
AcDbEntity
  8
0
  6
Continuous
 62
     7
100
AcDbCircle
 10
40.0
 20
142.5
 30
0.0
 40
4.0
100
AcDbArc
 50
90.0
 51
97.7180399999959
  0
ARC
  5
5D91
330
A
100
AcDbEntity
  8
0
  6
Continuous
 62
     7
100
AcDbCircle
 10
40.0
 20
142.5
 30
0.0
 40
4.0
100
AcDbArc
 50
105.8019959999991
 51
117.718040000005
  0
ARC
  5
5D92
330
A
100
AcDbEntity
  8
0
  6
Continuous
 62
     7
100
AcDbCircle
 10
40.0
 20
142.5
 30
0.0
 40
4.0
100
AcDbArc
 50
125.8019959999943
 51
137.7180399999985
  0
ARC
  5
5D93
330
A
100
AcDbEntity
  8
0
  6
Continuous
 62
     7
100
AcDbCircle
 10
40.0
 20
142.5
 30
0.0
 40
4.0
100
AcDbArc
 50
145.8019960000003
 51
157.7180399999991
  0
ARC
  5
5D94
330
A
100
AcDbEntity
  8
0
  6
Continuous
 62
     7
100
AcDbCircle
 10
40.0
 20
142.5
 30
0.0
 40
4.0
100
AcDbArc
 50
165.8019960000005
 51
177.7180400000006
  0
ARC
  5
5D95
330
A
100
AcDbEntity
  8
0
  6
Continuous
 62
     7
100
AcDbCircle
 10
40.0
 20
142.5
 30
0.0
 40
4.0
100
AcDbArc
 50
185.8019959999988
 51
197.7180400000041
  0
ARC
  5
5D96
330
A
100
AcDbEntity
  8
0
  6
Continuous
 62
     7
100
AcDbCircle
 10
40.0
 20
142.5
 30
0.0
 40
4.0
100
AcDbArc
 50
245.8019960000019
 51
257.7180400000028
  0
ARC
  5
5D97
330
A
100
AcDbEntity
  8
0
  6
Continuous
 62
     7
100
AcDbCircle
 10
40.0
 20
142.5
 30
0.0
 40
4.0
100
AcDbArc
 50
265.8019960000044
 51
270.0
  0
ARC
  5
5D98
330
A
100
AcDbEntity
  8
0
  6
Continuous
 62
     7
100
AcDbCircle
 10
40.0
 20
142.5
 30
0.0
 40
4.0
100
AcDbArc
 50
270.0
 51
277.7180399999959
  0
ARC
  5
5D99
330
A
100
AcDbEntity
  8
0
  6
Continuous
 62
     7
100
AcDbCircle
 10
40.0
 20
142.5
 30
0.0
 40
4.0
100
AcDbArc
 50
285.8019959999991
 51
297.7180400000051
  0
ARC
  5
5D9A
330
A
100
AcDbEntity
  8
0
  6
Continuous
 62
     7
100
AcDbCircle
 10
40.0
 20
142.5
 30
0.0
 40
4.0
100
AcDbArc
 50
305.8019959999943
 51
317.7180399999985
  0
LINE
  5
5D9B
330
A
100
AcDbEntity
  8
0
  6
Continuous
 62
     9
100
AcDbLine
 10
1.825000000000045
 20
138.5
 30
0.0
 11
1.825000000000045
 21
146.5
 31
0.0
  0
LINE
  5
5D9C
330
A
100
AcDbEntity
  8
0
  6
Continuous
 62
     7
100
AcDbLine
 10
-5.174999999999954
 20
138.5
 30
0.0
 11
-5.174999999999954
 21
146.5
 31
0.0
  0
LINE
  5
5D9D
330
A
100
AcDbEntity
  8
0
  6
Continuous
 62
     7
100
AcDbLine
 10
8.825000000000045
 20
138.5
 30
0.0
 11
8.825000000000045
 21
146.5
 31
0.0
  0
LINE
  5
5D9E
330
A
100
AcDbEntity
  8
0
  6
Continuous
 62
     9
100
AcDbLine
 10
45.49999999999999
 20
151.0
 30
0.0
 11
-9.5
 21
151.0
 31
0.0
  0
LINE
  5
5D9F
330
A
100
AcDbEntity
  8
0
  6
Continuous
 62
     9
100
AcDbLine
 10
-9.5
 20
151.0
 30
0.0
 11
-9.5
 21
155.0
 31
0.0
  0
LINE
  5
5DA0
330
A
100
AcDbEntity
  8
0
  6
Continuous
 62
     7
100
AcDbLine
 10
-9.5
 20
155.0
 30
0.0
 11
45.49999999999999
 21
155.0
 31
0.0
  0
LINE
  5
5DA1
330
A
100
AcDbEntity
  8
0
  6
Continuous
 62
     9
100
AcDbLine
 10
45.49999999999999
 20
151.0
 30
0.0
 11
45.49999999999999
 21
155.0
 31
0.0
  0
LINE
  5
5DA2
330
A
100
AcDbEntity
  8
0
  6
Continuous
 62
     7
100
AcDbLine
 10
-9.5
 20
148.0
 30
0.0
 11
45.49999999999999
 21
148.0
 31
0.0
  0
LINE
  5
5DA3
330
A
100
AcDbEntity
  8
0
  6
Continuous
 62
     9
100
AcDbLine
 10
-9.5
 20
151.0
 30
0.0
 11
-9.5
 21
148.0
 31
0.0
  0
LINE
  5
5DA4
330
A
100
AcDbEntity
  8
0
  6
Continuous
 62
     9
100
AcDbLine
 10
45.49999999999999
 20
148.0
 30
0.0
 11
45.49999999999999
 21
151.0
 31
0.0
  0
LINE
  5
5DA5
330
A
100
AcDbEntity
  8
0
  6
Continuous
 62
     9
100
AcDbLine
 10
53.0
 20
151.0
 30
0.0
 11
45.49999999999999
 21
151.0
 31
0.0
  0
LINE
  5
5DA6
330
A
100
AcDbEntity
  8
0
  6
Continuous
 62
     7
100
AcDbLine
 10
45.49999999999999
 20
155.0
 30
0.0
 11
49.0
 21
155.0
 31
0.0
  0
ARC
  5
5DA7
330
A
100
AcDbEntity
  8
0
  6
Continuous
 62
     7
100
AcDbCircle
 10
49.0
 20
151.0
 30
0.0
 40
4.0
100
AcDbArc
 50
0.0
 51
90.0
  0
LINE
  5
5DA8
330
A
100
AcDbEntity
  8
0
  6
Continuous
 62
     7
100
AcDbLine
 10
-17.0
 20
148.0
 30
0.0
 11
-17.0
 21
151.0
 31
0.0
  0
LINE
  5
5DA9
330
A
100
AcDbEntity
  8
0
  6
Continuous
 62
     9
100
AcDbLine
 10
-9.5
 20
151.0
 30
0.0
 11
-17.0
 21
151.0
 31
0.0
  0
LINE
  5
5DAA
330
A
100
AcDbEntity
  8
0
  6
Continuous
 62
     7
100
AcDbLine
 10
-9.5
 20
148.0
 30
0.0
 11
-17.0
 21
148.0
 31
0.0
  0
LINE
  5
5DAB
330
A
100
AcDbEntity
  8
0
  6
Continuous
 62
     7
100
AcDbLine
 10
53.0
 20
151.0
 30
0.0
 11
53.0
 21
148.0
 31
0.0
  0
LINE
  5
5DAC
330
A
100
AcDbEntity
  8
0
  6
Continuous
 62
     7
100
AcDbLine
 10
53.0
 20
148.0
 30
0.0
 11
45.49999999999999
 21
148.0
 31
0.0
  0
ARC
  5
5DAD
330
A
100
AcDbEntity
  8
0
  6
Continuous
 62
     7
100
AcDbCircle
 10
-13.0
 20
151.0
 30
0.0
 40
4.0
100
AcDbArc
 50
90.0
 51
180.0
  0
LINE
  5
5DAE
330
A
100
AcDbEntity
  8
0
  6
Continuous
 62
     7
100
AcDbLine
 10
-13.0
 20
155.0
 30
0.0
 11
-9.5
 21
155.0
 31
0.0
  0
LINE
  5
5DAF
330
A
100
AcDbEntity
  8
0
  6
Continuous
 62
     7
100
AcDbLine
 10
53.0
 20
137.5
 30
0.0
 11
50.5
 21
137.5
 31
0.0
  0
ARC
  5
5DB0
330
A
100
AcDbEntity
  8
0
  6
Continuous
 62
     7
100
AcDbCircle
 10
40.0
 20
142.5
 30
0.0
 40
4.099999999999996
100
AcDbArc
 50
282.6803829999951
 51
77.31961599999412
  0
ARC
  5
5DB1
330
A
100
AcDbEntity
  8
0
  6
Continuous
 62
     7
100
AcDbCircle
 10
40.0
 20
142.5
 30
0.0
 40
4.099999999999996
100
AcDbArc
 50
102.6803829999951
 51
257.3196159999942
  0
LINE
  5
5DB2
330
A
100
AcDbEntity
  8
0
  6
Continuous
 62
     7
100
AcDbLine
 10
8.875
 20
146.5
 30
0.0
 11
8.875
 21
138.5
 31
0.0
  0
LINE
  5
5DB3
330
A
100
AcDbEntity
  8
0
  6
Continuous
 62
     7
100
AcDbLine
 10
53.0
 20
148.0
 30
0.0
 11
53.0
 21
137.5
 31
0.0
  0
ARC
  5
5DB4
330
A
100
AcDbEntity
  8
0
  6
Continuous
 62
     7
100
AcDbCircle
 10
40.0
 20
142.5
 30
0.0
 40
4.009999999999998
100
AcDbArc
 50
345.6531140000022
 51
357.8640439999974
  0
ARC
  5
5DB5
330
A
100
AcDbEntity
  8
0
  6
Continuous
 62
     7
100
AcDbCircle
 10
40.0
 20
142.5
 30
0.0
 40
4.009999999999998
100
AcDbArc
 50
325.6598669999977
 51
337.8611049999994
  0
ARC
  5
5DB6
330
A
100
AcDbEntity
  8
0
  6
Continuous
 62
     7
100
AcDbCircle
 10
40.0
 20
142.5
 30
0.0
 40
4.009999999999998
100
AcDbArc
 50
305.6468909999982
 51
317.878844999998
  0
ARC
  5
5DB7
330
A
100
AcDbEntity
  8
0
  6
Continuous
 62
     7
100
AcDbCircle
 10
40.0
 20
142.5
 30
0.0
 40
4.009999999999998
100
AcDbArc
 50
285.6531140000003
 51
297.8640439999997
  0
ARC
  5
5DB8
330
A
100
AcDbEntity
  8
0
  6
Continuous
 62
     7
100
AcDbCircle
 10
40.0
 20
142.5
 30
0.0
 40
4.009999999999998
100
AcDbArc
 50
274.0472100000056
 51
277.8611050000063
  0
ARC
  5
5DB9
330
A
100
AcDbEntity
  8
0
  6
Continuous
 62
     7
100
AcDbCircle
 10
40.0
 20
142.5
 30
0.0
 40
4.009999999999998
100
AcDbArc
 50
245.6468910000006
 51
257.8788449999997
  0
ARC
  5
5DBA
330
A
100
AcDbEntity
  8
0
  6
Continuous
 62
     7
100
AcDbCircle
 10
40.0
 20
142.5
 30
0.0
 40
4.009999999999998
100
AcDbArc
 50
225.6531139999947
 51
237.8640439999997
  0
ARC
  5
5DBB
330
A
100
AcDbEntity
  8
0
  6
Continuous
 62
     7
100
AcDbCircle
 10
40.0
 20
142.5
 30
0.0
 40
4.009999999999998
100
AcDbArc
 50
205.6598670000028
 51
217.8611050000024
  0
ARC
  5
5DBC
330
A
100
AcDbEntity
  8
0
  6
Continuous
 62
     7
100
AcDbCircle
 10
40.0
 20
142.5
 30
0.0
 40
4.009999999999998
100
AcDbArc
 50
185.6468909999999
 51
197.8788449999992
  0
ARC
  5
5DBD
330
A
100
AcDbEntity
  8
0
  6
Continuous
 62
     7
100
AcDbCircle
 10
40.0
 20
142.5
 30
0.0
 40
4.009999999999998
100
AcDbArc
 50
165.6531140000022
 51
177.8640439999974
  0
ARC
  5
5DBE
330
A
100
AcDbEntity
  8
0
  6
Continuous
 62
     7
100
AcDbCircle
 10
40.0
 20
142.5
 30
0.0
 40
4.009999999999998
100
AcDbArc
 50
145.6598669999977
 51
157.8611049999994
  0
ARC
  5
5DBF
330
A
100
AcDbEntity
  8
0
  6
Continuous
 62
     7
100
AcDbCircle
 10
40.0
 20
142.5
 30
0.0
 40
4.009999999999998
100
AcDbArc
 50
125.6468909999982
 51
137.8788449999979
  0
ARC
  5
5DC0
330
A
100
AcDbEntity
  8
0
  6
Continuous
 62
     7
100
AcDbCircle
 10
40.0
 20
142.5
 30
0.0
 40
4.009999999999998
100
AcDbArc
 50
105.6531140000003
 51
117.8640439999997
  0
ARC
  5
5DC1
330
A
100
AcDbEntity
  8
0
  6
Continuous
 62
     7
100
AcDbCircle
 10
40.0
 20
142.5
 30
0.0
 40
4.009999999999998
100
AcDbArc
 50
94.04721000000559
 51
97.8611050000063
  0
ARC
  5
5DC2
330
A
100
AcDbEntity
  8
0
  6
Continuous
 62
     7
100
AcDbCircle
 10
40.0
 20
142.5
 30
0.0
 40
4.009999999999998
100
AcDbArc
 50
65.64689100000059
 51
77.87884499999973
  0
ARC
  5
5DC3
330
A
100
AcDbEntity
  8
0
  6
Continuous
 62
     7
100
AcDbCircle
 10
40.0
 20
142.5
 30
0.0
 40
4.009999999999998
100
AcDbArc
 50
45.65311399999468
 51
57.86404399999966
  0
ARC
  5
5DC4
330
A
100
AcDbEntity
  8
0
  6
Continuous
 62
     7
100
AcDbCircle
 10
40.0
 20
142.5
 30
0.0
 40
4.009999999999998
100
AcDbArc
 50
25.65986700000279
 51
37.86110500000243
  0
ARC
  5
5DC5
330
A
100
AcDbEntity
  8
0
  6
Continuous
 62
     7
100
AcDbCircle
 10
40.0
 20
142.5
 30
0.0
 40
4.009999999999998
100
AcDbArc
 50
5.646890999999947
 51
17.87884499999918
  0
ARC
  5
5DC6
330
A
100
AcDbEntity
  8
0
  6
Continuous
 62
     7
100
AcDbCircle
 10
42.00564499999972
 20
131.279162
 30
0.0
 40
6.5
100
AcDbArc
 50
275.130423000001
 51
348.6504450000012
  0
ARC
  5
5DC7
330
A
100
AcDbEntity
  8
0
  6
Continuous
 62
     7
100
AcDbCircle
 10
42.40804899999965
 20
126.797191
 30
0.0
 40
2.0
100
AcDbArc
 50
251.9364990000001
 51
275.130423000001
  0
ARC
  5
5DC8
330
A
100
AcDbEntity
  8
0
  6
Continuous
 62
     7
100
AcDbCircle
 10
40.00500000000011
 20
119.429161
 30
0.0
 40
5.75
100
AcDbArc
 50
71.9364990000001
 51
105.7228069999937
  0
ARC
  5
5DC9
330
A
100
AcDbEntity
  8
0
  6
Continuous
 62
     7
100
AcDbCircle
 10
37.90487699999995
 20
126.8891869999996
 30
0.0
 40
2.0
100
AcDbArc
 50
250.1112589999994
 51
285.7228069999937
  0
ARC
  5
5DCA
330
A
100
AcDbEntity
  8
0
  6
Continuous
 62
     7
100
AcDbCircle
 10
43.00779800000009
 20
140.994512
 30
0.0
 40
17.0
100
AcDbArc
 50
220.2959600000032
 51
250.1112589999994
  0
ARC
  5
5DCB
330
A
100
AcDbEntity
  8
0
  6
Continuous
 62
     7
100
AcDbCircle
 10
43.00779800000009
 20
144.005488
 30
0.0
 40
17.0
100
AcDbArc
 50
109.8887400000008
 51
139.7040399999968
  0
ARC
  5
5DCC
330
A
100
AcDbEntity
  8
0
  6
Continuous
 62
     7
100
AcDbCircle
 10
37.90487699999995
 20
158.110813
 30
0.0
 40
2.0
100
AcDbArc
 50
74.27719300000628
 51
109.8887400000008
  0
ARC
  5
5DCD
330
A
100
AcDbEntity
  8
0
  6
Continuous
 62
     7
100
AcDbCircle
 10
40.00500000000011
 20
165.5708389999997
 30
0.0
 40
5.75
100
AcDbArc
 50
254.2771930000062
 51
288.0635009999998
  0
ARC
  5
5DCE
330
A
100
AcDbEntity
  8
0
  6
Continuous
 62
     7
100
AcDbCircle
 10
42.40804899999965
 20
158.20281
 30
0.0
 40
2.0
100
AcDbArc
 50
84.86957699999903
 51
108.0635009999999
  0
ARC
  5
5DCF
330
A
100
AcDbEntity
  8
0
  6
Continuous
 62
     7
100
AcDbCircle
 10
42.00564499999972
 20
153.7208379999997
 30
0.0
 40
6.5
100
AcDbArc
 50
11.34955400000291
 51
84.86957699999903
  0
ARC
  5
5DD0
330
A
100
AcDbEntity
  8
0
  6
Continuous
 62
     7
100
AcDbCircle
 10
17.97982899999988
 20
130.45
 30
0.0
 40
0.5
100
AcDbArc
 50
270.0
 51
295.8419330000012
  0
ARC
  5
5DD1
330
A
100
AcDbEntity
  8
0
  6
Continuous
 62
     7
100
AcDbCircle
 10
8.020171000000116
 20
130.45
 30
0.0
 40
0.5
100
AcDbArc
 50
244.1580669999988
 51
270.0
  0
ARC
  5
5DD2
330
A
100
AcDbEntity
  8
0
  6
Continuous
 62
     9
100
AcDbCircle
 10
-58.25
 20
60.99999999999988
 30
0.0
 40
2.5
100
AcDbArc
 50
180.0
 51
90.0
  0
ARC
  5
5DD3
330
A
100
AcDbEntity
  8
0
  6
Continuous
 62
     9
100
AcDbCircle
 10
-98.25000000000001
 20
60.99999999999988
 30
0.0
 40
2.5
100
AcDbArc
 50
180.0
 51
90.0
  0
ARC
  5
5DD4
330
A
100
AcDbEntity
  8
0
  6
Continuous
 62
     9
100
AcDbCircle
 10
-58.25
 20
9.0
 30
0.0
 40
2.5
100
AcDbArc
 50
180.0
 51
90.0
  0
ARC
  5
5DD5
330
A
100
AcDbEntity
  8
0
  6
Continuous
 62
     9
100
AcDbCircle
 10
-98.25000000000001
 20
9.0
 30
0.0
 40
2.5
100
AcDbArc
 50
180.0
 51
90.0
  0
CIRCLE
  5
5DD6
330
A
100
AcDbEntity
  8
0
  6
Continuous
 62
     7
100
AcDbCircle
 10
-58.25
 20
60.99999999999988
 30
0.0
 40
1.75
  0
CIRCLE
  5
5DD7
330
A
100
AcDbEntity
  8
0
  6
Continuous
 62
     7
100
AcDbCircle
 10
-98.25000000000001
 20
9.0
 30
0.0
 40
1.75
  0
LINE
  5
5DD8
330
A
100
AcDbEntity
  8
0
  6
Continuous
 62
     7
100
AcDbLine
 10
-72.36602399999992
 20
33.499999
 30
0.0
 11
-73.2320510000002
 21
34.99999900000001
 31
0.0
  0
LINE
  5
5DD9
330
A
100
AcDbEntity
  8
0
  6
Continuous
 62
     7
100
AcDbLine
 10
-70.63397399999985
 20
33.500001
 30
0.0
 11
-72.36602399999992
 21
33.499999
 31
0.0
  0
LINE
  5
5DDA
330
A
100
AcDbEntity
  8
0
  6
Continuous
 62
     7
100
AcDbLine
 10
-69.76794899999982
 20
35.000001
 30
0.0
 11
-70.63397399999985
 21
33.500001
 31
0.0
  0
LINE
  5
5DDB
330
A
100
AcDbEntity
  8
0
  6
Continuous
 62
     7
100
AcDbLine
 10
-70.63397600000008
 20
36.50000099999977
 30
0.0
 11
-69.76794899999982
 21
35.000001
 31
0.0
  0
LINE
  5
5DDC
330
A
100
AcDbEntity
  8
0
  6
Continuous
 62
     7
100
AcDbLine
 10
-72.36602600000015
 20
36.49999899999978
 30
0.0
 11
-70.63397600000008
 21
36.50000099999977
 31
0.0
  0
LINE
  5
5DDD
330
A
100
AcDbEntity
  8
0
  6
Continuous
 62
     7
100
AcDbLine
 10
-73.2320510000002
 20
34.99999900000001
 30
0.0
 11
-72.36602600000015
 21
36.49999899999978
 31
0.0
  0
ARC
  5
5DDE
330
A
100
AcDbEntity
  8
0
  6
Continuous
 62
     7
100
AcDbCircle
 10
-71.5
 20
35.0
 30
0.0
 40
3.5
100
AcDbArc
 50
38.21321099999785
 51
90.00003800000122
  0
ARC
  5
5DDF
330
A
100
AcDbEntity
  8
0
  6
Continuous
 62
     7
100
AcDbCircle
 10
-71.5
 20
35.0
 30
0.0
 40
3.5
100
AcDbArc
 50
37.01646800000169
 51
38.21321099999785
  0
ARC
  5
5DE0
330
A
100
AcDbEntity
  8
0
  6
Continuous
 62
     7
100
AcDbCircle
 10
-71.5
 20
35.0
 30
0.0
 40
3.5
100
AcDbArc
 50
23.36873000000396
 51
37.01646800000169
  0
ARC
  5
5DE1
330
A
100
AcDbEntity
  8
0
  6
Continuous
 62
     7
100
AcDbCircle
 10
-71.5
 20
35.0
 30
0.0
 40
3.5
100
AcDbArc
 50
336.504612
 51
23.36873000000396
  0
ARC
  5
5DE2
330
A
100
AcDbEntity
  8
0
  6
Continuous
 62
     7
100
AcDbCircle
 10
-71.5
 20
35.0
 30
0.0
 40
3.5
100
AcDbArc
 50
323.2261669999995
 51
336.504612
  0
ARC
  5
5DE3
330
A
100
AcDbEntity
  8
0
  6
Continuous
 62
     7
100
AcDbCircle
 10
-71.5
 20
35.0
 30
0.0
 40
3.5
100
AcDbArc
 50
321.7867890000022
 51
323.2261669999995
  0
ARC
  5
5DE4
330
A
100
AcDbEntity
  8
0
  6
Continuous
 62
     7
100
AcDbCircle
 10
-71.5
 20
35.0
 30
0.0
 40
3.5
100
AcDbArc
 50
90.00003800000122
 51
321.7867890000022
  0
LINE
  5
5DE5
330
A
100
AcDbEntity
  8
0
  6
Continuous
 62
     7
100
AcDbLine
 10
-85.86602399999994
 20
33.499999
 30
0.0
 11
-86.7320510000002
 21
34.99999900000001
 31
0.0
  0
LINE
  5
5DE6
330
A
100
AcDbEntity
  8
0
  6
Continuous
 62
     7
100
AcDbLine
 10
-84.13397399999984
 20
33.500001
 30
0.0
 11
-85.86602399999994
 21
33.499999
 31
0.0
  0
LINE
  5
5DE7
330
A
100
AcDbEntity
  8
0
  6
Continuous
 62
     7
100
AcDbLine
 10
-83.26794899999979
 20
35.000001
 30
0.0
 11
-84.13397399999984
 21
33.500001
 31
0.0
  0
LINE
  5
5DE8
330
A
100
AcDbEntity
  8
0
  6
Continuous
 62
     7
100
AcDbLine
 10
-84.13397600000008
 20
36.50000099999977
 30
0.0
 11
-83.26794899999979
 21
35.000001
 31
0.0
  0
LINE
  5
5DE9
330
A
100
AcDbEntity
  8
0
  6
Continuous
 62
     7
100
AcDbLine
 10
-85.86602600000015
 20
36.49999899999978
 30
0.0
 11
-84.13397600000008
 21
36.50000099999977
 31
0.0
  0
LINE
  5
5DEA
330
A
100
AcDbEntity
  8
0
  6
Continuous
 62
     7
100
AcDbLine
 10
-86.7320510000002
 20
34.99999900000001
 30
0.0
 11
-85.86602600000015
 21
36.49999899999978
 31
0.0
  0
ARC
  5
5DEB
330
A
100
AcDbEntity
  8
0
  6
Continuous
 62
     7
100
AcDbCircle
 10
-85.0
 20
35.0
 30
0.0
 40
3.5
100
AcDbArc
 50
218.2132109999979
 51
90.00003800000122
  0
ARC
  5
5DEC
330
A
100
AcDbEntity
  8
0
  6
Continuous
 62
     7
100
AcDbCircle
 10
-85.0
 20
35.0
 30
0.0
 40
3.5
100
AcDbArc
 50
217.0164719999995
 51
218.2132109999979
  0
ARC
  5
5DED
330
A
100
AcDbEntity
  8
0
  6
Continuous
 62
     7
100
AcDbCircle
 10
-85.0
 20
35.0
 30
0.0
 40
3.5
100
AcDbArc
 50
203.3687259999974
 51
217.0164719999995
  0
ARC
  5
5DEE
330
A
100
AcDbEntity
  8
0
  6
Continuous
 62
     7
100
AcDbCircle
 10
-85.0
 20
35.0
 30
0.0
 40
3.5
100
AcDbArc
 50
143.2261650000016
 51
156.5046189999987
  0
ARC
  5
5DEF
330
A
100
AcDbEntity
  8
0
  6
Continuous
 62
     7
100
AcDbCircle
 10
-85.0
 20
35.0
 30
0.0
 40
3.5
100
AcDbArc
 50
141.7867890000021
 51
143.2261650000016
  0
ARC
  5
5DF0
330
A
100
AcDbEntity
  8
0
  6
Continuous
 62
     7
100
AcDbCircle
 10
-85.0
 20
35.0
 30
0.0
 40
3.5
100
AcDbArc
 50
90.00003800000122
 51
141.7867890000021
  0
LINE
  5
5DF1
330
A
100
AcDbEntity
  8
0
  6
Continuous
 62
     9
100
AcDbLine
 10
-83.75
 20
77.99999999999975
 30
0.0
 11
-83.25000000000001
 21
77.99999999999975
 31
0.0
  0
LINE
  5
5DF2
330
A
100
AcDbEntity
  8
0
  6
Continuous
 62
     9
100
AcDbLine
 10
-83.25000000000001
 20
77.99999999999975
 30
0.0
 11
-82.24999999999999
 21
77.99999999999975
 31
0.0
  0
LINE
  5
5DF3
330
A
100
AcDbEntity
  8
0
  6
Continuous
 62
     7
100
AcDbLine
 10
-83.75
 20
83.49999999999999
 30
0.0
 11
-83.25000000000001
 21
83.49999999999999
 31
0.0
  0
LINE
  5
5DF4
330
A
100
AcDbEntity
  8
0
  6
Continuous
 62
     7
100
AcDbLine
 10
-83.25000000000001
 20
83.49999999999999
 30
0.0
 11
-82.24999999999999
 21
83.49999999999999
 31
0.0
  0
LINE
  5
5DF5
330
A
100
AcDbEntity
  8
0
  6
Continuous
 62
     7
100
AcDbLine
 10
-82.24999999999999
 20
83.49999999999999
 30
0.0
 11
-82.24999999999999
 21
77.99999999999975
 31
0.0
  0
LINE
  5
5DF6
330
A
100
AcDbEntity
  8
0
  6
Continuous
 62
     7
100
AcDbLine
 10
-82.24999999999999
 20
77.99999999999975
 30
0.0
 11
-82.24999999999999
 21
77.5
 31
0.0
  0
LINE
  5
5DF7
330
A
100
AcDbEntity
  8
0
  6
Continuous
 62
     9
100
AcDbLine
 10
-83.75
 20
-8.0
 30
0.0
 11
-83.25000000000001
 21
-8.0
 31
0.0
  0
LINE
  5
5DF8
330
A
100
AcDbEntity
  8
0
  6
Continuous
 62
     9
100
AcDbLine
 10
-83.25000000000001
 20
-8.0
 30
0.0
 11
-82.24999999999999
 21
-8.0
 31
0.0
  0
LINE
  5
5DF9
330
A
100
AcDbEntity
  8
0
  6
Continuous
 62
     7
100
AcDbLine
 10
-82.24999999999999
 20
-7.5
 30
0.0
 11
-82.24999999999999
 21
-8.0
 31
0.0
  0
LINE
  5
5DFA
330
A
100
AcDbEntity
  8
0
  6
Continuous
 62
     7
100
AcDbLine
 10
-83.75
 20
-13.5
 30
0.0
 11
-83.25000000000001
 21
-13.5
 31
0.0
  0
LINE
  5
5DFB
330
A
100
AcDbEntity
  8
0
  6
Continuous
 62
     7
100
AcDbLine
 10
-83.25000000000001
 20
-13.5
 30
0.0
 11
-82.24999999999999
 21
-13.5
 31
0.0
  0
LINE
  5
5DFC
330
A
100
AcDbEntity
  8
0
  6
Continuous
 62
     7
100
AcDbLine
 10
-82.24999999999999
 20
-8.0
 30
0.0
 11
-82.24999999999999
 21
-13.5
 31
0.0
  0
LINE
  5
5DFD
330
A
100
AcDbEntity
  8
0
  6
Continuous
 62
     7
100
AcDbLine
 10
-72.75
 20
83.49999999999999
 30
0.0
 11
-73.25
 21
83.49999999999999
 31
0.0
  0
LINE
  5
5DFE
330
A
100
AcDbEntity
  8
0
  6
Continuous
 62
     7
100
AcDbLine
 10
-73.25
 20
83.49999999999999
 30
0.0
 11
-74.25
 21
83.49999999999999
 31
0.0
  0
LINE
  5
5DFF
330
A
100
AcDbEntity
  8
0
  6
Continuous
 62
     9
100
AcDbLine
 10
-72.75
 20
77.99999999999975
 30
0.0
 11
-73.25
 21
77.99999999999975
 31
0.0
  0
LINE
  5
5E00
330
A
100
AcDbEntity
  8
0
  6
Continuous
 62
     9
100
AcDbLine
 10
-73.25
 20
77.99999999999975
 30
0.0
 11
-74.25
 21
77.99999999999975
 31
0.0
  0
LINE
  5
5E01
330
A
100
AcDbEntity
  8
0
  6
Continuous
 62
     7
100
AcDbLine
 10
-74.25
 20
77.99999999999975
 30
0.0
 11
-74.25
 21
83.49999999999999
 31
0.0
  0
LINE
  5
5E02
330
A
100
AcDbEntity
  8
0
  6
Continuous
 62
     7
100
AcDbLine
 10
-74.25
 20
77.5
 30
0.0
 11
-74.25
 21
77.99999999999975
 31
0.0
  0
LINE
  5
5E03
330
A
100
AcDbEntity
  8
0
  6
Continuous
 62
     9
100
AcDbLine
 10
-72.75
 20
-8.0
 30
0.0
 11
-73.25
 21
-8.0
 31
0.0
  0
LINE
  5
5E04
330
A
100
AcDbEntity
  8
0
  6
Continuous
 62
     9
100
AcDbLine
 10
-73.25
 20
-8.0
 30
0.0
 11
-74.25
 21
-8.0
 31
0.0
  0
LINE
  5
5E05
330
A
100
AcDbEntity
  8
0
  6
Continuous
 62
     7
100
AcDbLine
 10
-74.25
 20
-8.0
 30
0.0
 11
-74.25
 21
-7.5
 31
0.0
  0
LINE
  5
5E06
330
A
100
AcDbEntity
  8
0
  6
Continuous
 62
     7
100
AcDbLine
 10
-72.75
 20
-13.5
 30
0.0
 11
-73.25
 21
-13.5
 31
0.0
  0
LINE
  5
5E07
330
A
100
AcDbEntity
  8
0
  6
Continuous
 62
     7
100
AcDbLine
 10
-73.25
 20
-13.5
 30
0.0
 11
-74.25
 21
-13.5
 31
0.0
  0
LINE
  5
5E08
330
A
100
AcDbEntity
  8
0
  6
Continuous
 62
     7
100
AcDbLine
 10
-74.25
 20
-13.5
 30
0.0
 11
-74.25
 21
-8.0
 31
0.0
  0
LINE
  5
5E09
330
A
100
AcDbEntity
  8
0
  6
Continuous
 62
     7
100
AcDbLine
 10
-72.75
 20
85.0
 30
0.0
 11
-72.75
 21
77.5
 31
0.0
  0
LINE
  5
5E0A
330
A
100
AcDbEntity
  8
0
  6
Continuous
 62
     7
100
AcDbLine
 10
-69.75
 20
85.0
 30
0.0
 11
-72.75
 21
85.0
 31
0.0
  0
LINE
  5
5E0B
330
A
100
AcDbEntity
  8
0
  6
Continuous
 62
     9
100
AcDbLine
 10
-69.75
 20
77.5
 30
0.0
 11
-69.75
 21
85.0
 31
0.0
  0
LINE
  5
5E0C
330
A
100
AcDbEntity
  8
0
  6
Continuous
 62
     9
100
AcDbLine
 10
-69.75
 20
-15.0
 30
0.0
 11
-69.75
 21
-7.5
 31
0.0
  0
LINE
  5
5E0D
330
A
100
AcDbEntity
  8
0
  6
Continuous
 62
     7
100
AcDbLine
 10
-69.75
 20
-15.0
 30
0.0
 11
-72.75
 21
-15.0
 31
0.0
  0
LINE
  5
5E0E
330
A
100
AcDbEntity
  8
0
  6
Continuous
 62
     7
100
AcDbLine
 10
-72.75
 20
-7.5
 30
0.0
 11
-72.75
 21
-15.0
 31
0.0
  0
ARC
  5
5E0F
330
A
100
AcDbEntity
  8
0
  6
Continuous
 62
     7
100
AcDbCircle
 10
-69.75
 20
81.0
 30
0.0
 40
4.0
100
AcDbArc
 50
0.0
 51
90.0
  0
LINE
  5
5E10
330
A
100
AcDbEntity
  8
0
  6
Continuous
 62
     7
100
AcDbLine
 10
-65.75
 20
81.0
 30
0.0
 11
-65.75
 21
77.5
 31
0.0
  0
LINE
  5
5E11
330
A
100
AcDbEntity
  8
0
  6
Continuous
 62
     7
100
AcDbLine
 10
-65.75
 20
-7.5
 30
0.0
 11
-65.75
 21
-11.0
 31
0.0
  0
ARC
  5
5E12
330
A
100
AcDbEntity
  8
0
  6
Continuous
 62
     7
100
AcDbCircle
 10
-69.75
 20
-11.0
 30
0.0
 40
4.0
100
AcDbArc
 50
270.0
 51
0.0
  0
LINE
  5
5E13
330
A
100
AcDbEntity
  8
0
  6
Continuous
 62
     7
100
AcDbLine
 10
-88.25000000000001
 20
-7.5
 30
0.0
 11
-105.75
 21
-7.5
 31
0.0
  0
LINE
  5
5E14
330
A
100
AcDbEntity
  8
0
  6
Continuous
 62
     7
100
AcDbLine
 10
-105.75
 20
-7.5
 30
0.0
 11
-105.75
 21
77.5
 31
0.0
  0
LINE
  5
5E15
330
A
100
AcDbEntity
  8
0
  6
Continuous
 62
     7
100
AcDbLine
 10
-88.25000000000001
 20
77.5
 30
0.0
 11
-105.75
 21
77.5
 31
0.0
  0
LINE
  5
5E16
330
A
100
AcDbEntity
  8
0
  6
Continuous
 62
     7
100
AcDbLine
 10
-88.25000000000001
 20
36.29903799999977
 30
0.0
 11
-88.25000000000001
 21
77.5
 31
0.0
  0
ARC
  5
5E17
330
A
100
AcDbEntity
  8
0
  6
Continuous
 62
     7
100
AcDbCircle
 10
-85.0
 20
35.0
 30
0.0
 40
3.5
100
AcDbArc
 50
158.2132109999992
 51
201.7867890000007
  0
LINE
  5
5E18
330
A
100
AcDbEntity
  8
0
  6
Continuous
 62
     7
100
AcDbLine
 10
-88.25000000000001
 20
-7.5
 30
0.0
 11
-88.25000000000001
 21
33.70096200000001
 31
0.0
  0
CIRCLE
  5
5E19
330
A
100
AcDbEntity
  8
0
  6
Continuous
 62
     7
100
AcDbCircle
 10
-98.25000000000001
 20
0.0
 30
0.0
 40
2.649999999999999
  0
CIRCLE
  5
5E1A
330
A
100
AcDbEntity
  8
0
  6
Continuous
 62
     7
100
AcDbCircle
 10
-98.25000000000001
 20
69.99999999999977
 30
0.0
 40
2.649999999999999
  0
CIRCLE
  5
5E1B
330
A
100
AcDbEntity
  8
0
  6
Continuous
 62
     7
100
AcDbCircle
 10
-98.25000000000001
 20
9.0
 30
0.0
 40
2.1
  0
CIRCLE
  5
5E1C
330
A
100
AcDbEntity
  8
0
  6
Continuous
 62
     7
100
AcDbCircle
 10
-98.25000000000001
 20
60.99999999999988
 30
0.0
 40
2.1
  0
LINE
  5
5E1D
330
A
100
AcDbEntity
  8
0
  6
Continuous
 62
     7
100
AcDbLine
 10
-87.75
 20
-7.5
 30
0.0
 11
-87.75
 21
32.8349360000002
 31
0.0
  0
ARC
  5
5E1E
330
A
100
AcDbEntity
  8
0
  6
Continuous
 62
     7
100
AcDbCircle
 10
-85.0
 20
35.0
 30
0.0
 40
3.5
100
AcDbArc
 50
217.0163229999977
 51
218.2132109999979
  0
ARC
  5
5E1F
330
A
100
AcDbEntity
  8
0
  6
Continuous
 62
     7
100
AcDbCircle
 10
-85.0
 20
35.0
 30
0.0
 40
3.5
100
AcDbArc
 50
203.3688770000009
 51
217.0163229999977
  0
ARC
  5
5E20
330
A
100
AcDbEntity
  8
0
  6
Continuous
 62
     7
100
AcDbCircle
 10
-85.0
 20
35.0
 30
0.0
 40
3.5
100
AcDbArc
 50
201.7867890000007
 51
203.3688770000009
  0
LINE
  5
5E21
330
A
100
AcDbEntity
  8
0
  6
Continuous
 62
     7
100
AcDbLine
 10
-87.75
 20
-7.5
 30
0.0
 11
-88.25000000000001
 21
-7.5
 31
0.0
  0
LINE
  5
5E22
330
A
100
AcDbEntity
  8
0
  6
Continuous
 62
     7
100
AcDbLine
 10
-87.75
 20
37.16506399999982
 30
0.0
 11
-87.75
 21
77.5
 31
0.0
  0
ARC
  5
5E23
330
A
100
AcDbEntity
  8
0
  6
Continuous
 62
     7
100
AcDbCircle
 10
-85.0
 20
35.0
 30
0.0
 40
3.5
100
AcDbArc
 50
156.5045540000033
 51
158.2132109999992
  0
ARC
  5
5E24
330
A
100
AcDbEntity
  8
0
  6
Continuous
 62
     7
100
AcDbCircle
 10
-85.0
 20
35.0
 30
0.0
 40
3.5
100
AcDbArc
 50
143.2263920000055
 51
156.5045540000033
  0
ARC
  5
5E25
330
A
100
AcDbEntity
  8
0
  6
Continuous
 62
     7
100
AcDbCircle
 10
-85.0
 20
35.0
 30
0.0
 40
3.5
100
AcDbArc
 50
141.7867890000021
 51
143.2263920000055
  0
LINE
  5
5E26
330
A
100
AcDbEntity
  8
0
  6
Continuous
 62
     7
100
AcDbLine
 10
-87.75
 20
77.5
 30
0.0
 11
-88.25000000000001
 21
77.5
 31
0.0
  0
LINE
  5
5E27
330
A
100
AcDbEntity
  8
0
  6
Continuous
 62
     7
100
AcDbLine
 10
-68.25
 20
36.29903799999977
 30
0.0
 11
-68.25
 21
77.5
 31
0.0
  0
LINE
  5
5E28
330
A
100
AcDbEntity
  8
0
  6
Continuous
 62
     7
100
AcDbLine
 10
-68.75
 20
37.16506399999982
 30
0.0
 11
-68.75
 21
77.5
 31
0.0
  0
ARC
  5
5E29
330
A
100
AcDbEntity
  8
0
  6
Continuous
 62
     7
100
AcDbCircle
 10
-71.5
 20
35.0
 30
0.0
 40
3.5
100
AcDbArc
 50
37.0163189999999
 51
38.21321099999785
  0
ARC
  5
5E2A
330
A
100
AcDbEntity
  8
0
  6
Continuous
 62
     7
100
AcDbCircle
 10
-71.5
 20
35.0
 30
0.0
 40
3.5
100
AcDbArc
 50
23.36888100000163
 51
37.0163189999999
  0
ARC
  5
5E2B
330
A
100
AcDbEntity
  8
0
  6
Continuous
 62
     7
100
AcDbCircle
 10
-71.5
 20
35.0
 30
0.0
 40
3.5
100
AcDbArc
 50
21.78678900000073
 51
23.36888100000163
  0
LINE
  5
5E2C
330
A
100
AcDbEntity
  8
0
  6
Continuous
 62
     7
100
AcDbLine
 10
-68.25
 20
77.5
 30
0.0
 11
-68.75
 21
77.5
 31
0.0
  0
LINE
  5
5E2D
330
A
100
AcDbEntity
  8
0
  6
Continuous
 62
     7
100
AcDbLine
 10
-68.75
 20
-7.5
 30
0.0
 11
-68.75
 21
32.8349360000002
 31
0.0
  0
LINE
  5
5E2E
330
A
100
AcDbEntity
  8
0
  6
Continuous
 62
     7
100
AcDbLine
 10
-68.25
 20
-7.5
 30
0.0
 11
-68.25
 21
33.70096200000001
 31
0.0
  0
ARC
  5
5E2F
330
A
100
AcDbEntity
  8
0
  6
Continuous
 62
     7
100
AcDbCircle
 10
-71.5
 20
35.0
 30
0.0
 40
3.5
100
AcDbArc
 50
336.5045469999993
 51
338.2132109999993
  0
ARC
  5
5E30
330
A
100
AcDbEntity
  8
0
  6
Continuous
 62
     7
100
AcDbCircle
 10
-71.5
 20
35.0
 30
0.0
 40
3.5
100
AcDbArc
 50
323.2263940000034
 51
336.5045469999993
  0
ARC
  5
5E31
330
A
100
AcDbEntity
  8
0
  6
Continuous
 62
     7
100
AcDbCircle
 10
-71.5
 20
35.0
 30
0.0
 40
3.5
100
AcDbArc
 50
321.7867890000022
 51
323.2263940000034
  0
LINE
  5
5E32
330
A
100
AcDbEntity
  8
0
  6
Continuous
 62
     7
100
AcDbLine
 10
-68.25
 20
-7.5
 30
0.0
 11
-68.75
 21
-7.5
 31
0.0
  0
LINE
  5
5E33
330
A
100
AcDbEntity
  8
0
  6
Continuous
 62
     7
100
AcDbLine
 10
-50.75
 20
-7.5
 30
0.0
 11
-50.75
 21
77.5
 31
0.0
  0
CIRCLE
  5
5E34
330
A
100
AcDbEntity
  8
0
  6
Continuous
 62
     7
100
AcDbCircle
 10
-58.25
 20
0.0
 30
0.0
 40
2.649999999999999
  0
CIRCLE
  5
5E35
330
A
100
AcDbEntity
  8
0
  6
Continuous
 62
     7
100
AcDbCircle
 10
-58.25
 20
69.99999999999977
 30
0.0
 40
2.649999999999999
  0
CIRCLE
  5
5E36
330
A
100
AcDbEntity
  8
0
  6
Continuous
 62
     7
100
AcDbCircle
 10
-58.25
 20
9.0
 30
0.0
 40
2.1
  0
CIRCLE
  5
5E37
330
A
100
AcDbEntity
  8
0
  6
Continuous
 62
     7
100
AcDbCircle
 10
-58.25
 20
60.99999999999988
 30
0.0
 40
2.1
  0
ARC
  5
5E38
330
A
100
AcDbEntity
  8
0
  6
Continuous
 62
     7
100
AcDbCircle
 10
-71.5
 20
35.0
 30
0.0
 40
3.5
100
AcDbArc
 50
338.2132109999993
 51
21.78678900000073
  0
LINE
  5
5E39
330
A
100
AcDbEntity
  8
0
  6
Continuous
 62
     7
100
AcDbLine
 10
-50.75
 20
77.5
 30
0.0
 11
-68.25
 21
77.5
 31
0.0
  0
LINE
  5
5E3A
330
A
100
AcDbEntity
  8
0
  6
Continuous
 62
     7
100
AcDbLine
 10
-50.75
 20
-7.5
 30
0.0
 11
-68.25
 21
-7.5
 31
0.0
  0
ARC
  5
5E3B
330
A
100
AcDbEntity
  8
0
  6
Continuous
 62
     7
100
AcDbCircle
 10
-71.5
 20
35.0
 30
0.0
 40
3.5
100
AcDbArc
 50
90.00003800000122
 51
321.7867890000022
  0
ARC
  5
5E3C
330
A
100
AcDbEntity
  8
0
  6
Continuous
 62
     7
100
AcDbCircle
 10
-71.5
 20
35.0
 30
0.0
 40
3.5
100
AcDbArc
 50
38.21321099999785
 51
90.00003800000122
  0
ARC
  5
5E3D
330
A
100
AcDbEntity
  8
0
  6
Continuous
 62
     7
100
AcDbCircle
 10
-85.0
 20
35.0
 30
0.0
 40
3.5
100
AcDbArc
 50
90.00003800000122
 51
141.7867890000021
  0
ARC
  5
5E3E
330
A
100
AcDbEntity
  8
0
  6
Continuous
 62
     7
100
AcDbCircle
 10
-85.0
 20
35.0
 30
0.0
 40
3.5
100
AcDbArc
 50
218.2132109999979
 51
90.00003800000122
  0
LINE
  5
5E3F
330
A
100
AcDbEntity
  8
0
  6
Continuous
 62
     7
100
AcDbLine
 10
-68.75
 20
77.5
 30
0.0
 11
-87.75
 21
77.5
 31
0.0
  0
LINE
  5
5E40
330
A
100
AcDbEntity
  8
0
  6
Continuous
 62
     7
100
AcDbLine
 10
-68.75
 20
-7.5
 30
0.0
 11
-87.75
 21
-7.5
 31
0.0
  0
LINE
  5
5E41
330
A
100
AcDbEntity
  8
0
  6
Continuous
 62
     9
100
AcDbLine
 10
-72.75
 20
-8.0
 30
0.0
 11
-73.25
 21
-8.0
 31
0.0
  0
LINE
  5
5E42
330
A
100
AcDbEntity
  8
0
  6
Continuous
 62
     7
100
AcDbLine
 10
-73.25
 20
-8.0
 30
0.0
 11
-73.25
 21
-7.5
 31
0.0
  0
LINE
  5
5E43
330
A
100
AcDbEntity
  8
0
  6
Continuous
 62
     7
100
AcDbLine
 10
-72.75
 20
83.49999999999999
 30
0.0
 11
-73.25
 21
83.49999999999999
 31
0.0
  0
LINE
  5
5E44
330
A
100
AcDbEntity
  8
0
  6
Continuous
 62
     9
100
AcDbLine
 10
-72.75
 20
77.99999999999975
 30
0.0
 11
-73.25
 21
77.99999999999975
 31
0.0
  0
LINE
  5
5E45
330
A
100
AcDbEntity
  8
0
  6
Continuous
 62
     7
100
AcDbLine
 10
-73.25
 20
77.99999999999975
 30
0.0
 11
-73.25
 21
83.49999999999999
 31
0.0
  0
LINE
  5
5E46
330
A
100
AcDbEntity
  8
0
  6
Continuous
 62
     7
100
AcDbLine
 10
-72.75
 20
-13.5
 30
0.0
 11
-73.25
 21
-13.5
 31
0.0
  0
LINE
  5
5E47
330
A
100
AcDbEntity
  8
0
  6
Continuous
 62
     7
100
AcDbLine
 10
-73.25
 20
-13.5
 30
0.0
 11
-73.25
 21
-8.0
 31
0.0
  0
LINE
  5
5E48
330
A
100
AcDbEntity
  8
0
  6
Continuous
 62
     7
100
AcDbLine
 10
-73.25
 20
77.5
 30
0.0
 11
-73.25
 21
77.99999999999975
 31
0.0
  0
LINE
  5
5E49
330
A
100
AcDbEntity
  8
0
  6
Continuous
 62
     9
100
AcDbLine
 10
-83.75
 20
-8.0
 30
0.0
 11
-83.25000000000001
 21
-8.0
 31
0.0
  0
LINE
  5
5E4A
330
A
100
AcDbEntity
  8
0
  6
Continuous
 62
     7
100
AcDbLine
 10
-83.25000000000001
 20
-7.5
 30
0.0
 11
-83.25000000000001
 21
-8.0
 31
0.0
  0
LINE
  5
5E4B
330
A
100
AcDbEntity
  8
0
  6
Continuous
 62
     7
100
AcDbLine
 10
-83.75
 20
-13.5
 30
0.0
 11
-83.25000000000001
 21
-13.5
 31
0.0
  0
LINE
  5
5E4C
330
A
100
AcDbEntity
  8
0
  6
Continuous
 62
     7
100
AcDbLine
 10
-83.25000000000001
 20
-8.0
 30
0.0
 11
-83.25000000000001
 21
-13.5
 31
0.0
  0
LINE
  5
5E4D
330
A
100
AcDbEntity
  8
0
  6
Continuous
 62
     9
100
AcDbLine
 10
-83.75
 20
77.99999999999975
 30
0.0
 11
-83.25000000000001
 21
77.99999999999975
 31
0.0
  0
LINE
  5
5E4E
330
A
100
AcDbEntity
  8
0
  6
Continuous
 62
     7
100
AcDbLine
 10
-83.25000000000001
 20
77.99999999999975
 30
0.0
 11
-83.25000000000001
 21
77.5
 31
0.0
  0
LINE
  5
5E4F
330
A
100
AcDbEntity
  8
0
  6
Continuous
 62
     7
100
AcDbLine
 10
-83.75
 20
83.49999999999999
 30
0.0
 11
-83.25000000000001
 21
83.49999999999999
 31
0.0
  0
LINE
  5
5E50
330
A
100
AcDbEntity
  8
0
  6
Continuous
 62
     7
100
AcDbLine
 10
-83.25000000000001
 20
83.49999999999999
 30
0.0
 11
-83.25000000000001
 21
77.99999999999975
 31
0.0
  0
LINE
  5
5E51
330
A
100
AcDbEntity
  8
0
  6
Continuous
 62
     9
100
AcDbLine
 10
-86.75
 20
-7.5
 30
0.0
 11
-86.75
 21
-15.0
 31
0.0
  0
ARC
  5
5E52
330
A
100
AcDbEntity
  8
0
  6
Continuous
 62
     7
100
AcDbCircle
 10
-86.75
 20
-11.0
 30
0.0
 40
4.0
100
AcDbArc
 50
180.0
 51
270.0
  0
LINE
  5
5E53
330
A
100
AcDbEntity
  8
0
  6
Continuous
 62
     7
100
AcDbLine
 10
-90.75000000000001
 20
-11.0
 30
0.0
 11
-90.75000000000001
 21
-7.5
 31
0.0
  0
LINE
  5
5E54
330
A
100
AcDbEntity
  8
0
  6
Continuous
 62
     7
100
AcDbLine
 10
-90.75000000000001
 20
77.5
 30
0.0
 11
-90.75000000000001
 21
81.0
 31
0.0
  0
ARC
  5
5E55
330
A
100
AcDbEntity
  8
0
  6
Continuous
 62
     7
100
AcDbCircle
 10
-86.75
 20
81.0
 30
0.0
 40
4.0
100
AcDbArc
 50
90.0
 51
180.0
  0
LINE
  5
5E56
330
A
100
AcDbEntity
  8
0
  6
Continuous
 62
     9
100
AcDbLine
 10
-86.75
 20
85.0
 30
0.0
 11
-86.75
 21
77.5
 31
0.0
  0
LINE
  5
5E57
330
A
100
AcDbEntity
  8
0
  6
Continuous
 62
     7
100
AcDbLine
 10
-83.75
 20
-7.5
 30
0.0
 11
-83.75
 21
-15.0
 31
0.0
  0
LINE
  5
5E58
330
A
100
AcDbEntity
  8
0
  6
Continuous
 62
     7
100
AcDbLine
 10
-83.75
 20
-15.0
 30
0.0
 11
-86.75
 21
-15.0
 31
0.0
  0
LINE
  5
5E59
330
A
100
AcDbEntity
  8
0
  6
Continuous
 62
     7
100
AcDbLine
 10
-83.75
 20
85.0
 30
0.0
 11
-83.75
 21
77.5
 31
0.0
  0
LINE
  5
5E5A
330
A
100
AcDbEntity
  8
0
  6
Continuous
 62
     7
100
AcDbLine
 10
-86.75
 20
85.0
 30
0.0
 11
-83.75
 21
85.0
 31
0.0
  0
ARC
  5
5E5B
330
A
100
AcDbEntity
  8
0
  6
Continuous
 62
     7
100
AcDbCircle
 10
106.75
 20
60.99999999999988
 30
0.0
 40
2.1
100
AcDbArc
 50
90.00001899999409
 51
270.0000380000012
  0
ARC
  5
5E5C
330
A
100
AcDbEntity
  8
0
  6
Continuous
 62
     7
100
AcDbCircle
 10
106.75
 20
60.99999999999988
 30
0.0
 40
2.1
100
AcDbArc
 50
88.49761099999815
 51
90.00001899999409
  0
ARC
  5
5E5D
330
A
100
AcDbEntity
  8
0
  6
Continuous
 62
     7
100
AcDbCircle
 10
106.75
 20
60.99999999999988
 30
0.0
 40
2.1
100
AcDbArc
 50
1.407002000003011
 51
88.49761099999815
  0
ARC
  5
5E5E
330
A
100
AcDbEntity
  8
0
  6
Continuous
 62
     7
100
AcDbCircle
 10
106.75
 20
60.99999999999988
 30
0.0
 40
2.1
100
AcDbArc
 50
0.0000380000012189
 51
1.407002000003011
  0
ARC
  5
5E5F
330
A
100
AcDbEntity
  8
0
  6
Continuous
 62
     7
100
AcDbCircle
 10
146.75
 20
9.0
 30
0.0
 40
2.1
100
AcDbArc
 50
90.00001899999409
 51
270.0000380000012
  0
ARC
  5
5E60
330
A
100
AcDbEntity
  8
0
  6
Continuous
 62
     7
100
AcDbCircle
 10
146.75
 20
9.0
 30
0.0
 40
2.1
100
AcDbArc
 50
88.49690200000344
 51
90.00001899999409
  0
ARC
  5
5E61
330
A
100
AcDbEntity
  8
0
  6
Continuous
 62
     7
100
AcDbCircle
 10
146.75
 20
9.0
 30
0.0
 40
2.1
100
AcDbArc
 50
1.407314000003142
 51
88.49690200000344
  0
ARC
  5
5E62
330
A
100
AcDbEntity
  8
0
  6
Continuous
 62
     7
100
AcDbCircle
 10
146.75
 20
9.0
 30
0.0
 40
2.1
100
AcDbArc
 50
0.0000380000012189
 51
1.407314000003142
  0
ARC
  5
5E63
330
A
100
AcDbEntity
  8
0
  6
Continuous
 62
     9
100
AcDbCircle
 10
106.75
 20
60.99999999999988
 30
0.0
 40
2.5
100
AcDbArc
 50
90.0
 51
270.0000189999941
  0
ARC
  5
5E64
330
A
100
AcDbEntity
  8
0
  6
Continuous
 62
     9
100
AcDbCircle
 10
106.75
 20
60.99999999999988
 30
0.0
 40
2.5
100
AcDbArc
 50
270.0000189999941
 51
271.4979139999985
  0
ARC
  5
5E65
330
A
100
AcDbEntity
  8
0
  6
Continuous
 62
     9
100
AcDbCircle
 10
106.75
 20
60.99999999999988
 30
0.0
 40
2.5
100
AcDbArc
 50
271.4979139999985
 51
358.4205229999978
  0
ARC
  5
5E66
330
A
100
AcDbEntity
  8
0
  6
Continuous
 62
     9
100
AcDbCircle
 10
106.75
 20
60.99999999999988
 30
0.0
 40
2.5
100
AcDbArc
 50
358.4205229999978
 51
0.0
  0
ARC
  5
5E67
330
A
100
AcDbEntity
  8
0
  6
Continuous
 62
     9
100
AcDbCircle
 10
146.75
 20
60.99999999999988
 30
0.0
 40
2.5
100
AcDbArc
 50
90.0
 51
0.0
  0
ARC
  5
5E68
330
A
100
AcDbEntity
  8
0
  6
Continuous
 62
     9
100
AcDbCircle
 10
106.75
 20
9.0
 30
0.0
 40
2.5
100
AcDbArc
 50
90.0
 51
0.0
  0
ARC
  5
5E69
330
A
100
AcDbEntity
  8
0
  6
Continuous
 62
     9
100
AcDbCircle
 10
146.75
 20
9.0
 30
0.0
 40
2.5
100
AcDbArc
 50
90.0
 51
270.0000189999941
  0
ARC
  5
5E6A
330
A
100
AcDbEntity
  8
0
  6
Continuous
 62
     9
100
AcDbCircle
 10
146.75
 20
9.0
 30
0.0
 40
2.5
100
AcDbArc
 50
270.0000189999941
 51
271.4985239999986
  0
ARC
  5
5E6B
330
A
100
AcDbEntity
  8
0
  6
Continuous
 62
     9
100
AcDbCircle
 10
146.75
 20
9.0
 30
0.0
 40
2.5
100
AcDbArc
 50
271.4985239999986
 51
358.4208169999985
  0
ARC
  5
5E6C
330
A
100
AcDbEntity
  8
0
  6
Continuous
 62
     9
100
AcDbCircle
 10
146.75
 20
9.0
 30
0.0
 40
2.5
100
AcDbArc
 50
358.4208169999985
 51
0.0
  0
CIRCLE
  5
5E6D
330
A
100
AcDbEntity
  8
0
  6
Continuous
 62
     7
100
AcDbCircle
 10
106.75
 20
60.99999999999988
 30
0.0
 40
1.75
  0
LINE
  5
5E6E
330
A
100
AcDbEntity
  8
0
  6
Continuous
 62
     7
100
AcDbLine
 10
106.0283129999998
 20
59.74999999999977
 30
0.0
 11
105.3066239999998
 21
60.99999899999989
 31
0.0
  0
LINE
  5
5E6F
330
A
100
AcDbEntity
  8
0
  6
Continuous
 62
     7
100
AcDbLine
 10
107.4716889999999
 20
59.74999999999977
 30
0.0
 11
106.0283129999998
 21
59.74999999999977
 31
0.0
  0
LINE
  5
5E70
330
A
100
AcDbEntity
  8
0
  6
Continuous
 62
     7
100
AcDbLine
 10
108.1933760000001
 20
61.00000099999977
 30
0.0
 11
107.4716889999999
 21
59.74999999999977
 31
0.0
  0
LINE
  5
5E71
330
A
100
AcDbEntity
  8
0
  6
Continuous
 62
     7
100
AcDbLine
 10
107.4716870000002
 20
62.25
 30
0.0
 11
108.1933760000001
 21
61.00000099999977
 31
0.0
  0
LINE
  5
5E72
330
A
100
AcDbEntity
  8
0
  6
Continuous
 62
     7
100
AcDbLine
 10
106.028311
 20
62.25
 30
0.0
 11
107.4716870000002
 21
62.25
 31
0.0
  0
LINE
  5
5E73
330
A
100
AcDbEntity
  8
0
  6
Continuous
 62
     7
100
AcDbLine
 10
105.3066239999998
 20
60.99999899999989
 30
0.0
 11
106.028311
 21
62.25
 31
0.0
  0
CIRCLE
  5
5E74
330
A
100
AcDbEntity
  8
0
  6
Continuous
 62
     7
100
AcDbCircle
 10
146.75
 20
9.0
 30
0.0
 40
1.75
  0
LINE
  5
5E75
330
A
100
AcDbEntity
  8
0
  6
Continuous
 62
     7
100
AcDbLine
 10
146.0283129999998
 20
7.75
 30
0.0
 11
145.3066239999998
 21
8.999999000000002
 31
0.0
  0
LINE
  5
5E76
330
A
100
AcDbEntity
  8
0
  6
Continuous
 62
     7
100
AcDbLine
 10
147.4716889999999
 20
7.75
 30
0.0
 11
146.0283129999998
 21
7.75
 31
0.0
  0
LINE
  5
5E77
330
A
100
AcDbEntity
  8
0
  6
Continuous
 62
     7
100
AcDbLine
 10
148.1933760000002
 20
9.000000999999997
 30
0.0
 11
147.4716889999999
 21
7.75
 31
0.0
  0
LINE
  5
5E78
330
A
100
AcDbEntity
  8
0
  6
Continuous
 62
     7
100
AcDbLine
 10
147.4716870000002
 20
10.25
 30
0.0
 11
148.1933760000002
 21
9.000000999999997
 31
0.0
  0
LINE
  5
5E79
330
A
100
AcDbEntity
  8
0
  6
Continuous
 62
     7
100
AcDbLine
 10
146.028311
 20
10.25
 30
0.0
 11
147.4716870000002
 21
10.25
 31
0.0
  0
LINE
  5
5E7A
330
A
100
AcDbEntity
  8
0
  6
Continuous
 62
     7
100
AcDbLine
 10
145.3066239999998
 20
8.999999000000002
 30
0.0
 11
146.028311
 21
10.25
 31
0.0
  0
LINE
  5
5E7B
330
A
100
AcDbEntity
  8
0
  6
Continuous
 62
     7
100
AcDbLine
 10
114.1999999999998
 20
0.0201710000000048
 30
0.0
 11
114.1999999999998
 21
0.1566169999997555
 31
0.0
  0
LINE
  5
5E7C
330
A
100
AcDbEntity
  8
0
  6
Continuous
 62
     7
100
AcDbLine
 10
114.1999999999998
 20
0.1566169999997555
 30
0.0
 11
114.1999999999998
 21
9.979828999999996
 31
0.0
  0
LINE
  5
5E7D
330
A
100
AcDbEntity
  8
0
  6
Continuous
 62
     7
100
AcDbLine
 10
114.1999999999998
 20
60.0201709999999
 30
0.0
 11
114.1999999999998
 21
64.91851799999972
 31
0.0
  0
LINE
  5
5E7E
330
A
100
AcDbEntity
  8
0
  6
Continuous
 62
     7
100
AcDbLine
 10
114.1999999999998
 20
64.91851799999972
 30
0.0
 11
114.1999999999998
 21
69.97982899999988
 31
0.0
  0
LINE
  5
5E7F
330
A
100
AcDbEntity
  8
0
  6
Continuous
 62
     9
100
AcDbLine
 10
132.25
 20
-7.5
 30
0.0
 11
131.75
 21
-7.5
 31
0.0
  0
LINE
  5
5E80
330
A
100
AcDbEntity
  8
0
  6
Continuous
 62
     9
100
AcDbLine
 10
131.75
 20
-7.5
 30
0.0
 11
130.75
 21
-7.5
 31
0.0
  0
LINE
  5
5E81
330
A
100
AcDbEntity
  8
0
  6
Continuous
 62
     7
100
AcDbLine
 10
132.25
 20
-13.5
 30
0.0
 11
131.75
 21
-13.5
 31
0.0
  0
LINE
  5
5E82
330
A
100
AcDbEntity
  8
0
  6
Continuous
 62
     7
100
AcDbLine
 10
131.75
 20
-13.5
 30
0.0
 11
130.75
 21
-13.5
 31
0.0
  0
LINE
  5
5E83
330
A
100
AcDbEntity
  8
0
  6
Continuous
 62
     7
100
AcDbLine
 10
130.75
 20
-13.5
 30
0.0
 11
130.75
 21
-7.5
 31
0.0
  0
LINE
  5
5E84
330
A
100
AcDbEntity
  8
0
  6
Continuous
 62
     9
100
AcDbLine
 10
132.25
 20
77.5
 30
0.0
 11
131.75
 21
77.5
 31
0.0
  0
LINE
  5
5E85
330
A
100
AcDbEntity
  8
0
  6
Continuous
 62
     9
100
AcDbLine
 10
131.75
 20
77.5
 30
0.0
 11
130.75
 21
77.5
 31
0.0
  0
LINE
  5
5E86
330
A
100
AcDbEntity
  8
0
  6
Continuous
 62
     7
100
AcDbLine
 10
130.75
 20
-7.5
 30
0.0
 11
130.75
 21
77.5
 31
0.0
  0
LINE
  5
5E87
330
A
100
AcDbEntity
  8
0
  6
Continuous
 62
     7
100
AcDbLine
 10
132.25
 20
83.49999999999999
 30
0.0
 11
131.75
 21
83.49999999999999
 31
0.0
  0
LINE
  5
5E88
330
A
100
AcDbEntity
  8
0
  6
Continuous
 62
     7
100
AcDbLine
 10
131.75
 20
83.49999999999999
 30
0.0
 11
130.75
 21
83.49999999999999
 31
0.0
  0
LINE
  5
5E89
330
A
100
AcDbEntity
  8
0
  6
Continuous
 62
     7
100
AcDbLine
 10
130.75
 20
77.5
 30
0.0
 11
130.75
 21
83.49999999999999
 31
0.0
  0
LINE
  5
5E8A
330
A
100
AcDbEntity
  8
0
  6
Continuous
 62
     7
100
AcDbLine
 10
121.25
 20
-13.5
 30
0.0
 11
121.75
 21
-13.5
 31
0.0
  0
LINE
  5
5E8B
330
A
100
AcDbEntity
  8
0
  6
Continuous
 62
     7
100
AcDbLine
 10
121.75
 20
-13.5
 30
0.0
 11
122.75
 21
-13.5
 31
0.0
  0
LINE
  5
5E8C
330
A
100
AcDbEntity
  8
0
  6
Continuous
 62
     9
100
AcDbLine
 10
121.25
 20
-7.5
 30
0.0
 11
121.75
 21
-7.5
 31
0.0
  0
LINE
  5
5E8D
330
A
100
AcDbEntity
  8
0
  6
Continuous
 62
     9
100
AcDbLine
 10
121.75
 20
-7.5
 30
0.0
 11
122.75
 21
-7.5
 31
0.0
  0
LINE
  5
5E8E
330
A
100
AcDbEntity
  8
0
  6
Continuous
 62
     7
100
AcDbLine
 10
122.75
 20
-7.5
 30
0.0
 11
122.75
 21
-13.5
 31
0.0
  0
LINE
  5
5E8F
330
A
100
AcDbEntity
  8
0
  6
Continuous
 62
     9
100
AcDbLine
 10
121.25
 20
77.5
 30
0.0
 11
121.75
 21
77.5
 31
0.0
  0
LINE
  5
5E90
330
A
100
AcDbEntity
  8
0
  6
Continuous
 62
     9
100
AcDbLine
 10
121.75
 20
77.5
 30
0.0
 11
122.75
 21
77.5
 31
0.0
  0
LINE
  5
5E91
330
A
100
AcDbEntity
  8
0
  6
Continuous
 62
     7
100
AcDbLine
 10
122.75
 20
77.5
 30
0.0
 11
122.75
 21
-7.5
 31
0.0
  0
LINE
  5
5E92
330
A
100
AcDbEntity
  8
0
  6
Continuous
 62
     7
100
AcDbLine
 10
121.25
 20
83.49999999999999
 30
0.0
 11
121.75
 21
83.49999999999999
 31
0.0
  0
LINE
  5
5E93
330
A
100
AcDbEntity
  8
0
  6
Continuous
 62
     7
100
AcDbLine
 10
121.75
 20
83.49999999999999
 30
0.0
 11
122.75
 21
83.49999999999999
 31
0.0
  0
LINE
  5
5E94
330
A
100
AcDbEntity
  8
0
  6
Continuous
 62
     7
100
AcDbLine
 10
122.75
 20
83.49999999999999
 30
0.0
 11
122.75
 21
77.5
 31
0.0
  0
LINE
  5
5E95
330
A
100
AcDbEntity
  8
0
  6
Continuous
 62
     7
100
AcDbLine
 10
114.25
 20
-7.5
 30
0.0
 11
114.25
 21
77.5
 31
0.0
  0
LINE
  5
5E96
330
A
100
AcDbEntity
  8
0
  6
Continuous
 62
     9
100
AcDbLine
 10
114.25
 20
77.5
 30
0.0
 11
118.25
 21
77.5
 31
0.0
  0
LINE
  5
5E97
330
A
100
AcDbEntity
  8
0
  6
Continuous
 62
     9
100
AcDbLine
 10
118.25
 20
77.5
 30
0.0
 11
118.25
 21
-7.5
 31
0.0
  0
LINE
  5
5E98
330
A
100
AcDbEntity
  8
0
  6
Continuous
 62
     9
100
AcDbLine
 10
114.25
 20
-7.5
 30
0.0
 11
118.25
 21
-7.5
 31
0.0
  0
LINE
  5
5E99
330
A
100
AcDbEntity
  8
0
  6
Continuous
 62
     7
100
AcDbLine
 10
114.25
 20
-11.0
 30
0.0
 11
114.25
 21
-7.5
 31
0.0
  0
LINE
  5
5E9A
330
A
100
AcDbEntity
  8
0
  6
Continuous
 62
     9
100
AcDbLine
 10
118.25
 20
-7.5
 30
0.0
 11
118.25
 21
-15.0
 31
0.0
  0
ARC
  5
5E9B
330
A
100
AcDbEntity
  8
0
  6
Continuous
 62
     7
100
AcDbCircle
 10
118.25
 20
-11.0
 30
0.0
 40
4.0
100
AcDbArc
 50
180.0
 51
270.0
  0
LINE
  5
5E9C
330
A
100
AcDbEntity
  8
0
  6
Continuous
 62
     7
100
AcDbLine
 10
114.25
 20
77.5
 30
0.0
 11
114.25
 21
81.0
 31
0.0
  0
ARC
  5
5E9D
330
A
100
AcDbEntity
  8
0
  6
Continuous
 62
     7
100
AcDbCircle
 10
118.25
 20
81.0
 30
0.0
 40
4.0
100
AcDbArc
 50
90.0
 51
180.0
  0
LINE
  5
5E9E
330
A
100
AcDbEntity
  8
0
  6
Continuous
 62
     9
100
AcDbLine
 10
118.25
 20
85.0
 30
0.0
 11
118.25
 21
77.5
 31
0.0
  0
LINE
  5
5E9F
330
A
100
AcDbEntity
  8
0
  6
Continuous
 62
     7
100
AcDbLine
 10
121.25
 20
-15.0
 30
0.0
 11
121.25
 21
-7.5
 31
0.0
  0
LINE
  5
5EA0
330
A
100
AcDbEntity
  8
0
  6
Continuous
 62
     7
100
AcDbLine
 10
118.25
 20
-15.0
 30
0.0
 11
121.25
 21
-15.0
 31
0.0
  0
LINE
  5
5EA1
330
A
100
AcDbEntity
  8
0
  6
Continuous
 62
     9
100
AcDbLine
 10
118.25
 20
-7.5
 30
0.0
 11
121.25
 21
-7.5
 31
0.0
  0
LINE
  5
5EA2
330
A
100
AcDbEntity
  8
0
  6
Continuous
 62
     7
100
AcDbLine
 10
121.25
 20
-7.5
 30
0.0
 11
121.25
 21
77.5
 31
0.0
  0
LINE
  5
5EA3
330
A
100
AcDbEntity
  8
0
  6
Continuous
 62
     9
100
AcDbLine
 10
118.25
 20
77.5
 30
0.0
 11
121.25
 21
77.5
 31
0.0
  0
LINE
  5
5EA4
330
A
100
AcDbEntity
  8
0
  6
Continuous
 62
     7
100
AcDbLine
 10
121.25
 20
77.5
 30
0.0
 11
121.25
 21
85.0
 31
0.0
  0
LINE
  5
5EA5
330
A
100
AcDbEntity
  8
0
  6
Continuous
 62
     7
100
AcDbLine
 10
118.25
 20
85.0
 30
0.0
 11
121.25
 21
85.0
 31
0.0
  0
LINE
  5
5EA6
330
A
100
AcDbEntity
  8
0
  6
Continuous
 62
     7
100
AcDbLine
 10
130.75
 20
-7.5
 30
0.0
 11
122.75
 21
-7.5
 31
0.0
  0
LINE
  5
5EA7
330
A
100
AcDbEntity
  8
0
  6
Continuous
 62
     7
100
AcDbLine
 10
122.75
 20
77.5
 30
0.0
 11
130.75
 21
77.5
 31
0.0
  0
CIRCLE
  5
5EA8
330
A
100
AcDbEntity
  8
0
  6
Continuous
 62
     7
100
AcDbCircle
 10
106.75
 20
0.0
 30
0.0
 40
5.0
  0
CIRCLE
  5
5EA9
330
A
100
AcDbEntity
  8
0
  6
Continuous
 62
     7
100
AcDbCircle
 10
106.75
 20
69.99999999999977
 30
0.0
 40
5.0
  0
CIRCLE
  5
5EAA
330
A
100
AcDbEntity
  8
0
  6
Continuous
 62
     7
100
AcDbCircle
 10
106.75
 20
9.0
 30
0.0
 40
2.1
  0
ARC
  5
5EAB
330
A
100
AcDbEntity
  8
0
  6
Continuous
 62
     7
100
AcDbCircle
 10
106.75
 20
60.99999999999988
 30
0.0
 40
2.1
100
AcDbArc
 50
88.49666300000505
 51
90.0
  0
ARC
  5
5EAC
330
A
100
AcDbEntity
  8
0
  6
Continuous
 62
     7
100
AcDbCircle
 10
106.75
 20
60.99999999999988
 30
0.0
 40
2.1
100
AcDbArc
 50
1.370780000000995
 51
88.49666300000505
  0
ARC
  5
5EAD
330
A
100
AcDbEntity
  8
0
  6
Continuous
 62
     7
100
AcDbCircle
 10
106.75
 20
60.99999999999988
 30
0.0
 40
2.1
100
AcDbArc
 50
270.0000189999941
 51
1.370780000000995
  0
ARC
  5
5EAE
330
A
100
AcDbEntity
  8
0
  6
Continuous
 62
     7
100
AcDbCircle
 10
106.75
 20
60.99999999999988
 30
0.0
 40
2.1
100
AcDbArc
 50
90.0
 51
270.0000189999941
  0
LINE
  5
5EAF
330
A
100
AcDbEntity
  8
0
  6
Continuous
 62
     7
100
AcDbLine
 10
99.25
 20
-7.5
 30
0.0
 11
99.25
 21
77.5
 31
0.0
  0
LINE
  5
5EB0
330
A
100
AcDbEntity
  8
0
  6
Continuous
 62
     7
100
AcDbLine
 10
114.25
 20
-7.5
 30
0.0
 11
99.25
 21
-7.5
 31
0.0
  0
LINE
  5
5EB1
330
A
100
AcDbEntity
  8
0
  6
Continuous
 62
     7
100
AcDbLine
 10
114.25
 20
77.5
 30
0.0
 11
99.25
 21
77.5
 31
0.0
  0
LINE
  5
5EB2
330
A
100
AcDbEntity
  8
0
  6
Continuous
 62
     7
100
AcDbLine
 10
154.25
 20
-7.5
 30
0.0
 11
154.25
 21
77.5
 31
0.0
  0
CIRCLE
  5
5EB3
330
A
100
AcDbEntity
  8
0
  6
Continuous
 62
     7
100
AcDbCircle
 10
146.75
 20
69.99999999999977
 30
0.0
 40
5.0
  0
CIRCLE
  5
5EB4
330
A
100
AcDbEntity
  8
0
  6
Continuous
 62
     7
100
AcDbCircle
 10
146.75
 20
0.0
 30
0.0
 40
5.0
  0
ARC
  5
5EB5
330
A
100
AcDbEntity
  8
0
  6
Continuous
 62
     7
100
AcDbCircle
 10
146.75
 20
9.0
 30
0.0
 40
2.1
100
AcDbArc
 50
88.49595400000231
 51
90.0
  0
ARC
  5
5EB6
330
A
100
AcDbEntity
  8
0
  6
Continuous
 62
     7
100
AcDbCircle
 10
146.75
 20
9.0
 30
0.0
 40
2.1
100
AcDbArc
 50
1.37111799999697
 51
88.49595400000231
  0
ARC
  5
5EB7
330
A
100
AcDbEntity
  8
0
  6
Continuous
 62
     7
100
AcDbCircle
 10
146.75
 20
9.0
 30
0.0
 40
2.1
100
AcDbArc
 50
270.0000189999941
 51
1.37111799999697
  0
ARC
  5
5EB8
330
A
100
AcDbEntity
  8
0
  6
Continuous
 62
     7
100
AcDbCircle
 10
146.75
 20
9.0
 30
0.0
 40
2.1
100
AcDbArc
 50
90.0
 51
270.0000189999941
  0
CIRCLE
  5
5EB9
330
A
100
AcDbEntity
  8
0
  6
Continuous
 62
     7
100
AcDbCircle
 10
146.75
 20
60.99999999999988
 30
0.0
 40
2.1
  0
LINE
  5
5EBA
330
A
100
AcDbEntity
  8
0
  6
Continuous
 62
     7
100
AcDbLine
 10
154.25
 20
-7.5
 30
0.0
 11
139.25
 21
-7.5
 31
0.0
  0
LINE
  5
5EBB
330
A
100
AcDbEntity
  8
0
  6
Continuous
 62
     7
100
AcDbLine
 10
154.25
 20
77.5
 30
0.0
 11
139.25
 21
77.5
 31
0.0
  0
CIRCLE
  5
5EBC
330
A
100
AcDbEntity
  8
0
  6
Continuous
 62
     7
100
AcDbCircle
 10
106.75
 20
0.0
 30
0.0
 40
2.649999999999999
  0
CIRCLE
  5
5EBD
330
A
100
AcDbEntity
  8
0
  6
Continuous
 62
     7
100
AcDbCircle
 10
106.75
 20
69.99999999999977
 30
0.0
 40
2.649999999999999
  0
CIRCLE
  5
5EBE
330
A
100
AcDbEntity
  8
0
  6
Continuous
 62
     7
100
AcDbCircle
 10
146.75
 20
0.0
 30
0.0
 40
2.649999999999999
  0
CIRCLE
  5
5EBF
330
A
100
AcDbEntity
  8
0
  6
Continuous
 62
     7
100
AcDbCircle
 10
146.75
 20
69.99999999999977
 30
0.0
 40
2.649999999999999
  0
LINE
  5
5EC0
330
A
100
AcDbEntity
  8
0
  6
Continuous
 62
     9
100
AcDbLine
 10
121.25
 20
77.5
 30
0.0
 11
121.75
 21
77.5
 31
0.0
  0
LINE
  5
5EC1
330
A
100
AcDbEntity
  8
0
  6
Continuous
 62
     7
100
AcDbLine
 10
121.25
 20
83.49999999999999
 30
0.0
 11
121.75
 21
83.49999999999999
 31
0.0
  0
LINE
  5
5EC2
330
A
100
AcDbEntity
  8
0
  6
Continuous
 62
     7
100
AcDbLine
 10
121.75
 20
83.49999999999999
 30
0.0
 11
121.75
 21
77.5
 31
0.0
  0
LINE
  5
5EC3
330
A
100
AcDbEntity
  8
0
  6
Continuous
 62
     7
100
AcDbLine
 10
121.25
 20
-13.5
 30
0.0
 11
121.75
 21
-13.5
 31
0.0
  0
LINE
  5
5EC4
330
A
100
AcDbEntity
  8
0
  6
Continuous
 62
     9
100
AcDbLine
 10
121.25
 20
-7.5
 30
0.0
 11
121.75
 21
-7.5
 31
0.0
  0
LINE
  5
5EC5
330
A
100
AcDbEntity
  8
0
  6
Continuous
 62
     7
100
AcDbLine
 10
121.75
 20
-7.5
 30
0.0
 11
121.75
 21
-13.5
 31
0.0
  0
LINE
  5
5EC6
330
A
100
AcDbEntity
  8
0
  6
Continuous
 62
     7
100
AcDbLine
 10
121.75
 20
77.5
 30
0.0
 11
121.75
 21
-7.5
 31
0.0
  0
LINE
  5
5EC7
330
A
100
AcDbEntity
  8
0
  6
Continuous
 62
     9
100
AcDbLine
 10
132.25
 20
-7.5
 30
0.0
 11
131.75
 21
-7.5
 31
0.0
  0
LINE
  5
5EC8
330
A
100
AcDbEntity
  8
0
  6
Continuous
 62
     7
100
AcDbLine
 10
132.25
 20
-13.5
 30
0.0
 11
131.75
 21
-13.5
 31
0.0
  0
LINE
  5
5EC9
330
A
100
AcDbEntity
  8
0
  6
Continuous
 62
     7
100
AcDbLine
 10
131.75
 20
-13.5
 30
0.0
 11
131.75
 21
-7.5
 31
0.0
  0
LINE
  5
5ECA
330
A
100
AcDbEntity
  8
0
  6
Continuous
 62
     7
100
AcDbLine
 10
132.25
 20
83.49999999999999
 30
0.0
 11
131.75
 21
83.49999999999999
 31
0.0
  0
LINE
  5
5ECB
330
A
100
AcDbEntity
  8
0
  6
Continuous
 62
     9
100
AcDbLine
 10
132.25
 20
77.5
 30
0.0
 11
131.75
 21
77.5
 31
0.0
  0
LINE
  5
5ECC
330
A
100
AcDbEntity
  8
0
  6
Continuous
 62
     7
100
AcDbLine
 10
131.75
 20
77.5
 30
0.0
 11
131.75
 21
83.49999999999999
 31
0.0
  0
LINE
  5
5ECD
330
A
100
AcDbEntity
  8
0
  6
Continuous
 62
     7
100
AcDbLine
 10
131.75
 20
-7.5
 30
0.0
 11
131.75
 21
77.5
 31
0.0
  0
LINE
  5
5ECE
330
A
100
AcDbEntity
  8
0
  6
Continuous
 62
     7
100
AcDbLine
 10
122.75
 20
-6.0
 30
0.0
 11
130.75
 21
-6.0
 31
0.0
  0
LINE
  5
5ECF
330
A
100
AcDbEntity
  8
0
  6
Continuous
 62
     9
100
AcDbLine
 10
122.75
 20
1.0
 30
0.0
 11
130.75
 21
1.0
 31
0.0
  0
LINE
  5
5ED0
330
A
100
AcDbEntity
  8
0
  6
Continuous
 62
     9
100
AcDbLine
 10
122.75
 20
69.0
 30
0.0
 11
130.75
 21
69.0
 31
0.0
  0
LINE
  5
5ED1
330
A
100
AcDbEntity
  8
0
  6
Continuous
 62
     7
100
AcDbLine
 10
122.75
 20
76.0
 30
0.0
 11
130.75
 21
76.0
 31
0.0
  0
LINE
  5
5ED2
330
A
100
AcDbEntity
  8
0
  6
Continuous
 62
     7
100
AcDbLine
 10
132.25
 20
77.5
 30
0.0
 11
132.25
 21
85.0
 31
0.0
  0
LINE
  5
5ED3
330
A
100
AcDbEntity
  8
0
  6
Continuous
 62
     7
100
AcDbLine
 10
132.25
 20
85.0
 30
0.0
 11
135.25
 21
85.0
 31
0.0
  0
LINE
  5
5ED4
330
A
100
AcDbEntity
  8
0
  6
Continuous
 62
     9
100
AcDbLine
 10
135.25
 20
77.5
 30
0.0
 11
135.25
 21
85.0
 31
0.0
  0
LINE
  5
5ED5
330
A
100
AcDbEntity
  8
0
  6
Continuous
 62
     9
100
AcDbLine
 10
135.25
 20
77.5
 30
0.0
 11
132.25
 21
77.5
 31
0.0
  0
LINE
  5
5ED6
330
A
100
AcDbEntity
  8
0
  6
Continuous
 62
     7
100
AcDbLine
 10
132.25
 20
-15.0
 30
0.0
 11
132.25
 21
-7.5
 31
0.0
  0
LINE
  5
5ED7
330
A
100
AcDbEntity
  8
0
  6
Continuous
 62
     9
100
AcDbLine
 10
132.25
 20
-7.5
 30
0.0
 11
135.25
 21
-7.5
 31
0.0
  0
LINE
  5
5ED8
330
A
100
AcDbEntity
  8
0
  6
Continuous
 62
     9
100
AcDbLine
 10
135.25
 20
-15.0
 30
0.0
 11
135.25
 21
-7.5
 31
0.0
  0
LINE
  5
5ED9
330
A
100
AcDbEntity
  8
0
  6
Continuous
 62
     7
100
AcDbLine
 10
135.25
 20
-15.0
 30
0.0
 11
132.25
 21
-15.0
 31
0.0
  0
LINE
  5
5EDA
330
A
100
AcDbEntity
  8
0
  6
Continuous
 62
     9
100
AcDbLine
 10
135.25
 20
-7.5
 30
0.0
 11
135.25
 21
77.5
 31
0.0
  0
LINE
  5
5EDB
330
A
100
AcDbEntity
  8
0
  6
Continuous
 62
     7
100
AcDbLine
 10
132.25
 20
-7.5
 30
0.0
 11
132.25
 21
77.5
 31
0.0
  0
LINE
  5
5EDC
330
A
100
AcDbEntity
  8
0
  6
Continuous
 62
     9
100
AcDbLine
 10
135.25
 20
-7.5
 30
0.0
 11
139.25
 21
-7.5
 31
0.0
  0
LINE
  5
5EDD
330
A
100
AcDbEntity
  8
0
  6
Continuous
 62
     7
100
AcDbLine
 10
139.25
 20
-7.5
 30
0.0
 11
139.25
 21
-11.0
 31
0.0
  0
ARC
  5
5EDE
330
A
100
AcDbEntity
  8
0
  6
Continuous
 62
     7
100
AcDbCircle
 10
135.25
 20
-11.0
 30
0.0
 40
4.0
100
AcDbArc
 50
270.0
 51
0.0
  0
LINE
  5
5EDF
330
A
100
AcDbEntity
  8
0
  6
Continuous
 62
     9
100
AcDbLine
 10
135.25
 20
77.5
 30
0.0
 11
139.25
 21
77.5
 31
0.0
  0
LINE
  5
5EE0
330
A
100
AcDbEntity
  8
0
  6
Continuous
 62
     7
100
AcDbLine
 10
139.25
 20
77.5
 30
0.0
 11
139.25
 21
-7.5
 31
0.0
  0
ARC
  5
5EE1
330
A
100
AcDbEntity
  8
0
  6
Continuous
 62
     7
100
AcDbCircle
 10
135.25
 20
81.0
 30
0.0
 40
4.0
100
AcDbArc
 50
0.0
 51
90.0
  0
LINE
  5
5EE2
330
A
100
AcDbEntity
  8
0
  6
Continuous
 62
     7
100
AcDbLine
 10
139.25
 20
81.0
 30
0.0
 11
139.25
 21
77.5
 31
0.0
  0
LINE
  5
5EE3
330
A
100
AcDbEntity
  8
0
  6
Continuous
 62
     9
100
AcDbLine
 10
109.2584769999998
 20
40.99999999999977
 30
0.0
 11
109.2584769999998
 21
29.0
 31
0.0
  0
LINE
  5
5EE4
330
A
100
AcDbEntity
  8
0
  6
Continuous
 62
     7
100
AcDbLine
 10
109.2584769999998
 20
40.99999999999977
 30
0.0
 11
114.25
 21
40.99999999999977
 31
0.0
  0
LINE
  5
5EE5
330
A
100
AcDbEntity
  8
0
  6
Continuous
 62
     7
100
AcDbLine
 10
109.2584769999998
 20
29.0
 30
0.0
 11
114.25
 21
29.0
 31
0.0
  0
LINE
  5
5EE6
330
A
100
AcDbEntity
  8
0
  6
Continuous
 62
     9
100
AcDbLine
 10
144.2415230000001
 20
29.0
 30
0.0
 11
144.2415230000001
 21
40.99999999999977
 31
0.0
  0
LINE
  5
5EE7
330
A
100
AcDbEntity
  8
0
  6
Continuous
 62
     7
100
AcDbLine
 10
139.25
 20
40.99999999999977
 30
0.0
 11
144.2415230000001
 21
40.99999999999977
 31
0.0
  0
LINE
  5
5EE8
330
A
100
AcDbEntity
  8
0
  6
Continuous
 62
     7
100
AcDbLine
 10
139.25
 20
29.0
 30
0.0
 11
144.2415230000001
 21
29.0
 31
0.0
  0
LINE
  5
5EE9
330
A
100
AcDbEntity
  8
0
  6
Continuous
 62
     7
100
AcDbLine
 10
109.1391870000011
 20
40.99999999999977
 30
0.0
 11
109.2584769999998
 21
40.99999999999977
 31
0.0
  0
LINE
  5
5EEA
330
A
100
AcDbEntity
  8
0
  6
Continuous
 62
     7
100
AcDbLine
 10
109.2584769999998
 20
29.0
 30
0.0
 11
109.1391870000011
 21
29.0
 31
0.0
  0
LINE
  5
5EEB
330
A
100
AcDbEntity
  8
0
  6
Continuous
 62
     7
100
AcDbLine
 10
144.3608129999998
 20
29.0
 30
0.0
 11
144.2415230000001
 21
29.0
 31
0.0
  0
LINE
  5
5EEC
330
A
100
AcDbEntity
  8
0
  6
Continuous
 62
     7
100
AcDbLine
 10
144.2415230000001
 20
40.99999999999977
 30
0.0
 11
144.3608129999998
 21
40.99999999999977
 31
0.0
  0
LINE
  5
5EED
330
A
100
AcDbEntity
  8
0
  6
Continuous
 62
     7
100
AcDbLine
 10
109.047191000001
 20
40.99999999999977
 30
0.0
 11
109.1457639999998
 21
40.99999999999977
 31
0.0
  0
LINE
  5
5EEE
330
A
100
AcDbEntity
  8
0
  6
Continuous
 62
     7
100
AcDbLine
 10
109.1457639999998
 20
29.0
 30
0.0
 11
109.047191000001
 21
29.0
 31
0.0
  0
LINE
  5
5EEF
330
A
100
AcDbEntity
  8
0
  6
Continuous
 62
     7
100
AcDbLine
 10
144.4528100000002
 20
29.0
 30
0.0
 11
144.3542360000001
 21
29.0
 31
0.0
  0
LINE
  5
5EF0
330
A
100
AcDbEntity
  8
0
  6
Continuous
 62
     7
100
AcDbLine
 10
144.3542360000001
 20
40.99999999999977
 30
0.0
 11
144.4528100000002
 21
40.99999999999977
 31
0.0
  0
ARC
  5
5EF1
330
A
100
AcDbEntity
  8
0
  6
Continuous
 62
     7
100
AcDbCircle
 10
114.6999999999998
 20
0.0201710000000048
 30
0.0
 40
0.5
100
AcDbArc
 50
180.0
 51
205.8419369999974
  0
ARC
  5
5EF2
330
A
100
AcDbEntity
  8
0
  6
Continuous
 62
     7
100
AcDbCircle
 10
114.6999999999998
 20
9.979828999999996
 30
0.0
 40
0.5
100
AcDbArc
 50
154.1580630000026
 51
180.0
  0
ARC
  5
5EF3
330
A
100
AcDbEntity
  8
0
  6
Continuous
 62
     7
100
AcDbCircle
 10
114.6999999999998
 20
60.0201709999999
 30
0.0
 40
0.5
100
AcDbArc
 50
180.0
 51
205.8419369999974
  0
ARC
  5
5EF4
330
A
100
AcDbEntity
  8
0
  6
Continuous
 62
     7
100
AcDbCircle
 10
114.6999999999998
 20
69.97982899999988
 30
0.0
 40
0.5
100
AcDbArc
 50
154.1580630000026
 51
180.0
  0
LINE
  5
5EF5
330
A
100
AcDbEntity
  8
0
  6
Continuous
 62
     7
100
AcDbLine
 10
109.1391870000011
 20
40.99999999999977
 30
0.0
 11
109.1391870000011
 21
29.0
 31
0.0
  0
LINE
  5
5EF6
330
A
100
AcDbEntity
  8
0
  6
Continuous
 62
     7
100
AcDbLine
 10
144.3608129999998
 20
29.0
 30
0.0
 11
144.3608129999998
 21
40.99999999999977
 31
0.0
  0
LINE
  5
5EF7
330
A
100
AcDbEntity
  8
0
  6
Continuous
 62
     7
100
AcDbLine
 10
109.047191000001
 20
40.99999999999977
 30
0.0
 11
109.047191000001
 21
29.0
 31
0.0
  0
LINE
  5
5EF8
330
A
100
AcDbEntity
  8
0
  6
Continuous
 62
     7
100
AcDbLine
 10
144.4528100000002
 20
29.0
 30
0.0
 11
144.4528100000002
 21
40.99999999999977
 31
0.0
  0
LINE
  5
5EF9
330
A
100
AcDbEntity
  8
0
  6
Continuous
 62
     7
100
AcDbLine
 10
26.20499999999993
 20
29.79999999999961
 30
0.0
 11
26.65380000000006
 21
29.79999999999961
 31
0.0
  0
LINE
  5
5EFA
330
A
100
AcDbEntity
  8
0
  6
Continuous
 62
     7
100
AcDbLine
 10
26.65380000000006
 20
29.5
 30
0.0
 11
26.20499999999993
 21
29.5
 31
0.0
  0
LINE
  5
5EFB
330
A
100
AcDbEntity
  8
0
  6
Continuous
 62
     7
100
AcDbLine
 10
26.65380000000006
 20
40.20000000000004
 30
0.0
 11
26.20499999999993
 21
40.20000000000004
 31
0.0
  0
LINE
  5
5EFC
330
A
100
AcDbEntity
  8
0
  6
Continuous
 62
     7
100
AcDbLine
 10
26.20499999999993
 20
40.49999999999999
 30
0.0
 11
26.65380000000006
 21
40.49999999999999
 31
0.0
  0
LINE
  5
5EFD
330
A
100
AcDbEntity
  8
0
  6
Continuous
 62
     9
100
AcDbLine
 10
48.25
 20
59.45000000000003
 30
0.0
 11
31.75
 21
59.45000000000003
 31
0.0
  0
LINE
  5
5EFE
330
A
100
AcDbEntity
  8
0
  6
Continuous
 62
     7
100
AcDbLine
 10
47.6500000000001
 20
60.04999999999972
 30
0.0
 11
32.34999999999991
 21
60.04999999999972
 31
0.0
  0
LINE
  5
5EFF
330
A
100
AcDbEntity
  8
0
  6
Continuous
 62
     7
100
AcDbLine
 10
26.20499999999993
 20
42.0
 30
0.0
 11
26.20499999999993
 21
27.99999999999978
 31
0.0
  0
LINE
  5
5F00
330
A
100
AcDbEntity
  8
0
  6
Continuous
 62
     7
100
AcDbLine
 10
35.29999999999996
 20
28.95000000000005
 30
0.0
 11
44.69999999999981
 21
28.95000000000005
 31
0.0
  0
LINE
  5
5F01
330
A
100
AcDbEntity
  8
0
  6
Continuous
 62
     7
100
AcDbLine
 10
44.69999999999981
 20
41.04999999999972
 30
0.0
 11
44.25879600000008
 21
41.04999999999972
 31
0.0
  0
LINE
  5
5F02
330
A
100
AcDbEntity
  8
0
  6
Continuous
 62
     7
100
AcDbLine
 10
44.25879600000008
 20
41.04999999999972
 30
0.0
 11
35.29999999999996
 21
41.04999999999972
 31
0.0
  0
LINE
  5
5F03
330
A
100
AcDbEntity
  8
0
  6
Continuous
 62
     7
100
AcDbLine
 10
60.5
 20
-7.5
 30
0.0
 11
60.5
 21
77.5
 31
0.0
  0
LINE
  5
5F04
330
A
100
AcDbEntity
  8
0
  6
Continuous
 62
     7
100
AcDbLine
 10
55.5
 20
-7.5
 30
0.0
 11
55.5
 21
77.5
 31
0.0
  0
LINE
  5
5F05
330
A
100
AcDbEntity
  8
0
  6
Continuous
 62
     7
100
AcDbLine
 10
60.5
 20
-7.5
 30
0.0
 11
55.5
 21
-7.5
 31
0.0
  0
LINE
  5
5F06
330
A
100
AcDbEntity
  8
0
  6
Continuous
 62
     7
100
AcDbLine
 10
60.5
 20
77.5
 30
0.0
 11
55.5
 21
77.5
 31
0.0
  0
LINE
  5
5F07
330
A
100
AcDbEntity
  8
0
  6
Continuous
 62
     9
100
AcDbLine
 10
54.0
 20
10.99999999999988
 30
0.0
 11
54.0
 21
59.0
 31
0.0
  0
LINE
  5
5F08
330
A
100
AcDbEntity
  8
0
  6
Continuous
 62
     7
100
AcDbLine
 10
54.0
 20
59.0
 30
0.0
 11
54.52431299999989
 21
59.0
 31
0.0
  0
LINE
  5
5F15
330
A
100
AcDbEntity
  8
0
  6
Continuous
 62
     7
100
AcDbLine
 10
55.29255300000023
 20
77.5
 30
0.0
 11
55.29255300000023
 21
60.0
 31
0.0
  0
LINE
  5
5F16
330
A
100
AcDbEntity
  8
0
  6
Continuous
 62
     7
100
AcDbLine
 10
55.29255300000023
 20
-7.5
 30
0.0
 11
55.29255300000023
 21
10.0
 31
0.0
  0
LINE
  5
5F23
330
A
100
AcDbEntity
  8
0
  6
Continuous
 62
     7
100
AcDbLine
 10
54.0
 20
10.99999999999988
 30
0.0
 11
54.52431299999989
 21
10.99999999999988
 31
0.0
  0
LINE
  5
5F24
330
A
100
AcDbEntity
  8
0
  6
Continuous
 62
     7
100
AcDbLine
 10
55.29255300000023
 20
-7.5
 30
0.0
 11
55.5
 21
-7.5
 31
0.0
  0
LINE
  5
5F25
330
A
100
AcDbEntity
  8
0
  6
Continuous
 62
     7
100
AcDbLine
 10
55.29255300000023
 20
77.5
 30
0.0
 11
55.5
 21
77.5
 31
0.0
  0
LINE
  5
5F26
330
A
100
AcDbEntity
  8
0
  6
Continuous
 62
     9
100
AcDbLine
 10
41.0
 20
41.10000000000002
 30
0.0
 11
41.0
 21
59.0
 31
0.0
  0
LINE
  5
5F27
330
A
100
AcDbEntity
  8
0
  6
Continuous
 62
     7
100
AcDbLine
 10
41.0
 20
41.10000000000002
 30
0.0
 11
30.0
 21
41.10000000000002
 31
0.0
  0
LINE
  5
5F28
330
A
100
AcDbEntity
  8
0
  6
Continuous
 62
     7
100
AcDbLine
 10
41.0
 20
59.0
 30
0.0
 11
30.0
 21
59.0
 31
0.0
  0
LINE
  5
5F29
330
A
100
AcDbEntity
  8
0
  6
Continuous
 62
     7
100
AcDbLine
 10
30.0
 20
28.89999999999998
 30
0.0
 11
41.0
 21
28.89999999999998
 31
0.0
  0
LINE
  5
5F2A
330
A
100
AcDbEntity
  8
0
  6
Continuous
 62
     9
100
AcDbLine
 10
41.0
 20
10.99999999999988
 30
0.0
 11
41.0
 21
28.89999999999998
 31
0.0
  0
LINE
  5
5F2B
330
A
100
AcDbEntity
  8
0
  6
Continuous
 62
     7
100
AcDbLine
 10
41.0
 20
10.99999999999988
 30
0.0
 11
30.0
 21
10.99999999999988
 31
0.0
  0
ARC
  5
5F2C
330
A
100
AcDbEntity
  8
0
  6
Continuous
 62
     7
100
AcDbCircle
 10
46.80000000000018
 20
29.0999999999998
 30
0.0
 40
0.2
100
AcDbArc
 50
270.0
 51
330.0000000000027
  0
ARC
  5
5F2D
330
A
100
AcDbEntity
  8
0
  6
Continuous
 62
     7
100
AcDbCircle
 10
46.80000000000018
 20
40.89999999999998
 30
0.0
 40
0.2
100
AcDbArc
 50
29.99999999999729
 51
90.0
  0
LINE
  5
5F2E
330
A
100
AcDbEntity
  8
0
  6
Continuous
 62
     7
100
AcDbLine
 10
41.0
 20
28.89999999999998
 30
0.0
 11
46.80000000000018
 21
28.89999999999998
 31
0.0
  0
LINE
  5
5F2F
330
A
100
AcDbEntity
  8
0
  6
Continuous
 62
     7
100
AcDbLine
 10
46.80000000000018
 20
41.10000000000002
 30
0.0
 11
41.0
 21
41.10000000000002
 31
0.0
  0
LINE
  5
5F30
330
A
100
AcDbEntity
  8
0
  6
Continuous
 62
     7
100
AcDbLine
 10
54.0
 20
10.99999999999988
 30
0.0
 11
41.0
 21
10.99999999999988
 31
0.0
  0
LINE
  5
5F31
330
A
100
AcDbEntity
  8
0
  6
Continuous
 62
     7
100
AcDbLine
 10
54.0
 20
59.0
 30
0.0
 11
41.0
 21
59.0
 31
0.0
  0
LINE
  5
5F32
330
A
100
AcDbEntity
  8
0
  6
Continuous
 62
     7
100
AcDbLine
 10
-17.0
 20
-7.5
 30
0.0
 11
-17.0
 21
77.5
 31
0.0
  0
LINE
  5
5F33
330
A
100
AcDbEntity
  8
0
  6
Continuous
 62
     9
100
AcDbLine
 10
-17.0
 20
77.5
 30
0.0
 11
-13.0
 21
77.5
 31
0.0
  0
LINE
  5
5F34
330
A
100
AcDbEntity
  8
0
  6
Continuous
 62
     9
100
AcDbLine
 10
-13.0
 20
77.5
 30
0.0
 11
-13.0
 21
-7.5
 31
0.0
  0
LINE
  5
5F35
330
A
100
AcDbEntity
  8
0
  6
Continuous
 62
     9
100
AcDbLine
 10
-17.0
 20
-7.5
 30
0.0
 11
-13.0
 21
-7.5
 31
0.0
  0
ARC
  5
5F36
330
A
100
AcDbEntity
  8
0
  6
Continuous
 62
     7
100
AcDbCircle
 10
-9.5
 20
-7.5
 30
0.0
 40
7.5
100
AcDbArc
 50
180.0
 51
270.0
  0
ARC
  5
5F37
330
A
100
AcDbEntity
  8
0
  6
Continuous
 62
     9
100
AcDbCircle
 10
-9.5
 20
-7.5
 30
0.0
 40
3.5
100
AcDbArc
 50
180.0
 51
270.0
  0
LINE
  5
5F38
330
A
100
AcDbEntity
  8
0
  6
Continuous
 62
     9
100
AcDbLine
 10
-9.5
 20
-15.0
 30
0.0
 11
-9.5
 21
-11.0
 31
0.0
  0
ARC
  5
5F39
330
A
100
AcDbEntity
  8
0
  6
Continuous
 62
     7
100
AcDbCircle
 10
-9.5
 20
77.5
 30
0.0
 40
7.5
100
AcDbArc
 50
90.0
 51
180.0
  0
LINE
  5
5F3A
330
A
100
AcDbEntity
  8
0
  6
Continuous
 62
     9
100
AcDbLine
 10
-9.5
 20
85.0
 30
0.0
 11
-9.5
 21
81.0
 31
0.0
  0
ARC
  5
5F3B
330
A
100
AcDbEntity
  8
0
  6
Continuous
 62
     9
100
AcDbCircle
 10
-9.5
 20
77.5
 30
0.0
 40
3.5
100
AcDbArc
 50
90.0
 51
180.0
  0
LINE
  5
5F3C
330
A
100
AcDbEntity
  8
0
  6
Continuous
 62
     7
100
AcDbLine
 10
28.5
 20
42.0
 30
0.0
 11
28.5
 21
60.29999999999972
 31
0.0
  0
LINE
  5
5F3D
330
A
100
AcDbEntity
  8
0
  6
Continuous
 62
     7
100
AcDbLine
 10
22.0
 20
42.0
 30
0.0
 11
28.5
 21
42.0
 31
0.0
  0
LINE
  5
5F3E
330
A
100
AcDbEntity
  8
0
  6
Continuous
 62
     7
100
AcDbLine
 10
22.0
 20
27.99999999999978
 30
0.0
 11
22.0
 21
42.0
 31
0.0
  0
LINE
  5
5F3F
330
A
100
AcDbEntity
  8
0
  6
Continuous
 62
     7
100
AcDbLine
 10
28.5
 20
27.99999999999978
 30
0.0
 11
22.0
 21
27.99999999999978
 31
0.0
  0
LINE
  5
5F40
330
A
100
AcDbEntity
  8
0
  6
Continuous
 62
     7
100
AcDbLine
 10
28.5
 20
9.700000000000043
 30
0.0
 11
28.5
 21
27.99999999999978
 31
0.0
  0
LINE
  5
5F41
330
A
100
AcDbEntity
  8
0
  6
Continuous
 62
     7
100
AcDbLine
 10
49.0
 20
9.700000000000043
 30
0.0
 11
28.5
 21
9.700000000000043
 31
0.0
  0
LINE
  5
5F42
330
A
100
AcDbEntity
  8
0
  6
Continuous
 62
     9
100
AcDbLine
 10
49.0
 20
-7.5
 30
0.0
 11
49.0
 21
9.700000000000043
 31
0.0
  0
ARC
  5
5F43
330
A
100
AcDbEntity
  8
0
  6
Continuous
 62
     9
100
AcDbCircle
 10
45.49999999999999
 20
-7.5
 30
0.0
 40
3.5
100
AcDbArc
 50
270.0
 51
0.0
  0
LINE
  5
5F44
330
A
100
AcDbEntity
  8
0
  6
Continuous
 62
     9
100
AcDbLine
 10
-9.5
 20
-11.0
 30
0.0
 11
45.49999999999999
 21
-11.0
 31
0.0
  0
LINE
  5
5F45
330
A
100
AcDbEntity
  8
0
  6
Continuous
 62
     9
100
AcDbLine
 10
45.49999999999999
 20
81.0
 30
0.0
 11
-9.5
 21
81.0
 31
0.0
  0
ARC
  5
5F46
330
A
100
AcDbEntity
  8
0
  6
Continuous
 62
     9
100
AcDbCircle
 10
45.49999999999999
 20
77.5
 30
0.0
 40
3.5
100
AcDbArc
 50
0.0
 51
90.0
  0
LINE
  5
5F47
330
A
100
AcDbEntity
  8
0
  6
Continuous
 62
     9
100
AcDbLine
 10
49.0
 20
60.29999999999972
 30
0.0
 11
49.0
 21
77.5
 31
0.0
  0
LINE
  5
5F48
330
A
100
AcDbEntity
  8
0
  6
Continuous
 62
     7
100
AcDbLine
 10
28.5
 20
60.29999999999972
 30
0.0
 11
49.0
 21
60.29999999999972
 31
0.0
  0
LINE
  5
5F49
330
A
100
AcDbEntity
  8
0
  6
Continuous
 62
     7
100
AcDbLine
 10
-9.5
 20
85.0
 30
0.0
 11
45.49999999999999
 21
85.0
 31
0.0
  0
LINE
  5
5F4A
330
A
100
AcDbEntity
  8
0
  6
Continuous
 62
     9
100
AcDbLine
 10
45.49999999999999
 20
81.0
 30
0.0
 11
45.49999999999999
 21
85.0
 31
0.0
  0
LINE
  5
5F4B
330
A
100
AcDbEntity
  8
0
  6
Continuous
 62
     7
100
AcDbLine
 10
45.49999999999999
 20
-15.0
 30
0.0
 11
-9.5
 21
-15.0
 31
0.0
  0
LINE
  5
5F4C
330
A
100
AcDbEntity
  8
0
  6
Continuous
 62
     9
100
AcDbLine
 10
45.49999999999999
 20
-15.0
 30
0.0
 11
45.49999999999999
 21
-11.0
 31
0.0
  0
ARC
  5
5F4D
330
A
100
AcDbEntity
  8
0
  6
Continuous
 62
     7
100
AcDbCircle
 10
45.49999999999999
 20
77.5
 30
0.0
 40
7.5
100
AcDbArc
 50
0.0
 51
90.0
  0
LINE
  5
5F4E
330
A
100
AcDbEntity
  8
0
  6
Continuous
 62
     9
100
AcDbLine
 10
49.0
 20
77.5
 30
0.0
 11
53.0
 21
77.5
 31
0.0
  0
ARC
  5
5F4F
330
A
100
AcDbEntity
  8
0
  6
Continuous
 62
     7
100
AcDbCircle
 10
45.49999999999999
 20
-7.5
 30
0.0
 40
7.5
100
AcDbArc
 50
270.0
 51
0.0
  0
LINE
  5
5F50
330
A
100
AcDbEntity
  8
0
  6
Continuous
 62
     9
100
AcDbLine
 10
53.0
 20
-7.5
 30
0.0
 11
49.0
 21
-7.5
 31
0.0
  0
LINE
  5
5F51
330
A
100
AcDbEntity
  8
0
  6
Continuous
 62
     7
100
AcDbLine
 10
53.0
 20
77.5
 30
0.0
 11
53.0
 21
60.29999999999972
 31
0.0
  0
LINE
  5
5F52
330
A
100
AcDbEntity
  8
0
  6
Continuous
 62
     7
100
AcDbLine
 10
53.0
 20
60.29999999999972
 30
0.0
 11
49.0
 21
60.29999999999972
 31
0.0
  0
LINE
  5
5F53
330
A
100
AcDbEntity
  8
0
  6
Continuous
 62
     7
100
AcDbLine
 10
53.0
 20
9.700000000000043
 30
0.0
 11
53.0
 21
-7.5
 31
0.0
  0
LINE
  5
5F54
330
A
100
AcDbEntity
  8
0
  6
Continuous
 62
     7
100
AcDbLine
 10
49.0
 20
9.700000000000043
 30
0.0
 11
53.0
 21
9.700000000000043
 31
0.0
  0
LINE
  5
5F55
330
A
100
AcDbEntity
  8
0
  6
Continuous
 62
     9
100
AcDbLine
 10
31.75
 20
10.54999999999973
 30
0.0
 11
42.86313999999992
 21
10.54999999999973
 31
0.0
  0
LINE
  5
5F56
330
A
100
AcDbEntity
  8
0
  6
Continuous
 62
     7
100
AcDbLine
 10
32.34999999999991
 20
9.950000000000043
 30
0.0
 11
42.65491100000008
 21
9.950000000000043
 31
0.0
  0
LINE
  5
5F57
330
A
100
AcDbEntity
  8
0
  6
Continuous
 62
     7
100
AcDbLine
 10
42.65491100000008
 20
9.950000000000043
 30
0.0
 11
47.6500000000001
 21
9.950000000000043
 31
0.0
  0
LINE
  5
5F58
330
A
100
AcDbEntity
  8
0
  6
Continuous
 62
     9
100
AcDbLine
 10
42.86313999999992
 20
10.54999999999973
 30
0.0
 11
48.25
 21
10.54999999999973
 31
0.0
  0
LINE
  5
5F59
330
A
100
AcDbEntity
  8
0
  6
Continuous
 62
     9
100
AcDbLine
 10
41.78790699999989
 20
29.0
 30
0.0
 11
41.78790699999989
 21
40.99999999999977
 31
0.0
  0
LINE
  5
5F5A
330
A
100
AcDbEntity
  8
0
  6
Continuous
 62
     9
100
AcDbLine
 10
42.58689600000024
 20
40.99999999999977
 30
0.0
 11
42.58689600000024
 21
29.0
 31
0.0
  0
LINE
  5
5F5B
330
A
100
AcDbEntity
  8
0
  6
Continuous
 62
     7
100
AcDbLine
 10
41.78790699999989
 20
40.99999999999977
 30
0.0
 11
42.58689600000024
 21
40.99999999999977
 31
0.0
  0
LINE
  5
5F5C
330
A
100
AcDbEntity
  8
0
  6
Continuous
 62
     7
100
AcDbLine
 10
42.58689600000024
 20
29.0
 30
0.0
 11
41.78790699999989
 21
29.0
 31
0.0
  0
LINE
  5
5F5D
330
A
100
AcDbEntity
  8
0
  6
Continuous
 62
     7
100
AcDbLine
 10
48.50430000000006
 20
40.99999999999977
 30
0.0
 11
48.50430000000006
 21
29.0
 31
0.0
  0
LINE
  5
5F5E
330
A
100
AcDbEntity
  8
0
  6
Continuous
 62
     7
100
AcDbLine
 10
42.58689600000024
 20
40.99999999999977
 30
0.0
 11
48.50430000000006
 21
40.99999999999977
 31
0.0
  0
LINE
  5
5F5F
330
A
100
AcDbEntity
  8
0
  6
Continuous
 62
     7
100
AcDbLine
 10
42.58689600000024
 20
29.0
 30
0.0
 11
48.50430000000006
 21
29.0
 31
0.0
  0
LINE
  5
5F60
330
A
100
AcDbEntity
  8
0
  6
Continuous
 62
     9
100
AcDbLine
 10
37.22448700000018
 20
29.0
 30
0.0
 11
37.22448700000018
 21
40.99999999999977
 31
0.0
  0
LINE
  5
5F61
330
A
100
AcDbEntity
  8
0
  6
Continuous
 62
     9
100
AcDbLine
 10
38.44684400000005
 20
40.99999999999977
 30
0.0
 11
38.44684400000005
 21
29.0
 31
0.0
  0
LINE
  5
5F62
330
A
100
AcDbEntity
  8
0
  6
Continuous
 62
     7
100
AcDbLine
 10
37.22448700000018
 20
40.99999999999977
 30
0.0
 11
38.44684400000005
 21
40.99999999999977
 31
0.0
  0
LINE
  5
5F63
330
A
100
AcDbEntity
  8
0
  6
Continuous
 62
     7
100
AcDbLine
 10
38.44684400000005
 20
29.0
 30
0.0
 11
37.22448700000018
 21
29.0
 31
0.0
  0
LINE
  5
5F64
330
A
100
AcDbEntity
  8
0
  6
Continuous
 62
     7
100
AcDbLine
 10
41.78790699999989
 20
40.99999999999977
 30
0.0
 11
38.44684400000005
 21
40.99999999999977
 31
0.0
  0
LINE
  5
5F65
330
A
100
AcDbEntity
  8
0
  6
Continuous
 62
     7
100
AcDbLine
 10
41.78790699999989
 20
29.0
 30
0.0
 11
38.44684400000005
 21
29.0
 31
0.0
  0
LINE
  5
5F66
330
A
100
AcDbEntity
  8
0
  6
Continuous
 62
     7
100
AcDbLine
 10
26.91000000000008
 20
29.0
 30
0.0
 11
26.91000000000008
 21
40.99999999999977
 31
0.0
  0
LINE
  5
5F67
330
A
100
AcDbEntity
  8
0
  6
Continuous
 62
     7
100
AcDbLine
 10
26.91000000000008
 20
40.99999999999977
 30
0.0
 11
37.22448700000018
 21
40.99999999999977
 31
0.0
  0
LINE
  5
5F68
330
A
100
AcDbEntity
  8
0
  6
Continuous
 62
     7
100
AcDbLine
 10
26.91000000000008
 20
29.0
 30
0.0
 11
37.22448700000018
 21
29.0
 31
0.0
  0
LINE
  5
5F69
330
A
100
AcDbEntity
  8
0
  6
Continuous
 62
     9
100
AcDbLine
 10
26.71455700000001
 20
40.99999999999977
 30
0.0
 11
26.71455700000001
 21
29.0
 31
0.0
  0
LINE
  5
5F6A
330
A
100
AcDbEntity
  8
0
  6
Continuous
 62
     7
100
AcDbLine
 10
26.71455700000001
 20
40.99999999999977
 30
0.0
 11
26.91000000000008
 21
40.99999999999977
 31
0.0
  0
LINE
  5
5F6B
330
A
100
AcDbEntity
  8
0
  6
Continuous
 62
     7
100
AcDbLine
 10
26.71455700000001
 20
29.0
 30
0.0
 11
26.91000000000008
 21
29.0
 31
0.0
  0
LINE
  5
5F6C
330
A
100
AcDbEntity
  8
0
  6
Continuous
 62
     7
100
AcDbLine
 10
26.65380000000006
 20
40.99999999999977
 30
0.0
 11
26.71455700000001
 21
40.99999999999977
 31
0.0
  0
LINE
  5
5F6D
330
A
100
AcDbEntity
  8
0
  6
Continuous
 62
     7
100
AcDbLine
 10
26.71455700000001
 20
29.0
 30
0.0
 11
26.65380000000006
 21
29.0
 31
0.0
  0
LINE
  5
5F6E
330
A
100
AcDbEntity
  8
0
  6
Continuous
 62
     7
100
AcDbLine
 10
48.25
 20
59.0
 30
0.0
 11
48.25
 21
59.45000000000003
 31
0.0
  0
LINE
  5
5F6F
330
A
100
AcDbEntity
  8
0
  6
Continuous
 62
     7
100
AcDbLine
 10
31.75
 20
59.45000000000003
 30
0.0
 11
31.75
 21
59.0
 31
0.0
  0
ARC
  5
5F70
330
A
100
AcDbEntity
  8
0
  6
Continuous
 62
     7
100
AcDbCircle
 10
47.6500000000001
 20
59.45000000000003
 30
0.0
 40
0.6
100
AcDbArc
 50
0.0
 51
90.0
  0
ARC
  5
5F71
330
A
100
AcDbEntity
  8
0
  6
Continuous
 62
     7
100
AcDbCircle
 10
32.34999999999991
 20
59.45000000000003
 30
0.0
 40
0.6
100
AcDbArc
 50
90.0
 51
180.0
  0
LINE
  5
5F72
330
A
100
AcDbEntity
  8
0
  6
Continuous
 62
     7
100
AcDbLine
 10
44.75
 20
28.89999999999998
 30
0.0
 11
44.69999999999981
 21
28.95000000000005
 31
0.0
  0
LINE
  5
5F73
330
A
100
AcDbEntity
  8
0
  6
Continuous
 62
     7
100
AcDbLine
 10
35.29999999999996
 20
28.95000000000005
 30
0.0
 11
35.25
 21
28.89999999999998
 31
0.0
  0
LINE
  5
5F74
330
A
100
AcDbEntity
  8
0
  6
Continuous
 62
     7
100
AcDbLine
 10
35.25
 20
41.10000000000002
 30
0.0
 11
35.29999999999996
 21
41.04999999999972
 31
0.0
  0
LINE
  5
5F75
330
A
100
AcDbEntity
  8
0
  6
Continuous
 62
     7
100
AcDbLine
 10
44.69999999999981
 20
41.04999999999972
 30
0.0
 11
44.75
 21
41.10000000000002
 31
0.0
  0
LINE
  5
5F76
330
A
100
AcDbEntity
  8
0
  6
Continuous
 62
     7
100
AcDbLine
 10
30.0
 20
59.0
 30
0.0
 11
30.0
 21
41.10000000000002
 31
0.0
  0
LINE
  5
5F77
330
A
100
AcDbEntity
  8
0
  6
Continuous
 62
     7
100
AcDbLine
 10
30.0
 20
28.89999999999998
 30
0.0
 11
30.0
 21
10.99999999999988
 31
0.0
  0
LINE
  5
5F78
330
A
100
AcDbEntity
  8
0
  6
Continuous
 62
     7
100
AcDbLine
 10
44.0
 20
9.700000000000043
 30
0.0
 11
44.0
 21
9.950000000000043
 31
0.0
  0
LINE
  5
5F79
330
A
100
AcDbEntity
  8
0
  6
Continuous
 62
     7
100
AcDbLine
 10
44.0
 20
28.95000000000005
 30
0.0
 11
44.0
 21
29.0
 31
0.0
  0
LINE
  5
5F7A
330
A
100
AcDbEntity
  8
0
  6
Continuous
 62
     7
100
AcDbLine
 10
44.0
 20
40.99999999999977
 30
0.0
 11
44.0
 21
41.04999999999972
 31
0.0
  0
LINE
  5
5F7B
330
A
100
AcDbEntity
  8
0
  6
Continuous
 62
     7
100
AcDbLine
 10
44.0
 20
60.04999999999972
 30
0.0
 11
44.0
 21
60.29999999999972
 31
0.0
  0
LINE
  5
5F7C
330
A
100
AcDbEntity
  8
0
  6
Continuous
 62
     7
100
AcDbLine
 10
36.0
 20
60.29999999999972
 30
0.0
 11
36.0
 21
60.04999999999972
 31
0.0
  0
LINE
  5
5F7D
330
A
100
AcDbEntity
  8
0
  6
Continuous
 62
     7
100
AcDbLine
 10
36.0
 20
41.04999999999972
 30
0.0
 11
36.0
 21
40.99999999999977
 31
0.0
  0
LINE
  5
5F7E
330
A
100
AcDbEntity
  8
0
  6
Continuous
 62
     7
100
AcDbLine
 10
36.0
 20
29.0
 30
0.0
 11
36.0
 21
28.95000000000005
 31
0.0
  0
LINE
  5
5F7F
330
A
100
AcDbEntity
  8
0
  6
Continuous
 62
     7
100
AcDbLine
 10
36.0
 20
9.950000000000043
 30
0.0
 11
36.0
 21
9.700000000000043
 31
0.0
  0
ARC
  5
5F80
330
A
100
AcDbEntity
  8
0
  6
Continuous
 62
     7
100
AcDbCircle
 10
32.34999999999991
 20
10.54999999999973
 30
0.0
 40
0.6
100
AcDbArc
 50
180.0
 51
270.0
  0
ARC
  5
5F81
330
A
100
AcDbEntity
  8
0
  6
Continuous
 62
     7
100
AcDbCircle
 10
47.6500000000001
 20
10.54999999999973
 30
0.0
 40
0.6
100
AcDbArc
 50
270.0
 51
0.0
  0
LINE
  5
5F82
330
A
100
AcDbEntity
  8
0
  6
Continuous
 62
     7
100
AcDbLine
 10
31.75
 20
10.99999999999988
 30
0.0
 11
31.75
 21
10.54999999999973
 31
0.0
  0
LINE
  5
5F83
330
A
100
AcDbEntity
  8
0
  6
Continuous
 62
     7
100
AcDbLine
 10
48.25
 20
10.54999999999973
 30
0.0
 11
48.25
 21
10.99999999999988
 31
0.0
  0
LINE
  5
5F84
330
A
100
AcDbEntity
  8
0
  6
Continuous
 62
     7
100
AcDbLine
 10
26.65380000000006
 20
40.99999999999977
 30
0.0
 11
26.65380000000006
 21
29.0
 31
0.0
  0
TEXT
  5
715A
330
A
100
AcDbEntity
  8
0
  6
Continuous
 62
     7
370
     0
100
AcDbText
 10
74.99418013616376
 20
142.0073206442166
 30
0.0
 40
10.0
  1
8610
100
AcDbText
  0
ARC
  5
715B
330
A
100
AcDbEntity
  8
0
  6
Continuous
 62
     7
100
AcDbCircle
 10
145.7649926219069
 20
-84.34842460760734
 30
0.0
 40
2.483596280785099
100
AcDbArc
 50
283.9699743382577
 51
302.7774943782822
  0
LINE
  5
715C
330
A
100
AcDbEntity
  8
0
  6
Continuous
 62
     7
100
AcDbLine
 10
147.109557000001
 20
-86.43658099999994
 30
0.0
 11
147.2557179999999
 21
-86.32542600000014
 31
0.0
  0
LINE
  5
715D
330
A
100
AcDbEntity
  8
0
  6
Continuous
 62
     7
100
AcDbLine
 10
147.2557179999999
 20
-86.32542600000014
 30
0.0
 11
147.3717019999999
 21
-86.21445599999999
 31
0.0
  0
LINE
  5
715E
330
A
100
AcDbEntity
  8
0
  6
Continuous
 62
     7
100
AcDbLine
 10
147.3717019999999
 20
-86.21445599999999
 30
0.0
 11
147.4638890000001
 21
-86.10404800000015
 31
0.0
  0
LINE
  5
715F
330
A
100
AcDbEntity
  8
0
  6
Continuous
 62
     7
100
AcDbLine
 10
147.4638890000001
 20
-86.10404800000015
 30
0.0
 11
147.5372459999998
 21
-85.99342199999997
 31
0.0
  0
LINE
  5
7160
330
A
100
AcDbEntity
  8
0
  6
Continuous
 62
     7
100
AcDbLine
 10
147.5372459999998
 20
-85.99342199999997
 30
0.0
 11
147.551007
 21
-85.969308
 31
0.0
  0
LINE
  5
7161
330
A
100
AcDbEntity
  8
0
  6
Continuous
 62
     7
100
AcDbLine
 10
54.52431299999989
 20
10.99999999999988
 30
0.0
 11
54.63869800000019
 21
10.99254900000005
 31
0.0
  0
LINE
  5
7162
330
A
100
AcDbEntity
  8
0
  6
Continuous
 62
     7
100
AcDbLine
 10
54.63869800000019
 20
10.99254900000005
 30
0.0
 11
54.74738399999978
 21
10.97015799999985
 31
0.0
  0
LINE
  5
7163
330
A
100
AcDbEntity
  8
0
  6
Continuous
 62
     7
100
AcDbLine
 10
54.74738399999978
 20
10.97015799999985
 30
0.0
 11
54.84753200000113
 21
10.9327149999998
 31
0.0
  0
LINE
  5
7164
330
A
100
AcDbEntity
  8
0
  6
Continuous
 62
     7
100
AcDbLine
 10
54.84753200000113
 20
10.9327149999998
 30
0.0
 11
54.93841000000021
 21
10.88068199999975
 31
0.0
  0
LINE
  5
7165
330
A
100
AcDbEntity
  8
0
  6
Continuous
 62
     7
100
AcDbLine
 10
54.93841000000021
 20
10.88068199999975
 30
0.0
 11
55.02317399999992
 21
10.81088399999998
 31
0.0
  0
LINE
  5
7166
330
A
100
AcDbEntity
  8
0
  6
Continuous
 62
     7
100
AcDbLine
 10
55.02317399999992
 20
10.81088399999998
 30
0.0
 11
55.10361999999986
 21
10.71627799999987
 31
0.0
  0
LINE
  5
7167
330
A
100
AcDbEntity
  8
0
  6
Continuous
 62
     7
100
AcDbLine
 10
55.10361999999986
 20
10.71627799999987
 30
0.0
 11
55.1678079999997
 21
10.6087669999996
 31
0.0
  0
LINE
  5
7168
330
A
100
AcDbEntity
  8
0
  6
Continuous
 62
     7
100
AcDbLine
 10
55.1678079999997
 20
10.6087669999996
 30
0.0
 11
55.21664200000031
 21
10.49226299999975
 31
0.0
  0
ARC
  5
7169
330
A
100
AcDbEntity
  8
0
  6
Continuous
 62
     7
100
AcDbCircle
 10
53.75508428378225
 20
10.01489423911266
 30
0.0
 40
1.537540858549454
100
AcDbArc
 50
359.4449640913926
 51
18.08788842391544
  0
ARC
  5
716A
330
A
100
AcDbEntity
  8
0
  6
Continuous
 62
     7
100
AcDbCircle
 10
53.80509159010171
 20
59.97919985441559
 30
0.0
 40
1.487606833807995
100
AcDbArc
 50
340.1868997231048
 51
0.8011521350716574
  0
LINE
  5
716B
330
A
100
AcDbEntity
  8
0
  6
Continuous
 62
     7
100
AcDbLine
 10
55.20463700000028
 20
59.47497099999987
 30
0.0
 11
55.15250400000013
 21
59.36199999999995
 31
0.0
  0
LINE
  5
716C
330
A
100
AcDbEntity
  8
0
  6
Continuous
 62
     7
100
AcDbLine
 10
55.15250400000013
 20
59.36199999999995
 30
0.0
 11
55.08407299999999
 21
59.25752399999999
 31
0.0
  0
LINE
  5
716D
330
A
100
AcDbEntity
  8
0
  6
Continuous
 62
     7
100
AcDbLine
 10
55.08407299999999
 20
59.25752399999999
 30
0.0
 11
55.00090599999976
 21
59.16829299999972
 31
0.0
  0
LINE
  5
716E
330
A
100
AcDbEntity
  8
0
  6
Continuous
 62
     7
100
AcDbLine
 10
55.00090599999976
 20
59.16829299999972
 30
0.0
 11
54.91710499999999
 21
59.10539000000007
 31
0.0
  0
LINE
  5
716F
330
A
100
AcDbEntity
  8
0
  6
Continuous
 62
     7
100
AcDbLine
 10
54.91710499999999
 20
59.10539000000007
 30
0.0
 11
54.82247700000016
 21
59.05622500000004
 31
0.0
  0
LINE
  5
7170
330
A
100
AcDbEntity
  8
0
  6
Continuous
 62
     7
100
AcDbLine
 10
54.82247700000016
 20
59.05622500000004
 30
0.0
 11
54.71803000000001
 21
59.02209000000005
 31
0.0
  0
LINE
  5
7171
330
A
100
AcDbEntity
  8
0
  6
Continuous
 62
     7
100
AcDbLine
 10
54.71803000000001
 20
59.02209000000005
 30
0.0
 11
54.60365199999978
 21
59.00352099999975
 31
0.0
  0
LINE
  5
7172
330
A
100
AcDbEntity
  8
0
  6
Continuous
 62
     7
100
AcDbLine
 10
54.60365199999978
 20
59.00352099999975
 30
0.0
 11
54.52431299999989
 21
59.0
 31
0.0
  0
LINE
  5
79BE
330
A
100
AcDbEntity
  8
0
  6
CENTER
 62
     1
100
AcDbLine
 10
53.0
 20
73.49999999999976
 30
0.0
 11
12.35920709430775
 21
73.49999999999976
 31
0.0
  0
LINE
  5
79BF
330
A
100
AcDbEntity
  8
0
  6
CENTER
 62
     1
100
AcDbLine
 10
-10.0
 20
0.0
 30
0.0
 11
-10.0
 21
70.0
 31
0.0
  0
LINE
  5
79C0
330
A
100
AcDbEntity
  8
0
  6
CENTER
 62
     1
100
AcDbLine
 10
-15.0
 20
70.0
 30
0.0
 11
15.0
 21
70.0
 31
0.0
  0
LINE
  5
79C1
330
A
100
AcDbEntity
  8
0
  6
CENTER
 62
     1
100
AcDbLine
 10
0.0
 20
55.0
 30
0.0
 11
0.0
 21
84.99999999999976
 31
0.0
  0
LINE
  5
79C2
330
A
100
AcDbEntity
  8
0
  6
CENTER
 62
     1
100
AcDbLine
 10
-15.0
 20
0.0
 30
0.0
 11
15.0
 21
0.0
 31
0.0
  0
LINE
  5
79C3
330
A
100
AcDbEntity
  8
0
  6
CENTER
 62
     1
100
AcDbLine
 10
0.0
 20
-15.00000000000023
 30
0.0
 11
0.0
 21
14.99999999999977
 31
0.0
  0
ARC
  5
79C4
330
A
100
AcDbEntity
  8
0
  6
CENTER
 62
     1
100
AcDbCircle
 10
0.0
 20
70.0
 30
0.0
 40
10.0
100
AcDbArc
 50
34.51810784106589
 51
180.0
  0
ARC
  5
79C5
330
A
100
AcDbEntity
  8
0
  6
CENTER
 62
     1
100
AcDbCircle
 10
12.35920709430775
 20
78.49999999999976
 30
0.0
 40
5.0
100
AcDbArc
 50
214.5181078410659
 51
270.0
  0
LINE
  5
79C6
330
A
100
AcDbEntity
  8
0
  6
CENTER
 62
     1
100
AcDbLine
 10
53.0
 20
-3.5
 30
0.0
 11
12.35920709430775
 21
-3.5
 31
0.0
  0
ARC
  5
79C7
330
A
100
AcDbEntity
  8
0
  6
CENTER
 62
     1
100
AcDbCircle
 10
12.35920709430775
 20
-8.5
 30
0.0
 40
5.0
100
AcDbArc
 50
90.0
 51
145.4818921589341
  0
ARC
  5
79C8
330
A
100
AcDbEntity
  8
0
  6
CENTER
 62
     1
100
AcDbCircle
 10
0.0
 20
0.0
 30
0.0
 40
10.0
100
AcDbArc
 50
180.0
 51
325.4818921589341
  0
ENDSEC
  0
SECTION
  2
OBJECTS
  0
DICTIONARY
  5
19
330
0
100
AcDbDictionary
281
     1
  3
ACAD_COLOR
350
3988
  3
ACAD_GROUP
350
1A
  3
ACAD_LAYOUT
350
1E
  3
ACAD_MATERIAL
350
395E
  3
ACAD_MLEADERSTYLE
350
39AD
  3
ACAD_MLINESTYLE
350
1B
  3
ACAD_PLOTSETTINGS
350
22
  3
ACAD_PLOTSTYLENAME
350
1F
  3
ACAD_SCALELIST
350
398B
  3
ACAD_TABLESTYLE
350
3989
  3
ACAD_VISUALSTYLE
350
3977
  3
ACAD_WIPEOUT_VARS
350
23
  3
ACDB_RECOMPOSE_DATA
350
72EC
  3
AcDbVariableDictionary
350
72CB
  3
ASE_INDEX_DICTIONARY
350
72C6
  3
DWGPROPS
350
79DD
  0
DICTIONARY
  5
72C9
330
14
100
AcDbDictionary
280
     1
281
     1
  3
ADSK_XREC_LAYER_RECONCILED
360
72CA
  0
DICTIONARY
  5
39B7
330
A
100
AcDbDictionary
280
     1
281
     1
  3
ACAD_SORTENTS
360
39B8
  0
DICTIONARY
  5
3988
102
{ACAD_REACTORS
330
19
102
}
330
19
100
AcDbDictionary
281
     1
  0
DICTIONARY
  5
1A
102
{ACAD_REACTORS
330
19
102
}
330
19
100
AcDbDictionary
281
     1
  0
DICTIONARY
  5
1E
102
{ACAD_REACTORS
330
19
102
}
330
19
100
AcDbDictionary
281
     1
  3
Layout1
350
21
  3
Model
350
20
  0
DICTIONARY
  5
395E
102
{ACAD_REACTORS
330
19
102
}
330
19
100
AcDbDictionary
281
     1
  3
ByBlock
350
3967
  3
ByLayer
350
395F
  3
Global
350
396F
  0
DICTIONARY
  5
39AD
102
{ACAD_REACTORS
330
19
102
}
330
19
100
AcDbDictionary
281
     1
  3
Standard
350
39AE
  0
DICTIONARY
  5
1B
102
{ACAD_REACTORS
330
19
102
}
330
19
100
AcDbDictionary
281
     1
  3
Standard
350
1C
  0
DICTIONARY
  5
22
102
{ACAD_REACTORS
330
19
102
}
330
19
100
AcDbDictionary
281
     1
  0
ACDBDICTIONARYWDFLT
  5
1F
102
{ACAD_REACTORS
330
19
102
}
330
19
100
AcDbDictionary
281
     1
  3
Normal
350
1D
100
AcDbDictionaryWithDefault
340
1D
  0
DICTIONARY
  5
398B
102
{ACAD_REACTORS
330
19
102
}
330
19
100
AcDbDictionary
281
     1
  3
A0
350
398C
  3
A1
350
398D
  3
A2
350
398E
  3
A3
350
398F
  3
A4
350
3990
  3
A5
350
3991
  3
A6
350
3992
  3
A7
350
3993
  3
A8
350
3994
  3
A9
350
3995
  3
B0
350
3996
  3
B1
350
3997
  3
B2
350
3998
  3
B3
350
3999
  3
B4
350
399A
  3
B5
350
399B
  3
B6
350
399C
  3
B7
350
399D
  3
B8
350
399E
  3
B9
350
399F
  3
C0
350
39A0
  3
C1
350
39A1
  3
C2
350
39A2
  3
C3
350
39A3
  3
C4
350
39A4
  3
C5
350
39A5
  3
C6
350
39A6
  3
C7
350
39A7
  3
C8
350
39A8
  3
C9
350
39A9
  3
D0
350
39AA
  3
D1
350
39AB
  3
D2
350
39AC
  0
DICTIONARY
  5
3989
102
{ACAD_REACTORS
330
19
102
}
330
19
100
AcDbDictionary
281
     1
  3
Standard
350
398A
  0
DICTIONARY
  5
3977
102
{ACAD_REACTORS
330
19
102
}
330
19
100
AcDbDictionary
281
     1
  3
2dWireframe
350
397D
  3
3D Hidden
350
397F
  3
3dWireframe
350
397E
  3
Basic
350
397C
  3
Brighten
350
3983
  3
ColorChange
350
3987
  3
Conceptual
350
3980
  3
Dim
350
3982
  3
Facepattern
350
3986
  3
Flat
350
3978
  3
FlatWithEdges
350
3979
  3
Gouraud
350
397A
  3
GouraudWithEdges
350
397B
  3
Linepattern
350
3985
  3
Realistic
350
3981
  3
Thicken
350
3984
  0
WIPEOUTVARIABLES
  5
23
330
19
100
AcDbWipeoutVariables
 70
     1
  0
XRECORD
  5
72EC
102
{ACAD_REACTORS
330
19
102
}
330
19
100
AcDbXrecord
280
     1
 90
        1
330
398A
  0
DICTIONARY
  5
72CB
102
{ACAD_REACTORS
330
19
102
}
330
19
100
AcDbDictionary
281
     1
  3
CANNOSCALE
350
72CE
  3
CMLEADERSTYLE
350
72CD
  3
CTABLESTYLE
350
72CC
  3
DIMASSOC
350
72D1
  3
INDEXCTL
350
72D0
  3
SORTENTS
350
72CF
  0
DICTIONARY
  5
72C6
102
{ACAD_REACTORS
330
19
102
}
330
19
100
AcDbDictionary
281
     1
  3
ASEBlockHierarchyIndexRecord
350
72C8
1001
DCO15
1040
1687090590.691
  0
XRECORD
  5
79DD
102
{ACAD_REACTORS
330
19
102
}
330
19
100
AcDbXrecord
280
     1
  1
DWGPROPS COOKIE
  2

  3

  4

  6

  7

  8
renzo.ceresoli
  9

300
=
301
=
302
=
303
=
304
=
305
=
306
=
307
=
308
=
309
=
 40
0.0349724074074074
 41
2455329.702198484
 42
2455380.512511678
  1

 90
        0
  0
XRECORD
  5
72CA
102
{ACAD_REACTORS
330
72C9
102
}
330
72C9
100
AcDbXrecord
280
     1
290
     1
  0
SORTENTSTABLE
  5
39B8
102
{ACAD_REACTORS
330
39B7
102
}
330
39B7
100
AcDbSortentsTable
330
A
331
5C20
  5
4CEC
331
5BCB
  5
4C97
331
5F7C
  5
492D
331
5BEA
  5
4CB6
331
5F65
  5
4916
331
5B95
  5
4C61
331
5F46
  5
48F7
331
5BAC
  5
4C78
331
5F27
  5
48D8
331
5B57
  5
4C23
331
5F00
  5
48B2
331
5B76
  5
4C42
331
5C09
  5
4CD5
331
5EE9
  5
49C4
331
1FC9
  5
56CF
331
5E7D
  5
4958
331
5E8C
  5
4967
331
5EAB
  5
4986
331
5E3F
  5
4A41
331
5E5E
  5
4939
331
5E20
  5
4A22
331
5DAC
  5
4B69
331
5D76
  5
4B33
331
5DCB
  5
4B88
331
5D57
  5
4B14
331
5DEA
  5
49EC
331
5ECA
  5
49A5
331
5B38
  5
4C04
331
5C48
  5
4D0C
331
5C0A
  5
4CD6
331
5C21
  5
4CED
331
5BCC
  5
4C98
331
5BAD
  5
4C79
331
5F66
  5
4917
331
5F47
  5
48F8
331
5B77
  5
4C43
331
5F28
  5
48D9
331
5B96
  5
4C62
331
5F01
  5
48B3
331
5B39
  5
4C05
331
5B58
  5
4C24
331
1FCA
  5
56D0
331
5EAC
  5
4987
331
5ECB
  5
49A6
331
5E5F
  5
493A
331
5E7E
  5
4959
331
5E8D
  5
4968
331
5E21
  5
4A23
331
5DCC
  5
4B89
331
5DEB
  5
49ED
331
5DAD
  5
4B6A
331
5E40
  5
4A42
331
5D77
  5
4B34
331
5EEA
  5
49C5
331
5F7D
  5
492E
331
5BEB
  5
4CB7
331
5C68
  5
4B9A
331
5C22
  5
4CEE
331
5C49
  5
4D0D
331
5BCD
  5
4C99
331
5F7E
  5
492F
331
5BEC
  5
4CB8
331
5F67
  5
4918
331
5B97
  5
4C63
331
5F48
  5
48F9
331
5BAE
  5
4C7A
331
5F29
  5
48DA
331
5B59
  5
4C25
331
5B3A
  5
4C06
331
5EEB
  5
49C6
331
5ECC
  5
49A7
331
5E7F
  5
495A
331
5E8E
  5
4969
331
5EAD
  5
4988
331
1FCB
  5
56D1
331
5E41
  5
4A43
331
5E60
  5
493B
331
5DEC
  5
49EE
331
5DAE
  5
4B6B
331
5DCD
  5
4B8A
331
5E22
  5
4A24
331
5F02
  5
48B4
331
5B78
  5
4C44
331
5C0B
  5
4CD7
331
5C88
  5
4BBA
331
5C4A
  5
4D0E
331
5C69
  5
4B9B
331
5BED
  5
4CB9
331
5C0C
  5
4CD8
331
5F7F
  5
4930
331
5BAF
  5
4C7B
331
5F68
  5
4919
331
5BCE
  5
4C9A
331
5F49
  5
48FA
331
5B79
  5
4C45
331
5F2A
  5
48DB
331
5B98
  5
4C64
331
5C23
  5
4CEF
331
5F03
  5
48B5
331
5B3B
  5
4C07
331
1FCC
  5
56D2
331
5EAE
  5
4989
331
5ECD
  5
49A8
331
5E61
  5
493C
331
5E8F
  5
496A
331
5E23
  5
4A25
331
5DCE
  5
4B8B
331
5DED
  5
49EF
331
5DAF
  5
4B6C
331
5E42
  5
4A44
331
5EEC
  5
49C7
331
5B5A
  5
4C26
331
5C6A
  5
4B9C
331
5C89
  5
4BBB
331
5C24
  5
4CF0
331
5C4B
  5
4D0F
331
5BCF
  5
4C9B
331
5F80
  5
4931
331
5BEE
  5
4CBA
331
5F69
  5
491A
331
5B99
  5
4C65
331
5F4A
  5
48FB
331
5BB0
  5
4C7C
331
5F2B
  5
48DC
331
5B5B
  5
4C27
331
5B3C
  5
4C08
331
5EED
  5
49C8
331
5ECE
  5
49A9
331
5E90
  5
496B
331
5EAF
  5
498A
331
1FCD
  5
56D3
331
5E43
  5
4A45
331
5E62
  5
493D
331
5DEE
  5
49F0
331
5DCF
  5
4B8C
331
5E24
  5
4A26
331
5F04
  5
48B6
331
5B7A
  5
4C46
331
5C0D
  5
4CD9
331
5C8A
  5
4BBC
331
5C4C
  5
4D10
331
5C6B
  5
4B9D
331
5BEF
  5
4CBB
331
5C0E
  5
4CDA
331
5F81
  5
4932
331
5BB1
  5
4C7D
331
5F6A
  5
491B
331
5BD0
  5
4C9C
331
5F4B
  5
48FC
331
5B7B
  5
4C47
331
5B5C
  5
4C28
331
5F05
  5
48B7
331
5EEE
  5
49C9
331
1FCE
  5
56D4
331
5EB0
  5
498B
331
5ECF
  5
49AA
331
5B3D
  5
4C09
331
5E63
  5
493E
331
5E91
  5
496C
331
5E25
  5
4A27
331
5DEF
  5
49F1
331
5E44
  5
4A46
331
5F2C
  5
48DD
331
5B9A
  5
4C66
331
5C25
  5
4CF1
331
5C6C
  5
4B9E
331
5C8B
  5
4BBD
331
5C0F
  5
4CDB
331
5C26
  5
4CF2
331
5BD1
  5
4C9D
331
5F82
  5
4933
331
5BF0
  5
4CBC
331
5F6B
  5
491C
331
5B9B
  5
4C67
331
5F4C
  5
48FD
331
5BB2
  5
4C7E
331
5C4D
  5
4D11
331
5F2D
  5
48DE
331
5B5D
  5
4C29
331
5B3E
  5
4C0A
331
5EEF
  5
49CA
331
5ED0
  5
49AB
331
1FCF
  5
56D5
331
5E92
  5
496D
331
5EB1
  5
498C
331
5E45
  5
4A47
331
5E64
  5
493F
331
5F06
  5
48B8
331
5E26
  5
4A28
331
5B7C
  5
4C48
331
5C8C
  5
4BBE
331
5C4E
  5
4D12
331
5C6D
  5
4B9F
331
5BF1
  5
4CBD
331
5C10
  5
4CDC
331
5F83
  5
4934
331
5BB3
  5
4C7F
331
5F6C
  5
491D
331
5BD2
  5
4C9E
331
5F4D
  5
48FE
331
5B7D
  5
4C49
331
5B5E
  5
4C2A
331
5F07
  5
48B9
331
5EF0
  5
49CB
331
1FD0
  5
56D6
331
5B3F
  5
4C0B
331
5EB2
  5
498D
331
5ED1
  5
49AC
331
5E65
  5
4940
331
5E93
  5
496E
331
5E27
  5
4A29
331
5E46
  5
4A48
331
5F2E
  5
48DF
331
5B9C
  5
4C68
331
5C27
  5
4CF3
331
5C6E
  5
4BA0
331
5C8D
  5
4BBF
331
5C11
  5
4CDD
331
5C28
  5
4CF4
331
5BD3
  5
4C9F
331
5F84
  5
4935
331
5BF2
  5
4CBE
331
5F6D
  5
491E
331
5B9D
  5
4C69
331
5BB4
  5
4C80
331
5B7E
  5
4C4A
331
5F2F
  5
48E0
331
5F08
  5
48BA
331
5B40
  5
4C0C
331
5B5F
  5
4C2B
331
5ED2
  5
49AD
331
1FB2
  5
56B8
331
5EF1
  5
49CC
331
5E94
  5
496F
331
5EB3
  5
498E
331
5E47
  5
4A49
331
5E66
  5
4941
331
5F4E
  5
48FF
331
5C4F
  5
4D13
331
5C8E
  5
4BC0
331
5C29
  5
4CF5
331
5C50
  5
4D14
331
5BF3
  5
4CBF
331
5C12
  5
4CDE
331
5BB5
  5
4C81
331
5BD4
  5
4CA0
331
5F6E
  5
491F
331
5C6F
  5
4BA1
331
5F4F
  5
4900
331
5B7F
  5
4C4B
331
5B60
  5
4C2C
331
5EF2
  5
49CD
331
5ED3
  5
49AE
331
5B41
  5
4C0D
331
5EB4
  5
498F
331
1FB3
  5
56B9
331
5E67
  5
4942
331
5E95
  5
4970
331
5F30
  5
48E1
331
5B9E
  5
4C6A
331
5C70
  5
4BA2
331
5C8F
  5
4BC1
331
5C13
  5
4CDF
331
5C2A
  5
4CF6
331
5BD5
  5
4CA1
331
5BF4
  5
4CC0
331
5F6F
  5
4920
331
5B9F
  5
4C6B
331
5B80
  5
4C4C
331
5F31
  5
48E2
331
5B42
  5
4C0E
331
5B61
  5
4C2D
331
5ED4
  5
49AF
331
1FB4
  5
56BA
331
5EF3
  5
49CE
331
5E96
  5
4971
331
5EB5
  5
4990
331
5F50
  5
4901
331
5BB6
  5
4C82
331
5C51
  5
4D15
331
5C90
  5
4BC2
331
5C2B
  5
4CF7
331
5C52
  5
4D16
331
5BF5
  5
4CC1
331
5C14
  5
4CE0
331
5BB7
  5
4C83
331
5BA0
  5
4C6C
331
5F51
  5
4902
331
5F32
  5
48E3
331
5B62
  5
4C2E
331
5B81
  5
4C4D
331
5EF4
  5
49CF
331
5ED5
  5
49B0
331
5B43
  5
4C0F
331
5F70
  5
4921
331
5BD6
  5
4CA2
331
5C71
  5
4BA3
331
5EB6
  5
4991
331
5E97
  5
4972
331
1FB5
  5
56BB
331
5C53
  5
4D17
331
5C72
  5
4BA4
331
5C15
  5
4CE1
331
5C2C
  5
4CF8
331
5BD7
  5
4CA3
331
5BF6
  5
4CC2
331
5C91
  5
4BC3
331
5F71
  5
4922
331
5BA1
  5
4C6D
331
5B82
  5
4C4E
331
5F33
  5
48E4
331
5B44
  5
4C10
331
5ED6
  5
49B1
331
1FB6
  5
56BC
331
5EF5
  5
49D0
331
5B63
  5
4C2F
331
5E98
  5
4973
331
5EB7
  5
4992
331
5F52
  5
4903
331
5BB8
  5
4C84
331
5C92
  5
4BC4
331
5C2D
  5
4CF9
331
5C54
  5
4D18
331
5BF7
  5
4CC3
331
5C16
  5
4CE2
331
5BB9
  5
4C85
331
5BA2
  5
4C6E
331
5F53
  5
4904
331
5F34
  5
48E5
331
5B64
  5
4C30
331
5B83
  5
4C4F
331
5EF6
  5
49D1
331
5B45
  5
4C11
331
1FB7
  5
56BD
331
5E99
  5
4974
331
5EB8
  5
4993
331
5ED7
  5
49B2
331
5F72
  5
4923
331
5BD8
  5
4CA4
331
5C73
  5
4BA5
331
5C55
  5
4D19
331
5C74
  5
4BA6
331
5C17
  5
4CE3
331
5C2E
  5
4CFA
331
5BBA
  5
4C86
331
5F73
  5
4924
331
5BD9
  5
4CA5
331
5F54
  5
4905
331
5B84
  5
4C50
331
5F35
  5
48E6
331
5BA3
  5
4C6F
331
5B46
  5
4C12
331
5B65
  5
4C31
331
5ED8
  5
49B3
331
1FB8
  5
56BE
331
5EF7
  5
49D2
331
5BF8
  5
4CC4
331
5C93
  5
4BC5
331
5E9A
  5
4975
331
5EB9
  5
4994
331
5C75
  5
4BA7
331
5C94
  5
4BC6
331
5C2F
  5
4CFB
331
5C56
  5
4D1A
331
5BF9
  5
4CC5
331
5C18
  5
4CE4
331
5BBB
  5
4C87
331
5BA4
  5
4C70
331
5F55
  5
4906
331
5F36
  5
48E7
331
5B66
  5
4C32
331
5B85
  5
4C51
331
1FB9
  5
56BF
331
5E9B
  5
4976
331
5EBA
  5
4995
331
5ED9
  5
49B4
331
5B47
  5
4C13
331
5F74
  5
4925
331
5BDA
  5
4CA6
331
5C57
  5
4D1B
331
5C76
  5
4BA8
331
5C19
  5
4CE5
331
5C30
  5
4CFC
331
5BBC
  5
4C88
331
5F75
  5
4926
331
5BDB
  5
4CA7
331
5F56
  5
4907
331
5B86
  5
4C52
331
5F37
  5
48E8
331
5BA5
  5
4C71
331
5B48
  5
4C14
331
5EDA
  5
49B5
331
5EBB
  5
4996
331
5E9C
  5
4977
331
1FBA
  5
56C0
331
5B67
  5
4C33
331
5BFA
  5
4CC6
331
5C95
  5
4BC7
331
5C77
  5
4BA9
331
5C96
  5
4BC8
331
5C31
  5
4CFD
331
5C58
  5
4D1C
331
5BDC
  5
4CA8
331
5BFB
  5
4CC7
331
5F76
  5
4927
331
5BA6
  5
4C72
331
5BBD
  5
4C89
331
5F57
  5
4908
331
5F38
  5
48E9
331
5B68
  5
4C34
331
5B87
  5
4C53
331
5C1A
  5
4CE6
331
5B49
  5
4C15
331
1FBB
  5
56C1
331
5E9D
  5
4978
331
5EBC
  5
4997
331
5EDB
  5
49B6
331
5C97
  5
4BC9
331
5C59
  5
4D1D
331
5C78
  5
4BAA
331
5C1B
  5
4CE7
331
5C32
  5
4CFE
331
5BBE
  5
4C8A
331
5BDD
  5
4CA9
331
5F77
  5
4928
331
5F58
  5
4909
331
5B88
  5
4C54
331
5F39
  5
48EA
331
5BA7
  5
4C73
331
5B4A
  5
4C16
331
5EDC
  5
49B7
331
5EBD
  5
4998
331
1FBC
  5
56C2
331
5E9E
  5
4979
331
5B69
  5
4C35
331
5BFC
  5
4CC8
331
5C79
  5
4BAB
331
5C98
  5
4BCA
331
5C33
  5
4CFF
331
5C5A
  5
4D1E
331
5BDE
  5
4CAA
331
5BFD
  5
4CC9
331
5F59
  5
490A
331
5BBF
  5
4C8B
331
5F3A
  5
48EB
331
5EDD
  5
49B8
331
5B4B
  5
4C17
331
1FBD
  5
56C3
331
5B6A
  5
4C36
331
5E9F
  5
497A
331
5EBE
  5
4999
331
5B89
  5
4C55
331
5C1C
  5
4CE8
331
5C99
  5
4BCB
331
5C5B
  5
4D1F
331
5C7A
  5
4BAC
331
5BFE
  5
4CCA
331
5C1D
  5
4CE9
331
5F5A
  5
490B
331
5BC0
  5
4C8C
331
5B8A
  5
4C56
331
5BDF
  5
4CAB
331
5F3B
  5
48EC
331
5C34
  5
4D00
331
5EDE
  5
49B9
331
5B4C
  5
4C18
331
5EBF
  5
499A
331
1FBE
  5
56C4
331
5B6B
  5
4C37
331
5C7B
  5
4BAD
331
5C9A
  5
4BCC
331
5C35
  5
4D01
331
5C5C
  5
4D20
331
5BE0
  5
4CAC
331
5BFF
  5
4CCB
331
5F5B
  5
490C
331
5BC1
  5
4C8D
331
5F3C
  5
48ED
331
5B6C
  5
4C38
331
5B4D
  5
4C19
331
5EDF
  5
49BA
331
1FBF
  5
56C5
331
5F15
  5
48BC
331
5B8B
  5
4C57
331
5C1E
  5
4CEA
331
5C9B
  5
4BCD
331
5C5D
  5
4B8F
331
5C7C
  5
4BAE
331
5C00
  5
4CCC
331
5C1F
  5
4CEB
331
5BC2
  5
4C8E
331
5F5C
  5
490D
331
5B8C
  5
4C58
331
5BE1
  5
4CAD
331
5B6D
  5
4C39
331
5F16
  5
48BD
331
5B4E
  5
4C1A
331
5F3D
  5
48EE
331
5C36
  5
4D02
331
5C7D
  5
4BAF
331
5C9C
  5
4BCE
331
5C37
  5
4D03
331
5BE2
  5
4CAE
331
5C01
  5
4CCD
331
5F5D
  5
490E
331
5BC3
  5
4C8F
331
5C5E
  5
4B90
331
5F3E
  5
48EF
331
5B4F
  5
4C1B
331
5B6E
  5
4C3A
331
5B8D
  5
4C59
331
5C9D
  5
4BCF
331
5C5F
  5
4B91
331
5C7E
  5
4BB0
331
5C02
  5
4CCE
331
5F5E
  5
490F
331
5BC4
  5
4C90
331
5B8E
  5
4C5A
331
5BE3
  5
4CAF
331
5B6F
  5
4C3B
331
5F3F
  5
48F0
331
5C38
  5
4D04
331
5C7F
  5
4BB1
331
5C9E
  5
4BD0
331
5C39
  5
4D05
331
5BE4
  5
4CB0
331
5C03
  5
4CCF
331
5B8F
  5
4C5B
331
5F5F
  5
4910
331
5BC5
  5
4C91
331
5C60
  5
4B92
331
5C9F
  5
4BD1
331
5C3A
  5
4D06
331
5C04
  5
4CD0
331
5C61
  5
4B93
331
5BC6
  5
4C92
331
5BE5
  5
4CB1
331
5C80
  5
4BB2
331
5C81
  5
4BB3
331
5C3B
  5
4D07
331
5BE6
  5
4CB2
331
5C05
  5
4CD1
331
5BC7
  5
4C93
331
5C62
  5
4B94
331
5CA0
  5
4BD2
331
5C3C
  5
4D08
331
5C06
  5
4CD2
331
5C63
  5
4B95
331
5BE7
  5
4CB3
331
5C82
  5
4BB4
331
5CA1
  5
4BD3
331
5CC0
  5
4BF2
331
5C64
  5
4B96
331
5C83
  5
4BB5
331
5C3D
  5
4D09
331
5C07
  5
4CD3
331
5CC1
  5
4BF3
331
5CE0
  5
4A95
331
5CA2
  5
4BD4
331
5C3E
  5
4D0A
331
5C65
  5
4B97
331
5C84
  5
4BB6
331
5CE1
  5
4A96
331
5D00
  5
4ABD
331
5CA3
  5
4BD5
331
5CC2
  5
4BF4
331
5C66
  5
4B98
331
5C85
  5
4BB7
331
5D01
  5
4ABE
331
5D18
  5
4AD5
331
5CC3
  5
4BF5
331
5CE2
  5
4A97
331
5CA4
  5
4BD6
331
5C86
  5
4BB8
331
5C67
  5
4B99
331
5D19
  5
4AD6
331
5D38
  5
4AF5
331
5CE3
  5
4A98
331
5D02
  5
4ABF
331
5CA5
  5
4BD7
331
5CC4
  5
4BF6
331
5C87
  5
4BB9
331
5D39
  5
4AF6
331
5D58
  5
4B15
331
5D03
  5
4AC0
331
5D1A
  5
4AD7
331
5CC5
  5
4BF7
331
5CE4
  5
4A99
331
5CA6
  5
4BD8
331
5D78
  5
4B35
331
5D1B
  5
4AD8
331
5D3A
  5
4AF7
331
5CE5
  5
4A9A
331
5D04
  5
4AC1
331
5CA7
  5
4BD9
331
5CC6
  5
4BF8
331
5D59
  5
4B16
331
5D90
  5
4B4D
331
5D3B
  5
4AF8
331
5D5A
  5
4B17
331
5D05
  5
4AC2
331
5D1C
  5
4AD9
331
5CA8
  5
4BDA
331
5CC7
  5
4BF9
331
5CE6
  5
4A9B
331
5D79
  5
4B36
331
5DB0
  5
4B6D
331
5D5B
  5
4B18
331
5D7A
  5
4B37
331
5D1D
  5
4ADA
331
5D3C
  5
4AF9
331
5CE7
  5
4A9C
331
5D06
  5
4AC3
331
5D91
  5
4B4E
331
5CA9
  5
4BDB
331
5CC8
  5
4BFA
331
5DD0
  5
4B8D
331
5D92
  5
4B4F
331
5DB1
  5
4B6E
331
5D3D
  5
4AFA
331
5D5C
  5
4B19
331
5D07
  5
4AC4
331
5D1E
  5
4ADB
331
5CAA
  5
4BDC
331
5CC9
  5
4BFB
331
5CE8
  5
4A9D
331
5D7B
  5
4B38
331
5DF0
  5
49F2
331
5DB2
  5
4B6F
331
5DD1
  5
4B8E
331
5D5D
  5
4B1A
331
5D7C
  5
4B39
331
5D1F
  5
4ADC
331
5D3E
  5
4AFB
331
5CCA
  5
4BFC
331
5CE9
  5
4AA6
331
5CAB
  5
4BDD
331
5D08
  5
4AC5
331
5D93
  5
4B50
331
5E08
  5
4A0A
331
5DD2
  5
49D4
331
5DF1
  5
49F3
331
5D7D
  5
4B3A
331
5D94
  5
4B51
331
5D3F
  5
4AFC
331
5D5E
  5
4B1B
331
5D09
  5
4AC6
331
5D20
  5
4ADD
331
5DB3
  5
4B70
331
5CAC
  5
4BDE
331
5CCB
  5
4BFD
331
5CEA
  5
4AA7
331
5E28
  5
4A2A
331
5DF2
  5
49F4
331
5E09
  5
4A0B
331
5DB4
  5
4B71
331
5DD3
  5
49D5
331
5D5F
  5
4B1C
331
5D7E
  5
4B3B
331
5D21
  5
4ADE
331
5D40
  5
4AFD
331
5CCC
  5
4BFE
331
5CEB
  5
4AA8
331
5CAD
  5
4BDF
331
5D0A
  5
4AC7
331
5D95
  5
4B52
331
5E0A
  5
4A0C
331
5E29
  5
4A2B
331
5DD4
  5
49D6
331
5DF3
  5
49F5
331
5D7F
  5
4B3C
331
5D96
  5
4B53
331
5D41
  5
4AFE
331
5D60
  5
4B1D
331
5CEC
  5
4AA9
331
5D0B
  5
4AC8
331
5CAE
  5
4BE0
331
5CCD
  5
4BFF
331
5D22
  5
4ADF
331
5DB5
  5
4B72
331
5E48
  5
4A4A
331
5E2A
  5
4A2C
331
5E49
  5
4A4B
331
5DF4
  5
49F6
331
5E0B
  5
4A0D
331
5D97
  5
4B54
331
5DB6
  5
4B73
331
5D61
  5
4B1E
331
5D80
  5
4B3D
331
5D23
  5
4AE0
331
5D42
  5
4AFF
331
5DD5
  5
49D7
331
5E68
  5
4943
331
5CCE
  5
4C00
331
5CED
  5
4AAA
331
5CAF
  5
4BE1
331
5D0C
  5
4AC9
331
5E4A
  5
4A4C
331
5E69
  5
4944
331
5E0C
  5
4A0E
331
5E2B
  5
4A2D
331
5DD6
  5
49D8
331
5DF5
  5
49F7
331
5D81
  5
4B3E
331
5D98
  5
4B55
331
5D43
  5
4B00
331
5D62
  5
4B1F
331
5CEE
  5
4AAB
331
5D0D
  5
4ACA
331
5CB0
  5
4BE2
331
5CCF
  5
4C01
331
5D24
  5
4AE1
331
5DB7
  5
4B74
331
5E2C
  5
4A2E
331
5E4B
  5
4A4D
331
5DF6
  5
49F8
331
5E0D
  5
4A0F
331
5D99
  5
4B56
331
5DB8
  5
4B75
331
5D63
  5
4B20
331
5D82
  5
4B3F
331
5D0E
  5
4ACB
331
5D25
  5
4AE2
331
5CD0
  5
4A73
331
5CEF
  5
4AAC
331
5CB1
  5
4BE3
331
5D44
  5
4B01
331
5DD7
  5
49D9
331
5E6A
  5
4945
331
5E4C
  5
4A4E
331
5E6B
  5
4946
331
5E0E
  5
4A10
331
5E2D
  5
4A2F
331
5DB9
  5
4B76
331
5DD8
  5
49DA
331
5D83
  5
4B40
331
5D9A
  5
4B57
331
5D45
  5
4B02
331
5D64
  5
4B21
331
5DF7
  5
49F9
331
5CF0
  5
4AAD
331
5D0F
  5
4ACC
331
5CB2
  5
4BE4
331
5CD1
  5
4A74
331
5D26
  5
4AE3
331
5E6C
  5
4947
331
5E2E
  5
4A30
331
5E4D
  5
4A4F
331
5DF8
  5
49FA
331
5E0F
  5
4A11
331
5D9B
  5
4B58
331
5DBA
  5
4B77
331
5D65
  5
4B22
331
5D84
  5
4B41
331
5D10
  5
4ACD
331
5D27
  5
4AE4
331
5CD2
  5
4A7E
331
5CF1
  5
4AAE
331
5CB3
  5
4BE5
331
5D46
  5
4B03
331
5DD9
  5
49DB
331
5E4E
  5
4A50
331
5E6D
  5
4948
331
5E10
  5
4A12
331
5E2F
  5
4A31
331
5DBB
  5
4B78
331
5DDA
  5
49DC
331
5D85
  5
4B42
331
5D9C
  5
4B59
331
5D28
  5
4AE5
331
5D47
  5
4B04
331
5CF2
  5
4AAF
331
5D11
  5
4ACE
331
5CB4
  5
4BE6
331
5CD3
  5
4A7F
331
5D66
  5
4B23
331
5DF9
  5
49FB
331
5E6E
  5
4949
331
5E30
  5
4A32
331
5E4F
  5
4A51
331
5DDB
  5
49DD
331
5DFA
  5
49FC
331
5D9D
  5
4B5A
331
5DBC
  5
4B79
331
5D67
  5
4B24
331
5D86
  5
4B43
331
5E11
  5
4A13
331
5D12
  5
4ACF
331
5D29
  5
4AE6
331
5CD4
  5
4A80
331
5CF3
  5
4AB0
331
5CB5
  5
4BE7
331
5D48
  5
4B05
331
5E50
  5
4A52
331
5E6F
  5
494A
331
5E12
  5
4A14
331
5E31
  5
4A33
331
5DBD
  5
4B7A
331
5DDC
  5
49DE
331
5D87
  5
4B44
331
5D9E
  5
4B5B
331
5D2A
  5
4AE7
331
5D49
  5
4B06
331
5CF4
  5
4AB1
331
5D13
  5
4AD0
331
5CB6
  5
4BE8
331
5CD5
  5
4A81
331
5D68
  5
4B25
331
5DFB
  5
49FD
331
5E70
  5
494B
331
5E32
  5
4A34
331
5E51
  5
4A53
331
5DDD
  5
49DF
331
5DFC
  5
49FE
331
5D9F
  5
4B5C
331
5DBE
  5
4B7B
331
5D4A
  5
4B07
331
5D69
  5
4B26
331
5D14
  5
4AD1
331
5D2B
  5
4AE8
331
5CD6
  5
4A82
331
5CF5
  5
4AB2
331
5D88
  5
4B45
331
5E13
  5
4A15
331
5CB7
  5
4BE9
331
5E52
  5
4A54
331
5E71
  5
494C
331
5E80
  5
495B
331
5DFD
  5
49FF
331
5E14
  5
4A16
331
5DBF
  5
4B7C
331
5DDE
  5
49E0
331
5D89
  5
4B46
331
5DA0
  5
4B5D
331
5E33
  5
4A35
331
5D2C
  5
4AE9
331
5D4B
  5
4B08
331
5CF6
  5
4AB3
331
5D15
  5
4AD2
331
5CB8
  5
4BEA
331
5CD7
  5
4A83
331
5D6A
  5
4B27
331
5E72
  5
494D
331
5E81
  5
495C
331
5EA0
  5
497B
331
5E34
  5
4A36
331
5E53
  5
4A66
331
5DDF
  5
49E1
331
5DFE
  5
4A00
331
5DA1
  5
4B5E
331
5DC0
  5
4B7D
331
5D4C
  5
4B09
331
5D6B
  5
4B28
331
5D16
  5
4AD3
331
5D2D
  5
4AEA
331
5CB9
  5
4BEB
331
5CD8
  5
4A84
331
5CF7
  5
4AB4
331
5D8A
  5
4B47
331
5E15
  5
4A17
331
5EA1
  5
497C
331
5EC0
  5
499B
331
5E54
  5
4A67
331
5E73
  5
494E
331
5E82
  5
495D
331
5DFF
  5
4A01
331
5E16
  5
4A18
331
5DC1
  5
4B7E
331
5DE0
  5
49E2
331
5D6C
  5
4B29
331
5D8B
  5
4B48
331
5D2E
  5
4AEB
331
5D4D
  5
4B0A
331
5CF8
  5
4AB5
331
5D17
  5
4AD4
331
5DA2
  5
4B5F
331
5E35
  5
4A37
331
5CBA
  5
4BEC
331
5CD9
  5
4A85
331
5EE0
  5
49BB
331
5EC1
  5
499C
331
5E74
  5
494F
331
5E83
  5
495E
331
5EA2
  5
497D
331
1FC0
  5
56C6
331
5E17
  5
4A19
331
5E36
  5
4A38
331
5DE1
  5
49E3
331
5E00
  5
4A02
331
5DA3
  5
4B60
331
5DC2
  5
4B7F
331
5E55
  5
4A68
331
5D4E
  5
4B0B
331
5D6D
  5
4B2A
331
5D2F
  5
4AEC
331
5CBB
  5
4BED
331
5CDA
  5
4A86
331
5CF9
  5
4AB6
331
5D8C
  5
4B49
331
5EE1
  5
49BC
331
1FC1
  5
56C7
331
5EF8
  5
49D3
331
5EA3
  5
497E
331
5EC2
  5
499D
331
5E56
  5
4A69
331
5E75
  5
4950
331
5E84
  5
495F
331
5E01
  5
4A03
331
5E18
  5
4A1A
331
5DC3
  5
4B80
331
5DE2
  5
49E4
331
5D6E
  5
4B2B
331
5D8D
  5
4B4A
331
5D30
  5
4AED
331
5CDB
  5
4A87
331
5CFA
  5
4AB7
331
5CBC
  5
4BEE
331
5D4F
  5
4B0C
331
5DA4
  5
4B61
331
5E37
  5
4A39
331
5EF9
  5
48AB
331
5EE2
  5
49BD
331
5B50
  5
4C1C
331
5EC3
  5
499E
331
5E76
  5
4951
331
5E85
  5
4960
331
5EA4
  5
497F
331
1FC2
  5
56C8
331
5E19
  5
4A1B
331
5E38
  5
4A3A
331
5DE3
  5
49E5
331
5E02
  5
4A04
331
5D8E
  5
4B4B
331
5DA5
  5
4B62
331
5D50
  5
4B0D
331
5D6F
  5
4B2C
331
5D31
  5
4AEE
331
5DC4
  5
4B81
331
5E57
  5
4A6A
331
5CBD
  5
4BEF
331
5CDC
  5
4A88
331
5CFB
  5
4AB8
331
5F40
  5
48F1
331
5B51
  5
4C1D
331
5EE3
  5
49BE
331
1FC3
  5
56C9
331
5EFA
  5
48AC
331
5B70
  5
4C3C
331
5EA5
  5
4980
331
5EC4
  5
499F
331
5E39
  5
4A3B
331
5E58
  5
4A70
331
5E03
  5
4A05
331
5E1A
  5
4A1C
331
5DC5
  5
4B82
331
5DE4
  5
49E6
331
5E77
  5
4952
331
5D70
  5
4B2D
331
5D8F
  5
4B4C
331
5D32
  5
4AEF
331
5CDD
  5
4A89
331
5CFC
  5
4AB9
331
5CBE
  5
4BF0
331
5D51
  5
4B0E
331
5DA6
  5
4B63
331
5E86
  5
4961
331
5F60
  5
4911
331
5B90
  5
4C5C
331
5B71
  5
4C3D
331
5EFB
  5
48AD
331
5B52
  5
4C1E
331
5EE4
  5
49BF
331
5EC5
  5
49A0
331
5E78
  5
4953
331
5E87
  5
4962
331
5EA6
  5
4981
331
1FC4
  5
56CA
331
5E1B
  5
4A1D
331
5E3A
  5
4A3C
331
5DE5
  5
49E7
331
5E04
  5
4A06
331
5DA7
  5
4B64
331
5D52
  5
4B0F
331
5D71
  5
4B2E
331
5CFD
  5
4ABA
331
5CBF
  5
4BF1
331
5CDE
  5
4A93
331
5D33
  5
4AF0
331
5DC6
  5
4B83
331
5E59
  5
4A71
331
5F41
  5
48F2
331
5F78
  5
4929
331
5BA8
  5
4C74
331
5B91
  5
4C5D
331
5F42
  5
48F3
331
5F23
  5
48CA
331
5B53
  5
4C1F
331
5EE5
  5
49C0
331
1FC5
  5
56CB
331
5EFC
  5
48AE
331
5B72
  5
4C3E
331
5E88
  5
4963
331
5EA7
  5
4982
331
5EC6
  5
49A1
331
5E3B
  5
4A3D
331
5E5A
  5
4A72
331
5E05
  5
4A07
331
5E1C
  5
4A1E
331
5DA8
  5
4B65
331
5D72
  5
4B2F
331
5DC7
  5
4B84
331
5D34
  5
4AF1
331
5CDF
  5
4A94
331
5CFE
  5
4ABB
331
5D53
  5
4B10
331
5DE6
  5
49E8
331
5E79
  5
4954
331
5F61
  5
4912
331
5BC8
  5
4C94
331
5BA9
  5
4C75
331
5F62
  5
4913
331
5F43
  5
48F4
331
5B73
  5
4C3F
331
5F24
  5
48CB
331
5B92
  5
4C5E
331
5EFD
  5
48AF
331
5EE6
  5
49C1
331
5B54
  5
4C20
331
5F79
  5
492A
331
5EC7
  5
49A2
331
1FC6
  5
56CC
331
5E5B
  5
4936
331
5E7A
  5
4955
331
5E89
  5
4964
331
5E1D
  5
4A1F
331
5E3C
  5
4A3E
331
5DE7
  5
49E9
331
5E06
  5
4A08
331
5DA9
  5
4B66
331
5D54
  5
4B11
331
5D73
  5
4B30
331
5CFF
  5
4ABC
331
5D35
  5
4AF2
331
5DC8
  5
4B85
331
5EA8
  5
4983
331
5BE8
  5
4CB4
331
5F7A
  5
492B
331
5BAA
  5
4C76
331
5B93
  5
4C5F
331
5F44
  5
48F5
331
5F25
  5
48CC
331
5B55
  5
4C21
331
5EFE
  5
48B0
331
5B74
  5
4C40
331
5EE7
  5
49C2
331
1FC7
  5
56CD
331
5B36
  5
4C02
331
5E8A
  5
4965
331
5EA9
  5
4984
331
5EC8
  5
49A3
331
5E3D
  5
4A3F
331
5E5C
  5
4937
331
5E07
  5
4A09
331
5E1E
  5
4A20
331
5DAA
  5
4B67
331
5D74
  5
4B31
331
5DC9
  5
4B86
331
5D36
  5
4AF3
331
5D55
  5
4B12
331
5DE8
  5
49EA
331
5E7B
  5
4956
331
5F63
  5
4914
331
5BC9
  5
4C95
331
5C08
  5
4CD4
331
5BCA
  5
4C96
331
5BAB
  5
4C77
331
5F64
  5
4915
331
5F45
  5
48F6
331
5B75
  5
4C41
331
5F26
  5
48D7
331
5B94
  5
4C60
331
5EFF
  5
48B1
331
5B37
  5
4C03
331
5B56
  5
4C22
331
1FC8
  5
56CE
331
5EAA
  5
4985
331
5EC9
  5
49A4
331
5E5D
  5
4938
331
5E7C
  5
4957
331
5E8B
  5
4966
331
5E1F
  5
4A21
331
5DCA
  5
4B87
331
5DE9
  5
49EB
331
5DAB
  5
4B68
331
5E3E
  5
4A40
331
5D56
  5
4B13
331
5D75
  5
4B32
331
5EE8
  5
49C3
331
5F7B
  5
492C
331
5BE9
  5
4CB5
331
5D37
  5
4AF4
  0
LAYOUT
  5
21
102
{ACAD_XDICTIONARY
360
79E0
102
}
102
{ACAD_REACTORS
330
1E
102
}
330
1E
100
AcDbPlotSettings
  1

  2

  4

  6

 40
0.0
 41
0.0
 42
0.0
 43
0.0
 44
0.0
 45
0.0
 46
0.0
 47
0.0
 48
0.0
 49
0.0
140
0.0
141
0.0
142
1.0
143
1.0
 70
     0
 72
     0
 73
     0
 74
     0
  7

 75
     0
147
1.0
148
0.0
149
0.0
100
AcDbLayout
  1
Layout1
 70
     0
 71
     1
 10
0.0
 20
0.0
 11
12.0
 21
9.0
 12
0.0
 22
0.0
 32
0.0
 14
1.000000000000000E+20
 24
1.000000000000000E+20
 34
1.000000000000000E+20
 15
-1.000000000000000E+20
 25
-1.000000000000000E+20
 35
-1.000000000000000E+20
146
0.0
 13
0.0
 23
0.0
 33
0.0
 16
1.0
 26
0.0
 36
0.0
 17
0.0
 27
1.0
 37
0.0
 76
     0
330
B
  0
LAYOUT
  5
20
102
{ACAD_XDICTIONARY
360
79DE
102
}
102
{ACAD_REACTORS
330
1E
102
}
330
1E
100
AcDbPlotSettings
  1

  2

  4

  6

 40
0.0
 41
0.0
 42
0.0
 43
0.0
 44
0.0
 45
0.0
 46
0.0
 47
0.0
 48
0.0
 49
0.0
140
0.0
141
0.0
142
1.0
143
1.0
 70
  1024
 72
     0
 73
     0
 74
     0
  7

 75
     0
147
1.0
148
0.0
149
0.0
100
AcDbLayout
  1
Model
 70
     0
 71
     0
 10
0.0
 20
0.0
 11
0.0
 21
0.0
 12
0.0
 22
0.0
 32
0.0
 14
0.0
 24
0.0
 34
0.0
 15
0.0
 25
0.0
 35
0.0
146
0.0
 13
0.0
 23
0.0
 33
0.0
 16
0.0
 26
0.0
 36
0.0
 17
0.0
 27
0.0
 37
0.0
 76
     0
330
A
331
15
  0
MATERIAL
  5
3967
102
{ACAD_XDICTIONARY
360
3968
102
}
102
{ACAD_REACTORS
330
395E
102
}
330
395E
100
AcDbMaterial
  1
ByBlock
 72
     0
 43
0.0208333333333333
 43
0.0
 43
0.0
 43
0.0
 43
0.0
 43
0.0208333333333333
 43
0.0
 43
0.0
 43
0.0
 43
0.0
 43
1.0
 43
0.0
 43
0.0
 43
0.0
 43
0.0
 43
1.0
 77
     0
 47
0.0208333333333333
 47
0.0
 47
0.0
 47
0.0
 47
0.0
 47
0.0208333333333333
 47
0.0
 47
0.0
 47
0.0
 47
0.0
 47
1.0
 47
0.0
 47
0.0
 47
0.0
 47
0.0
 47
1.0
171
     0
 49
0.0208333333333333
 49
0.0
 49
0.0
 49
0.0
 49
0.0
 49
0.0208333333333333
 49
0.0
 49
0.0
 49
0.0
 49
0.0
 49
1.0
 49
0.0
 49
0.0
 49
0.0
 49
0.0
 49
1.0
175
     0
142
0.0208333333333333
142
0.0
142
0.0
142
0.0
142
0.0
142
0.0208333333333333
142
0.0
142
0.0
142
0.0
142
0.0
142
1.0
142
0.0
142
0.0
142
0.0
142
0.0
142
1.0
179
     0
144
0.0208333333333333
144
0.0
144
0.0
144
0.0
144
0.0
144
0.0208333333333333
144
0.0
144
0.0
144
0.0
144
0.0
144
1.0
144
0.0
144
0.0
144
0.0
144
0.0
144
1.0
147
0.0208333333333333
147
0.0
147
0.0
147
0.0
147
0.0
147
0.0208333333333333
147
0.0
147
0.0
147
0.0
147
0.0
147
1.0
147
0.0
147
0.0
147
0.0
147
0.0
147
1.0
  0
MATERIAL
  5
395F
102
{ACAD_XDICTIONARY
360
3960
102
}
102
{ACAD_REACTORS
330
395E
102
}
330
395E
100
AcDbMaterial
  1
ByLayer
 72
     0
 43
0.0208333333333333
 43
0.0
 43
0.0
 43
0.0
 43
0.0
 43
0.0208333333333333
 43
0.0
 43
0.0
 43
0.0
 43
0.0
 43
1.0
 43
0.0
 43
0.0
 43
0.0
 43
0.0
 43
1.0
 77
     0
 47
0.0208333333333333
 47
0.0
 47
0.0
 47
0.0
 47
0.0
 47
0.0208333333333333
 47
0.0
 47
0.0
 47
0.0
 47
0.0
 47
1.0
 47
0.0
 47
0.0
 47
0.0
 47
0.0
 47
1.0
171
     0
 49
0.0208333333333333
 49
0.0
 49
0.0
 49
0.0
 49
0.0
 49
0.0208333333333333
 49
0.0
 49
0.0
 49
0.0
 49
0.0
 49
1.0
 49
0.0
 49
0.0
 49
0.0
 49
0.0
 49
1.0
175
     0
142
0.0208333333333333
142
0.0
142
0.0
142
0.0
142
0.0
142
0.0208333333333333
142
0.0
142
0.0
142
0.0
142
0.0
142
1.0
142
0.0
142
0.0
142
0.0
142
0.0
142
1.0
179
     0
144
0.0208333333333333
144
0.0
144
0.0
144
0.0
144
0.0
144
0.0208333333333333
144
0.0
144
0.0
144
0.0
144
0.0
144
1.0
144
0.0
144
0.0
144
0.0
144
0.0
144
1.0
147
0.0208333333333333
147
0.0
147
0.0
147
0.0
147
0.0
147
0.0208333333333333
147
0.0
147
0.0
147
0.0
147
0.0
147
1.0
147
0.0
147
0.0
147
0.0
147
0.0
147
1.0
  0
MATERIAL
  5
396F
102
{ACAD_XDICTIONARY
360
3970
102
}
102
{ACAD_REACTORS
330
395E
102
}
330
395E
100
AcDbMaterial
  1
Global
 72
     0
 43
0.0208333333333333
 43
0.0
 43
0.0
 43
0.0
 43
0.0
 43
0.0208333333333333
 43
0.0
 43
0.0
 43
0.0
 43
0.0
 43
1.0
 43
0.0
 43
0.0
 43
0.0
 43
0.0
 43
1.0
 77
     0
 47
0.0208333333333333
 47
0.0
 47
0.0
 47
0.0
 47
0.0
 47
0.0208333333333333
 47
0.0
 47
0.0
 47
0.0
 47
0.0
 47
1.0
 47
0.0
 47
0.0
 47
0.0
 47
0.0
 47
1.0
171
     0
 49
0.0208333333333333
 49
0.0
 49
0.0
 49
0.0
 49
0.0
 49
0.0208333333333333
 49
0.0
 49
0.0
 49
0.0
 49
0.0
 49
1.0
 49
0.0
 49
0.0
 49
0.0
 49
0.0
 49
1.0
175
     0
142
0.0208333333333333
142
0.0
142
0.0
142
0.0
142
0.0
142
0.0208333333333333
142
0.0
142
0.0
142
0.0
142
0.0
142
1.0
142
0.0
142
0.0
142
0.0
142
0.0
142
1.0
179
     0
144
0.0208333333333333
144
0.0
144
0.0
144
0.0
144
0.0
144
0.0208333333333333
144
0.0
144
0.0
144
0.0
144
0.0
144
1.0
144
0.0
144
0.0
144
0.0
144
0.0
144
1.0
147
0.0208333333333333
147
0.0
147
0.0
147
0.0
147
0.0
147
0.0208333333333333
147
0.0
147
0.0
147
0.0
147
0.0
147
1.0
147
0.0
147
0.0
147
0.0
147
0.0
147
1.0
  0
MLEADERSTYLE
  5
39AE
102
{ACAD_REACTORS
330
39AD
102
}
330
39AD
100
AcDbMLeaderStyle
170
     2
171
     1
172
     0
 90
        2
 40
0.0
 41
0.0
173
     1
 91
-1056964608
340
11
 92
       -2
290
     1
 42
2.0
291
     1
 43
0.36
  3
Standard
 44
4.0
300

342
17
174
     1
178
     6
175
     1
176
     0
 93
-1056964608
 45
4.0
292
     0
297
     0
 46
4.0
 94
-1056964608
 47
1.0
 49
1.0
140
1.0
293
     1
141
0.0
294
     1
177
     0
142
1.0
295
     0
296
     0
143
0.125
1001
ACAD_MLEADERVER
1070
     2
  0
MLINESTYLE
  5
1C
102
{ACAD_REACTORS
330
1B
102
}
330
1B
100
AcDbMlineStyle
  2
STANDARD
 70
     0
  3

 62
     0
 51
90.0
 52
90.0
 71
     2
 49
0.5
 62
   256
  6
BYLAYER
 49
-0.5
 62
   256
  6
BYLAYER
  0
ACDBPLACEHOLDER
  5
1D
102
{ACAD_REACTORS
330
1F
102
}
330
1F
  0
SCALE
  5
398C
102
{ACAD_REACTORS
330
398B
102
}
330
398B
100
AcDbScale
 70
     0
300
1:1
140
1.0
141
1.0
290
     1
  0
SCALE
  5
398D
102
{ACAD_REACTORS
330
398B
102
}
330
398B
100
AcDbScale
 70
     0
300
1:2
140
1.0
141
2.0
290
     0
  0
SCALE
  5
398E
102
{ACAD_REACTORS
330
398B
102
}
330
398B
100
AcDbScale
 70
     0
300
1:4
140
1.0
141
4.0
290
     0
  0
SCALE
  5
398F
102
{ACAD_REACTORS
330
398B
102
}
330
398B
100
AcDbScale
 70
     0
300
1:5
140
1.0
141
5.0
290
     0
  0
SCALE
  5
3990
102
{ACAD_REACTORS
330
398B
102
}
330
398B
100
AcDbScale
 70
     0
300
1:8
140
1.0
141
8.0
290
     0
  0
SCALE
  5
3991
102
{ACAD_REACTORS
330
398B
102
}
330
398B
100
AcDbScale
 70
     0
300
1:10
140
1.0
141
10.0
290
     0
  0
SCALE
  5
3992
102
{ACAD_REACTORS
330
398B
102
}
330
398B
100
AcDbScale
 70
     0
300
1:16
140
1.0
141
16.0
290
     0
  0
SCALE
  5
3993
102
{ACAD_REACTORS
330
398B
102
}
330
398B
100
AcDbScale
 70
     0
300
1:20
140
1.0
141
20.0
290
     0
  0
SCALE
  5
3994
102
{ACAD_REACTORS
330
398B
102
}
330
398B
100
AcDbScale
 70
     0
300
1:30
140
1.0
141
30.0
290
     0
  0
SCALE
  5
3995
102
{ACAD_REACTORS
330
398B
102
}
330
398B
100
AcDbScale
 70
     0
300
1:40
140
1.0
141
40.0
290
     0
  0
SCALE
  5
3996
102
{ACAD_REACTORS
330
398B
102
}
330
398B
100
AcDbScale
 70
     0
300
1:50
140
1.0
141
50.0
290
     0
  0
SCALE
  5
3997
102
{ACAD_REACTORS
330
398B
102
}
330
398B
100
AcDbScale
 70
     0
300
1:100
140
1.0
141
100.0
290
     0
  0
SCALE
  5
3998
102
{ACAD_REACTORS
330
398B
102
}
330
398B
100
AcDbScale
 70
     0
300
2:1
140
2.0
141
1.0
290
     0
  0
SCALE
  5
3999
102
{ACAD_REACTORS
330
398B
102
}
330
398B
100
AcDbScale
 70
     0
300
4:1
140
4.0
141
1.0
290
     0
  0
SCALE
  5
399A
102
{ACAD_REACTORS
330
398B
102
}
330
398B
100
AcDbScale
 70
     0
300
8:1
140
8.0
141
1.0
290
     0
  0
SCALE
  5
399B
102
{ACAD_REACTORS
330
398B
102
}
330
398B
100
AcDbScale
 70
     0
300
10:1
140
10.0
141
1.0
290
     0
  0
SCALE
  5
399C
102
{ACAD_REACTORS
330
398B
102
}
330
398B
100
AcDbScale
 70
     0
300
100:1
140
100.0
141
1.0
290
     0
  0
SCALE
  5
399D
102
{ACAD_REACTORS
330
398B
102
}
330
398B
100
AcDbScale
 70
     0
300
1/128" = 1'-0"
140
0.0078125
141
12.0
290
     0
  0
SCALE
  5
399E
102
{ACAD_REACTORS
330
398B
102
}
330
398B
100
AcDbScale
 70
     0
300
1/64" = 1'-0"
140
0.015625
141
12.0
290
     0
  0
SCALE
  5
399F
102
{ACAD_REACTORS
330
398B
102
}
330
398B
100
AcDbScale
 70
     0
300
1/32" = 1'-0"
140
0.03125
141
12.0
290
     0
  0
SCALE
  5
39A0
102
{ACAD_REACTORS
330
398B
102
}
330
398B
100
AcDbScale
 70
     0
300
1/16" = 1'-0"
140
0.0625
141
12.0
290
     0
  0
SCALE
  5
39A1
102
{ACAD_REACTORS
330
398B
102
}
330
398B
100
AcDbScale
 70
     0
300
3/32" = 1'-0"
140
0.09375
141
12.0
290
     0
  0
SCALE
  5
39A2
102
{ACAD_REACTORS
330
398B
102
}
330
398B
100
AcDbScale
 70
     0
300
1/8" = 1'-0"
140
0.125
141
12.0
290
     0
  0
SCALE
  5
39A3
102
{ACAD_REACTORS
330
398B
102
}
330
398B
100
AcDbScale
 70
     0
300
3/16" = 1'-0"
140
0.1875
141
12.0
290
     0
  0
SCALE
  5
39A4
102
{ACAD_REACTORS
330
398B
102
}
330
398B
100
AcDbScale
 70
     0
300
1/4" = 1'-0"
140
0.25
141
12.0
290
     0
  0
SCALE
  5
39A5
102
{ACAD_REACTORS
330
398B
102
}
330
398B
100
AcDbScale
 70
     0
300
3/8" = 1'-0"
140
0.375
141
12.0
290
     0
  0
SCALE
  5
39A6
102
{ACAD_REACTORS
330
398B
102
}
330
398B
100
AcDbScale
 70
     0
300
1/2" = 1'-0"
140
0.5
141
12.0
290
     0
  0
SCALE
  5
39A7
102
{ACAD_REACTORS
330
398B
102
}
330
398B
100
AcDbScale
 70
     0
300
3/4" = 1'-0"
140
0.75
141
12.0
290
     0
  0
SCALE
  5
39A8
102
{ACAD_REACTORS
330
398B
102
}
330
398B
100
AcDbScale
 70
     0
300
1" = 1'-0"
140
1.0
141
12.0
290
     0
  0
SCALE
  5
39A9
102
{ACAD_REACTORS
330
398B
102
}
330
398B
100
AcDbScale
 70
     0
300
1-1/2" = 1'-0"
140
1.5
141
12.0
290
     0
  0
SCALE
  5
39AA
102
{ACAD_REACTORS
330
398B
102
}
330
398B
100
AcDbScale
 70
     0
300
3" = 1'-0"
140
3.0
141
12.0
290
     0
  0
SCALE
  5
39AB
102
{ACAD_REACTORS
330
398B
102
}
330
398B
100
AcDbScale
 70
     0
300
6" = 1'-0"
140
6.0
141
12.0
290
     0
  0
SCALE
  5
39AC
102
{ACAD_REACTORS
330
398B
102
}
330
398B
100
AcDbScale
 70
     0
300
1'-0" = 1'-0"
140
12.0
141
12.0
290
     0
  0
TABLESTYLE
  5
398A
102
{ACAD_XDICTIONARY
360
72EA
102
}
102
{ACAD_REACTORS
330
3989
102
}
330
3989
100
AcDbTableStyle
  3
Standard
 70
     0
 71
     0
 40
1.5
 41
1.5
280
     0
281
     0
  7
Standard
140
4.5
170
     2
 62
     0
 63
     7
283
     0
274
    -2
284
     1
 64
     0
275
    -2
285
     1
 65
     0
276
    -2
286
     1
 66
     0
277
    -2
287
     1
 67
     0
278
    -2
288
     1
 68
     0
279
    -2
289
     1
 69
     0
  7
Standard
140
6.0
170
     5
 62
     0
 63
     7
283
     0
274
    -2
284
     1
 64
     0
275
    -2
285
     1
 65
     0
276
    -2
286
     1
 66
     0
277
    -2
287
     1
 67
     0
278
    -2
288
     1
 68
     0
279
    -2
289
     1
 69
     0
  7
Standard
140
4.5
170
     5
 62
     0
 63
     7
283
     0
274
    -2
284
     1
 64
     0
275
    -2
285
     1
 65
     0
276
    -2
286
     1
 66
     0
277
    -2
287
     1
 67
     0
278
    -2
288
     1
 68
     0
279
    -2
289
     1
 69
     0
  0
VISUALSTYLE
  5
397D
102
{ACAD_REACTORS
330
3977
102
}
330
3977
100
AcDbVisualStyle
  2
2dWireframe
 70
     4
 71
     0
 72
     2
 73
     0
 90
        0
 40
-0.6
 41
-30.0
 62
     5
 63
     7
 74
     1
 91
        4
 64
     7
 65
   257
 75
     1
175
     1
 42
1.0
 92
        0
 66
   257
 43
1.0
 76
     1
 77
     6
 78
     2
 67
     7
 79
     5
170
     0
171
     0
290
     0
174
     0
 93
        1
 44
0.0
173
     0
291
     0
 45
0.0
1001
ACAD
1000
AcDbSavedByObjectVersion
1070
     0
1000
AcDbSavedByObjectVersion
1070
     0
1000
AcDbSavedByObjectVersion
1070
     0
1000
AcDbSavedByObjectVersion
1070
     0
1000
AcDbSavedByObjectVersion
1070
     0
  0
VISUALSTYLE
  5
397F
102
{ACAD_REACTORS
330
3977
102
}
330
3977
100
AcDbVisualStyle
  2
3D Hidden
 70
     6
 71
     1
 72
     2
 73
     2
 90
        0
 40
-0.6
 41
-30.0
 62
     5
 63
     7
 74
     2
 91
        2
 64
     7
 65
   257
 75
     2
175
     1
 42
40.0
 92
        0
 66
   257
 43
1.0
 76
     1
 77
     6
 78
     2
 67
     7
 79
     3
170
     0
171
     0
290
     0
174
     0
 93
        1
 44
0.0
173
     0
291
     0
 45
0.0
1001
ACAD
1000
AcDbSavedByObjectVersion
1070
     0
1000
AcDbSavedByObjectVersion
1070
     0
1000
AcDbSavedByObjectVersion
1070
     0
1000
AcDbSavedByObjectVersion
1070
     0
1000
AcDbSavedByObjectVersion
1070
     0
  0
VISUALSTYLE
  5
397E
102
{ACAD_REACTORS
330
3977
102
}
330
3977
100
AcDbVisualStyle
  2
3dWireframe
 70
     5
 71
     0
 72
     2
 73
     0
 90
        0
 40
-0.6
 41
-30.0
 62
     5
 63
     7
 74
     1
 91
        4
 64
     7
 65
   257
 75
     1
175
     1
 42
1.0
 92
        0
 66
   257
 43
1.0
 76
     1
 77
     6
 78
     2
 67
     7
 79
     5
170
     0
171
     0
290
     0
174
     0
 93
        1
 44
0.0
173
     0
291
     0
 45
0.0
1001
ACAD
1000
AcDbSavedByObjectVersion
1070
     0
1000
AcDbSavedByObjectVersion
1070
     0
1000
AcDbSavedByObjectVersion
1070
     0
1000
AcDbSavedByObjectVersion
1070
     0
1000
AcDbSavedByObjectVersion
1070
     0
  0
VISUALSTYLE
  5
397C
102
{ACAD_REACTORS
330
3977
102
}
330
3977
100
AcDbVisualStyle
  2
Basic
 70
     7
 71
     1
 72
     0
 73
     1
 90
        0
 40
-0.6
 41
-30.0
 62
     5
 63
     7
 74
     0
 91
        4
 64
     7
 65
   257
 75
     1
175
     1
 42
1.0
 92
        8
 66
     7
 43
1.0
 76
     1
 77
     6
 78
     2
 67
     7
 79
     5
170
     0
171
     0
290
     0
174
     0
 93
        1
 44
0.0
173
     0
291
     1
 45
0.0
1001
ACAD
1000
AcDbSavedByObjectVersion
1070
     0
1000
AcDbSavedByObjectVersion
1070
     0
1000
AcDbSavedByObjectVersion
1070
     0
1000
AcDbSavedByObjectVersion
1070
     0
1000
AcDbSavedByObjectVersion
1070
     0
  0
VISUALSTYLE
  5
3983
102
{ACAD_REACTORS
330
3977
102
}
330
3977
100
AcDbVisualStyle
  2
Brighten
 70
    12
 71
     2
 72
     2
 73
     0
 90
        0
 40
-0.6
 41
-30.0
 62
     5
 63
     7
 74
     1
 91
        4
 64
     7
 65
   257
 75
     1
175
     1
 42
1.0
 92
        8
 66
     7
 43
1.0
 76
     1
 77
     6
 78
     2
 67
     7
 79
     5
170
     0
171
     0
290
     0
174
     0
 93
        1
 44
50.0
173
     0
291
     1
 45
0.0
1001
ACAD
1000
AcDbSavedByObjectVersion
1070
     0
1000
AcDbSavedByObjectVersion
1070
     0
1000
AcDbSavedByObjectVersion
1070
     0
1000
AcDbSavedByObjectVersion
1070
     0
1000
AcDbSavedByObjectVersion
1070
     0
  0
VISUALSTYLE
  5
3987
102
{ACAD_REACTORS
330
3977
102
}
330
3977
100
AcDbVisualStyle
  2
ColorChange
 70
    16
 71
     2
 72
     2
 73
     3
 90
        0
 40
-0.6
 41
-30.0
 62
     5
 63
     8
 74
     1
 91
        4
 64
     7
 65
   257
 75
     1
175
     1
 42
1.0
 92
        8
 66
     8
 43
1.0
 76
     1
 77
     6
 78
     2
 67
     7
 79
     5
170
     0
171
     0
290
     0
174
     0
 93
        1
 44
0.0
173
     0
291
     1
 45
0.0
1001
ACAD
1000
AcDbSavedByObjectVersion
1070
     0
1000
AcDbSavedByObjectVersion
1070
     0
1000
AcDbSavedByObjectVersion
1070
     0
1000
AcDbSavedByObjectVersion
1070
     0
1000
AcDbSavedByObjectVersion
1070
     0
  0
VISUALSTYLE
  5
3980
102
{ACAD_REACTORS
330
3977
102
}
330
3977
100
AcDbVisualStyle
  2
Conceptual
 70
     9
 71
     3
 72
     2
 73
     0
 90
        0
 40
-0.6
 41
-30.0
 62
     5
 63
     7
 74
     2
 91
        2
 64
     7
 65
   257
 75
     1
175
     1
 42
40.0
 92
        8
 66
     7
 43
1.0
 76
     1
 77
     6
 78
     2
 67
     7
 79
     3
170
     0
171
     0
290
     0
174
     0
 93
        1
 44
0.0
173
     0
291
     0
 45
0.0
1001
ACAD
1000
AcDbSavedByObjectVersion
1070
     0
1000
AcDbSavedByObjectVersion
1070
     0
1000
AcDbSavedByObjectVersion
1070
     0
1000
AcDbSavedByObjectVersion
1070
     0
1000
AcDbSavedByObjectVersion
1070
     0
  0
VISUALSTYLE
  5
3982
102
{ACAD_REACTORS
330
3977
102
}
330
3977
100
AcDbVisualStyle
  2
Dim
 70
    11
 71
     2
 72
     2
 73
     0
 90
        0
 40
-0.6
 41
-30.0
 62
     5
 63
     7
 74
     1
 91
        4
 64
     7
 65
   257
 75
     1
175
     1
 42
1.0
 92
        8
 66
     7
 43
1.0
 76
     1
 77
     6
 78
     2
 67
     7
 79
     5
170
     0
171
     0
290
     0
174
     0
 93
        1
 44
-50.0
173
     0
291
     1
 45
0.0
1001
ACAD
1000
AcDbSavedByObjectVersion
1070
     0
1000
AcDbSavedByObjectVersion
1070
     0
1000
AcDbSavedByObjectVersion
1070
     0
1000
AcDbSavedByObjectVersion
1070
     0
1000
AcDbSavedByObjectVersion
1070
     0
  0
VISUALSTYLE
  5
3986
102
{ACAD_REACTORS
330
3977
102
}
330
3977
100
AcDbVisualStyle
  2
Facepattern
 70
    15
 71
     2
 72
     2
 73
     0
 90
        0
 40
-0.6
 41
-30.0
 62
     5
 63
     7
 74
     1
 91
        4
 64
     7
 65
   257
 75
     1
175
     1
 42
1.0
 92
        8
 66
     7
 43
1.0
 76
     1
 77
     6
 78
     2
 67
     7
 79
     5
170
     0
171
     0
290
     0
174
     0
 93
        1
 44
0.0
173
     0
291
     1
 45
0.0
1001
ACAD
1000
AcDbSavedByObjectVersion
1070
     0
1000
AcDbSavedByObjectVersion
1070
     0
1000
AcDbSavedByObjectVersion
1070
     0
1000
AcDbSavedByObjectVersion
1070
     0
1000
AcDbSavedByObjectVersion
1070
     0
  0
VISUALSTYLE
  5
3978
102
{ACAD_REACTORS
330
3977
102
}
330
3977
100
AcDbVisualStyle
  2
Flat
 70
     0
 71
     2
 72
     1
 73
     1
 90
        2
 40
-0.6
 41
30.0
 62
     5
 63
     7
 74
     0
 91
        4
 64
     7
 65
   257
 75
     1
175
     1
 42
1.0
 92
        8
 66
     7
 43
1.0
 76
     1
 77
     6
 78
     2
 67
     7
 79
     5
170
     0
171
     0
290
     0
174
     0
 93
       13
 44
0.0
173
     0
291
     1
 45
0.0
1001
ACAD
1000
AcDbSavedByObjectVersion
1070
     0
1000
AcDbSavedByObjectVersion
1070
     0
1000
AcDbSavedByObjectVersion
1070
     0
1000
AcDbSavedByObjectVersion
1070
     0
1000
AcDbSavedByObjectVersion
1070
     0
  0
VISUALSTYLE
  5
3979
102
{ACAD_REACTORS
330
3977
102
}
330
3977
100
AcDbVisualStyle
  2
FlatWithEdges
 70
     1
 71
     2
 72
     1
 73
     1
 90
        2
 40
-0.6
 41
30.0
 62
     5
 63
     7
 74
     1
 91
        4
 64
     7
 65
   257
 75
     1
175
     1
 42
1.0
 92
        0
 66
   257
 43
1.0
 76
     1
 77
     6
 78
     2
 67
     7
 79
     5
170
     0
171
     0
290
     0
174
     0
 93
       13
 44
0.0
173
     0
291
     1
 45
0.0
1001
ACAD
1000
AcDbSavedByObjectVersion
1070
     0
1000
AcDbSavedByObjectVersion
1070
     0
1000
AcDbSavedByObjectVersion
1070
     0
1000
AcDbSavedByObjectVersion
1070
     0
1000
AcDbSavedByObjectVersion
1070
     0
  0
VISUALSTYLE
  5
397A
102
{ACAD_REACTORS
330
3977
102
}
330
3977
100
AcDbVisualStyle
  2
Gouraud
 70
     2
 71
     2
 72
     2
 73
     1
 90
        2
 40
-0.6
 41
30.0
 62
     5
 63
     7
 74
     0
 91
        4
 64
     7
 65
   257
 75
     1
175
     1
 42
1.0
 92
        0
 66
     7
 43
1.0
 76
     1
 77
     6
 78
     2
 67
     7
 79
     5
170
     0
171
     0
290
     0
174
     0
 93
       13
 44
0.0
173
     0
291
     1
 45
0.0
1001
ACAD
1000
AcDbSavedByObjectVersion
1070
     0
1000
AcDbSavedByObjectVersion
1070
     0
1000
AcDbSavedByObjectVersion
1070
     0
1000
AcDbSavedByObjectVersion
1070
     0
1000
AcDbSavedByObjectVersion
1070
     0
  0
VISUALSTYLE
  5
397B
102
{ACAD_REACTORS
330
3977
102
}
330
3977
100
AcDbVisualStyle
  2
GouraudWithEdges
 70
     3
 71
     2
 72
     2
 73
     1
 90
        2
 40
-0.6
 41
30.0
 62
     5
 63
     7
 74
     1
 91
        4
 64
     7
 65
   257
 75
     1
175
     1
 42
1.0
 92
        0
 66
   257
 43
1.0
 76
     1
 77
     6
 78
     2
 67
     7
 79
     5
170
     0
171
     0
290
     0
174
     0
 93
       13
 44
0.0
173
     0
291
     1
 45
0.0
1001
ACAD
1000
AcDbSavedByObjectVersion
1070
     0
1000
AcDbSavedByObjectVersion
1070
     0
1000
AcDbSavedByObjectVersion
1070
     0
1000
AcDbSavedByObjectVersion
1070
     0
1000
AcDbSavedByObjectVersion
1070
     0
  0
VISUALSTYLE
  5
3985
102
{ACAD_REACTORS
330
3977
102
}
330
3977
100
AcDbVisualStyle
  2
Linepattern
 70
    14
 71
     2
 72
     2
 73
     0
 90
        0
 40
-0.6
 41
-30.0
 62
     5
 63
     7
 74
     1
 91
        4
 64
     7
 65
   257
 75
     7
175
     7
 42
1.0
 92
        8
 66
     7
 43
1.0
 76
     1
 77
     6
 78
     2
 67
     7
 79
     5
170
     0
171
     0
290
     0
174
     0
 93
        1
 44
0.0
173
     0
291
     1
 45
0.0
1001
ACAD
1000
AcDbSavedByObjectVersion
1070
     0
1000
AcDbSavedByObjectVersion
1070
     0
1000
AcDbSavedByObjectVersion
1070
     0
1000
AcDbSavedByObjectVersion
1070
     0
1000
AcDbSavedByObjectVersion
1070
     0
  0
VISUALSTYLE
  5
3981
102
{ACAD_REACTORS
330
3977
102
}
330
3977
100
AcDbVisualStyle
  2
Realistic
 70
     8
 71
     2
 72
     2
 73
     0
 90
        0
 40
-0.6
 41
-30.0
 62
     5
 63
     7
 74
     1
 91
        0
 64
     7
 65
   257
 75
     1
175
     1
 42
1.0
 92
        8
 66
     8
 43
1.0
 76
     1
 77
     6
 78
     2
 67
     7
 79
     5
170
     0
171
     0
290
     0
174
     0
 93
       13
 44
0.0
173
     0
291
     0
 45
0.0
1001
ACAD
1000
AcDbSavedByObjectVersion
1070
     0
1000
AcDbSavedByObjectVersion
1070
     0
1000
AcDbSavedByObjectVersion
1070
     0
1000
AcDbSavedByObjectVersion
1070
     0
1000
AcDbSavedByObjectVersion
1070
     0
  0
VISUALSTYLE
  5
3984
102
{ACAD_REACTORS
330
3977
102
}
330
3977
100
AcDbVisualStyle
  2
Thicken
 70
    13
 71
     2
 72
     2
 73
     0
 90
        0
 40
-0.6
 41
-30.0
 62
     5
 63
     7
 74
     1
 91
        4
 64
     7
 65
   257
 75
     1
175
     1
 42
1.0
 92
       12
 66
     7
 43
1.0
 76
     1
 77
     6
 78
     2
 67
     7
 79
     5
170
     0
171
     0
290
     0
174
     0
 93
        1
 44
0.0
173
     0
291
     1
 45
0.0
1001
ACAD
1000
AcDbSavedByObjectVersion
1070
     0
1000
AcDbSavedByObjectVersion
1070
     0
1000
AcDbSavedByObjectVersion
1070
     0
1000
AcDbSavedByObjectVersion
1070
     0
1000
AcDbSavedByObjectVersion
1070
     0
  0
DICTIONARYVAR
  5
72CE
102
{ACAD_REACTORS
330
72CB
102
}
330
72CB
100
DictionaryVariables
280
     0
  1
1:1
  0
DICTIONARYVAR
  5
72CD
102
{ACAD_REACTORS
330
72CB
102
}
330
72CB
100
DictionaryVariables
280
     0
  1
STANDARD
  0
DICTIONARYVAR
  5
72CC
102
{ACAD_REACTORS
330
72CB
102
}
330
72CB
100
DictionaryVariables
280
     0
  1
STANDARD
  0
DICTIONARYVAR
  5
72D1
102
{ACAD_REACTORS
330
72CB
102
}
330
72CB
100
DictionaryVariables
280
     0
  1
1
  0
DICTIONARYVAR
  5
72D0
102
{ACAD_REACTORS
330
72CB
102
}
330
72CB
100
DictionaryVariables
280
     0
  1
0
  0
DICTIONARYVAR
  5
72CF
102
{ACAD_REACTORS
330
72CB
102
}
330
72CB
100
DictionaryVariables
280
     0
  1
127
  0
XRECORD
  5
72C8
102
{ACAD_REACTORS
330
72C6
102
}
330
72C6
100
AcDbXrecord
280
     1
  0
DICTIONARY
  5
79E0
330
21
100
AcDbDictionary
280
     1
281
     1
  3
ACAD_XREC_ROUNDTRIP
360
79E1
  0
DICTIONARY
  5
79DE
330
20
100
AcDbDictionary
280
     1
281
     1
  3
ACAD_XREC_ROUNDTRIP
360
79DF
  0
DICTIONARY
  5
3968
330
3967
100
AcDbDictionary
280
     1
281
     1
  3
ACAD_XREC_ROUNDTRIP
360
72F3
  3
BUMPTILE
360
396A
  3
DIFFUSETILE
360
3969
  3
OPACITYTILE
360
396D
  3
REFLECTIONTILE
360
396C
  3
REFRACTIONTILE
360
396E
  3
SPECULARTILE
360
396B
  0
DICTIONARY
  5
3960
330
395F
100
AcDbDictionary
280
     1
281
     1
  3
ACAD_XREC_ROUNDTRIP
360
72F2
  3
BUMPTILE
360
3962
  3
DIFFUSETILE
360
3961
  3
OPACITYTILE
360
3965
  3
REFLECTIONTILE
360
3964
  3
REFRACTIONTILE
360
3966
  3
SPECULARTILE
360
3963
  0
DICTIONARY
  5
3970
330
396F
100
AcDbDictionary
280
     1
281
     1
  3
ACAD_XREC_ROUNDTRIP
360
72F4
  3
BUMPTILE
360
3972
  3
DIFFUSETILE
360
3971
  3
OPACITYTILE
360
3975
  3
REFLECTIONTILE
360
3974
  3
REFRACTIONTILE
360
3976
  3
SPECULARTILE
360
3973
  0
DICTIONARY
  5
72EA
330
398A
100
AcDbDictionary
280
     1
281
     1
  3
ACAD_ROUNDTRIP_2008_TABLESTYLE_CELLSTYLEMAP
360
79DC
  3
ACAD_XREC_ROUNDTRIP
360
79E2
  0
XRECORD
  5
79E1
102
{ACAD_REACTORS
330
79E0
102
}
330
79E0
100
AcDbXrecord
280
     1
102
SHADEPLOT
 70
     0
102
SHADEPLOTRESLEVEL
 70
     2
102
SHADEPLOTCUSTOMDPI
 70
   300
  0
XRECORD
  5
79DF
102
{ACAD_REACTORS
330
79DE
102
}
330
79DE
100
AcDbXrecord
280
     1
102
SHADEPLOT
 70
     0
102
SHADEPLOTRESLEVEL
 70
     2
102
SHADEPLOTCUSTOMDPI
 70
   300
  0
XRECORD
  5
72F3
102
{ACAD_REACTORS
330
3968
102
}
330
3968
100
AcDbXrecord
280
     1
102
MATERIAL
148
0.0
149
0.0
149
0.0
 93
        0
 94
      127
282
     0
 72
     0
 77
     0
171
     0
175
     0
179
     0
273
     0
  0
XRECORD
  5
396A
102
{ACAD_REACTORS
330
3968
102
}
330
3968
100
AcDbXrecord
280
     1
270
     1
271
     1
  0
XRECORD
  5
3969
102
{ACAD_REACTORS
330
3968
102
}
330
3968
100
AcDbXrecord
280
     1
270
     1
271
     1
  0
XRECORD
  5
396D
102
{ACAD_REACTORS
330
3968
102
}
330
3968
100
AcDbXrecord
280
     1
270
     1
271
     1
  0
XRECORD
  5
396C
102
{ACAD_REACTORS
330
3968
102
}
330
3968
100
AcDbXrecord
280
     1
270
     1
271
     1
  0
XRECORD
  5
396E
102
{ACAD_REACTORS
330
3968
102
}
330
3968
100
AcDbXrecord
280
     1
270
     1
271
     1
  0
XRECORD
  5
396B
102
{ACAD_REACTORS
330
3968
102
}
330
3968
100
AcDbXrecord
280
     1
270
     1
271
     1
  0
XRECORD
  5
72F2
102
{ACAD_REACTORS
330
3960
102
}
330
3960
100
AcDbXrecord
280
     1
102
MATERIAL
148
0.0
149
0.0
149
0.0
 93
        0
 94
      127
282
     0
 72
     0
 77
     0
171
     0
175
     0
179
     0
273
     0
  0
XRECORD
  5
3962
102
{ACAD_REACTORS
330
3960
102
}
330
3960
100
AcDbXrecord
280
     1
270
     1
271
     1
  0
XRECORD
  5
3961
102
{ACAD_REACTORS
330
3960
102
}
330
3960
100
AcDbXrecord
280
     1
270
     1
271
     1
  0
XRECORD
  5
3965
102
{ACAD_REACTORS
330
3960
102
}
330
3960
100
AcDbXrecord
280
     1
270
     1
271
     1
  0
XRECORD
  5
3964
102
{ACAD_REACTORS
330
3960
102
}
330
3960
100
AcDbXrecord
280
     1
270
     1
271
     1
  0
XRECORD
  5
3966
102
{ACAD_REACTORS
330
3960
102
}
330
3960
100
AcDbXrecord
280
     1
270
     1
271
     1
  0
XRECORD
  5
3963
102
{ACAD_REACTORS
330
3960
102
}
330
3960
100
AcDbXrecord
280
     1
270
     1
271
     1
  0
XRECORD
  5
72F4
102
{ACAD_REACTORS
330
3970
102
}
330
3970
100
AcDbXrecord
280
     1
102
MATERIAL
148
0.0
149
0.0
149
0.0
 93
        0
 94
      127
282
     0
 72
     0
 77
     0
171
     0
175
     0
179
     0
273
     0
  0
XRECORD
  5
3972
102
{ACAD_REACTORS
330
3970
102
}
330
3970
100
AcDbXrecord
280
     1
270
     1
271
     1
  0
XRECORD
  5
3971
102
{ACAD_REACTORS
330
3970
102
}
330
3970
100
AcDbXrecord
280
     1
270
     1
271
     1
  0
XRECORD
  5
3975
102
{ACAD_REACTORS
330
3970
102
}
330
3970
100
AcDbXrecord
280
     1
270
     1
271
     1
  0
XRECORD
  5
3974
102
{ACAD_REACTORS
330
3970
102
}
330
3970
100
AcDbXrecord
280
     1
270
     1
271
     1
  0
XRECORD
  5
3976
102
{ACAD_REACTORS
330
3970
102
}
330
3970
100
AcDbXrecord
280
     1
270
     1
271
     1
  0
XRECORD
  5
3973
102
{ACAD_REACTORS
330
3970
102
}
330
3970
100
AcDbXrecord
280
     1
270
     1
271
     1
  0
CELLSTYLEMAP
  5
79DC
102
{ACAD_REACTORS
330
72EA
102
}
330
72EA
100
AcDbCellStyleMap
 90
        3
300
CELLSTYLE
  1
TABLEFORMAT_BEGIN
 90
        5
170
     1
 91
        0
 92
    32768
 62
   257
 93
        1
300
CONTENTFORMAT
  1
CONTENTFORMAT_BEGIN
 90
        0
 91
        0
 92
      512
 93
        0
300

 40
0.0
140
1.0
 94
        5
 62
     0
340
17
144
6.0
309
CONTENTFORMAT_END
171
     1
301
MARGIN
  1
CELLMARGIN_BEGIN
 40
1.5
 40
1.5
 40
1.5
 40
1.5
 40
0.18
 40
0.18
309
CELLMARGIN_END
 94
        6
 95
        1
302
GRIDFORMAT
  1
GRIDFORMAT_BEGIN
 90
        0
 91
        1
 62
     0
 92
       -2
340
0
 93
        0
 40
1.125
309
GRIDFORMAT_END
 95
        2
302
GRIDFORMAT
  1
GRIDFORMAT_BEGIN
 90
        0
 91
        1
 62
     0
 92
       -2
340
0
 93
        0
 40
1.125
309
GRIDFORMAT_END
 95
        4
302
GRIDFORMAT
  1
GRIDFORMAT_BEGIN
 90
        0
 91
        1
 62
     0
 92
       -2
340
0
 93
        0
 40
1.125
309
GRIDFORMAT_END
 95
        8
302
GRIDFORMAT
  1
GRIDFORMAT_BEGIN
 90
        0
 91
        1
 62
     0
 92
       -2
340
0
 93
        0
 40
1.125
309
GRIDFORMAT_END
 95
       16
302
GRIDFORMAT
  1
GRIDFORMAT_BEGIN
 90
        0
 91
        1
 62
     0
 92
       -2
340
0
 93
        0
 40
1.125
309
GRIDFORMAT_END
 95
       32
302
GRIDFORMAT
  1
GRIDFORMAT_BEGIN
 90
        0
 91
        1
 62
     0
 92
       -2
340
0
 93
        0
 40
1.125
309
GRIDFORMAT_END
309
TABLEFORMAT_END
  1
CELLSTYLE_BEGIN
 90
        1
 91
        1
300
_TITLE
309
CELLSTYLE_END
300
CELLSTYLE
  1
TABLEFORMAT_BEGIN
 90
        5
170
     1
 91
        0
 92
        0
 62
   257
 93
        1
300
CONTENTFORMAT
  1
CONTENTFORMAT_BEGIN
 90
        0
 91
        0
 92
      512
 93
        0
300

 40
0.0
140
1.0
 94
        5
 62
     0
340
17
144
4.5
309
CONTENTFORMAT_END
171
     1
301
MARGIN
  1
CELLMARGIN_BEGIN
 40
1.5
 40
1.5
 40
1.5
 40
1.5
 40
0.18
 40
0.18
309
CELLMARGIN_END
 94
        6
 95
        1
302
GRIDFORMAT
  1
GRIDFORMAT_BEGIN
 90
        0
 91
        1
 62
     0
 92
       -2
340
0
 93
        0
 40
1.125
309
GRIDFORMAT_END
 95
        2
302
GRIDFORMAT
  1
GRIDFORMAT_BEGIN
 90
        0
 91
        1
 62
     0
 92
       -2
340
0
 93
        0
 40
1.125
309
GRIDFORMAT_END
 95
        4
302
GRIDFORMAT
  1
GRIDFORMAT_BEGIN
 90
        0
 91
        1
 62
     0
 92
       -2
340
0
 93
        0
 40
1.125
309
GRIDFORMAT_END
 95
        8
302
GRIDFORMAT
  1
GRIDFORMAT_BEGIN
 90
        0
 91
        1
 62
     0
 92
       -2
340
0
 93
        0
 40
1.125
309
GRIDFORMAT_END
 95
       16
302
GRIDFORMAT
  1
GRIDFORMAT_BEGIN
 90
        0
 91
        1
 62
     0
 92
       -2
340
0
 93
        0
 40
1.125
309
GRIDFORMAT_END
 95
       32
302
GRIDFORMAT
  1
GRIDFORMAT_BEGIN
 90
        0
 91
        1
 62
     0
 92
       -2
340
0
 93
        0
 40
1.125
309
GRIDFORMAT_END
309
TABLEFORMAT_END
  1
CELLSTYLE_BEGIN
 90
        2
 91
        1
300
_HEADER
309
CELLSTYLE_END
300
CELLSTYLE
  1
TABLEFORMAT_BEGIN
 90
        5
170
     1
 91
        0
 92
        0
 62
   257
 93
        1
300
CONTENTFORMAT
  1
CONTENTFORMAT_BEGIN
 90
        0
 91
        0
 92
      512
 93
        0
300

 40
0.0
140
1.0
 94
        2
 62
     0
340
17
144
4.5
309
CONTENTFORMAT_END
171
     1
301
MARGIN
  1
CELLMARGIN_BEGIN
 40
1.5
 40
1.5
 40
1.5
 40
1.5
 40
0.18
 40
0.18
309
CELLMARGIN_END
 94
        6
 95
        1
302
GRIDFORMAT
  1
GRIDFORMAT_BEGIN
 90
        0
 91
        1
 62
     0
 92
       -2
340
0
 93
        0
 40
1.125
309
GRIDFORMAT_END
 95
        2
302
GRIDFORMAT
  1
GRIDFORMAT_BEGIN
 90
        0
 91
        1
 62
     0
 92
       -2
340
0
 93
        0
 40
1.125
309
GRIDFORMAT_END
 95
        4
302
GRIDFORMAT
  1
GRIDFORMAT_BEGIN
 90
        0
 91
        1
 62
     0
 92
       -2
340
0
 93
        0
 40
1.125
309
GRIDFORMAT_END
 95
        8
302
GRIDFORMAT
  1
GRIDFORMAT_BEGIN
 90
        0
 91
        1
 62
     0
 92
       -2
340
0
 93
        0
 40
1.125
309
GRIDFORMAT_END
 95
       16
302
GRIDFORMAT
  1
GRIDFORMAT_BEGIN
 90
        0
 91
        1
 62
     0
 92
       -2
340
0
 93
        0
 40
1.125
309
GRIDFORMAT_END
 95
       32
302
GRIDFORMAT
  1
GRIDFORMAT_BEGIN
 90
        0
 91
        1
 62
     0
 92
       -2
340
0
 93
        0
 40
1.125
309
GRIDFORMAT_END
309
TABLEFORMAT_END
  1
CELLSTYLE_BEGIN
 90
        3
 91
        2
300
_DATA
309
CELLSTYLE_END
  0
XRECORD
  5
79E2
102
{ACAD_REACTORS
330
72EA
102
}
330
72EA
100
AcDbXrecord
280
     1
102
ACAD_ROUNDTRIP_PRE2007_TABLESTYLE
 90
      512
 91
        0
  1

 92
      512
 93
        0
  2

 94
      512
 95
        0
  3

  0
ENDSEC
  0
EOF
