  0
SECTION
  2
HEADER
  9
$ACADVER
  1
AC1015
  9
$ACADMAINTVER
 70
    20
  9
$DWGCODEPAGE
  3
ANSI_1252
  9
$INSBASE
 10
0.0
 20
0.0
 30
0.0
  9
$EXTMIN
 10
-109.2494569461778
 20
-125.9737025024096
 30
-0.0000000000000154
  9
$EXTMAX
 10
179.7631559266183
 20
173.3750927165915
 30
0.0000000000000152
  9
$LIMMIN
 10
-20.0
 20
-0.021978
  9
$LIMMAX
 10
2645.85
 20
758.35
  9
$ORTHOMODE
 70
     1
  9
$REGENMODE
 70
     1
  9
$FILLMODE
 70
     1
  9
$QTEXTMODE
 70
     0
  9
$MIRRTEXT
 70
     1
  9
$LTSCALE
 40
10.0
  9
$ATTMODE
 70
     1
  9
$TEXTSIZE
 40
0.0
  9
$TRACEWID
 40
0.05
  9
$TEXTSTYLE
  7
Standard
  9
$CLAYER
  8
0
  9
$CELTYPE
  6
Continuous
  9
$CECOLOR
 62
   256
  9
$CELTSCALE
 40
1.0
  9
$DISPSILH
 70
     0
  9
$DIMSCALE
 40
1.0
  9
$DIMASZ
 40
1.25
  9
$DIMEXO
 40
0.0
  9
$DIMDLI
 40
0.38
  9
$DIMRND
 40
0.0
  9
$DIMDLE
 40
0.0
  9
$DIMEXE
 40
0.75
  9
$DIMTP
 40
0.0
  9
$DIMTM
 40
0.0
  9
$DIMTXT
 40
2.5
  9
$DIMCEN
 40
0.09
  9
$DIMTSZ
 40
0.0
  9
$DIMTOL
 70
     0
  9
$DIMLIM
 70
     0
  9
$DIMTIH
 70
     0
  9
$DIMTOH
 70
     0
  9
$DIMSE1
 70
     0
  9
$DIMSE2
 70
     0
  9
$DIMTAD
 70
     1
  9
$DIMZIN
 70
     0
  9
$DIMBLK
  1

  9
$DIMASO
 70
     1
  9
$DIMSHO
 70
     1
  9
$DIMPOST
  1

  9
$DIMAPOST
  1

  9
$DIMALT
 70
     0
  9
$DIMALTD
 70
     2
  9
$DIMALTF
 40
25.4
  9
$DIMLFAC
 40
1.0
  9
$DIMTOFL
 70
     0
  9
$DIMTVP
 40
0.0
  9
$DIMTIX
 70
     0
  9
$DIMSOXD
 70
     0
  9
$DIMSAH
 70
     0
  9
$DIMBLK1
  1

  9
$DIMBLK2
  1

  9
$DIMSTYLE
  2
Standard
  9
$DIMCLRD
 70
     7
  9
$DIMCLRE
 70
     7
  9
$DIMCLRT
 70
     7
  9
$DIMTFAC
 40
0.8
  9
$DIMGAP
 40
1.25
  9
$DIMJUST
 70
     0
  9
$DIMSD1
 70
     0
  9
$DIMSD2
 70
     0
  9
$DIMTOLJ
 70
     1
  9
$DIMTZIN
 70
     0
  9
$DIMALTZ
 70
     0
  9
$DIMALTTZ
 70
     0
  9
$DIMUPT
 70
     0
  9
$DIMDEC
 70
     2
  9
$DIMTDEC
 70
     4
  9
$DIMALTU
 70
     2
  9
$DIMALTTD
 70
     2
  9
$DIMTXSTY
  7
Standard
  9
$DIMAUNIT
 70
     0
  9
$DIMADEC
 70
     0
  9
$DIMALTRND
 40
0.0
  9
$DIMAZIN
 70
     0
  9
$DIMDSEP
 70
     0
  9
$DIMATFIT
 70
     3
  9
$DIMFRAC
 70
     0
  9
$DIMLDRBLK
  1

  9
$DIMLUNIT
 70
     2
  9
$DIMLWD
 70
     0
  9
$DIMLWE
 70
     0
  9
$DIMTMOVE
 70
     0
  9
$LUNITS
 70
     2
  9
$LUPREC
 70
     4
  9
$SKETCHINC
 40
0.1
  9
$FILLETRAD
 40
5.0
  9
$AUNITS
 70
     0
  9
$AUPREC
 70
     0
  9
$MENU
  1
acad
  9
$ELEVATION
 40
0.0
  9
$PELEVATION
 40
0.0
  9
$THICKNESS
 40
0.0
  9
$LIMCHECK
 70
     0
  9
$CHAMFERA
 40
0.0
  9
$CHAMFERB
 40
0.0
  9
$CHAMFERC
 40
0.0
  9
$CHAMFERD
 40
0.0
  9
$SKPOLY
 70
     0
  9
$TDCREATE
 40
2455329.702198484
  9
$TDUCREATE
 40
2455329.618865150
  9
$TDUPDATE
 40
2455383.401438437
  9
$TDUUPDATE
 40
2455383.318105104
  9
$TDINDWG
 40
0.0439718981
  9
$TDUSRTIMER
 40
0.0439700810
  9
$USRTIMER
 70
     1
  9
$ANGBASE
 50
0.0
  9
$ANGDIR
 70
     0
  9
$PDMODE
 70
     0
  9
$PDSIZE
 40
0.0
  9
$PLINEWID
 40
0.0
  9
$SPLFRAME
 70
     0
  9
$SPLINETYPE
 70
     6
  9
$SPLINESEGS
 70
     8
  9
$HANDSEED
  5
793B
  9
$SURFTAB1
 70
     6
  9
$SURFTAB2
 70
     6
  9
$SURFTYPE
 70
     6
  9
$SURFU
 70
     6
  9
$SURFV
 70
     6
  9
$UCSBASE
  2

  9
$UCSNAME
  2

  9
$UCSORG
 10
0.0
 20
0.0
 30
0.0
  9
$UCSXDIR
 10
1.0
 20
0.0
 30
0.0
  9
$UCSYDIR
 10
0.0
 20
1.0
 30
0.0
  9
$UCSORTHOREF
  2

  9
$UCSORTHOVIEW
 70
     0
  9
$UCSORGTOP
 10
0.0
 20
0.0
 30
0.0
  9
$UCSORGBOTTOM
 10
0.0
 20
0.0
 30
0.0
  9
$UCSORGLEFT
 10
0.0
 20
0.0
 30
0.0
  9
$UCSORGRIGHT
 10
0.0
 20
0.0
 30
0.0
  9
$UCSORGFRONT
 10
0.0
 20
0.0
 30
0.0
  9
$UCSORGBACK
 10
0.0
 20
0.0
 30
0.0
  9
$PUCSBASE
  2

  9
$PUCSNAME
  2

  9
$PUCSORG
 10
0.0
 20
0.0
 30
0.0
  9
$PUCSXDIR
 10
1.0
 20
0.0
 30
0.0
  9
$PUCSYDIR
 10
0.0
 20
1.0
 30
0.0
  9
$PUCSORTHOREF
  2

  9
$PUCSORTHOVIEW
 70
     0
  9
$PUCSORGTOP
 10
0.0
 20
0.0
 30
0.0
  9
$PUCSORGBOTTOM
 10
0.0
 20
0.0
 30
0.0
  9
$PUCSORGLEFT
 10
0.0
 20
0.0
 30
0.0
  9
$PUCSORGRIGHT
 10
0.0
 20
0.0
 30
0.0
  9
$PUCSORGFRONT
 10
0.0
 20
0.0
 30
0.0
  9
$PUCSORGBACK
 10
0.0
 20
0.0
 30
0.0
  9
$USERI1
 70
     0
  9
$USERI2
 70
     0
  9
$USERI3
 70
     0
  9
$USERI4
 70
     0
  9
$USERI5
 70
     0
  9
$USERR1
 40
0.0
  9
$USERR2
 40
0.0
  9
$USERR3
 40
0.0
  9
$USERR4
 40
0.0
  9
$USERR5
 40
0.0
  9
$WORLDVIEW
 70
     1
  9
$SHADEDGE
 70
     3
  9
$SHADEDIF
 70
    70
  9
$TILEMODE
 70
     1
  9
$MAXACTVP
 70
    16
  9
$PINSBASE
 10
0.0
 20
0.0
 30
0.0
  9
$PLIMCHECK
 70
     0
  9
$PEXTMIN
 10
1.000000000000000E+20
 20
1.000000000000000E+20
 30
1.000000000000000E+20
  9
$PEXTMAX
 10
-1.000000000000000E+20
 20
-1.000000000000000E+20
 30
-1.000000000000000E+20
  9
$PLIMMIN
 10
0.0
 20
0.0
  9
$PLIMMAX
 10
12.0
 20
9.0
  9
$UNITMODE
 70
     0
  9
$VISRETAIN
 70
     0
  9
$PLINEGEN
 70
     1
  9
$PSLTSCALE
 70
     0
  9
$TREEDEPTH
 70
  3020
  9
$CMLSTYLE
  2
Standard
  9
$CMLJUST
 70
     0
  9
$CMLSCALE
 40
1.0
  9
$PROXYGRAPHICS
 70
     0
  9
$MEASUREMENT
 70
     1
  9
$CELWEIGHT
370
     0
  9
$ENDCAPS
280
     0
  9
$JOINSTYLE
280
     0
  9
$LWDISPLAY
290
     0
  9
$INSUNITS
 70
     0
  9
$HYPERLINKBASE
  1

  9
$STYLESHEET
  1

  9
$XEDIT
290
     1
  9
$CEPSNTYPE
380
     0
  9
$PSTYLEMODE
290
     1
  9
$FINGERPRINTGUID
  2

  9
$VERSIONGUID
  2
{868E74A7-A5D7-40AD-9217-2AAA69127D90}
  9
$EXTNAMES
290
     1
  9
$PSVPSCALE
 40
0.0
  9
$OLESTARTUP
290
     0
  0
ENDSEC
  0
SECTION
  2
CLASSES
  0
CLASS
  1
IMAGE
  2
AcDbRasterImage
  3
ISM
 90
    34943
280
     0
281
     1
  0
CLASS
  1
DICTIONARYVAR
  2
AcDbDictionaryVar
  3
ObjectDBX Classes
 90
        0
280
     0
281
     0
  0
CLASS
  1
RASTERVARIABLES
  2
AcDbRasterVariables
  3
ISM
 90
    32768
280
     0
281
     0
  0
CLASS
  1
IMAGEDEF
  2
AcDbRasterImageDef
  3
ISM
 90
    32768
280
     0
281
     0
  0
CLASS
  1
IMAGEDEF_REACTOR
  2
AcDbRasterImageDefReactor
  3
ISM
 90
    32769
280
     0
281
     0
  0
CLASS
  1
IDBUFFER
  2
AcDbIdBuffer
  3
ObjectDBX Classes
 90
    32768
280
     0
281
     0
  0
CLASS
  1
SPATIAL_FILTER
  2
AcDbSpatialFilter
  3
ObjectDBX Classes
 90
    32768
280
     0
281
     0
  0
CLASS
  1
SORTENTSTABLE
  2
AcDbSortentsTable
  3
ObjectDBX Classes
 90
        0
280
     0
281
     0
  0
CLASS
  1
LAYER_INDEX
  2
AcDbLayerIndex
  3
ObjectDBX Classes
 90
    32768
280
     0
281
     0
  0
CLASS
  1
SPATIAL_INDEX
  2
AcDbSpatialIndex
  3
ObjectDBX Classes
 90
    32768
280
     0
281
     0
  0
CLASS
  1
OBJECT_PTR
  2
CAseDLPNTableRecord
  3
ASE-LPNTableRecord
 90
    32769
280
     0
281
     0
  0
CLASS
  1
LAYOUT
  2
AcDbLayout
  3
ObjectDBX Classes
 90
        0
280
     0
281
     0
  0
CLASS
  1
PLOTSETTINGS
  2
AcDbPlotSettings
  3
ObjectDBX Classes
 90
    32768
280
     0
281
     0
  0
CLASS
  1
ACDBDICTIONARYWDFLT
  2
AcDbDictionaryWithDefault
  3
ObjectDBX Classes
 90
        0
280
     0
281
     0
  0
CLASS
  1
ACDBPLACEHOLDER
  2
AcDbPlaceHolder
  3
ObjectDBX Classes
 90
        0
280
     0
281
     0
  0
CLASS
  1
VBA_PROJECT
  2
AcDbVbaProject
  3
acad
 90
    32768
280
     0
281
     0
  0
CLASS
  1
WIPEOUT
  2
AcDbWipeout
  3
"WipeOut|Product Desc: Object Enabler for WipeOut entity                        |Company: Autodesk, Inc.                        |WEB Address: www.autodesk.com"
 90
    34943
280
     0
281
     1
  0
CLASS
  1
WIPEOUTVARIABLES
  2
AcDbWipeoutVariables
  3
"WipeOut|Product Desc:     WipeOut Dbx Application|Company:          Autodesk, Inc.|WEB Address:      www.autodesk.com"
 90
        0
280
     0
281
     0
  0
CLASS
  1
RTEXT
  2
RText
  3
RText|AutoCAD Express Tool|expresstools@autodesk.com
 90
    35839
280
     0
281
     1
  0
CLASS
  1
ARCALIGNEDTEXT
  2
AcDbArcAlignedText
  3
ATEXT|AutoCAD Express Tool|expresstools@autodesk.com
 90
    32768
280
     0
281
     1
  0
CLASS
  1
MATERIAL
  2
AcDbMaterial
  3
ObjectDBX Classes
 90
     1153
280
     0
281
     0
  0
CLASS
  1
VISUALSTYLE
  2
AcDbVisualStyle
  3
ObjectDBX Classes
 90
     4095
280
     0
281
     0
  0
CLASS
  1
TABLESTYLE
  2
AcDbTableStyle
  3
ObjectDBX Classes
 90
     4095
280
     0
281
     0
  0
CLASS
  1
SCALE
  2
AcDbScale
  3
ObjectDBX Classes
 90
     1153
280
     0
281
     0
  0
CLASS
  1
MLEADERSTYLE
  2
AcDbMLeaderStyle
  3
ACDB_MLEADERSTYLE_CLASS
 90
     4095
280
     0
281
     0
  0
CLASS
  1
CELLSTYLEMAP
  2
AcDbCellStyleMap
  3
ObjectDBX Classes
 90
     1152
280
     0
281
     0
  0
ENDSEC
  0
SECTION
  2
TABLES
  0
TABLE
  2
VPORT
  5
7
330
0
100
AcDbSymbolTable
 70
     1
  0
VPORT
  5
15
330
7
100
AcDbSymbolTableRecord
100
AcDbViewportTableRecord
  2
*ACTIVE
 70
     0
 10
0.0
 20
0.0
 11
1.0
 21
1.0
 12
29.06009982623528
 22
23.43774599252322
 13
0.0
 23
0.0
 14
1.0
 24
1.0
 15
0.0
 25
0.0
 16
0.0
 26
0.0
 36
1.0
 17
0.0
 27
0.0
 37
0.0
 40
338.6869237217966
 41
1.611330698287219
 42
50.0
 43
0.0
 44
0.0
 50
0.0
 51
0.0
 71
     0
 72
   100
 73
     1
 74
     1
 75
     0
 76
     0
 77
     0
 78
     0
281
     0
 65
     0
110
0.0
120
0.0
130
0.0
111
1.0
121
0.0
131
0.0
112
0.0
122
1.0
132
0.0
 79
     0
146
0.0
  0
ENDTAB
  0
TABLE
  2
LTYPE
  5
4
330
0
100
AcDbSymbolTable
 70
     2
  0
LTYPE
  5
11
330
4
100
AcDbSymbolTableRecord
100
AcDbLinetypeTableRecord
  2
ByBlock
 70
     0
  3

 72
    65
 73
     0
 40
0.0
  0
LTYPE
  5
12
330
4
100
AcDbSymbolTableRecord
100
AcDbLinetypeTableRecord
  2
ByLayer
 70
     0
  3

 72
    65
 73
     0
 40
0.0
  0
LTYPE
  5
13
330
4
100
AcDbSymbolTableRecord
100
AcDbLinetypeTableRecord
  2
Continuous
 70
     0
  3
Solid line
 72
    65
 73
     0
 40
0.0
  0
LTYPE
  5
2A2
330
4
100
AcDbSymbolTableRecord
100
AcDbLinetypeTableRecord
  2
CENTER
 70
     0
  3
____ _ ____ _ ____ _ ____ _ ____ _ ____ _ ____
 72
    65
 73
     4
 40
2.0
 49
1.25
 74
     0
 49
-0.25
 74
     0
 49
0.25
 74
     0
 49
-0.25
 74
     0
  0
ENDTAB
  0
TABLE
  2
LAYER
  5
2
330
0
100
AcDbSymbolTable
 70
     2
  0
LAYER
  5
14
102
{ACAD_XDICTIONARY
360
72C9
102
}
330
2
100
AcDbSymbolTableRecord
100
AcDbLayerTableRecord
  2
0
 70
     0
 62
     7
  6
Continuous
370
    -3
390
1D
  0
LAYER
  5
7827
330
2
100
AcDbSymbolTableRecord
100
AcDbLayerTableRecord
  2
Defpoints
 70
     0
 62
     7
  6
Continuous
290
     0
370
    -3
390
1D
  0
ENDTAB
  0
TABLE
  2
STYLE
  5
3
330
0
100
AcDbSymbolTable
 70
     1
  0
STYLE
  5
17
330
3
100
AcDbSymbolTableRecord
100
AcDbTextStyleTableRecord
  2
Standard
 70
     0
 40
0.0
 41
1.0
 50
0.0
 71
     0
 42
0.0
  3
IsonormD
  4

1001
ACAD
1000
IsonormD
1071
        0
  0
ENDTAB
  0
TABLE
  2
VIEW
  5
5
330
0
100
AcDbSymbolTable
 70
     0
  0
ENDTAB
  0
TABLE
  2
UCS
  5
6
330
0
100
AcDbSymbolTable
 70
     0
  0
ENDTAB
  0
TABLE
  2
APPID
  5
8
330
0
100
AcDbSymbolTable
 70
     6
  0
APPID
  5
16
330
8
100
AcDbSymbolTableRecord
100
AcDbRegAppTableRecord
  2
ACAD
 70
     0
  0
APPID
  5
26
330
8
100
AcDbSymbolTableRecord
100
AcDbRegAppTableRecord
  2
TopSolid_Draft
 70
     0
  0
APPID
  5
39AF
330
8
100
AcDbSymbolTableRecord
100
AcDbRegAppTableRecord
  2
ACAD_MLEADERVER
 70
     0
  0
APPID
  5
72C7
330
8
100
AcDbSymbolTableRecord
100
AcDbRegAppTableRecord
  2
DCO15
 70
     0
  0
APPID
  5
786E
330
8
100
AcDbSymbolTableRecord
100
AcDbRegAppTableRecord
  2
ACAD_EXEMPT_FROM_CAD_STANDARDS
 70
     0
  0
APPID
  5
78D5
330
8
100
AcDbSymbolTableRecord
100
AcDbRegAppTableRecord
  2
ACAD_DSTYLE_DIMRADIAL_EXTENSION
 70
     0
  0
ENDTAB
  0
TABLE
  2
DIMSTYLE
  5
9
330
0
100
AcDbSymbolTable
 70
     1
100
AcDbDimStyleTable
 71
     1
340
18
  0
DIMSTYLE
105
18
330
9
100
AcDbSymbolTableRecord
100
AcDbDimStyleTableRecord
  2
Standard
 70
     0
 41
1.25
 42
0.0
 44
0.75
 73
     0
 74
     0
 77
     1
140
2.5
146
0.8
147
1.25
176
     7
177
     7
178
     7
271
     2
340
17
  0
ENDTAB
  0
TABLE
  2
BLOCK_RECORD
  5
1
330
0
100
AcDbSymbolTable
 70
     0
  0
BLOCK_RECORD
  5
A
102
{ACAD_XDICTIONARY
360
39B7
102
}
330
1
100
AcDbSymbolTableRecord
100
AcDbBlockTableRecord
  2
*MODEL_SPACE
340
20
  0
BLOCK_RECORD
  5
B
330
1
100
AcDbSymbolTableRecord
100
AcDbBlockTableRecord
  2
*PAPER_SPACE
340
21
  0
ENDTAB
  0
ENDSEC
  0
SECTION
  2
BLOCKS
  0
BLOCK
  5
D
330
A
100
AcDbEntity
  8
0
100
AcDbBlockBegin
  2
*MODEL_SPACE
 70
     0
 10
0.0
 20
0.0
 30
0.0
  3
*MODEL_SPACE
  1

  0
ENDBLK
  5
E
330
A
100
AcDbEntity
  8
0
100
AcDbBlockEnd
  0
BLOCK
  5
F
330
B
100
AcDbEntity
 67
     1
  8
0
100
AcDbBlockBegin
  2
*PAPER_SPACE
 70
     0
 10
0.0
 20
0.0
 30
0.0
  3
*PAPER_SPACE
  1

  0
ENDBLK
  5
10
330
B
100
AcDbEntity
 67
     1
  8
0
100
AcDbBlockEnd
  0
ENDSEC
  0
SECTION
  2
ENTITIES
  0
LINE
  5
1189
330
A
100
AcDbEntity
  8
0
  6
CENTER
 62
     1
100
AcDbLine
 10
-103.6485949999999
 20
35.00000000000006
 30
0.0
 11
-92.64859499999987
 21
35.00000000000006
 31
0.0
  0
LINE
  5
118A
330
A
100
AcDbEntity
  8
0
  6
CENTER
 62
     1
100
AcDbLine
 10
-98.1485949999999
 20
29.50000000000017
 30
0.0
 11
-98.1485949999999
 21
40.50000000000017
 31
0.0
  0
LINE
  5
118B
330
A
100
AcDbEntity
  8
0
  6
CENTER
 62
     1
100
AcDbLine
 10
-90.14859499999987
 20
35.00000000000006
 30
0.0
 11
-79.14859499999987
 21
35.00000000000006
 31
0.0
  0
LINE
  5
118C
330
A
100
AcDbEntity
  8
0
  6
CENTER
 62
     1
100
AcDbLine
 10
-84.64859499999986
 20
29.50000000000017
 30
0.0
 11
-84.64859499999986
 21
40.50000000000017
 31
0.0
  0
LINE
  5
118D
330
A
100
AcDbEntity
  8
0
  6
CENTER
 62
     1
100
AcDbLine
 10
-64.04859499999997
 20
0.0000000000001705
 30
0.0
 11
-54.74859500000001
 21
0.0000000000001705
 31
0.0
  0
LINE
  5
118E
330
A
100
AcDbEntity
  8
0
  6
CENTER
 62
     1
100
AcDbLine
 10
-59.3985949999999
 20
-4.649999999999806
 30
0.0
 11
-59.3985949999999
 21
4.650000000000146
 31
0.0
  0
LINE
  5
118F
330
A
100
AcDbEntity
  8
0
  6
CENTER
 62
     1
100
AcDbLine
 10
-64.04859499999997
 20
70.00000000000017
 30
0.0
 11
-54.74859500000001
 21
70.00000000000017
 31
0.0
  0
LINE
  5
1190
330
A
100
AcDbEntity
  8
0
  6
CENTER
 62
     1
100
AcDbLine
 10
-59.3985949999999
 20
65.35000000000019
 30
0.0
 11
-59.3985949999999
 21
74.64999999999992
 31
0.0
  0
LINE
  5
11BE
330
A
100
AcDbEntity
  8
0
  6
CENTER
 62
     1
100
AcDbLine
 10
-103.6485949999999
 20
35.00000000000006
 30
0.0
 11
-92.64859499999987
 21
35.00000000000006
 31
0.0
  0
LINE
  5
11BF
330
A
100
AcDbEntity
  8
0
  6
CENTER
 62
     1
100
AcDbLine
 10
-98.1485949999999
 20
29.50000000000017
 30
0.0
 11
-98.1485949999999
 21
40.50000000000017
 31
0.0
  0
LINE
  5
11C0
330
A
100
AcDbEntity
  8
0
  6
CENTER
 62
     1
100
AcDbLine
 10
-90.14859499999987
 20
35.00000000000006
 30
0.0
 11
-79.14859499999987
 21
35.00000000000006
 31
0.0
  0
LINE
  5
11C1
330
A
100
AcDbEntity
  8
0
  6
CENTER
 62
     1
100
AcDbLine
 10
-84.64859499999986
 20
29.50000000000017
 30
0.0
 11
-84.64859499999986
 21
40.50000000000017
 31
0.0
  0
LINE
  5
11C2
330
A
100
AcDbEntity
  8
0
  6
CENTER
 62
     1
100
AcDbLine
 10
-64.04859499999997
 20
0.0000000000001705
 30
0.0
 11
-54.74859500000001
 21
0.0000000000001705
 31
0.0
  0
LINE
  5
11C3
330
A
100
AcDbEntity
  8
0
  6
CENTER
 62
     1
100
AcDbLine
 10
-59.3985949999999
 20
-4.649999999999806
 30
0.0
 11
-59.3985949999999
 21
4.650000000000146
 31
0.0
  0
LINE
  5
11C4
330
A
100
AcDbEntity
  8
0
  6
CENTER
 62
     1
100
AcDbLine
 10
-64.04859499999997
 20
70.00000000000017
 30
0.0
 11
-54.74859500000001
 21
70.00000000000017
 31
0.0
  0
LINE
  5
11C5
330
A
100
AcDbEntity
  8
0
  6
CENTER
 62
     1
100
AcDbLine
 10
-59.3985949999999
 20
65.35000000000019
 30
0.0
 11
-59.3985949999999
 21
74.64999999999992
 31
0.0
  0
LINE
  5
11C6
330
A
100
AcDbEntity
  8
0
  6
CENTER
 62
     1
100
AcDbLine
 10
40.0
 20
69.75000000000017
 30
0.0
 11
40.0
 21
3.750000000000055
 31
0.0
  0
LINE
  5
11C7
330
A
100
AcDbEntity
  8
0
  6
CENTER
 62
     1
100
AcDbLine
 10
100.8985949999999
 20
0.0000000000001705
 30
0.0
 11
114.8985949999999
 21
0.0000000000001705
 31
0.0
  0
LINE
  5
11C8
330
A
100
AcDbEntity
  8
0
  6
CENTER
 62
     1
100
AcDbLine
 10
107.8985949999999
 20
-6.999999999999829
 30
0.0
 11
107.8985949999999
 21
6.999999999999943
 31
0.0
  0
LINE
  5
11C9
330
A
100
AcDbEntity
  8
0
  6
CENTER
 62
     1
100
AcDbLine
 10
100.8985949999999
 20
70.00000000000017
 30
0.0
 11
114.8985949999999
 21
70.00000000000017
 31
0.0
  0
LINE
  5
11CA
330
A
100
AcDbEntity
  8
0
  6
CENTER
 62
     1
100
AcDbLine
 10
107.8985949999999
 20
63.00000000000017
 30
0.0
 11
107.8985949999999
 21
77.00000000000007
 31
0.0
  0
LINE
  5
11CB
330
A
100
AcDbEntity
  8
0
  6
CENTER
 62
     1
100
AcDbLine
 10
109.8985949999999
 20
35.00000000000006
 30
0.0
 11
123.8985949999999
 21
35.00000000000006
 31
0.0
  0
LINE
  5
11CC
330
A
100
AcDbEntity
  8
0
  6
CENTER
 62
     1
100
AcDbLine
 10
116.8985949999999
 20
28.00000000000017
 30
0.0
 11
116.8985949999999
 21
42.00000000000017
 31
0.0
  0
LINE
  5
11CD
330
A
100
AcDbEntity
  8
0
  6
CENTER
 62
     1
100
AcDbLine
 10
35.09191099999998
 20
-88.14859499999981
 30
0.0
 11
44.90808900000001
 21
-88.14859499999981
 31
0.0
  0
LINE
  5
11CE
330
A
100
AcDbEntity
  8
0
  6
CENTER
 62
     1
100
AcDbLine
 10
40.0
 20
-93.05668499999979
 30
0.0
 11
40.0
 21
-83.24050599999981
 31
0.0
  0
LINE
  5
11CF
330
A
100
AcDbEntity
  8
0
  6
CENTER
 62
     1
100
AcDbLine
 10
34.25
 20
155.648595
 30
0.0
 11
45.75
 21
155.648595
 31
0.0
  0
LINE
  5
11D0
330
A
100
AcDbEntity
  8
0
  6
CENTER
 62
     1
100
AcDbLine
 10
40.0
 20
149.8985950000002
 30
0.0
 11
40.0
 21
161.3985950000001
 31
0.0
  0
ELLIPSE
  5
5F8A
330
A
100
AcDbEntity
  8
0
  6
Continuous
 62
     7
100
AcDbEllipse
 10
138.9813559999998
 20
-79.3065379999998
 30
0.0
 11
-4.56000000000012
 21
0.0000000001984524
 31
0.0000000000000003
210
0.0000000000000001
220
0.0
230
1.0
 40
0.4082480000000002
 41
3.672171375326298
 42
3.745284749221935
  0
ELLIPSE
  5
5F8B
330
A
100
AcDbEntity
  8
0
  6
Continuous
 62
     7
100
AcDbEllipse
 10
138.9813559999998
 20
-79.3065379999998
 30
0.0
 11
4.239999999999798
 21
-0.0000000001845191
 31
0.0
210
0.0
220
0.0
230
1.0
 40
0.4082480000000002
 41
0.3828338193895896
 42
0.5616225911885575
  0
ELLIPSE
  5
5F8C
330
A
100
AcDbEntity
  8
0
  6
Continuous
 62
     7
100
AcDbEllipse
 10
138.9813559999998
 20
-79.3065379999998
 30
0.0
 11
4.239999999999798
 21
-0.0000000001845191
 31
0.0
210
0.0
220
0.0000000000000001
230
1.0
 40
0.4082480000000002
 41
5.819537698285342
 42
5.900351487825536
  0
ELLIPSE
  5
5F8D
330
A
100
AcDbEntity
  8
0
  6
Continuous
 62
     7
100
AcDbEllipse
 10
138.9813559999998
 20
-79.3065379999998
 30
0.0
 11
4.239999999999798
 21
-0.0000000001845191
 31
0.0
210
0.0
220
0.0
230
1.0
 40
0.4082480000000002
 41
5.597392307224377
 42
5.81953769828533
  0
ELLIPSE
  5
5F8E
330
A
100
AcDbEntity
  8
0
  6
Continuous
 62
     7
100
AcDbEllipse
 10
138.9813559999998
 20
-79.52562699999976
 30
0.0
 11
-3.999999999999781
 21
0.000000000174083
 31
0.0
210
0.0
220
0.0
230
1.0
 40
0.4082480000000002
 41
2.737103902437943
 42
2.958396012338379
  0
ELLIPSE
  5
5F8F
330
A
100
AcDbEntity
  8
0
  6
Continuous
 62
     7
100
AcDbEllipse
 10
138.9813559999998
 20
-79.52562699999976
 30
0.0
 11
-3.999999999999781
 21
0.000000000174083
 31
0.0000000000000003
210
0.0000000000000001
220
0.0
230
1.0
 40
0.4082480000000002
 41
3.324789294876736
 42
3.736651619034147
  0
ELLIPSE
  5
5F90
330
A
100
AcDbEntity
  8
0
  6
Continuous
 62
     7
100
AcDbEllipse
 10
138.9813559999998
 20
-87.1207129999998
 30
0.0
 11
-4.799999999999914
 21
0.0000000002088885
 31
0.0
210
0.0
220
0.0
230
1.0
 40
0.4082480000000002
 41
1.54843378399515
 42
1.577277457007465
  0
ELLIPSE
  5
5F91
330
A
100
AcDbEntity
  8
0
  6
Continuous
 62
     7
100
AcDbEllipse
 10
138.9813559999998
 20
-87.33980199999979
 30
0.0
 11
4.559999999999896
 21
-0.0000000001984524
 31
0.0
210
0.0
220
0.0
230
1.0
 40
0.4082480000000002
 41
4.68884924964558
 42
4.7192112278748
  0
ELLIPSE
  5
5F92
330
A
100
AcDbEntity
  8
0
  6
Continuous
 62
     9
100
AcDbEllipse
 10
138.9813559999998
 20
-73.09901599999982
 30
0.0
 11
2.40000000000018
 21
-0.00000000003475
 31
0.0
210
0.0
220
0.0
230
1.0
 40
0.4082480000000002
 41
5.819537698626742
 42
6.283182048747727
  0
ELLIPSE
  5
5F93
330
A
100
AcDbEntity
  8
0
  6
Continuous
 62
     9
100
AcDbEllipse
 10
138.9813559999998
 20
-73.09901599999982
 30
0.0
 11
2.40000000000018
 21
-0.00000000003475
 31
-0.0000000000000002
210
0.0000000000000001
220
0.0
230
1.0
 40
0.4082480000000002
 41
5.157785517983369
 42
5.819537698626792
  0
ELLIPSE
  5
5F94
330
A
100
AcDbEntity
  8
0
  6
Continuous
 62
     9
100
AcDbEllipse
 10
138.9813559999998
 20
-93.54732499999984
 30
0.0
 11
-2.399999999999957
 21
0.0000000000346945
 31
0.0
210
0.0
220
0.0
230
1.0
 40
0.4082480000000002
 41
2.016192864530158
 42
2.66172496539119
  0
ELLIPSE
  5
5F95
330
A
100
AcDbEntity
  8
0
  6
Continuous
 62
     7
100
AcDbEllipse
 10
138.9813559999998
 20
-80.03683499999976
 30
0.0
 11
-4.000000000000004
 21
0.0000000001159628
 31
0.0000000000000003
210
0.0000000000000001
220
0.0
230
1.0
 40
0.4082480000000002
 41
3.324789294854852
 42
4.06888787159731
  0
ELLIPSE
  5
5F96
330
A
100
AcDbEntity
  8
0
  6
Continuous
 62
     7
100
AcDbEllipse
 10
138.9813559999998
 20
-80.03683499999976
 30
0.0
 11
2.40000000000018
 21
-0.0000000000695555
 31
0.0
210
0.0
220
0.0
230
1.0
 40
0.4082480000000002
 41
5.395601374974136
 42
6.283185307179584
  0
LINE
  5
5F97
330
A
100
AcDbEntity
  8
0
  6
Continuous
 62
     7
100
AcDbLine
 10
167.1880120000001
 20
-86.53134499999998
 30
0.0
 11
167.724668
 21
-85.46071199999984
 31
0.0
  0
LINE
  5
5F98
330
A
100
AcDbEntity
  8
0
  6
Continuous
 62
     7
100
AcDbLine
 10
167.1880120000001
 20
-87.79625599999979
 30
0.0
 11
167.1880120000001
 21
-86.53134499999998
 31
0.0
  0
LINE
  5
5F99
330
A
100
AcDbEntity
  8
0
  6
Continuous
 62
     7
100
AcDbLine
 10
167.724668
 20
-87.99053399999978
 30
0.0
 11
167.1880120000001
 21
-87.79625599999979
 31
0.0
  0
LINE
  5
5F9A
330
A
100
AcDbEntity
  8
0
  6
Continuous
 62
     7
100
AcDbLine
 10
168.2613239999998
 20
-86.91989999999981
 30
0.0
 11
167.724668
 21
-87.99053399999978
 31
0.0
  0
LINE
  5
5F9B
330
A
100
AcDbEntity
  8
0
  6
Continuous
 62
     7
100
AcDbLine
 10
168.2613249999999
 20
-85.65498899999965
 30
0.0
 11
168.2613239999998
 21
-86.91989999999981
 31
0.0
  0
LINE
  5
5F9C
330
A
100
AcDbEntity
  8
0
  6
Continuous
 62
     7
100
AcDbLine
 10
167.724668
 20
-85.46071199999984
 30
0.0
 11
168.2613249999999
 21
-85.65498899999965
 31
0.0
  0
ELLIPSE
  5
5F9D
330
A
100
AcDbEntity
  8
0
  6
Continuous
 62
     7
100
AcDbEllipse
 10
167.724668
 20
-86.72562299999999
 30
0.0
 11
-0.5599999990679727
 21
-2.743428512107402
 31
0.0000000000000002
210
0.0000000000000001
220
0.0000000000000001
230
1.0
 40
0.4082480000000001
 41
0.1604061375003411
 42
2.034443781134205
  0
ELLIPSE
  5
5F9E
330
A
100
AcDbEntity
  8
0
  6
Continuous
 62
     7
100
AcDbEllipse
 10
167.724668
 20
-86.72562299999999
 30
0.0
 11
-0.5599999990679727
 21
-2.743428512107402
 31
-0.0000000000000001
210
0.0
220
0.0
230
1.0
 40
0.4082480000000001
 41
2.034443781134224
 42
2.981186516105393
  0
LINE
  5
5F9F
330
A
100
AcDbEntity
  8
0
  6
Continuous
 62
     7
100
AcDbLine
 10
168.2613249999999
 20
-85.65498899999965
 30
0.0
 11
167.6861379999998
 21
-85.5375799999998
 31
0.0
  0
LINE
  5
5FA0
330
A
100
AcDbEntity
  8
0
  6
Continuous
 62
     7
100
AcDbLine
 10
168.2613239999998
 20
-86.91989999999981
 30
0.0
 11
167.1880120000001
 21
-86.70081099999999
 31
0.0
  0
LINE
  5
5FA1
330
A
100
AcDbEntity
  8
0
  6
Continuous
 62
     7
100
AcDbLine
 10
162.358105
 20
-90.47494699999999
 30
0.0
 11
162.894761
 21
-89.40431399999978
 31
0.0
  0
LINE
  5
5FA2
330
A
100
AcDbEntity
  8
0
  6
Continuous
 62
     7
100
AcDbLine
 10
162.358105
 20
-91.7398589999998
 30
0.0
 11
162.358105
 21
-90.47494699999999
 31
0.0
  0
LINE
  5
5FA3
330
A
100
AcDbEntity
  8
0
  6
Continuous
 62
     7
100
AcDbLine
 10
162.894761
 20
-91.93413599999997
 30
0.0
 11
162.358105
 21
-91.7398589999998
 31
0.0
  0
LINE
  5
5FA4
330
A
100
AcDbEntity
  8
0
  6
Continuous
 62
     7
100
AcDbLine
 10
163.4314179999999
 20
-90.86350299999997
 30
0.0
 11
162.894761
 21
-91.93413599999997
 31
0.0
  0
LINE
  5
5FA5
330
A
100
AcDbEntity
  8
0
  6
Continuous
 62
     7
100
AcDbLine
 10
163.4314179999999
 20
-89.5985919999998
 30
0.0
 11
163.4314179999999
 21
-90.86350299999997
 31
0.0
  0
LINE
  5
5FA6
330
A
100
AcDbEntity
  8
0
  6
Continuous
 62
     7
100
AcDbLine
 10
162.894761
 20
-89.40431399999978
 30
0.0
 11
163.4314179999999
 21
-89.5985919999998
 31
0.0
  0
ELLIPSE
  5
5FA7
330
A
100
AcDbEntity
  8
0
  6
Continuous
 62
     7
100
AcDbEllipse
 10
162.894761
 20
-90.66922499999979
 30
0.0
 11
-0.5599999990679727
 21
-2.743428512107402
 31
0.0
210
0.0
220
0.0
230
1.0
 40
0.4082480000000001
 41
0.1604061305483849
 42
2.034443781066888
  0
ELLIPSE
  5
5FA8
330
A
100
AcDbEntity
  8
0
  6
Continuous
 62
     7
100
AcDbEllipse
 10
162.894761
 20
-90.66922499999979
 30
0.0
 11
-0.5599999990679727
 21
-2.743428512107402
 31
0.0
210
0.0
220
0.0
230
1.0
 40
0.4082480000000001
 41
2.034443781067083
 42
2.981186522307121
  0
LINE
  5
5FA9
330
A
100
AcDbEntity
  8
0
  6
Continuous
 62
     7
100
AcDbLine
 10
163.4314179999999
 20
-89.5985919999998
 30
0.0
 11
162.8562309999997
 21
-89.48118199999997
 31
0.0
  0
LINE
  5
5FAA
330
A
100
AcDbEntity
  8
0
  6
Continuous
 62
     7
100
AcDbLine
 10
163.4314179999999
 20
-90.86350299999997
 30
0.0
 11
162.358105
 21
-90.64441399999978
 31
0.0
  0
LINE
  5
5FAB
330
A
100
AcDbEntity
  8
0
  6
Continuous
 62
     9
100
AcDbLine
 10
156.7232140000001
 20
-49.33442899999993
 30
0.0
 11
156.3654429999999
 21
-49.62654800000001
 31
0.0
  0
LINE
  5
5FAC
330
A
100
AcDbEntity
  8
0
  6
Continuous
 62
     9
100
AcDbLine
 10
156.3654429999999
 20
-49.62654800000001
 30
0.0
 11
156.0076719999999
 21
-49.91866699999985
 31
0.0
  0
ELLIPSE
  5
5FAD
330
A
100
AcDbEntity
  8
0
  6
Continuous
 62
     7
100
AcDbEllipse
 10
156.7232140000001
 20
-53.351061
 30
0.0
 11
2.782804343610889
 21
-3.408225342488413
 31
0.0000000000000002
210
0.0
220
0.0
230
1.0
 40
0.816497
 41
0.7853981627592372
 42
2.356194489554158
  0
LINE
  5
5FAE
330
A
100
AcDbEntity
  8
0
  6
Continuous
 62
     9
100
AcDbLine
 10
160.6586929999998
 20
-54.15438799999998
 30
0.0
 11
160.300923
 21
-54.44650699999982
 31
0.0
  0
LINE
  5
5FAF
330
A
100
AcDbEntity
  8
0
  6
Continuous
 62
     9
100
AcDbLine
 10
160.300923
 20
-54.44650699999982
 30
0.0
 11
159.943152
 21
-54.73862499999977
 31
0.0
  0
ELLIPSE
  5
5FB0
330
A
100
AcDbEntity
  8
0
  6
Continuous
 62
     7
100
AcDbEllipse
 10
156.0076719999999
 20
-53.93529899999982
 30
0.0
 11
2.782804343610889
 21
-3.408225342488413
 31
0.0000000000000002
210
0.0
220
0.0
230
1.0
 40
0.816497
 41
0.7853981627592871
 42
2.356194489554264
  0
ELLIPSE
  5
5FB1
330
A
100
AcDbEntity
  8
0
  6
Continuous
 62
     7
100
AcDbEllipse
 10
156.0076719999999
 20
-116.740819
 30
0.0
 11
2.782804343610667
 21
-3.408225342488413
 31
-0.0000000000000002
210
0.0
220
0.0
230
1.0
 40
0.816497
 41
6.129436842569147
 42
6.142036894103893
  0
ELLIPSE
  5
5FB2
330
A
100
AcDbEntity
  8
0
  6
Continuous
 62
     7
100
AcDbEllipse
 10
117.0106460000001
 20
-46.34021299999978
 30
0.0
 11
3.035786556666363
 21
-3.718064009987306
 31
0.0
210
0.0000000000000001
220
0.0
230
1.0
 40
0.8164970000000002
 41
2.356194489554218
 42
3.141592653589865
  0
LINE
  5
5FB3
330
A
100
AcDbEntity
  8
0
  6
Continuous
 62
     7
100
AcDbLine
 10
156.0076719999999
 20
-49.91866699999985
 30
0.0
 11
117.0106460000001
 21
-41.95843199999984
 31
0.0
  0
ELLIPSE
  5
5FB4
330
A
100
AcDbEntity
  8
0
  6
Continuous
 62
     7
100
AcDbEllipse
 10
156.0076719999999
 20
-53.93529899999982
 30
0.0
 11
2.782804343610889
 21
-3.408225342488413
 31
0.0
210
0.0
220
0.0
230
1.0
 40
0.816497
 41
6.120761850661156
 42
6.283185307179584
  0
LINE
  5
5FB5
330
A
100
AcDbEntity
  8
0
  6
Continuous
 62
     9
100
AcDbLine
 10
117.7261879999998
 20
-41.37419499999992
 30
0.0
 11
117.3684170000001
 21
-41.66631399999977
 31
0.0
  0
LINE
  5
5FB6
330
A
100
AcDbEntity
  8
0
  6
Continuous
 62
     9
100
AcDbLine
 10
117.3684170000001
 20
-41.66631399999977
 30
0.0
 11
117.0106460000001
 21
-41.95843199999984
 31
0.0
  0
LINE
  5
5FB7
330
A
100
AcDbEntity
  8
0
  6
Continuous
 62
     7
100
AcDbLine
 10
156.7232140000001
 20
-49.33442899999993
 30
0.0
 11
117.7261879999998
 21
-41.37419499999992
 31
0.0
  0
ELLIPSE
  5
5FB8
330
A
100
AcDbEntity
  8
0
  6
Continuous
 62
     7
100
AcDbEllipse
 10
156.7232140000001
 20
-53.351061
 30
0.0
 11
2.782804343610889
 21
-3.408225342488413
 31
0.0000000000000002
210
0.0
220
0.0
230
1.0
 40
0.816497
 41
0.0000000000000159
 42
0.7853981627592372
  0
ELLIPSE
  5
5FB9
330
A
100
AcDbEntity
  8
0
  6
Continuous
 62
     7
100
AcDbEllipse
 10
156.0076719999999
 20
-53.93529899999982
 30
0.0
 11
2.782804343610889
 21
-3.408225342488413
 31
0.0000000000000002
210
0.0
220
0.0
230
1.0
 40
0.816497
 41
6.283185307179584
 42
7.068583469938872
  0
ELLIPSE
  5
5FBA
330
A
100
AcDbEntity
  8
0
  6
Continuous
 62
     7
100
AcDbEllipse
 10
117.0106460000001
 20
-46.34021299999978
 30
0.0
 11
3.035786556666363
 21
-3.718064009987306
 31
0.0
210
0.0
220
0.0
230
1.0
 40
0.8164970000000002
 41
3.141592653589863
 42
3.455296548568771
  0
ELLIPSE
  5
5FBB
330
A
100
AcDbEntity
  8
0
  6
Continuous
 62
     7
100
AcDbEllipse
 10
117.7261879999998
 20
-45.75597499999997
 30
0.0
 11
3.035786556666365
 21
-3.718064009987421
 31
0.0
210
0.0000000000000001
220
0.0
230
1.0
 40
0.816497
 41
2.356194489554138
 42
3.141592653589792
  0
LINE
  5
5FBC
330
A
100
AcDbEntity
  8
0
  6
Continuous
 62
     7
100
AcDbLine
 10
138.8740250000001
 20
-89.80090199999979
 30
0.0
 11
139.0124649999998
 21
-89.68786599999999
 31
0.0
  0
LINE
  5
5FBD
330
A
100
AcDbEntity
  8
0
  6
Continuous
 62
     7
100
AcDbLine
 10
140.0546690000001
 20
-93.16869299999979
 30
0.0
 11
140.0546690000001
 21
-95.5921549999998
 31
0.0
  0
LINE
  5
5FBE
330
A
100
AcDbEntity
  8
0
  6
Continuous
 62
     7
100
AcDbLine
 10
140.0546690000001
 20
-95.5921549999998
 30
0.0
 11
141.6256370000001
 21
-94.30946500000001
 31
0.0
  0
LINE
  5
5FBF
330
A
100
AcDbEntity
  8
0
  6
Continuous
 62
     7
100
AcDbLine
 10
142.2012940000002
 20
-78.68578600000002
 30
0.0
 11
142.9144210000002
 21
-78.10351999999983
 31
0.0
  0
LINE
  5
5FC0
330
A
100
AcDbEntity
  8
0
  6
Continuous
 62
     7
100
AcDbLine
 10
142.2012940000002
 20
-78.68578600000002
 30
0.0
 11
142.2012940000002
 21
-71.93054100000002
 31
0.0
  0
LINE
  5
5FC1
330
A
100
AcDbEntity
  8
0
  6
Continuous
 62
     7
100
AcDbLine
 10
140.0546690000001
 20
-73.68325299999998
 30
0.0
 11
142.2012940000002
 21
-71.93054100000002
 31
0.0
  0
LINE
  5
5FC2
330
A
100
AcDbEntity
  8
0
  6
Continuous
 62
     7
100
AcDbLine
 10
140.0546690000001
 20
-73.68325299999998
 30
0.0
 11
140.0546690000001
 21
-80.43849799999998
 31
0.0
  0
LINE
  5
5FC3
330
A
100
AcDbEntity
  8
0
  6
Continuous
 62
     7
100
AcDbLine
 10
140.015314
 20
-80.47063099999979
 30
0.0
 11
140.0546690000001
 21
-80.43849799999998
 31
0.0
  0
LINE
  5
5FC4
330
A
100
AcDbEntity
  8
0
  6
Continuous
 62
     7
100
AcDbLine
 10
138.8740250000001
 20
-82.16564999999997
 30
0.0
 11
138.8740250000001
 21
-89.80090199999979
 31
0.0
  0
LINE
  5
5FC5
330
A
100
AcDbEntity
  8
0
  6
Continuous
 62
     7
100
AcDbLine
 10
141.1279809999998
 20
-99.46272799999995
 30
0.0
 11
142.9144210000002
 21
-98.00410599999979
 31
0.0
  0
LINE
  5
5FC6
330
A
100
AcDbEntity
  8
0
  6
Continuous
 62
     7
100
AcDbLine
 10
141.1279809999998
 20
-102.128311
 30
0.0
 11
141.1279809999998
 21
-99.46272799999995
 31
0.0
  0
LINE
  5
5FC7
330
A
100
AcDbEntity
  8
0
  6
Continuous
 62
     7
100
AcDbLine
 10
140.6235239999998
 20
-102.5401989999999
 30
0.0
 11
141.1279809999998
 21
-102.128311
 31
0.0
  0
LINE
  5
5FC8
330
A
100
AcDbEntity
  8
0
  6
Continuous
 62
     7
100
AcDbLine
 10
140.4124469999999
 20
-100.7772639999997
 30
0.0
 11
140.4124469999999
 21
-101.6171049999998
 31
0.0
  0
ELLIPSE
  5
5FC9
330
A
100
AcDbEntity
  8
0
  6
Continuous
 62
     7
100
AcDbEllipse
 10
140.0546760000002
 20
-101.0693819999998
 30
0.0
 11
-0.1599999997545787
 21
-0.7838367177407379
 31
0.0
210
0.0
220
0.0
230
0.9999999999999996
 40
0.4082480000000003
 41
3.141592653589792
 42
3.71548342720368
  0
LINE
  5
5FCA
330
A
100
AcDbEntity
  8
0
  6
Continuous
 62
     7
100
AcDbLine
 10
138.4447
 20
-82.5161919999998
 30
0.0
 11
138.4447
 21
-91.13734499999997
 31
0.0
  0
LINE
  5
5FCB
330
A
100
AcDbEntity
  8
0
  6
Continuous
 62
     7
100
AcDbLine
 10
142.2012940000002
 20
-78.68578600000002
 30
0.0
 11
141.3813559999992
 21
-78.51841699999983
 31
0.0
  0
ELLIPSE
  5
5FCC
330
A
100
AcDbEntity
  8
0
  6
Continuous
 62
     7
100
AcDbEllipse
 10
140.0546760000002
 20
-101.0693819999998
 30
0.0
 11
-0.1599999997545787
 21
-0.7838367177407379
 31
0.0
210
0.0
220
0.0
230
0.9999999999999996
 40
0.4082480000000003
 41
2.03444393566796
 42
3.141592653589792
  0
LINE
  5
5FCD
330
A
100
AcDbEntity
  8
0
  6
Continuous
 62
     9
100
AcDbLine
 10
140.4124469999999
 20
-100.7772639999997
 30
0.0
 11
140.015314
 21
-100.6961989999999
 31
0.0
  0
ELLIPSE
  5
5FCE
330
A
100
AcDbEntity
  8
0
  6
Continuous
 62
     7
100
AcDbEllipse
 10
117.547303
 20
-45.90203499999979
 30
0.0
 11
-3.794733195840116
 21
4.647580012478558
 31
0.0000000000000004
210
0.0
220
-0.0000000000000001
230
0.9999999999999998
 40
0.8164969999999998
 41
6.283185307179572
 42
6.828333691520401
  0
LINE
  5
5FCF
330
A
100
AcDbEntity
  8
0
  6
Continuous
 62
     7
100
AcDbLine
 10
117.547303
 20
-40.42480899999981
 30
0.0
 11
156.9020989999999
 21
-48.45807299999985
 31
0.0
  0
ELLIPSE
  5
5FD0
330
A
100
AcDbEntity
  8
0
  6
Continuous
 62
     7
100
AcDbEllipse
 10
156.9020989999999
 20
-53.93529899999982
 30
0.0
 11
-3.794733195840116
 21
4.647580012478558
 31
0.0
210
0.0
220
0.0
230
0.9999999999999998
 40
0.8164969999999998
 41
3.926990816348076
 42
5.497787143142976
  0
LINE
  5
5FD1
330
A
100
AcDbEntity
  8
0
  6
Continuous
 62
     7
100
AcDbLine
 10
162.2686620000002
 20
-55.03074399999984
 30
0.0
 11
162.2686620000002
 21
-58.96725799999984
 31
0.0
  0
ELLIPSE
  5
5FD2
330
A
100
AcDbEntity
  8
0
  6
Continuous
 62
     7
100
AcDbEllipse
 10
156.5443280000001
 20
-53.49712099999982
 30
0.0
 11
3.035786556671913
 21
-3.718064009982756
 31
0.0000000000000002
210
-0.0000000000000001
220
0.0
230
1.0
 40
0.816497
 41
5.924038011941585
 42
6.283185307179584
  0
ELLIPSE
  5
5FD3
330
A
100
AcDbEntity
  8
0
  6
Continuous
 62
     7
100
AcDbEllipse
 10
156.5443280000001
 20
-53.49712099999982
 30
0.0
 11
3.035786556671915
 21
-3.718064009982868
 31
-0.0000000000000002
210
0.0
220
-0.0000000000000001
230
1.0
 40
0.816497
 41
0.785398162758348
 42
2.356194489553246
  0
LINE
  5
5FD4
330
A
100
AcDbEntity
  8
0
  6
Continuous
 62
     7
100
AcDbLine
 10
156.5443280000001
 20
-49.11534
 30
0.0
 11
117.1895320000001
 21
-41.08207599999996
 31
0.0
  0
ELLIPSE
  5
5FD5
330
A
100
AcDbEntity
  8
0
  6
Continuous
 62
     7
100
AcDbEllipse
 10
117.1895320000001
 20
-45.463857
 30
0.0
 11
3.035786556672138
 21
-3.718064009982756
 31
0.0
210
0.0
220
0.0
230
1.0
 40
0.816497
 41
2.356194489553244
 42
3.141592653589792
  0
ELLIPSE
  5
5FD6
330
A
100
AcDbEntity
  8
0
  6
Continuous
 62
     7
100
AcDbEllipse
 10
156.5443280000001
 20
-116.302641
 30
0.0
 11
3.035786556672136
 21
-3.718064009982867
 31
0.0
210
-0.0000000000000001
220
-0.0000000000000001
230
1.0
 40
0.8164970000000002
 41
5.924966021016173
 42
5.937355449974487
  0
LINE
  5
5FD7
330
A
100
AcDbEntity
  8
0
  6
Continuous
 62
     9
100
AcDbLine
 10
157.975412
 20
-47.58171699999997
 30
0.0
 11
156.9020989999999
 21
-48.45807299999985
 31
0.0
  0
ELLIPSE
  5
5FD8
330
A
100
AcDbEntity
  8
0
  6
Continuous
 62
     9
100
AcDbEllipse
 10
157.975412
 20
-53.05894299999983
 30
0.0
 11
3.794733195839893
 21
-4.647580012478447
 31
0.0
210
0.0
220
0.0
230
1.0
 40
0.816497
 41
0.7853981627583248
 42
2.35619448955322
  0
LINE
  5
5FD9
330
A
100
AcDbEntity
  8
0
  6
Continuous
 62
     9
100
AcDbLine
 10
163.341975
 20
-54.15438799999998
 30
0.0
 11
162.2686620000002
 21
-55.03074399999984
 31
0.0
  0
ELLIPSE
  5
5FDA
330
A
100
AcDbEntity
  8
0
  6
Continuous
 62
     7
100
AcDbEllipse
 10
156.7232140000001
 20
-116.1565809999998
 30
0.0
 11
3.035786556671913
 21
-3.718064009982756
 31
0.0000000000000003
210
0.0
220
0.0000000000000001
230
1.0
 40
0.816497
 41
5.880995763599392
 42
5.89178409313971
  0
ELLIPSE
  5
5FDB
330
A
100
AcDbEntity
  8
0
  6
Continuous
 62
     7
100
AcDbEllipse
 10
156.7232140000001
 20
-53.351061
 30
0.0
 11
3.035786556671913
 21
-3.718064009982756
 31
0.0
210
0.0
220
0.0
230
1.0
 40
0.816497
 41
5.876707863219512
 42
6.253718260336468
  0
ELLIPSE
  5
5FDC
330
A
100
AcDbEntity
  8
0
  6
Continuous
 62
     9
100
AcDbEllipse
 10
157.975412
 20
-50.502904
 30
0.0
 11
-0.6399999990183149
 21
-3.135346870962841
 31
-0.0000000000000001
210
0.0000000000000001
220
-0.0000000000000001
230
1.0
 40
0.4082480000000002
 41
3.141590962334331
 42
3.605240262462702
  0
ELLIPSE
  5
5FDD
330
A
100
AcDbEntity
  8
0
  6
Continuous
 62
     9
100
AcDbEllipse
 10
160.4798079999998
 20
-53.57015099999983
 30
0.0
 11
-3.200000000000091
 21
0.0
 31
0.0
210
0.0
220
-0.0000000000000001
230
1.0
 40
0.4082480000000002
 41
2.677945045228115
 42
3.141594875320336
  0
LINE
  5
5FDE
330
A
100
AcDbEntity
  8
0
  6
Continuous
 62
     9
100
AcDbLine
 10
118.6206149999998
 20
-39.54845299999983
 30
0.0
 11
117.547303
 21
-40.42480899999981
 31
0.0
  0
LINE
  5
5FDF
330
A
100
AcDbEntity
  8
0
  6
Continuous
 62
     9
100
AcDbLine
 10
157.975412
 20
-47.58171699999997
 30
0.0
 11
118.6206149999998
 21
-39.54845299999983
 31
0.0
  0
LINE
  5
5FE0
330
A
100
AcDbEntity
  8
0
  6
Continuous
 62
     9
100
AcDbLine
 10
163.341975
 20
-58.42239799999997
 30
0.0
 11
163.341975
 21
-54.15438799999998
 31
0.0
  0
ELLIPSE
  5
5FE1
330
A
100
AcDbEntity
  8
0
  6
Continuous
 62
     7
100
AcDbEllipse
 10
156.5443280000001
 20
-53.49712099999982
 30
0.0
 11
3.035786556671913
 21
-3.718064009982756
 31
0.0
210
0.0
220
0.0
230
1.0
 40
0.816497
 41
6.283185307179584
 42
7.068583469937919
  0
ELLIPSE
  5
5FE2
330
A
100
AcDbEntity
  8
0
  6
Continuous
 62
     9
100
AcDbEllipse
 10
118.6206149999998
 20
-42.46963999999985
 30
0.0
 11
0.6399999990183149
 21
3.135346870962841
 31
0.0000000000000001
210
0.0
220
0.0
230
1.0
 40
0.4082480000000002
 41
0.0
 42
0.4636476088729016
  0
ELLIPSE
  5
5FE3
330
A
100
AcDbEntity
  8
0
  6
Continuous
 62
     7
100
AcDbEllipse
 10
117.547303
 20
-45.90203499999979
 30
0.0
 11
-3.794733195840116
 21
4.647580012478558
 31
0.0000000000000002
210
0.0
220
-0.0000000000000001
230
0.9999999999999998
 40
0.8164969999999998
 41
5.497787143142976
 42
6.283185307179584
  0
ELLIPSE
  5
5FE4
330
A
100
AcDbEntity
  8
0
  6
Continuous
 62
     9
100
AcDbEllipse
 10
118.6206149999998
 20
-45.0256789999998
 30
0.0
 11
3.794733195840116
 21
-4.647580012478558
 31
0.0
210
0.0
220
0.0
230
0.9999999999999998
 40
0.8164969999999998
 41
2.356194489553193
 42
3.141592653589792
  0
ELLIPSE
  5
5FE5
330
A
100
AcDbEntity
  8
0
  6
Continuous
 62
     7
100
AcDbEllipse
 10
117.3684170000001
 20
-45.31779699999975
 30
0.0
 11
3.035786556671915
 21
-3.718064009982868
 31
0.0000000000000002
210
-0.0000000000000001
220
0.0
230
1.0
 40
0.816497
 41
3.171059698348261
 42
3.721546774995978
  0
ELLIPSE
  5
5FE6
330
A
100
AcDbEntity
  8
0
  6
Continuous
 62
     7
100
AcDbEllipse
 10
117.1895320000001
 20
-45.463857
 30
0.0
 11
3.035786556671913
 21
-3.718064009982756
 31
0.0000000000000002
210
-0.0000000000000001
220
0.0
230
1.0
 40
0.816497
 41
3.141592653589808
 42
3.682059723187446
  0
ELLIPSE
  5
5FE7
330
A
100
AcDbEntity
  8
0
  6
Continuous
 62
     7
100
AcDbEllipse
 10
156.9020989999999
 20
-116.0105219999998
 30
0.0
 11
-3.794733195839893
 21
4.647580012478503
 31
0.0
210
0.0
220
0.0
230
0.9999999999999998
 40
0.8164969999999998
 41
2.596444269142291
 42
2.633507609625884
  0
LINE
  5
5FE8
330
A
100
AcDbEntity
  8
0
  6
Continuous
 62
     7
100
AcDbLine
 10
166.561913
 20
-53.351061
 30
0.0
 11
176.0428409999999
 21
-45.60991599999982
 31
0.0
  0
LINE
  5
5FE9
330
A
100
AcDbEntity
  8
0
  6
Continuous
 62
     7
100
AcDbLine
 10
176.0428409999999
 20
-45.60991599999982
 30
0.0
 11
179.6205500000001
 21
-46.34021299999978
 31
0.0
  0
LINE
  5
5FEA
330
A
100
AcDbEntity
  8
0
  6
Continuous
 62
     7
100
AcDbLine
 10
179.6205500000001
 20
-46.34021299999978
 30
0.0
 11
173.3595600000001
 21
-51.45229
 31
0.0
  0
LINE
  5
5FEB
330
A
100
AcDbEntity
  8
0
  6
Continuous
 62
     7
100
AcDbLine
 10
173.3595600000001
 20
-51.45229
 30
0.0
 11
167.9929960000001
 21
-55.83406999999994
 31
0.0
  0
LINE
  5
5FEC
330
A
100
AcDbEntity
  8
0
  6
Continuous
 62
     7
100
AcDbLine
 10
167.9929960000001
 20
-55.83406999999994
 30
0.0
 11
161.7320059999999
 21
-60.94614799999981
 31
0.0
  0
LINE
  5
5FED
330
A
100
AcDbEntity
  8
0
  6
Continuous
 62
     7
100
AcDbLine
 10
161.7320059999999
 20
-60.94614799999981
 30
0.0
 11
158.371316
 21
-60.26014999999978
 31
0.0
  0
ELLIPSE
  5
5FEE
330
A
100
AcDbEntity
  8
0
  6
Continuous
 62
     7
100
AcDbEllipse
 10
150.3548920000003
 20
-54.60717199999994
 30
0.0
 11
16.00000000000002
 21
0.0
 31
0.0
210
0.0
220
0.0
230
1.0
 40
0.4082480000000002
 41
0.0
 42
0.1636313027387303
  0
ELLIPSE
  5
5FEF
330
A
100
AcDbEntity
  8
0
  6
Continuous
 62
     7
100
AcDbEllipse
 10
165.4885999999999
 20
-53.13197199999996
 30
0.0
 11
-1.20000000000009
 21
0.0
 31
0.0
210
0.0
220
0.0
230
1.0
 40
0.4082480000000002
 41
2.145762634573828
 42
2.67794504522799
  0
LINE
  5
600D
330
A
100
AcDbEntity
  8
0
  6
Continuous
 62
     7
100
AcDbLine
 10
158.371316
 20
-73.04034299999978
 30
0.0
 11
158.371316
 21
-60.26014999999978
 31
0.0
  0
LINE
  5
600E
330
A
100
AcDbEntity
  8
0
  6
Continuous
 62
     7
100
AcDbLine
 10
161.7320059999999
 20
-123.0213709999998
 30
0.0
 11
161.7320059999999
 21
-60.94614799999981
 31
0.0
  0
LINE
  5
600F
330
A
100
AcDbEntity
  8
0
  6
Continuous
 62
     7
100
AcDbLine
 10
161.7320059999999
 20
-123.0213709999998
 30
0.0
 11
158.371316
 21
-122.335373
 31
0.0
  0
LINE
  5
6010
330
A
100
AcDbEntity
  8
0
  6
Continuous
 62
     7
100
AcDbLine
 10
158.371316
 20
-109.5551799999998
 30
0.0
 11
158.371316
 21
-122.335373
 31
0.0
  0
LINE
  5
6036
330
A
100
AcDbEntity
  8
0
  6
Continuous
 62
     7
100
AcDbLine
 10
147.7789420000001
 20
-106.6627239999999
 30
0.0
 11
157.5045379999999
 21
-108.6479529999998
 31
0.0
  0
LINE
  5
6037
330
A
100
AcDbEntity
  8
0
  6
Continuous
 62
     9
100
AcDbLine
 10
147.7789420000001
 20
-95.83549899999985
 30
0.0
 11
147.7789420000001
 21
-106.6627239999999
 31
0.0
  0
ELLIPSE
  5
6038
330
A
100
AcDbEntity
  8
0
  6
Continuous
 62
     7
100
AcDbEllipse
 10
151.9290839999998
 20
-85.6739949999998
 30
0.0
 11
-0.1011928852223676
 21
0.1239354669994031
 31
0.0
210
0.0
220
0.0
230
1.0
 40
0.8164969999999998
 41
3.926990816348439
 42
5.497787143143955
  0
LINE
  5
6039
330
A
100
AcDbEntity
  8
0
  6
Continuous
 62
     7
100
AcDbLine
 10
147.7789420000001
 20
-84.68079199999982
 30
0.0
 11
151.9290839999998
 21
-85.52793599999985
 31
0.0
  0
LINE
  5
603A
330
A
100
AcDbEntity
  8
0
  6
Continuous
 62
     9
100
AcDbLine
 10
147.7789420000001
 20
-71.60847999999981
 30
0.0
 11
147.7789420000001
 21
-84.68079199999982
 31
0.0
  0
LINE
  5
603B
330
A
100
AcDbEntity
  8
0
  6
Continuous
 62
     7
100
AcDbLine
 10
147.7789420000001
 20
-71.60847999999981
 30
0.0
 11
157.5045379999999
 21
-73.5937089999998
 31
0.0
  0
LINE
  5
603C
330
A
100
AcDbEntity
  8
0
  6
Continuous
 62
     7
100
AcDbLine
 10
167.9929960000001
 20
-117.9092939999998
 30
0.0
 11
161.7320059999999
 21
-123.0213709999998
 31
0.0
  0
LINE
  5
603D
330
A
100
AcDbEntity
  8
0
  6
Continuous
 62
     9
100
AcDbLine
 10
167.9929960000001
 20
-84.3221719999998
 30
0.0
 11
167.9929960000001
 21
-55.83406999999994
 31
0.0
  0
ELLIPSE
  5
603E
330
A
100
AcDbEntity
  8
0
  6
Continuous
 62
     7
100
AcDbEllipse
 10
168.082439
 20
-86.79865199999978
 30
0.0
 11
-0.5599999991410252
 21
-2.743428512092469
 31
0.0000000000000001
210
0.0000000000000001
220
0.0
230
0.9999999999999998
 40
0.4082480000000002
 41
0.000000000000003
 42
0.3921581589873581
  0
LINE
  5
603F
330
A
100
AcDbEntity
  8
0
  6
Continuous
 62
     9
100
AcDbLine
 10
167.9929960000001
 20
-117.9092939999998
 30
0.0
 11
167.9929960000001
 21
-89.42119199999984
 31
0.0
  0
ELLIPSE
  5
6040
330
A
100
AcDbEntity
  8
0
  6
Continuous
 62
     7
100
AcDbEllipse
 10
163.252532
 20
-90.742255
 30
0.0
 11
-0.5599999991410252
 21
-2.743428512092469
 31
-0.0000000000000001
210
0.0000000000000001
220
-0.0000000000000001
230
0.9999999999999998
 40
0.4082480000000002
 41
6.283185307179513
 42
6.746832916052397
  0
ELLIPSE
  5
6041
330
A
100
AcDbEntity
  8
0
  6
Continuous
 62
     7
100
AcDbEllipse
 10
150.3548920000003
 20
-54.60717199999994
 30
0.0
 11
16.00000000000002
 21
0.0
 31
-0.0000000000000011
210
0.0000000000000001
220
0.0
230
1.0
 40
0.4082480000000002
 41
5.237173460949148
 42
6.283185307179584
  0
LINE
  5
6042
330
A
100
AcDbEntity
  8
0
  6
Continuous
 62
     7
100
AcDbLine
 10
166.1411679999998
 20
-53.54309999999981
 30
0.0
 11
166.1411679999998
 21
-55.67124399999983
 31
0.0
  0
LINE
  5
6043
330
A
100
AcDbEntity
  8
0
  6
Continuous
 62
     7
100
AcDbLine
 10
157.8991170000001
 20
-73.59530199999966
 30
0.0
 11
157.5045379999999
 21
-73.5937089999998
 31
0.0
  0
ELLIPSE
  5
6044
330
A
100
AcDbEntity
  8
0
  6
Continuous
 62
     9
100
AcDbEllipse
 10
150.3548920000003
 20
-68.117662
 30
0.0
 11
-15.2000000000001
 21
0.0
 31
0.0000000000000011
210
0.0000000000000001
220
0.0
230
1.0
 40
0.4082480000000002
 41
2.060507941612754
 42
2.114249773566974
  0
LINE
  5
6045
330
A
100
AcDbEntity
  8
0
  6
Continuous
 62
     9
100
AcDbLine
 10
173.3595600000001
 20
-80.89449099999985
 30
0.0
 11
173.3595600000001
 21
-51.45229
 31
0.0
  0
ELLIPSE
  5
6046
330
A
100
AcDbEntity
  8
0
  6
Continuous
 62
     7
100
AcDbEllipse
 10
173.896216
 20
-82.05172299999999
 30
0.0
 11
-0.4239999993496113
 21
-2.077167302012902
 31
0.0000000000000001
210
0.0
220
0.0
230
1.0
 40
0.4082480000000002
 41
4.206931781503365
 42
6.145141397011737
  0
LINE
  5
6047
330
A
100
AcDbEntity
  8
0
  6
Continuous
 62
     9
100
AcDbLine
 10
173.3595600000001
 20
-113.5275129999998
 30
0.0
 11
173.3595600000001
 21
-84.0853119999998
 31
0.0
  0
LINE
  5
6048
330
A
100
AcDbEntity
  8
0
  6
Continuous
 62
     7
100
AcDbLine
 10
173.3595600000001
 20
-113.5275129999998
 30
0.0
 11
167.9929960000001
 21
-117.9092939999998
 31
0.0
  0
ELLIPSE
  5
6049
330
A
100
AcDbEntity
  8
0
  6
Continuous
 62
     7
100
AcDbEllipse
 10
168.082439
 20
-86.79865199999978
 30
0.0
 11
-0.5599999991410252
 21
-2.743428512092469
 31
0.0
210
0.0000000000000001
220
0.0
230
0.9999999999999998
 40
0.4082480000000002
 41
3.141592653589801
 42
3.676729712348258
  0
ELLIPSE
  5
604A
330
A
100
AcDbEntity
  8
0
  6
Continuous
 62
     7
100
AcDbEllipse
 10
151.7144210000001
 20
-68.395174
 30
0.0
 11
-8.799999999999917
 21
0.0
 31
0.0
210
0.0
220
0.0
230
1.0
 40
0.4082480000000002
 41
0.6561219064684991
 42
1.107148718433227
  0
ELLIPSE
  5
604B
330
A
100
AcDbEntity
  8
0
  6
Continuous
 62
     7
100
AcDbEllipse
 10
151.7144210000001
 20
-81.46748599999986
 30
0.0
 11
8.799999999999917
 21
0.0
 31
0.0
210
0.0
220
0.0
230
1.0
 40
0.4082480000000002
 41
3.141592653589792
 42
4.248741372023014
  0
ELLIPSE
  5
604C
330
A
100
AcDbEntity
  8
0
  6
Continuous
 62
     7
100
AcDbEllipse
 10
163.252532
 20
-90.742255
 30
0.0
 11
-0.5599999991410254
 21
-2.743428512092414
 31
0.0000000000000001
210
0.0
220
0.0
230
1.0
 40
0.4082480000000002
 41
0.4636476088729637
 42
3.141592653589555
  0
ELLIPSE
  5
604D
330
A
100
AcDbEntity
  8
0
  6
Continuous
 62
     7
100
AcDbEllipse
 10
163.252532
 20
-90.742255
 30
0.0
 11
-0.5599999991410254
 21
-2.743428512092414
 31
0.0000000000000001
210
0.0
220
0.0
230
1.0
 40
0.4082480000000002
 41
3.141592653589555
 42
6.283185307179667
  0
LINE
  5
604E
330
A
100
AcDbEntity
  8
0
  6
Continuous
 62
     7
100
AcDbLine
 10
179.6205500000001
 20
-108.415436
 30
0.0
 11
179.6205500000001
 21
-46.34021299999978
 31
0.0
  0
LINE
  5
604F
330
A
100
AcDbEntity
  8
0
  6
Continuous
 62
     7
100
AcDbLine
 10
179.6205500000001
 20
-108.415436
 30
0.0
 11
173.3595600000001
 21
-113.5275129999998
 31
0.0
  0
ELLIPSE
  5
6050
330
A
100
AcDbEntity
  8
0
  6
Continuous
 62
     7
100
AcDbEllipse
 10
173.896216
 20
-82.05172299999999
 30
0.0
 11
-0.4239999993496113
 21
-2.077167302012902
 31
-0.0000000000000002
210
0.0
220
-0.0000000000000001
230
1.0
 40
0.4082480000000002
 41
3.141592653589921
 42
4.206931781503405
  0
ELLIPSE
  5
6051
330
A
100
AcDbEntity
  8
0
  6
Continuous
 62
     7
100
AcDbEllipse
 10
177.1161539999991
 20
-53.86226900000003
 30
0.0
 11
-0.4239999993496113
 21
-2.077167302012902
 31
0.0
210
0.0000000000000001
220
0.0
230
1.0
 40
0.4082480000000002
 41
3.141592653589575
 42
3.605240262462621
  0
ELLIPSE
  5
6052
330
A
100
AcDbEntity
  8
0
  6
Continuous
 62
     7
100
AcDbEllipse
 10
177.1161539999991
 20
-104.9830409999998
 30
0.0
 11
-0.4239999993496113
 21
-2.077167302012902
 31
0.0
210
0.0000000000000001
220
0.0
230
1.0
 40
0.4082480000000002
 41
3.141592653589798
 42
3.605240262462633
  0
ELLIPSE
  5
6053
330
A
100
AcDbEntity
  8
0
  6
Continuous
 62
     7
100
AcDbEllipse
 10
168.082439
 20
-86.79865199999978
 30
0.0
 11
-0.5599999991410252
 21
-2.743428512092469
 31
0.0000000000000001
210
0.0
220
0.0
230
0.9999999999999998
 40
0.4082480000000002
 41
0.3921581589873581
 42
3.141592653589792
  0
ELLIPSE
  5
6054
330
A
100
AcDbEntity
  8
0
  6
Continuous
 62
     7
100
AcDbEllipse
 10
168.082439
 20
-86.79865199999978
 30
0.0
 11
-0.5599999991410252
 21
-2.743428512092469
 31
-0.0000000000000001
210
0.0
220
0.0
230
0.9999999999999998
 40
0.4082480000000002
 41
3.676729712348253
 42
6.283185307179584
  0
ELLIPSE
  5
6055
330
A
100
AcDbEntity
  8
0
  6
Continuous
 62
     7
100
AcDbEllipse
 10
151.7144210000001
 20
-103.4494179999998
 30
0.0
 11
8.799999999999917
 21
0.0
 31
0.0
210
0.0
220
0.0
230
1.0
 40
0.4082480000000002
 41
3.141592653589811
 42
4.248741372023026
  0
ELLIPSE
  5
6056
330
A
100
AcDbEntity
  8
0
  6
Continuous
 62
     7
100
AcDbEllipse
 10
175.8639559999999
 20
-53.60666499999997
 30
0.0
 11
0.4239999993496113
 21
2.077167302012902
 31
0.0000000000000001
210
0.0
220
0.0
230
1.0
 40
0.4082480000000002
 41
3.972175112472303
 42
5.452602848296771
  0
ELLIPSE
  5
6057
330
A
100
AcDbEntity
  8
0
  6
Continuous
 62
     7
100
AcDbEllipse
 10
177.1161539999991
 20
-53.86226900000003
 30
0.0
 11
-0.4239999993496113
 21
-2.077167302012902
 31
0.0
210
0.0
220
0.0
230
1.0
 40
0.4082480000000002
 41
3.605240262462633
 42
6.283185307179584
  0
ELLIPSE
  5
6058
330
A
100
AcDbEntity
  8
0
  6
Continuous
 62
     7
100
AcDbEllipse
 10
177.1161539999991
 20
-53.86226900000003
 30
0.0
 11
-0.4239999993496113
 21
-2.077167302012902
 31
0.0
210
0.0
220
0.0
230
1.0
 40
0.4082480000000002
 41
0.0
 42
3.141592653589575
  0
ELLIPSE
  5
6059
330
A
100
AcDbEntity
  8
0
  6
Continuous
 62
     7
100
AcDbEllipse
 10
172.6440179999999
 20
-81.79611999999996
 30
0.0
 11
0.4239999993496113
 21
2.077167302012902
 31
-0.0000000000000001
210
0.0
220
0.0
230
1.0
 40
0.4082480000000002
 41
3.972175112514393
 42
5.452602848255007
  0
ELLIPSE
  5
605A
330
A
100
AcDbEntity
  8
0
  6
Continuous
 62
     7
100
AcDbEllipse
 10
173.896216
 20
-82.05172299999999
 30
0.0
 11
-0.4239999993496113
 21
-2.077167302012902
 31
0.0
210
0.0
220
0.0
230
1.0
 40
0.4082480000000002
 41
6.145141397011737
 42
6.283185307179584
  0
ELLIPSE
  5
605B
330
A
100
AcDbEntity
  8
0
  6
Continuous
 62
     7
100
AcDbEllipse
 10
173.896216
 20
-82.05172299999999
 30
0.0
 11
-0.4239999993496113
 21
-2.07716730201296
 31
-0.0000000000000001
210
0.0
220
0.0
230
1.0
 40
0.4082480000000002
 41
6.283185307179482
 42
9.424777960769477
  0
ELLIPSE
  5
605C
330
A
100
AcDbEntity
  8
0
  6
Continuous
 62
     7
100
AcDbEllipse
 10
175.8639559999999
 20
-104.7274369999998
 30
0.0
 11
0.4239999993496113
 21
2.077167302012902
 31
-0.0000000000000001
210
0.0
220
0.0
230
1.0
 40
0.4082480000000002
 41
3.972175112513482
 42
5.452602848255664
  0
ELLIPSE
  5
605D
330
A
100
AcDbEntity
  8
0
  6
Continuous
 62
     7
100
AcDbEllipse
 10
177.1161539999991
 20
-104.9830409999998
 30
0.0
 11
-0.4239999993496113
 21
-2.07716730201285
 31
-0.0000000000000001
210
0.0
220
0.0
230
1.0
 40
0.4082480000000002
 41
3.605240262462736
 42
6.283185307179691
  0
ELLIPSE
  5
605E
330
A
100
AcDbEntity
  8
0
  6
Continuous
 62
     7
100
AcDbEllipse
 10
177.1161539999991
 20
-104.9830409999998
 30
0.0
 11
-0.4239999993496113
 21
-2.077167302012902
 31
0.0
210
0.0
220
0.0
230
1.0
 40
0.4082480000000002
 41
6.28318530717958
 42
9.424777960769381
  0
ELLIPSE
  5
605F
330
A
100
AcDbEntity
  8
0
  6
Continuous
 62
     7
100
AcDbEllipse
 10
117.3684170000001
 20
-46.04809399999981
 30
0.0
 11
3.035786556672136
 21
-3.718064009982867
 31
0.0000000000000002
210
0.0
220
0.0
230
1.0
 40
0.8164970000000002
 41
2.356194489553208
 42
3.141592653589771
  0
LINE
  5
6060
330
A
100
AcDbEntity
  8
0
  6
Continuous
 62
     7
100
AcDbLine
 10
156.3654429999999
 20
-49.62654800000001
 30
0.0
 11
117.3684170000001
 21
-41.66631399999977
 31
0.0
  0
ELLIPSE
  5
6061
330
A
100
AcDbEntity
  8
0
  6
Continuous
 62
     7
100
AcDbEllipse
 10
156.3654429999999
 20
-53.64317999999997
 30
0.0
 11
2.782804343615995
 21
-3.408225342484302
 31
-0.0000000000000002
210
0.0
220
-0.0000000000000001
230
1.0
 40
0.816497
 41
0.7853981627583303
 42
2.356194489553227
  0
LINE
  5
6062
330
A
100
AcDbEntity
  8
0
  6
Continuous
 62
     9
100
AcDbLine
 10
156.7232140000001
 20
-49.33442899999993
 30
0.0
 11
156.3654429999999
 21
-49.62654800000001
 31
0.0
  0
ELLIPSE
  5
6063
330
A
100
AcDbEntity
  8
0
  6
Continuous
 62
     7
100
AcDbEllipse
 10
156.7232140000001
 20
-53.351061
 30
0.0
 11
2.782804343616215
 21
-3.408225342484417
 31
-0.0000000000000003
210
0.0
220
-0.0000000000000001
230
1.0
 40
0.8164970000000002
 41
0.7853981627582911
 42
2.356194489553185
  0
LINE
  5
6064
330
A
100
AcDbEntity
  8
0
  6
Continuous
 62
     9
100
AcDbLine
 10
160.6586929999998
 20
-54.15438799999998
 30
0.0
 11
160.300923
 21
-54.44650699999982
 31
0.0
  0
LINE
  5
6065
330
A
100
AcDbEntity
  8
0
  6
Continuous
 62
     9
100
AcDbLine
 10
117.7261879999998
 20
-41.37419499999992
 30
0.0
 11
117.3684170000001
 21
-41.66631399999977
 31
0.0
  0
LINE
  5
6066
330
A
100
AcDbEntity
  8
0
  6
Continuous
 62
     7
100
AcDbLine
 10
156.7232140000001
 20
-49.33442899999993
 30
0.0
 11
117.7261879999998
 21
-41.37419499999992
 31
0.0
  0
ELLIPSE
  5
6067
330
A
100
AcDbEntity
  8
0
  6
Continuous
 62
     7
100
AcDbEllipse
 10
156.7232140000001
 20
-53.351061
 30
0.0
 11
2.782804343616215
 21
-3.408225342484417
 31
0.0
210
0.0
220
0.0
230
1.0
 40
0.8164970000000002
 41
0.0
 42
0.7853981627582911
  0
ELLIPSE
  5
6068
330
A
100
AcDbEntity
  8
0
  6
Continuous
 62
     7
100
AcDbEllipse
 10
156.3654429999999
 20
-53.64317999999997
 30
0.0
 11
2.782804343615995
 21
-3.408225342484302
 31
0.0
210
-0.0000000000000001
220
0.0
230
1.0
 40
0.816497
 41
6.283185307179584
 42
7.068583469937914
  0
ELLIPSE
  5
6069
330
A
100
AcDbEntity
  8
0
  6
Continuous
 62
     7
100
AcDbEllipse
 10
117.7261879999998
 20
-45.75597499999997
 30
0.0
 11
3.035786556671915
 21
-3.718064009982868
 31
0.0000000000000002
210
0.0
220
0.0
230
1.0
 40
0.816497
 41
2.356194489553193
 42
3.141592653589741
  0
ELLIPSE
  5
606A
330
A
100
AcDbEntity
  8
0
  6
Continuous
 62
     9
100
AcDbEllipse
 10
150.462223
 20
-59.19343499999961
 30
0.0
 11
1.770875491392098
 21
-2.168870672490051
 31
-0.0000000000000001
210
0.0000000000000001
220
0.0
230
1.0
 40
0.8164970000000002
 41
0.7853981627583094
 42
2.356194489553125
  0
ELLIPSE
  5
606B
330
A
100
AcDbEntity
  8
0
  6
Continuous
 62
     9
100
AcDbEllipse
 10
151.893307
 20
-55.46892199999985
 30
0.0
 11
-0.6399999990183149
 21
-3.135346870962841
 31
0.0
210
0.0000000000000001
220
0.0
230
1.0
 40
0.4082480000000002
 41
3.605240262462761
 42
5.176036589257638
  0
ELLIPSE
  5
606C
330
A
100
AcDbEntity
  8
0
  6
Continuous
 62
     9
100
AcDbEllipse
 10
151.893307
 20
-58.02496100000002
 30
0.0
 11
-3.794733195840117
 21
4.647580012478668
 31
0.0
210
0.0
220
0.0
230
1.0
 40
0.816497
 41
3.926990816348091
 42
5.497787143142987
  0
ELLIPSE
  5
606D
330
A
100
AcDbEntity
  8
0
  6
Continuous
 62
     9
100
AcDbEllipse
 10
154.3977030000001
 20
-58.53616799999979
 30
0.0
 11
-3.199999999999868
 21
0.0
 31
0.0
210
0.0
220
0.0
230
1.0
 40
0.4082480000000002
 41
1.10714871843325
 42
2.677945045228084
  0
LINE
  5
606E
330
A
100
AcDbEntity
  8
0
  6
Continuous
 62
     9
100
AcDbLine
 10
150.462223
 20
-56.63739699999979
 30
0.0
 11
111.1074269999999
 21
-48.60413299999999
 31
0.0
  0
ELLIPSE
  5
606F
330
A
100
AcDbEntity
  8
0
  6
Continuous
 62
     9
100
AcDbEllipse
 10
112.5385109999999
 20
-47.43565799999982
 30
0.0
 11
0.6399999990183149
 21
3.135346870962841
 31
0.0000000000000002
210
0.0
220
-0.0000000000000001
230
1.0
 40
0.4082480000000002
 41
0.4636476088729597
 42
2.03444393566788
  0
LINE
  5
6070
330
A
100
AcDbEntity
  8
0
  6
Continuous
 62
     9
100
AcDbLine
 10
112.5385109999999
 20
-44.51447099999978
 30
0.0
 11
151.893307
 21
-52.54773499999982
 31
0.0
  0
LINE
  5
6071
330
A
100
AcDbEntity
  8
0
  6
Continuous
 62
     9
100
AcDbLine
 10
152.9666199999999
 20
-72.2657469999998
 30
0.0
 11
152.9666199999999
 21
-59.70464299999974
 31
0.0
  0
LINE
  5
6072
330
A
100
AcDbEntity
  8
0
  6
Continuous
 62
     9
100
AcDbLine
 10
157.2598699999998
 20
-59.12040599999983
 30
0.0
 11
157.2598699999998
 21
-71.68150999999976
 31
0.0
  0
ELLIPSE
  5
6073
330
A
100
AcDbEntity
  8
0
  6
Continuous
 62
     7
100
AcDbEllipse
 10
154.3977030000001
 20
-71.0972719999998
 30
0.0
 11
3.200000000000091
 21
0.0
 31
0.0
210
0.0
220
0.0
230
1.0
 40
0.4082480000000002
 41
4.248741372023011
 42
5.819537698817971
  0
LINE
  5
6074
330
A
100
AcDbEntity
  8
0
  6
Continuous
 62
     7
100
AcDbLine
 10
138.2980139999999
 20
-82.63596099999984
 30
0.0
 11
138.2980139999999
 21
-69.27152999999981
 31
0.0
  0
LINE
  5
6075
330
A
100
AcDbEntity
  8
0
  6
Continuous
 62
     7
100
AcDbLine
 10
133.6469920000002
 20
-81.68657499999985
 30
0.0
 11
138.2980139999999
 21
-82.63596099999984
 31
0.0
  0
LINE
  5
6076
330
A
100
AcDbEntity
  8
0
  6
Continuous
 62
     7
100
AcDbLine
 10
133.6469920000002
 20
-91.91072999999985
 30
0.0
 11
133.6469920000002
 21
-81.68657499999985
 31
0.0
  0
LINE
  5
6077
330
A
100
AcDbEntity
  8
0
  6
Continuous
 62
     7
100
AcDbLine
 10
138.2980139999999
 20
-92.860115
 30
0.0
 11
133.6469920000002
 21
-91.91072999999985
 31
0.0
  0
LINE
  5
6078
330
A
100
AcDbEntity
  8
0
  6
Continuous
 62
     7
100
AcDbLine
 10
138.2980139999999
 20
-106.2245459999998
 30
0.0
 11
138.2980139999999
 21
-92.860115
 31
0.0
  0
LINE
  5
6079
330
A
100
AcDbEntity
  8
0
  6
Continuous
 62
     7
100
AcDbLine
 10
152.9666199999999
 20
-109.218762
 30
0.0
 11
138.2980139999999
 21
-106.2245459999998
 31
0.0
  0
LINE
  5
607A
330
A
100
AcDbEntity
  8
0
  6
Continuous
 62
     9
100
AcDbLine
 10
152.9666199999999
 20
-121.7798659999999
 30
0.0
 11
152.9666199999999
 21
-109.218762
 31
0.0
  0
ELLIPSE
  5
607B
330
A
100
AcDbEntity
  8
0
  6
Continuous
 62
     9
100
AcDbEllipse
 10
150.462223
 20
-121.2686589999998
 30
0.0
 11
1.770875491392098
 21
-2.168870672490051
 31
0.0
210
0.0
220
0.0
230
1.0
 40
0.8164970000000002
 41
5.497787143142933
 42
7.068583469937887
  0
LINE
  5
607C
330
A
100
AcDbEntity
  8
0
  6
Continuous
 62
     9
100
AcDbLine
 10
111.1074269999999
 20
-115.7914329999998
 30
0.0
 11
150.462223
 21
-123.8246969999998
 31
0.0
  0
ELLIPSE
  5
607D
330
A
100
AcDbEntity
  8
0
  6
Continuous
 62
     9
100
AcDbEllipse
 10
111.1074269999999
 20
-113.235394
 30
0.0
 11
1.770875491391876
 21
-2.168870672489942
 31
-0.0000000000000001
210
0.0000000000000001
220
0.0
230
0.9999999999999998
 40
0.8164969999999996
 41
3.926990816348156
 42
5.497787143142992
  0
LINE
  5
607E
330
A
100
AcDbEntity
  8
0
  6
Continuous
 62
     9
100
AcDbLine
 10
108.6030309999999
 20
-50.6489639999998
 30
0.0
 11
108.6030309999999
 21
-112.7241869999999
 31
0.0
  0
ELLIPSE
  5
607F
330
A
100
AcDbEntity
  8
0
  6
Continuous
 62
     9
100
AcDbEllipse
 10
111.1074269999999
 20
-51.16017099999982
 30
0.0
 11
1.770875491391876
 21
-2.168870672489942
 31
0.0
210
0.0
220
0.0
230
0.9999999999999998
 40
0.8164969999999996
 41
2.356194489553288
 42
3.926990816348236
  0
LINE
  5
6080
330
A
100
AcDbEntity
  8
0
  6
Continuous
 62
     7
100
AcDbLine
 10
138.2980139999999
 20
-69.27152999999981
 30
0.0
 11
152.9666199999999
 21
-72.2657469999998
 31
0.0
  0
ELLIPSE
  5
6081
330
A
100
AcDbEntity
  8
0
  6
Continuous
 62
     7
100
AcDbEllipse
 10
152.9666199999999
 20
-57.14860499999979
 30
0.0
 11
-3.794733195839893
 21
4.647580012478558
 31
0.0
210
0.0
220
0.0
230
1.0
 40
0.8164970000000002
 41
3.92699081634808
 42
5.497787143142976
  0
LINE
  5
6082
330
A
100
AcDbEntity
  8
0
  6
Continuous
 62
     9
100
AcDbLine
 10
158.3331829999997
 20
-58.24404999999996
 30
0.0
 11
157.2598699999998
 21
-59.12040599999983
 31
0.0
  0
LINE
  5
6083
330
A
100
AcDbEntity
  8
0
  6
Continuous
 62
     9
100
AcDbLine
 10
151.893307
 20
-52.54773499999982
 30
0.0
 11
152.9666199999999
 21
-51.67137899999983
 31
0.0
  0
LINE
  5
6084
330
A
100
AcDbEntity
  8
0
  6
Continuous
 62
     9
100
AcDbLine
 10
113.6118229999999
 20
-43.63811500000037
 30
0.0
 11
112.5385109999999
 21
-44.51447099999978
 31
0.0
  0
LINE
  5
6085
330
A
100
AcDbEntity
  8
0
  6
Continuous
 62
     7
100
AcDbLine
 10
113.6118229999999
 20
-43.63811500000037
 30
0.0
 11
152.9666199999999
 21
-51.67137899999983
 31
0.0
  0
LINE
  5
6086
330
A
100
AcDbEntity
  8
0
  6
Continuous
 62
     7
100
AcDbLine
 10
158.371316
 20
-62.95984299999981
 30
0.0
 11
158.3331829999997
 21
-62.99097799999986
 31
0.0
  0
LINE
  5
6087
330
A
100
AcDbEntity
  8
0
  6
Continuous
 62
     7
100
AcDbLine
 10
157.2598699999998
 20
-71.68150999999976
 30
0.0
 11
158.371316
 21
-70.7740179999998
 31
0.0
  0
LINE
  5
6088
330
A
100
AcDbEntity
  8
0
  6
Continuous
 62
     7
100
AcDbLine
 10
158.3331829999997
 20
-62.99097799999986
 30
0.0
 11
158.3331829999997
 21
-58.24404999999996
 31
0.0
  0
LINE
  5
6089
330
A
100
AcDbEntity
  8
0
  6
Continuous
 62
     7
100
AcDbLine
 10
158.3331829999997
 20
-59.15692099999985
 30
0.0
 11
160.6088219999999
 21
-59.62143399999996
 31
0.0
  0
LINE
  5
608A
330
A
100
AcDbEntity
  8
0
  6
Continuous
 62
     7
100
AcDbLine
 10
140.015314
 20
-70.53494399999998
 30
0.0
 11
140.6235239999998
 21
-70.038342
 31
0.0
  0
LINE
  5
608B
330
A
100
AcDbEntity
  8
0
  6
Continuous
 62
     7
100
AcDbLine
 10
140.015314
 20
-81.23379099999983
 30
0.0
 11
140.015314
 21
-70.53494399999998
 31
0.0
  0
LINE
  5
608C
330
A
100
AcDbEntity
  8
0
  6
Continuous
 62
     7
100
AcDbLine
 10
140.015314
 20
-81.23379099999983
 30
0.0
 11
138.2980139999999
 21
-82.63596099999984
 31
0.0
  0
LINE
  5
608D
330
A
100
AcDbEntity
  8
0
  6
Continuous
 62
     7
100
AcDbLine
 10
140.6235239999998
 20
-69.74622299999999
 30
0.0
 11
140.6235239999998
 21
-70.038342
 31
0.0
  0
ELLIPSE
  5
608E
330
A
100
AcDbEntity
  8
0
  6
Continuous
 62
     9
100
AcDbEllipse
 10
112.5385109999999
 20
-49.99169599999999
 30
0.0
 11
-3.794733195839893
 21
4.647580012478558
 31
0.0
210
0.0
220
0.0
230
1.0
 40
0.8164970000000002
 41
5.497787143143056
 42
6.283196576867127
  0
ELLIPSE
  5
608F
330
A
100
AcDbEntity
  8
0
  6
Continuous
 62
     9
100
AcDbEllipse
 10
110.034114
 20
-49.48048899999964
 30
0.0
 11
-3.200000000000091
 21
0.0
 31
0.0
210
0.0
220
0.0
230
1.0
 40
0.4082480000000002
 41
0.0000005596853536
 42
1.107148718433188
  0
ELLIPSE
  5
6090
330
A
100
AcDbEntity
  8
0
  6
Continuous
 62
     7
100
AcDbEllipse
 10
113.6118229999999
 20
-49.11534
 30
0.0
 11
-3.794733195839893
 21
4.647580012478558
 31
0.0
210
-0.0000000000000001
220
0.0
230
1.0
 40
0.8164970000000002
 41
5.497787143143054
 42
6.283185307179584
  0
ELLIPSE
  5
6091
330
A
100
AcDbEntity
  8
0
  6
Continuous
 62
     9
100
AcDbEllipse
 10
110.034114
 20
-111.5557119999998
 30
0.0
 11
-3.200000000000091
 21
0.0
 31
0.0000000000000002
210
0.0000000000000001
220
0.0
230
1.0
 40
0.4082480000000002
 41
0.0000000000000001
 42
1.107148718433172
  0
LINE
  5
6092
330
A
100
AcDbEntity
  8
0
  6
Continuous
 62
     7
100
AcDbLine
 10
135.3642920000002
 20
-90.50856000000001
 30
0.0
 11
133.6469920000002
 21
-91.91072999999985
 31
0.0
  0
LINE
  5
6093
330
A
100
AcDbEntity
  8
0
  6
Continuous
 62
     7
100
AcDbLine
 10
135.3642920000002
 20
-90.50856000000001
 30
0.0
 11
135.3642920000002
 21
-82.03711799999979
 31
0.0
  0
LINE
  5
6094
330
A
100
AcDbEntity
  8
0
  6
Continuous
 62
     7
100
AcDbLine
 10
140.6235239999998
 20
-104.3257739999999
 30
0.0
 11
138.2980139999999
 21
-106.2245459999998
 31
0.0
  0
LINE
  5
6095
330
A
100
AcDbEntity
  8
0
  6
Continuous
 62
     7
100
AcDbLine
 10
141.0206499999999
 20
-102.2159469999998
 30
0.0
 11
142.77015
 21
-102.5730619999998
 31
0.0
  0
LINE
  5
6096
330
A
100
AcDbEntity
  8
0
  6
Continuous
 62
     7
100
AcDbLine
 10
142.9144210000002
 20
-102.4552639999998
 30
0.0
 11
142.77015
 21
-102.5730619999998
 31
0.0
  0
LINE
  5
6097
330
A
100
AcDbEntity
  8
0
  6
Continuous
 62
     7
100
AcDbLine
 10
157.2956469999999
 20
-108.6053129999998
 30
0.0
 11
157.2598699999998
 21
-108.6345249999998
 31
0.0
  0
ELLIPSE
  5
6098
330
A
100
AcDbEntity
  8
0
  6
Continuous
 62
     7
100
AcDbEllipse
 10
154.3977030000001
 20
-108.0502879999998
 30
0.0
 11
-3.199999999999868
 21
0.0000000000000555
 31
0.0000000000000002
210
0.0000000000000001
220
0.0
230
1.0
 40
0.4082480000000002
 41
1.107148718433258
 42
2.677945045228133
  0
LINE
  5
6099
330
A
100
AcDbEntity
  8
0
  6
Continuous
 62
     9
100
AcDbLine
 10
157.2598699999998
 20
-108.6345249999998
 30
0.0
 11
157.2598699999998
 21
-121.1956289999998
 31
0.0
  0
ELLIPSE
  5
609A
330
A
100
AcDbEntity
  8
0
  6
Continuous
 62
     9
100
AcDbEllipse
 10
154.3977030000001
 20
-120.6113919999998
 30
0.0
 11
3.200000000000091
 21
0.0
 31
0.0
210
0.0
220
0.0
230
1.0
 40
0.4082480000000002
 41
4.248741372023011
 42
5.819537698817951
  0
LINE
  5
609B
330
A
100
AcDbEntity
  8
0
  6
Continuous
 62
     7
100
AcDbLine
 10
140.6235239999998
 20
-101.660191
 30
0.0
 11
140.015314
 21
-102.1567929999998
 31
0.0
  0
LINE
  5
609C
330
A
100
AcDbEntity
  8
0
  6
Continuous
 62
     7
100
AcDbLine
 10
139.2542350000001
 20
-92.07936399999978
 30
0.0
 11
138.2980139999999
 21
-92.860115
 31
0.0
  0
LINE
  5
609D
330
A
100
AcDbEntity
  8
0
  6
Continuous
 62
     7
100
AcDbLine
 10
140.015314
 20
-102.1567929999998
 30
0.0
 11
140.015314
 21
-93.12963299999996
 31
0.0
  0
LINE
  5
609E
330
A
100
AcDbEntity
  8
0
  6
Continuous
 62
     7
100
AcDbLine
 10
140.6235239999998
 20
-101.660191
 30
0.0
 11
140.6235239999998
 21
-104.3257739999999
 31
0.0
  0
LINE
  5
609F
330
A
100
AcDbEntity
  8
0
  6
Continuous
 62
     7
100
AcDbLine
 10
139.0229789999998
 20
-91.25538599999998
 30
0.0
 11
135.3642920000002
 21
-90.50856000000001
 31
0.0
  0
LINE
  5
60A0
330
A
100
AcDbEntity
  8
0
  6
Continuous
 62
     7
100
AcDbLine
 10
158.3331829999997
 20
-115.572344
 30
0.0
 11
158.371316
 21
-115.5412079999998
 31
0.0
  0
LINE
  5
60A1
330
A
100
AcDbEntity
  8
0
  6
Continuous
 62
     9
100
AcDbLine
 10
157.2598699999998
 20
-121.1956289999998
 30
0.0
 11
158.3331829999997
 21
-120.319273
 31
0.0
  0
LINE
  5
60A2
330
A
100
AcDbEntity
  8
0
  6
Continuous
 62
     7
100
AcDbLine
 10
158.3331829999997
 20
-120.319273
 30
0.0
 11
158.3331829999997
 21
-115.572344
 31
0.0
  0
ELLIPSE
  5
60A3
330
A
100
AcDbEntity
  8
0
  6
Continuous
 62
     9
100
AcDbEllipse
 10
151.893307
 20
-122.6562219999998
 30
0.0
 11
-0.6399999990183149
 21
-3.135346870962841
 31
0.0000000000000001
210
0.0
220
0.0
230
1.0
 40
0.4082480000000002
 41
5.176036589257656
 42
6.28318507670366
  0
ELLIPSE
  5
60A4
330
A
100
AcDbEntity
  8
0
  6
Continuous
 62
     9
100
AcDbEllipse
 10
151.893307
 20
-120.1001839999998
 30
0.0
 11
-3.794733195840116
 21
4.647580012478612
 31
0.0000000000000002
210
0.0
220
-0.0000000000000001
230
1.0
 40
0.816497
 41
3.141603923277306
 42
3.926990816348108
  0
ELLIPSE
  5
60A5
330
A
100
AcDbEntity
  8
0
  6
Continuous
 62
     7
100
AcDbEllipse
 10
152.9666199999999
 20
-119.2238279999999
 30
0.0
 11
-3.794733195840116
 21
4.647580012478612
 31
0.0000000000000002
210
0.0
220
-0.0000000000000001
230
1.0
 40
0.816497
 41
3.141592653589762
 42
3.926990816348108
  0
ELLIPSE
  5
60A6
330
A
100
AcDbEntity
  8
0
  6
Continuous
 62
     9
100
AcDbEllipse
 10
112.5385109999999
 20
-114.6229579999998
 30
0.0
 11
-0.6399999990183149
 21
-3.135346870962841
 31
-0.0000000000000001
210
0.0
220
0.0
230
1.0
 40
0.4082480000000002
 41
5.176036589257691
 42
6.283185307179584
  0
LINE
  5
60A7
330
A
100
AcDbEntity
  8
0
  6
Continuous
 62
     7
100
AcDbLine
 10
140.015314
 20
-101.5360409999999
 30
0.0
 11
140.6235239999998
 21
-101.660191
 31
0.0
  0
LINE
  5
60A8
330
A
100
AcDbEntity
  8
0
  6
Continuous
 62
     7
100
AcDbLine
 10
142.77015
 20
-99.90747899999997
 30
0.0
 11
142.9144210000002
 21
-99.78968099999979
 31
0.0
  0
LINE
  5
60A9
330
A
100
AcDbEntity
  8
0
  6
Continuous
 62
     7
100
AcDbLine
 10
141.1279809999998
 20
-99.57227299999999
 30
0.0
 11
142.77015
 21
-99.90747899999997
 31
0.0
  0
LINE
  5
60AA
330
A
100
AcDbEntity
  8
0
  6
Continuous
 62
     7
100
AcDbLine
 10
142.8095039999998
 20
-98.08976999999998
 30
0.0
 11
142.9144210000002
 21
-98.11118599999998
 31
0.0
  0
LINE
  5
60AB
330
A
100
AcDbEntity
  8
0
  6
Continuous
 62
     7
100
AcDbLine
 10
142.77015
 20
-102.5730619999998
 30
0.0
 11
142.77015
 21
-99.90747899999997
 31
0.0
  0
ELLIPSE
  5
60AC
330
A
100
AcDbEntity
  8
0
  6
Continuous
 62
     7
100
AcDbEllipse
 10
148.4195140000001
 20
-84.96521599999983
 30
0.0
 11
-5.200000000000085
 21
0.0
 31
0.0
210
0.0
220
0.0
230
1.0
 40
0.4082480000000002
 41
1.196691485207185
 42
2.657599311059291
  0
ELLIPSE
  5
60AD
330
A
100
AcDbEntity
  8
0
  6
Continuous
 62
     7
100
AcDbEllipse
 10
147.103932
 20
-86.333259
 30
0.0
 11
-1.600000000000043
 21
0.0
 31
0.0
210
0.0
220
0.0
230
1.0
 40
0.4082480000000002
 41
0.7918811482109918
 42
1.196691485207122
  0
ELLIPSE
  5
60AE
330
A
100
AcDbEntity
  8
0
  6
Continuous
 62
     7
100
AcDbEllipse
 10
142.7483829999999
 20
-88.1346099999998
 30
0.0
 11
4.60000000000016
 21
0.0
 31
0.0
210
0.0
220
0.0
230
1.0
 40
0.4082480000000002
 41
0.7918811482110785
 42
1.381563469549393
  0
ELLIPSE
  5
60AF
330
A
100
AcDbEntity
  8
0
  6
Continuous
 62
     7
100
AcDbEllipse
 10
143.9146370000001
 20
-85.64865399999995
 30
0.0
 11
-1.600000000000043
 21
0.0
 31
0.0
210
0.0
220
0.0
230
1.0
 40
0.4082480000000002
 41
0.7600247131995928
 42
1.381563469549291
  0
ELLIPSE
  5
60B0
330
A
100
AcDbEntity
  8
0
  6
Continuous
 62
     7
100
AcDbEllipse
 10
152.6124649999999
 20
-82.2735549999998
 30
0.0
 11
-13.59999999999983
 21
0.0
 31
0.0
210
0.0
220
0.0
230
1.0
 40
0.4082480000000003
 41
6.241655279134397
 42
6.283185307179577
  0
ELLIPSE
  5
60B1
330
A
100
AcDbEntity
  8
0
  6
Continuous
 62
     7
100
AcDbEllipse
 10
140.7939399999991
 20
-81.44066099999998
 30
0.0
 11
-1.599999999999823
 21
0.0
 31
0.0000000000000001
210
0.0000000000000001
220
0.0
230
1.0
 40
0.4082480000000002
 41
4.967805895645913
 42
5.220630231882811
  0
LINE
  5
60B2
330
A
100
AcDbEntity
  8
0
  6
Continuous
 62
     7
100
AcDbLine
 10
152.0900809999991
 20
-85.61557199999981
 30
0.0
 11
153.0222609999998
 21
-85.95303499999976
 31
0.0
  0
ELLIPSE
  5
60B3
330
A
100
AcDbEntity
  8
0
  6
Continuous
 62
     7
100
AcDbEllipse
 10
148.4195140000001
 20
-93.7287769999998
 30
0.0
 11
-5.200000000000085
 21
0.0
 31
0.0
210
0.0
220
0.0
230
1.0
 40
0.4082480000000002
 41
1.196691485207189
 42
2.657599311059291
  0
LINE
  5
60B4
330
A
100
AcDbEntity
  8
0
  6
Continuous
 62
     9
100
AcDbLine
 10
146.5192280000001
 20
-86.94127799999984
 30
0.0
 11
146.5192280000001
 21
-95.70483899999985
 31
0.0
  0
LINE
  5
60B5
330
A
100
AcDbEntity
  8
0
  6
Continuous
 62
     7
100
AcDbLine
 10
153.0222609999998
 20
-85.95303499999976
 30
0.0
 11
153.0222609999998
 21
-94.71659599999998
 31
0.0
  0
LINE
  5
60B6
330
A
100
AcDbEntity
  8
0
  6
Continuous
 62
     9
100
AcDbLine
 10
145.9799190000001
 20
-95.56168499999978
 30
0.0
 11
145.9799190000001
 21
-86.79812399999995
 31
0.0
  0
ELLIPSE
  5
60B7
330
A
100
AcDbEntity
  8
0
  6
Continuous
 62
     7
100
AcDbEllipse
 10
147.103932
 20
-95.09681999999987
 30
0.0
 11
1.600000000000043
 21
0.0
 31
-0.0000000000000001
210
0.0000000000000001
220
0.0
230
1.0
 40
0.4082480000000002
 41
3.933473801800767
 42
4.33828413879696
  0
LINE
  5
60B8
330
A
100
AcDbEntity
  8
0
  6
Continuous
 62
     9
100
AcDbLine
 10
143.613669
 20
-86.29019099999981
 30
0.0
 11
143.613669
 21
-95.0537519999998
 31
0.0
  0
ELLIPSE
  5
60B9
330
A
100
AcDbEntity
  8
0
  6
Continuous
 62
     7
100
AcDbEllipse
 10
142.7483829999999
 20
-96.898171
 30
0.0
 11
4.60000000000016
 21
0.0
 31
0.0
210
0.0
220
0.0
230
1.0
 40
0.4082480000000002
 41
0.7918811482110836
 42
1.381563469549385
  0
LINE
  5
60BA
330
A
100
AcDbEntity
  8
0
  6
Continuous
 62
     9
100
AcDbLine
 10
142.7549269999999
 20
-94.86222899999985
 30
0.0
 11
142.7549269999999
 21
-86.09866799999981
 31
0.0
  0
ELLIPSE
  5
60BB
330
A
100
AcDbEntity
  8
0
  6
Continuous
 62
     7
100
AcDbEllipse
 10
143.9146370000001
 20
-94.41221500000001
 30
0.0
 11
1.600000000000043
 21
0.0
 31
0.0000000000000001
210
-0.0000000000000001
220
0.0
230
1.0
 40
0.4082480000000002
 41
3.901617366789555
 42
4.523156123139241
  0
ELLIPSE
  5
60BC
330
A
100
AcDbEntity
  8
0
  6
Continuous
 62
     7
100
AcDbEllipse
 10
152.6124649999999
 20
-82.2735549999998
 30
0.0
 11
-13.59999999999983
 21
0.0
 31
0.0000000000000009
210
0.0000000000000001
220
0.0
230
1.0
 40
0.4082480000000003
 41
0.0000000000000001
 42
0.760024713199496
  0
ELLIPSE
  5
60BD
330
A
100
AcDbEntity
  8
0
  6
Continuous
 62
     7
100
AcDbEllipse
 10
152.6124649999999
 20
-91.03711599999995
 30
0.0
 11
-13.59999999999983
 21
0.0
 31
0.0000000000000009
210
0.0000000000000001
220
0.0
230
1.0
 40
0.4082480000000003
 41
0.0000000000000001
 42
0.760024713199496
  0
ELLIPSE
  5
60BE
330
A
100
AcDbEntity
  8
0
  6
Continuous
 62
     7
100
AcDbEllipse
 10
139.2275179999999
 20
-78.99163699999984
 30
0.0
 11
4.60000000000016
 21
0.0
 31
0.0
210
0.0
220
0.0
230
1.0
 40
0.4082480000000002
 41
4.967805895646177
 42
5.642189783468157
  0
LINE
  5
60BF
330
A
100
AcDbEntity
  8
0
  6
Continuous
 62
     7
100
AcDbLine
 10
141.3813559999992
 20
-73.09901999999983
 30
0.0
 11
141.2930620000002
 21
-72.67207999999981
 31
0.0
  0
LINE
  5
60C0
330
A
100
AcDbEntity
  8
0
  6
Continuous
 62
     7
100
AcDbLine
 10
141.3813559999992
 20
-80.03683499999976
 30
0.0
 11
141.3813559999992
 21
-73.09901599999982
 31
0.0
  0
LINE
  5
60CA
330
A
100
AcDbEntity
  8
0
  6
Continuous
 62
     7
100
AcDbLine
 10
158.7904760000001
 20
-57.34352399999983
 30
0.0
 11
159.1482469999998
 21
-57.05140599999976
 31
0.0
  0
LINE
  5
60CB
330
A
100
AcDbEntity
  8
0
  6
Continuous
 62
     7
100
AcDbLine
 10
159.1482469999998
 20
-57.05140599999976
 30
0.0
 11
159.506018
 21
-56.75928700000003
 31
0.0
  0
LINE
  5
60CC
330
A
100
AcDbEntity
  8
0
  6
Continuous
 62
     7
100
AcDbLine
 10
114.6904019999999
 20
-42.03791099999995
 30
0.0
 11
114.3326309999997
 21
-42.33002999999978
 31
0.0
  0
LINE
  5
60CD
330
A
100
AcDbEntity
  8
0
  6
Continuous
 62
     7
100
AcDbLine
 10
114.3326309999997
 20
-42.33002999999978
 30
0.0
 11
113.9748600000002
 21
-42.62214899999998
 31
0.0
  0
ARC
  5
60CE
330
A
100
AcDbEntity
  8
0
  6
Continuous
 62
     7
100
AcDbCircle
 10
157.2227850000001
 20
-53.67345999999979
 30
0.0
 40
6.457849999999997
100
AcDbArc
 50
0.9166299999993956
 51
77.54641099999844
  0
LINE
  5
60CF
330
A
100
AcDbEntity
  8
0
  6
Continuous
 62
     7
100
AcDbLine
 10
158.6154120000001
 20
-47.36755699999985
 30
0.0
 11
119.2606149999999
 21
-39.33429299999983
 31
0.0
  0
LINE
  5
60D0
330
A
100
AcDbEntity
  8
0
  6
Continuous
 62
     7
100
AcDbLine
 10
163.6798079999998
 20
-58.22303099999982
 30
0.0
 11
163.6798079999998
 21
-53.57015099999983
 31
0.0
  0
LINE
  5
60D1
330
A
100
AcDbEntity
  8
0
  6
Continuous
 62
     7
100
AcDbLine
 10
114.8258820000001
 20
-40.37809899999996
 30
0.0
 11
113.7525699999998
 21
-41.25445499999995
 31
0.0
  0
ARC
  5
60D2
330
A
100
AcDbEntity
  8
0
  6
Continuous
 62
     7
100
AcDbCircle
 10
118.1348719999998
 20
-44.49471499999997
 30
0.0
 40
5.281785
100
AcDbArc
 50
77.69375700000096
 51
128.616177000001
  0
LINE
  5
60D3
330
A
100
AcDbEntity
  8
0
  6
Continuous
 62
     7
100
AcDbLine
 10
114.838508999999
 20
-40.36782299999997
 30
0.0
 11
114.825836
 21
-40.37813599999998
 31
0.0
  0
LINE
  5
60D4
330
A
100
AcDbEntity
  8
0
  6
Continuous
 62
     7
100
AcDbLine
 10
142.9144210000002
 20
-70.21385099999981
 30
0.0
 11
142.9144210000002
 21
-81.46748599999986
 31
0.0
  0
LINE
  5
60D5
330
A
100
AcDbEntity
  8
0
  6
Continuous
 62
     7
100
AcDbLine
 10
142.9144210000002
 20
-94.92204699999978
 30
0.0
 11
142.9144210000002
 21
-103.4494179999998
 31
0.0
  0
LINE
  5
60D6
330
A
100
AcDbEntity
  8
0
  6
Continuous
 62
     7
100
AcDbLine
 10
159.1482469999998
 20
-57.05140599999976
 30
0.0
 11
159.506018
 21
-56.75928700000003
 31
0.0
  0
LINE
  5
60D7
330
A
100
AcDbEntity
  8
0
  6
Continuous
 62
     7
100
AcDbLine
 10
114.6904019999999
 20
-42.03791099999995
 30
0.0
 11
114.3326309999997
 21
-42.33002999999978
 31
0.0
  0
ARC
  5
60D8
330
A
100
AcDbEntity
  8
0
  6
Continuous
 62
     7
100
AcDbCircle
 10
112.1228019999998
 20
-49.41313799999996
 30
0.0
 40
5.289115999999999
100
AcDbArc
 50
129.7077950000022
 51
180.7296100000008
  0
LINE
  5
60D9
330
A
100
AcDbEntity
  8
0
  6
Continuous
 62
     7
100
AcDbLine
 10
109.8170899999997
 20
-44.46775999999993
 30
0.0
 11
108.7437769999999
 21
-45.3441159999998
 31
0.0
  0
LINE
  5
60DA
330
A
100
AcDbEntity
  8
0
  6
Continuous
 62
     7
100
AcDbLine
 10
106.834114
 20
-49.48048899999964
 30
0.0
 11
106.834114
 21
-111.5557119999998
 31
0.0
  0
ARC
  5
60DB
330
A
100
AcDbEntity
  8
0
  6
Continuous
 62
     7
100
AcDbCircle
 10
152.379069
 20
-120.6318559999998
 30
0.0
 40
5.281096999999999
100
AcDbArc
 50
257.6919140000008
 51
308.7980800000025
  0
LINE
  5
60DC
330
A
100
AcDbEntity
  8
0
  6
Continuous
 62
     7
100
AcDbLine
 10
155.6880399999998
 20
-124.7477639999998
 30
0.0
 11
156.7613530000001
 21
-123.8714079999998
 31
0.0
  0
LINE
  5
60DD
330
A
100
AcDbEntity
  8
0
  6
Continuous
 62
     7
100
AcDbLine
 10
111.8985109999999
 20
-117.7583049999998
 30
0.0
 11
151.2533069999999
 21
-125.791569
 31
0.0
  0
ARC
  5
60DE
330
A
100
AcDbEntity
  8
0
  6
Continuous
 62
     7
100
AcDbCircle
 10
113.2911370000001
 20
-111.4524019999996
 30
0.0
 40
6.457849999999997
100
AcDbArc
 50
180.9166299999994
 51
257.5464109999984
  0
LINE
  5
60DF
330
A
100
AcDbEntity
  8
0
  6
Continuous
 62
     7
100
AcDbLine
 10
139.0124649999998
 20
-82.2735549999998
 30
0.0
 11
139.0124649999998
 21
-91.03711599999995
 31
0.0
  0
LINE
  5
60E0
330
A
100
AcDbEntity
  8
0
  6
Continuous
 62
     7
100
AcDbLine
 10
-86.14859499999989
 20
35.8660260000002
 30
0.0
 11
-84.64859499999986
 21
36.7320509999999
 31
0.0
  0
LINE
  5
60E1
330
A
100
AcDbEntity
  8
0
  6
Continuous
 62
     7
100
AcDbLine
 10
-86.14859499999989
 20
34.13397499999991
 30
0.0
 11
-86.14859499999989
 21
35.8660260000002
 31
0.0
  0
LINE
  5
60E2
330
A
100
AcDbEntity
  8
0
  6
Continuous
 62
     7
100
AcDbLine
 10
-84.648596
 20
33.26794900000022
 30
0.0
 11
-86.14859499999989
 21
34.13397499999991
 31
0.0
  0
LINE
  5
60E3
330
A
100
AcDbEntity
  8
0
  6
Continuous
 62
     7
100
AcDbLine
 10
-83.14859499999988
 20
34.13397399999991
 30
0.0
 11
-84.648596
 21
33.26794900000022
 31
0.0
  0
LINE
  5
60E4
330
A
100
AcDbEntity
  8
0
  6
Continuous
 62
     7
100
AcDbLine
 10
-83.14859499999988
 20
35.86602500000021
 30
0.0
 11
-83.14859499999988
 21
34.13397399999991
 31
0.0
  0
LINE
  5
60E5
330
A
100
AcDbEntity
  8
0
  6
Continuous
 62
     7
100
AcDbLine
 10
-84.64859499999986
 20
36.7320509999999
 30
0.0
 11
-83.14859499999988
 21
35.86602500000021
 31
0.0
  0
CIRCLE
  5
60E6
330
A
100
AcDbEntity
  8
0
  6
Continuous
 62
     7
100
AcDbCircle
 10
-84.64859499999986
 20
35.00000000000006
 30
0.0
 40
3.5
  0
LINE
  5
60E7
330
A
100
AcDbEntity
  8
0
  6
Continuous
 62
     7
100
AcDbLine
 10
-99.64859499999988
 20
35.8660260000002
 30
0.0
 11
-98.1485949999999
 21
36.7320509999999
 31
0.0
  0
LINE
  5
60E8
330
A
100
AcDbEntity
  8
0
  6
Continuous
 62
     7
100
AcDbLine
 10
-99.64859499999988
 20
34.13397499999991
 30
0.0
 11
-99.64859499999988
 21
35.8660260000002
 31
0.0
  0
LINE
  5
60E9
330
A
100
AcDbEntity
  8
0
  6
Continuous
 62
     7
100
AcDbLine
 10
-98.148596
 20
33.26794900000022
 30
0.0
 11
-99.64859499999988
 21
34.13397499999991
 31
0.0
  0
LINE
  5
60EA
330
A
100
AcDbEntity
  8
0
  6
Continuous
 62
     7
100
AcDbLine
 10
-96.64859499999987
 20
34.13397399999991
 30
0.0
 11
-98.148596
 21
33.26794900000022
 31
0.0
  0
LINE
  5
60EB
330
A
100
AcDbEntity
  8
0
  6
Continuous
 62
     7
100
AcDbLine
 10
-96.64859499999987
 20
35.86602500000021
 30
0.0
 11
-96.64859499999987
 21
34.13397399999991
 31
0.0
  0
LINE
  5
60EC
330
A
100
AcDbEntity
  8
0
  6
Continuous
 62
     7
100
AcDbLine
 10
-98.1485949999999
 20
36.7320509999999
 30
0.0
 11
-96.64859499999987
 21
35.86602500000021
 31
0.0
  0
LINE
  5
60ED
330
A
100
AcDbEntity
  8
0
  6
Continuous
 62
     9
100
AcDbLine
 10
-96.8985949999999
 20
78.00000000000017
 30
0.0
 11
-96.39859499999987
 21
78.00000000000017
 31
0.0
  0
LINE
  5
60EE
330
A
100
AcDbEntity
  8
0
  6
Continuous
 62
     9
100
AcDbLine
 10
-96.39859499999987
 20
78.00000000000017
 30
0.0
 11
-95.39859499999987
 21
78.00000000000017
 31
0.0
  0
LINE
  5
60EF
330
A
100
AcDbEntity
  8
0
  6
Continuous
 62
     7
100
AcDbLine
 10
-96.8985949999999
 20
83.50000000000017
 30
0.0
 11
-96.39859499999987
 21
83.50000000000017
 31
0.0
  0
LINE
  5
60F0
330
A
100
AcDbEntity
  8
0
  6
Continuous
 62
     7
100
AcDbLine
 10
-96.39859499999987
 20
83.50000000000017
 30
0.0
 11
-95.39859499999987
 21
83.50000000000017
 31
0.0
  0
LINE
  5
60F1
330
A
100
AcDbEntity
  8
0
  6
Continuous
 62
     7
100
AcDbLine
 10
-95.39859499999987
 20
83.50000000000017
 30
0.0
 11
-95.39859499999987
 21
78.00000000000017
 31
0.0
  0
LINE
  5
60F2
330
A
100
AcDbEntity
  8
0
  6
Continuous
 62
     7
100
AcDbLine
 10
-95.39859499999987
 20
78.00000000000017
 30
0.0
 11
-95.39859499999987
 21
77.50000000000017
 31
0.0
  0
LINE
  5
60F3
330
A
100
AcDbEntity
  8
0
  6
Continuous
 62
     9
100
AcDbLine
 10
-96.8985949999999
 20
-7.999999999999829
 30
0.0
 11
-96.39859499999987
 21
-7.999999999999829
 31
0.0
  0
LINE
  5
60F4
330
A
100
AcDbEntity
  8
0
  6
Continuous
 62
     9
100
AcDbLine
 10
-96.39859499999987
 20
-7.999999999999829
 30
0.0
 11
-95.39859499999987
 21
-7.999999999999829
 31
0.0
  0
LINE
  5
60F5
330
A
100
AcDbEntity
  8
0
  6
Continuous
 62
     7
100
AcDbLine
 10
-95.39859499999987
 20
-7.499999999999829
 30
0.0
 11
-95.39859499999987
 21
-7.999999999999829
 31
0.0
  0
LINE
  5
60F6
330
A
100
AcDbEntity
  8
0
  6
Continuous
 62
     7
100
AcDbLine
 10
-96.8985949999999
 20
-13.49999999999983
 30
0.0
 11
-96.39859499999987
 21
-13.49999999999983
 31
0.0
  0
LINE
  5
60F7
330
A
100
AcDbEntity
  8
0
  6
Continuous
 62
     7
100
AcDbLine
 10
-96.39859499999987
 20
-13.49999999999983
 30
0.0
 11
-95.39859499999987
 21
-13.49999999999983
 31
0.0
  0
LINE
  5
60F8
330
A
100
AcDbEntity
  8
0
  6
Continuous
 62
     7
100
AcDbLine
 10
-95.39859499999987
 20
-7.999999999999829
 30
0.0
 11
-95.39859499999987
 21
-13.49999999999983
 31
0.0
  0
LINE
  5
60F9
330
A
100
AcDbEntity
  8
0
  6
Continuous
 62
     7
100
AcDbLine
 10
-85.89859499999986
 20
83.50000000000017
 30
0.0
 11
-86.39859499999989
 21
83.50000000000017
 31
0.0
  0
LINE
  5
60FA
330
A
100
AcDbEntity
  8
0
  6
Continuous
 62
     7
100
AcDbLine
 10
-86.39859499999989
 20
83.50000000000017
 30
0.0
 11
-87.39859499999989
 21
83.50000000000017
 31
0.0
  0
LINE
  5
60FB
330
A
100
AcDbEntity
  8
0
  6
Continuous
 62
     9
100
AcDbLine
 10
-85.89859499999986
 20
78.00000000000017
 30
0.0
 11
-86.39859499999989
 21
78.00000000000017
 31
0.0
  0
LINE
  5
60FC
330
A
100
AcDbEntity
  8
0
  6
Continuous
 62
     9
100
AcDbLine
 10
-86.39859499999989
 20
78.00000000000017
 30
0.0
 11
-87.39859499999989
 21
78.00000000000017
 31
0.0
  0
LINE
  5
60FD
330
A
100
AcDbEntity
  8
0
  6
Continuous
 62
     7
100
AcDbLine
 10
-87.39859499999989
 20
78.00000000000017
 30
0.0
 11
-87.39859499999989
 21
83.50000000000017
 31
0.0
  0
LINE
  5
60FE
330
A
100
AcDbEntity
  8
0
  6
Continuous
 62
     7
100
AcDbLine
 10
-87.39859499999989
 20
77.50000000000017
 30
0.0
 11
-87.39859499999989
 21
78.00000000000017
 31
0.0
  0
LINE
  5
60FF
330
A
100
AcDbEntity
  8
0
  6
Continuous
 62
     9
100
AcDbLine
 10
-85.89859499999986
 20
-7.999999999999829
 30
0.0
 11
-86.39859499999989
 21
-7.999999999999829
 31
0.0
  0
LINE
  5
6100
330
A
100
AcDbEntity
  8
0
  6
Continuous
 62
     9
100
AcDbLine
 10
-86.39859499999989
 20
-7.999999999999829
 30
0.0
 11
-87.39859499999989
 21
-7.999999999999829
 31
0.0
  0
LINE
  5
6101
330
A
100
AcDbEntity
  8
0
  6
Continuous
 62
     7
100
AcDbLine
 10
-87.39859499999989
 20
-7.999999999999829
 30
0.0
 11
-87.39859499999989
 21
-7.499999999999829
 31
0.0
  0
LINE
  5
6102
330
A
100
AcDbEntity
  8
0
  6
Continuous
 62
     7
100
AcDbLine
 10
-85.89859499999986
 20
-13.49999999999983
 30
0.0
 11
-86.39859499999989
 21
-13.49999999999983
 31
0.0
  0
LINE
  5
6103
330
A
100
AcDbEntity
  8
0
  6
Continuous
 62
     7
100
AcDbLine
 10
-86.39859499999989
 20
-13.49999999999983
 30
0.0
 11
-87.39859499999989
 21
-13.49999999999983
 31
0.0
  0
LINE
  5
6104
330
A
100
AcDbEntity
  8
0
  6
Continuous
 62
     7
100
AcDbLine
 10
-87.39859499999989
 20
-13.49999999999983
 30
0.0
 11
-87.39859499999989
 21
-7.999999999999829
 31
0.0
  0
LINE
  5
6105
330
A
100
AcDbEntity
  8
0
  6
Continuous
 62
     7
100
AcDbLine
 10
-82.89859499999989
 20
85.00000000000005
 30
0.0
 11
-85.89859499999986
 21
85.00000000000005
 31
0.0
  0
LINE
  5
6106
330
A
100
AcDbEntity
  8
0
  6
Continuous
 62
     9
100
AcDbLine
 10
-82.89859499999989
 20
77.50000000000017
 30
0.0
 11
-82.89859499999989
 21
85.00000000000005
 31
0.0
  0
LINE
  5
6107
330
A
100
AcDbEntity
  8
0
  6
Continuous
 62
     7
100
AcDbLine
 10
-85.89859499999986
 20
85.00000000000005
 30
0.0
 11
-85.89859499999986
 21
77.50000000000017
 31
0.0
  0
LINE
  5
6108
330
A
100
AcDbEntity
  8
0
  6
Continuous
 62
     9
100
AcDbLine
 10
-82.89859499999989
 20
-14.99999999999994
 30
0.0
 11
-82.89859499999989
 21
-7.499999999999829
 31
0.0
  0
LINE
  5
6109
330
A
100
AcDbEntity
  8
0
  6
Continuous
 62
     7
100
AcDbLine
 10
-82.89859499999989
 20
-14.99999999999994
 30
0.0
 11
-85.89859499999986
 21
-14.99999999999994
 31
0.0
  0
LINE
  5
610A
330
A
100
AcDbEntity
  8
0
  6
Continuous
 62
     7
100
AcDbLine
 10
-85.89859499999986
 20
-7.499999999999829
 30
0.0
 11
-85.89859499999986
 21
-14.99999999999994
 31
0.0
  0
ARC
  5
610B
330
A
100
AcDbEntity
  8
0
  6
Continuous
 62
     7
100
AcDbCircle
 10
-82.89859499999989
 20
81.00000000000006
 30
0.0
 40
4.0
100
AcDbArc
 50
0.0
 51
90.0
  0
LINE
  5
610C
330
A
100
AcDbEntity
  8
0
  6
Continuous
 62
     7
100
AcDbLine
 10
-78.8985949999999
 20
81.00000000000006
 30
0.0
 11
-78.8985949999999
 21
77.50000000000017
 31
0.0
  0
LINE
  5
610D
330
A
100
AcDbEntity
  8
0
  6
Continuous
 62
     7
100
AcDbLine
 10
-78.8985949999999
 20
-7.499999999999829
 30
0.0
 11
-78.8985949999999
 21
-10.99999999999983
 31
0.0
  0
ARC
  5
610E
330
A
100
AcDbEntity
  8
0
  6
Continuous
 62
     7
100
AcDbCircle
 10
-82.89859499999989
 20
-10.99999999999983
 30
0.0
 40
4.0
100
AcDbArc
 50
270.0
 51
0.0
  0
LINE
  5
610F
330
A
100
AcDbEntity
  8
0
  6
Continuous
 62
     7
100
AcDbLine
 10
-102.3985949999999
 20
-7.499999999999829
 30
0.0
 11
-102.3985949999999
 21
77.50000000000017
 31
0.0
  0
LINE
  5
6110
330
A
100
AcDbEntity
  8
0
  6
Continuous
 62
     7
100
AcDbLine
 10
-84.8985949999999
 20
77.50000000000017
 30
0.0
 11
-102.3985949999999
 21
77.50000000000017
 31
0.0
  0
LINE
  5
6111
330
A
100
AcDbEntity
  8
0
  6
Continuous
 62
     9
100
AcDbLine
 10
-84.8985949999999
 20
38.49105999999989
 30
0.0
 11
-84.8985949999999
 21
77.50000000000017
 31
0.0
  0
ARC
  5
6112
330
A
100
AcDbEntity
  8
0
  6
Continuous
 62
     7
100
AcDbCircle
 10
-84.64859499999986
 20
35.00000000000006
 30
0.0
 40
3.5
100
AcDbArc
 50
94.09604400000031
 51
265.9039559999996
  0
LINE
  5
6113
330
A
100
AcDbEntity
  8
0
  6
Continuous
 62
     9
100
AcDbLine
 10
-84.8985949999999
 20
-7.499999999999829
 30
0.0
 11
-84.8985949999999
 21
31.50894000000022
 31
0.0
  0
CIRCLE
  5
6114
330
A
100
AcDbEntity
  8
0
  6
Continuous
 62
     7
100
AcDbCircle
 10
-98.1485949999999
 20
35.00000000000006
 30
0.0
 40
3.5
  0
LINE
  5
6115
330
A
100
AcDbEntity
  8
0
  6
Continuous
 62
     7
100
AcDbLine
 10
-84.8985949999999
 20
-7.499999999999829
 30
0.0
 11
-102.3985949999999
 21
-7.499999999999829
 31
0.0
  0
LINE
  5
6116
330
A
100
AcDbEntity
  8
0
  6
Continuous
 62
     9
100
AcDbLine
 10
-69.8985949999999
 20
37.1846050000002
 30
0.0
 11
-69.8985949999999
 21
77.50000000000017
 31
0.0
  0
ARC
  5
6117
330
A
100
AcDbEntity
  8
0
  6
Continuous
 62
     7
100
AcDbCircle
 10
-68.39859499999988
 20
35.00000000000006
 30
0.0
 40
2.649999999999999
100
AcDbArc
 50
124.4743849999997
 51
235.5256150000001
  0
LINE
  5
6118
330
A
100
AcDbEntity
  8
0
  6
Continuous
 62
     9
100
AcDbLine
 10
-69.8985949999999
 20
-7.499999999999829
 30
0.0
 11
-69.8985949999999
 21
32.81539500000014
 31
0.0
  0
ARC
  5
6119
330
A
100
AcDbEntity
  8
0
  6
Continuous
 62
     7
100
AcDbCircle
 10
-84.64859499999986
 20
35.00000000000006
 30
0.0
 40
3.5
100
AcDbArc
 50
265.9039559999996
 51
94.09604400000031
  0
LINE
  5
611A
330
A
100
AcDbEntity
  8
0
  6
Continuous
 62
     7
100
AcDbLine
 10
-69.8985949999999
 20
77.50000000000017
 30
0.0
 11
-84.8985949999999
 21
77.50000000000017
 31
0.0
  0
LINE
  5
611B
330
A
100
AcDbEntity
  8
0
  6
Continuous
 62
     7
100
AcDbLine
 10
-69.8985949999999
 20
-7.499999999999829
 30
0.0
 11
-84.8985949999999
 21
-7.499999999999829
 31
0.0
  0
LINE
  5
611C
330
A
100
AcDbEntity
  8
0
  6
Continuous
 62
     7
100
AcDbLine
 10
-52.39859499999989
 20
-7.499999999999829
 30
0.0
 11
-52.39859499999989
 21
77.50000000000017
 31
0.0
  0
CIRCLE
  5
611D
330
A
100
AcDbEntity
  8
0
  6
Continuous
 62
     7
100
AcDbCircle
 10
-59.3985949999999
 20
70.00000000000017
 30
0.0
 40
2.649999999999999
  0
CIRCLE
  5
611E
330
A
100
AcDbEntity
  8
0
  6
Continuous
 62
     7
100
AcDbCircle
 10
-59.3985949999999
 20
0.0000000000001705
 30
0.0
 40
2.649999999999999
  0
ARC
  5
611F
330
A
100
AcDbEntity
  8
0
  6
Continuous
 62
     7
100
AcDbCircle
 10
-68.39859499999988
 20
35.00000000000006
 30
0.0
 40
2.649999999999999
100
AcDbArc
 50
235.5256150000001
 51
124.4743849999997
  0
LINE
  5
6120
330
A
100
AcDbEntity
  8
0
  6
Continuous
 62
     7
100
AcDbLine
 10
-52.39859499999989
 20
77.50000000000017
 30
0.0
 11
-69.8985949999999
 21
77.50000000000017
 31
0.0
  0
LINE
  5
6121
330
A
100
AcDbEntity
  8
0
  6
Continuous
 62
     7
100
AcDbLine
 10
-52.39859499999989
 20
-7.499999999999829
 30
0.0
 11
-69.8985949999999
 21
-7.499999999999829
 31
0.0
  0
LINE
  5
6122
330
A
100
AcDbEntity
  8
0
  6
Continuous
 62
     9
100
AcDbLine
 10
-85.89859499999986
 20
-7.999999999999829
 30
0.0
 11
-86.39859499999989
 21
-7.999999999999829
 31
0.0
  0
LINE
  5
6123
330
A
100
AcDbEntity
  8
0
  6
Continuous
 62
     7
100
AcDbLine
 10
-86.39859499999989
 20
-7.999999999999829
 30
0.0
 11
-86.39859499999989
 21
-7.499999999999829
 31
0.0
  0
LINE
  5
6124
330
A
100
AcDbEntity
  8
0
  6
Continuous
 62
     9
100
AcDbLine
 10
-85.89859499999986
 20
78.00000000000017
 30
0.0
 11
-86.39859499999989
 21
78.00000000000017
 31
0.0
  0
LINE
  5
6125
330
A
100
AcDbEntity
  8
0
  6
Continuous
 62
     7
100
AcDbLine
 10
-86.39859499999989
 20
77.50000000000017
 30
0.0
 11
-86.39859499999989
 21
78.00000000000017
 31
0.0
  0
LINE
  5
6126
330
A
100
AcDbEntity
  8
0
  6
Continuous
 62
     7
100
AcDbLine
 10
-85.89859499999986
 20
-13.49999999999983
 30
0.0
 11
-86.39859499999989
 21
-13.49999999999983
 31
0.0
  0
LINE
  5
6127
330
A
100
AcDbEntity
  8
0
  6
Continuous
 62
     7
100
AcDbLine
 10
-86.39859499999989
 20
-13.49999999999983
 30
0.0
 11
-86.39859499999989
 21
-7.999999999999829
 31
0.0
  0
LINE
  5
6128
330
A
100
AcDbEntity
  8
0
  6
Continuous
 62
     7
100
AcDbLine
 10
-85.89859499999986
 20
83.50000000000017
 30
0.0
 11
-86.39859499999989
 21
83.50000000000017
 31
0.0
  0
LINE
  5
6129
330
A
100
AcDbEntity
  8
0
  6
Continuous
 62
     7
100
AcDbLine
 10
-86.39859499999989
 20
78.00000000000017
 30
0.0
 11
-86.39859499999989
 21
83.50000000000017
 31
0.0
  0
LINE
  5
612A
330
A
100
AcDbEntity
  8
0
  6
Continuous
 62
     9
100
AcDbLine
 10
-96.8985949999999
 20
-7.999999999999829
 30
0.0
 11
-96.39859499999987
 21
-7.999999999999829
 31
0.0
  0
LINE
  5
612B
330
A
100
AcDbEntity
  8
0
  6
Continuous
 62
     7
100
AcDbLine
 10
-96.39859499999987
 20
-7.499999999999829
 30
0.0
 11
-96.39859499999987
 21
-7.999999999999829
 31
0.0
  0
LINE
  5
612C
330
A
100
AcDbEntity
  8
0
  6
Continuous
 62
     7
100
AcDbLine
 10
-96.8985949999999
 20
-13.49999999999983
 30
0.0
 11
-96.39859499999987
 21
-13.49999999999983
 31
0.0
  0
LINE
  5
612D
330
A
100
AcDbEntity
  8
0
  6
Continuous
 62
     7
100
AcDbLine
 10
-96.39859499999987
 20
-7.999999999999829
 30
0.0
 11
-96.39859499999987
 21
-13.49999999999983
 31
0.0
  0
LINE
  5
612E
330
A
100
AcDbEntity
  8
0
  6
Continuous
 62
     9
100
AcDbLine
 10
-96.8985949999999
 20
78.00000000000017
 30
0.0
 11
-96.39859499999987
 21
78.00000000000017
 31
0.0
  0
LINE
  5
612F
330
A
100
AcDbEntity
  8
0
  6
Continuous
 62
     7
100
AcDbLine
 10
-96.39859499999987
 20
78.00000000000017
 30
0.0
 11
-96.39859499999987
 21
77.50000000000017
 31
0.0
  0
LINE
  5
6130
330
A
100
AcDbEntity
  8
0
  6
Continuous
 62
     7
100
AcDbLine
 10
-96.8985949999999
 20
83.50000000000017
 30
0.0
 11
-96.39859499999987
 21
83.50000000000017
 31
0.0
  0
LINE
  5
6131
330
A
100
AcDbEntity
  8
0
  6
Continuous
 62
     7
100
AcDbLine
 10
-96.39859499999987
 20
83.50000000000017
 30
0.0
 11
-96.39859499999987
 21
78.00000000000017
 31
0.0
  0
LINE
  5
6132
330
A
100
AcDbEntity
  8
0
  6
Continuous
 62
     9
100
AcDbLine
 10
-99.89859499999987
 20
-7.499999999999829
 30
0.0
 11
-99.89859499999987
 21
-14.99999999999994
 31
0.0
  0
ARC
  5
6133
330
A
100
AcDbEntity
  8
0
  6
Continuous
 62
     7
100
AcDbCircle
 10
-99.89859499999987
 20
-10.99999999999983
 30
0.0
 40
4.0
100
AcDbArc
 50
180.0
 51
270.0
  0
LINE
  5
6134
330
A
100
AcDbEntity
  8
0
  6
Continuous
 62
     7
100
AcDbLine
 10
-103.8985949999999
 20
-10.99999999999983
 30
0.0
 11
-103.8985949999999
 21
-7.499999999999829
 31
0.0
  0
LINE
  5
6135
330
A
100
AcDbEntity
  8
0
  6
Continuous
 62
     9
100
AcDbLine
 10
-102.3985949999999
 20
-7.499999999999829
 30
0.0
 11
-103.8985949999999
 21
-7.499999999999829
 31
0.0
  0
LINE
  5
6136
330
A
100
AcDbEntity
  8
0
  6
Continuous
 62
     7
100
AcDbLine
 10
-103.8985949999999
 20
60.30000000000011
 30
0.0
 11
-103.8985949999999
 21
77.50000000000017
 31
0.0
  0
LINE
  5
6137
330
A
100
AcDbEntity
  8
0
  6
Continuous
 62
     9
100
AcDbLine
 10
-103.8985949999999
 20
77.50000000000017
 30
0.0
 11
-102.3985949999999
 21
77.50000000000017
 31
0.0
  0
LINE
  5
6138
330
A
100
AcDbEntity
  8
0
  6
Continuous
 62
     7
100
AcDbLine
 10
-102.3985949999999
 20
60.30000000000011
 30
0.0
 11
-103.8985949999999
 21
60.30000000000011
 31
0.0
  0
LINE
  5
6139
330
A
100
AcDbEntity
  8
0
  6
Continuous
 62
     7
100
AcDbLine
 10
-103.8985949999999
 20
-7.499999999999829
 30
0.0
 11
-103.8985949999999
 21
9.700000000000217
 31
0.0
  0
LINE
  5
613A
330
A
100
AcDbEntity
  8
0
  6
Continuous
 62
     7
100
AcDbLine
 10
-103.8985949999999
 20
9.700000000000217
 30
0.0
 11
-102.3985949999999
 21
9.700000000000217
 31
0.0
  0
LINE
  5
613B
330
A
100
AcDbEntity
  8
0
  6
Continuous
 62
     7
100
AcDbLine
 10
-103.8985949999999
 20
77.50000000000017
 30
0.0
 11
-103.8985949999999
 21
81.00000000000006
 31
0.0
  0
ARC
  5
613C
330
A
100
AcDbEntity
  8
0
  6
Continuous
 62
     7
100
AcDbCircle
 10
-99.89859499999987
 20
81.00000000000006
 30
0.0
 40
4.0
100
AcDbArc
 50
90.0
 51
180.0
  0
LINE
  5
613D
330
A
100
AcDbEntity
  8
0
  6
Continuous
 62
     9
100
AcDbLine
 10
-99.89859499999987
 20
85.00000000000005
 30
0.0
 11
-99.89859499999987
 21
77.50000000000017
 31
0.0
  0
LINE
  5
613E
330
A
100
AcDbEntity
  8
0
  6
Continuous
 62
     7
100
AcDbLine
 10
-96.8985949999999
 20
85.00000000000005
 30
0.0
 11
-96.8985949999999
 21
77.50000000000017
 31
0.0
  0
LINE
  5
613F
330
A
100
AcDbEntity
  8
0
  6
Continuous
 62
     7
100
AcDbLine
 10
-99.89859499999987
 20
85.00000000000005
 30
0.0
 11
-96.8985949999999
 21
85.00000000000005
 31
0.0
  0
LINE
  5
6140
330
A
100
AcDbEntity
  8
0
  6
Continuous
 62
     7
100
AcDbLine
 10
-96.8985949999999
 20
-7.499999999999829
 30
0.0
 11
-96.8985949999999
 21
-14.99999999999994
 31
0.0
  0
LINE
  5
6141
330
A
100
AcDbEntity
  8
0
  6
Continuous
 62
     7
100
AcDbLine
 10
-96.8985949999999
 20
-14.99999999999994
 30
0.0
 11
-99.89859499999987
 21
-14.99999999999994
 31
0.0
  0
LINE
  5
6142
330
A
100
AcDbEntity
  8
0
  6
Continuous
 62
     7
100
AcDbLine
 10
-102.3985949999999
 20
28.00000000000017
 30
0.0
 11
-103.8985949999999
 21
28.00000000000017
 31
0.0
  0
LINE
  5
6143
330
A
100
AcDbEntity
  8
0
  6
Continuous
 62
     7
100
AcDbLine
 10
-103.8985949999999
 20
9.700000000000217
 30
0.0
 11
-103.8985949999999
 21
28.00000000000017
 31
0.0
  0
LINE
  5
6144
330
A
100
AcDbEntity
  8
0
  6
Continuous
 62
     7
100
AcDbLine
 10
-102.3985949999999
 20
42.00000000000017
 30
0.0
 11
-103.8985949999999
 21
42.00000000000017
 31
0.0
  0
LINE
  5
6145
330
A
100
AcDbEntity
  8
0
  6
Continuous
 62
     7
100
AcDbLine
 10
-103.8985949999999
 20
42.00000000000017
 30
0.0
 11
-103.8985949999999
 21
60.30000000000011
 31
0.0
  0
LINE
  5
6146
330
A
100
AcDbEntity
  8
0
  6
Continuous
 62
     7
100
AcDbLine
 10
-103.8985949999999
 20
28.00000000000017
 30
0.0
 11
-103.8985949999999
 21
29.00000000000017
 31
0.0
  0
LINE
  5
6147
330
A
100
AcDbEntity
  8
0
  6
Continuous
 62
     7
100
AcDbLine
 10
-103.8985949999999
 20
41.00000000000017
 30
0.0
 11
-103.8985949999999
 21
42.00000000000017
 31
0.0
  0
LINE
  5
6148
330
A
100
AcDbEntity
  8
0
  6
Continuous
 62
     7
100
AcDbLine
 10
-102.751671
 20
41.00000000000017
 30
0.0
 11
-102.751671
 21
29.00000000000017
 31
0.0
  0
LINE
  5
6149
330
A
100
AcDbEntity
  8
0
  6
Continuous
 62
     7
100
AcDbLine
 10
-102.3985949999999
 20
41.00000000000017
 30
0.0
 11
-102.751671
 21
41.00000000000017
 31
0.0
  0
LINE
  5
614A
330
A
100
AcDbEntity
  8
0
  6
Continuous
 62
     7
100
AcDbLine
 10
-102.3985949999999
 20
29.00000000000017
 30
0.0
 11
-102.751671
 21
29.00000000000017
 31
0.0
  0
LINE
  5
614B
330
A
100
AcDbEntity
  8
0
  6
Continuous
 62
     9
100
AcDbLine
 10
-109.093392
 20
41.00000000000017
 30
0.0
 11
-109.093392
 21
29.00000000000017
 31
0.0
  0
LINE
  5
614C
330
A
100
AcDbEntity
  8
0
  6
Continuous
 62
     7
100
AcDbLine
 10
-109.093392
 20
41.00000000000017
 30
0.0
 11
-102.751671
 21
41.00000000000017
 31
0.0
  0
LINE
  5
614D
330
A
100
AcDbEntity
  8
0
  6
Continuous
 62
     7
100
AcDbLine
 10
-109.093392
 20
29.00000000000017
 30
0.0
 11
-102.751671
 21
29.00000000000017
 31
0.0
  0
LINE
  5
614E
330
A
100
AcDbEntity
  8
0
  6
Continuous
 62
     7
100
AcDbLine
 10
-109.1014050000001
 20
41.00000000000017
 30
0.0
 11
-109.093392
 21
41.00000000000017
 31
0.0
  0
LINE
  5
614F
330
A
100
AcDbEntity
  8
0
  6
Continuous
 62
     7
100
AcDbLine
 10
-109.093392
 20
29.00000000000017
 30
0.0
 11
-109.1014050000001
 21
29.00000000000017
 31
0.0
  0
LINE
  5
6150
330
A
100
AcDbEntity
  8
0
  6
Continuous
 62
     7
100
AcDbLine
 10
-109.1014050000001
 20
41.00000000000017
 30
0.0
 11
-109.1014050000001
 21
29.00000000000017
 31
0.0
  0
LINE
  5
6151
330
A
100
AcDbEntity
  8
0
  6
Continuous
 62
     7
100
AcDbLine
 10
127.3485949999999
 20
0.0201710000001754
 30
0.0
 11
127.3485949999999
 21
0.1566179999999235
 31
0.0
  0
LINE
  5
6152
330
A
100
AcDbEntity
  8
0
  6
Continuous
 62
     7
100
AcDbLine
 10
127.3485949999999
 20
0.1566179999999235
 30
0.0
 11
127.3485949999999
 21
9.979830000000164
 31
0.0
  0
LINE
  5
6153
330
A
100
AcDbEntity
  8
0
  6
Continuous
 62
     7
100
AcDbLine
 10
127.3485949999999
 20
60.02017099999996
 30
0.0
 11
127.3485949999999
 21
64.91851799999989
 31
0.0
  0
LINE
  5
6154
330
A
100
AcDbEntity
  8
0
  6
Continuous
 62
     7
100
AcDbLine
 10
127.3485949999999
 20
64.91851799999989
 30
0.0
 11
127.3485949999999
 21
69.97982999999994
 31
0.0
  0
LINE
  5
6155
330
A
100
AcDbEntity
  8
0
  6
Continuous
 62
     9
100
AcDbLine
 10
145.3985949999999
 20
-7.499999999999829
 30
0.0
 11
144.8985949999999
 21
-7.499999999999829
 31
0.0
  0
LINE
  5
6156
330
A
100
AcDbEntity
  8
0
  6
Continuous
 62
     9
100
AcDbLine
 10
144.8985949999999
 20
-7.499999999999829
 30
0.0
 11
143.8985949999999
 21
-7.499999999999829
 31
0.0
  0
LINE
  5
6157
330
A
100
AcDbEntity
  8
0
  6
Continuous
 62
     7
100
AcDbLine
 10
145.3985949999999
 20
-13.49999999999983
 30
0.0
 11
144.8985949999999
 21
-13.49999999999983
 31
0.0
  0
LINE
  5
6158
330
A
100
AcDbEntity
  8
0
  6
Continuous
 62
     7
100
AcDbLine
 10
144.8985949999999
 20
-13.49999999999983
 30
0.0
 11
143.8985949999999
 21
-13.49999999999983
 31
0.0
  0
LINE
  5
6159
330
A
100
AcDbEntity
  8
0
  6
Continuous
 62
     7
100
AcDbLine
 10
143.8985949999999
 20
-13.49999999999983
 30
0.0
 11
143.8985949999999
 21
-7.499999999999829
 31
0.0
  0
LINE
  5
615A
330
A
100
AcDbEntity
  8
0
  6
Continuous
 62
     9
100
AcDbLine
 10
145.3985949999999
 20
77.50000000000017
 30
0.0
 11
144.8985949999999
 21
77.50000000000017
 31
0.0
  0
LINE
  5
615B
330
A
100
AcDbEntity
  8
0
  6
Continuous
 62
     9
100
AcDbLine
 10
144.8985949999999
 20
77.50000000000017
 30
0.0
 11
143.8985949999999
 21
77.50000000000017
 31
0.0
  0
LINE
  5
615C
330
A
100
AcDbEntity
  8
0
  6
Continuous
 62
     7
100
AcDbLine
 10
143.8985949999999
 20
-7.499999999999829
 30
0.0
 11
143.8985949999999
 21
77.50000000000017
 31
0.0
  0
LINE
  5
615D
330
A
100
AcDbEntity
  8
0
  6
Continuous
 62
     7
100
AcDbLine
 10
145.3985949999999
 20
83.50000000000017
 30
0.0
 11
144.8985949999999
 21
83.50000000000017
 31
0.0
  0
LINE
  5
615E
330
A
100
AcDbEntity
  8
0
  6
Continuous
 62
     7
100
AcDbLine
 10
144.8985949999999
 20
83.50000000000017
 30
0.0
 11
143.8985949999999
 21
83.50000000000017
 31
0.0
  0
LINE
  5
615F
330
A
100
AcDbEntity
  8
0
  6
Continuous
 62
     7
100
AcDbLine
 10
143.8985949999999
 20
77.50000000000017
 30
0.0
 11
143.8985949999999
 21
83.50000000000017
 31
0.0
  0
LINE
  5
6160
330
A
100
AcDbEntity
  8
0
  6
Continuous
 62
     7
100
AcDbLine
 10
134.3985949999999
 20
-13.49999999999983
 30
0.0
 11
134.8985949999999
 21
-13.49999999999983
 31
0.0
  0
LINE
  5
6161
330
A
100
AcDbEntity
  8
0
  6
Continuous
 62
     7
100
AcDbLine
 10
134.8985949999999
 20
-13.49999999999983
 30
0.0
 11
135.8985949999999
 21
-13.49999999999983
 31
0.0
  0
LINE
  5
6162
330
A
100
AcDbEntity
  8
0
  6
Continuous
 62
     9
100
AcDbLine
 10
134.3985949999999
 20
-7.499999999999829
 30
0.0
 11
134.8985949999999
 21
-7.499999999999829
 31
0.0
  0
LINE
  5
6163
330
A
100
AcDbEntity
  8
0
  6
Continuous
 62
     9
100
AcDbLine
 10
134.8985949999999
 20
-7.499999999999829
 30
0.0
 11
135.8985949999999
 21
-7.499999999999829
 31
0.0
  0
LINE
  5
6164
330
A
100
AcDbEntity
  8
0
  6
Continuous
 62
     7
100
AcDbLine
 10
135.8985949999999
 20
-7.499999999999829
 30
0.0
 11
135.8985949999999
 21
-13.49999999999983
 31
0.0
  0
LINE
  5
6165
330
A
100
AcDbEntity
  8
0
  6
Continuous
 62
     9
100
AcDbLine
 10
134.3985949999999
 20
77.50000000000017
 30
0.0
 11
134.8985949999999
 21
77.50000000000017
 31
0.0
  0
LINE
  5
6166
330
A
100
AcDbEntity
  8
0
  6
Continuous
 62
     9
100
AcDbLine
 10
134.8985949999999
 20
77.50000000000017
 30
0.0
 11
135.8985949999999
 21
77.50000000000017
 31
0.0
  0
LINE
  5
6167
330
A
100
AcDbEntity
  8
0
  6
Continuous
 62
     7
100
AcDbLine
 10
135.8985949999999
 20
77.50000000000017
 30
0.0
 11
135.8985949999999
 21
-7.499999999999829
 31
0.0
  0
LINE
  5
6168
330
A
100
AcDbEntity
  8
0
  6
Continuous
 62
     7
100
AcDbLine
 10
134.3985949999999
 20
83.50000000000017
 30
0.0
 11
134.8985949999999
 21
83.50000000000017
 31
0.0
  0
LINE
  5
6169
330
A
100
AcDbEntity
  8
0
  6
Continuous
 62
     7
100
AcDbLine
 10
134.8985949999999
 20
83.50000000000017
 30
0.0
 11
135.8985949999999
 21
83.50000000000017
 31
0.0
  0
LINE
  5
616A
330
A
100
AcDbEntity
  8
0
  6
Continuous
 62
     7
100
AcDbLine
 10
135.8985949999999
 20
83.50000000000017
 30
0.0
 11
135.8985949999999
 21
77.50000000000017
 31
0.0
  0
LINE
  5
616B
330
A
100
AcDbEntity
  8
0
  6
Continuous
 62
     7
100
AcDbLine
 10
127.3985949999999
 20
-10.99999999999983
 30
0.0
 11
127.3985949999999
 21
-7.499999999999829
 31
0.0
  0
LINE
  5
616C
330
A
100
AcDbEntity
  8
0
  6
Continuous
 62
     9
100
AcDbLine
 10
127.3985949999999
 20
-7.499999999999829
 30
0.0
 11
131.3985949999999
 21
-7.499999999999829
 31
0.0
  0
LINE
  5
616D
330
A
100
AcDbEntity
  8
0
  6
Continuous
 62
     9
100
AcDbLine
 10
131.3985949999999
 20
-7.499999999999829
 30
0.0
 11
131.3985949999999
 21
-14.99999999999994
 31
0.0
  0
ARC
  5
616E
330
A
100
AcDbEntity
  8
0
  6
Continuous
 62
     7
100
AcDbCircle
 10
131.3985949999999
 20
-10.99999999999983
 30
0.0
 40
4.0
100
AcDbArc
 50
180.0
 51
270.0
  0
LINE
  5
616F
330
A
100
AcDbEntity
  8
0
  6
Continuous
 62
     7
100
AcDbLine
 10
127.3985949999999
 20
-7.499999999999829
 30
0.0
 11
127.3985949999999
 21
77.50000000000017
 31
0.0
  0
LINE
  5
6170
330
A
100
AcDbEntity
  8
0
  6
Continuous
 62
     9
100
AcDbLine
 10
127.3985949999999
 20
77.50000000000017
 30
0.0
 11
131.3985949999999
 21
77.50000000000017
 31
0.0
  0
LINE
  5
6171
330
A
100
AcDbEntity
  8
0
  6
Continuous
 62
     9
100
AcDbLine
 10
131.3985949999999
 20
77.50000000000017
 30
0.0
 11
131.3985949999999
 21
-7.499999999999829
 31
0.0
  0
LINE
  5
6172
330
A
100
AcDbEntity
  8
0
  6
Continuous
 62
     7
100
AcDbLine
 10
127.3985949999999
 20
77.50000000000017
 30
0.0
 11
127.3985949999999
 21
81.00000000000006
 31
0.0
  0
ARC
  5
6173
330
A
100
AcDbEntity
  8
0
  6
Continuous
 62
     7
100
AcDbCircle
 10
131.3985949999999
 20
81.00000000000006
 30
0.0
 40
4.0
100
AcDbArc
 50
90.0
 51
180.0
  0
LINE
  5
6174
330
A
100
AcDbEntity
  8
0
  6
Continuous
 62
     9
100
AcDbLine
 10
131.3985949999999
 20
85.00000000000005
 30
0.0
 11
131.3985949999999
 21
77.50000000000017
 31
0.0
  0
LINE
  5
6175
330
A
100
AcDbEntity
  8
0
  6
Continuous
 62
     7
100
AcDbLine
 10
134.3985949999999
 20
-7.499999999999829
 30
0.0
 11
134.3985949999999
 21
77.50000000000017
 31
0.0
  0
LINE
  5
6176
330
A
100
AcDbEntity
  8
0
  6
Continuous
 62
     9
100
AcDbLine
 10
131.3985949999999
 20
-7.499999999999829
 30
0.0
 11
134.3985949999999
 21
-7.499999999999829
 31
0.0
  0
LINE
  5
6177
330
A
100
AcDbEntity
  8
0
  6
Continuous
 62
     9
100
AcDbLine
 10
131.3985949999999
 20
77.50000000000017
 30
0.0
 11
134.3985949999999
 21
77.50000000000017
 31
0.0
  0
LINE
  5
6178
330
A
100
AcDbEntity
  8
0
  6
Continuous
 62
     7
100
AcDbLine
 10
134.3985949999999
 20
-14.99999999999994
 30
0.0
 11
134.3985949999999
 21
-7.499999999999829
 31
0.0
  0
LINE
  5
6179
330
A
100
AcDbEntity
  8
0
  6
Continuous
 62
     7
100
AcDbLine
 10
131.3985949999999
 20
-14.99999999999994
 30
0.0
 11
134.3985949999999
 21
-14.99999999999994
 31
0.0
  0
LINE
  5
617A
330
A
100
AcDbEntity
  8
0
  6
Continuous
 62
     7
100
AcDbLine
 10
134.3985949999999
 20
77.50000000000017
 30
0.0
 11
134.3985949999999
 21
85.00000000000005
 31
0.0
  0
LINE
  5
617B
330
A
100
AcDbEntity
  8
0
  6
Continuous
 62
     7
100
AcDbLine
 10
131.3985949999999
 20
85.00000000000005
 30
0.0
 11
134.3985949999999
 21
85.00000000000005
 31
0.0
  0
LINE
  5
617C
330
A
100
AcDbEntity
  8
0
  6
Continuous
 62
     7
100
AcDbLine
 10
135.8985949999999
 20
-7.499999999999829
 30
0.0
 11
143.8985949999999
 21
-7.499999999999829
 31
0.0
  0
LINE
  5
617D
330
A
100
AcDbEntity
  8
0
  6
Continuous
 62
     7
100
AcDbLine
 10
143.8985949999999
 20
77.50000000000017
 30
0.0
 11
135.8985949999999
 21
77.50000000000017
 31
0.0
  0
LINE
  5
617E
330
A
100
AcDbEntity
  8
0
  6
Continuous
 62
     7
100
AcDbLine
 10
100.8985949999999
 20
-7.499999999999829
 30
0.0
 11
100.8985949999999
 21
77.50000000000017
 31
0.0
  0
CIRCLE
  5
617F
330
A
100
AcDbEntity
  8
0
  6
Continuous
 62
     7
100
AcDbCircle
 10
107.8985949999999
 20
70.00000000000017
 30
0.0
 40
5.0
  0
CIRCLE
  5
6180
330
A
100
AcDbEntity
  8
0
  6
Continuous
 62
     7
100
AcDbCircle
 10
107.8985949999999
 20
0.0000000000001705
 30
0.0
 40
5.0
  0
CIRCLE
  5
6181
330
A
100
AcDbEntity
  8
0
  6
Continuous
 62
     7
100
AcDbCircle
 10
116.8985949999999
 20
35.00000000000006
 30
0.0
 40
5.0
  0
LINE
  5
6182
330
A
100
AcDbEntity
  8
0
  6
Continuous
 62
     7
100
AcDbLine
 10
127.3985949999999
 20
-7.499999999999829
 30
0.0
 11
100.8985949999999
 21
-7.499999999999829
 31
0.0
  0
LINE
  5
6183
330
A
100
AcDbEntity
  8
0
  6
Continuous
 62
     7
100
AcDbLine
 10
127.3985949999999
 20
77.50000000000017
 30
0.0
 11
100.8985949999999
 21
77.50000000000017
 31
0.0
  0
CIRCLE
  5
6184
330
A
100
AcDbEntity
  8
0
  6
Continuous
 62
     7
100
AcDbCircle
 10
107.8985949999999
 20
70.00000000000017
 30
0.0
 40
2.649999999999999
  0
CIRCLE
  5
6185
330
A
100
AcDbEntity
  8
0
  6
Continuous
 62
     7
100
AcDbCircle
 10
107.8985949999999
 20
0.0000000000001705
 30
0.0
 40
2.649999999999999
  0
CIRCLE
  5
6186
330
A
100
AcDbEntity
  8
0
  6
Continuous
 62
     7
100
AcDbCircle
 10
116.8985949999999
 20
35.00000000000006
 30
0.0
 40
2.649999999999999
  0
LINE
  5
6187
330
A
100
AcDbEntity
  8
0
  6
Continuous
 62
     9
100
AcDbLine
 10
134.3985949999999
 20
77.50000000000017
 30
0.0
 11
134.8985949999999
 21
77.50000000000017
 31
0.0
  0
LINE
  5
6188
330
A
100
AcDbEntity
  8
0
  6
Continuous
 62
     7
100
AcDbLine
 10
134.3985949999999
 20
83.50000000000017
 30
0.0
 11
134.8985949999999
 21
83.50000000000017
 31
0.0
  0
LINE
  5
6189
330
A
100
AcDbEntity
  8
0
  6
Continuous
 62
     7
100
AcDbLine
 10
134.8985949999999
 20
83.50000000000017
 30
0.0
 11
134.8985949999999
 21
77.50000000000017
 31
0.0
  0
LINE
  5
618A
330
A
100
AcDbEntity
  8
0
  6
Continuous
 62
     9
100
AcDbLine
 10
134.3985949999999
 20
-7.499999999999829
 30
0.0
 11
134.8985949999999
 21
-7.499999999999829
 31
0.0
  0
LINE
  5
618B
330
A
100
AcDbEntity
  8
0
  6
Continuous
 62
     7
100
AcDbLine
 10
134.8985949999999
 20
77.50000000000017
 30
0.0
 11
134.8985949999999
 21
-7.499999999999829
 31
0.0
  0
LINE
  5
618C
330
A
100
AcDbEntity
  8
0
  6
Continuous
 62
     7
100
AcDbLine
 10
134.3985949999999
 20
-13.49999999999983
 30
0.0
 11
134.8985949999999
 21
-13.49999999999983
 31
0.0
  0
LINE
  5
618D
330
A
100
AcDbEntity
  8
0
  6
Continuous
 62
     7
100
AcDbLine
 10
134.8985949999999
 20
-7.499999999999829
 30
0.0
 11
134.8985949999999
 21
-13.49999999999983
 31
0.0
  0
LINE
  5
618E
330
A
100
AcDbEntity
  8
0
  6
Continuous
 62
     9
100
AcDbLine
 10
145.3985949999999
 20
77.50000000000017
 30
0.0
 11
144.8985949999999
 21
77.50000000000017
 31
0.0
  0
LINE
  5
618F
330
A
100
AcDbEntity
  8
0
  6
Continuous
 62
     9
100
AcDbLine
 10
145.3985949999999
 20
-7.499999999999829
 30
0.0
 11
144.8985949999999
 21
-7.499999999999829
 31
0.0
  0
LINE
  5
6190
330
A
100
AcDbEntity
  8
0
  6
Continuous
 62
     7
100
AcDbLine
 10
144.8985949999999
 20
-7.499999999999829
 30
0.0
 11
144.8985949999999
 21
77.50000000000017
 31
0.0
  0
LINE
  5
6191
330
A
100
AcDbEntity
  8
0
  6
Continuous
 62
     7
100
AcDbLine
 10
145.3985949999999
 20
83.50000000000017
 30
0.0
 11
144.8985949999999
 21
83.50000000000017
 31
0.0
  0
LINE
  5
6192
330
A
100
AcDbEntity
  8
0
  6
Continuous
 62
     7
100
AcDbLine
 10
144.8985949999999
 20
77.50000000000017
 30
0.0
 11
144.8985949999999
 21
83.50000000000017
 31
0.0
  0
LINE
  5
6193
330
A
100
AcDbEntity
  8
0
  6
Continuous
 62
     7
100
AcDbLine
 10
145.3985949999999
 20
-13.49999999999983
 30
0.0
 11
144.8985949999999
 21
-13.49999999999983
 31
0.0
  0
LINE
  5
6194
330
A
100
AcDbEntity
  8
0
  6
Continuous
 62
     7
100
AcDbLine
 10
144.8985949999999
 20
-13.49999999999983
 30
0.0
 11
144.8985949999999
 21
-7.499999999999829
 31
0.0
  0
LINE
  5
6195
330
A
100
AcDbEntity
  8
0
  6
Continuous
 62
     7
100
AcDbLine
 10
135.8985949999999
 20
-6.000000000000056
 30
0.0
 11
143.8985949999999
 21
-6.000000000000056
 31
0.0
  0
LINE
  5
6196
330
A
100
AcDbEntity
  8
0
  6
Continuous
 62
     9
100
AcDbLine
 10
135.8985949999999
 20
1.00000000000017
 30
0.0
 11
143.8985949999999
 21
1.00000000000017
 31
0.0
  0
LINE
  5
6197
330
A
100
AcDbEntity
  8
0
  6
Continuous
 62
     9
100
AcDbLine
 10
135.8985949999999
 20
68.99999999999995
 30
0.0
 11
143.8985949999999
 21
68.99999999999995
 31
0.0
  0
LINE
  5
6198
330
A
100
AcDbEntity
  8
0
  6
Continuous
 62
     7
100
AcDbLine
 10
135.8985949999999
 20
76.00000000000017
 30
0.0
 11
143.8985949999999
 21
76.00000000000017
 31
0.0
  0
LINE
  5
6199
330
A
100
AcDbEntity
  8
0
  6
Continuous
 62
     7
100
AcDbLine
 10
145.3985949999999
 20
77.50000000000017
 30
0.0
 11
145.3985949999999
 21
85.00000000000005
 31
0.0
  0
LINE
  5
619A
330
A
100
AcDbEntity
  8
0
  6
Continuous
 62
     7
100
AcDbLine
 10
145.3985949999999
 20
85.00000000000005
 30
0.0
 11
148.3985949999999
 21
85.00000000000005
 31
0.0
  0
LINE
  5
619B
330
A
100
AcDbEntity
  8
0
  6
Continuous
 62
     9
100
AcDbLine
 10
148.3985949999999
 20
77.50000000000017
 30
0.0
 11
148.3985949999999
 21
85.00000000000005
 31
0.0
  0
LINE
  5
619C
330
A
100
AcDbEntity
  8
0
  6
Continuous
 62
     9
100
AcDbLine
 10
148.3985949999999
 20
77.50000000000017
 30
0.0
 11
145.3985949999999
 21
77.50000000000017
 31
0.0
  0
LINE
  5
619D
330
A
100
AcDbEntity
  8
0
  6
Continuous
 62
     9
100
AcDbLine
 10
145.3985949999999
 20
-7.499999999999829
 30
0.0
 11
148.3985949999999
 21
-7.499999999999829
 31
0.0
  0
LINE
  5
619E
330
A
100
AcDbEntity
  8
0
  6
Continuous
 62
     9
100
AcDbLine
 10
148.3985949999999
 20
-14.99999999999994
 30
0.0
 11
148.3985949999999
 21
-7.499999999999829
 31
0.0
  0
LINE
  5
619F
330
A
100
AcDbEntity
  8
0
  6
Continuous
 62
     7
100
AcDbLine
 10
148.3985949999999
 20
-14.99999999999994
 30
0.0
 11
145.3985949999999
 21
-14.99999999999994
 31
0.0
  0
LINE
  5
61A0
330
A
100
AcDbEntity
  8
0
  6
Continuous
 62
     7
100
AcDbLine
 10
145.3985949999999
 20
-14.99999999999994
 30
0.0
 11
145.3985949999999
 21
-7.499999999999829
 31
0.0
  0
LINE
  5
61A1
330
A
100
AcDbEntity
  8
0
  6
Continuous
 62
     9
100
AcDbLine
 10
148.3985949999999
 20
-7.499999999999829
 30
0.0
 11
148.3985949999999
 21
77.50000000000017
 31
0.0
  0
LINE
  5
61A2
330
A
100
AcDbEntity
  8
0
  6
Continuous
 62
     7
100
AcDbLine
 10
145.3985949999999
 20
-7.499999999999829
 30
0.0
 11
145.3985949999999
 21
77.50000000000017
 31
0.0
  0
LINE
  5
61A3
330
A
100
AcDbEntity
  8
0
  6
Continuous
 62
     9
100
AcDbLine
 10
148.3985949999999
 20
-7.499999999999829
 30
0.0
 11
152.3985949999999
 21
-7.499999999999829
 31
0.0
  0
LINE
  5
61A4
330
A
100
AcDbEntity
  8
0
  6
Continuous
 62
     7
100
AcDbLine
 10
152.3985949999999
 20
-7.499999999999829
 30
0.0
 11
152.3985949999999
 21
-10.99999999999983
 31
0.0
  0
ARC
  5
61A5
330
A
100
AcDbEntity
  8
0
  6
Continuous
 62
     7
100
AcDbCircle
 10
148.3985949999999
 20
-10.99999999999983
 30
0.0
 40
4.0
100
AcDbArc
 50
270.0
 51
0.0
  0
ARC
  5
61A6
330
A
100
AcDbEntity
  8
0
  6
Continuous
 62
     7
100
AcDbCircle
 10
148.3985949999999
 20
81.00000000000006
 30
0.0
 40
4.0
100
AcDbArc
 50
0.0
 51
90.0
  0
LINE
  5
61A7
330
A
100
AcDbEntity
  8
0
  6
Continuous
 62
     7
100
AcDbLine
 10
152.3985949999999
 20
81.00000000000006
 30
0.0
 11
152.3985949999999
 21
77.50000000000017
 31
0.0
  0
LINE
  5
61A8
330
A
100
AcDbEntity
  8
0
  6
Continuous
 62
     9
100
AcDbLine
 10
148.3985949999999
 20
77.50000000000017
 30
0.0
 11
152.3985949999999
 21
77.50000000000017
 31
0.0
  0
LINE
  5
61A9
330
A
100
AcDbEntity
  8
0
  6
Continuous
 62
     7
100
AcDbLine
 10
152.3985949999999
 20
77.50000000000017
 30
0.0
 11
152.3985949999999
 21
-7.499999999999829
 31
0.0
  0
LINE
  5
61AA
330
A
100
AcDbEntity
  8
0
  6
Continuous
 62
     9
100
AcDbLine
 10
122.407072
 20
41.00000000000017
 30
0.0
 11
122.407072
 21
29.00000000000017
 31
0.0
  0
LINE
  5
61AB
330
A
100
AcDbEntity
  8
0
  6
Continuous
 62
     7
100
AcDbLine
 10
122.407072
 20
41.00000000000017
 30
0.0
 11
127.3985949999999
 21
41.00000000000017
 31
0.0
  0
LINE
  5
61AC
330
A
100
AcDbEntity
  8
0
  6
Continuous
 62
     7
100
AcDbLine
 10
122.407072
 20
29.00000000000017
 30
0.0
 11
127.3985949999999
 21
29.00000000000017
 31
0.0
  0
LINE
  5
61AD
330
A
100
AcDbEntity
  8
0
  6
Continuous
 62
     9
100
AcDbLine
 10
157.390118
 20
29.00000000000017
 30
0.0
 11
157.390118
 21
41.00000000000017
 31
0.0
  0
LINE
  5
61AE
330
A
100
AcDbEntity
  8
0
  6
Continuous
 62
     7
100
AcDbLine
 10
152.3985949999999
 20
41.00000000000017
 30
0.0
 11
157.390118
 21
41.00000000000017
 31
0.0
  0
LINE
  5
61AF
330
A
100
AcDbEntity
  8
0
  6
Continuous
 62
     7
100
AcDbLine
 10
152.3985949999999
 20
29.00000000000017
 30
0.0
 11
157.390118
 21
29.00000000000017
 31
0.0
  0
LINE
  5
61B0
330
A
100
AcDbEntity
  8
0
  6
Continuous
 62
     7
100
AcDbLine
 10
122.2877820000001
 20
41.00000000000017
 30
0.0
 11
122.407072
 21
41.00000000000017
 31
0.0
  0
LINE
  5
61B1
330
A
100
AcDbEntity
  8
0
  6
Continuous
 62
     7
100
AcDbLine
 10
122.407072
 20
29.00000000000017
 30
0.0
 11
122.2877820000001
 21
29.00000000000017
 31
0.0
  0
LINE
  5
61B2
330
A
100
AcDbEntity
  8
0
  6
Continuous
 62
     7
100
AcDbLine
 10
157.5094079999999
 20
29.00000000000017
 30
0.0
 11
157.390118
 21
29.00000000000017
 31
0.0
  0
LINE
  5
61B3
330
A
100
AcDbEntity
  8
0
  6
Continuous
 62
     7
100
AcDbLine
 10
157.390118
 20
41.00000000000017
 30
0.0
 11
157.5094079999999
 21
41.00000000000017
 31
0.0
  0
LINE
  5
61B4
330
A
100
AcDbEntity
  8
0
  6
Continuous
 62
     7
100
AcDbLine
 10
122.195786
 20
41.00000000000017
 30
0.0
 11
122.294359
 21
41.00000000000017
 31
0.0
  0
LINE
  5
61B5
330
A
100
AcDbEntity
  8
0
  6
Continuous
 62
     7
100
AcDbLine
 10
122.294359
 20
29.00000000000017
 30
0.0
 11
122.195786
 21
29.00000000000017
 31
0.0
  0
LINE
  5
61B6
330
A
100
AcDbEntity
  8
0
  6
Continuous
 62
     7
100
AcDbLine
 10
157.6014050000001
 20
29.00000000000017
 30
0.0
 11
157.5028320000001
 21
29.00000000000017
 31
0.0
  0
LINE
  5
61B7
330
A
100
AcDbEntity
  8
0
  6
Continuous
 62
     7
100
AcDbLine
 10
157.5028320000001
 20
41.00000000000017
 30
0.0
 11
157.6014050000001
 21
41.00000000000017
 31
0.0
  0
ARC
  5
61B8
330
A
100
AcDbEntity
  8
0
  6
Continuous
 62
     7
100
AcDbCircle
 10
127.8485949999999
 20
0.0201710000001754
 30
0.0
 40
0.5
100
AcDbArc
 50
180.0
 51
205.8419370000003
  0
ARC
  5
61B9
330
A
100
AcDbEntity
  8
0
  6
Continuous
 62
     7
100
AcDbCircle
 10
127.8485949999999
 20
9.979830000000164
 30
0.0
 40
0.5
100
AcDbArc
 50
154.1580629999996
 51
180.0
  0
ARC
  5
61BA
330
A
100
AcDbEntity
  8
0
  6
Continuous
 62
     7
100
AcDbCircle
 10
127.8485949999999
 20
60.02017099999996
 30
0.0
 40
0.5
100
AcDbArc
 50
180.0
 51
205.8419370000003
  0
ARC
  5
61BB
330
A
100
AcDbEntity
  8
0
  6
Continuous
 62
     7
100
AcDbCircle
 10
127.8485949999999
 20
69.97982999999994
 30
0.0
 40
0.5
100
AcDbArc
 50
154.1580629999996
 51
180.0
  0
LINE
  5
61BC
330
A
100
AcDbEntity
  8
0
  6
Continuous
 62
     7
100
AcDbLine
 10
122.2877820000001
 20
41.00000000000017
 30
0.0
 11
122.2877820000001
 21
29.00000000000017
 31
0.0
  0
LINE
  5
61BD
330
A
100
AcDbEntity
  8
0
  6
Continuous
 62
     7
100
AcDbLine
 10
157.5094079999999
 20
29.00000000000017
 30
0.0
 11
157.5094079999999
 21
41.00000000000017
 31
0.0
  0
LINE
  5
61BE
330
A
100
AcDbEntity
  8
0
  6
Continuous
 62
     7
100
AcDbLine
 10
122.195786
 20
41.00000000000017
 30
0.0
 11
122.195786
 21
29.00000000000017
 31
0.0
  0
LINE
  5
61BF
330
A
100
AcDbEntity
  8
0
  6
Continuous
 62
     7
100
AcDbLine
 10
157.6014050000001
 20
29.00000000000017
 30
0.0
 11
157.6014050000001
 21
41.00000000000017
 31
0.0
  0
LINE
  5
61C0
330
A
100
AcDbEntity
  8
0
  6
Continuous
 62
     7
100
AcDbLine
 10
8.020171000000116
 20
-75.59859499999998
 30
0.0
 11
17.97982899999988
 21
-75.59859499999998
 31
0.0
  0
LINE
  5
61C1
330
A
100
AcDbEntity
  8
0
  6
Continuous
 62
     9
100
AcDbLine
 10
-9.5
 20
-93.64859499999985
 30
0.0
 11
-9.5
 21
-93.14859499999981
 31
0.0
  0
LINE
  5
61C2
330
A
100
AcDbEntity
  8
0
  6
Continuous
 62
     9
100
AcDbLine
 10
-9.5
 20
-93.14859499999981
 30
0.0
 11
-9.5
 21
-92.14859499999985
 31
0.0
  0
LINE
  5
61C3
330
A
100
AcDbEntity
  8
0
  6
Continuous
 62
     7
100
AcDbLine
 10
-15.5
 20
-93.64859499999985
 30
0.0
 11
-15.5
 21
-93.14859499999981
 31
0.0
  0
LINE
  5
61C4
330
A
100
AcDbEntity
  8
0
  6
Continuous
 62
     7
100
AcDbLine
 10
-15.5
 20
-93.14859499999981
 30
0.0
 11
-15.5
 21
-92.14859499999985
 31
0.0
  0
LINE
  5
61C5
330
A
100
AcDbEntity
  8
0
  6
Continuous
 62
     7
100
AcDbLine
 10
-15.5
 20
-92.14859499999985
 30
0.0
 11
-9.5
 21
-92.14859499999985
 31
0.0
  0
LINE
  5
61C6
330
A
100
AcDbEntity
  8
0
  6
Continuous
 62
     9
100
AcDbLine
 10
45.0
 20
-93.64859499999985
 30
0.0
 11
45.0
 21
-93.14859499999981
 31
0.0
  0
LINE
  5
61C7
330
A
100
AcDbEntity
  8
0
  6
Continuous
 62
     9
100
AcDbLine
 10
45.0
 20
-93.14859499999981
 30
0.0
 11
45.0
 21
-92.14859499999985
 31
0.0
  0
LINE
  5
61C8
330
A
100
AcDbEntity
  8
0
  6
Continuous
 62
     7
100
AcDbLine
 10
-9.5
 20
-92.14859499999985
 30
0.0
 11
45.0
 21
-92.14859499999985
 31
0.0
  0
LINE
  5
61C9
330
A
100
AcDbEntity
  8
0
  6
Continuous
 62
     7
100
AcDbLine
 10
50.5
 20
-93.64859499999985
 30
0.0
 11
50.5
 21
-93.14859499999981
 31
0.0
  0
LINE
  5
61CA
330
A
100
AcDbEntity
  8
0
  6
Continuous
 62
     7
100
AcDbLine
 10
50.5
 20
-93.14859499999981
 30
0.0
 11
50.5
 21
-92.14859499999985
 31
0.0
  0
LINE
  5
61CB
330
A
100
AcDbEntity
  8
0
  6
Continuous
 62
     7
100
AcDbLine
 10
45.0
 20
-92.14859499999985
 30
0.0
 11
50.5
 21
-92.14859499999985
 31
0.0
  0
LINE
  5
61CC
330
A
100
AcDbEntity
  8
0
  6
Continuous
 62
     7
100
AcDbLine
 10
-15.5
 20
-82.648595
 30
0.0
 11
-15.5
 21
-83.14859499999981
 31
0.0
  0
LINE
  5
61CD
330
A
100
AcDbEntity
  8
0
  6
Continuous
 62
     7
100
AcDbLine
 10
-15.5
 20
-83.14859499999981
 30
0.0
 11
-15.5
 21
-84.14859499999982
 31
0.0
  0
LINE
  5
61CE
330
A
100
AcDbEntity
  8
0
  6
Continuous
 62
     9
100
AcDbLine
 10
-9.5
 20
-82.648595
 30
0.0
 11
-9.5
 21
-83.14859499999981
 31
0.0
  0
LINE
  5
61CF
330
A
100
AcDbEntity
  8
0
  6
Continuous
 62
     9
100
AcDbLine
 10
-9.5
 20
-83.14859499999981
 30
0.0
 11
-9.5
 21
-84.14859499999982
 31
0.0
  0
LINE
  5
61D0
330
A
100
AcDbEntity
  8
0
  6
Continuous
 62
     7
100
AcDbLine
 10
-9.5
 20
-84.14859499999982
 30
0.0
 11
-15.5
 21
-84.14859499999982
 31
0.0
  0
LINE
  5
61D1
330
A
100
AcDbEntity
  8
0
  6
Continuous
 62
     9
100
AcDbLine
 10
45.0
 20
-82.648595
 30
0.0
 11
45.0
 21
-83.14859499999981
 31
0.0
  0
LINE
  5
61D2
330
A
100
AcDbEntity
  8
0
  6
Continuous
 62
     9
100
AcDbLine
 10
45.0
 20
-83.14859499999981
 30
0.0
 11
45.0
 21
-84.14859499999982
 31
0.0
  0
LINE
  5
61D3
330
A
100
AcDbEntity
  8
0
  6
Continuous
 62
     7
100
AcDbLine
 10
45.0
 20
-84.14859499999982
 30
0.0
 11
-9.5
 21
-84.14859499999982
 31
0.0
  0
LINE
  5
61D4
330
A
100
AcDbEntity
  8
0
  6
Continuous
 62
     7
100
AcDbLine
 10
50.5
 20
-82.648595
 30
0.0
 11
50.5
 21
-83.14859499999981
 31
0.0
  0
LINE
  5
61D5
330
A
100
AcDbEntity
  8
0
  6
Continuous
 62
     7
100
AcDbLine
 10
50.5
 20
-83.14859499999981
 30
0.0
 11
50.5
 21
-84.14859499999982
 31
0.0
  0
LINE
  5
61D6
330
A
100
AcDbEntity
  8
0
  6
Continuous
 62
     7
100
AcDbLine
 10
50.5
 20
-84.14859499999982
 30
0.0
 11
45.0
 21
-84.14859499999982
 31
0.0
  0
LINE
  5
61D7
330
A
100
AcDbEntity
  8
0
  6
Continuous
 62
     9
100
AcDbLine
 10
-9.5
 20
-79.64859499999983
 30
0.0
 11
-9.5
 21
-82.648595
 31
0.0
  0
LINE
  5
61D8
330
A
100
AcDbEntity
  8
0
  6
Continuous
 62
     9
100
AcDbLine
 10
45.49999999999999
 20
-79.64859499999983
 30
0.0
 11
-9.5
 21
-79.64859499999983
 31
0.0
  0
LINE
  5
61D9
330
A
100
AcDbEntity
  8
0
  6
Continuous
 62
     9
100
AcDbLine
 10
45.49999999999999
 20
-79.64859499999983
 30
0.0
 11
45.49999999999999
 21
-82.648595
 31
0.0
  0
LINE
  5
61DA
330
A
100
AcDbEntity
  8
0
  6
Continuous
 62
     7
100
AcDbLine
 10
-9.5
 20
-82.648595
 30
0.0
 11
45.49999999999999
 21
-82.648595
 31
0.0
  0
LINE
  5
61DB
330
A
100
AcDbEntity
  8
0
  6
Continuous
 62
     7
100
AcDbLine
 10
-9.5
 20
-75.64859499999982
 30
0.0
 11
45.49999999999999
 21
-75.64859499999982
 31
0.0
  0
LINE
  5
61DC
330
A
100
AcDbEntity
  8
0
  6
Continuous
 62
     9
100
AcDbLine
 10
45.49999999999999
 20
-79.64859499999983
 30
0.0
 11
45.49999999999999
 21
-75.64859499999982
 31
0.0
  0
LINE
  5
61DD
330
A
100
AcDbEntity
  8
0
  6
Continuous
 62
     9
100
AcDbLine
 10
-9.5
 20
-75.64859499999982
 30
0.0
 11
-9.5
 21
-79.64859499999983
 31
0.0
  0
LINE
  5
61DE
330
A
100
AcDbEntity
  8
0
  6
Continuous
 62
     7
100
AcDbLine
 10
-17.0
 20
-79.64859499999983
 30
0.0
 11
-17.0
 21
-82.648595
 31
0.0
  0
LINE
  5
61DF
330
A
100
AcDbEntity
  8
0
  6
Continuous
 62
     9
100
AcDbLine
 10
-9.5
 20
-79.64859499999983
 30
0.0
 11
-17.0
 21
-79.64859499999983
 31
0.0
  0
LINE
  5
61E0
330
A
100
AcDbEntity
  8
0
  6
Continuous
 62
     7
100
AcDbLine
 10
-17.0
 20
-82.648595
 30
0.0
 11
-9.5
 21
-82.648595
 31
0.0
  0
LINE
  5
61E1
330
A
100
AcDbEntity
  8
0
  6
Continuous
 62
     7
100
AcDbLine
 10
-13.0
 20
-75.64859499999982
 30
0.0
 11
-9.5
 21
-75.64859499999982
 31
0.0
  0
ARC
  5
61E2
330
A
100
AcDbEntity
  8
0
  6
Continuous
 62
     7
100
AcDbCircle
 10
-13.0
 20
-79.64859499999983
 30
0.0
 40
4.0
100
AcDbArc
 50
90.0
 51
180.0
  0
LINE
  5
61E3
330
A
100
AcDbEntity
  8
0
  6
Continuous
 62
     9
100
AcDbLine
 10
53.0
 20
-79.64859499999983
 30
0.0
 11
45.49999999999999
 21
-79.64859499999983
 31
0.0
  0
LINE
  5
61E4
330
A
100
AcDbEntity
  8
0
  6
Continuous
 62
     7
100
AcDbLine
 10
53.0
 20
-79.64859499999983
 30
0.0
 11
53.0
 21
-82.648595
 31
0.0
  0
LINE
  5
61E5
330
A
100
AcDbEntity
  8
0
  6
Continuous
 62
     7
100
AcDbLine
 10
45.49999999999999
 20
-82.648595
 30
0.0
 11
53.0
 21
-82.648595
 31
0.0
  0
LINE
  5
61E6
330
A
100
AcDbEntity
  8
0
  6
Continuous
 62
     7
100
AcDbLine
 10
45.49999999999999
 20
-75.64859499999982
 30
0.0
 11
49.0
 21
-75.64859499999982
 31
0.0
  0
ARC
  5
61E7
330
A
100
AcDbEntity
  8
0
  6
Continuous
 62
     7
100
AcDbCircle
 10
49.0
 20
-79.64859499999983
 30
0.0
 40
4.0
100
AcDbArc
 50
0.0
 51
90.0
  0
LINE
  5
61E8
330
A
100
AcDbEntity
  8
0
  6
Continuous
 62
     7
100
AcDbLine
 10
55.5
 20
-75.64859499999982
 30
0.0
 11
55.5
 21
-49.14859499999995
 31
0.0
  0
LINE
  5
61E9
330
A
100
AcDbEntity
  8
0
  6
Continuous
 62
     7
100
AcDbLine
 10
55.5
 20
-49.14859499999995
 30
0.0
 11
60.5
 21
-49.14859499999995
 31
0.0
  0
LINE
  5
61EA
330
A
100
AcDbEntity
  8
0
  6
Continuous
 62
     7
100
AcDbLine
 10
60.5
 20
-49.14859499999995
 30
0.0
 11
60.5
 21
-66.64859499999983
 31
0.0
  0
LINE
  5
61EB
330
A
100
AcDbEntity
  8
0
  6
Continuous
 62
     7
100
AcDbLine
 10
60.5
 20
-66.64859499999983
 30
0.0
 11
60.5
 21
-81.64859500000011
 31
0.0
  0
ARC
  5
61EC
330
A
100
AcDbEntity
  8
0
  6
Continuous
 62
     7
100
AcDbCircle
 10
54.0
 20
-75.64859499999982
 30
0.0
 40
1.5
100
AcDbArc
 50
329.5081940000005
 51
0.0
  0
LINE
  5
61ED
330
A
100
AcDbEntity
  8
0
  6
Continuous
 62
     7
100
AcDbLine
 10
60.5
 20
-99.148595
 30
0.0
 11
55.80329299999993
 21
-99.148595
 31
0.0
  0
ARC
  5
61EE
330
A
100
AcDbEntity
  8
0
  6
Continuous
 62
     7
100
AcDbCircle
 10
39.0999999999999
 20
-88.14859499999981
 30
0.0
 40
20.0
100
AcDbArc
 50
326.6329869999986
 51
35.9404340000001
  0
LINE
  5
61EF
330
A
100
AcDbEntity
  8
0
  6
Continuous
 62
     7
100
AcDbLine
 10
60.5
 20
-81.64859500000011
 30
0.0
 11
60.5
 21
-99.148595
 31
0.0
  0
ARC
  5
61F0
330
A
100
AcDbEntity
  8
0
  6
Continuous
 62
     9
100
AcDbCircle
 10
39.0999999999999
 20
-88.14859499999981
 30
0.0
 40
19.0
100
AcDbArc
 50
324.6234600000032
 51
35.72724599999567
  0
ARC
  5
61F1
330
A
100
AcDbEntity
  8
0
  6
Continuous
 62
     7
100
AcDbCircle
 10
53.99997899999993
 20
-75.64856999999999
 30
0.0
 40
1.500030999999999
100
AcDbArc
 50
290.459729999999
 51
329.5077670000012
  0
LINE
  5
61F2
330
A
100
AcDbEntity
  8
0
  6
Continuous
 62
     7
100
AcDbLine
 10
55.80329299999993
 20
-99.148595
 30
0.0
 11
54.59193299999992
 21
-99.148595
 31
0.0
  0
LINE
  5
61F3
330
A
100
AcDbEntity
  8
0
  6
Continuous
 62
     7
100
AcDbLine
 10
54.0
 20
-77.148595
 30
0.0
 11
52.12249899999982
 21
-77.148595
 31
0.0
  0
ARC
  5
61F4
330
A
100
AcDbEntity
  8
0
  6
Continuous
 62
     7
100
AcDbCircle
 10
54.0
 20
-75.64859499999982
 30
0.0
 40
1.5
100
AcDbArc
 50
270.0
 51
290.4593029999987
  0
LINE
  5
61F5
330
A
100
AcDbEntity
  8
0
  6
Continuous
 62
     7
100
AcDbLine
 10
52.12249899999982
 20
-99.148595
 30
0.0
 11
54.59193299999992
 21
-99.148595
 31
0.0
  0
LINE
  5
61F6
330
A
100
AcDbEntity
  8
0
  6
Continuous
 62
     9
100
AcDbLine
 10
-9.5
 20
-82.648595
 30
0.0
 11
-9.5
 21
-83.14859499999981
 31
0.0
  0
LINE
  5
61F7
330
A
100
AcDbEntity
  8
0
  6
Continuous
 62
     9
100
AcDbLine
 10
45.0
 20
-82.648595
 30
0.0
 11
45.0
 21
-83.14859499999981
 31
0.0
  0
LINE
  5
61F8
330
A
100
AcDbEntity
  8
0
  6
Continuous
 62
     7
100
AcDbLine
 10
45.0
 20
-83.14859499999981
 30
0.0
 11
-9.5
 21
-83.14859499999981
 31
0.0
  0
LINE
  5
61F9
330
A
100
AcDbEntity
  8
0
  6
Continuous
 62
     7
100
AcDbLine
 10
50.5
 20
-82.648595
 30
0.0
 11
50.5
 21
-83.14859499999981
 31
0.0
  0
LINE
  5
61FA
330
A
100
AcDbEntity
  8
0
  6
Continuous
 62
     7
100
AcDbLine
 10
50.5
 20
-83.14859499999981
 30
0.0
 11
45.0
 21
-83.14859499999981
 31
0.0
  0
LINE
  5
61FB
330
A
100
AcDbEntity
  8
0
  6
Continuous
 62
     7
100
AcDbLine
 10
-15.5
 20
-82.648595
 30
0.0
 11
-15.5
 21
-83.14859499999981
 31
0.0
  0
LINE
  5
61FC
330
A
100
AcDbEntity
  8
0
  6
Continuous
 62
     7
100
AcDbLine
 10
-9.5
 20
-83.14859499999981
 30
0.0
 11
-15.5
 21
-83.14859499999981
 31
0.0
  0
LINE
  5
61FD
330
A
100
AcDbEntity
  8
0
  6
Continuous
 62
     9
100
AcDbLine
 10
45.0
 20
-93.64859499999985
 30
0.0
 11
45.0
 21
-93.14859499999981
 31
0.0
  0
LINE
  5
61FE
330
A
100
AcDbEntity
  8
0
  6
Continuous
 62
     9
100
AcDbLine
 10
-9.5
 20
-93.64859499999985
 30
0.0
 11
-9.5
 21
-93.14859499999981
 31
0.0
  0
LINE
  5
61FF
330
A
100
AcDbEntity
  8
0
  6
Continuous
 62
     7
100
AcDbLine
 10
-9.5
 20
-93.14859499999981
 30
0.0
 11
45.0
 21
-93.14859499999981
 31
0.0
  0
LINE
  5
6200
330
A
100
AcDbEntity
  8
0
  6
Continuous
 62
     7
100
AcDbLine
 10
-15.5
 20
-93.64859499999985
 30
0.0
 11
-15.5
 21
-93.14859499999981
 31
0.0
  0
LINE
  5
6201
330
A
100
AcDbEntity
  8
0
  6
Continuous
 62
     7
100
AcDbLine
 10
-15.5
 20
-93.14859499999981
 30
0.0
 11
-9.5
 21
-93.14859499999981
 31
0.0
  0
LINE
  5
6202
330
A
100
AcDbEntity
  8
0
  6
Continuous
 62
     7
100
AcDbLine
 10
50.5
 20
-93.64859499999985
 30
0.0
 11
50.5
 21
-93.14859499999981
 31
0.0
  0
LINE
  5
6203
330
A
100
AcDbEntity
  8
0
  6
Continuous
 62
     7
100
AcDbLine
 10
45.0
 20
-93.14859499999981
 30
0.0
 11
50.5
 21
-93.14859499999981
 31
0.0
  0
ARC
  5
6204
330
A
100
AcDbEntity
  8
0
  6
Continuous
 62
     7
100
AcDbCircle
 10
40.0
 20
-88.14859499999981
 30
0.0
 40
4.0
100
AcDbArc
 50
90.0
 51
218.2399819999965
  0
ARC
  5
6205
330
A
100
AcDbEntity
  8
0
  6
Continuous
 62
     7
100
AcDbCircle
 10
40.0
 20
-88.14859499999981
 30
0.0
 40
4.0
100
AcDbArc
 50
270.0
 51
90.0
  0
ARC
  5
6206
330
A
100
AcDbEntity
  8
0
  6
Continuous
 62
     7
100
AcDbCircle
 10
40.0
 20
-88.14859499999981
 30
0.0
 40
4.0
100
AcDbArc
 50
218.2399819999965
 51
270.0
  0
CIRCLE
  5
6207
330
A
100
AcDbEntity
  8
0
  6
Continuous
 62
     7
100
AcDbCircle
 10
40.0
 20
-88.14859499999981
 30
0.0
 40
2.908089
  0
LINE
  5
6208
330
A
100
AcDbEntity
  8
0
  6
Continuous
 62
     7
100
AcDbLine
 10
-5.174999999999954
 20
-84.14859499999982
 30
0.0
 11
-5.174999999999954
 21
-92.14859499999985
 31
0.0
  0
LINE
  5
6209
330
A
100
AcDbEntity
  8
0
  6
Continuous
 62
     9
100
AcDbLine
 10
1.825000000000045
 20
-84.14859499999982
 30
0.0
 11
1.825000000000045
 21
-92.14859499999985
 31
0.0
  0
LINE
  5
620A
330
A
100
AcDbEntity
  8
0
  6
Continuous
 62
     7
100
AcDbLine
 10
8.825000000000045
 20
-84.14859499999982
 30
0.0
 11
8.825000000000045
 21
-92.14859499999985
 31
0.0
  0
LINE
  5
620B
330
A
100
AcDbEntity
  8
0
  6
Continuous
 62
     7
100
AcDbLine
 10
45.49999999999999
 20
-93.64859499999985
 30
0.0
 11
53.0
 21
-93.64859499999985
 31
0.0
  0
LINE
  5
620C
330
A
100
AcDbEntity
  8
0
  6
Continuous
 62
     7
100
AcDbLine
 10
53.0
 20
-93.64859499999985
 30
0.0
 11
53.0
 21
-96.64859499999984
 31
0.0
  0
LINE
  5
620D
330
A
100
AcDbEntity
  8
0
  6
Continuous
 62
     9
100
AcDbLine
 10
45.49999999999999
 20
-96.64859499999984
 30
0.0
 11
53.0
 21
-96.64859499999984
 31
0.0
  0
LINE
  5
620E
330
A
100
AcDbEntity
  8
0
  6
Continuous
 62
     9
100
AcDbLine
 10
45.49999999999999
 20
-96.64859499999984
 30
0.0
 11
45.49999999999999
 21
-93.64859499999985
 31
0.0
  0
LINE
  5
620F
330
A
100
AcDbEntity
  8
0
  6
Continuous
 62
     7
100
AcDbLine
 10
-9.5
 20
-93.64859499999985
 30
0.0
 11
45.49999999999999
 21
-93.64859499999985
 31
0.0
  0
LINE
  5
6210
330
A
100
AcDbEntity
  8
0
  6
Continuous
 62
     9
100
AcDbLine
 10
-9.5
 20
-96.64859499999984
 30
0.0
 11
45.49999999999999
 21
-96.64859499999984
 31
0.0
  0
LINE
  5
6211
330
A
100
AcDbEntity
  8
0
  6
Continuous
 62
     9
100
AcDbLine
 10
-9.5
 20
-93.64859499999985
 30
0.0
 11
-9.5
 21
-96.64859499999984
 31
0.0
  0
LINE
  5
6212
330
A
100
AcDbEntity
  8
0
  6
Continuous
 62
     7
100
AcDbLine
 10
-17.0
 20
-93.64859499999985
 30
0.0
 11
-9.5
 21
-93.64859499999985
 31
0.0
  0
LINE
  5
6213
330
A
100
AcDbEntity
  8
0
  6
Continuous
 62
     9
100
AcDbLine
 10
-17.0
 20
-96.64859499999984
 30
0.0
 11
-9.5
 21
-96.64859499999984
 31
0.0
  0
LINE
  5
6214
330
A
100
AcDbEntity
  8
0
  6
Continuous
 62
     7
100
AcDbLine
 10
-17.0
 20
-96.64859499999984
 30
0.0
 11
-17.0
 21
-93.64859499999985
 31
0.0
  0
LINE
  5
6215
330
A
100
AcDbEntity
  8
0
  6
Continuous
 62
     9
100
AcDbLine
 10
-9.5
 20
-96.64859499999984
 30
0.0
 11
-9.5
 21
-100.6485949999998
 31
0.0
  0
LINE
  5
6216
330
A
100
AcDbEntity
  8
0
  6
Continuous
 62
     7
100
AcDbLine
 10
-9.5
 20
-100.6485949999998
 30
0.0
 11
-13.0
 21
-100.6485949999998
 31
0.0
  0
ARC
  5
6217
330
A
100
AcDbEntity
  8
0
  6
Continuous
 62
     7
100
AcDbCircle
 10
-13.0
 20
-96.64859499999984
 30
0.0
 40
4.0
100
AcDbArc
 50
180.0
 51
270.0
  0
LINE
  5
6218
330
A
100
AcDbEntity
  8
0
  6
Continuous
 62
     7
100
AcDbLine
 10
49.0
 20
-100.6485949999998
 30
0.0
 11
45.49999999999999
 21
-100.6485949999998
 31
0.0
  0
LINE
  5
6219
330
A
100
AcDbEntity
  8
0
  6
Continuous
 62
     9
100
AcDbLine
 10
45.49999999999999
 20
-100.6485949999998
 30
0.0
 11
45.49999999999999
 21
-96.64859499999984
 31
0.0
  0
ARC
  5
621A
330
A
100
AcDbEntity
  8
0
  6
Continuous
 62
     7
100
AcDbCircle
 10
49.0
 20
-96.64859499999984
 30
0.0
 40
4.0
100
AcDbArc
 50
270.0
 51
0.0
  0
LINE
  5
621B
330
A
100
AcDbEntity
  8
0
  6
Continuous
 62
     7
100
AcDbLine
 10
45.49999999999999
 20
-100.6485949999998
 30
0.0
 11
-9.5
 21
-100.6485949999998
 31
0.0
  0
ARC
  5
621C
330
A
100
AcDbEntity
  8
0
  6
Continuous
 62
     7
100
AcDbCircle
 10
40.0
 20
-88.14859499999981
 30
0.0
 40
4.009999999999998
100
AcDbArc
 50
274.0472099999989
 51
0.0
  0
ARC
  5
621D
330
A
100
AcDbEntity
  8
0
  6
Continuous
 62
     7
100
AcDbCircle
 10
40.0
 20
-88.14859499999981
 30
0.0
 40
4.009999999999998
100
AcDbArc
 50
94.04720999999886
 51
265.9527900000011
  0
ARC
  5
621E
330
A
100
AcDbEntity
  8
0
  6
Continuous
 62
     7
100
AcDbCircle
 10
40.0
 20
-88.14859499999981
 30
0.0
 40
4.009999999999998
100
AcDbArc
 50
0.0
 51
85.95279000000113
  0
LINE
  5
621F
330
A
100
AcDbEntity
  8
0
  6
Continuous
 62
     7
100
AcDbLine
 10
50.5
 20
-83.14859499999981
 30
0.0
 11
53.0
 21
-83.14859499999981
 31
0.0
  0
LINE
  5
6220
330
A
100
AcDbEntity
  8
0
  6
Continuous
 62
     7
100
AcDbLine
 10
8.875
 20
-84.14859499999982
 30
0.0
 11
8.875
 21
-92.14859499999985
 31
0.0
  0
LINE
  5
6221
330
A
100
AcDbEntity
  8
0
  6
Continuous
 62
     7
100
AcDbLine
 10
53.0
 20
-83.14859499999981
 30
0.0
 11
53.0
 21
-93.64859499999985
 31
0.0
  0
ARC
  5
6222
330
A
100
AcDbEntity
  8
0
  6
Continuous
 62
     7
100
AcDbCircle
 10
42.00564499999996
 20
-99.36943299999985
 30
0.0
 40
6.5
100
AcDbArc
 50
275.130423000001
 51
348.6504460000003
  0
ARC
  5
6223
330
A
100
AcDbEntity
  8
0
  6
Continuous
 62
     7
100
AcDbCircle
 10
40.00500000000011
 20
-111.2194339999998
 30
0.0
 40
5.75
100
AcDbArc
 50
71.9364990000001
 51
105.722807
  0
ARC
  5
6224
330
A
100
AcDbEntity
  8
0
  6
Continuous
 62
     7
100
AcDbCircle
 10
37.90487699999995
 20
-103.7594079999998
 30
0.0
 40
2.0
100
AcDbArc
 50
250.1112599999992
 51
285.722807
  0
ARC
  5
6225
330
A
100
AcDbEntity
  8
0
  6
Continuous
 62
     7
100
AcDbCircle
 10
43.00779800000009
 20
-89.65408299999984
 30
0.0
 40
17.0
100
AcDbArc
 50
220.2959599999965
 51
250.1112599999992
  0
ARC
  5
6226
330
A
100
AcDbEntity
  8
0
  6
Continuous
 62
     7
100
AcDbCircle
 10
43.00779800000009
 20
-86.64310699999999
 30
0.0
 40
17.0
100
AcDbArc
 50
109.8887410000006
 51
139.704040000001
  0
ARC
  5
6227
330
A
100
AcDbEntity
  8
0
  6
Continuous
 62
     7
100
AcDbCircle
 10
37.90487699999995
 20
-72.53778199999988
 30
0.0
 40
2.0
100
AcDbArc
 50
74.27719300000003
 51
109.8887410000006
  0
ARC
  5
6228
330
A
100
AcDbEntity
  8
0
  6
Continuous
 62
     7
100
AcDbCircle
 10
40.00500000000011
 20
-65.07775699999996
 30
0.0
 40
5.75
100
AcDbArc
 50
254.277193
 51
288.0635009999998
  0
ARC
  5
6229
330
A
100
AcDbEntity
  8
0
  6
Continuous
 62
     7
100
AcDbCircle
 10
42.40804899999988
 20
-72.445786
 30
0.0
 40
2.0
100
AcDbArc
 50
84.86957699999903
 51
108.0635009999999
  0
ARC
  5
622A
330
A
100
AcDbEntity
  8
0
  6
Continuous
 62
     7
100
AcDbCircle
 10
42.00564499999996
 20
-76.92775799999981
 30
0.0
 40
6.5
100
AcDbArc
 50
11.3495549999987
 51
84.86957699999903
  0
ARC
  5
622B
330
A
100
AcDbEntity
  8
0
  6
Continuous
 62
     7
100
AcDbCircle
 10
42.40804899999988
 20
-103.8514049999998
 30
0.0
 40
2.0
100
AcDbArc
 50
251.9364990000001
 51
275.130423000001
  0
ARC
  5
622C
330
A
100
AcDbEntity
  8
0
  6
Continuous
 62
     7
100
AcDbCircle
 10
8.020171000000116
 20
-76.09859499999988
 30
0.0
 40
0.5
100
AcDbArc
 50
90.0
 51
115.8419330000026
  0
ARC
  5
622D
330
A
100
AcDbEntity
  8
0
  6
Continuous
 62
     7
100
AcDbCircle
 10
17.97982899999988
 20
-76.09859499999988
 30
0.0
 40
0.5
100
AcDbArc
 50
64.15806699999736
 51
90.0
  0
LINE
  5
622E
330
A
100
AcDbEntity
  8
0
  6
Continuous
 62
     7
100
AcDbLine
 10
17.97982899999988
 20
143.0985950000002
 30
0.0
 11
11.84226699999999
 21
143.0985950000002
 31
0.0
  0
LINE
  5
622F
330
A
100
AcDbEntity
  8
0
  6
Continuous
 62
     7
100
AcDbLine
 10
11.84226699999999
 20
143.0985950000002
 30
0.0
 11
8.020171000000116
 21
143.0985950000002
 31
0.0
  0
LINE
  5
6230
330
A
100
AcDbEntity
  8
0
  6
Continuous
 62
     9
100
AcDbLine
 10
45.0
 20
161.148595
 30
0.0
 11
45.0
 21
160.6485950000001
 31
0.0
  0
LINE
  5
6231
330
A
100
AcDbEntity
  8
0
  6
Continuous
 62
     9
100
AcDbLine
 10
45.0
 20
160.6485950000001
 30
0.0
 11
45.0
 21
159.648595
 31
0.0
  0
LINE
  5
6232
330
A
100
AcDbEntity
  8
0
  6
Continuous
 62
     7
100
AcDbLine
 10
50.5
 20
161.148595
 30
0.0
 11
50.5
 21
160.6485950000001
 31
0.0
  0
LINE
  5
6233
330
A
100
AcDbEntity
  8
0
  6
Continuous
 62
     7
100
AcDbLine
 10
50.5
 20
160.6485950000001
 30
0.0
 11
50.5
 21
159.648595
 31
0.0
  0
LINE
  5
6234
330
A
100
AcDbEntity
  8
0
  6
Continuous
 62
     7
100
AcDbLine
 10
50.5
 20
159.648595
 30
0.0
 11
45.0
 21
159.648595
 31
0.0
  0
LINE
  5
6235
330
A
100
AcDbEntity
  8
0
  6
Continuous
 62
     9
100
AcDbLine
 10
-9.5
 20
161.148595
 30
0.0
 11
-9.5
 21
160.6485950000001
 31
0.0
  0
LINE
  5
6236
330
A
100
AcDbEntity
  8
0
  6
Continuous
 62
     9
100
AcDbLine
 10
-9.5
 20
160.6485950000001
 30
0.0
 11
-9.5
 21
159.648595
 31
0.0
  0
LINE
  5
6237
330
A
100
AcDbEntity
  8
0
  6
Continuous
 62
     7
100
AcDbLine
 10
45.0
 20
159.648595
 30
0.0
 11
-9.5
 21
159.648595
 31
0.0
  0
LINE
  5
6238
330
A
100
AcDbEntity
  8
0
  6
Continuous
 62
     7
100
AcDbLine
 10
-15.5
 20
161.148595
 30
0.0
 11
-15.5
 21
160.6485950000001
 31
0.0
  0
LINE
  5
6239
330
A
100
AcDbEntity
  8
0
  6
Continuous
 62
     7
100
AcDbLine
 10
-15.5
 20
160.6485950000001
 30
0.0
 11
-15.5
 21
159.648595
 31
0.0
  0
LINE
  5
623A
330
A
100
AcDbEntity
  8
0
  6
Continuous
 62
     7
100
AcDbLine
 10
-9.5
 20
159.648595
 30
0.0
 11
-15.5
 21
159.648595
 31
0.0
  0
LINE
  5
623B
330
A
100
AcDbEntity
  8
0
  6
Continuous
 62
     7
100
AcDbLine
 10
50.5
 20
150.1485950000001
 30
0.0
 11
50.5
 21
150.6485950000002
 31
0.0
  0
LINE
  5
623C
330
A
100
AcDbEntity
  8
0
  6
Continuous
 62
     7
100
AcDbLine
 10
50.5
 20
150.6485950000002
 30
0.0
 11
50.5
 21
151.6485950000001
 31
0.0
  0
LINE
  5
623D
330
A
100
AcDbEntity
  8
0
  6
Continuous
 62
     9
100
AcDbLine
 10
45.0
 20
150.1485950000001
 30
0.0
 11
45.0
 21
150.6485950000002
 31
0.0
  0
LINE
  5
623E
330
A
100
AcDbEntity
  8
0
  6
Continuous
 62
     9
100
AcDbLine
 10
45.0
 20
150.6485950000002
 30
0.0
 11
45.0
 21
151.6485950000001
 31
0.0
  0
LINE
  5
623F
330
A
100
AcDbEntity
  8
0
  6
Continuous
 62
     7
100
AcDbLine
 10
45.0
 20
151.6485950000001
 30
0.0
 11
50.5
 21
151.6485950000001
 31
0.0
  0
LINE
  5
6240
330
A
100
AcDbEntity
  8
0
  6
Continuous
 62
     9
100
AcDbLine
 10
-9.5
 20
150.1485950000001
 30
0.0
 11
-9.5
 21
150.6485950000002
 31
0.0
  0
LINE
  5
6241
330
A
100
AcDbEntity
  8
0
  6
Continuous
 62
     9
100
AcDbLine
 10
-9.5
 20
150.6485950000002
 30
0.0
 11
-9.5
 21
151.6485950000001
 31
0.0
  0
LINE
  5
6242
330
A
100
AcDbEntity
  8
0
  6
Continuous
 62
     7
100
AcDbLine
 10
-9.5
 20
151.6485950000001
 30
0.0
 11
45.0
 21
151.6485950000001
 31
0.0
  0
LINE
  5
6243
330
A
100
AcDbEntity
  8
0
  6
Continuous
 62
     7
100
AcDbLine
 10
-15.5
 20
150.1485950000001
 30
0.0
 11
-15.5
 21
150.6485950000002
 31
0.0
  0
LINE
  5
6244
330
A
100
AcDbEntity
  8
0
  6
Continuous
 62
     7
100
AcDbLine
 10
-15.5
 20
150.6485950000002
 30
0.0
 11
-15.5
 21
151.6485950000001
 31
0.0
  0
LINE
  5
6245
330
A
100
AcDbEntity
  8
0
  6
Continuous
 62
     7
100
AcDbLine
 10
-15.5
 20
151.6485950000001
 30
0.0
 11
-9.5
 21
151.6485950000001
 31
0.0
  0
LINE
  5
6246
330
A
100
AcDbEntity
  8
0
  6
Continuous
 62
     7
100
AcDbLine
 10
49.0
 20
143.148595
 30
0.0
 11
45.49999999999999
 21
143.148595
 31
0.0
  0
LINE
  5
6247
330
A
100
AcDbEntity
  8
0
  6
Continuous
 62
     9
100
AcDbLine
 10
45.49999999999999
 20
143.148595
 30
0.0
 11
45.49999999999999
 21
147.148595
 31
0.0
  0
LINE
  5
6248
330
A
100
AcDbEntity
  8
0
  6
Continuous
 62
     9
100
AcDbLine
 10
45.49999999999999
 20
147.148595
 30
0.0
 11
53.0
 21
147.148595
 31
0.0
  0
ARC
  5
6249
330
A
100
AcDbEntity
  8
0
  6
Continuous
 62
     7
100
AcDbCircle
 10
49.0
 20
147.148595
 30
0.0
 40
4.0
100
AcDbArc
 50
270.0
 51
0.0
  0
LINE
  5
624A
330
A
100
AcDbEntity
  8
0
  6
Continuous
 62
     7
100
AcDbLine
 10
53.0
 20
150.1485950000001
 30
0.0
 11
45.49999999999999
 21
150.1485950000001
 31
0.0
  0
LINE
  5
624B
330
A
100
AcDbEntity
  8
0
  6
Continuous
 62
     7
100
AcDbLine
 10
53.0
 20
147.148595
 30
0.0
 11
53.0
 21
150.1485950000001
 31
0.0
  0
LINE
  5
624C
330
A
100
AcDbEntity
  8
0
  6
Continuous
 62
     9
100
AcDbLine
 10
45.49999999999999
 20
147.148595
 30
0.0
 11
45.49999999999999
 21
150.1485950000001
 31
0.0
  0
LINE
  5
624D
330
A
100
AcDbEntity
  8
0
  6
Continuous
 62
     9
100
AcDbLine
 10
-9.5
 20
147.148595
 30
0.0
 11
45.49999999999999
 21
147.148595
 31
0.0
  0
LINE
  5
624E
330
A
100
AcDbEntity
  8
0
  6
Continuous
 62
     9
100
AcDbLine
 10
-9.5
 20
147.148595
 30
0.0
 11
-9.5
 21
150.1485950000001
 31
0.0
  0
LINE
  5
624F
330
A
100
AcDbEntity
  8
0
  6
Continuous
 62
     7
100
AcDbLine
 10
45.49999999999999
 20
150.1485950000001
 30
0.0
 11
-9.5
 21
150.1485950000001
 31
0.0
  0
LINE
  5
6250
330
A
100
AcDbEntity
  8
0
  6
Continuous
 62
     7
100
AcDbLine
 10
45.49999999999999
 20
143.148595
 30
0.0
 11
-9.5
 21
143.148595
 31
0.0
  0
LINE
  5
6251
330
A
100
AcDbEntity
  8
0
  6
Continuous
 62
     9
100
AcDbLine
 10
-9.5
 20
143.148595
 30
0.0
 11
-9.5
 21
147.148595
 31
0.0
  0
LINE
  5
6252
330
A
100
AcDbEntity
  8
0
  6
Continuous
 62
     9
100
AcDbLine
 10
-17.0
 20
147.148595
 30
0.0
 11
-9.5
 21
147.148595
 31
0.0
  0
LINE
  5
6253
330
A
100
AcDbEntity
  8
0
  6
Continuous
 62
     7
100
AcDbLine
 10
-17.0
 20
147.148595
 30
0.0
 11
-17.0
 21
150.1485950000001
 31
0.0
  0
LINE
  5
6254
330
A
100
AcDbEntity
  8
0
  6
Continuous
 62
     7
100
AcDbLine
 10
-9.5
 20
150.1485950000001
 30
0.0
 11
-17.0
 21
150.1485950000001
 31
0.0
  0
LINE
  5
6255
330
A
100
AcDbEntity
  8
0
  6
Continuous
 62
     7
100
AcDbLine
 10
-9.5
 20
143.148595
 30
0.0
 11
-13.0
 21
143.148595
 31
0.0
  0
ARC
  5
6256
330
A
100
AcDbEntity
  8
0
  6
Continuous
 62
     7
100
AcDbCircle
 10
-13.0
 20
147.148595
 30
0.0
 40
4.0
100
AcDbArc
 50
180.0
 51
270.0
  0
LINE
  5
6257
330
A
100
AcDbEntity
  8
0
  6
Continuous
 62
     7
100
AcDbLine
 10
60.5
 20
134.1485950000002
 30
0.0
 11
60.5
 21
149.1485949999998
 31
0.0
  0
LINE
  5
6258
330
A
100
AcDbEntity
  8
0
  6
Continuous
 62
     7
100
AcDbLine
 10
55.5
 20
116.6485950000001
 30
0.0
 11
60.5
 21
116.6485950000001
 31
0.0
  0
LINE
  5
6259
330
A
100
AcDbEntity
  8
0
  6
Continuous
 62
     7
100
AcDbLine
 10
55.5
 20
143.148595
 30
0.0
 11
55.5
 21
116.6485950000001
 31
0.0
  0
ARC
  5
625A
330
A
100
AcDbEntity
  8
0
  6
Continuous
 62
     7
100
AcDbCircle
 10
39.0999999999999
 20
155.648595
 30
0.0
 40
20.0
100
AcDbArc
 50
324.0595659999999
 51
33.36701300000139
  0
LINE
  5
625B
330
A
100
AcDbEntity
  8
0
  6
Continuous
 62
     7
100
AcDbLine
 10
60.5
 20
116.6485950000001
 30
0.0
 11
60.5
 21
134.1485950000002
 31
0.0
  0
LINE
  5
625C
330
A
100
AcDbEntity
  8
0
  6
Continuous
 62
     7
100
AcDbLine
 10
60.5
 20
149.1485949999998
 30
0.0
 11
60.5
 21
166.6485950000001
 31
0.0
  0
LINE
  5
625D
330
A
100
AcDbEntity
  8
0
  6
Continuous
 62
     7
100
AcDbLine
 10
60.5
 20
166.6485950000001
 30
0.0
 11
55.80329299999993
 21
166.6485950000001
 31
0.0
  0
ARC
  5
625E
330
A
100
AcDbEntity
  8
0
  6
Continuous
 62
     7
100
AcDbCircle
 10
54.0
 20
143.148595
 30
0.0
 40
1.5
100
AcDbArc
 50
0.0
 51
30.49180599999952
  0
ARC
  5
625F
330
A
100
AcDbEntity
  8
0
  6
Continuous
 62
     9
100
AcDbCircle
 10
39.0999999999999
 20
155.648595
 30
0.0
 40
19.0
100
AcDbArc
 50
324.2727540000043
 51
35.37653999999683
  0
LINE
  5
6260
330
A
100
AcDbEntity
  8
0
  6
Continuous
 62
     7
100
AcDbLine
 10
54.59193299999992
 20
166.6485950000001
 30
0.0
 11
55.80329299999993
 21
166.6485950000001
 31
0.0
  0
LINE
  5
6261
330
A
100
AcDbEntity
  8
0
  6
Continuous
 62
     7
100
AcDbLine
 10
55.29255300000023
 20
143.909718
 30
0.0
 11
55.28978299999902
 21
143.9144010000001
 31
0.0
  0
ARC
  5
6262
330
A
100
AcDbEntity
  8
0
  6
Continuous
 62
     7
100
AcDbCircle
 10
54.0
 20
143.148595
 30
0.0
 40
1.5
100
AcDbArc
 50
30.69962299999965
 51
69.54069700000129
  0
LINE
  5
6263
330
A
100
AcDbEntity
  8
0
  6
Continuous
 62
     7
100
AcDbLine
 10
54.0
 20
144.648595
 30
0.0
 11
52.12249899999982
 21
144.648595
 31
0.0
  0
LINE
  5
6264
330
A
100
AcDbEntity
  8
0
  6
Continuous
 62
     7
100
AcDbLine
 10
52.12249899999982
 20
166.6485950000001
 30
0.0
 11
54.59193299999992
 21
166.6485950000001
 31
0.0
  0
ARC
  5
6265
330
A
100
AcDbEntity
  8
0
  6
Continuous
 62
     7
100
AcDbCircle
 10
54.0
 20
143.148595
 30
0.0
 40
1.5
100
AcDbArc
 50
69.54069700000129
 51
90.0
  0
LINE
  5
6266
330
A
100
AcDbEntity
  8
0
  6
Continuous
 62
     9
100
AcDbLine
 10
-9.5
 20
150.1485950000001
 30
0.0
 11
-9.5
 21
150.6485950000002
 31
0.0
  0
LINE
  5
6267
330
A
100
AcDbEntity
  8
0
  6
Continuous
 62
     7
100
AcDbLine
 10
-15.5
 20
150.1485950000001
 30
0.0
 11
-15.5
 21
150.6485950000002
 31
0.0
  0
LINE
  5
6268
330
A
100
AcDbEntity
  8
0
  6
Continuous
 62
     7
100
AcDbLine
 10
-15.5
 20
150.6485950000002
 30
0.0
 11
-9.5
 21
150.6485950000002
 31
0.0
  0
LINE
  5
6269
330
A
100
AcDbEntity
  8
0
  6
Continuous
 62
     9
100
AcDbLine
 10
45.0
 20
150.1485950000001
 30
0.0
 11
45.0
 21
150.6485950000002
 31
0.0
  0
LINE
  5
626A
330
A
100
AcDbEntity
  8
0
  6
Continuous
 62
     7
100
AcDbLine
 10
-9.5
 20
150.6485950000002
 30
0.0
 11
45.0
 21
150.6485950000002
 31
0.0
  0
LINE
  5
626B
330
A
100
AcDbEntity
  8
0
  6
Continuous
 62
     7
100
AcDbLine
 10
50.5
 20
150.1485950000001
 30
0.0
 11
50.5
 21
150.6485950000002
 31
0.0
  0
LINE
  5
626C
330
A
100
AcDbEntity
  8
0
  6
Continuous
 62
     7
100
AcDbLine
 10
45.0
 20
150.6485950000002
 30
0.0
 11
50.5
 21
150.6485950000002
 31
0.0
  0
LINE
  5
626D
330
A
100
AcDbEntity
  8
0
  6
Continuous
 62
     9
100
AcDbLine
 10
-9.5
 20
161.148595
 30
0.0
 11
-9.5
 21
160.6485950000001
 31
0.0
  0
LINE
  5
626E
330
A
100
AcDbEntity
  8
0
  6
Continuous
 62
     9
100
AcDbLine
 10
45.0
 20
161.148595
 30
0.0
 11
45.0
 21
160.6485950000001
 31
0.0
  0
LINE
  5
626F
330
A
100
AcDbEntity
  8
0
  6
Continuous
 62
     7
100
AcDbLine
 10
45.0
 20
160.6485950000001
 30
0.0
 11
-9.5
 21
160.6485950000001
 31
0.0
  0
LINE
  5
6270
330
A
100
AcDbEntity
  8
0
  6
Continuous
 62
     7
100
AcDbLine
 10
-15.5
 20
161.148595
 30
0.0
 11
-15.5
 21
160.6485950000001
 31
0.0
  0
LINE
  5
6271
330
A
100
AcDbEntity
  8
0
  6
Continuous
 62
     7
100
AcDbLine
 10
-9.5
 20
160.6485950000001
 30
0.0
 11
-15.5
 21
160.6485950000001
 31
0.0
  0
LINE
  5
6272
330
A
100
AcDbEntity
  8
0
  6
Continuous
 62
     7
100
AcDbLine
 10
50.5
 20
161.148595
 30
0.0
 11
50.5
 21
160.6485950000001
 31
0.0
  0
LINE
  5
6273
330
A
100
AcDbEntity
  8
0
  6
Continuous
 62
     7
100
AcDbLine
 10
50.5
 20
160.6485950000001
 30
0.0
 11
45.0
 21
160.6485950000001
 31
0.0
  0
ARC
  5
6274
330
A
100
AcDbEntity
  8
0
  6
Continuous
 62
     7
100
AcDbCircle
 10
40.0
 20
155.648595
 30
0.0
 40
3.75
100
AcDbArc
 50
213.0979619999972
 51
230.422074000001
  0
LINE
  5
6275
330
A
100
AcDbEntity
  8
0
  6
Continuous
 62
     7
100
AcDbLine
 10
36.82738000000018
 20
153.0514019999999
 30
0.0
 11
36.85848200000009
 21
153.6008250000001
 31
0.0
  0
LINE
  5
6276
330
A
100
AcDbEntity
  8
0
  6
Continuous
 62
     7
100
AcDbLine
 10
37.61077300000011
 20
152.7582499999999
 30
0.0
 11
37.06218999999987
 21
152.7893040000002
 31
0.0
  0
ARC
  5
6277
330
A
100
AcDbEntity
  8
0
  6
Continuous
 62
     7
100
AcDbCircle
 10
40.0
 20
155.648595
 30
0.0
 40
3.75
100
AcDbArc
 50
233.0979620000009
 51
250.4220739999999
  0
LINE
  5
6278
330
A
100
AcDbEntity
  8
0
  6
Continuous
 62
     7
100
AcDbLine
 10
37.90678400000003
 20
152.1236660000002
 30
0.0
 11
37.74831799999993
 21
152.6498580000001
 31
0.0
  0
LINE
  5
6279
330
A
100
AcDbEntity
  8
0
  6
Continuous
 62
     7
100
AcDbLine
 10
38.74341800000003
 20
152.1153950000002
 30
0.0
 11
38.21771100000001
 21
151.9570750000002
 31
0.0
  0
ARC
  5
627A
330
A
100
AcDbEntity
  8
0
  6
Continuous
 62
     7
100
AcDbCircle
 10
40.0
 20
155.648595
 30
0.0
 40
3.75
100
AcDbArc
 50
173.0979620000014
 51
190.4220739999997
  0
LINE
  5
627B
330
A
100
AcDbEntity
  8
0
  6
Continuous
 62
     7
100
AcDbLine
 10
36.311868
 20
154.9702269999998
 30
0.0
 11
35.91190500000016
 21
155.3463429999998
 31
0.0
  0
LINE
  5
627C
330
A
100
AcDbEntity
  8
0
  6
Continuous
 62
     7
100
AcDbLine
 10
35.90071400000011
 20
155.6989089999999
 30
0.0
 11
36.27717600000006
 21
156.0992410000002
 31
0.0
  0
ARC
  5
627D
330
A
100
AcDbEntity
  8
0
  6
Continuous
 62
     7
100
AcDbCircle
 10
40.0
 20
155.648595
 30
0.0
 40
3.75
100
AcDbArc
 50
193.0979619999989
 51
210.422073999998
  0
LINE
  5
627E
330
A
100
AcDbEntity
  8
0
  6
Continuous
 62
     7
100
AcDbLine
 10
36.76630500000011
 20
153.749723
 30
0.0
 11
36.26050000000009
 21
153.9669290000002
 31
0.0
  0
LINE
  5
627F
330
A
100
AcDbEntity
  8
0
  6
Continuous
 62
     7
100
AcDbLine
 10
36.13093099999993
 20
154.2943220000001
 30
0.0
 11
36.34756000000016
 21
154.7987829999999
 31
0.0
  0
ARC
  5
6280
330
A
100
AcDbEntity
  8
0
  6
Continuous
 62
     7
100
AcDbCircle
 10
40.0
 20
155.648595
 30
0.0
 40
3.75
100
AcDbArc
 50
293.0979620000024
 51
310.4220740000004
  0
LINE
  5
6281
330
A
100
AcDbEntity
  8
0
  6
Continuous
 62
     7
100
AcDbLine
 10
42.43155
 20
152.7937630000002
 30
0.0
 11
42.30580499999996
 21
152.2593280000001
 31
0.0
  0
LINE
  5
6282
330
A
100
AcDbEntity
  8
0
  6
Continuous
 62
     7
100
AcDbLine
 10
42.00606999999989
 20
152.0733519999998
 30
0.0
 11
41.4711420000001
 21
152.1992119999998
 31
0.0
  0
ARC
  5
6283
330
A
100
AcDbEntity
  8
0
  6
Continuous
 62
     7
100
AcDbCircle
 10
40.0
 20
155.648595
 30
0.0
 40
3.75
100
AcDbArc
 50
253.0979619999998
 51
270.422074
  0
LINE
  5
6284
330
A
100
AcDbEntity
  8
0
  6
Continuous
 62
     7
100
AcDbLine
 10
39.21804799999995
 20
151.6478580000002
 30
0.0
 11
38.90973900000017
 21
152.0605829999999
 31
0.0
  0
LINE
  5
6285
330
A
100
AcDbEntity
  8
0
  6
Continuous
 62
     7
100
AcDbLine
 10
40.02762399999983
 20
151.8986969999999
 30
0.0
 11
39.69621000000007
 21
151.651128
 31
0.0
  0
ARC
  5
6286
330
A
100
AcDbEntity
  8
0
  6
Continuous
 62
     7
100
AcDbCircle
 10
40.0
 20
155.648595
 30
0.0
 40
3.75
100
AcDbArc
 50
153.0979619999967
 51
170.4220740000001
  0
LINE
  5
6287
330
A
100
AcDbEntity
  8
0
  6
Continuous
 62
     7
100
AcDbLine
 10
36.1644550000001
 20
157.0975680000002
 30
0.0
 11
36.65581999999995
 21
157.3453440000001
 31
0.0
  0
LINE
  5
6288
330
A
100
AcDbEntity
  8
0
  6
Continuous
 62
     7
100
AcDbLine
 10
36.3022739999999
 20
156.2725530000002
 30
0.0
 11
36.05487700000003
 21
156.7631679999999
 31
0.0
  0
ARC
  5
6289
330
A
100
AcDbEntity
  8
0
  6
Continuous
 62
     7
100
AcDbCircle
 10
40.0
 20
155.648595
 30
0.0
 40
3.75
100
AcDbArc
 50
273.0979620000019
 51
290.422073999997
  0
LINE
  5
628A
330
A
100
AcDbEntity
  8
0
  6
Continuous
 62
     7
100
AcDbLine
 10
41.30849899999975
 20
152.1342919999999
 30
0.0
 11
41.00731299999984
 21
151.6747320000002
 31
0.0
  0
LINE
  5
628B
330
A
100
AcDbEntity
  8
0
  6
Continuous
 62
     7
100
AcDbLine
 10
40.59316600000011
 20
151.6481479999998
 30
0.0
 11
40.20266200000015
 21
151.9040760000002
 31
0.0
  0
ARC
  5
628C
330
A
100
AcDbEntity
  8
0
  6
Continuous
 62
     7
100
AcDbCircle
 10
43.35628399999996
 20
153.8459550000002
 30
0.0
 40
0.1
100
AcDbArc
 50
116.7600180000015
 51
186.7600179999995
  0
LINE
  5
628D
330
A
100
AcDbEntity
  8
0
  6
Continuous
 62
     7
100
AcDbLine
 10
43.256979
 20
153.8341839999999
 30
0.0
 11
43.26131900000017
 21
153.7975700000002
 31
0.0
  0
ARC
  5
628E
330
A
100
AcDbEntity
  8
0
  6
Continuous
 62
     7
100
AcDbCircle
 10
40.0
 20
155.648595
 30
0.0
 40
3.75
100
AcDbArc
 50
313.0979619999997
 51
330.4220740000021
  0
LINE
  5
628F
330
A
100
AcDbEntity
  8
0
  6
Continuous
 62
     7
100
AcDbLine
 10
42.56217900000001
 20
152.910396
 30
0.0
 11
42.5255649999999
 21
152.9060559999998
 31
0.0
  0
ARC
  5
6290
330
A
100
AcDbEntity
  8
0
  6
Continuous
 62
     7
100
AcDbCircle
 10
42.53733599999987
 20
152.806751
 30
0.0
 40
0.1
100
AcDbArc
 50
96.76001799999996
 51
166.7600179999977
  0
LINE
  5
6291
330
A
100
AcDbEntity
  8
0
  6
Continuous
 62
     7
100
AcDbLine
 10
42.43999400000006
 20
152.8296539999998
 30
0.0
 11
42.43155
 21
152.7937630000002
 31
0.0
  0
LINE
  5
6292
330
A
100
AcDbEntity
  8
0
  6
Continuous
 62
     7
100
AcDbLine
 10
36.65581999999995
 20
157.3453440000001
 30
0.0
 11
36.68874099999994
 21
157.3619460000001
 31
0.0
  0
ARC
  5
6293
330
A
100
AcDbEntity
  8
0
  6
Continuous
 62
     7
100
AcDbCircle
 10
36.64371600000004
 20
157.4512360000001
 30
0.0
 40
0.1
100
AcDbArc
 50
296.7600180000015
 51
6.760017999999567
  0
LINE
  5
6294
330
A
100
AcDbEntity
  8
0
  6
Continuous
 62
     7
100
AcDbLine
 10
36.743021
 20
157.4630070000002
 30
0.0
 11
36.73868099999982
 21
157.4996210000002
 31
0.0
  0
ARC
  5
6295
330
A
100
AcDbEntity
  8
0
  6
Continuous
 62
     7
100
AcDbCircle
 10
40.0
 20
155.648595
 30
0.0
 40
3.75
100
AcDbArc
 50
133.0979619999997
 51
150.422074000002
  0
LINE
  5
6296
330
A
100
AcDbEntity
  8
0
  6
Continuous
 62
     7
100
AcDbLine
 10
37.43782099999999
 20
158.3867950000002
 30
0.0
 11
37.47443500000009
 21
158.3911349999999
 31
0.0
  0
ARC
  5
6297
330
A
100
AcDbEntity
  8
0
  6
Continuous
 62
     7
100
AcDbCircle
 10
37.46266400000013
 20
158.4904400000002
 30
0.0
 40
0.1
100
AcDbArc
 50
276.760018
 51
346.7600179999978
  0
LINE
  5
6298
330
A
100
AcDbEntity
  8
0
  6
Continuous
 62
     7
100
AcDbLine
 10
37.56000599999993
 20
158.4675369999998
 30
0.0
 11
37.56844999999998
 21
158.5034269999998
 31
0.0
  0
ARC
  5
6299
330
A
100
AcDbEntity
  8
0
  6
Continuous
 62
     7
100
AcDbCircle
 10
40.0
 20
155.648595
 30
0.0
 40
3.75
100
AcDbArc
 50
113.0979620000023
 51
130.4220740000003
  0
LINE
  5
629A
330
A
100
AcDbEntity
  8
0
  6
Continuous
 62
     7
100
AcDbLine
 10
38.5288579999999
 20
159.097978
 30
0.0
 11
38.56474899999989
 21
159.0895339999999
 31
0.0
  0
ARC
  5
629B
330
A
100
AcDbEntity
  8
0
  6
Continuous
 62
     7
100
AcDbCircle
 10
38.58765199999993
 20
159.186876
 30
0.0
 40
0.1
100
AcDbArc
 50
256.7600180000017
 51
326.7600179999972
  0
LINE
  5
629C
330
A
100
AcDbEntity
  8
0
  6
Continuous
 62
     7
100
AcDbLine
 10
38.67128999999977
 20
159.1320610000002
 30
0.0
 11
38.69150100000025
 21
159.1628990000002
 31
0.0
  0
ARC
  5
629D
330
A
100
AcDbEntity
  8
0
  6
Continuous
 62
     7
100
AcDbCircle
 10
40.0
 20
155.648595
 30
0.0
 40
3.75
100
AcDbArc
 50
93.09796200000187
 51
110.422073999997
  0
LINE
  5
629E
330
A
100
AcDbEntity
  8
0
  6
Continuous
 62
     7
100
AcDbLine
 10
39.79733799999986
 20
159.3931150000002
 30
0.0
 11
39.82817600000021
 21
159.3729039999999
 31
0.0
  0
ARC
  5
629F
330
A
100
AcDbEntity
  8
0
  6
Continuous
 62
     7
100
AcDbCircle
 10
39.88298999999983
 20
159.4565430000002
 30
0.0
 40
0.1
100
AcDbArc
 50
236.7600179999989
 51
306.760018000004
  0
LINE
  5
62A0
330
A
100
AcDbEntity
  8
0
  6
Continuous
 62
     7
100
AcDbLine
 10
39.94283700000006
 20
159.3764280000002
 30
0.0
 11
39.97237600000018
 21
159.3984940000002
 31
0.0
  0
ARC
  5
62A1
330
A
100
AcDbEntity
  8
0
  6
Continuous
 62
     7
100
AcDbCircle
 10
40.0
 20
155.648595
 30
0.0
 40
3.75
100
AcDbArc
 50
73.09796199999976
 51
90.42207400000002
  0
LINE
  5
62A2
330
A
100
AcDbEntity
  8
0
  6
Continuous
 62
     7
100
AcDbLine
 10
41.09026099999982
 20
159.2366070000002
 30
0.0
 11
41.11232700000003
 21
159.2070690000002
 31
0.0
  0
ARC
  5
62A3
330
A
100
AcDbEntity
  8
0
  6
Continuous
 62
     7
100
AcDbCircle
 10
41.1924409999999
 20
159.2669150000002
 30
0.0
 40
0.1
100
AcDbArc
 50
216.7600179999995
 51
286.7600179999977
  0
LINE
  5
62A4
330
A
100
AcDbEntity
  8
0
  6
Continuous
 62
     7
100
AcDbLine
 10
41.22127800000021
 20
159.1711630000001
 30
0.0
 11
41.25658199999997
 21
159.1817949999999
 31
0.0
  0
ARC
  5
62A5
330
A
100
AcDbEntity
  8
0
  6
Continuous
 62
     7
100
AcDbCircle
 10
40.0
 20
155.648595
 30
0.0
 40
3.75
100
AcDbArc
 50
53.09796200000093
 51
70.42207399999989
  0
LINE
  5
62A6
330
A
100
AcDbEntity
  8
0
  6
Continuous
 62
     7
100
AcDbLine
 10
42.25168200000007
 20
158.647333
 30
0.0
 11
42.26231499999993
 21
158.6120280000002
 31
0.0
  0
ARC
  5
62A7
330
A
100
AcDbEntity
  8
0
  6
Continuous
 62
     7
100
AcDbCircle
 10
42.35806700000011
 20
158.6408650000004
 30
0.0
 40
0.1
100
AcDbArc
 50
196.7600179999998
 51
266.7600179999982
  0
LINE
  5
62A8
330
A
100
AcDbEntity
  8
0
  6
Continuous
 62
     7
100
AcDbLine
 10
42.35241499999983
 20
158.5410240000001
 30
0.0
 11
42.38922699999989
 21
158.5389410000002
 31
0.0
  0
ARC
  5
62A9
330
A
100
AcDbEntity
  8
0
  6
Continuous
 62
     7
100
AcDbCircle
 10
40.0
 20
155.648595
 30
0.0
 40
3.75
100
AcDbArc
 50
33.09796199999718
 51
50.42207400000101
  0
LINE
  5
62AA
330
A
100
AcDbEntity
  8
0
  6
Continuous
 62
     7
100
AcDbLine
 10
43.14151799999989
 20
157.696366
 30
0.0
 11
43.13943399999993
 21
157.659554
 31
0.0
  0
ARC
  5
62AB
330
A
100
AcDbEntity
  8
0
  6
Continuous
 62
     7
100
AcDbCircle
 10
43.2392739999998
 20
157.6539019999998
 30
0.0
 40
0.1
100
AcDbArc
 50
176.7600180000016
 51
246.7600180000005
  0
LINE
  5
62AC
330
A
100
AcDbEntity
  8
0
  6
Continuous
 62
     7
100
AcDbLine
 10
43.19981600000004
 20
157.5620160000001
 30
0.0
 11
43.2336949999999
 21
157.5474679999998
 31
0.0
  0
ARC
  5
62AD
330
A
100
AcDbEntity
  8
0
  6
Continuous
 62
     7
100
AcDbCircle
 10
40.0
 20
155.648595
 30
0.0
 40
3.75
100
AcDbArc
 50
13.09796199999893
 51
30.422073999998
  0
LINE
  5
62AE
330
A
100
AcDbEntity
  8
0
  6
Continuous
 62
     7
100
AcDbLine
 10
43.65243999999985
 20
156.4984080000002
 30
0.0
 11
43.63789200000019
 21
156.464529
 31
0.0
  0
ARC
  5
62AF
330
A
100
AcDbEntity
  8
0
  6
Continuous
 62
     7
100
AcDbCircle
 10
43.72977800000011
 20
156.425071
 30
0.0
 40
0.1
100
AcDbArc
 50
156.7600180000004
 51
226.7600180000004
  0
LINE
  5
62B0
330
A
100
AcDbEntity
  8
0
  6
Continuous
 62
     7
100
AcDbLine
 10
43.66127199999982
 20
156.3522209999998
 30
0.0
 11
43.68813199999999
 21
156.3269630000001
 31
0.0
  0
ARC
  5
62B1
330
A
100
AcDbEntity
  8
0
  6
Continuous
 62
     7
100
AcDbCircle
 10
40.0
 20
155.648595
 30
0.0
 40
3.75
100
AcDbArc
 50
353.0979620000014
 51
10.42207399999979
  0
LINE
  5
62B2
330
A
100
AcDbEntity
  8
0
  6
Continuous
 62
     7
100
AcDbLine
 10
43.72282399999995
 20
155.1979500000001
 30
0.0
 11
43.69756600000004
 21
155.1710900000002
 31
0.0
  0
ARC
  5
62B3
330
A
100
AcDbEntity
  8
0
  6
Continuous
 62
     7
100
AcDbCircle
 10
43.77041499999996
 20
155.1025839999999
 30
0.0
 40
0.1
100
AcDbArc
 50
136.7600179999981
 51
206.7600180000016
  0
LINE
  5
62B4
330
A
100
AcDbEntity
  8
0
  6
Continuous
 62
     7
100
AcDbLine
 10
43.68112500000006
 20
155.0575589999999
 30
0.0
 11
43.6977260000001
 21
155.0246370000001
 31
0.0
  0
ARC
  5
62B5
330
A
100
AcDbEntity
  8
0
  6
Continuous
 62
     7
100
AcDbCircle
 10
40.0
 20
155.648595
 30
0.0
 40
3.75
100
AcDbArc
 50
333.0979619999967
 51
350.4220740000002
  0
LINE
  5
62B6
330
A
100
AcDbEntity
  8
0
  6
Continuous
 62
     7
100
AcDbLine
 10
43.34418000000005
 20
153.9518460000001
 30
0.0
 11
43.31125900000006
 21
153.9352450000001
 31
0.0
  0
LINE
  5
62B7
330
A
100
AcDbEntity
  8
0
  6
Continuous
 62
     7
100
AcDbLine
 10
36.34756000000016
 20
154.7987829999999
 30
0.0
 11
36.36210799999981
 21
154.8326620000002
 31
0.0
  0
LINE
  5
62B8
330
A
100
AcDbEntity
  8
0
  6
Continuous
 62
     7
100
AcDbLine
 10
36.27717600000006
 20
156.0992410000002
 30
0.0
 11
36.30243399999996
 21
156.1261009999999
 31
0.0
  0
LINE
  5
62B9
330
A
100
AcDbEntity
  8
0
  6
Continuous
 62
     7
100
AcDbLine
 10
38.90973900000017
 20
152.0605829999999
 30
0.0
 11
38.88767299999995
 21
152.0901219999999
 31
0.0
  0
ARC
  5
62BA
330
A
100
AcDbEntity
  8
0
  6
Continuous
 62
     7
100
AcDbCircle
 10
36.76072600000021
 20
153.6432879999998
 30
0.0
 40
0.1
100
AcDbArc
 50
356.7600180000016
 51
66.76001800000043
  0
LINE
  5
62BB
330
A
100
AcDbEntity
  8
0
  6
Continuous
 62
     7
100
AcDbLine
 10
36.80018399999994
 20
153.7351740000002
 30
0.0
 11
36.76630500000011
 21
153.749723
 31
0.0
  0
ARC
  5
62BC
330
A
100
AcDbEntity
  8
0
  6
Continuous
 62
     7
100
AcDbCircle
 10
37.64193299999988
 20
152.6563259999998
 30
0.0
 40
0.1
100
AcDbArc
 50
16.76001799999985
 51
86.76001799999818
  0
LINE
  5
62BD
330
A
100
AcDbEntity
  8
0
  6
Continuous
 62
     7
100
AcDbLine
 10
41.4711420000001
 20
152.1992119999998
 30
0.0
 11
41.43525100000011
 21
152.2076570000002
 31
0.0
  0
ARC
  5
62BE
330
A
100
AcDbEntity
  8
0
  6
Continuous
 62
     7
100
AcDbCircle
 10
36.22958500000005
 20
156.1946059999998
 30
0.0
 40
0.1
100
AcDbArc
 50
316.7600179999981
 51
26.76001800000157
  0
ARC
  5
62BF
330
A
100
AcDbEntity
  8
0
  6
Continuous
 62
     7
100
AcDbCircle
 10
41.41234800000006
 20
152.1103150000002
 30
0.0
 40
0.1
100
AcDbArc
 50
76.76001800000171
 51
146.7600179999972
  0
ARC
  5
62C0
330
A
100
AcDbEntity
  8
0
  6
Continuous
 62
     7
100
AcDbCircle
 10
36.27022199999988
 20
154.8721200000001
 30
0.0
 40
0.1
100
AcDbArc
 50
336.7600180000004
 51
46.76001800000036
  0
ARC
  5
62C1
330
A
100
AcDbEntity
  8
0
  6
Continuous
 62
     7
100
AcDbCircle
 10
40.11701000000015
 20
151.8406480000003
 30
0.0
 40
0.1
100
AcDbArc
 50
56.76001799999895
 51
126.760018000004
  0
LINE
  5
62C2
330
A
100
AcDbEntity
  8
0
  6
Continuous
 62
     7
100
AcDbLine
 10
41.32871000000021
 20
152.1651299999999
 30
0.0
 11
41.30849899999975
 21
152.1342919999999
 31
0.0
  0
ARC
  5
62C3
330
A
100
AcDbEntity
  8
0
  6
Continuous
 62
     7
100
AcDbCircle
 10
38.8075590000001
 20
152.0302749999999
 30
0.0
 40
0.1
100
AcDbArc
 50
36.7600179999995
 51
106.7600179999976
  0
LINE
  5
62C4
330
A
100
AcDbEntity
  8
0
  6
Continuous
 62
     7
100
AcDbLine
 10
40.05716299999995
 20
151.9207629999999
 30
0.0
 11
40.02762399999983
 21
151.8986969999999
 31
0.0
  0
LINE
  5
62C5
330
A
100
AcDbEntity
  8
0
  6
Continuous
 62
     7
100
AcDbLine
 10
36.33872800000017
 20
154.9449690000002
 30
0.0
 11
36.311868
 21
154.9702269999998
 31
0.0
  0
LINE
  5
62C6
330
A
100
AcDbEntity
  8
0
  6
Continuous
 62
     7
100
AcDbLine
 10
40.20266200000015
 20
151.9040760000002
 30
0.0
 11
40.17182399999978
 21
151.9242860000002
 31
0.0
  0
LINE
  5
62C7
330
A
100
AcDbEntity
  8
0
  6
Continuous
 62
     7
100
AcDbLine
 10
36.31887499999994
 20
156.2396320000002
 30
0.0
 11
36.3022739999999
 21
156.2725530000002
 31
0.0
  0
LINE
  5
62C8
330
A
100
AcDbEntity
  8
0
  6
Continuous
 62
     7
100
AcDbLine
 10
36.85848200000009
 20
153.6008250000001
 30
0.0
 11
36.86056600000006
 21
153.6376360000002
 31
0.0
  0
LINE
  5
62C9
330
A
100
AcDbEntity
  8
0
  6
Continuous
 62
     7
100
AcDbLine
 10
37.74831799999993
 20
152.6498580000001
 30
0.0
 11
37.73768500000006
 21
152.6851619999998
 31
0.0
  0
LINE
  5
62CA
330
A
100
AcDbEntity
  8
0
  6
Continuous
 62
     7
100
AcDbLine
 10
38.77872199999911
 20
152.1260280000002
 30
0.0
 11
38.74341800000003
 21
152.1153950000002
 31
0.0
  0
LINE
  5
62CB
330
A
100
AcDbEntity
  8
0
  6
Continuous
 62
     7
100
AcDbLine
 10
37.64758500000016
 20
152.7561660000001
 30
0.0
 11
37.61077300000011
 21
152.7582499999999
 31
0.0
  0
LINE
  5
62CC
330
A
100
AcDbEntity
  8
0
  6
Continuous
 62
     7
100
AcDbLine
 10
36.73868099999982
 20
157.4996210000002
 30
0.0
 11
36.67388400000004
 21
158.0462639999999
 31
0.0
  0
LINE
  5
62CD
330
A
100
AcDbEntity
  8
0
  6
Continuous
 62
     7
100
AcDbLine
 10
36.89263000000006
 20
158.3221710000002
 30
0.0
 11
37.43782099999999
 21
158.3867950000002
 31
0.0
  0
LINE
  5
62CE
330
A
100
AcDbEntity
  8
0
  6
Continuous
 62
     7
100
AcDbLine
 10
43.26131900000017
 20
153.7975700000002
 30
0.0
 11
43.32611599999995
 21
153.2509269999998
 31
0.0
  0
LINE
  5
62CF
330
A
100
AcDbEntity
  8
0
  6
Continuous
 62
     7
100
AcDbLine
 10
43.10736999999995
 20
152.97502
 30
0.0
 11
42.56217900000001
 21
152.910396
 31
0.0
  0
LINE
  5
62D0
330
A
100
AcDbEntity
  8
0
  6
Continuous
 62
     7
100
AcDbLine
 10
37.56844999999998
 20
158.5034269999998
 30
0.0
 11
37.69419500000004
 21
159.0378630000001
 31
0.0
  0
LINE
  5
62D1
330
A
100
AcDbEntity
  8
0
  6
Continuous
 62
     7
100
AcDbLine
 10
37.9939300000001
 20
159.2238379999998
 30
0.0
 11
38.5288579999999
 21
159.097978
 31
0.0
  0
LINE
  5
62D2
330
A
100
AcDbEntity
  8
0
  6
Continuous
 62
     7
100
AcDbLine
 10
43.68813199999999
 20
156.3269630000001
 30
0.0
 11
44.08809499999985
 21
155.9508480000003
 31
0.0
  0
LINE
  5
62D3
330
A
100
AcDbEntity
  8
0
  6
Continuous
 62
     7
100
AcDbLine
 10
44.09928599999989
 20
155.5982809999999
 30
0.0
 11
43.72282399999995
 21
155.1979500000001
 31
0.0
  0
LINE
  5
62D4
330
A
100
AcDbEntity
  8
0
  6
Continuous
 62
     7
100
AcDbLine
 10
39.40683399999989
 20
159.6490430000002
 30
0.0
 11
39.79733799999986
 21
159.3931150000002
 31
0.0
  0
LINE
  5
62D5
330
A
100
AcDbEntity
  8
0
  6
Continuous
 62
     7
100
AcDbLine
 10
38.69150100000025
 20
159.1628990000002
 30
0.0
 11
38.99268700000016
 21
159.6224589999998
 31
0.0
  0
LINE
  5
62D6
330
A
100
AcDbEntity
  8
0
  6
Continuous
 62
     7
100
AcDbLine
 10
43.6977260000001
 20
155.0246370000001
 30
0.0
 11
43.94512299999997
 21
154.5340219999999
 31
0.0
  0
LINE
  5
62D7
330
A
100
AcDbEntity
  8
0
  6
Continuous
 62
     7
100
AcDbLine
 10
43.8355449999999
 20
154.1996220000001
 30
0.0
 11
43.34418000000005
 21
153.9518460000001
 31
0.0
  0
LINE
  5
62D8
330
A
100
AcDbEntity
  8
0
  6
Continuous
 62
     7
100
AcDbLine
 10
42.38922699999989
 20
158.5389410000002
 30
0.0
 11
42.93781000000012
 21
158.5078859999998
 31
0.0
  0
LINE
  5
62D9
330
A
100
AcDbEntity
  8
0
  6
Continuous
 62
     7
100
AcDbLine
 10
43.17261999999981
 20
158.2457879999999
 30
0.0
 11
43.14151799999989
 21
157.696366
 31
0.0
  0
LINE
  5
62DA
330
A
100
AcDbEntity
  8
0
  6
Continuous
 62
     7
100
AcDbLine
 10
43.2336949999999
 20
157.5474679999998
 30
0.0
 11
43.73949999999989
 21
157.3302620000002
 31
0.0
  0
LINE
  5
62DB
330
A
100
AcDbEntity
  8
0
  6
Continuous
 62
     7
100
AcDbLine
 10
43.86906900000007
 20
157.0028690000002
 30
0.0
 11
43.65243999999985
 21
156.4984080000002
 31
0.0
  0
LINE
  5
62DC
330
A
100
AcDbEntity
  8
0
  6
Continuous
 62
     7
100
AcDbLine
 10
41.25658199999997
 20
159.1817949999999
 30
0.0
 11
41.78244100000006
 21
159.3401610000005
 31
0.0
  0
LINE
  5
62DD
330
A
100
AcDbEntity
  8
0
  6
Continuous
 62
     7
100
AcDbLine
 10
42.09317099999998
 20
159.1736760000001
 30
0.0
 11
42.25168200000007
 21
158.647333
 31
0.0
  0
LINE
  5
62DE
330
A
100
AcDbEntity
  8
0
  6
Continuous
 62
     7
100
AcDbLine
 10
39.97237600000018
 20
159.3984940000002
 30
0.0
 11
40.30378999999992
 21
159.6460630000002
 31
0.0
  0
LINE
  5
62DF
330
A
100
AcDbEntity
  8
0
  6
Continuous
 62
     7
100
AcDbLine
 10
40.78195200000005
 20
159.6493329999999
 30
0.0
 11
41.09026099999982
 21
159.2366070000002
 31
0.0
  0
ARC
  5
62E0
330
A
100
AcDbEntity
  8
0
  6
Continuous
 62
     7
100
AcDbCircle
 10
40.0
 20
155.648595
 30
0.0
 40
4.0
100
AcDbArc
 50
245.8019960000019
 51
257.7180400000028
  0
ARC
  5
62E1
330
A
100
AcDbEntity
  8
0
  6
Continuous
 62
     7
100
AcDbCircle
 10
40.0
 20
155.648595
 30
0.0
 40
4.0
100
AcDbArc
 50
225.8019959999986
 51
237.7180400000016
  0
ARC
  5
62E2
330
A
100
AcDbEntity
  8
0
  6
Continuous
 62
     7
100
AcDbCircle
 10
40.0
 20
155.648595
 30
0.0
 40
4.0
100
AcDbArc
 50
325.8019960000003
 51
337.7180399999991
  0
ARC
  5
62E3
330
A
100
AcDbEntity
  8
0
  6
Continuous
 62
     7
100
AcDbCircle
 10
40.0
 20
155.648595
 30
0.0
 40
4.0
100
AcDbArc
 50
345.8019960000005
 51
357.7180400000004
  0
ARC
  5
62E4
330
A
100
AcDbEntity
  8
0
  6
Continuous
 62
     7
100
AcDbCircle
 10
40.0
 20
155.648595
 30
0.0
 40
4.0
100
AcDbArc
 50
5.801995999999483
 51
17.71803999999904
  0
ARC
  5
62E5
330
A
100
AcDbEntity
  8
0
  6
Continuous
 62
     7
100
AcDbCircle
 10
40.0
 20
155.648595
 30
0.0
 40
4.0
100
AcDbArc
 50
25.80199599999956
 51
37.71803999999665
  0
ARC
  5
62E6
330
A
100
AcDbEntity
  8
0
  6
Continuous
 62
     7
100
AcDbCircle
 10
40.0
 20
155.648595
 30
0.0
 40
4.0
100
AcDbArc
 50
45.80199599999859
 51
57.71804000000157
  0
ARC
  5
62E7
330
A
100
AcDbEntity
  8
0
  6
Continuous
 62
     7
100
AcDbCircle
 10
40.0
 20
155.648595
 30
0.0
 40
4.0
100
AcDbArc
 50
65.80199600000191
 51
77.71804000000279
  0
ARC
  5
62E8
330
A
100
AcDbEntity
  8
0
  6
Continuous
 62
     7
100
AcDbCircle
 10
40.0
 20
155.648595
 30
0.0
 40
4.0
100
AcDbArc
 50
85.80199599999765
 51
90.0
  0
ARC
  5
62E9
330
A
100
AcDbEntity
  8
0
  6
Continuous
 62
     7
100
AcDbCircle
 10
40.0
 20
155.648595
 30
0.0
 40
4.0
100
AcDbArc
 50
90.0
 51
97.71804000000193
  0
ARC
  5
62EA
330
A
100
AcDbEntity
  8
0
  6
Continuous
 62
     7
100
AcDbCircle
 10
40.0
 20
155.648595
 30
0.0
 40
4.0
100
AcDbArc
 50
105.8019959999999
 51
117.7180399999993
  0
ARC
  5
62EB
330
A
100
AcDbEntity
  8
0
  6
Continuous
 62
     7
100
AcDbCircle
 10
40.0
 20
155.648595
 30
0.0
 40
4.0
100
AcDbArc
 50
125.8019960000015
 51
137.7180400000029
  0
ARC
  5
62EC
330
A
100
AcDbEntity
  8
0
  6
Continuous
 62
     7
100
AcDbCircle
 10
40.0
 20
155.648595
 30
0.0
 40
4.0
100
AcDbArc
 50
145.8019960000003
 51
157.7180399999991
  0
ARC
  5
62ED
330
A
100
AcDbEntity
  8
0
  6
Continuous
 62
     7
100
AcDbCircle
 10
40.0
 20
155.648595
 30
0.0
 40
4.0
100
AcDbArc
 50
165.8019960000005
 51
177.7180400000004
  0
ARC
  5
62EE
330
A
100
AcDbEntity
  8
0
  6
Continuous
 62
     7
100
AcDbCircle
 10
40.0
 20
155.648595
 30
0.0
 40
4.0
100
AcDbArc
 50
185.8019959999995
 51
197.718039999999
  0
ARC
  5
62EF
330
A
100
AcDbEntity
  8
0
  6
Continuous
 62
     7
100
AcDbCircle
 10
40.0
 20
155.648595
 30
0.0
 40
4.0
100
AcDbArc
 50
205.8019959999996
 51
217.7180399999966
  0
ARC
  5
62F0
330
A
100
AcDbEntity
  8
0
  6
Continuous
 62
     7
100
AcDbCircle
 10
40.0
 20
155.648595
 30
0.0
 40
4.0
100
AcDbArc
 50
265.8019959999976
 51
270.0
  0
ARC
  5
62F1
330
A
100
AcDbEntity
  8
0
  6
Continuous
 62
     7
100
AcDbCircle
 10
40.0
 20
155.648595
 30
0.0
 40
4.0
100
AcDbArc
 50
270.0
 51
277.7180400000019
  0
ARC
  5
62F2
330
A
100
AcDbEntity
  8
0
  6
Continuous
 62
     7
100
AcDbCircle
 10
40.0
 20
155.648595
 30
0.0
 40
4.0
100
AcDbArc
 50
285.801996
 51
297.7180399999993
  0
ARC
  5
62F3
330
A
100
AcDbEntity
  8
0
  6
Continuous
 62
     7
100
AcDbCircle
 10
40.0
 20
155.648595
 30
0.0
 40
4.0
100
AcDbArc
 50
305.8019960000016
 51
317.7180400000029
  0
LINE
  5
62F4
330
A
100
AcDbEntity
  8
0
  6
Continuous
 62
     9
100
AcDbLine
 10
1.825000000000045
 20
151.6485950000001
 30
0.0
 11
1.825000000000045
 21
159.648595
 31
0.0
  0
LINE
  5
62F5
330
A
100
AcDbEntity
  8
0
  6
Continuous
 62
     7
100
AcDbLine
 10
-5.174999999999954
 20
151.6485950000001
 30
0.0
 11
-5.174999999999954
 21
159.648595
 31
0.0
  0
LINE
  5
62F6
330
A
100
AcDbEntity
  8
0
  6
Continuous
 62
     7
100
AcDbLine
 10
8.825000000000045
 20
151.6485950000001
 30
0.0
 11
8.825000000000045
 21
159.648595
 31
0.0
  0
LINE
  5
62F7
330
A
100
AcDbEntity
  8
0
  6
Continuous
 62
     9
100
AcDbLine
 10
-9.5
 20
164.1485950000001
 30
0.0
 11
-17.0
 21
164.1485950000001
 31
0.0
  0
ARC
  5
62F8
330
A
100
AcDbEntity
  8
0
  6
Continuous
 62
     7
100
AcDbCircle
 10
-13.0
 20
164.1485950000001
 30
0.0
 40
4.0
100
AcDbArc
 50
90.0
 51
180.0
  0
LINE
  5
62F9
330
A
100
AcDbEntity
  8
0
  6
Continuous
 62
     7
100
AcDbLine
 10
-13.0
 20
168.148595
 30
0.0
 11
-9.5
 21
168.148595
 31
0.0
  0
LINE
  5
62FA
330
A
100
AcDbEntity
  8
0
  6
Continuous
 62
     9
100
AcDbLine
 10
-9.5
 20
164.1485950000001
 30
0.0
 11
-9.5
 21
168.148595
 31
0.0
  0
LINE
  5
62FB
330
A
100
AcDbEntity
  8
0
  6
Continuous
 62
     9
100
AcDbLine
 10
53.0
 20
164.1485950000001
 30
0.0
 11
45.49999999999999
 21
164.1485950000001
 31
0.0
  0
LINE
  5
62FC
330
A
100
AcDbEntity
  8
0
  6
Continuous
 62
     9
100
AcDbLine
 10
45.49999999999999
 20
164.1485950000001
 30
0.0
 11
45.49999999999999
 21
168.148595
 31
0.0
  0
LINE
  5
62FD
330
A
100
AcDbEntity
  8
0
  6
Continuous
 62
     7
100
AcDbLine
 10
45.49999999999999
 20
168.148595
 30
0.0
 11
49.0
 21
168.148595
 31
0.0
  0
ARC
  5
62FE
330
A
100
AcDbEntity
  8
0
  6
Continuous
 62
     7
100
AcDbCircle
 10
49.0
 20
164.1485950000001
 30
0.0
 40
4.0
100
AcDbArc
 50
0.0
 51
90.0
  0
LINE
  5
62FF
330
A
100
AcDbEntity
  8
0
  6
Continuous
 62
     7
100
AcDbLine
 10
-9.5
 20
161.148595
 30
0.0
 11
-17.0
 21
161.148595
 31
0.0
  0
LINE
  5
6300
330
A
100
AcDbEntity
  8
0
  6
Continuous
 62
     7
100
AcDbLine
 10
-17.0
 20
161.148595
 30
0.0
 11
-17.0
 21
164.1485950000001
 31
0.0
  0
LINE
  5
6301
330
A
100
AcDbEntity
  8
0
  6
Continuous
 62
     9
100
AcDbLine
 10
-9.5
 20
164.1485950000001
 30
0.0
 11
-9.5
 21
161.148595
 31
0.0
  0
LINE
  5
6302
330
A
100
AcDbEntity
  8
0
  6
Continuous
 62
     7
100
AcDbLine
 10
-9.5
 20
161.148595
 30
0.0
 11
45.49999999999999
 21
161.148595
 31
0.0
  0
LINE
  5
6303
330
A
100
AcDbEntity
  8
0
  6
Continuous
 62
     9
100
AcDbLine
 10
45.49999999999999
 20
164.1485950000001
 30
0.0
 11
-9.5
 21
164.1485950000001
 31
0.0
  0
LINE
  5
6304
330
A
100
AcDbEntity
  8
0
  6
Continuous
 62
     9
100
AcDbLine
 10
45.49999999999999
 20
161.148595
 30
0.0
 11
45.49999999999999
 21
164.1485950000001
 31
0.0
  0
LINE
  5
6305
330
A
100
AcDbEntity
  8
0
  6
Continuous
 62
     7
100
AcDbLine
 10
53.0
 20
161.148595
 30
0.0
 11
45.49999999999999
 21
161.148595
 31
0.0
  0
LINE
  5
6306
330
A
100
AcDbEntity
  8
0
  6
Continuous
 62
     7
100
AcDbLine
 10
53.0
 20
164.1485950000001
 30
0.0
 11
53.0
 21
161.148595
 31
0.0
  0
LINE
  5
6307
330
A
100
AcDbEntity
  8
0
  6
Continuous
 62
     7
100
AcDbLine
 10
-9.5
 20
168.148595
 30
0.0
 11
45.49999999999999
 21
168.148595
 31
0.0
  0
ARC
  5
6308
330
A
100
AcDbEntity
  8
0
  6
Continuous
 62
     7
100
AcDbCircle
 10
40.0
 20
155.648595
 30
0.0
 40
4.099999999999996
100
AcDbArc
 50
282.6803830000015
 51
77.3196160000012
  0
ARC
  5
6309
330
A
100
AcDbEntity
  8
0
  6
Continuous
 62
     7
100
AcDbCircle
 10
40.0
 20
155.648595
 30
0.0
 40
4.099999999999996
100
AcDbArc
 50
102.6803830000014
 51
257.3196160000012
  0
LINE
  5
630A
330
A
100
AcDbEntity
  8
0
  6
Continuous
 62
     7
100
AcDbLine
 10
53.0
 20
150.6485950000002
 30
0.0
 11
50.5
 21
150.6485950000002
 31
0.0
  0
LINE
  5
630B
330
A
100
AcDbEntity
  8
0
  6
Continuous
 62
     7
100
AcDbLine
 10
8.875
 20
159.648595
 30
0.0
 11
8.875
 21
151.6485950000001
 31
0.0
  0
LINE
  5
630C
330
A
100
AcDbEntity
  8
0
  6
Continuous
 62
     7
100
AcDbLine
 10
53.0
 20
161.148595
 30
0.0
 11
53.0
 21
150.6485950000002
 31
0.0
  0
ARC
  5
630D
330
A
100
AcDbEntity
  8
0
  6
Continuous
 62
     7
100
AcDbCircle
 10
40.0
 20
155.648595
 30
0.0
 40
4.009999999999998
100
AcDbArc
 50
345.6531140000006
 51
357.8640440000007
  0
ARC
  5
630E
330
A
100
AcDbEntity
  8
0
  6
Continuous
 62
     7
100
AcDbCircle
 10
40.0
 20
155.648595
 30
0.0
 40
4.009999999999998
100
AcDbArc
 50
325.6598669999977
 51
337.8611049999994
  0
ARC
  5
630F
330
A
100
AcDbEntity
  8
0
  6
Continuous
 62
     7
100
AcDbCircle
 10
40.0
 20
155.648595
 30
0.0
 40
4.009999999999998
100
AcDbArc
 50
305.6468910000016
 51
317.8788450000023
  0
ARC
  5
6310
330
A
100
AcDbEntity
  8
0
  6
Continuous
 62
     7
100
AcDbCircle
 10
40.0
 20
155.648595
 30
0.0
 40
4.009999999999998
100
AcDbArc
 50
285.6531139999995
 51
297.8640439999997
  0
ARC
  5
6311
330
A
100
AcDbEntity
  8
0
  6
Continuous
 62
     7
100
AcDbCircle
 10
40.0
 20
155.648595
 30
0.0
 40
4.009999999999998
100
AcDbArc
 50
274.0472099999989
 51
277.8611049999998
  0
ARC
  5
6312
330
A
100
AcDbEntity
  8
0
  6
Continuous
 62
     7
100
AcDbCircle
 10
40.0
 20
155.648595
 30
0.0
 40
4.009999999999998
100
AcDbArc
 50
245.6468909999993
 51
257.8788450000004
  0
ARC
  5
6313
330
A
100
AcDbEntity
  8
0
  6
Continuous
 62
     7
100
AcDbCircle
 10
40.0
 20
155.648595
 30
0.0
 40
4.009999999999998
100
AcDbArc
 50
225.6531140000016
 51
237.8640440000014
  0
ARC
  5
6314
330
A
100
AcDbEntity
  8
0
  6
Continuous
 62
     7
100
AcDbCircle
 10
40.0
 20
155.648595
 30
0.0
 40
4.009999999999998
100
AcDbArc
 50
205.659867
 51
217.861105000001
  0
ARC
  5
6315
330
A
100
AcDbEntity
  8
0
  6
Continuous
 62
     7
100
AcDbCircle
 10
40.0
 20
155.648595
 30
0.0
 40
4.009999999999998
100
AcDbArc
 50
185.6468909999993
 51
197.8788449999971
  0
ARC
  5
6316
330
A
100
AcDbEntity
  8
0
  6
Continuous
 62
     7
100
AcDbCircle
 10
40.0
 20
155.648595
 30
0.0
 40
4.009999999999998
100
AcDbArc
 50
165.6531140000006
 51
177.8640440000006
  0
ARC
  5
6317
330
A
100
AcDbEntity
  8
0
  6
Continuous
 62
     7
100
AcDbCircle
 10
40.0
 20
155.648595
 30
0.0
 40
4.009999999999998
100
AcDbArc
 50
145.6598669999977
 51
157.8611049999994
  0
ARC
  5
6318
330
A
100
AcDbEntity
  8
0
  6
Continuous
 62
     7
100
AcDbCircle
 10
40.0
 20
155.648595
 30
0.0
 40
4.009999999999998
100
AcDbArc
 50
125.6468910000015
 51
137.8788450000023
  0
ARC
  5
6319
330
A
100
AcDbEntity
  8
0
  6
Continuous
 62
     7
100
AcDbCircle
 10
40.0
 20
155.648595
 30
0.0
 40
4.009999999999998
100
AcDbArc
 50
105.6531139999994
 51
117.8640439999997
  0
ARC
  5
631A
330
A
100
AcDbEntity
  8
0
  6
Continuous
 62
     7
100
AcDbCircle
 10
40.0
 20
155.648595
 30
0.0
 40
4.009999999999998
100
AcDbArc
 50
94.04720999999886
 51
97.86110499999985
  0
ARC
  5
631B
330
A
100
AcDbEntity
  8
0
  6
Continuous
 62
     7
100
AcDbCircle
 10
40.0
 20
155.648595
 30
0.0
 40
4.009999999999998
100
AcDbArc
 50
65.64689099999926
 51
77.87884500000041
  0
ARC
  5
631C
330
A
100
AcDbEntity
  8
0
  6
Continuous
 62
     7
100
AcDbCircle
 10
40.0
 20
155.648595
 30
0.0
 40
4.009999999999998
100
AcDbArc
 50
45.65311400000161
 51
57.86404400000142
  0
ARC
  5
631D
330
A
100
AcDbEntity
  8
0
  6
Continuous
 62
     7
100
AcDbCircle
 10
40.0
 20
155.648595
 30
0.0
 40
4.009999999999998
100
AcDbArc
 50
25.65986699999997
 51
37.86110500000101
  0
ARC
  5
631E
330
A
100
AcDbEntity
  8
0
  6
Continuous
 62
     7
100
AcDbCircle
 10
40.0
 20
155.648595
 30
0.0
 40
4.009999999999998
100
AcDbArc
 50
5.646890999999307
 51
17.87884500000028
  0
ARC
  5
631F
330
A
100
AcDbEntity
  8
0
  6
Continuous
 62
     7
100
AcDbCircle
 10
42.00564499999996
 20
144.4277580000002
 30
0.0
 40
6.5
100
AcDbArc
 50
275.130423000001
 51
348.6504450000012
  0
ARC
  5
6320
330
A
100
AcDbEntity
  8
0
  6
Continuous
 62
     7
100
AcDbCircle
 10
42.40804899999988
 20
139.9457860000001
 30
0.0
 40
2.0
100
AcDbArc
 50
251.9364990000001
 51
275.130423000001
  0
ARC
  5
6321
330
A
100
AcDbEntity
  8
0
  6
Continuous
 62
     7
100
AcDbCircle
 10
40.00500000000011
 20
132.5777569999998
 30
0.0
 40
5.75
100
AcDbArc
 50
71.9364990000001
 51
105.722807
  0
ARC
  5
6322
330
A
100
AcDbEntity
  8
0
  6
Continuous
 62
     7
100
AcDbCircle
 10
37.90487699999995
 20
140.0377820000001
 30
0.0
 40
2.0
100
AcDbArc
 50
250.1112589999994
 51
285.722807
  0
ARC
  5
6323
330
A
100
AcDbEntity
  8
0
  6
Continuous
 62
     7
100
AcDbCircle
 10
43.00779800000009
 20
154.1431070000001
 30
0.0
 40
17.0
100
AcDbArc
 50
220.2959599999965
 51
250.1112589999994
  0
ARC
  5
6324
330
A
100
AcDbEntity
  8
0
  6
Continuous
 62
     7
100
AcDbCircle
 10
43.00779800000009
 20
157.1540830000001
 30
0.0
 40
17.0
100
AcDbArc
 50
109.8887400000008
 51
139.704040000001
  0
ARC
  5
6325
330
A
100
AcDbEntity
  8
0
  6
Continuous
 62
     7
100
AcDbCircle
 10
37.90487699999995
 20
171.2594080000002
 30
0.0
 40
2.0
100
AcDbArc
 50
74.27719300000003
 51
109.8887400000008
  0
ARC
  5
6326
330
A
100
AcDbEntity
  8
0
  6
Continuous
 62
     7
100
AcDbCircle
 10
40.00500000000011
 20
178.7194339999999
 30
0.0
 40
5.75
100
AcDbArc
 50
254.277193
 51
288.0635009999998
  0
ARC
  5
6327
330
A
100
AcDbEntity
  8
0
  6
Continuous
 62
     7
100
AcDbCircle
 10
42.40804899999988
 20
171.351405
 30
0.0
 40
2.0
100
AcDbArc
 50
84.86957699999903
 51
108.0635009999999
  0
ARC
  5
6328
330
A
100
AcDbEntity
  8
0
  6
Continuous
 62
     7
100
AcDbCircle
 10
42.00564499999996
 20
166.8694329999999
 30
0.0
 40
6.5
100
AcDbArc
 50
11.34955399999971
 51
84.86957699999903
  0
ARC
  5
6329
330
A
100
AcDbEntity
  8
0
  6
Continuous
 62
     7
100
AcDbCircle
 10
17.97982899999988
 20
143.5985950000002
 30
0.0
 40
0.5
100
AcDbArc
 50
270.0
 51
295.8419330000026
  0
ARC
  5
632A
330
A
100
AcDbEntity
  8
0
  6
Continuous
 62
     7
100
AcDbCircle
 10
8.020171000000116
 20
143.5985950000002
 30
0.0
 40
0.5
100
AcDbArc
 50
244.1580669999973
 51
270.0
  0
LINE
  5
632B
330
A
100
AcDbEntity
  8
0
  6
Continuous
 62
     7
100
AcDbLine
 10
26.20499999999993
 20
29.7999999999999
 30
0.0
 11
26.65380000000006
 21
29.7999999999999
 31
0.0
  0
LINE
  5
632C
330
A
100
AcDbEntity
  8
0
  6
Continuous
 62
     7
100
AcDbLine
 10
26.65380000000006
 20
29.50000000000017
 30
0.0
 11
26.20499999999993
 21
29.50000000000017
 31
0.0
  0
LINE
  5
632D
330
A
100
AcDbEntity
  8
0
  6
Continuous
 62
     7
100
AcDbLine
 10
26.65380000000006
 20
40.2000000000002
 30
0.0
 11
26.20499999999993
 21
40.2000000000002
 31
0.0
  0
LINE
  5
632E
330
A
100
AcDbEntity
  8
0
  6
Continuous
 62
     7
100
AcDbLine
 10
26.20499999999993
 20
40.50000000000017
 30
0.0
 11
26.65380000000006
 21
40.50000000000017
 31
0.0
  0
LINE
  5
632F
330
A
100
AcDbEntity
  8
0
  6
Continuous
 62
     9
100
AcDbLine
 10
48.2500030000001
 20
59.45000000000021
 30
0.0
 11
31.75000300000011
 21
59.45000000000021
 31
0.0
  0
LINE
  5
6330
330
A
100
AcDbEntity
  8
0
  6
Continuous
 62
     7
100
AcDbLine
 10
47.6500030000002
 20
60.0499999999999
 30
0.0
 11
32.35000300000002
 21
60.0499999999999
 31
0.0
  0
LINE
  5
6331
330
A
100
AcDbEntity
  8
0
  6
Continuous
 62
     7
100
AcDbLine
 10
26.20499999999993
 20
42.00000000000017
 30
0.0
 11
26.20499999999993
 21
28.00000000000017
 31
0.0
  0
LINE
  5
6332
330
A
100
AcDbEntity
  8
0
  6
Continuous
 62
     7
100
AcDbLine
 10
35.30000300000006
 20
28.95000000000022
 30
0.0
 11
44.70000300000015
 21
28.95000000000022
 31
0.0
  0
LINE
  5
6333
330
A
100
AcDbEntity
  8
0
  6
Continuous
 62
     7
100
AcDbLine
 10
44.70000300000015
 20
41.04999999999988
 30
0.0
 11
44.25879899999904
 21
41.04999999999988
 31
0.0
  0
LINE
  5
6334
330
A
100
AcDbEntity
  8
0
  6
Continuous
 62
     7
100
AcDbLine
 10
44.25879899999904
 20
41.04999999999988
 30
0.0
 11
35.30000300000006
 21
41.04999999999988
 31
0.0
  0
LINE
  5
6335
330
A
100
AcDbEntity
  8
0
  6
Continuous
 62
     9
100
AcDbLine
 10
41.0
 20
59.00000000000017
 30
0.0
 11
41.0
 21
41.10000000000018
 31
0.0
  0
LINE
  5
6336
330
A
100
AcDbEntity
  8
0
  6
Continuous
 62
     7
100
AcDbLine
 10
30.0
 20
41.10000000000018
 30
0.0
 11
30.0
 21
59.00000000000017
 31
0.0
  0
LINE
  5
6337
330
A
100
AcDbEntity
  8
0
  6
Continuous
 62
     7
100
AcDbLine
 10
41.0
 20
41.10000000000018
 30
0.0
 11
30.0
 21
41.10000000000018
 31
0.0
  0
LINE
  5
6338
330
A
100
AcDbEntity
  8
0
  6
Continuous
 62
     7
100
AcDbLine
 10
30.0
 20
59.00000000000017
 30
0.0
 11
41.0
 21
59.00000000000017
 31
0.0
  0
LINE
  5
6339
330
A
100
AcDbEntity
  8
0
  6
Continuous
 62
     7
100
AcDbLine
 10
30.0
 20
28.90000000000015
 30
0.0
 11
30.0
 21
10.99999999999994
 31
0.0
  0
LINE
  5
633A
330
A
100
AcDbEntity
  8
0
  6
Continuous
 62
     9
100
AcDbLine
 10
41.0
 20
28.90000000000015
 30
0.0
 11
41.0
 21
10.99999999999994
 31
0.0
  0
LINE
  5
633B
330
A
100
AcDbEntity
  8
0
  6
Continuous
 62
     7
100
AcDbLine
 10
41.0
 20
10.99999999999994
 30
0.0
 11
30.0
 21
10.99999999999994
 31
0.0
  0
LINE
  5
633C
330
A
100
AcDbEntity
  8
0
  6
Continuous
 62
     7
100
AcDbLine
 10
30.0
 20
28.90000000000015
 30
0.0
 11
41.0
 21
28.90000000000015
 31
0.0
  0
LINE
  5
6345
330
A
100
AcDbEntity
  8
0
  6
Continuous
 62
     7
100
AcDbLine
 10
55.80329299999993
 20
60.00000000000007
 30
0.0
 11
55.80329299999993
 21
77.50000000000017
 31
0.0
  0
LINE
  5
6346
330
A
100
AcDbEntity
  8
0
  6
Continuous
 62
     7
100
AcDbLine
 10
60.5
 20
77.50000000000017
 30
0.0
 11
55.80329299999993
 21
77.50000000000017
 31
0.0
  0
LINE
  5
6347
330
A
100
AcDbEntity
  8
0
  6
Continuous
 62
     7
100
AcDbLine
 10
60.5
 20
-7.499999999999829
 30
0.0
 11
60.5
 21
77.50000000000017
 31
0.0
  0
LINE
  5
6348
330
A
100
AcDbEntity
  8
0
  6
Continuous
 62
     7
100
AcDbLine
 10
60.5
 20
-7.499999999999829
 30
0.0
 11
55.80329299999993
 21
-7.499999999999829
 31
0.0
  0
LINE
  5
6349
330
A
100
AcDbEntity
  8
0
  6
Continuous
 62
     7
100
AcDbLine
 10
55.80329299999993
 20
10.00000000000005
 30
0.0
 11
55.80329299999993
 21
-7.499999999999829
 31
0.0
  0
ARC
  5
6355
330
A
100
AcDbEntity
  8
0
  6
Continuous
 62
     7
100
AcDbCircle
 10
46.79999999999995
 20
29.1000000000002
 30
0.0
 40
0.2
100
AcDbArc
 50
270.0
 51
329.9999999999995
  0
ARC
  5
6356
330
A
100
AcDbEntity
  8
0
  6
Continuous
 62
     7
100
AcDbCircle
 10
46.79999999999995
 20
40.90000000000014
 30
0.0
 40
0.2
100
AcDbArc
 50
30.00000000000055
 51
90.0
  0
LINE
  5
6357
330
A
100
AcDbEntity
  8
0
  6
Continuous
 62
     7
100
AcDbLine
 10
41.0
 20
41.10000000000018
 30
0.0
 11
46.79999999999995
 21
41.10000000000018
 31
0.0
  0
LINE
  5
6358
330
A
100
AcDbEntity
  8
0
  6
Continuous
 62
     7
100
AcDbLine
 10
41.0
 20
10.99999999999994
 30
0.0
 11
54.59193299999992
 21
10.99999999999994
 31
0.0
  0
LINE
  5
6359
330
A
100
AcDbEntity
  8
0
  6
Continuous
 62
     7
100
AcDbLine
 10
46.79999999999995
 20
28.90000000000015
 30
0.0
 11
41.0
 21
28.90000000000015
 31
0.0
  0
LINE
  5
635A
330
A
100
AcDbEntity
  8
0
  6
Continuous
 62
     7
100
AcDbLine
 10
41.0
 20
59.00000000000017
 30
0.0
 11
54.59193299999992
 21
59.00000000000017
 31
0.0
  0
LINE
  5
6366
330
A
100
AcDbEntity
  8
0
  6
Continuous
 62
     9
100
AcDbLine
 10
55.80329299999993
 20
60.00000000000007
 30
0.0
 11
55.29255300000023
 21
60.00000000000007
 31
0.0
  0
LINE
  5
6367
330
A
100
AcDbEntity
  8
0
  6
Continuous
 62
     9
100
AcDbLine
 10
55.29255300000023
 20
10.00000000000005
 30
0.0
 11
55.80329299999993
 21
10.00000000000005
 31
0.0
  0
LINE
  5
6374
330
A
100
AcDbEntity
  8
0
  6
Continuous
 62
     7
100
AcDbLine
 10
55.29255300000023
 20
-7.499999999999829
 30
0.0
 11
55.80329299999993
 21
-7.499999999999829
 31
0.0
  0
LINE
  5
6375
330
A
100
AcDbEntity
  8
0
  6
Continuous
 62
     7
100
AcDbLine
 10
55.29255300000023
 20
-7.499999999999829
 30
0.0
 11
55.29255300000023
 21
10.00000000000005
 31
0.0
  0
LINE
  5
6376
330
A
100
AcDbEntity
  8
0
  6
Continuous
 62
     7
100
AcDbLine
 10
55.29255300000023
 20
77.50000000000017
 30
0.0
 11
55.29255300000023
 21
60.00000000000007
 31
0.0
  0
LINE
  5
6377
330
A
100
AcDbEntity
  8
0
  6
Continuous
 62
     7
100
AcDbLine
 10
55.80329299999993
 20
77.50000000000017
 30
0.0
 11
55.29255300000023
 21
77.50000000000017
 31
0.0
  0
LINE
  5
6378
330
A
100
AcDbEntity
  8
0
  6
Continuous
 62
     7
100
AcDbLine
 10
-17.0
 20
-7.499999999999829
 30
0.0
 11
-17.0
 21
77.50000000000017
 31
0.0
  0
LINE
  5
6379
330
A
100
AcDbEntity
  8
0
  6
Continuous
 62
     9
100
AcDbLine
 10
-17.0
 20
77.50000000000017
 30
0.0
 11
-13.0
 21
77.50000000000017
 31
0.0
  0
LINE
  5
637A
330
A
100
AcDbEntity
  8
0
  6
Continuous
 62
     9
100
AcDbLine
 10
-13.0
 20
77.50000000000017
 30
0.0
 11
-13.0
 21
-7.499999999999829
 31
0.0
  0
LINE
  5
637B
330
A
100
AcDbEntity
  8
0
  6
Continuous
 62
     9
100
AcDbLine
 10
-17.0
 20
-7.499999999999829
 30
0.0
 11
-13.0
 21
-7.499999999999829
 31
0.0
  0
ARC
  5
637C
330
A
100
AcDbEntity
  8
0
  6
Continuous
 62
     7
100
AcDbCircle
 10
-9.5
 20
77.50000000000017
 30
0.0
 40
7.5
100
AcDbArc
 50
90.0
 51
180.0
  0
LINE
  5
637D
330
A
100
AcDbEntity
  8
0
  6
Continuous
 62
     9
100
AcDbLine
 10
-9.5
 20
85.00000000000005
 30
0.0
 11
-9.5
 21
81.00000000000006
 31
0.0
  0
ARC
  5
637E
330
A
100
AcDbEntity
  8
0
  6
Continuous
 62
     9
100
AcDbCircle
 10
-9.5
 20
77.50000000000017
 30
0.0
 40
3.5
100
AcDbArc
 50
90.0
 51
180.0
  0
ARC
  5
637F
330
A
100
AcDbEntity
  8
0
  6
Continuous
 62
     7
100
AcDbCircle
 10
-9.5
 20
-7.499999999999829
 30
0.0
 40
7.5
100
AcDbArc
 50
180.0
 51
270.0
  0
ARC
  5
6380
330
A
100
AcDbEntity
  8
0
  6
Continuous
 62
     9
100
AcDbCircle
 10
-9.5
 20
-7.499999999999829
 30
0.0
 40
3.5
100
AcDbArc
 50
180.0
 51
270.0
  0
LINE
  5
6381
330
A
100
AcDbEntity
  8
0
  6
Continuous
 62
     9
100
AcDbLine
 10
-9.5
 20
-14.99999999999994
 30
0.0
 11
-9.5
 21
-10.99999999999983
 31
0.0
  0
LINE
  5
6382
330
A
100
AcDbEntity
  8
0
  6
Continuous
 62
     7
100
AcDbLine
 10
28.5
 20
42.00000000000017
 30
0.0
 11
28.5
 21
60.30000000000011
 31
0.0
  0
LINE
  5
6383
330
A
100
AcDbEntity
  8
0
  6
Continuous
 62
     7
100
AcDbLine
 10
22.0
 20
42.00000000000017
 30
0.0
 11
28.5
 21
42.00000000000017
 31
0.0
  0
LINE
  5
6384
330
A
100
AcDbEntity
  8
0
  6
Continuous
 62
     7
100
AcDbLine
 10
22.0
 20
28.00000000000017
 30
0.0
 11
22.0
 21
42.00000000000017
 31
0.0
  0
LINE
  5
6385
330
A
100
AcDbEntity
  8
0
  6
Continuous
 62
     7
100
AcDbLine
 10
28.5
 20
28.00000000000017
 30
0.0
 11
22.0
 21
28.00000000000017
 31
0.0
  0
LINE
  5
6386
330
A
100
AcDbEntity
  8
0
  6
Continuous
 62
     7
100
AcDbLine
 10
28.5
 20
9.700000000000217
 30
0.0
 11
28.5
 21
28.00000000000017
 31
0.0
  0
LINE
  5
6387
330
A
100
AcDbEntity
  8
0
  6
Continuous
 62
     7
100
AcDbLine
 10
49.0
 20
9.700000000000217
 30
0.0
 11
28.5
 21
9.700000000000217
 31
0.0
  0
LINE
  5
6388
330
A
100
AcDbEntity
  8
0
  6
Continuous
 62
     9
100
AcDbLine
 10
49.0
 20
-7.499999999999829
 30
0.0
 11
49.0
 21
9.700000000000217
 31
0.0
  0
ARC
  5
6389
330
A
100
AcDbEntity
  8
0
  6
Continuous
 62
     9
100
AcDbCircle
 10
45.49999999999999
 20
-7.499999999999829
 30
0.0
 40
3.5
100
AcDbArc
 50
270.0
 51
0.0
  0
LINE
  5
638A
330
A
100
AcDbEntity
  8
0
  6
Continuous
 62
     9
100
AcDbLine
 10
-9.5
 20
-10.99999999999983
 30
0.0
 11
45.49999999999999
 21
-10.99999999999983
 31
0.0
  0
LINE
  5
638B
330
A
100
AcDbEntity
  8
0
  6
Continuous
 62
     9
100
AcDbLine
 10
45.49999999999999
 20
81.00000000000006
 30
0.0
 11
-9.5
 21
81.00000000000006
 31
0.0
  0
ARC
  5
638C
330
A
100
AcDbEntity
  8
0
  6
Continuous
 62
     9
100
AcDbCircle
 10
45.49999999999999
 20
77.50000000000017
 30
0.0
 40
3.5
100
AcDbArc
 50
0.0
 51
90.0
  0
LINE
  5
638D
330
A
100
AcDbEntity
  8
0
  6
Continuous
 62
     9
100
AcDbLine
 10
49.0
 20
60.30000000000011
 30
0.0
 11
49.0
 21
77.50000000000017
 31
0.0
  0
LINE
  5
638E
330
A
100
AcDbEntity
  8
0
  6
Continuous
 62
     7
100
AcDbLine
 10
28.5
 20
60.30000000000011
 30
0.0
 11
49.0
 21
60.30000000000011
 31
0.0
  0
LINE
  5
638F
330
A
100
AcDbEntity
  8
0
  6
Continuous
 62
     7
100
AcDbLine
 10
-9.5
 20
85.00000000000005
 30
0.0
 11
45.49999999999999
 21
85.00000000000005
 31
0.0
  0
LINE
  5
6390
330
A
100
AcDbEntity
  8
0
  6
Continuous
 62
     9
100
AcDbLine
 10
45.49999999999999
 20
81.00000000000006
 30
0.0
 11
45.49999999999999
 21
85.00000000000005
 31
0.0
  0
LINE
  5
6391
330
A
100
AcDbEntity
  8
0
  6
Continuous
 62
     7
100
AcDbLine
 10
45.49999999999999
 20
-14.99999999999994
 30
0.0
 11
-9.5
 21
-14.99999999999994
 31
0.0
  0
LINE
  5
6392
330
A
100
AcDbEntity
  8
0
  6
Continuous
 62
     9
100
AcDbLine
 10
45.49999999999999
 20
-14.99999999999994
 30
0.0
 11
45.49999999999999
 21
-10.99999999999983
 31
0.0
  0
ARC
  5
6393
330
A
100
AcDbEntity
  8
0
  6
Continuous
 62
     7
100
AcDbCircle
 10
45.49999999999999
 20
77.50000000000017
 30
0.0
 40
7.5
100
AcDbArc
 50
0.0
 51
90.0
  0
LINE
  5
6394
330
A
100
AcDbEntity
  8
0
  6
Continuous
 62
     9
100
AcDbLine
 10
49.0
 20
77.50000000000017
 30
0.0
 11
53.0
 21
77.50000000000017
 31
0.0
  0
ARC
  5
6395
330
A
100
AcDbEntity
  8
0
  6
Continuous
 62
     7
100
AcDbCircle
 10
45.49999999999999
 20
-7.499999999999829
 30
0.0
 40
7.5
100
AcDbArc
 50
270.0
 51
0.0
  0
LINE
  5
6396
330
A
100
AcDbEntity
  8
0
  6
Continuous
 62
     9
100
AcDbLine
 10
53.0
 20
-7.499999999999829
 30
0.0
 11
49.0
 21
-7.499999999999829
 31
0.0
  0
LINE
  5
6397
330
A
100
AcDbEntity
  8
0
  6
Continuous
 62
     7
100
AcDbLine
 10
53.0
 20
9.700000000000217
 30
0.0
 11
53.0
 21
-7.499999999999829
 31
0.0
  0
LINE
  5
6398
330
A
100
AcDbEntity
  8
0
  6
Continuous
 62
     7
100
AcDbLine
 10
49.0
 20
9.700000000000217
 30
0.0
 11
53.0
 21
9.700000000000217
 31
0.0
  0
LINE
  5
6399
330
A
100
AcDbEntity
  8
0
  6
Continuous
 62
     7
100
AcDbLine
 10
53.0
 20
77.50000000000017
 30
0.0
 11
53.0
 21
60.30000000000011
 31
0.0
  0
LINE
  5
639A
330
A
100
AcDbEntity
  8
0
  6
Continuous
 62
     7
100
AcDbLine
 10
53.0
 20
60.30000000000011
 30
0.0
 11
49.0
 21
60.30000000000011
 31
0.0
  0
LINE
  5
639B
330
A
100
AcDbEntity
  8
0
  6
Continuous
 62
     9
100
AcDbLine
 10
31.75000300000011
 20
10.54999999999989
 30
0.0
 11
42.86314200000014
 21
10.54999999999989
 31
0.0
  0
LINE
  5
639C
330
A
100
AcDbEntity
  8
0
  6
Continuous
 62
     9
100
AcDbLine
 10
42.86314200000014
 20
10.54999999999989
 30
0.0
 11
48.2500030000001
 21
10.54999999999989
 31
0.0
  0
LINE
  5
639D
330
A
100
AcDbEntity
  8
0
  6
Continuous
 62
     7
100
AcDbLine
 10
32.35000300000002
 20
9.950000000000217
 30
0.0
 11
42.65491399999996
 21
9.950000000000217
 31
0.0
  0
LINE
  5
639E
330
A
100
AcDbEntity
  8
0
  6
Continuous
 62
     7
100
AcDbLine
 10
42.65491399999996
 20
9.950000000000217
 30
0.0
 11
47.6500030000002
 21
9.950000000000217
 31
0.0
  0
LINE
  5
639F
330
A
100
AcDbEntity
  8
0
  6
Continuous
 62
     9
100
AcDbLine
 10
41.78790700000013
 20
29.00000000000017
 30
0.0
 11
41.78790700000013
 21
41.00000000000017
 31
0.0
  0
LINE
  5
63A0
330
A
100
AcDbEntity
  8
0
  6
Continuous
 62
     9
100
AcDbLine
 10
42.58689600000002
 20
41.00000000000017
 30
0.0
 11
42.58689600000002
 21
29.00000000000017
 31
0.0
  0
LINE
  5
63A1
330
A
100
AcDbEntity
  8
0
  6
Continuous
 62
     7
100
AcDbLine
 10
41.78790700000013
 20
41.00000000000017
 30
0.0
 11
42.58689600000002
 21
41.00000000000017
 31
0.0
  0
LINE
  5
63A2
330
A
100
AcDbEntity
  8
0
  6
Continuous
 62
     7
100
AcDbLine
 10
42.58689600000002
 20
29.00000000000017
 30
0.0
 11
41.78790700000013
 21
29.00000000000017
 31
0.0
  0
LINE
  5
63A3
330
A
100
AcDbEntity
  8
0
  6
Continuous
 62
     7
100
AcDbLine
 10
48.50430000000006
 20
41.00000000000017
 30
0.0
 11
48.50430000000006
 21
29.00000000000017
 31
0.0
  0
LINE
  5
63A4
330
A
100
AcDbEntity
  8
0
  6
Continuous
 62
     7
100
AcDbLine
 10
42.58689600000002
 20
41.00000000000017
 30
0.0
 11
48.50430000000006
 21
41.00000000000017
 31
0.0
  0
LINE
  5
63A5
330
A
100
AcDbEntity
  8
0
  6
Continuous
 62
     7
100
AcDbLine
 10
42.58689600000002
 20
29.00000000000017
 30
0.0
 11
48.50430000000006
 21
29.00000000000017
 31
0.0
  0
LINE
  5
63A6
330
A
100
AcDbEntity
  8
0
  6
Continuous
 62
     9
100
AcDbLine
 10
37.22448700000018
 20
29.00000000000017
 30
0.0
 11
37.22448700000018
 21
41.00000000000017
 31
0.0
  0
LINE
  5
63A7
330
A
100
AcDbEntity
  8
0
  6
Continuous
 62
     9
100
AcDbLine
 10
38.44684400000005
 20
41.00000000000017
 30
0.0
 11
38.44684400000005
 21
29.00000000000017
 31
0.0
  0
LINE
  5
63A8
330
A
100
AcDbEntity
  8
0
  6
Continuous
 62
     7
100
AcDbLine
 10
37.22448700000018
 20
41.00000000000017
 30
0.0
 11
38.44684400000005
 21
41.00000000000017
 31
0.0
  0
LINE
  5
63A9
330
A
100
AcDbEntity
  8
0
  6
Continuous
 62
     7
100
AcDbLine
 10
38.44684400000005
 20
29.00000000000017
 30
0.0
 11
37.22448700000018
 21
29.00000000000017
 31
0.0
  0
LINE
  5
63AA
330
A
100
AcDbEntity
  8
0
  6
Continuous
 62
     7
100
AcDbLine
 10
41.78790700000013
 20
41.00000000000017
 30
0.0
 11
38.44684400000005
 21
41.00000000000017
 31
0.0
  0
LINE
  5
63AB
330
A
100
AcDbEntity
  8
0
  6
Continuous
 62
     7
100
AcDbLine
 10
41.78790700000013
 20
29.00000000000017
 30
0.0
 11
38.44684400000005
 21
29.00000000000017
 31
0.0
  0
LINE
  5
63AC
330
A
100
AcDbEntity
  8
0
  6
Continuous
 62
     7
100
AcDbLine
 10
26.91000000000008
 20
29.00000000000017
 30
0.0
 11
26.91000000000008
 21
41.00000000000017
 31
0.0
  0
LINE
  5
63AD
330
A
100
AcDbEntity
  8
0
  6
Continuous
 62
     7
100
AcDbLine
 10
26.91000000000008
 20
41.00000000000017
 30
0.0
 11
37.22448700000018
 21
41.00000000000017
 31
0.0
  0
LINE
  5
63AE
330
A
100
AcDbEntity
  8
0
  6
Continuous
 62
     7
100
AcDbLine
 10
26.91000000000008
 20
29.00000000000017
 30
0.0
 11
37.22448700000018
 21
29.00000000000017
 31
0.0
  0
LINE
  5
63AF
330
A
100
AcDbEntity
  8
0
  6
Continuous
 62
     9
100
AcDbLine
 10
26.71455700000001
 20
41.00000000000017
 30
0.0
 11
26.71455700000001
 21
29.00000000000017
 31
0.0
  0
LINE
  5
63B0
330
A
100
AcDbEntity
  8
0
  6
Continuous
 62
     7
100
AcDbLine
 10
26.71455700000001
 20
41.00000000000017
 30
0.0
 11
26.91000000000008
 21
41.00000000000017
 31
0.0
  0
LINE
  5
63B1
330
A
100
AcDbEntity
  8
0
  6
Continuous
 62
     7
100
AcDbLine
 10
26.71455700000001
 20
29.00000000000017
 30
0.0
 11
26.91000000000008
 21
29.00000000000017
 31
0.0
  0
LINE
  5
63B2
330
A
100
AcDbEntity
  8
0
  6
Continuous
 62
     7
100
AcDbLine
 10
26.65380000000006
 20
41.00000000000017
 30
0.0
 11
26.71455700000001
 21
41.00000000000017
 31
0.0
  0
LINE
  5
63B3
330
A
100
AcDbEntity
  8
0
  6
Continuous
 62
     7
100
AcDbLine
 10
26.71455700000001
 20
29.00000000000017
 30
0.0
 11
26.65380000000006
 21
29.00000000000017
 31
0.0
  0
LINE
  5
63B4
330
A
100
AcDbEntity
  8
0
  6
Continuous
 62
     7
100
AcDbLine
 10
48.2500030000001
 20
59.00000000000017
 30
0.0
 11
48.2500030000001
 21
59.45000000000021
 31
0.0
  0
LINE
  5
63B5
330
A
100
AcDbEntity
  8
0
  6
Continuous
 62
     7
100
AcDbLine
 10
31.75000300000011
 20
59.45000000000021
 30
0.0
 11
31.75000300000011
 21
59.00000000000017
 31
0.0
  0
ARC
  5
63B6
330
A
100
AcDbEntity
  8
0
  6
Continuous
 62
     7
100
AcDbCircle
 10
47.6500030000002
 20
59.45000000000021
 30
0.0
 40
0.6
100
AcDbArc
 50
0.0
 51
90.0
  0
ARC
  5
63B7
330
A
100
AcDbEntity
  8
0
  6
Continuous
 62
     7
100
AcDbCircle
 10
32.35000300000002
 20
59.45000000000021
 30
0.0
 40
0.6
100
AcDbArc
 50
90.0
 51
180.0
  0
LINE
  5
63B8
330
A
100
AcDbEntity
  8
0
  6
Continuous
 62
     7
100
AcDbLine
 10
44.75000300000011
 20
28.90000000000015
 30
0.0
 11
44.70000300000015
 21
28.95000000000022
 31
0.0
  0
LINE
  5
63B9
330
A
100
AcDbEntity
  8
0
  6
Continuous
 62
     7
100
AcDbLine
 10
35.30000300000006
 20
28.95000000000022
 30
0.0
 11
35.25000300000011
 21
28.90000000000015
 31
0.0
  0
LINE
  5
63BA
330
A
100
AcDbEntity
  8
0
  6
Continuous
 62
     7
100
AcDbLine
 10
35.25000300000011
 20
41.10000000000018
 30
0.0
 11
35.30000300000006
 21
41.04999999999988
 31
0.0
  0
LINE
  5
63BB
330
A
100
AcDbEntity
  8
0
  6
Continuous
 62
     7
100
AcDbLine
 10
44.70000300000015
 20
41.04999999999988
 30
0.0
 11
44.75000300000011
 21
41.10000000000018
 31
0.0
  0
LINE
  5
63BC
330
A
100
AcDbEntity
  8
0
  6
Continuous
 62
     7
100
AcDbLine
 10
44.0
 20
9.700000000000217
 30
0.0
 11
44.0
 21
9.950000000000217
 31
0.0
  0
LINE
  5
63BD
330
A
100
AcDbEntity
  8
0
  6
Continuous
 62
     7
100
AcDbLine
 10
44.0
 20
28.95000000000022
 30
0.0
 11
44.0
 21
29.00000000000017
 31
0.0
  0
LINE
  5
63BE
330
A
100
AcDbEntity
  8
0
  6
Continuous
 62
     7
100
AcDbLine
 10
44.0
 20
41.00000000000017
 30
0.0
 11
44.0
 21
41.04999999999988
 31
0.0
  0
LINE
  5
63BF
330
A
100
AcDbEntity
  8
0
  6
Continuous
 62
     7
100
AcDbLine
 10
44.0
 20
60.0499999999999
 30
0.0
 11
44.0
 21
60.30000000000011
 31
0.0
  0
LINE
  5
63C0
330
A
100
AcDbEntity
  8
0
  6
Continuous
 62
     7
100
AcDbLine
 10
36.0
 20
60.30000000000011
 30
0.0
 11
36.0
 21
60.0499999999999
 31
0.0
  0
LINE
  5
63C1
330
A
100
AcDbEntity
  8
0
  6
Continuous
 62
     7
100
AcDbLine
 10
36.0
 20
41.04999999999988
 30
0.0
 11
36.0
 21
41.00000000000017
 31
0.0
  0
LINE
  5
63C2
330
A
100
AcDbEntity
  8
0
  6
Continuous
 62
     7
100
AcDbLine
 10
36.0
 20
29.00000000000017
 30
0.0
 11
36.0
 21
28.95000000000022
 31
0.0
  0
LINE
  5
63C3
330
A
100
AcDbEntity
  8
0
  6
Continuous
 62
     7
100
AcDbLine
 10
36.0
 20
9.950000000000217
 30
0.0
 11
36.0
 21
9.700000000000217
 31
0.0
  0
LINE
  5
63C4
330
A
100
AcDbEntity
  8
0
  6
Continuous
 62
     7
100
AcDbLine
 10
31.75000300000011
 20
10.99999999999994
 30
0.0
 11
31.75000300000011
 21
10.54999999999989
 31
0.0
  0
LINE
  5
63C5
330
A
100
AcDbEntity
  8
0
  6
Continuous
 62
     7
100
AcDbLine
 10
48.2500030000001
 20
10.54999999999989
 30
0.0
 11
48.2500030000001
 21
10.99999999999994
 31
0.0
  0
ARC
  5
63C6
330
A
100
AcDbEntity
  8
0
  6
Continuous
 62
     7
100
AcDbCircle
 10
32.35000300000002
 20
10.54999999999989
 30
0.0
 40
0.6
100
AcDbArc
 50
180.0
 51
270.0
  0
ARC
  5
63C7
330
A
100
AcDbEntity
  8
0
  6
Continuous
 62
     7
100
AcDbCircle
 10
47.6500030000002
 20
10.54999999999989
 30
0.0
 40
0.6
100
AcDbArc
 50
270.0
 51
0.0
  0
LINE
  5
63C8
330
A
100
AcDbEntity
  8
0
  6
Continuous
 62
     7
100
AcDbLine
 10
26.65380000000006
 20
41.00000000000017
 30
0.0
 11
26.65380000000006
 21
29.00000000000017
 31
0.0
  0
TEXT
  5
7173
330
A
100
AcDbEntity
  8
0
  6
Continuous
 62
     7
370
     0
100
AcDbText
 10
80.07110313616385
 20
150.0073206442168
 30
0.0
 40
10.0
  1
8609
100
AcDbText
  0
ARC
  5
7174
330
A
100
AcDbEntity
  8
0
  6
Continuous
 62
     7
100
AcDbCircle
 10
139.4552356219062
 20
-92.45907860760679
 30
0.0
 40
2.48359628078499
100
AcDbArc
 50
283.9699743382441
 51
302.7774943782694
  0
LINE
  5
7175
330
A
100
AcDbEntity
  8
0
  6
Continuous
 62
     7
100
AcDbLine
 10
140.7998
 20
-94.54723499999966
 30
0.0
 11
140.9459609999999
 21
-94.43607999999985
 31
0.0
  0
LINE
  5
7176
330
A
100
AcDbEntity
  8
0
  6
Continuous
 62
     7
100
AcDbLine
 10
140.9459609999999
 20
-94.43607999999985
 30
0.0
 11
141.0619449999999
 21
-94.32510999999976
 31
0.0
  0
LINE
  5
7177
330
A
100
AcDbEntity
  8
0
  6
Continuous
 62
     7
100
AcDbLine
 10
141.0619449999999
 20
-94.32510999999976
 30
0.0
 11
141.1541320000001
 21
-94.2147009999998
 31
0.0
  0
LINE
  5
7178
330
A
100
AcDbEntity
  8
0
  6
Continuous
 62
     7
100
AcDbLine
 10
141.1541320000001
 20
-94.2147009999998
 30
0.0
 11
141.227488
 21
-94.10407599999979
 31
0.0
  0
LINE
  5
7179
330
A
100
AcDbEntity
  8
0
  6
Continuous
 62
     7
100
AcDbLine
 10
141.227488
 20
-94.10407599999979
 30
0.0
 11
141.24125
 21
-94.07996199999997
 31
0.0
  0
LINE
  5
717A
330
A
100
AcDbEntity
  8
0
  6
Continuous
 62
     7
100
AcDbLine
 10
157.5045379999999
 20
-108.6479529999998
 30
0.0
 11
157.5494390000001
 21
-108.6580779999998
 31
0.0
  0
LINE
  5
717B
330
A
100
AcDbEntity
  8
0
  6
Continuous
 62
     7
100
AcDbLine
 10
157.5494390000001
 20
-108.6580779999998
 30
0.0
 11
157.5943019999999
 21
-108.6701199999998
 31
0.0
  0
LINE
  5
717C
330
A
100
AcDbEntity
  8
0
  6
Continuous
 62
     7
100
AcDbLine
 10
157.5943019999999
 20
-108.6701199999998
 30
0.0
 11
157.6390039999999
 21
-108.6840609999998
 31
0.0
  0
LINE
  5
717D
330
A
100
AcDbEntity
  8
0
  6
Continuous
 62
     7
100
AcDbLine
 10
157.6390039999999
 20
-108.6840609999998
 30
0.0
 11
157.6834229999999
 21
-108.699884
 31
0.0
  0
LINE
  5
717E
330
A
100
AcDbEntity
  8
0
  6
Continuous
 62
     7
100
AcDbLine
 10
157.6834229999999
 20
-108.699884
 30
0.0
 11
157.728898
 21
-108.7181889999996
 31
0.0
  0
LINE
  5
717F
330
A
100
AcDbEntity
  8
0
  6
Continuous
 62
     7
100
AcDbLine
 10
157.728898
 20
-108.7181889999996
 30
0.0
 11
157.7739739999997
 21
-108.738519
 31
0.0
  0
LINE
  5
7180
330
A
100
AcDbEntity
  8
0
  6
Continuous
 62
     7
100
AcDbLine
 10
157.7739739999997
 20
-108.738519
 30
0.0
 11
157.8184949999999
 21
-108.7608439999999
 31
0.0
  0
LINE
  5
7181
330
A
100
AcDbEntity
  8
0
  6
Continuous
 62
     7
100
AcDbLine
 10
157.8184949999999
 20
-108.7608439999999
 30
0.0
 11
157.8623090000001
 21
-108.7851339999998
 31
0.0
  0
LINE
  5
7182
330
A
100
AcDbEntity
  8
0
  6
Continuous
 62
     7
100
AcDbLine
 10
157.8623090000001
 20
-108.7851339999998
 30
0.0
 11
157.9068339999999
 21
-108.8123589999998
 31
0.0
  0
LINE
  5
7183
330
A
100
AcDbEntity
  8
0
  6
Continuous
 62
     7
100
AcDbLine
 10
157.9068339999999
 20
-108.8123589999998
 30
0.0
 11
157.9504219999999
 21
-108.841703
 31
0.0
  0
LINE
  5
7184
330
A
100
AcDbEntity
  8
0
  6
Continuous
 62
     7
100
AcDbLine
 10
157.9504219999999
 20
-108.841703
 30
0.0
 11
157.9928670000001
 21
-108.8731039999999
 31
0.0
  0
LINE
  5
7185
330
A
100
AcDbEntity
  8
0
  6
Continuous
 62
     7
100
AcDbLine
 10
157.9928670000001
 20
-108.8731039999999
 30
0.0
 11
158.024703
 21
-108.898694
 31
0.0
  0
LINE
  5
7186
330
A
100
AcDbEntity
  8
0
  6
Continuous
 62
     7
100
AcDbLine
 10
158.024703
 20
-108.898694
 30
0.0
 11
158.0557420000002
 21
-108.9255089999998
 31
0.0
  0
LINE
  5
7187
330
A
100
AcDbEntity
  8
0
  6
Continuous
 62
     7
100
AcDbLine
 10
158.0557420000002
 20
-108.9255089999998
 30
0.0
 11
158.085873
 21
-108.9534989999999
 31
0.0
  0
LINE
  5
7188
330
A
100
AcDbEntity
  8
0
  6
Continuous
 62
     7
100
AcDbLine
 10
158.085873
 20
-108.9534989999999
 30
0.0
 11
158.1149870000001
 21
-108.982615
 31
0.0
  0
LINE
  5
7189
330
A
100
AcDbEntity
  8
0
  6
Continuous
 62
     7
100
AcDbLine
 10
158.1149870000001
 20
-108.982615
 30
0.0
 11
158.1453920000001
 21
-109.01552
 31
0.0
  0
LINE
  5
718A
330
A
100
AcDbEntity
  8
0
  6
Continuous
 62
     7
100
AcDbLine
 10
158.1453920000001
 20
-109.01552
 30
0.0
 11
158.174432
 21
-109.0497219999998
 31
0.0
  0
LINE
  5
718B
330
A
100
AcDbEntity
  8
0
  6
Continuous
 62
     7
100
AcDbLine
 10
158.174432
 20
-109.0497219999998
 30
0.0
 11
158.2019489999998
 21
-109.0851169999998
 31
0.0
  0
LINE
  5
718C
330
A
100
AcDbEntity
  8
0
  6
Continuous
 62
     7
100
AcDbLine
 10
158.2019489999998
 20
-109.0851169999998
 30
0.0
 11
158.2220420000001
 21
-109.113178
 31
0.0
  0
LINE
  5
718D
330
A
100
AcDbEntity
  8
0
  6
Continuous
 62
     7
100
AcDbLine
 10
158.2220420000001
 20
-109.113178
 30
0.0
 11
158.2411300000001
 21
-109.1419129999998
 31
0.0
  0
LINE
  5
718E
330
A
100
AcDbEntity
  8
0
  6
Continuous
 62
     7
100
AcDbLine
 10
158.2411300000001
 20
-109.1419129999998
 30
0.0
 11
158.2591359999999
 21
-109.1712509999998
 31
0.0
  0
LINE
  5
718F
330
A
100
AcDbEntity
  8
0
  6
Continuous
 62
     7
100
AcDbLine
 10
158.2591359999999
 20
-109.1712509999998
 30
0.0
 11
158.2759850000002
 21
-109.201123
 31
0.0
  0
LINE
  5
7190
330
A
100
AcDbEntity
  8
0
  6
Continuous
 62
     7
100
AcDbLine
 10
158.2759850000002
 20
-109.201123
 30
0.0
 11
158.2912530000001
 21
-109.2307399999998
 31
0.0
  0
LINE
  5
7191
330
A
100
AcDbEntity
  8
0
  6
Continuous
 62
     7
100
AcDbLine
 10
158.2912530000001
 20
-109.2307399999998
 30
0.0
 11
158.305345
 21
-109.2608229999999
 31
0.0
  0
LINE
  5
7192
330
A
100
AcDbEntity
  8
0
  6
Continuous
 62
     7
100
AcDbLine
 10
158.305345
 20
-109.2608229999999
 30
0.0
 11
158.3181969999998
 21
-109.2912829999999
 31
0.0
  0
LINE
  5
7193
330
A
100
AcDbEntity
  8
0
  6
Continuous
 62
     7
100
AcDbLine
 10
158.3181969999998
 20
-109.2912829999999
 30
0.0
 11
158.329745
 21
-109.32203
 31
0.0
  0
LINE
  5
7194
330
A
100
AcDbEntity
  8
0
  6
Continuous
 62
     7
100
AcDbLine
 10
158.329745
 20
-109.32203
 30
0.0
 11
158.3403089999999
 21
-109.3542149999997
 31
0.0
  0
LINE
  5
7195
330
A
100
AcDbEntity
  8
0
  6
Continuous
 62
     7
100
AcDbLine
 10
158.3403089999999
 20
-109.3542149999997
 30
0.0
 11
158.3493989999999
 21
-109.386641
 31
0.0
  0
LINE
  5
7196
330
A
100
AcDbEntity
  8
0
  6
Continuous
 62
     7
100
AcDbLine
 10
158.3493989999999
 20
-109.386641
 30
0.0
 11
158.3569649999999
 21
-109.4191829999999
 31
0.0
  0
LINE
  5
7197
330
A
100
AcDbEntity
  8
0
  6
Continuous
 62
     7
100
AcDbLine
 10
158.3569649999999
 20
-109.4191829999999
 30
0.0
 11
158.3629579999997
 21
-109.4517179999998
 31
0.0
  0
LINE
  5
7198
330
A
100
AcDbEntity
  8
0
  6
Continuous
 62
     7
100
AcDbLine
 10
158.3629579999997
 20
-109.4517179999998
 30
0.0
 11
158.366602
 21
-109.4777339999998
 31
0.0
  0
LINE
  5
7199
330
A
100
AcDbEntity
  8
0
  6
Continuous
 62
     7
100
AcDbLine
 10
158.366602
 20
-109.4777339999998
 30
0.0
 11
158.3692149999999
 21
-109.5036949999998
 31
0.0
  0
LINE
  5
719A
330
A
100
AcDbEntity
  8
0
  6
Continuous
 62
     7
100
AcDbLine
 10
158.3692149999999
 20
-109.5036949999998
 30
0.0
 11
158.370789
 21
-109.5295329999999
 31
0.0
  0
LINE
  5
719B
330
A
100
AcDbEntity
  8
0
  6
Continuous
 62
     7
100
AcDbLine
 10
158.370789
 20
-109.5295329999999
 30
0.0
 11
158.371316
 21
-109.5551799999998
 31
0.0
  0
LINE
  5
719C
330
A
100
AcDbEntity
  8
0
  6
Continuous
 62
     7
100
AcDbLine
 10
158.371316
 20
-73.04034299999978
 30
0.0
 11
158.3707429999999
 21
-73.0668549999998
 31
0.0
  0
LINE
  5
719D
330
A
100
AcDbEntity
  8
0
  6
Continuous
 62
     7
100
AcDbLine
 10
158.3707429999999
 20
-73.0668549999998
 30
0.0
 11
158.3690309999999
 21
-73.09310899999997
 31
0.0
  0
LINE
  5
719E
330
A
100
AcDbEntity
  8
0
  6
Continuous
 62
     7
100
AcDbLine
 10
158.3690309999999
 20
-73.09310899999997
 30
0.0
 11
158.366191
 21
-73.11903199999999
 31
0.0
  0
LINE
  5
719F
330
A
100
AcDbEntity
  8
0
  6
Continuous
 62
     7
100
AcDbLine
 10
158.366191
 20
-73.11903199999999
 30
0.0
 11
158.3622309999998
 21
-73.1445519999998
 31
0.0
  0
LINE
  5
71A0
330
A
100
AcDbEntity
  8
0
  6
Continuous
 62
     7
100
AcDbLine
 10
158.3622309999998
 20
-73.1445519999998
 30
0.0
 11
158.3569809999999
 21
-73.17042399999997
 31
0.0
  0
LINE
  5
71A1
330
A
100
AcDbEntity
  8
0
  6
Continuous
 62
     7
100
AcDbLine
 10
158.3569809999999
 20
-73.17042399999997
 30
0.0
 11
158.3505649999999
 21
-73.19582199999979
 31
0.0
  0
LINE
  5
71A2
330
A
100
AcDbEntity
  8
0
  6
Continuous
 62
     7
100
AcDbLine
 10
158.3505649999999
 20
-73.19582199999979
 30
0.0
 11
158.343014
 21
-73.22067799999985
 31
0.0
  0
LINE
  5
71A3
330
A
100
AcDbEntity
  8
0
  6
Continuous
 62
     7
100
AcDbLine
 10
158.343014
 20
-73.22067799999985
 30
0.0
 11
158.3343589999999
 21
-73.24492599999979
 31
0.0
  0
LINE
  5
71A4
330
A
100
AcDbEntity
  8
0
  6
Continuous
 62
     7
100
AcDbLine
 10
158.3343589999999
 20
-73.24492599999979
 30
0.0
 11
158.324936
 21
-73.26782399999984
 31
0.0
  0
LINE
  5
71A5
330
A
100
AcDbEntity
  8
0
  6
Continuous
 62
     7
100
AcDbLine
 10
158.324936
 20
-73.26782399999984
 30
0.0
 11
158.3145170000002
 21
-73.29012399999998
 31
0.0
  0
LINE
  5
71A6
330
A
100
AcDbEntity
  8
0
  6
Continuous
 62
     7
100
AcDbLine
 10
158.3145170000002
 20
-73.29012399999998
 30
0.0
 11
158.3031429999998
 21
-73.3117829999998
 31
0.0
  0
LINE
  5
71A7
330
A
100
AcDbEntity
  8
0
  6
Continuous
 62
     7
100
AcDbLine
 10
158.3031429999998
 20
-73.3117829999998
 30
0.0
 11
158.2908519999998
 21
-73.33275399999997
 31
0.0
  0
LINE
  5
71A8
330
A
100
AcDbEntity
  8
0
  6
Continuous
 62
     7
100
AcDbLine
 10
158.2908519999998
 20
-73.33275399999997
 30
0.0
 11
158.2725929999999
 21
-73.36032099999981
 31
0.0
  0
LINE
  5
71A9
330
A
100
AcDbEntity
  8
0
  6
Continuous
 62
     7
100
AcDbLine
 10
158.2725929999999
 20
-73.36032099999981
 30
0.0
 11
158.252739
 21
-73.38656499999984
 31
0.0
  0
LINE
  5
71AA
330
A
100
AcDbEntity
  8
0
  6
Continuous
 62
     7
100
AcDbLine
 10
158.252739
 20
-73.38656499999984
 30
0.0
 11
158.231407
 21
-73.41141199999981
 31
0.0
  0
LINE
  5
71AB
330
A
100
AcDbEntity
  8
0
  6
Continuous
 62
     7
100
AcDbLine
 10
158.231407
 20
-73.41141199999981
 30
0.0
 11
158.207642
 21
-73.43582499999995
 31
0.0
  0
LINE
  5
71AC
330
A
100
AcDbEntity
  8
0
  6
Continuous
 62
     7
100
AcDbLine
 10
158.207642
 20
-73.43582499999995
 30
0.0
 11
158.1823879999999
 21
-73.45871999999997
 31
0.0
  0
LINE
  5
71AD
330
A
100
AcDbEntity
  8
0
  6
Continuous
 62
     7
100
AcDbLine
 10
158.1823879999999
 20
-73.45871999999997
 30
0.0
 11
158.1557729999999
 21
-73.48006699999984
 31
0.0
  0
LINE
  5
71AE
330
A
100
AcDbEntity
  8
0
  6
Continuous
 62
     7
100
AcDbLine
 10
158.1557729999999
 20
-73.48006699999984
 30
0.0
 11
158.127923
 21
-73.49983699999995
 31
0.0
  0
LINE
  5
71AF
330
A
100
AcDbEntity
  8
0
  6
Continuous
 62
     7
100
AcDbLine
 10
158.127923
 20
-73.49983699999995
 30
0.0
 11
158.098966
 21
-73.51799799999998
 31
0.0
  0
LINE
  5
71B0
330
A
100
AcDbEntity
  8
0
  6
Continuous
 62
     7
100
AcDbLine
 10
158.098966
 20
-73.51799799999998
 30
0.0
 11
158.069029
 21
-73.53451999999987
 31
0.0
  0
LINE
  5
71B1
330
A
100
AcDbEntity
  8
0
  6
Continuous
 62
     7
100
AcDbLine
 10
158.069029
 20
-73.53451999999987
 30
0.0
 11
158.033212
 21
-73.55163099999998
 31
0.0
  0
LINE
  5
71B2
330
A
100
AcDbEntity
  8
0
  6
Continuous
 62
     7
100
AcDbLine
 10
158.033212
 20
-73.55163099999998
 30
0.0
 11
157.996157
 21
-73.56666999999998
 31
0.0
  0
LINE
  5
71B3
330
A
100
AcDbEntity
  8
0
  6
Continuous
 62
     7
100
AcDbLine
 10
157.996157
 20
-73.56666999999998
 30
0.0
 11
157.9580190000001
 21
-73.57964999999984
 31
0.0
  0
LINE
  5
71B4
330
A
100
AcDbEntity
  8
0
  6
Continuous
 62
     7
100
AcDbLine
 10
157.9580190000001
 20
-73.57964999999984
 30
0.0
 11
157.918952
 21
-73.59058099999981
 31
0.0
  0
LINE
  5
71B5
330
A
100
AcDbEntity
  8
0
  6
Continuous
 62
     7
100
AcDbLine
 10
157.918952
 20
-73.59058099999981
 30
0.0
 11
157.8991170000001
 21
-73.59530199999966
 31
0.0
  0
ARC
  5
71B6
330
A
100
AcDbEntity
  8
0
  6
Continuous
 62
     7
100
AcDbCircle
 10
53.81865427236379
 20
10.01982704819823
 30
0.0
 40
1.474032079422459
100
AcDbArc
 50
359.2292973428444
 51
21.81205100640793
  0
LINE
  5
71B7
330
A
100
AcDbEntity
  8
0
  6
Continuous
 62
     7
100
AcDbLine
 10
55.18715700000007
 20
10.56752300000022
 30
0.0
 11
55.13732300000015
 21
10.66458599999993
 31
0.0
  0
LINE
  5
71B8
330
A
100
AcDbEntity
  8
0
  6
Continuous
 62
     7
100
AcDbLine
 10
55.13732300000015
 20
10.66458599999993
 30
0.0
 11
55.07561099999998
 21
10.7532579999999
 31
0.0
  0
LINE
  5
71B9
330
A
100
AcDbEntity
  8
0
  6
Continuous
 62
     7
100
AcDbLine
 10
55.07561099999998
 20
10.7532579999999
 30
0.0
 11
55.00090599999907
 21
10.83170700000022
 31
0.0
  0
LINE
  5
71BA
330
A
100
AcDbEntity
  8
0
  6
Continuous
 62
     7
100
AcDbLine
 10
55.00090599999907
 20
10.83170700000022
 30
0.0
 11
54.91874600000007
 21
10.89375400000023
 31
0.0
  0
LINE
  5
71BB
330
A
100
AcDbEntity
  8
0
  6
Continuous
 62
     7
100
AcDbLine
 10
54.91874600000007
 20
10.89375400000023
 30
0.0
 11
54.82390199999986
 21
10.94327099999992
 31
0.0
  0
LINE
  5
71BC
330
A
100
AcDbEntity
  8
0
  6
Continuous
 62
     7
100
AcDbLine
 10
54.82390199999986
 20
10.94327099999992
 30
0.0
 11
54.71839499999919
 21
10.97784000000018
 31
0.0
  0
LINE
  5
71BD
330
A
100
AcDbEntity
  8
0
  6
Continuous
 62
     7
100
AcDbLine
 10
54.71839499999919
 20
10.97784000000018
 30
0.0
 11
54.60465399999998
 21
10.99643800000018
 31
0.0
  0
LINE
  5
71BE
330
A
100
AcDbEntity
  8
0
  6
Continuous
 62
     7
100
AcDbLine
 10
54.60465399999998
 20
10.99643800000018
 30
0.0
 11
54.52431299999989
 21
10.99999999999994
 31
0.0
  0
LINE
  5
71BF
330
A
100
AcDbEntity
  8
0
  6
Continuous
 62
     7
100
AcDbLine
 10
54.52431299999989
 20
59.00000000000017
 30
0.0
 11
54.65543999999977
 21
59.00974500000035
 31
0.0
  0
LINE
  5
71C0
330
A
100
AcDbEntity
  8
0
  6
Continuous
 62
     7
100
AcDbLine
 10
54.65543999999977
 20
59.00974500000035
 30
0.0
 11
54.78175899999996
 21
59.04063499999989
 31
0.0
  0
LINE
  5
71C1
330
A
100
AcDbEntity
  8
0
  6
Continuous
 62
     7
100
AcDbLine
 10
54.78175899999996
 20
59.04063499999989
 30
0.0
 11
54.89284499999985
 21
59.09066399999989
 31
0.0
  0
LINE
  5
71C2
330
A
100
AcDbEntity
  8
0
  6
Continuous
 62
     7
100
AcDbLine
 10
54.89284499999985
 20
59.09066399999989
 30
0.0
 11
54.99301100000002
 21
59.16137399999996
 31
0.0
  0
LINE
  5
71C3
330
A
100
AcDbEntity
  8
0
  6
Continuous
 62
     7
100
AcDbLine
 10
54.99301100000002
 20
59.16137399999996
 30
0.0
 11
55.07764899999983
 21
59.24925899999998
 31
0.0
  0
LINE
  5
71C4
330
A
100
AcDbEntity
  8
0
  6
Continuous
 62
     7
100
AcDbLine
 10
55.07764899999983
 20
59.24925899999998
 30
0.0
 11
55.14868599999999
 21
59.35506099999992
 31
0.0
  0
LINE
  5
71C5
330
A
100
AcDbEntity
  8
0
  6
Continuous
 62
     7
100
AcDbLine
 10
55.14868599999999
 20
59.35506099999992
 30
0.0
 11
55.19534799999997
 21
59.45166799999999
 31
0.0
  0
ARC
  5
71C6
330
A
100
AcDbEntity
  8
0
  6
Continuous
 62
     7
100
AcDbCircle
 10
53.85142394430909
 20
59.97269273493866
 30
0.0
 40
1.441387748623674
100
AcDbArc
 50
338.8092299482662
 51
1.085540409160919
  0
ARC
  5
71C7
330
A
100
AcDbEntity
  8
0
  6
Continuous
 62
     7
100
AcDbCircle
 10
54.60942881179811
 20
9.642857355422904
 30
0.0
 40
1.357255414857517
100
AcDbArc
 50
51.99875087162475
 51
90.73859638230809
  0
LINE
  5
71C8
330
A
100
AcDbEntity
  8
0
  6
Continuous
 62
     7
100
AcDbLine
 10
55.445062
 20
10.71237100000013
 30
0.0
 11
55.55165699999998
 21
10.61255499999998
 31
0.0
  0
LINE
  5
71C9
330
A
100
AcDbEntity
  8
0
  6
Continuous
 62
     7
100
AcDbLine
 10
55.55165699999998
 20
10.61255499999998
 30
0.0
 11
55.64345200000001
 21
10.49878999999993
 31
0.0
  0
LINE
  5
71CA
330
A
100
AcDbEntity
  8
0
  6
Continuous
 62
     7
100
AcDbLine
 10
55.64345200000001
 20
10.49878999999993
 30
0.0
 11
55.71164299999987
 21
10.3833160000002
 31
0.0
  0
LINE
  5
71CB
330
A
100
AcDbEntity
  8
0
  6
Continuous
 62
     7
100
AcDbLine
 10
55.71164299999987
 20
10.3833160000002
 30
0.0
 11
55.76062600000023
 21
10.26400000000018
 31
0.0
  0
LINE
  5
71CC
330
A
100
AcDbEntity
  8
0
  6
Continuous
 62
     7
100
AcDbLine
 10
55.76062600000023
 20
10.26400000000018
 30
0.0
 11
55.79161200000021
 21
10.1393349999999
 31
0.0
  0
LINE
  5
71CD
330
A
100
AcDbEntity
  8
0
  6
Continuous
 62
     7
100
AcDbLine
 10
55.79161200000021
 20
10.1393349999999
 30
0.0
 11
55.80255699999998
 21
10.03497100000021
 31
0.0
  0
LINE
  5
71CE
330
A
100
AcDbEntity
  8
0
  6
Continuous
 62
     7
100
AcDbLine
 10
55.80255699999998
 20
10.03497100000021
 30
0.0
 11
55.80329299999993
 21
10.00000000000005
 31
0.0
  0
LINE
  5
71CF
330
A
100
AcDbEntity
  8
0
  6
Continuous
 62
     7
100
AcDbLine
 10
55.80329299999993
 20
60.00000000000007
 30
0.0
 11
55.79355100000021
 21
59.87348899999989
 31
0.0
  0
LINE
  5
71D0
330
A
100
AcDbEntity
  8
0
  6
Continuous
 62
     7
100
AcDbLine
 10
55.79355100000021
 20
59.87348899999989
 30
0.0
 11
55.7650920000001
 21
59.74956100000037
 31
0.0
  0
LINE
  5
71D1
330
A
100
AcDbEntity
  8
0
  6
Continuous
 62
     7
100
AcDbLine
 10
55.7650920000001
 20
59.74956100000037
 30
0.0
 11
55.71905399999991
 21
59.6318099999999
 31
0.0
  0
LINE
  5
71D2
330
A
100
AcDbEntity
  8
0
  6
Continuous
 62
     7
100
AcDbLine
 10
55.71905399999991
 20
59.6318099999999
 30
0.0
 11
55.6569260000001
 21
59.52129600000006
 31
0.0
  0
ARC
  5
71D3
330
A
100
AcDbEntity
  8
0
  6
Continuous
 62
     7
100
AcDbCircle
 10
54.635439648697
 20
60.25964045094628
 30
0.0
 40
1.260391563817164
100
AcDbArc
 50
268.0218507379016
 51
324.1400768113128
  0
LINE
  5
7819
330
A
100
AcDbEntity
  8
0
  6
CENTER
 62
     1
100
AcDbLine
 10
53.0
 20
73.49999999999993
 30
0.0
 11
12.35920709430775
 21
73.49999999999993
 31
0.0
  0
LINE
  5
781E
330
A
100
AcDbEntity
  8
0
  6
CENTER
 62
     1
100
AcDbLine
 10
-10.0
 20
0.0000000000001705
 30
0.0
 11
-10.0
 21
70.00000000000017
 31
0.0
  0
LINE
  5
781F
330
A
100
AcDbEntity
  8
0
  6
CENTER
 62
     1
100
AcDbLine
 10
-15.0
 20
70.00000000000017
 30
0.0
 11
15.0
 21
70.00000000000017
 31
0.0
  0
LINE
  5
7820
330
A
100
AcDbEntity
  8
0
  6
CENTER
 62
     1
100
AcDbLine
 10
0.0
 20
55.00000000000017
 30
0.0
 11
0.0
 21
85.00000000000005
 31
0.0
  0
LINE
  5
7821
330
A
100
AcDbEntity
  8
0
  6
CENTER
 62
     1
100
AcDbLine
 10
-15.0
 20
0.0000000000001705
 30
0.0
 11
15.0
 21
0.0000000000001705
 31
0.0
  0
LINE
  5
7822
330
A
100
AcDbEntity
  8
0
  6
CENTER
 62
     1
100
AcDbLine
 10
0.0
 20
-14.99999999999994
 30
0.0
 11
0.0
 21
14.99999999999994
 31
0.0
  0
ARC
  5
78E1
330
A
100
AcDbEntity
  8
0
  6
CENTER
 62
     1
100
AcDbCircle
 10
0.0
 20
70.00000000000017
 30
0.0
 40
10.0
100
AcDbArc
 50
34.51810784105952
 51
180.0
  0
ARC
  5
78E2
330
A
100
AcDbEntity
  8
0
  6
CENTER
 62
     1
100
AcDbCircle
 10
12.35920709430775
 20
78.49999999999993
 30
0.0
 40
5.0
100
AcDbArc
 50
214.5181078410595
 51
270.0
  0
LINE
  5
78E3
330
A
100
AcDbEntity
  8
0
  6
CENTER
 62
     1
100
AcDbLine
 10
53.0
 20
-3.499999999999714
 30
0.0
 11
12.35920709430775
 21
-3.499999999999714
 31
0.0
  0
ARC
  5
78E4
330
A
100
AcDbEntity
  8
0
  6
CENTER
 62
     1
100
AcDbCircle
 10
12.35920709430775
 20
-8.499999999999715
 30
0.0
 40
5.0
100
AcDbArc
 50
90.0
 51
145.4818921589431
  0
ARC
  5
78E5
330
A
100
AcDbEntity
  8
0
  6
CENTER
 62
     1
100
AcDbCircle
 10
0.0
 20
0.0000000000001705
 30
0.0
 40
10.0
100
AcDbArc
 50
180.0
 51
325.4818921589432
  0
ENDSEC
  0
SECTION
  2
OBJECTS
  0
DICTIONARY
  5
19
330
0
100
AcDbDictionary
281
     1
  3
ACAD_COLOR
350
3988
  3
ACAD_GROUP
350
1A
  3
ACAD_LAYOUT
350
1E
  3
ACAD_MATERIAL
350
395E
  3
ACAD_MLEADERSTYLE
350
39AD
  3
ACAD_MLINESTYLE
350
1B
  3
ACAD_PLOTSETTINGS
350
22
  3
ACAD_PLOTSTYLENAME
350
1F
  3
ACAD_SCALELIST
350
398B
  3
ACAD_TABLESTYLE
350
3989
  3
ACAD_VISUALSTYLE
350
3977
  3
ACAD_WIPEOUT_VARS
350
23
  3
ACDB_RECOMPOSE_DATA
350
72EC
  3
AcDbVariableDictionary
350
72CB
  3
ASE_INDEX_DICTIONARY
350
72C6
  3
DWGPROPS
350
7935
  0
DICTIONARY
  5
72C9
330
14
100
AcDbDictionary
280
     1
281
     1
  3
ADSK_XREC_LAYER_RECONCILED
360
72CA
  0
DICTIONARY
  5
39B7
330
A
100
AcDbDictionary
280
     1
281
     1
  3
ACAD_SORTENTS
360
39B8
  0
DICTIONARY
  5
3988
102
{ACAD_REACTORS
330
19
102
}
330
19
100
AcDbDictionary
281
     1
  0
DICTIONARY
  5
1A
102
{ACAD_REACTORS
330
19
102
}
330
19
100
AcDbDictionary
281
     1
  0
DICTIONARY
  5
1E
102
{ACAD_REACTORS
330
19
102
}
330
19
100
AcDbDictionary
281
     1
  3
Layout1
350
21
  3
Model
350
20
  0
DICTIONARY
  5
395E
102
{ACAD_REACTORS
330
19
102
}
330
19
100
AcDbDictionary
281
     1
  3
ByBlock
350
3967
  3
ByLayer
350
395F
  3
Global
350
396F
  0
DICTIONARY
  5
39AD
102
{ACAD_REACTORS
330
19
102
}
330
19
100
AcDbDictionary
281
     1
  3
Standard
350
39AE
  0
DICTIONARY
  5
1B
102
{ACAD_REACTORS
330
19
102
}
330
19
100
AcDbDictionary
281
     1
  3
Standard
350
1C
  0
DICTIONARY
  5
22
102
{ACAD_REACTORS
330
19
102
}
330
19
100
AcDbDictionary
281
     1
  0
ACDBDICTIONARYWDFLT
  5
1F
102
{ACAD_REACTORS
330
19
102
}
330
19
100
AcDbDictionary
281
     1
  3
Normal
350
1D
100
AcDbDictionaryWithDefault
340
1D
  0
DICTIONARY
  5
398B
102
{ACAD_REACTORS
330
19
102
}
330
19
100
AcDbDictionary
281
     1
  3
A0
350
398C
  3
A1
350
398D
  3
A2
350
398E
  3
A3
350
398F
  3
A4
350
3990
  3
A5
350
3991
  3
A6
350
3992
  3
A7
350
3993
  3
A8
350
3994
  3
A9
350
3995
  3
B0
350
3996
  3
B1
350
3997
  3
B2
350
3998
  3
B3
350
3999
  3
B4
350
399A
  3
B5
350
399B
  3
B6
350
399C
  3
B7
350
399D
  3
B8
350
399E
  3
B9
350
399F
  3
C0
350
39A0
  3
C1
350
39A1
  3
C2
350
39A2
  3
C3
350
39A3
  3
C4
350
39A4
  3
C5
350
39A5
  3
C6
350
39A6
  3
C7
350
39A7
  3
C8
350
39A8
  3
C9
350
39A9
  3
D0
350
39AA
  3
D1
350
39AB
  3
D2
350
39AC
  0
DICTIONARY
  5
3989
102
{ACAD_REACTORS
330
19
102
}
330
19
100
AcDbDictionary
281
     1
  3
Standard
350
398A
  0
DICTIONARY
  5
3977
102
{ACAD_REACTORS
330
19
102
}
330
19
100
AcDbDictionary
281
     1
  3
2dWireframe
350
397D
  3
3D Hidden
350
397F
  3
3dWireframe
350
397E
  3
Basic
350
397C
  3
Brighten
350
3983
  3
ColorChange
350
3987
  3
Conceptual
350
3980
  3
Dim
350
3982
  3
Facepattern
350
3986
  3
Flat
350
3978
  3
FlatWithEdges
350
3979
  3
Gouraud
350
397A
  3
GouraudWithEdges
350
397B
  3
Linepattern
350
3985
  3
Realistic
350
3981
  3
Thicken
350
3984
  0
WIPEOUTVARIABLES
  5
23
330
19
100
AcDbWipeoutVariables
 70
     1
  0
XRECORD
  5
72EC
102
{ACAD_REACTORS
330
19
102
}
330
19
100
AcDbXrecord
280
     1
 90
        1
330
398A
  0
DICTIONARY
  5
72CB
102
{ACAD_REACTORS
330
19
102
}
330
19
100
AcDbDictionary
281
     1
  3
CANNOSCALE
350
72CE
  3
CMLEADERSTYLE
350
72CD
  3
CTABLESTYLE
350
72CC
  3
DIMASSOC
350
72D1
  3
INDEXCTL
350
72D0
  3
SORTENTS
350
72CF
  0
DICTIONARY
  5
72C6
102
{ACAD_REACTORS
330
19
102
}
330
19
100
AcDbDictionary
281
     1
  3
ASEBlockHierarchyIndexRecord
350
72C8
1001
DCO15
1040
1687090590.691
  0
XRECORD
  5
7935
102
{ACAD_REACTORS
330
19
102
}
330
19
100
AcDbXrecord
280
     1
  1
DWGPROPS COOKIE
  2

  3

  4

  6

  7

  8
renzo.ceresoli
  9

300
=
301
=
302
=
303
=
304
=
305
=
306
=
307
=
308
=
309
=
 40
0.0439718981481482
 41
2455329.702198484
 42
2455383.401438437
  1

 90
        0
  0
XRECORD
  5
72CA
102
{ACAD_REACTORS
330
72C9
102
}
330
72C9
100
AcDbXrecord
280
     1
290
     1
  0
SORTENTSTABLE
  5
39B8
102
{ACAD_REACTORS
330
39B7
102
}
330
39B7
100
AcDbSortentsTable
330
A
331
7819
  5
7819
331
717C
  5
717C
331
719B
  5
719B
331
63A6
  5
44D1
331
63C5
  5
44F0
331
6349
  5
447E
331
630B
  5
45D1
331
632A
  5
45FC
331
62EC
  5
45B2
331
6387
  5
44B2
331
71BA
  5
71BA
331
719C
  5
719C
331
71BB
  5
71BB
331
63C6
  5
44F1
331
717D
  5
717D
331
632B
  5
4456
331
6388
  5
44B3
331
62ED
  5
45B3
331
630C
  5
45D2
331
63A7
  5
44D2
331
5FA8
  5
4769
331
717E
  5
717E
331
719D
  5
719D
331
63A8
  5
44D3
331
63C7
  5
44F2
331
630D
  5
45D3
331
632C
  5
4457
331
62EE
  5
45B4
331
6389
  5
44B4
331
71BC
  5
71BC
331
5FA9
  5
476A
331
5FC8
  5
4789
331
5F8A
  5
474B
331
719E
  5
719E
331
71BD
  5
71BD
331
63C8
  5
44F3
331
717F
  5
717F
331
632D
  5
4458
331
638A
  5
44B5
331
62EF
  5
45B5
331
630E
  5
45D4
331
63A9
  5
44D4
331
5FC9
  5
478A
331
5FE0
  5
47A1
331
5F8B
  5
474C
331
5FAA
  5
476B
331
71BE
  5
71BE
331
7180
  5
7180
331
63AA
  5
44D5
331
719F
  5
719F
331
630F
  5
45D5
331
632E
  5
4459
331
62F0
  5
45B6
331
638B
  5
44B6
331
6100
  5
46FA
331
5FAB
  5
476C
331
5FCA
  5
478B
331
5F8C
  5
474D
331
5FE1
  5
47A2
331
71A0
  5
71A0
331
71BF
  5
71BF
331
7181
  5
7181
331
632F
  5
445A
331
638C
  5
44B7
331
62F1
  5
45B7
331
6310
  5
45D6
331
63AB
  5
44D6
331
781E
  5
7820
331
6120
  5
471A
331
6101
  5
46FB
331
6050
  5
47D1
331
5FCB
  5
478C
331
5FE2
  5
47A3
331
5F8D
  5
474E
331
5FAC
  5
476D
331
11BE
  5
4897
331
71C0
  5
71C0
331
781F
  5
7821
331
7182
  5
7182
331
638D
  5
44B8
331
63AC
  5
44D7
331
6366
  5
449C
331
71A1
  5
71A1
331
6311
  5
45D7
331
6330
  5
445B
331
62F2
  5
45B8
331
6140
  5
473A
331
6102
  5
46FC
331
6121
  5
471B
331
6070
  5
47F1
331
5FE3
  5
47A4
331
5FAD
  5
476E
331
5FCC
  5
478D
331
11BF
  5
4898
331
5F8E
  5
474F
331
6051
  5
47D2
331
71A2
  5
71A2
331
71C1
  5
71C1
331
7183
  5
7183
331
6367
  5
449D
331
6331
  5
445C
331
638E
  5
44B9
331
62F3
  5
45B9
331
6312
  5
45D8
331
63AD
  5
44D8
331
6160
  5
467A
331
6122
  5
471C
331
6141
  5
473B
331
6103
  5
46FD
331
6088
  5
4809
331
6052
  5
47D3
331
5FCD
  5
478E
331
5FE4
  5
47A5
331
5F8F
  5
4750
331
5FAE
  5
476F
331
6071
  5
47F2
331
1189
  5
4862
331
11C0
  5
4899
331
71C2
  5
71C2
331
78E1
  5
78E1
331
7184
  5
7184
331
638F
  5
44BA
331
63AE
  5
44D9
331
71A3
  5
71A3
331
62F4
  5
45BA
331
6313
  5
45D9
331
6332
  5
445D
331
6178
  5
4692
331
6142
  5
473C
331
6161
  5
467B
331
6104
  5
46FE
331
6123
  5
471D
331
60A8
  5
4829
331
6072
  5
47F3
331
6089
  5
480A
331
5FE5
  5
47A6
331
5FAF
  5
4770
331
5FCE
  5
478F
331
118A
  5
4863
331
11C1
  5
489A
331
5F90
  5
4751
331
6053
  5
47D4
331
78E2
  5
78E2
331
71A4
  5
71A4
331
71C3
  5
71C3
331
63AF
  5
44DA
331
6333
  5
445E
331
6390
  5
44BB
331
7185
  5
7185
331
62F5
  5
45BB
331
6314
  5
45DA
331
6198
  5
46B2
331
6162
  5
467C
331
6179
  5
4693
331
6124
  5
471E
331
6143
  5
473D
331
6105
  5
46FF
331
608A
  5
480B
331
60A9
  5
482A
331
6054
  5
47D5
331
5FCF
  5
4790
331
5FE6
  5
47A7
331
5F91
  5
4752
331
5FB0
  5
4771
331
6073
  5
47F4
331
118B
  5
4864
331
11C2
  5
489B
331
71C4
  5
71C4
331
7186
  5
7186
331
6391
  5
44BC
331
63B0
  5
44DB
331
71A5
  5
71A5
331
62F6
  5
45BC
331
6315
  5
45DB
331
6334
  5
445F
331
617A
  5
4694
331
6199
  5
46B3
331
6144
  5
473E
331
6163
  5
467D
331
6106
  5
4700
331
6125
  5
471F
331
61B8
  5
46D2
331
60E8
  5
46E2
331
60AA
  5
482B
331
6074
  5
47F5
331
608B
  5
480C
331
5FE7
  5
47A8
331
6036
  5
47B7
331
5FB1
  5
4772
331
5FD0
  5
4791
331
118C
  5
4865
331
11C3
  5
489C
331
5F92
  5
4753
331
6055
  5
47D6
331
71A6
  5
71A6
331
71C5
  5
71C5
331
63B1
  5
44DC
331
6316
  5
45DC
331
6335
  5
4460
331
62F7
  5
45BD
331
6392
  5
44BD
331
7187
  5
7187
331
619A
  5
46B4
331
61B9
  5
46D3
331
6164
  5
467E
331
617B
  5
4695
331
6107
  5
4701
331
6126
  5
4720
331
6145
  5
473F
331
61D8
  5
4615
331
60CA
  5
4843
331
60E9
  5
46E3
331
608C
  5
480D
331
60AB
  5
482C
331
6037
  5
47B8
331
6056
  5
47D7
331
5FD1
  5
4792
331
5FE8
  5
47A9
331
11C4
  5
489D
331
5F93
  5
4754
331
118D
  5
4866
331
5FB2
  5
4773
331
6075
  5
47F6
331
71C6
  5
71C6
331
7188
  5
7188
331
6393
  5
44BE
331
63B2
  5
44DD
331
6355
  5
4480
331
6374
  5
449F
331
71A7
  5
71A7
331
62F8
  5
45BE
331
6317
  5
45DD
331
6336
  5
4461
331
61BA
  5
46D4
331
61D9
  5
4616
331
617C
  5
4696
331
619B
  5
46B5
331
6146
  5
4740
331
6165
  5
467F
331
61F0
  5
462D
331
6108
  5
4702
331
6127
  5
4721
331
60EA
  5
46E4
331
60AC
  5
482D
331
60CB
  5
4844
331
6057
  5
47D8
331
6076
  5
47F7
331
5FE9
  5
47AA
331
6038
  5
47B9
331
5FB3
  5
4774
331
5FD2
  5
4793
331
608D
  5
480E
331
118E
  5
4867
331
11C5
  5
489E
331
5F94
  5
4755
331
71A8
  5
71A8
331
71C7
  5
71C7
331
63B3
  5
44DE
331
6375
  5
44A0
331
6394
  5
44BF
331
6318
  5
45DE
331
6337
  5
4462
331
62F9
  5
45BF
331
6356
  5
448B
331
7189
  5
7189
331
61F1
  5
462E
331
6210
  5
464D
331
619C
  5
46B6
331
61BB
  5
46D5
331
6166
  5
4680
331
617D
  5
4697
331
6109
  5
4703
331
6128
  5
4722
331
6147
  5
4741
331
61DA
  5
4617
331
60CC
  5
4845
331
60EB
  5
46E5
331
608E
  5
480F
331
60AD
  5
482E
331
6039
  5
47BA
331
6058
  5
47D9
331
5FD3
  5
4794
331
5FEA
  5
47AB
331
11C6
  5
489F
331
5F95
  5
4756
331
118F
  5
4868
331
5FB4
  5
4775
331
6077
  5
47F8
331
71C8
  5
71C8
331
7173
  5
7173
331
718A
  5
718A
331
6395
  5
44C0
331
63B4
  5
44DF
331
6338
  5
446B
331
6357
  5
448C
331
62FA
  5
45C0
331
6319
  5
45DF
331
6376
  5
44A1
331
71A9
  5
71A9
331
6211
  5
464E
331
6230
  5
44F6
331
61BC
  5
46D6
331
61DB
  5
4618
331
617E
  5
4698
331
619D
  5
46B7
331
6129
  5
4723
331
6148
  5
4742
331
610A
  5
4704
331
6167
  5
4681
331
61F2
  5
462F
331
60EC
  5
46E6
331
60AE
  5
482F
331
60CD
  5
4846
331
6059
  5
47DA
331
6078
  5
47F9
331
5FEB
  5
47AC
331
603A
  5
47BB
331
5F96
  5
4757
331
5FB5
  5
4776
331
1190
  5
4869
331
11C7
  5
48A0
331
5FD4
  5
4795
331
608F
  5
4810
331
718B
  5
718B
331
71AA
  5
71AA
331
63B5
  5
44E0
331
7174
  5
7174
331
6377
  5
44A2
331
631A
  5
45E0
331
6339
  5
446C
331
62FB
  5
45C1
331
6396
  5
44C1
331
71C9
  5
71C9
331
6231
  5
44F7
331
6250
  5
4516
331
61DC
  5
4619
331
61F3
  5
4630
331
619E
  5
46B8
331
61BD
  5
46D7
331
6168
  5
4682
331
617F
  5
4699
331
6212
  5
464F
331
610B
  5
4705
331
612A
  5
4724
331
6149
  5
4743
331
60CE
  5
4847
331
60ED
  5
46E7
331
6079
  5
47FA
331
6090
  5
4811
331
603B
  5
47BC
331
605A
  5
47DB
331
5FD5
  5
4796
331
5FEC
  5
47AD
331
60AF
  5
4830
331
11C8
  5
48A1
331
5F97
  5
4758
331
5FB6
  5
4777
331
71CA
  5
71CA
331
7175
  5
7175
331
718C
  5
718C
331
6397
  5
44C2
331
63B6
  5
44E1
331
633A
  5
446D
331
62FC
  5
45C2
331
631B
  5
45E1
331
6378
  5
44A3
331
71AB
  5
71AB
331
6251
  5
4517
331
6268
  5
452E
331
6213
  5
4650
331
6232
  5
44F8
331
61BE
  5
46D8
331
61DD
  5
461A
331
6180
  5
469A
331
619F
  5
46B9
331
612B
  5
4725
331
614A
  5
4744
331
610C
  5
4706
331
6169
  5
4683
331
61F4
  5
4631
331
60EE
  5
46E8
331
60B0
  5
4831
331
60CF
  5
4848
331
605B
  5
47DC
331
607A
  5
47FB
331
5FED
  5
47AE
331
603C
  5
47BD
331
5F98
  5
4759
331
5FB7
  5
4778
331
11C9
  5
48A2
331
5FD6
  5
4797
331
6091
  5
4812
331
718D
  5
718D
331
71AC
  5
71AC
331
63B7
  5
44E2
331
7176
  5
7176
331
6379
  5
44A4
331
631C
  5
45E2
331
633B
  5
446E
331
62FD
  5
45C3
331
6398
  5
44C3
331
71CB
  5
71CB
331
6269
  5
452F
331
6288
  5
454E
331
6233
  5
44F9
331
6252
  5
4518
331
61DE
  5
461B
331
61F5
  5
4632
331
61A0
  5
46BA
331
61BF
  5
46D9
331
614B
  5
4745
331
616A
  5
4684
331
610D
  5
4707
331
612C
  5
4726
331
6181
  5
469B
331
6214
  5
4651
331
60D0
  5
4849
331
60EF
  5
46E9
331
607B
  5
47FC
331
6092
  5
4813
331
603D
  5
47BE
331
605C
  5
47DD
331
5FB8
  5
4779
331
5FD7
  5
4798
331
11CA
  5
48A3
331
5F99
  5
475A
331
5FEE
  5
47AF
331
60B1
  5
4832
331
71AD
  5
71AD
331
71CC
  5
71CC
331
7177
  5
7177
331
718E
  5
718E
331
6399
  5
44C4
331
63B8
  5
44E3
331
633C
  5
446F
331
62FE
  5
45C4
331
631D
  5
45E3
331
637A
  5
44A5
331
6289
  5
454F
331
62A8
  5
456E
331
6253
  5
4519
331
626A
  5
4530
331
61F6
  5
4633
331
6215
  5
4652
331
61C0
  5
45FD
331
61DF
  5
461C
331
6182
  5
469C
331
61A1
  5
46BB
331
6234
  5
44FA
331
612D
  5
4727
331
614C
  5
4746
331
610E
  5
4708
331
616B
  5
4685
331
60F0
  5
46EA
331
6093
  5
4814
331
60B2
  5
4833
331
605D
  5
47DE
331
607C
  5
47FD
331
5FEF
  5
47B0
331
603E
  5
47BF
331
60D1
  5
484A
331
5F9A
  5
475B
331
5FB9
  5
477A
331
11CB
  5
48A4
331
5FD8
  5
4799
331
718F
  5
718F
331
63B9
  5
44E4
331
71AE
  5
71AE
331
631E
  5
45E4
331
637B
  5
44A6
331
62FF
  5
45C5
331
639A
  5
44C5
331
71CD
  5
71CD
331
62A9
  5
456F
331
62C8
  5
458E
331
626B
  5
4531
331
628A
  5
4550
331
6235
  5
44FB
331
6254
  5
451A
331
61E0
  5
461D
331
61F7
  5
4634
331
61A2
  5
46BC
331
61C1
  5
45FE
331
614D
  5
4747
331
616C
  5
4686
331
610F
  5
4709
331
612E
  5
4728
331
6183
  5
469D
331
6216
  5
4653
331
60D2
  5
484B
331
60F1
  5
46EB
331
607D
  5
47FE
331
6094
  5
4815
331
603F
  5
47C0
331
5FBA
  5
477B
331
5FD9
  5
479A
331
11CC
  5
48A5
331
5F9B
  5
475C
331
605E
  5
47DF
331
60B3
  5
4834
331
71AF
  5
71AF
331
71CE
  5
71CE
331
7190
  5
7190
331
637C
  5
44A7
331
639B
  5
44C6
331
631F
  5
45E5
331
63BA
  5
44E5
331
628B
  5
4551
331
62AA
  5
4570
331
6255
  5
451B
331
626C
  5
4532
331
61F8
  5
4635
331
6217
  5
4654
331
61C2
  5
45FF
331
61E1
  5
461E
331
616D
  5
4687
331
6184
  5
469E
331
612F
  5
4729
331
614E
  5
4748
331
6110
  5
470A
331
61A3
  5
46BD
331
6236
  5
44FC
331
62C9
  5
458F
331
60F2
  5
46EC
331
6095
  5
4816
331
60B4
  5
4835
331
605F
  5
47E0
331
607E
  5
47FF
331
5FDA
  5
479B
331
5F9C
  5
475D
331
5FBB
  5
477C
331
11CD
  5
48A6
331
6040
  5
47C1
331
60D3
  5
484C
331
71CF
  5
71CF
331
7191
  5
7191
331
63BB
  5
44E6
331
71B0
  5
71B0
331
637D
  5
44A8
331
639C
  5
44C7
331
62AB
  5
4571
331
62CA
  5
4590
331
626D
  5
4533
331
628C
  5
4552
331
6218
  5
4655
331
6237
  5
44FD
331
61E2
  5
461F
331
61F9
  5
4636
331
61A4
  5
46BE
331
61C3
  5
4600
331
6256
  5
451C
331
614F
  5
4749
331
616E
  5
4688
331
6111
  5
470B
331
6130
  5
472A
331
6185
  5
469F
331
60B5
  5
4836
331
60D4
  5
484D
331
607F
  5
4800
331
6096
  5
4817
331
6041
  5
47C2
331
5FBC
  5
477D
331
5FDB
  5
479C
331
11CE
  5
48A7
331
7820
  5
7822
331
5F9D
  5
475E
331
6060
  5
47E1
331
60F3
  5
46ED
331
71B1
  5
71B1
331
71D0
  5
71D0
331
7192
  5
7192
331
637E
  5
44A9
331
639D
  5
44C8
331
63BC
  5
44E7
331
62CB
  5
4591
331
628D
  5
4553
331
62AC
  5
4572
331
6257
  5
451D
331
626E
  5
4534
331
61FA
  5
4637
331
6219
  5
4656
331
61C4
  5
4601
331
61E3
  5
4620
331
616F
  5
4689
331
6186
  5
46A0
331
6131
  5
472B
331
6150
  5
474A
331
6112
  5
470C
331
61A5
  5
46BF
331
6238
  5
44FE
331
60F4
  5
46EE
331
6097
  5
4818
331
60B6
  5
4837
331
6061
  5
47E2
331
6080
  5
4801
331
5FDC
  5
479D
331
5F9E
  5
475F
331
5FBD
  5
477E
331
7821
  5
7834
331
11CF
  5
48A8
331
6042
  5
47C3
331
60D5
  5
484E
331
71D1
  5
71D1
331
7193
  5
7193
331
639E
  5
44C9
331
63BD
  5
44E8
331
637F
  5
44AA
331
71B2
  5
71B2
331
62AD
  5
4573
331
62CC
  5
4592
331
626F
  5
4535
331
628E
  5
4554
331
621A
  5
4657
331
6239
  5
44FF
331
61E4
  5
4621
331
61FB
  5
4638
331
6187
  5
46A1
331
61A6
  5
46C0
331
6151
  5
466B
331
6170
  5
468A
331
6113
  5
470D
331
6132
  5
472C
331
61C5
  5
4602
331
6258
  5
451E
331
60B7
  5
4838
331
60D6
  5
484F
331
6081
  5
4802
331
6098
  5
4819
331
6043
  5
47C4
331
5FBE
  5
477F
331
5FDD
  5
479E
331
11D0
  5
48A9
331
7822
  5
784E
331
5F9F
  5
4760
331
6062
  5
47E3
331
60F5
  5
46EF
331
71B3
  5
71B3
331
71D2
  5
71D2
331
7194
  5
7194
331
639F
  5
44CA
331
63BE
  5
44E9
331
62CD
  5
4593
331
628F
  5
4555
331
62AE
  5
4574
331
623A
  5
4500
331
6259
  5
451F
331
61FC
  5
4639
331
621B
  5
4658
331
61C6
  5
4603
331
61E5
  5
4622
331
6270
  5
4536
331
6171
  5
468B
331
6188
  5
46A2
331
6133
  5
472D
331
6152
  5
466C
331
6114
  5
470E
331
61A7
  5
46C1
331
60D7
  5
4850
331
60F6
  5
46F0
331
6099
  5
481A
331
60B8
  5
4839
331
6063
  5
47E4
331
6082
  5
4803
331
5FDE
  5
479F
331
600D
  5
47B2
331
5FA0
  5
4761
331
5FBF
  5
4780
331
6044
  5
47C5
331
71D3
  5
71D3
331
7195
  5
7195
331
63BF
  5
44EA
331
71B4
  5
71B4
331
62AF
  5
4575
331
62CE
  5
4594
331
6271
  5
4537
331
6290
  5
4556
331
621C
  5
4659
331
623B
  5
4501
331
61E6
  5
4623
331
61FD
  5
463A
331
6189
  5
46A3
331
61A8
  5
46C2
331
6153
  5
466D
331
6172
  5
468C
331
6115
  5
470F
331
6134
  5
472E
331
61C7
  5
4604
331
625A
  5
4520
331
60B9
  5
483A
331
60D8
  5
4851
331
6083
  5
4804
331
609A
  5
481B
331
600E
  5
47B3
331
6045
  5
47C6
331
5FC0
  5
4781
331
5FDF
  5
47A0
331
5FA1
  5
4762
331
6064
  5
47E5
331
60F7
  5
46F1
331
71B5
  5
71B5
331
7196
  5
7196
331
62CF
  5
4595
331
6291
  5
4557
331
62B0
  5
4576
331
623C
  5
4502
331
625B
  5
4521
331
61FE
  5
463B
331
621D
  5
465A
331
61A9
  5
46C3
331
61C8
  5
4605
331
6173
  5
468D
331
618A
  5
46A4
331
6135
  5
472F
331
6154
  5
466E
331
61E7
  5
4624
331
6272
  5
4538
331
6116
  5
4710
331
60D9
  5
4852
331
60F8
  5
46F2
331
609B
  5
481C
331
60BA
  5
483B
331
6046
  5
47C7
331
6065
  5
47E6
331
600F
  5
47B4
331
5FA2
  5
4763
331
5FC1
  5
4782
331
6084
  5
4805
331
7197
  5
7197
331
71B6
  5
71B6
331
62B1
  5
4577
331
62D0
  5
4596
331
625C
  5
4522
331
6273
  5
4539
331
621E
  5
465B
331
623D
  5
4503
331
61E8
  5
4625
331
61FF
  5
463C
331
6292
  5
4558
331
618B
  5
46A5
331
61AA
  5
46C4
331
6155
  5
466F
331
6174
  5
468E
331
6117
  5
4711
331
6136
  5
4730
331
61C9
  5
4606
331
60F9
  5
46F3
331
60BB
  5
483C
331
60DA
  5
4853
331
6085
  5
4806
331
609C
  5
481D
331
6010
  5
47B5
331
5FC2
  5
4783
331
6047
  5
47C8
331
5FA3
  5
4764
331
6066
  5
47E7
331
71B7
  5
71B7
331
62D1
  5
4597
331
6293
  5
4559
331
62B2
  5
4578
331
623E
  5
4504
331
625D
  5
4523
331
6200
  5
463D
331
621F
  5
465C
331
61AB
  5
46C5
331
61CA
  5
4607
331
6175
  5
468F
331
618C
  5
46A6
331
6118
  5
4712
331
6137
  5
4731
331
6156
  5
4670
331
61E9
  5
4626
331
6274
  5
453A
331
60DB
  5
4854
331
60FA
  5
46F4
331
609D
  5
481E
331
60BC
  5
483D
331
6048
  5
47C9
331
6067
  5
47E8
331
5FA4
  5
4765
331
5FC3
  5
4784
331
6086
  5
4807
331
62B3
  5
4579
331
62D2
  5
4598
331
625E
  5
4524
331
6275
  5
453B
331
6220
  5
465D
331
623F
  5
4505
331
61CB
  5
4608
331
61EA
  5
4627
331
618D
  5
46A7
331
61AC
  5
46C6
331
6157
  5
4671
331
6176
  5
4690
331
6201
  5
463E
331
6294
  5
455A
331
6119
  5
4713
331
6138
  5
4732
331
60FB
  5
46F5
331
60BD
  5
483E
331
60DC
  5
4855
331
6068
  5
47E9
331
6087
  5
4808
331
5FC4
  5
4785
331
6049
  5
47CA
331
609E
  5
481F
331
5FA5
  5
4766
331
62D3
  5
4599
331
6276
  5
453C
331
6295
  5
455B
331
6240
  5
4506
331
625F
  5
4525
331
6202
  5
463F
331
6221
  5
465E
331
62B4
  5
457A
331
61AD
  5
46C7
331
61CC
  5
4609
331
6177
  5
4691
331
618E
  5
46A8
331
611A
  5
4714
331
6139
  5
4733
331
6158
  5
4672
331
61EB
  5
4628
331
60DD
  5
4856
331
60FC
  5
46F6
331
609F
  5
4820
331
604A
  5
47CB
331
6069
  5
47EA
331
60BE
  5
483F
331
5FA6
  5
4767
331
5FC5
  5
4786
331
62B5
  5
457B
331
62D4
  5
459A
331
6260
  5
4526
331
6277
  5
453D
331
6222
  5
465F
331
6241
  5
4507
331
61CD
  5
460A
331
61EC
  5
4629
331
618F
  5
46A9
331
613A
  5
4734
331
6159
  5
4673
331
611B
  5
4715
331
61AE
  5
46C8
331
6203
  5
4640
331
6296
  5
455C
331
60FD
  5
46F7
331
60BF
  5
4840
331
60DE
  5
4857
331
606A
  5
47EB
331
5FA7
  5
4768
331
5FC6
  5
4787
331
604B
  5
47CC
331
60A0
  5
4821
331
62D5
  5
459B
331
6278
  5
453E
331
6297
  5
455D
331
6242
  5
4508
331
6261
  5
4527
331
61ED
  5
462A
331
6204
  5
4641
331
61AF
  5
46C9
331
61CE
  5
460B
331
6190
  5
46AA
331
6223
  5
4660
331
62B6
  5
457C
331
611C
  5
4716
331
613B
  5
4735
331
615A
  5
4674
331
60DF
  5
4858
331
60FE
  5
46F8
331
60A1
  5
4822
331
604C
  5
47CD
331
606B
  5
47EC
331
60C0
  5
4841
331
5FC7
  5
4788
331
6298
  5
455E
331
62B7
  5
457D
331
6262
  5
4528
331
6279
  5
453F
331
6224
  5
4661
331
6243
  5
4509
331
62D6
  5
459C
331
61CF
  5
460C
331
61EE
  5
462B
331
6191
  5
46AB
331
613C
  5
4736
331
615B
  5
4675
331
611D
  5
4717
331
61B0
  5
46CA
331
6205
  5
4642
331
60FF
  5
46F9
331
60E0
  5
46DA
331
606C
  5
47ED
331
604D
  5
47CE
331
60A2
  5
4823
331
62D7
  5
459D
331
627A
  5
4540
331
6299
  5
455F
331
6244
  5
450A
331
6263
  5
4529
331
61EF
  5
462C
331
6206
  5
4643
331
61B1
  5
46CB
331
61D0
  5
460D
331
615C
  5
4676
331
611E
  5
4718
331
613D
  5
4737
331
6192
  5
46AC
331
6225
  5
4662
331
62B8
  5
457E
331
60E1
  5
46DB
331
60A3
  5
4824
331
604E
  5
47CF
331
606D
  5
47EE
331
629A
  5
4560
331
62B9
  5
457F
331
6264
  5
452A
331
627B
  5
4541
331
6207
  5
4644
331
61D1
  5
460E
331
6226
  5
4663
331
6193
  5
46AD
331
613E
  5
4738
331
615D
  5
4677
331
611F
  5
4719
331
61B2
  5
46CC
331
6245
  5
450B
331
62D8
  5
459E
331
60A4
  5
4825
331
606E
  5
47EF
331
604F
  5
47D0
331
60E2
  5
46DC
331
62BA
  5
4580
331
62D9
  5
459F
331
627C
  5
4542
331
629B
  5
4561
331
6246
  5
450C
331
6265
  5
452B
331
6208
  5
4645
331
61B3
  5
46CD
331
61D2
  5
460F
331
615E
  5
4678
331
613F
  5
4739
331
6194
  5
46AE
331
6227
  5
4664
331
60E3
  5
46DD
331
60A5
  5
4826
331
606F
  5
47F0
331
629C
  5
4562
331
62BB
  5
4581
331
6266
  5
452C
331
627D
  5
4543
331
6209
  5
4646
331
61D3
  5
4610
331
6228
  5
4665
331
6195
  5
46AF
331
615F
  5
4679
331
61B4
  5
46CE
331
6247
  5
450D
331
62DA
  5
45A0
331
60A6
  5
4827
331
60E4
  5
46DE
331
62BC
  5
4582
331
62DB
  5
45A1
331
627E
  5
4544
331
629D
  5
4563
331
6229
  5
4666
331
6248
  5
450E
331
620A
  5
4647
331
61B5
  5
46CF
331
61D4
  5
4611
331
6267
  5
452D
331
6196
  5
46B0
331
60E5
  5
46DF
331
60A7
  5
4828
331
62DC
  5
45A2
331
629E
  5
4564
331
62BD
  5
4583
331
627F
  5
4545
331
620B
  5
4648
331
61D5
  5
4612
331
622A
  5
4667
331
6197
  5
46B1
331
61B6
  5
46D0
331
6249
  5
450F
331
60E6
  5
46E0
331
62BE
  5
4584
331
62DD
  5
45A3
331
6280
  5
4546
331
622B
  5
4668
331
624A
  5
4510
331
620C
  5
4649
331
629F
  5
4565
331
61B7
  5
46D1
331
61D6
  5
4613
331
60E7
  5
46E1
331
62DE
  5
45A4
331
62A0
  5
4566
331
62BF
  5
4585
331
624B
  5
4511
331
620D
  5
464A
331
61D7
  5
4614
331
622C
  5
4669
331
6281
  5
4547
331
62C0
  5
4586
331
62DF
  5
45A5
331
6282
  5
4548
331
622D
  5
466A
331
624C
  5
4512
331
620E
  5
464B
331
62A1
  5
4567
331
62A2
  5
4568
331
62C1
  5
4587
331
624D
  5
4513
331
620F
  5
464C
331
622E
  5
44F4
331
6283
  5
4549
331
62C2
  5
4588
331
6284
  5
454A
331
622F
  5
44F5
331
624E
  5
4514
331
62A3
  5
4569
331
62A4
  5
456A
331
62C3
  5
4589
331
624F
  5
4515
331
6285
  5
454B
331
62C4
  5
458A
331
6286
  5
454C
331
62A5
  5
456B
331
6287
  5
454D
331
62A6
  5
456C
331
62C5
  5
458B
331
62C6
  5
458C
331
62A7
  5
456D
331
62C7
  5
458D
331
62E0
  5
45A6
331
6300
  5
45C6
331
62E1
  5
45A7
331
6320
  5
45E6
331
62E2
  5
45A8
331
6301
  5
45C7
331
62E3
  5
45A9
331
6302
  5
45C8
331
6321
  5
45F3
331
6358
  5
448D
331
6322
  5
45F4
331
62E4
  5
45AA
331
6303
  5
45C9
331
6380
  5
44AB
331
6359
  5
4499
331
62E5
  5
45AB
331
6304
  5
45CA
331
6323
  5
45F5
331
63A0
  5
44CB
331
635A
  5
449A
331
6305
  5
45CB
331
6324
  5
45F6
331
62E6
  5
45AC
331
6381
  5
44AC
331
63C0
  5
44EB
331
6382
  5
44AD
331
63A1
  5
44CC
331
62E7
  5
45AD
331
6306
  5
45CC
331
6325
  5
45F7
331
63A2
  5
44CD
331
63C1
  5
44EC
331
6383
  5
44AE
331
6307
  5
45CD
331
6326
  5
45F8
331
62E8
  5
45AE
331
6345
  5
447A
331
7178
  5
7178
331
63C2
  5
44ED
331
7179
  5
7179
331
6384
  5
44AF
331
6327
  5
45F9
331
6346
  5
447B
331
62E9
  5
45AF
331
6308
  5
45CE
331
63A3
  5
44CE
331
7198
  5
7198
331
717A
  5
717A
331
7199
  5
7199
331
63A4
  5
44CF
331
63C3
  5
44EE
331
6385
  5
44B0
331
71B8
  5
71B8
331
6309
  5
45CF
331
6328
  5
45FA
331
62EA
  5
45B0
331
6347
  5
447C
331
71B9
  5
71B9
331
63C4
  5
44EF
331
717B
  5
717B
331
6386
  5
44B1
331
6329
  5
45FB
331
6348
  5
447D
331
62EB
  5
45B1
331
630A
  5
45D0
331
63A5
  5
44D0
331
719A
  5
719A
  0
LAYOUT
  5
21
102
{ACAD_XDICTIONARY
360
7938
102
}
102
{ACAD_REACTORS
330
1E
102
}
330
1E
100
AcDbPlotSettings
  1

  2

  4

  6

 40
0.0
 41
0.0
 42
0.0
 43
0.0
 44
0.0
 45
0.0
 46
0.0
 47
0.0
 48
0.0
 49
0.0
140
0.0
141
0.0
142
1.0
143
1.0
 70
     0
 72
     0
 73
     0
 74
     0
  7

 75
     0
147
1.0
148
0.0
149
0.0
100
AcDbLayout
  1
Layout1
 70
     0
 71
     1
 10
0.0
 20
0.0
 11
12.0
 21
9.0
 12
0.0
 22
0.0
 32
0.0
 14
1.000000000000000E+20
 24
1.000000000000000E+20
 34
1.000000000000000E+20
 15
-1.000000000000000E+20
 25
-1.000000000000000E+20
 35
-1.000000000000000E+20
146
0.0
 13
0.0
 23
0.0
 33
0.0
 16
1.0
 26
0.0
 36
0.0
 17
0.0
 27
1.0
 37
0.0
 76
     0
330
B
  0
LAYOUT
  5
20
102
{ACAD_XDICTIONARY
360
7936
102
}
102
{ACAD_REACTORS
330
1E
102
}
330
1E
100
AcDbPlotSettings
  1

  2

  4

  6

 40
0.0
 41
0.0
 42
0.0
 43
0.0
 44
0.0
 45
0.0
 46
0.0
 47
0.0
 48
0.0
 49
0.0
140
0.0
141
0.0
142
1.0
143
1.0
 70
  1024
 72
     0
 73
     0
 74
     0
  7

 75
     0
147
1.0
148
0.0
149
0.0
100
AcDbLayout
  1
Model
 70
     0
 71
     0
 10
0.0
 20
0.0
 11
0.0
 21
0.0
 12
0.0
 22
0.0
 32
0.0
 14
0.0
 24
0.0
 34
0.0
 15
0.0
 25
0.0
 35
0.0
146
0.0
 13
0.0
 23
0.0
 33
0.0
 16
0.0
 26
0.0
 36
0.0
 17
0.0
 27
0.0
 37
0.0
 76
     0
330
A
331
15
  0
MATERIAL
  5
3967
102
{ACAD_XDICTIONARY
360
3968
102
}
102
{ACAD_REACTORS
330
395E
102
}
330
395E
100
AcDbMaterial
  1
ByBlock
 72
     0
 43
0.0208333333333333
 43
0.0
 43
0.0
 43
0.0
 43
0.0
 43
0.0208333333333333
 43
0.0
 43
0.0
 43
0.0
 43
0.0
 43
1.0
 43
0.0
 43
0.0
 43
0.0
 43
0.0
 43
1.0
 77
     0
 47
0.0208333333333333
 47
0.0
 47
0.0
 47
0.0
 47
0.0
 47
0.0208333333333333
 47
0.0
 47
0.0
 47
0.0
 47
0.0
 47
1.0
 47
0.0
 47
0.0
 47
0.0
 47
0.0
 47
1.0
171
     0
 49
0.0208333333333333
 49
0.0
 49
0.0
 49
0.0
 49
0.0
 49
0.0208333333333333
 49
0.0
 49
0.0
 49
0.0
 49
0.0
 49
1.0
 49
0.0
 49
0.0
 49
0.0
 49
0.0
 49
1.0
175
     0
142
0.0208333333333333
142
0.0
142
0.0
142
0.0
142
0.0
142
0.0208333333333333
142
0.0
142
0.0
142
0.0
142
0.0
142
1.0
142
0.0
142
0.0
142
0.0
142
0.0
142
1.0
179
     0
144
0.0208333333333333
144
0.0
144
0.0
144
0.0
144
0.0
144
0.0208333333333333
144
0.0
144
0.0
144
0.0
144
0.0
144
1.0
144
0.0
144
0.0
144
0.0
144
0.0
144
1.0
147
0.0208333333333333
147
0.0
147
0.0
147
0.0
147
0.0
147
0.0208333333333333
147
0.0
147
0.0
147
0.0
147
0.0
147
1.0
147
0.0
147
0.0
147
0.0
147
0.0
147
1.0
  0
MATERIAL
  5
395F
102
{ACAD_XDICTIONARY
360
3960
102
}
102
{ACAD_REACTORS
330
395E
102
}
330
395E
100
AcDbMaterial
  1
ByLayer
 72
     0
 43
0.0208333333333333
 43
0.0
 43
0.0
 43
0.0
 43
0.0
 43
0.0208333333333333
 43
0.0
 43
0.0
 43
0.0
 43
0.0
 43
1.0
 43
0.0
 43
0.0
 43
0.0
 43
0.0
 43
1.0
 77
     0
 47
0.0208333333333333
 47
0.0
 47
0.0
 47
0.0
 47
0.0
 47
0.0208333333333333
 47
0.0
 47
0.0
 47
0.0
 47
0.0
 47
1.0
 47
0.0
 47
0.0
 47
0.0
 47
0.0
 47
1.0
171
     0
 49
0.0208333333333333
 49
0.0
 49
0.0
 49
0.0
 49
0.0
 49
0.0208333333333333
 49
0.0
 49
0.0
 49
0.0
 49
0.0
 49
1.0
 49
0.0
 49
0.0
 49
0.0
 49
0.0
 49
1.0
175
     0
142
0.0208333333333333
142
0.0
142
0.0
142
0.0
142
0.0
142
0.0208333333333333
142
0.0
142
0.0
142
0.0
142
0.0
142
1.0
142
0.0
142
0.0
142
0.0
142
0.0
142
1.0
179
     0
144
0.0208333333333333
144
0.0
144
0.0
144
0.0
144
0.0
144
0.0208333333333333
144
0.0
144
0.0
144
0.0
144
0.0
144
1.0
144
0.0
144
0.0
144
0.0
144
0.0
144
1.0
147
0.0208333333333333
147
0.0
147
0.0
147
0.0
147
0.0
147
0.0208333333333333
147
0.0
147
0.0
147
0.0
147
0.0
147
1.0
147
0.0
147
0.0
147
0.0
147
0.0
147
1.0
  0
MATERIAL
  5
396F
102
{ACAD_XDICTIONARY
360
3970
102
}
102
{ACAD_REACTORS
330
395E
102
}
330
395E
100
AcDbMaterial
  1
Global
 72
     0
 43
0.0208333333333333
 43
0.0
 43
0.0
 43
0.0
 43
0.0
 43
0.0208333333333333
 43
0.0
 43
0.0
 43
0.0
 43
0.0
 43
1.0
 43
0.0
 43
0.0
 43
0.0
 43
0.0
 43
1.0
 77
     0
 47
0.0208333333333333
 47
0.0
 47
0.0
 47
0.0
 47
0.0
 47
0.0208333333333333
 47
0.0
 47
0.0
 47
0.0
 47
0.0
 47
1.0
 47
0.0
 47
0.0
 47
0.0
 47
0.0
 47
1.0
171
     0
 49
0.0208333333333333
 49
0.0
 49
0.0
 49
0.0
 49
0.0
 49
0.0208333333333333
 49
0.0
 49
0.0
 49
0.0
 49
0.0
 49
1.0
 49
0.0
 49
0.0
 49
0.0
 49
0.0
 49
1.0
175
     0
142
0.0208333333333333
142
0.0
142
0.0
142
0.0
142
0.0
142
0.0208333333333333
142
0.0
142
0.0
142
0.0
142
0.0
142
1.0
142
0.0
142
0.0
142
0.0
142
0.0
142
1.0
179
     0
144
0.0208333333333333
144
0.0
144
0.0
144
0.0
144
0.0
144
0.0208333333333333
144
0.0
144
0.0
144
0.0
144
0.0
144
1.0
144
0.0
144
0.0
144
0.0
144
0.0
144
1.0
147
0.0208333333333333
147
0.0
147
0.0
147
0.0
147
0.0
147
0.0208333333333333
147
0.0
147
0.0
147
0.0
147
0.0
147
1.0
147
0.0
147
0.0
147
0.0
147
0.0
147
1.0
  0
MLEADERSTYLE
  5
39AE
102
{ACAD_REACTORS
330
39AD
102
}
330
39AD
100
AcDbMLeaderStyle
170
     2
171
     1
172
     0
 90
        2
 40
0.0
 41
0.0
173
     1
 91
-1056964608
340
11
 92
       -2
290
     1
 42
2.0
291
     1
 43
0.36
  3
Standard
 44
4.0
300

342
17
174
     1
178
     6
175
     1
176
     0
 93
-1056964608
 45
4.0
292
     0
297
     0
 46
4.0
 94
-1056964608
 47
1.0
 49
1.0
140
1.0
293
     1
141
0.0
294
     1
177
     0
142
1.0
295
     0
296
     0
143
0.125
1001
ACAD_MLEADERVER
1070
     2
  0
MLINESTYLE
  5
1C
102
{ACAD_REACTORS
330
1B
102
}
330
1B
100
AcDbMlineStyle
  2
STANDARD
 70
     0
  3

 62
     0
 51
90.0
 52
90.0
 71
     2
 49
0.5
 62
   256
  6
BYLAYER
 49
-0.5
 62
   256
  6
BYLAYER
  0
ACDBPLACEHOLDER
  5
1D
102
{ACAD_REACTORS
330
1F
102
}
330
1F
  0
SCALE
  5
398C
102
{ACAD_REACTORS
330
398B
102
}
330
398B
100
AcDbScale
 70
     0
300
1:1
140
1.0
141
1.0
290
     1
  0
SCALE
  5
398D
102
{ACAD_REACTORS
330
398B
102
}
330
398B
100
AcDbScale
 70
     0
300
1:2
140
1.0
141
2.0
290
     0
  0
SCALE
  5
398E
102
{ACAD_REACTORS
330
398B
102
}
330
398B
100
AcDbScale
 70
     0
300
1:4
140
1.0
141
4.0
290
     0
  0
SCALE
  5
398F
102
{ACAD_REACTORS
330
398B
102
}
330
398B
100
AcDbScale
 70
     0
300
1:5
140
1.0
141
5.0
290
     0
  0
SCALE
  5
3990
102
{ACAD_REACTORS
330
398B
102
}
330
398B
100
AcDbScale
 70
     0
300
1:8
140
1.0
141
8.0
290
     0
  0
SCALE
  5
3991
102
{ACAD_REACTORS
330
398B
102
}
330
398B
100
AcDbScale
 70
     0
300
1:10
140
1.0
141
10.0
290
     0
  0
SCALE
  5
3992
102
{ACAD_REACTORS
330
398B
102
}
330
398B
100
AcDbScale
 70
     0
300
1:16
140
1.0
141
16.0
290
     0
  0
SCALE
  5
3993
102
{ACAD_REACTORS
330
398B
102
}
330
398B
100
AcDbScale
 70
     0
300
1:20
140
1.0
141
20.0
290
     0
  0
SCALE
  5
3994
102
{ACAD_REACTORS
330
398B
102
}
330
398B
100
AcDbScale
 70
     0
300
1:30
140
1.0
141
30.0
290
     0
  0
SCALE
  5
3995
102
{ACAD_REACTORS
330
398B
102
}
330
398B
100
AcDbScale
 70
     0
300
1:40
140
1.0
141
40.0
290
     0
  0
SCALE
  5
3996
102
{ACAD_REACTORS
330
398B
102
}
330
398B
100
AcDbScale
 70
     0
300
1:50
140
1.0
141
50.0
290
     0
  0
SCALE
  5
3997
102
{ACAD_REACTORS
330
398B
102
}
330
398B
100
AcDbScale
 70
     0
300
1:100
140
1.0
141
100.0
290
     0
  0
SCALE
  5
3998
102
{ACAD_REACTORS
330
398B
102
}
330
398B
100
AcDbScale
 70
     0
300
2:1
140
2.0
141
1.0
290
     0
  0
SCALE
  5
3999
102
{ACAD_REACTORS
330
398B
102
}
330
398B
100
AcDbScale
 70
     0
300
4:1
140
4.0
141
1.0
290
     0
  0
SCALE
  5
399A
102
{ACAD_REACTORS
330
398B
102
}
330
398B
100
AcDbScale
 70
     0
300
8:1
140
8.0
141
1.0
290
     0
  0
SCALE
  5
399B
102
{ACAD_REACTORS
330
398B
102
}
330
398B
100
AcDbScale
 70
     0
300
10:1
140
10.0
141
1.0
290
     0
  0
SCALE
  5
399C
102
{ACAD_REACTORS
330
398B
102
}
330
398B
100
AcDbScale
 70
     0
300
100:1
140
100.0
141
1.0
290
     0
  0
SCALE
  5
399D
102
{ACAD_REACTORS
330
398B
102
}
330
398B
100
AcDbScale
 70
     0
300
1/128" = 1'-0"
140
0.0078125
141
12.0
290
     0
  0
SCALE
  5
399E
102
{ACAD_REACTORS
330
398B
102
}
330
398B
100
AcDbScale
 70
     0
300
1/64" = 1'-0"
140
0.015625
141
12.0
290
     0
  0
SCALE
  5
399F
102
{ACAD_REACTORS
330
398B
102
}
330
398B
100
AcDbScale
 70
     0
300
1/32" = 1'-0"
140
0.03125
141
12.0
290
     0
  0
SCALE
  5
39A0
102
{ACAD_REACTORS
330
398B
102
}
330
398B
100
AcDbScale
 70
     0
300
1/16" = 1'-0"
140
0.0625
141
12.0
290
     0
  0
SCALE
  5
39A1
102
{ACAD_REACTORS
330
398B
102
}
330
398B
100
AcDbScale
 70
     0
300
3/32" = 1'-0"
140
0.09375
141
12.0
290
     0
  0
SCALE
  5
39A2
102
{ACAD_REACTORS
330
398B
102
}
330
398B
100
AcDbScale
 70
     0
300
1/8" = 1'-0"
140
0.125
141
12.0
290
     0
  0
SCALE
  5
39A3
102
{ACAD_REACTORS
330
398B
102
}
330
398B
100
AcDbScale
 70
     0
300
3/16" = 1'-0"
140
0.1875
141
12.0
290
     0
  0
SCALE
  5
39A4
102
{ACAD_REACTORS
330
398B
102
}
330
398B
100
AcDbScale
 70
     0
300
1/4" = 1'-0"
140
0.25
141
12.0
290
     0
  0
SCALE
  5
39A5
102
{ACAD_REACTORS
330
398B
102
}
330
398B
100
AcDbScale
 70
     0
300
3/8" = 1'-0"
140
0.375
141
12.0
290
     0
  0
SCALE
  5
39A6
102
{ACAD_REACTORS
330
398B
102
}
330
398B
100
AcDbScale
 70
     0
300
1/2" = 1'-0"
140
0.5
141
12.0
290
     0
  0
SCALE
  5
39A7
102
{ACAD_REACTORS
330
398B
102
}
330
398B
100
AcDbScale
 70
     0
300
3/4" = 1'-0"
140
0.75
141
12.0
290
     0
  0
SCALE
  5
39A8
102
{ACAD_REACTORS
330
398B
102
}
330
398B
100
AcDbScale
 70
     0
300
1" = 1'-0"
140
1.0
141
12.0
290
     0
  0
SCALE
  5
39A9
102
{ACAD_REACTORS
330
398B
102
}
330
398B
100
AcDbScale
 70
     0
300
1-1/2" = 1'-0"
140
1.5
141
12.0
290
     0
  0
SCALE
  5
39AA
102
{ACAD_REACTORS
330
398B
102
}
330
398B
100
AcDbScale
 70
     0
300
3" = 1'-0"
140
3.0
141
12.0
290
     0
  0
SCALE
  5
39AB
102
{ACAD_REACTORS
330
398B
102
}
330
398B
100
AcDbScale
 70
     0
300
6" = 1'-0"
140
6.0
141
12.0
290
     0
  0
SCALE
  5
39AC
102
{ACAD_REACTORS
330
398B
102
}
330
398B
100
AcDbScale
 70
     0
300
1'-0" = 1'-0"
140
12.0
141
12.0
290
     0
  0
TABLESTYLE
  5
398A
102
{ACAD_XDICTIONARY
360
72EA
102
}
102
{ACAD_REACTORS
330
3989
102
}
330
3989
100
AcDbTableStyle
  3
Standard
 70
     0
 71
     0
 40
1.5
 41
1.5
280
     0
281
     0
  7
Standard
140
4.5
170
     2
 62
     0
 63
     7
283
     0
274
    -2
284
     1
 64
     0
275
    -2
285
     1
 65
     0
276
    -2
286
     1
 66
     0
277
    -2
287
     1
 67
     0
278
    -2
288
     1
 68
     0
279
    -2
289
     1
 69
     0
  7
Standard
140
6.0
170
     5
 62
     0
 63
     7
283
     0
274
    -2
284
     1
 64
     0
275
    -2
285
     1
 65
     0
276
    -2
286
     1
 66
     0
277
    -2
287
     1
 67
     0
278
    -2
288
     1
 68
     0
279
    -2
289
     1
 69
     0
  7
Standard
140
4.5
170
     5
 62
     0
 63
     7
283
     0
274
    -2
284
     1
 64
     0
275
    -2
285
     1
 65
     0
276
    -2
286
     1
 66
     0
277
    -2
287
     1
 67
     0
278
    -2
288
     1
 68
     0
279
    -2
289
     1
 69
     0
  0
VISUALSTYLE
  5
397D
102
{ACAD_REACTORS
330
3977
102
}
330
3977
100
AcDbVisualStyle
  2
2dWireframe
 70
     4
 71
     0
 72
     2
 73
     0
 90
        0
 40
-0.6
 41
-30.0
 62
     5
 63
     7
 74
     1
 91
        4
 64
     7
 65
   257
 75
     1
175
     1
 42
1.0
 92
        0
 66
   257
 43
1.0
 76
     1
 77
     6
 78
     2
 67
     7
 79
     5
170
     0
171
     0
290
     0
174
     0
 93
        1
 44
0.0
173
     0
291
     0
 45
0.0
1001
ACAD
1000
AcDbSavedByObjectVersion
1070
     0
1000
AcDbSavedByObjectVersion
1070
     0
1000
AcDbSavedByObjectVersion
1070
     0
1000
AcDbSavedByObjectVersion
1070
     0
1000
AcDbSavedByObjectVersion
1070
     0
1000
AcDbSavedByObjectVersion
1070
     0
  0
VISUALSTYLE
  5
397F
102
{ACAD_REACTORS
330
3977
102
}
330
3977
100
AcDbVisualStyle
  2
3D Hidden
 70
     6
 71
     1
 72
     2
 73
     2
 90
        0
 40
-0.6
 41
-30.0
 62
     5
 63
     7
 74
     2
 91
        2
 64
     7
 65
   257
 75
     2
175
     1
 42
40.0
 92
        0
 66
   257
 43
1.0
 76
     1
 77
     6
 78
     2
 67
     7
 79
     3
170
     0
171
     0
290
     0
174
     0
 93
        1
 44
0.0
173
     0
291
     0
 45
0.0
1001
ACAD
1000
AcDbSavedByObjectVersion
1070
     0
1000
AcDbSavedByObjectVersion
1070
     0
1000
AcDbSavedByObjectVersion
1070
     0
1000
AcDbSavedByObjectVersion
1070
     0
1000
AcDbSavedByObjectVersion
1070
     0
1000
AcDbSavedByObjectVersion
1070
     0
  0
VISUALSTYLE
  5
397E
102
{ACAD_REACTORS
330
3977
102
}
330
3977
100
AcDbVisualStyle
  2
3dWireframe
 70
     5
 71
     0
 72
     2
 73
     0
 90
        0
 40
-0.6
 41
-30.0
 62
     5
 63
     7
 74
     1
 91
        4
 64
     7
 65
   257
 75
     1
175
     1
 42
1.0
 92
        0
 66
   257
 43
1.0
 76
     1
 77
     6
 78
     2
 67
     7
 79
     5
170
     0
171
     0
290
     0
174
     0
 93
        1
 44
0.0
173
     0
291
     0
 45
0.0
1001
ACAD
1000
AcDbSavedByObjectVersion
1070
     0
1000
AcDbSavedByObjectVersion
1070
     0
1000
AcDbSavedByObjectVersion
1070
     0
1000
AcDbSavedByObjectVersion
1070
     0
1000
AcDbSavedByObjectVersion
1070
     0
1000
AcDbSavedByObjectVersion
1070
     0
  0
VISUALSTYLE
  5
397C
102
{ACAD_REACTORS
330
3977
102
}
330
3977
100
AcDbVisualStyle
  2
Basic
 70
     7
 71
     1
 72
     0
 73
     1
 90
        0
 40
-0.6
 41
-30.0
 62
     5
 63
     7
 74
     0
 91
        4
 64
     7
 65
   257
 75
     1
175
     1
 42
1.0
 92
        8
 66
     7
 43
1.0
 76
     1
 77
     6
 78
     2
 67
     7
 79
     5
170
     0
171
     0
290
     0
174
     0
 93
        1
 44
0.0
173
     0
291
     1
 45
0.0
1001
ACAD
1000
AcDbSavedByObjectVersion
1070
     0
1000
AcDbSavedByObjectVersion
1070
     0
1000
AcDbSavedByObjectVersion
1070
     0
1000
AcDbSavedByObjectVersion
1070
     0
1000
AcDbSavedByObjectVersion
1070
     0
1000
AcDbSavedByObjectVersion
1070
     0
  0
VISUALSTYLE
  5
3983
102
{ACAD_REACTORS
330
3977
102
}
330
3977
100
AcDbVisualStyle
  2
Brighten
 70
    12
 71
     2
 72
     2
 73
     0
 90
        0
 40
-0.6
 41
-30.0
 62
     5
 63
     7
 74
     1
 91
        4
 64
     7
 65
   257
 75
     1
175
     1
 42
1.0
 92
        8
 66
     7
 43
1.0
 76
     1
 77
     6
 78
     2
 67
     7
 79
     5
170
     0
171
     0
290
     0
174
     0
 93
        1
 44
50.0
173
     0
291
     1
 45
0.0
1001
ACAD
1000
AcDbSavedByObjectVersion
1070
     0
1000
AcDbSavedByObjectVersion
1070
     0
1000
AcDbSavedByObjectVersion
1070
     0
1000
AcDbSavedByObjectVersion
1070
     0
1000
AcDbSavedByObjectVersion
1070
     0
1000
AcDbSavedByObjectVersion
1070
     0
  0
VISUALSTYLE
  5
3987
102
{ACAD_REACTORS
330
3977
102
}
330
3977
100
AcDbVisualStyle
  2
ColorChange
 70
    16
 71
     2
 72
     2
 73
     3
 90
        0
 40
-0.6
 41
-30.0
 62
     5
 63
     8
 74
     1
 91
        4
 64
     7
 65
   257
 75
     1
175
     1
 42
1.0
 92
        8
 66
     8
 43
1.0
 76
     1
 77
     6
 78
     2
 67
     7
 79
     5
170
     0
171
     0
290
     0
174
     0
 93
        1
 44
0.0
173
     0
291
     1
 45
0.0
1001
ACAD
1000
AcDbSavedByObjectVersion
1070
     0
1000
AcDbSavedByObjectVersion
1070
     0
1000
AcDbSavedByObjectVersion
1070
     0
1000
AcDbSavedByObjectVersion
1070
     0
1000
AcDbSavedByObjectVersion
1070
     0
1000
AcDbSavedByObjectVersion
1070
     0
  0
VISUALSTYLE
  5
3980
102
{ACAD_REACTORS
330
3977
102
}
330
3977
100
AcDbVisualStyle
  2
Conceptual
 70
     9
 71
     3
 72
     2
 73
     0
 90
        0
 40
-0.6
 41
-30.0
 62
     5
 63
     7
 74
     2
 91
        2
 64
     7
 65
   257
 75
     1
175
     1
 42
40.0
 92
        8
 66
     7
 43
1.0
 76
     1
 77
     6
 78
     2
 67
     7
 79
     3
170
     0
171
     0
290
     0
174
     0
 93
        1
 44
0.0
173
     0
291
     0
 45
0.0
1001
ACAD
1000
AcDbSavedByObjectVersion
1070
     0
1000
AcDbSavedByObjectVersion
1070
     0
1000
AcDbSavedByObjectVersion
1070
     0
1000
AcDbSavedByObjectVersion
1070
     0
1000
AcDbSavedByObjectVersion
1070
     0
1000
AcDbSavedByObjectVersion
1070
     0
  0
VISUALSTYLE
  5
3982
102
{ACAD_REACTORS
330
3977
102
}
330
3977
100
AcDbVisualStyle
  2
Dim
 70
    11
 71
     2
 72
     2
 73
     0
 90
        0
 40
-0.6
 41
-30.0
 62
     5
 63
     7
 74
     1
 91
        4
 64
     7
 65
   257
 75
     1
175
     1
 42
1.0
 92
        8
 66
     7
 43
1.0
 76
     1
 77
     6
 78
     2
 67
     7
 79
     5
170
     0
171
     0
290
     0
174
     0
 93
        1
 44
-50.0
173
     0
291
     1
 45
0.0
1001
ACAD
1000
AcDbSavedByObjectVersion
1070
     0
1000
AcDbSavedByObjectVersion
1070
     0
1000
AcDbSavedByObjectVersion
1070
     0
1000
AcDbSavedByObjectVersion
1070
     0
1000
AcDbSavedByObjectVersion
1070
     0
1000
AcDbSavedByObjectVersion
1070
     0
  0
VISUALSTYLE
  5
3986
102
{ACAD_REACTORS
330
3977
102
}
330
3977
100
AcDbVisualStyle
  2
Facepattern
 70
    15
 71
     2
 72
     2
 73
     0
 90
        0
 40
-0.6
 41
-30.0
 62
     5
 63
     7
 74
     1
 91
        4
 64
     7
 65
   257
 75
     1
175
     1
 42
1.0
 92
        8
 66
     7
 43
1.0
 76
     1
 77
     6
 78
     2
 67
     7
 79
     5
170
     0
171
     0
290
     0
174
     0
 93
        1
 44
0.0
173
     0
291
     1
 45
0.0
1001
ACAD
1000
AcDbSavedByObjectVersion
1070
     0
1000
AcDbSavedByObjectVersion
1070
     0
1000
AcDbSavedByObjectVersion
1070
     0
1000
AcDbSavedByObjectVersion
1070
     0
1000
AcDbSavedByObjectVersion
1070
     0
1000
AcDbSavedByObjectVersion
1070
     0
  0
VISUALSTYLE
  5
3978
102
{ACAD_REACTORS
330
3977
102
}
330
3977
100
AcDbVisualStyle
  2
Flat
 70
     0
 71
     2
 72
     1
 73
     1
 90
        2
 40
-0.6
 41
30.0
 62
     5
 63
     7
 74
     0
 91
        4
 64
     7
 65
   257
 75
     1
175
     1
 42
1.0
 92
        8
 66
     7
 43
1.0
 76
     1
 77
     6
 78
     2
 67
     7
 79
     5
170
     0
171
     0
290
     0
174
     0
 93
       13
 44
0.0
173
     0
291
     1
 45
0.0
1001
ACAD
1000
AcDbSavedByObjectVersion
1070
     0
1000
AcDbSavedByObjectVersion
1070
     0
1000
AcDbSavedByObjectVersion
1070
     0
1000
AcDbSavedByObjectVersion
1070
     0
1000
AcDbSavedByObjectVersion
1070
     0
1000
AcDbSavedByObjectVersion
1070
     0
  0
VISUALSTYLE
  5
3979
102
{ACAD_REACTORS
330
3977
102
}
330
3977
100
AcDbVisualStyle
  2
FlatWithEdges
 70
     1
 71
     2
 72
     1
 73
     1
 90
        2
 40
-0.6
 41
30.0
 62
     5
 63
     7
 74
     1
 91
        4
 64
     7
 65
   257
 75
     1
175
     1
 42
1.0
 92
        0
 66
   257
 43
1.0
 76
     1
 77
     6
 78
     2
 67
     7
 79
     5
170
     0
171
     0
290
     0
174
     0
 93
       13
 44
0.0
173
     0
291
     1
 45
0.0
1001
ACAD
1000
AcDbSavedByObjectVersion
1070
     0
1000
AcDbSavedByObjectVersion
1070
     0
1000
AcDbSavedByObjectVersion
1070
     0
1000
AcDbSavedByObjectVersion
1070
     0
1000
AcDbSavedByObjectVersion
1070
     0
1000
AcDbSavedByObjectVersion
1070
     0
  0
VISUALSTYLE
  5
397A
102
{ACAD_REACTORS
330
3977
102
}
330
3977
100
AcDbVisualStyle
  2
Gouraud
 70
     2
 71
     2
 72
     2
 73
     1
 90
        2
 40
-0.6
 41
30.0
 62
     5
 63
     7
 74
     0
 91
        4
 64
     7
 65
   257
 75
     1
175
     1
 42
1.0
 92
        0
 66
     7
 43
1.0
 76
     1
 77
     6
 78
     2
 67
     7
 79
     5
170
     0
171
     0
290
     0
174
     0
 93
       13
 44
0.0
173
     0
291
     1
 45
0.0
1001
ACAD
1000
AcDbSavedByObjectVersion
1070
     0
1000
AcDbSavedByObjectVersion
1070
     0
1000
AcDbSavedByObjectVersion
1070
     0
1000
AcDbSavedByObjectVersion
1070
     0
1000
AcDbSavedByObjectVersion
1070
     0
1000
AcDbSavedByObjectVersion
1070
     0
  0
VISUALSTYLE
  5
397B
102
{ACAD_REACTORS
330
3977
102
}
330
3977
100
AcDbVisualStyle
  2
GouraudWithEdges
 70
     3
 71
     2
 72
     2
 73
     1
 90
        2
 40
-0.6
 41
30.0
 62
     5
 63
     7
 74
     1
 91
        4
 64
     7
 65
   257
 75
     1
175
     1
 42
1.0
 92
        0
 66
   257
 43
1.0
 76
     1
 77
     6
 78
     2
 67
     7
 79
     5
170
     0
171
     0
290
     0
174
     0
 93
       13
 44
0.0
173
     0
291
     1
 45
0.0
1001
ACAD
1000
AcDbSavedByObjectVersion
1070
     0
1000
AcDbSavedByObjectVersion
1070
     0
1000
AcDbSavedByObjectVersion
1070
     0
1000
AcDbSavedByObjectVersion
1070
     0
1000
AcDbSavedByObjectVersion
1070
     0
1000
AcDbSavedByObjectVersion
1070
     0
  0
VISUALSTYLE
  5
3985
102
{ACAD_REACTORS
330
3977
102
}
330
3977
100
AcDbVisualStyle
  2
Linepattern
 70
    14
 71
     2
 72
     2
 73
     0
 90
        0
 40
-0.6
 41
-30.0
 62
     5
 63
     7
 74
     1
 91
        4
 64
     7
 65
   257
 75
     7
175
     7
 42
1.0
 92
        8
 66
     7
 43
1.0
 76
     1
 77
     6
 78
     2
 67
     7
 79
     5
170
     0
171
     0
290
     0
174
     0
 93
        1
 44
0.0
173
     0
291
     1
 45
0.0
1001
ACAD
1000
AcDbSavedByObjectVersion
1070
     0
1000
AcDbSavedByObjectVersion
1070
     0
1000
AcDbSavedByObjectVersion
1070
     0
1000
AcDbSavedByObjectVersion
1070
     0
1000
AcDbSavedByObjectVersion
1070
     0
1000
AcDbSavedByObjectVersion
1070
     0
  0
VISUALSTYLE
  5
3981
102
{ACAD_REACTORS
330
3977
102
}
330
3977
100
AcDbVisualStyle
  2
Realistic
 70
     8
 71
     2
 72
     2
 73
     0
 90
        0
 40
-0.6
 41
-30.0
 62
     5
 63
     7
 74
     1
 91
        0
 64
     7
 65
   257
 75
     1
175
     1
 42
1.0
 92
        8
 66
     8
 43
1.0
 76
     1
 77
     6
 78
     2
 67
     7
 79
     5
170
     0
171
     0
290
     0
174
     0
 93
       13
 44
0.0
173
     0
291
     0
 45
0.0
1001
ACAD
1000
AcDbSavedByObjectVersion
1070
     0
1000
AcDbSavedByObjectVersion
1070
     0
1000
AcDbSavedByObjectVersion
1070
     0
1000
AcDbSavedByObjectVersion
1070
     0
1000
AcDbSavedByObjectVersion
1070
     0
1000
AcDbSavedByObjectVersion
1070
     0
  0
VISUALSTYLE
  5
3984
102
{ACAD_REACTORS
330
3977
102
}
330
3977
100
AcDbVisualStyle
  2
Thicken
 70
    13
 71
     2
 72
     2
 73
     0
 90
        0
 40
-0.6
 41
-30.0
 62
     5
 63
     7
 74
     1
 91
        4
 64
     7
 65
   257
 75
     1
175
     1
 42
1.0
 92
       12
 66
     7
 43
1.0
 76
     1
 77
     6
 78
     2
 67
     7
 79
     5
170
     0
171
     0
290
     0
174
     0
 93
        1
 44
0.0
173
     0
291
     1
 45
0.0
1001
ACAD
1000
AcDbSavedByObjectVersion
1070
     0
1000
AcDbSavedByObjectVersion
1070
     0
1000
AcDbSavedByObjectVersion
1070
     0
1000
AcDbSavedByObjectVersion
1070
     0
1000
AcDbSavedByObjectVersion
1070
     0
1000
AcDbSavedByObjectVersion
1070
     0
  0
DICTIONARYVAR
  5
72CE
102
{ACAD_REACTORS
330
72CB
102
}
330
72CB
100
DictionaryVariables
280
     0
  1
1:1
  0
DICTIONARYVAR
  5
72CD
102
{ACAD_REACTORS
330
72CB
102
}
330
72CB
100
DictionaryVariables
280
     0
  1
STANDARD
  0
DICTIONARYVAR
  5
72CC
102
{ACAD_REACTORS
330
72CB
102
}
330
72CB
100
DictionaryVariables
280
     0
  1
STANDARD
  0
DICTIONARYVAR
  5
72D1
102
{ACAD_REACTORS
330
72CB
102
}
330
72CB
100
DictionaryVariables
280
     0
  1
1
  0
DICTIONARYVAR
  5
72D0
102
{ACAD_REACTORS
330
72CB
102
}
330
72CB
100
DictionaryVariables
280
     0
  1
0
  0
DICTIONARYVAR
  5
72CF
102
{ACAD_REACTORS
330
72CB
102
}
330
72CB
100
DictionaryVariables
280
     0
  1
127
  0
XRECORD
  5
72C8
102
{ACAD_REACTORS
330
72C6
102
}
330
72C6
100
AcDbXrecord
280
     1
  0
DICTIONARY
  5
7938
330
21
100
AcDbDictionary
280
     1
281
     1
  3
ACAD_XREC_ROUNDTRIP
360
7939
  0
DICTIONARY
  5
7936
330
20
100
AcDbDictionary
280
     1
281
     1
  3
ACAD_XREC_ROUNDTRIP
360
7937
  0
DICTIONARY
  5
3968
330
3967
100
AcDbDictionary
280
     1
281
     1
  3
ACAD_XREC_ROUNDTRIP
360
72F3
  3
BUMPTILE
360
396A
  3
DIFFUSETILE
360
3969
  3
OPACITYTILE
360
396D
  3
REFLECTIONTILE
360
396C
  3
REFRACTIONTILE
360
396E
  3
SPECULARTILE
360
396B
  0
DICTIONARY
  5
3960
330
395F
100
AcDbDictionary
280
     1
281
     1
  3
ACAD_XREC_ROUNDTRIP
360
72F2
  3
BUMPTILE
360
3962
  3
DIFFUSETILE
360
3961
  3
OPACITYTILE
360
3965
  3
REFLECTIONTILE
360
3964
  3
REFRACTIONTILE
360
3966
  3
SPECULARTILE
360
3963
  0
DICTIONARY
  5
3970
330
396F
100
AcDbDictionary
280
     1
281
     1
  3
ACAD_XREC_ROUNDTRIP
360
72F4
  3
BUMPTILE
360
3972
  3
DIFFUSETILE
360
3971
  3
OPACITYTILE
360
3975
  3
REFLECTIONTILE
360
3974
  3
REFRACTIONTILE
360
3976
  3
SPECULARTILE
360
3973
  0
DICTIONARY
  5
72EA
330
398A
100
AcDbDictionary
280
     1
281
     1
  3
ACAD_ROUNDTRIP_2008_TABLESTYLE_CELLSTYLEMAP
360
7934
  3
ACAD_XREC_ROUNDTRIP
360
793A
  0
XRECORD
  5
7939
102
{ACAD_REACTORS
330
7938
102
}
330
7938
100
AcDbXrecord
280
     1
102
SHADEPLOT
 70
     0
102
SHADEPLOTRESLEVEL
 70
     2
102
SHADEPLOTCUSTOMDPI
 70
   300
  0
XRECORD
  5
7937
102
{ACAD_REACTORS
330
7936
102
}
330
7936
100
AcDbXrecord
280
     1
102
SHADEPLOT
 70
     0
102
SHADEPLOTRESLEVEL
 70
     2
102
SHADEPLOTCUSTOMDPI
 70
   300
  0
XRECORD
  5
72F3
102
{ACAD_REACTORS
330
3968
102
}
330
3968
100
AcDbXrecord
280
     1
102
MATERIAL
148
0.0
149
0.0
149
0.0
 93
        0
 94
      127
282
     0
 72
     0
 77
     0
171
     0
175
     0
179
     0
273
     0
  0
XRECORD
  5
396A
102
{ACAD_REACTORS
330
3968
102
}
330
3968
100
AcDbXrecord
280
     1
270
     1
271
     1
  0
XRECORD
  5
3969
102
{ACAD_REACTORS
330
3968
102
}
330
3968
100
AcDbXrecord
280
     1
270
     1
271
     1
  0
XRECORD
  5
396D
102
{ACAD_REACTORS
330
3968
102
}
330
3968
100
AcDbXrecord
280
     1
270
     1
271
     1
  0
XRECORD
  5
396C
102
{ACAD_REACTORS
330
3968
102
}
330
3968
100
AcDbXrecord
280
     1
270
     1
271
     1
  0
XRECORD
  5
396E
102
{ACAD_REACTORS
330
3968
102
}
330
3968
100
AcDbXrecord
280
     1
270
     1
271
     1
  0
XRECORD
  5
396B
102
{ACAD_REACTORS
330
3968
102
}
330
3968
100
AcDbXrecord
280
     1
270
     1
271
     1
  0
XRECORD
  5
72F2
102
{ACAD_REACTORS
330
3960
102
}
330
3960
100
AcDbXrecord
280
     1
102
MATERIAL
148
0.0
149
0.0
149
0.0
 93
        0
 94
      127
282
     0
 72
     0
 77
     0
171
     0
175
     0
179
     0
273
     0
  0
XRECORD
  5
3962
102
{ACAD_REACTORS
330
3960
102
}
330
3960
100
AcDbXrecord
280
     1
270
     1
271
     1
  0
XRECORD
  5
3961
102
{ACAD_REACTORS
330
3960
102
}
330
3960
100
AcDbXrecord
280
     1
270
     1
271
     1
  0
XRECORD
  5
3965
102
{ACAD_REACTORS
330
3960
102
}
330
3960
100
AcDbXrecord
280
     1
270
     1
271
     1
  0
XRECORD
  5
3964
102
{ACAD_REACTORS
330
3960
102
}
330
3960
100
AcDbXrecord
280
     1
270
     1
271
     1
  0
XRECORD
  5
3966
102
{ACAD_REACTORS
330
3960
102
}
330
3960
100
AcDbXrecord
280
     1
270
     1
271
     1
  0
XRECORD
  5
3963
102
{ACAD_REACTORS
330
3960
102
}
330
3960
100
AcDbXrecord
280
     1
270
     1
271
     1
  0
XRECORD
  5
72F4
102
{ACAD_REACTORS
330
3970
102
}
330
3970
100
AcDbXrecord
280
     1
102
MATERIAL
148
0.0
149
0.0
149
0.0
 93
        0
 94
      127
282
     0
 72
     0
 77
     0
171
     0
175
     0
179
     0
273
     0
  0
XRECORD
  5
3972
102
{ACAD_REACTORS
330
3970
102
}
330
3970
100
AcDbXrecord
280
     1
270
     1
271
     1
  0
XRECORD
  5
3971
102
{ACAD_REACTORS
330
3970
102
}
330
3970
100
AcDbXrecord
280
     1
270
     1
271
     1
  0
XRECORD
  5
3975
102
{ACAD_REACTORS
330
3970
102
}
330
3970
100
AcDbXrecord
280
     1
270
     1
271
     1
  0
XRECORD
  5
3974
102
{ACAD_REACTORS
330
3970
102
}
330
3970
100
AcDbXrecord
280
     1
270
     1
271
     1
  0
XRECORD
  5
3976
102
{ACAD_REACTORS
330
3970
102
}
330
3970
100
AcDbXrecord
280
     1
270
     1
271
     1
  0
XRECORD
  5
3973
102
{ACAD_REACTORS
330
3970
102
}
330
3970
100
AcDbXrecord
280
     1
270
     1
271
     1
  0
CELLSTYLEMAP
  5
7934
102
{ACAD_REACTORS
330
72EA
102
}
330
72EA
100
AcDbCellStyleMap
 90
        3
300
CELLSTYLE
  1
TABLEFORMAT_BEGIN
 90
        5
170
     1
 91
        0
 92
    32768
 62
   257
 93
        1
300
CONTENTFORMAT
  1
CONTENTFORMAT_BEGIN
 90
        0
 91
        0
 92
      512
 93
        0
300

 40
0.0
140
1.0
 94
        5
 62
     0
340
17
144
6.0
309
CONTENTFORMAT_END
171
     1
301
MARGIN
  1
CELLMARGIN_BEGIN
 40
1.5
 40
1.5
 40
1.5
 40
1.5
 40
0.18
 40
0.18
309
CELLMARGIN_END
 94
        6
 95
        1
302
GRIDFORMAT
  1
GRIDFORMAT_BEGIN
 90
        0
 91
        1
 62
     0
 92
       -2
340
0
 93
        0
 40
1.125
309
GRIDFORMAT_END
 95
        2
302
GRIDFORMAT
  1
GRIDFORMAT_BEGIN
 90
        0
 91
        1
 62
     0
 92
       -2
340
0
 93
        0
 40
1.125
309
GRIDFORMAT_END
 95
        4
302
GRIDFORMAT
  1
GRIDFORMAT_BEGIN
 90
        0
 91
        1
 62
     0
 92
       -2
340
0
 93
        0
 40
1.125
309
GRIDFORMAT_END
 95
        8
302
GRIDFORMAT
  1
GRIDFORMAT_BEGIN
 90
        0
 91
        1
 62
     0
 92
       -2
340
0
 93
        0
 40
1.125
309
GRIDFORMAT_END
 95
       16
302
GRIDFORMAT
  1
GRIDFORMAT_BEGIN
 90
        0
 91
        1
 62
     0
 92
       -2
340
0
 93
        0
 40
1.125
309
GRIDFORMAT_END
 95
       32
302
GRIDFORMAT
  1
GRIDFORMAT_BEGIN
 90
        0
 91
        1
 62
     0
 92
       -2
340
0
 93
        0
 40
1.125
309
GRIDFORMAT_END
309
TABLEFORMAT_END
  1
CELLSTYLE_BEGIN
 90
        1
 91
        1
300
_TITLE
309
CELLSTYLE_END
300
CELLSTYLE
  1
TABLEFORMAT_BEGIN
 90
        5
170
     1
 91
        0
 92
        0
 62
   257
 93
        1
300
CONTENTFORMAT
  1
CONTENTFORMAT_BEGIN
 90
        0
 91
        0
 92
      512
 93
        0
300

 40
0.0
140
1.0
 94
        5
 62
     0
340
17
144
4.5
309
CONTENTFORMAT_END
171
     1
301
MARGIN
  1
CELLMARGIN_BEGIN
 40
1.5
 40
1.5
 40
1.5
 40
1.5
 40
0.18
 40
0.18
309
CELLMARGIN_END
 94
        6
 95
        1
302
GRIDFORMAT
  1
GRIDFORMAT_BEGIN
 90
        0
 91
        1
 62
     0
 92
       -2
340
0
 93
        0
 40
1.125
309
GRIDFORMAT_END
 95
        2
302
GRIDFORMAT
  1
GRIDFORMAT_BEGIN
 90
        0
 91
        1
 62
     0
 92
       -2
340
0
 93
        0
 40
1.125
309
GRIDFORMAT_END
 95
        4
302
GRIDFORMAT
  1
GRIDFORMAT_BEGIN
 90
        0
 91
        1
 62
     0
 92
       -2
340
0
 93
        0
 40
1.125
309
GRIDFORMAT_END
 95
        8
302
GRIDFORMAT
  1
GRIDFORMAT_BEGIN
 90
        0
 91
        1
 62
     0
 92
       -2
340
0
 93
        0
 40
1.125
309
GRIDFORMAT_END
 95
       16
302
GRIDFORMAT
  1
GRIDFORMAT_BEGIN
 90
        0
 91
        1
 62
     0
 92
       -2
340
0
 93
        0
 40
1.125
309
GRIDFORMAT_END
 95
       32
302
GRIDFORMAT
  1
GRIDFORMAT_BEGIN
 90
        0
 91
        1
 62
     0
 92
       -2
340
0
 93
        0
 40
1.125
309
GRIDFORMAT_END
309
TABLEFORMAT_END
  1
CELLSTYLE_BEGIN
 90
        2
 91
        1
300
_HEADER
309
CELLSTYLE_END
300
CELLSTYLE
  1
TABLEFORMAT_BEGIN
 90
        5
170
     1
 91
        0
 92
        0
 62
   257
 93
        1
300
CONTENTFORMAT
  1
CONTENTFORMAT_BEGIN
 90
        0
 91
        0
 92
      512
 93
        0
300

 40
0.0
140
1.0
 94
        2
 62
     0
340
17
144
4.5
309
CONTENTFORMAT_END
171
     1
301
MARGIN
  1
CELLMARGIN_BEGIN
 40
1.5
 40
1.5
 40
1.5
 40
1.5
 40
0.18
 40
0.18
309
CELLMARGIN_END
 94
        6
 95
        1
302
GRIDFORMAT
  1
GRIDFORMAT_BEGIN
 90
        0
 91
        1
 62
     0
 92
       -2
340
0
 93
        0
 40
1.125
309
GRIDFORMAT_END
 95
        2
302
GRIDFORMAT
  1
GRIDFORMAT_BEGIN
 90
        0
 91
        1
 62
     0
 92
       -2
340
0
 93
        0
 40
1.125
309
GRIDFORMAT_END
 95
        4
302
GRIDFORMAT
  1
GRIDFORMAT_BEGIN
 90
        0
 91
        1
 62
     0
 92
       -2
340
0
 93
        0
 40
1.125
309
GRIDFORMAT_END
 95
        8
302
GRIDFORMAT
  1
GRIDFORMAT_BEGIN
 90
        0
 91
        1
 62
     0
 92
       -2
340
0
 93
        0
 40
1.125
309
GRIDFORMAT_END
 95
       16
302
GRIDFORMAT
  1
GRIDFORMAT_BEGIN
 90
        0
 91
        1
 62
     0
 92
       -2
340
0
 93
        0
 40
1.125
309
GRIDFORMAT_END
 95
       32
302
GRIDFORMAT
  1
GRIDFORMAT_BEGIN
 90
        0
 91
        1
 62
     0
 92
       -2
340
0
 93
        0
 40
1.125
309
GRIDFORMAT_END
309
TABLEFORMAT_END
  1
CELLSTYLE_BEGIN
 90
        3
 91
        2
300
_DATA
309
CELLSTYLE_END
  0
XRECORD
  5
793A
102
{ACAD_REACTORS
330
72EA
102
}
330
72EA
100
AcDbXrecord
280
     1
102
ACAD_ROUNDTRIP_PRE2007_TABLESTYLE
 90
      512
 91
        0
  1

 92
      512
 93
        0
  2

 94
      512
 95
        0
  3

  0
ENDSEC
  0
EOF
