  0
SECTION
  2
HEADER
  9
$ACADVER
  1
AC1015
  9
$ACADMAINTVER
 70
    20
  9
$DWGCODEPAGE
  3
ANSI_1252
  9
$INSBASE
 10
0.0
 20
0.0
 30
0.0
  9
$EXTMIN
 10
-110.1584238953064
 20
-164.9113203781439
 30
-0.0000000000000098
  9
$EXTMAX
 10
94.48232200800976
 20
83.11908170239666
 30
0.0000000000000055
  9
$LIMMIN
 10
-20.0
 20
-575.8499999999997
  9
$LIMMAX
 10
1785.35
 20
579.8499999999997
  9
$ORTHOMODE
 70
     0
  9
$REGENMODE
 70
     1
  9
$FILLMODE
 70
     1
  9
$QTEXTMODE
 70
     0
  9
$MIRRTEXT
 70
     1
  9
$LTSCALE
 40
10.0
  9
$ATTMODE
 70
     1
  9
$TEXTSIZE
 40
0.0
  9
$TRACEWID
 40
0.05
  9
$TEXTSTYLE
  7
Standard
  9
$CLAYER
  8
0
  9
$CELTYPE
  6
Continuous
  9
$CECOLOR
 62
   256
  9
$CELTSCALE
 40
1.0
  9
$DISPSILH
 70
     0
  9
$DIMSCALE
 40
1.0
  9
$DIMASZ
 40
1.25
  9
$DIMEXO
 40
0.0
  9
$DIMDLI
 40
0.38
  9
$DIMRND
 40
0.0
  9
$DIMDLE
 40
0.0
  9
$DIMEXE
 40
0.75
  9
$DIMTP
 40
0.0
  9
$DIMTM
 40
0.0
  9
$DIMTXT
 40
2.5
  9
$DIMCEN
 40
0.09
  9
$DIMTSZ
 40
0.0
  9
$DIMTOL
 70
     0
  9
$DIMLIM
 70
     0
  9
$DIMTIH
 70
     0
  9
$DIMTOH
 70
     0
  9
$DIMSE1
 70
     0
  9
$DIMSE2
 70
     0
  9
$DIMTAD
 70
     1
  9
$DIMZIN
 70
     0
  9
$DIMBLK
  1

  9
$DIMASO
 70
     1
  9
$DIMSHO
 70
     1
  9
$DIMPOST
  1

  9
$DIMAPOST
  1

  9
$DIMALT
 70
     0
  9
$DIMALTD
 70
     2
  9
$DIMALTF
 40
25.4
  9
$DIMLFAC
 40
1.0
  9
$DIMTOFL
 70
     0
  9
$DIMTVP
 40
0.0
  9
$DIMTIX
 70
     0
  9
$DIMSOXD
 70
     0
  9
$DIMSAH
 70
     0
  9
$DIMBLK1
  1

  9
$DIMBLK2
  1

  9
$DIMSTYLE
  2
Standard
  9
$DIMCLRD
 70
     7
  9
$DIMCLRE
 70
     7
  9
$DIMCLRT
 70
     7
  9
$DIMTFAC
 40
0.8
  9
$DIMGAP
 40
1.25
  9
$DIMJUST
 70
     0
  9
$DIMSD1
 70
     0
  9
$DIMSD2
 70
     0
  9
$DIMTOLJ
 70
     1
  9
$DIMTZIN
 70
     0
  9
$DIMALTZ
 70
     0
  9
$DIMALTTZ
 70
     0
  9
$DIMUPT
 70
     0
  9
$DIMDEC
 70
     2
  9
$DIMTDEC
 70
     4
  9
$DIMALTU
 70
     2
  9
$DIMALTTD
 70
     2
  9
$DIMTXSTY
  7
Standard
  9
$DIMAUNIT
 70
     0
  9
$DIMADEC
 70
     0
  9
$DIMALTRND
 40
0.0
  9
$DIMAZIN
 70
     0
  9
$DIMDSEP
 70
     0
  9
$DIMATFIT
 70
     3
  9
$DIMFRAC
 70
     0
  9
$DIMLDRBLK
  1

  9
$DIMLUNIT
 70
     2
  9
$DIMLWD
 70
     0
  9
$DIMLWE
 70
     0
  9
$DIMTMOVE
 70
     0
  9
$LUNITS
 70
     2
  9
$LUPREC
 70
     4
  9
$SKETCHINC
 40
0.1
  9
$FILLETRAD
 40
0.0
  9
$AUNITS
 70
     0
  9
$AUPREC
 70
     0
  9
$MENU
  1
acad
  9
$ELEVATION
 40
0.0
  9
$PELEVATION
 40
0.0
  9
$THICKNESS
 40
0.0
  9
$LIMCHECK
 70
     0
  9
$CHAMFERA
 40
0.0
  9
$CHAMFERB
 40
0.0
  9
$CHAMFERC
 40
0.0
  9
$CHAMFERD
 40
0.0
  9
$SKPOLY
 70
     0
  9
$TDCREATE
 40
2455301.802361111
  9
$TDUCREATE
 40
2455301.719027778
  9
$TDUPDATE
 40
2455306.380810127
  9
$TDUUPDATE
 40
2455306.297476794
  9
$TDINDWG
 40
0.1878967014
  9
$TDUSRTIMER
 40
0.1878959722
  9
$USRTIMER
 70
     1
  9
$ANGBASE
 50
0.0
  9
$ANGDIR
 70
     0
  9
$PDMODE
 70
     0
  9
$PDSIZE
 40
0.0
  9
$PLINEWID
 40
0.0
  9
$SPLFRAME
 70
     0
  9
$SPLINETYPE
 70
     6
  9
$SPLINESEGS
 70
     8
  9
$HANDSEED
  5
BFFC
  9
$SURFTAB1
 70
     6
  9
$SURFTAB2
 70
     6
  9
$SURFTYPE
 70
     6
  9
$SURFU
 70
     6
  9
$SURFV
 70
     6
  9
$UCSBASE
  2

  9
$UCSNAME
  2

  9
$UCSORG
 10
0.0
 20
0.0
 30
0.0
  9
$UCSXDIR
 10
1.0
 20
0.0
 30
0.0
  9
$UCSYDIR
 10
0.0
 20
1.0
 30
0.0
  9
$UCSORTHOREF
  2

  9
$UCSORTHOVIEW
 70
     0
  9
$UCSORGTOP
 10
0.0
 20
0.0
 30
0.0
  9
$UCSORGBOTTOM
 10
0.0
 20
0.0
 30
0.0
  9
$UCSORGLEFT
 10
0.0
 20
0.0
 30
0.0
  9
$UCSORGRIGHT
 10
0.0
 20
0.0
 30
0.0
  9
$UCSORGFRONT
 10
0.0
 20
0.0
 30
0.0
  9
$UCSORGBACK
 10
0.0
 20
0.0
 30
0.0
  9
$PUCSBASE
  2

  9
$PUCSNAME
  2

  9
$PUCSORG
 10
0.0
 20
0.0
 30
0.0
  9
$PUCSXDIR
 10
1.0
 20
0.0
 30
0.0
  9
$PUCSYDIR
 10
0.0
 20
1.0
 30
0.0
  9
$PUCSORTHOREF
  2

  9
$PUCSORTHOVIEW
 70
     0
  9
$PUCSORGTOP
 10
0.0
 20
0.0
 30
0.0
  9
$PUCSORGBOTTOM
 10
0.0
 20
0.0
 30
0.0
  9
$PUCSORGLEFT
 10
0.0
 20
0.0
 30
0.0
  9
$PUCSORGRIGHT
 10
0.0
 20
0.0
 30
0.0
  9
$PUCSORGFRONT
 10
0.0
 20
0.0
 30
0.0
  9
$PUCSORGBACK
 10
0.0
 20
0.0
 30
0.0
  9
$USERI1
 70
     0
  9
$USERI2
 70
     0
  9
$USERI3
 70
     0
  9
$USERI4
 70
     0
  9
$USERI5
 70
     0
  9
$USERR1
 40
0.0
  9
$USERR2
 40
0.0
  9
$USERR3
 40
0.0
  9
$USERR4
 40
0.0
  9
$USERR5
 40
0.0
  9
$WORLDVIEW
 70
     1
  9
$SHADEDGE
 70
     3
  9
$SHADEDIF
 70
    70
  9
$TILEMODE
 70
     1
  9
$MAXACTVP
 70
    16
  9
$PINSBASE
 10
0.0
 20
0.0
 30
0.0
  9
$PLIMCHECK
 70
     0
  9
$PEXTMIN
 10
1.000000000000000E+20
 20
1.000000000000000E+20
 30
1.000000000000000E+20
  9
$PEXTMAX
 10
-1.000000000000000E+20
 20
-1.000000000000000E+20
 30
-1.000000000000000E+20
  9
$PLIMMIN
 10
0.0
 20
0.0
  9
$PLIMMAX
 10
12.0
 20
9.0
  9
$UNITMODE
 70
     0
  9
$VISRETAIN
 70
     0
  9
$PLINEGEN
 70
     1
  9
$PSLTSCALE
 70
     0
  9
$TREEDEPTH
 70
  3020
  9
$CMLSTYLE
  2
Standard
  9
$CMLJUST
 70
     0
  9
$CMLSCALE
 40
1.0
  9
$PROXYGRAPHICS
 70
     0
  9
$MEASUREMENT
 70
     1
  9
$CELWEIGHT
370
     0
  9
$ENDCAPS
280
     0
  9
$JOINSTYLE
280
     0
  9
$LWDISPLAY
290
     0
  9
$INSUNITS
 70
     0
  9
$HYPERLINKBASE
  1

  9
$STYLESHEET
  1

  9
$XEDIT
290
     1
  9
$CEPSNTYPE
380
     0
  9
$PSTYLEMODE
290
     1
  9
$FINGERPRINTGUID
  2

  9
$VERSIONGUID
  2
{8FBE37C9-D84A-4822-A492-321741B7DD91}
  9
$EXTNAMES
290
     1
  9
$PSVPSCALE
 40
0.0
  9
$OLESTARTUP
290
     0
  0
ENDSEC
  0
SECTION
  2
CLASSES
  0
CLASS
  1
IMAGE
  2
AcDbRasterImage
  3
ISM
 90
    34943
280
     0
281
     1
  0
CLASS
  1
DICTIONARYVAR
  2
AcDbDictionaryVar
  3
ObjectDBX Classes
 90
        0
280
     0
281
     0
  0
CLASS
  1
RASTERVARIABLES
  2
AcDbRasterVariables
  3
ISM
 90
    32768
280
     0
281
     0
  0
CLASS
  1
IMAGEDEF
  2
AcDbRasterImageDef
  3
ISM
 90
    32768
280
     0
281
     0
  0
CLASS
  1
IMAGEDEF_REACTOR
  2
AcDbRasterImageDefReactor
  3
ISM
 90
    32769
280
     0
281
     0
  0
CLASS
  1
IDBUFFER
  2
AcDbIdBuffer
  3
ObjectDBX Classes
 90
    32768
280
     0
281
     0
  0
CLASS
  1
SPATIAL_FILTER
  2
AcDbSpatialFilter
  3
ObjectDBX Classes
 90
    32768
280
     0
281
     0
  0
CLASS
  1
SORTENTSTABLE
  2
AcDbSortentsTable
  3
ObjectDBX Classes
 90
        0
280
     0
281
     0
  0
CLASS
  1
LAYER_INDEX
  2
AcDbLayerIndex
  3
ObjectDBX Classes
 90
    32768
280
     0
281
     0
  0
CLASS
  1
SPATIAL_INDEX
  2
AcDbSpatialIndex
  3
ObjectDBX Classes
 90
    32768
280
     0
281
     0
  0
CLASS
  1
OBJECT_PTR
  2
CAseDLPNTableRecord
  3
ASE-LPNTableRecord
 90
    32769
280
     0
281
     0
  0
CLASS
  1
LAYOUT
  2
AcDbLayout
  3
ObjectDBX Classes
 90
        0
280
     0
281
     0
  0
CLASS
  1
PLOTSETTINGS
  2
AcDbPlotSettings
  3
ObjectDBX Classes
 90
    32768
280
     0
281
     0
  0
CLASS
  1
ACDBDICTIONARYWDFLT
  2
AcDbDictionaryWithDefault
  3
ObjectDBX Classes
 90
        0
280
     0
281
     0
  0
CLASS
  1
ACDBPLACEHOLDER
  2
AcDbPlaceHolder
  3
ObjectDBX Classes
 90
        0
280
     0
281
     0
  0
CLASS
  1
VBA_PROJECT
  2
AcDbVbaProject
  3
acad
 90
    32768
280
     0
281
     0
  0
CLASS
  1
WIPEOUT
  2
AcDbWipeout
  3
"WipeOut|Product Desc: Object Enabler for WipeOut entity                        |Company: Autodesk, Inc.                        |WEB Address: www.autodesk.com"
 90
    34943
280
     0
281
     1
  0
CLASS
  1
WIPEOUTVARIABLES
  2
AcDbWipeoutVariables
  3
"WipeOut|Product Desc:     WipeOut Dbx Application|Company:          Autodesk, Inc.|WEB Address:      www.autodesk.com"
 90
        0
280
     0
281
     0
  0
CLASS
  1
RTEXT
  2
RText
  3
RText|AutoCAD Express Tool|expresstools@autodesk.com
 90
    35839
280
     0
281
     1
  0
CLASS
  1
ARCALIGNEDTEXT
  2
AcDbArcAlignedText
  3
ATEXT|AutoCAD Express Tool|expresstools@autodesk.com
 90
    32768
280
     0
281
     1
  0
CLASS
  1
MATERIAL
  2
AcDbMaterial
  3
ObjectDBX Classes
 90
     1153
280
     0
281
     0
  0
CLASS
  1
VISUALSTYLE
  2
AcDbVisualStyle
  3
ObjectDBX Classes
 90
     4095
280
     0
281
     0
  0
CLASS
  1
TABLESTYLE
  2
AcDbTableStyle
  3
ObjectDBX Classes
 90
     4095
280
     0
281
     0
  0
CLASS
  1
SCALE
  2
AcDbScale
  3
ObjectDBX Classes
 90
     1153
280
     0
281
     0
  0
CLASS
  1
MLEADERSTYLE
  2
AcDbMLeaderStyle
  3
ACDB_MLEADERSTYLE_CLASS
 90
     4095
280
     0
281
     0
  0
CLASS
  1
CELLSTYLEMAP
  2
AcDbCellStyleMap
  3
ObjectDBX Classes
 90
     1152
280
     0
281
     0
  0
ENDSEC
  0
SECTION
  2
TABLES
  0
TABLE
  2
VPORT
  5
7
330
0
100
AcDbSymbolTable
 70
     1
  0
VPORT
  5
15
330
7
100
AcDbSymbolTableRecord
100
AcDbViewportTableRecord
  2
*ACTIVE
 70
     0
 10
0.0
 20
0.0
 11
1.0
 21
1.0
 12
-4.18032060363069
 22
-42.17183919047096
 13
0.0
 23
0.0
 14
1.0
 24
1.0
 15
0.0
 25
0.0
 16
0.0
 26
0.0
 36
1.0
 17
0.0
 27
0.0
 37
0.0
 40
280.6246603218562
 41
1.611330698287219
 42
50.0
 43
0.0
 44
0.0
 50
0.0
 51
0.0
 71
     0
 72
   100
 73
     1
 74
     1
 75
     0
 76
     0
 77
     0
 78
     0
281
     0
 65
     0
110
0.0
120
0.0
130
0.0
111
1.0
121
0.0
131
0.0
112
0.0
122
1.0
132
0.0
 79
     0
146
0.0
  0
ENDTAB
  0
TABLE
  2
LTYPE
  5
4
330
0
100
AcDbSymbolTable
 70
     2
  0
LTYPE
  5
11
330
4
100
AcDbSymbolTableRecord
100
AcDbLinetypeTableRecord
  2
ByBlock
 70
     0
  3

 72
    65
 73
     0
 40
0.0
  0
LTYPE
  5
12
330
4
100
AcDbSymbolTableRecord
100
AcDbLinetypeTableRecord
  2
ByLayer
 70
     0
  3

 72
    65
 73
     0
 40
0.0
  0
LTYPE
  5
13
330
4
100
AcDbSymbolTableRecord
100
AcDbLinetypeTableRecord
  2
Continuous
 70
     0
  3
Solid line
 72
    65
 73
     0
 40
0.0
  0
LTYPE
  5
108
330
4
100
AcDbSymbolTableRecord
100
AcDbLinetypeTableRecord
  2
CENTER
 70
     0
  3
____ _ ____ _ ____ _ ____ _ ____ _ ____ _ ____
 72
    65
 73
     4
 40
2.0
 49
1.25
 74
     0
 49
-0.25
 74
     0
 49
0.25
 74
     0
 49
-0.25
 74
     0
  0
ENDTAB
  0
TABLE
  2
LAYER
  5
2
330
0
100
AcDbSymbolTable
 70
     2
  0
LAYER
  5
14
102
{ACAD_XDICTIONARY
360
5858
102
}
330
2
100
AcDbSymbolTableRecord
100
AcDbLayerTableRecord
  2
0
 70
     0
 62
     7
  6
Continuous
370
    -3
390
1D
  0
LAYER
  5
B652
330
2
100
AcDbSymbolTableRecord
100
AcDbLayerTableRecord
  2
Defpoints
 70
     0
 62
     7
  6
Continuous
290
     0
370
    -3
390
1D
  0
ENDTAB
  0
TABLE
  2
STYLE
  5
3
330
0
100
AcDbSymbolTable
 70
     1
  0
STYLE
  5
17
330
3
100
AcDbSymbolTableRecord
100
AcDbTextStyleTableRecord
  2
Standard
 70
     0
 40
0.0
 41
1.0
 50
0.0
 71
     0
 42
0.0
  3
I011000D.TTF
  4

1001
ACAD
1000
IsonormD
1071
        0
  0
ENDTAB
  0
TABLE
  2
VIEW
  5
5
330
0
100
AcDbSymbolTable
 70
     0
  0
ENDTAB
  0
TABLE
  2
UCS
  5
6
330
0
100
AcDbSymbolTable
 70
     0
  0
ENDTAB
  0
TABLE
  2
APPID
  5
8
330
0
100
AcDbSymbolTable
 70
     6
  0
APPID
  5
16
330
8
100
AcDbSymbolTableRecord
100
AcDbRegAppTableRecord
  2
ACAD
 70
     0
  0
APPID
  5
26
330
8
100
AcDbSymbolTableRecord
100
AcDbRegAppTableRecord
  2
TopSolid'Draft
 70
     0
  0
APPID
  5
5850
330
8
100
AcDbSymbolTableRecord
100
AcDbRegAppTableRecord
  2
ACAD_MLEADERVER
 70
     0
  0
APPID
  5
5856
330
8
100
AcDbSymbolTableRecord
100
AcDbRegAppTableRecord
  2
DCO15
 70
     0
  0
APPID
  5
B62D
330
8
100
AcDbSymbolTableRecord
100
AcDbRegAppTableRecord
  2
ACAD_EXEMPT_FROM_CAD_STANDARDS
 70
     0
  0
APPID
  5
B915
330
8
100
AcDbSymbolTableRecord
100
AcDbRegAppTableRecord
  2
ACAD_DSTYLE_DIMRADIAL_EXTENSION
 70
     0
  0
ENDTAB
  0
TABLE
  2
DIMSTYLE
  5
9
330
0
100
AcDbSymbolTable
 70
     1
100
AcDbDimStyleTable
 71
     1
340
18
  0
DIMSTYLE
105
18
330
9
100
AcDbSymbolTableRecord
100
AcDbDimStyleTableRecord
  2
Standard
 70
     0
 41
1.25
 42
0.0
 44
0.75
 73
     0
 74
     0
 77
     1
140
2.5
146
0.8
147
1.25
176
     7
177
     7
178
     7
271
     2
340
17
  0
ENDTAB
  0
TABLE
  2
BLOCK_RECORD
  5
1
330
0
100
AcDbSymbolTable
 70
     1
  0
BLOCK_RECORD
  5
A
102
{ACAD_XDICTIONARY
360
5864
102
}
330
1
100
AcDbSymbolTableRecord
100
AcDbBlockTableRecord
  2
*MODEL_SPACE
340
20
  0
BLOCK_RECORD
  5
B
330
1
100
AcDbSymbolTableRecord
100
AcDbBlockTableRecord
  2
*PAPER_SPACE
340
21
  0
ENDTAB
  0
ENDSEC
  0
SECTION
  2
BLOCKS
  0
BLOCK
  5
D
330
A
100
AcDbEntity
  8
0
100
AcDbBlockBegin
  2
*MODEL_SPACE
 70
     0
 10
0.0
 20
0.0
 30
0.0
  3
*MODEL_SPACE
  1

  0
ENDBLK
  5
E
330
A
100
AcDbEntity
  8
0
100
AcDbBlockEnd
  0
BLOCK
  5
F
330
B
100
AcDbEntity
 67
     1
  8
0
100
AcDbBlockBegin
  2
*PAPER_SPACE
 70
     0
 10
0.0
 20
0.0
 30
0.0
  3
*PAPER_SPACE
  1

  0
ENDBLK
  5
10
330
B
100
AcDbEntity
 67
     1
  8
0
100
AcDbBlockEnd
  0
ENDSEC
  0
SECTION
  2
ENTITIES
  0
TEXT
  5
ABEF
330
A
100
AcDbEntity
  8
0
  6
Continuous
 62
     7
370
     0
100
AcDbText
 10
32.65449348589186
 20
66.39077100606455
 30
0.0
 40
10.0
  1
8560
100
AcDbText
  0
LINE
  5
B8F1
330
A
100
AcDbEntity
  8
0
  6
CENTER
 62
     1
100
AcDbLine
 10
-0.0000139999999647
 20
66.60000000000002
 30
0.0
 11
-0.0000139999999647
 21
56.6
 31
0.0
  0
LINE
  5
B8F2
330
A
100
AcDbEntity
  8
0
  6
CENTER
 62
     1
100
AcDbLine
 10
-26.0
 20
65.85000000000002
 30
0.0
 11
-26.0
 21
70.22500000000002
 31
0.0
  0
LINE
  5
B8F3
330
A
100
AcDbEntity
  8
0
  6
CENTER
 62
     1
100
AcDbLine
 10
-30.5
 20
75.39999999999998
 30
0.0
 11
-21.5
 21
75.39999999999998
 31
0.0
  0
LINE
  5
B8F4
330
A
100
AcDbEntity
  8
0
  6
CENTER
 62
     1
100
AcDbLine
 10
-26.0
 20
70.89999999999998
 30
0.0
 11
-26.0
 21
79.89999999999998
 31
0.0
  0
LINE
  5
B8F5
330
A
100
AcDbEntity
  8
0
  6
CENTER
 62
     1
100
AcDbLine
 10
0.0
 20
47.84999999999999
 30
0.0
 11
0.0
 21
69.25
 31
0.0
  0
LINE
  5
B8F6
330
A
100
AcDbEntity
  8
0
  6
CENTER
 62
     1
100
AcDbLine
 10
-93.59999999999999
 20
1.0
 30
0.0
 11
-83.59999999999997
 21
1.0
 31
0.0
  0
LINE
  5
B8F7
330
A
100
AcDbEntity
  8
0
  6
CENTER
 62
     1
100
AcDbLine
 10
-93.59999999999999
 20
-49.0
 30
0.0
 11
-83.59999999999997
 21
-49.0
 31
0.0
  0
LINE
  5
B8F8
330
A
100
AcDbEntity
  8
0
  6
CENTER
 62
     1
100
AcDbLine
 10
-93.55000000000002
 20
-25.0
 30
0.0
 11
-84.25
 21
-25.0
 31
0.0
  0
LINE
  5
B8F9
330
A
100
AcDbEntity
  8
0
  6
CENTER
 62
     1
100
AcDbLine
 10
-88.9
 20
-29.65000000000001
 30
0.0
 11
-88.9
 21
-20.35
 31
0.0
  0
LINE
  5
B8FA
330
A
100
AcDbEntity
  8
0
  6
CENTER
 62
     1
100
AcDbLine
 10
-80.90000000000001
 20
-55.0
 30
0.0
 11
-66.90000000000001
 21
-55.0
 31
0.0
  0
LINE
  5
B8FB
330
A
100
AcDbEntity
  8
0
  6
CENTER
 62
     1
100
AcDbLine
 10
-73.9
 20
-62.0
 30
0.0
 11
-73.9
 21
-48.0
 31
0.0
  0
LINE
  5
B8FC
330
A
100
AcDbEntity
  8
0
  6
CENTER
 62
     1
100
AcDbLine
 10
-80.90000000000001
 20
5.0
 30
0.0
 11
-66.90000000000001
 21
5.0
 31
0.0
  0
LINE
  5
B8FD
330
A
100
AcDbEntity
  8
0
  6
CENTER
 62
     1
100
AcDbLine
 10
-73.9
 20
-2.0
 30
0.0
 11
-73.9
 21
12.0
 31
0.0
  0
LINE
  5
B8FE
330
A
100
AcDbEntity
  8
0
  6
CENTER
 62
     1
100
AcDbLine
 10
-74.84999999999998
 20
-50.0
 30
0.0
 11
-96.25
 21
-50.0
 31
0.0
  0
LINE
  5
B8FF
330
A
100
AcDbEntity
  8
0
  6
CENTER
 62
     1
100
AcDbLine
 10
-74.84999999999998
 20
0.0
 30
0.0
 11
-96.25
 21
0.0
 31
0.0
  0
LINE
  5
B900
330
A
100
AcDbEntity
  8
0
  6
CENTER
 62
     1
100
AcDbLine
 10
46.25
 20
-55.0
 30
0.0
 11
55.55000000000001
 21
-55.0
 31
0.0
  0
LINE
  5
B901
330
A
100
AcDbEntity
  8
0
  6
CENTER
 62
     1
100
AcDbLine
 10
50.89999999999998
 20
-59.64999999999999
 30
0.0
 11
50.89999999999998
 21
-50.35
 31
0.0
  0
LINE
  5
B902
330
A
100
AcDbEntity
  8
0
  6
CENTER
 62
     1
100
AcDbLine
 10
46.25
 20
5.0
 30
0.0
 11
55.55000000000001
 21
5.0
 31
0.0
  0
LINE
  5
B903
330
A
100
AcDbEntity
  8
0
  6
CENTER
 62
     1
100
AcDbLine
 10
50.89999999999998
 20
0.3499999999999943
 30
0.0
 11
50.89999999999998
 21
9.650000000000003
 31
0.0
  0
LINE
  5
B904
330
A
100
AcDbEntity
  8
0
  6
CENTER
 62
     1
100
AcDbLine
 10
61.25
 20
-25.0
 30
0.0
 11
70.55000000000003
 21
-25.0
 31
0.0
  0
LINE
  5
B905
330
A
100
AcDbEntity
  8
0
  6
CENTER
 62
     1
100
AcDbLine
 10
65.89999999999998
 20
-29.65000000000001
 30
0.0
 11
65.89999999999998
 21
-20.35
 31
0.0
  0
LINE
  5
B906
330
A
100
AcDbEntity
  8
0
  6
CENTER
 62
     1
100
AcDbLine
 10
79.39999999999997
 20
-65.0
 30
0.0
 11
79.39999999999997
 21
4.25
 31
0.0
  0
LINE
  5
B907
330
A
100
AcDbEntity
  8
0
  6
CENTER
 62
     1
100
AcDbLine
 10
-9.5
 20
0.0
 30
0.0
 11
9.5
 21
0.0
 31
0.0
  0
LINE
  5
B908
330
A
100
AcDbEntity
  8
0
  6
CENTER
 62
     1
100
AcDbLine
 10
0.0
 20
-9.5
 30
0.0
 11
0.0
 21
9.5
 31
0.0
  0
LINE
  5
B909
330
A
100
AcDbEntity
  8
0
  6
CENTER
 62
     1
100
AcDbLine
 10
-9.5
 20
-50.0
 30
0.0
 11
9.5
 21
-50.0
 31
0.0
  0
LINE
  5
B90A
330
A
100
AcDbEntity
  8
0
  6
CENTER
 62
     1
100
AcDbLine
 10
0.0
 20
-59.5
 30
0.0
 11
0.0
 21
-40.49999999999999
 31
0.0
  0
LINE
  5
B90B
330
A
100
AcDbEntity
  8
0
  6
CENTER
 62
     1
100
AcDbLine
 10
-26.0
 20
-65.0
 30
0.0
 11
-26.0
 21
4.25
 31
0.0
  0
LINE
  5
B90D
330
A
100
AcDbEntity
  8
0
  6
CENTER
 62
     1
100
AcDbLine
 10
-0.0000139999999647
 20
-113.1
 30
0.0
 11
-0.0000139999999647
 21
-103.1
 31
0.0
  0
LINE
  5
B90E
330
A
100
AcDbEntity
  8
0
  6
CENTER
 62
     1
100
AcDbLine
 10
-30.5
 20
-121.9
 30
0.0
 11
-21.5
 21
-121.9
 31
0.0
  0
LINE
  5
B90F
330
A
100
AcDbEntity
  8
0
  6
CENTER
 62
     1
100
AcDbLine
 10
0.0
 20
-94.35
 30
0.0
 11
0.0
 21
-115.75
 31
0.0
  0
LINE
  5
B910
330
A
100
AcDbEntity
  8
0
  6
CENTER
 62
     1
100
AcDbLine
 10
-26.0
 20
-126.4
 30
0.0
 11
-26.0
 21
-112.35
 31
0.0
  0
CIRCLE
  5
B913
330
A
100
AcDbEntity
  8
0
  6
CENTER
 62
     1
100
AcDbCircle
 10
0.0
 20
0.0
 30
0.0
 40
7.0
  0
CIRCLE
  5
B914
330
A
100
AcDbEntity
  8
0
  6
CENTER
 62
     1
100
AcDbCircle
 10
0.0
 20
-50.0
 30
0.0
 40
7.0
  0
LINE
  5
B916
330
A
100
AcDbEntity
  8
0
  6
Continuous
 62
     7
100
AcDbLine
 10
3.000005000000001
 20
-104.5
 30
0.0
 11
-3.000005000000001
 21
-104.5
 31
0.0
  0
LINE
  5
B917
330
A
100
AcDbEntity
  8
0
  6
Continuous
 62
     7
100
AcDbLine
 10
-24.0
 20
-114.725
 30
0.0
 11
-28.0
 21
-114.725
 31
0.0
  0
LINE
  5
B918
330
A
100
AcDbEntity
  8
0
  6
Continuous
 62
     7
100
AcDbLine
 10
-24.70000000000001
 20
-114.35
 30
0.0
 11
-27.3
 21
-114.35
 31
0.0
  0
LINE
  5
B919
330
A
100
AcDbEntity
  8
0
  6
Continuous
 62
     7
100
AcDbLine
 10
-6.900013999999983
 20
-111.1
 30
0.0
 11
6.849974999999999
 21
-111.1
 31
0.0
  0
LINE
  5
B91A
330
A
100
AcDbEntity
  8
0
  6
Continuous
 62
     7
100
AcDbLine
 10
-6.900013999999983
 20
-105.1
 30
0.0
 11
6.849974999999999
 21
-105.1
 31
0.0
  0
LINE
  5
B91B
330
A
100
AcDbEntity
  8
0
  6
Continuous
 62
     7
100
AcDbLine
 10
6.849974999999999
 20
-111.1
 30
0.0
 11
6.849974999999999
 21
-105.1
 31
0.0
  0
LINE
  5
B91C
330
A
100
AcDbEntity
  8
0
  6
Continuous
 62
     7
100
AcDbLine
 10
6.849997999999998
 20
-105.1
 30
0.0
 11
6.849997999999998
 21
-111.1
 31
0.0
  0
LINE
  5
B91D
330
A
100
AcDbEntity
  8
0
  6
Continuous
 62
     7
100
AcDbLine
 10
-6.25
 20
-97.80000000000001
 30
0.0
 11
0.0
 21
-97.80000000000001
 31
0.0
  0
LINE
  5
B91E
330
A
100
AcDbEntity
  8
0
  6
Continuous
 62
     7
100
AcDbLine
 10
0.0
 20
-97.80000000000001
 30
0.0
 11
6.25
 21
-97.80000000000001
 31
0.0
  0
LINE
  5
B91F
330
A
100
AcDbEntity
  8
0
  6
Continuous
 62
     9
100
AcDbLine
 10
5.412841999999997
 20
-96.34999999999999
 30
0.0
 11
-5.412841999999997
 21
-96.34999999999999
 31
0.0
  0
LINE
  5
B920
330
A
100
AcDbEntity
  8
0
  6
Continuous
 62
     7
100
AcDbLine
 10
-4.979829000000008
 20
-96.09999999999999
 30
0.0
 11
4.979829000000008
 21
-96.09999999999999
 31
0.0
  0
LINE
  5
B921
330
A
100
AcDbEntity
  8
0
  6
Continuous
 62
     9
100
AcDbLine
 10
10.0
 20
-103.1
 30
0.0
 11
10.0
 21
-98.1
 31
0.0
  0
LINE
  5
B922
330
A
100
AcDbEntity
  8
0
  6
Continuous
 62
     7
100
AcDbLine
 10
17.5
 20
-98.1
 30
0.0
 11
17.5
 21
-103.1
 31
0.0
  0
LINE
  5
B923
330
A
100
AcDbEntity
  8
0
  6
Continuous
 62
     7
100
AcDbLine
 10
10.0
 20
-98.1
 30
0.0
 11
17.5
 21
-98.1
 31
0.0
  0
LINE
  5
B924
330
A
100
AcDbEntity
  8
0
  6
Continuous
 62
     7
100
AcDbLine
 10
17.5
 20
-103.1
 30
0.0
 11
10.0
 21
-103.1
 31
0.0
  0
LINE
  5
B925
330
A
100
AcDbEntity
  8
0
  6
Continuous
 62
     7
100
AcDbLine
 10
-17.5
 20
-103.1
 30
0.0
 11
-17.5
 21
-98.1
 31
0.0
  0
LINE
  5
B926
330
A
100
AcDbEntity
  8
0
  6
Continuous
 62
     7
100
AcDbLine
 10
10.0
 20
-98.1
 30
0.0
 11
6.25
 21
-98.1
 31
0.0
  0
LINE
  5
B927
330
A
100
AcDbEntity
  8
0
  6
Continuous
 62
     7
100
AcDbLine
 10
-6.25
 20
-98.1
 30
0.0
 11
-17.5
 21
-98.1
 31
0.0
  0
LINE
  5
B928
330
A
100
AcDbEntity
  8
0
  6
Continuous
 62
     7
100
AcDbLine
 10
10.0
 20
-103.1
 30
0.0
 11
-17.5
 21
-103.1
 31
0.0
  0
LINE
  5
B929
330
A
100
AcDbEntity
  8
0
  6
Continuous
 62
     7
100
AcDbLine
 10
-16.5
 20
-104.1
 30
0.0
 11
-16.5
 21
-103.1
 31
0.0
  0
LINE
  5
B92A
330
A
100
AcDbEntity
  8
0
  6
Continuous
 62
     9
100
AcDbLine
 10
-14.5
 20
-103.1
 30
0.0
 11
-14.5
 21
-104.1
 31
0.0
  0
LINE
  5
B92B
330
A
100
AcDbEntity
  8
0
  6
Continuous
 62
     7
100
AcDbLine
 10
-14.5
 20
-104.1
 30
0.0
 11
-16.5
 21
-104.1
 31
0.0
  0
LINE
  5
B92C
330
A
100
AcDbEntity
  8
0
  6
Continuous
 62
     9
100
AcDbLine
 10
10.0
 20
-104.1
 30
0.0
 11
10.0
 21
-103.1
 31
0.0
  0
LINE
  5
B92D
330
A
100
AcDbEntity
  8
0
  6
Continuous
 62
     7
100
AcDbLine
 10
-14.5
 20
-104.1
 30
0.0
 11
10.0
 21
-104.1
 31
0.0
  0
LINE
  5
B92E
330
A
100
AcDbEntity
  8
0
  6
Continuous
 62
     7
100
AcDbLine
 10
16.5
 20
-103.1
 30
0.0
 11
16.5
 21
-104.1
 31
0.0
  0
LINE
  5
B92F
330
A
100
AcDbEntity
  8
0
  6
Continuous
 62
     7
100
AcDbLine
 10
16.5
 20
-104.1
 30
0.0
 11
10.0
 21
-104.1
 31
0.0
  0
LINE
  5
B930
330
A
100
AcDbEntity
  8
0
  6
Continuous
 62
     7
100
AcDbLine
 10
16.5
 20
-112.1
 30
0.0
 11
16.5
 21
-113.1
 31
0.0
  0
LINE
  5
B931
330
A
100
AcDbEntity
  8
0
  6
Continuous
 62
     9
100
AcDbLine
 10
10.0
 20
-113.1
 30
0.0
 11
10.0
 21
-112.1
 31
0.0
  0
LINE
  5
B932
330
A
100
AcDbEntity
  8
0
  6
Continuous
 62
     7
100
AcDbLine
 10
10.0
 20
-112.1
 30
0.0
 11
16.5
 21
-112.1
 31
0.0
  0
LINE
  5
B933
330
A
100
AcDbEntity
  8
0
  6
Continuous
 62
     7
100
AcDbLine
 10
16.5
 20
-113.1
 30
0.0
 11
10.0
 21
-113.1
 31
0.0
  0
LINE
  5
B934
330
A
100
AcDbEntity
  8
0
  6
Continuous
 62
     9
100
AcDbLine
 10
-14.5
 20
-112.1
 30
0.0
 11
-14.5
 21
-113.1
 31
0.0
  0
LINE
  5
B935
330
A
100
AcDbEntity
  8
0
  6
Continuous
 62
     7
100
AcDbLine
 10
10.0
 20
-112.1
 30
0.0
 11
-14.5
 21
-112.1
 31
0.0
  0
LINE
  5
B936
330
A
100
AcDbEntity
  8
0
  6
Continuous
 62
     7
100
AcDbLine
 10
-16.5
 20
-113.1
 30
0.0
 11
-16.5
 21
-112.1
 31
0.0
  0
LINE
  5
B937
330
A
100
AcDbEntity
  8
0
  6
Continuous
 62
     7
100
AcDbLine
 10
-16.5
 20
-112.1
 30
0.0
 11
-14.5
 21
-112.1
 31
0.0
  0
LINE
  5
B938
330
A
100
AcDbEntity
  8
0
  6
Continuous
 62
     9
100
AcDbLine
 10
3.0
 20
-104.5
 30
0.0
 11
-3.0
 21
-104.5
 31
0.0
  0
LINE
  5
B939
330
A
100
AcDbEntity
  8
0
  6
Continuous
 62
     7
100
AcDbLine
 10
-19.845276
 20
-115.023739
 30
0.0
 11
-17.5
 21
-114.610204
 31
0.0
  0
LINE
  5
B93A
330
A
100
AcDbEntity
  8
0
  6
Continuous
 62
     7
100
AcDbLine
 10
-19.831829
 20
-115.1
 30
0.0
 11
-19.845276
 21
-115.023739
 31
0.0
  0
LINE
  5
B93B
330
A
100
AcDbEntity
  8
0
  6
Continuous
 62
     7
100
AcDbLine
 10
-34.5
 20
-120.4
 30
0.0
 11
-34.5
 21
-113.722876
 31
0.0
  0
ARC
  5
B93C
330
A
100
AcDbEntity
  8
0
  6
Continuous
 62
     7
100
AcDbCircle
 10
-33.0
 20
-112.4
 30
0.0
 40
2.0
100
AcDbArc
 50
180.0
 51
221.409622
  0
LINE
  5
B93D
330
A
100
AcDbEntity
  8
0
  6
Continuous
 62
     7
100
AcDbLine
 10
-35.0
 20
-112.4
 30
0.0
 11
-35.0
 21
-85.4
 31
0.0
  0
LINE
  5
B93E
330
A
100
AcDbEntity
  8
0
  6
Continuous
 62
     7
100
AcDbLine
 10
-38.5
 20
-120.4
 30
0.0
 11
-34.5
 21
-120.4
 31
0.0
  0
LINE
  5
B93F
330
A
100
AcDbEntity
  8
0
  6
Continuous
 62
     7
100
AcDbLine
 10
-38.5
 20
-85.4
 30
0.0
 11
-38.5
 21
-120.4
 31
0.0
  0
LINE
  5
B940
330
A
100
AcDbEntity
  8
0
  6
Continuous
 62
     7
100
AcDbLine
 10
-35.0
 20
-85.4
 30
0.0
 11
-38.5
 21
-85.4
 31
0.0
  0
ARC
  5
B941
330
A
100
AcDbEntity
  8
0
  6
Continuous
 62
     7
100
AcDbCircle
 10
-26.0
 20
-121.9
 30
0.0
 40
7.5
100
AcDbArc
 50
65.04869900000023
 51
76.07669200000024
  0
ARC
  5
B942
330
A
100
AcDbEntity
  8
0
  6
Continuous
 62
     7
100
AcDbCircle
 10
-34.5
 20
-121.4
 30
0.0
 40
1.0
100
AcDbArc
 50
0.0
 51
90.0
  0
LINE
  5
B943
330
A
100
AcDbEntity
  8
0
  6
Continuous
 62
     7
100
AcDbLine
 10
-33.0
 20
-114.4
 30
0.0
 11
-27.393333
 21
-114.4
 31
0.0
  0
ARC
  5
B944
330
A
100
AcDbEntity
  8
0
  6
Continuous
 62
     7
100
AcDbCircle
 10
-33.0
 20
-112.4
 30
0.0
 40
2.0
100
AcDbArc
 50
221.409622
 51
270.0
  0
LINE
  5
B945
330
A
100
AcDbEntity
  8
0
  6
Continuous
 62
     9
100
AcDbLine
 10
10.0
 20
-120.048242
 30
0.0
 11
10.0
 21
-113.1
 31
0.0
  0
LINE
  5
B946
330
A
100
AcDbEntity
  8
0
  6
Continuous
 62
     7
100
AcDbLine
 10
17.5
 20
-113.1
 30
0.0
 11
17.5
 21
-116.1
 31
0.0
  0
ARC
  5
B947
330
A
100
AcDbEntity
  8
0
  6
Continuous
 62
     7
100
AcDbCircle
 10
-33.849328
 20
-27.655418
 30
0.0
 40
102.270219
100
AcDbArc
 50
295.3888609999999
 51
300.1386770000001
  0
LINE
  5
B948
330
A
100
AcDbEntity
  8
0
  6
Continuous
 62
     7
100
AcDbLine
 10
10.0
 20
-113.1
 30
0.0
 11
17.5
 21
-113.1
 31
0.0
  0
LINE
  5
B949
330
A
100
AcDbEntity
  8
0
  6
Continuous
 62
     7
100
AcDbLine
 10
-17.5
 20
-113.1
 30
0.0
 11
-17.5
 21
-114.9
 31
0.0
  0
ARC
  5
B94A
330
A
100
AcDbEntity
  8
0
  6
Continuous
 62
     7
100
AcDbCircle
 10
-33.849226
 20
-27.65561100000002
 30
0.0
 40
102.27
100
AcDbArc
 50
274.7509049999999
 51
295.3888560000003
  0
LINE
  5
B94B
330
A
100
AcDbEntity
  8
0
  6
Continuous
 62
     7
100
AcDbLine
 10
-17.7
 20
-115.1
 30
0.0
 11
-32.5
 21
-115.1
 31
0.0
  0
LINE
  5
B94C
330
A
100
AcDbEntity
  8
0
  6
Continuous
 62
     7
100
AcDbLine
 10
-33.5
 20
-117.1
 30
0.0
 11
-33.5
 21
-122.1
 31
0.0
  0
ARC
  5
B94D
330
A
100
AcDbEntity
  8
0
  6
Continuous
 62
     7
100
AcDbCircle
 10
-17.7
 20
-114.9
 30
0.0
 40
0.2
100
AcDbArc
 50
270.0
 51
0.0
  0
ARC
  5
B94E
330
A
100
AcDbEntity
  8
0
  6
Continuous
 62
     7
100
AcDbCircle
 10
-26.0
 20
-122.1
 30
0.0
 40
7.5
100
AcDbArc
 50
180.0
 51
274.7509049999999
  0
LINE
  5
B94F
330
A
100
AcDbEntity
  8
0
  6
Continuous
 62
     7
100
AcDbLine
 10
-32.5
 20
-115.1
 30
0.0
 11
-33.5
 21
-117.1
 31
0.0
  0
LINE
  5
B950
330
A
100
AcDbEntity
  8
0
  6
Continuous
 62
     7
100
AcDbLine
 10
10.0
 20
-113.1
 30
0.0
 11
-17.5
 21
-113.1
 31
0.0
  0
CIRCLE
  5
B951
330
A
100
AcDbEntity
  8
0
  6
Continuous
 62
     7
100
AcDbCircle
 10
-26.0
 20
-121.9
 30
0.0
 40
2.5
  0
LINE
  5
B952
330
A
100
AcDbEntity
  8
0
  6
Continuous
 62
     9
100
AcDbLine
 10
-24.35
 20
-115.1
 30
0.0
 11
-24.35
 21
-114.5375
 31
0.0
  0
LINE
  5
B953
330
A
100
AcDbEntity
  8
0
  6
Continuous
 62
     9
100
AcDbLine
 10
-27.65000000000001
 20
-114.5375
 30
0.0
 11
-27.65000000000001
 21
-115.1
 31
0.0
  0
LINE
  5
B954
330
A
100
AcDbEntity
  8
0
  6
Continuous
 62
     9
100
AcDbLine
 10
2.5
 20
-105.1
 30
0.0
 11
2.5
 21
-104.5
 31
0.0
  0
LINE
  5
B955
330
A
100
AcDbEntity
  8
0
  6
Continuous
 62
     9
100
AcDbLine
 10
-2.5
 20
-104.5
 30
0.0
 11
-2.5
 21
-105.1
 31
0.0
  0
LINE
  5
B956
330
A
100
AcDbEntity
  8
0
  6
Continuous
 62
     7
100
AcDbLine
 10
-24.0
 20
-114.725
 30
0.0
 11
-24.35
 21
-114.5375
 31
0.0
  0
LINE
  5
B957
330
A
100
AcDbEntity
  8
0
  6
Continuous
 62
     7
100
AcDbLine
 10
-24.35
 20
-114.5375
 30
0.0
 11
-24.70000000000001
 21
-114.35
 31
0.0
  0
LINE
  5
B958
330
A
100
AcDbEntity
  8
0
  6
Continuous
 62
     7
100
AcDbLine
 10
-27.3
 20
-114.35
 30
0.0
 11
-27.65000000000001
 21
-114.5375
 31
0.0
  0
LINE
  5
B959
330
A
100
AcDbEntity
  8
0
  6
Continuous
 62
     7
100
AcDbLine
 10
-27.65000000000001
 20
-114.5375
 30
0.0
 11
-28.0
 21
-114.725
 31
0.0
  0
LINE
  5
B95A
330
A
100
AcDbEntity
  8
0
  6
Continuous
 62
     7
100
AcDbLine
 10
-24.0
 20
-115.1
 30
0.0
 11
-24.0
 21
-114.725
 31
0.0
  0
LINE
  5
B95B
330
A
100
AcDbEntity
  8
0
  6
Continuous
 62
     7
100
AcDbLine
 10
-28.0
 20
-114.725
 30
0.0
 11
-28.0
 21
-115.1
 31
0.0
  0
LINE
  5
B95C
330
A
100
AcDbEntity
  8
0
  6
Continuous
 62
     7
100
AcDbLine
 10
-6.900013999999983
 20
-105.1
 30
0.0
 11
-6.900013999999983
 21
-111.1
 31
0.0
  0
LINE
  5
B95D
330
A
100
AcDbEntity
  8
0
  6
Continuous
 62
     7
100
AcDbLine
 10
6.25
 20
-97.80000000000001
 30
0.0
 11
5.412841999999997
 21
-96.34999999999999
 31
0.0
  0
LINE
  5
B95E
330
A
100
AcDbEntity
  8
0
  6
Continuous
 62
     7
100
AcDbLine
 10
-5.412841999999997
 20
-96.34999999999999
 30
0.0
 11
-6.25
 21
-97.80000000000001
 31
0.0
  0
LINE
  5
B95F
330
A
100
AcDbEntity
  8
0
  6
Continuous
 62
     7
100
AcDbLine
 10
-6.25
 20
-97.80000000000001
 30
0.0
 11
-6.25
 21
-98.1
 31
0.0
  0
LINE
  5
B960
330
A
100
AcDbEntity
  8
0
  6
Continuous
 62
     7
100
AcDbLine
 10
6.25
 20
-98.1
 30
0.0
 11
6.25
 21
-97.80000000000001
 31
0.0
  0
ARC
  5
B961
330
A
100
AcDbEntity
  8
0
  6
Continuous
 62
     7
100
AcDbCircle
 10
-4.979829000000008
 20
-96.6
 30
0.0
 40
0.5
100
AcDbArc
 50
90.0
 51
149.9999999999998
  0
ARC
  5
B962
330
A
100
AcDbEntity
  8
0
  6
Continuous
 62
     7
100
AcDbCircle
 10
4.979829000000008
 20
-96.6
 30
0.0
 40
0.5
100
AcDbArc
 50
30.00000000000014
 51
90.0
  0
LINE
  5
B963
330
A
100
AcDbEntity
  8
0
  6
Continuous
 62
     7
100
AcDbLine
 10
3.0
 20
-104.505
 30
0.0
 11
3.0
 21
-104.5
 31
0.0
  0
LINE
  5
B964
330
A
100
AcDbEntity
  8
0
  6
Continuous
 62
     7
100
AcDbLine
 10
3.0
 20
-104.5
 30
0.0
 11
3.0
 21
-104.1
 31
0.0
  0
LINE
  5
B965
330
A
100
AcDbEntity
  8
0
  6
Continuous
 62
     7
100
AcDbLine
 10
-3.0
 20
-104.1
 30
0.0
 11
-3.0
 21
-104.5
 31
0.0
  0
LINE
  5
B966
330
A
100
AcDbEntity
  8
0
  6
Continuous
 62
     7
100
AcDbLine
 10
-3.0
 20
-104.5
 30
0.0
 11
-3.0
 21
-104.505
 31
0.0
  0
LINE
  5
B967
330
A
100
AcDbEntity
  8
0
  6
Continuous
 62
     7
100
AcDbLine
 10
3.0
 20
-105.1
 30
0.0
 11
3.0
 21
-104.5
 31
0.0
  0
LINE
  5
B968
330
A
100
AcDbEntity
  8
0
  6
Continuous
 62
     7
100
AcDbLine
 10
3.0
 20
-104.5
 30
0.0
 11
3.0
 21
-104.495
 31
0.0
  0
LINE
  5
B969
330
A
100
AcDbEntity
  8
0
  6
Continuous
 62
     7
100
AcDbLine
 10
-3.0
 20
-104.495
 30
0.0
 11
-3.0
 21
-104.5
 31
0.0
  0
LINE
  5
B96A
330
A
100
AcDbEntity
  8
0
  6
Continuous
 62
     7
100
AcDbLine
 10
-3.0
 20
-104.5
 30
0.0
 11
-3.0
 21
-105.1
 31
0.0
  0
LINE
  5
B96B
330
A
100
AcDbEntity
  8
0
  6
Continuous
 62
     7
100
AcDbLine
 10
-4.900000000000004
 20
-111.1
 30
0.0
 11
-4.900000000000004
 21
-112.1
 31
0.0
  0
LINE
  5
B96C
330
A
100
AcDbEntity
  8
0
  6
Continuous
 62
     7
100
AcDbLine
 10
4.900000000000004
 20
-112.1
 30
0.0
 11
4.900000000000004
 21
-111.1
 31
0.0
  0
ELLIPSE
  5
B96D
330
A
100
AcDbEntity
  8
0
  6
Continuous
 62
     9
100
AcDbEllipse
 10
54.75720200000001
 20
-118.914494
 30
0.0
 11
4.600000000000021
 21
0.0
 31
0.0
210
0.0
220
0.0000000000000001
230
1.0
 40
0.4082480000000002
 41
4.248590244399069
 42
4.701456548817986
  0
ELLIPSE
  5
B96E
330
A
100
AcDbEntity
  8
0
  6
Continuous
 62
     9
100
AcDbEllipse
 10
54.75720200000001
 20
-118.914494
 30
0.0
 11
4.600000000000021
 21
0.0
 31
0.0
210
0.0
220
0.0000000000000001
230
1.0
 40
0.4082480000000002
 41
3.928036401399555
 42
4.248590244399085
  0
ELLIPSE
  5
B96F
330
A
100
AcDbEntity
  8
0
  6
Continuous
 62
     7
100
AcDbEllipse
 10
54.75720200000001
 20
-119.075267
 30
0.0
 11
4.600000000000021
 21
0.0
 31
0.0
210
0.0
220
0.0000000000000001
230
1.0
 40
0.4082480000000002
 41
3.676297950555488
 42
4.894513491192995
  0
LINE
  5
B970
330
A
100
AcDbEntity
  8
0
  6
Continuous
 62
     9
100
AcDbLine
 10
87.24279799999997
 20
-101.497025
 30
0.0
 11
89.03165200000001
 21
-100.036431
 31
0.0
  0
ELLIPSE
  5
B971
330
A
100
AcDbEntity
  8
0
  6
Continuous
 62
     7
100
AcDbEllipse
 10
89.03165200000001
 20
-105.513657
 30
0.0
 11
-3.79473319220208
 21
4.647580015448918
 31
-0.0000000000000002
210
0.0000000000000001
220
0.0000000000000001
230
0.9999999999999996
 40
0.8164970000000002
 41
3.926990816987236
 42
5.49778714378213
  0
LINE
  5
B972
330
A
100
AcDbEntity
  8
0
  6
Continuous
 62
     9
100
AcDbLine
 10
94.39821499999998
 20
-106.609102
 30
0.0
 11
92.60936099999998
 21
-108.069695
 31
0.0
  0
ELLIPSE
  5
B973
330
A
100
AcDbEntity
  8
0
  6
Continuous
 62
     7
100
AcDbEllipse
 10
87.24279799999997
 20
-106.97425
 30
0.0
 11
3.794733192202026
 21
-4.647580015448876
 31
0.0000000000000002
210
0.0000000000000001
220
0.0000000000000001
230
1.0
 40
0.8164970000000002
 41
0.7853981633974531
 42
2.356194490192344
  0
ELLIPSE
  5
B974
330
A
100
AcDbEntity
  8
0
  6
Continuous
 62
     7
100
AcDbEllipse
 10
87.24279799999997
 20
-154.443539
 30
0.0
 11
3.794733192202026
 21
-4.647580015448876
 31
0.0
210
0.0
220
0.0
230
1.0
 40
0.8164970000000002
 41
5.792302628888567
 42
6.283185307179581
  0
LINE
  5
B975
330
A
100
AcDbEntity
  8
0
  6
Continuous
 62
     7
100
AcDbLine
 10
67.56540000000001
 20
-97.48039300000002
 30
0.0
 11
67.56540000000001
 21
-101.131876
 31
0.0
  0
LINE
  5
B976
330
A
100
AcDbEntity
  8
0
  6
Continuous
 62
     7
100
AcDbLine
 10
87.24279799999997
 20
-101.497025
 30
0.0
 11
67.56540000000001
 21
-97.48039300000002
 31
0.0
  0
LINE
  5
B977
330
A
100
AcDbEntity
  8
0
  6
Continuous
 62
     7
100
AcDbLine
 10
92.60936099999998
 20
-155.538984
 30
0.0
 11
92.60936099999998
 21
-108.069695
 31
0.0
  0
LINE
  5
B978
330
A
100
AcDbEntity
  8
0
  6
Continuous
 62
     7
100
AcDbLine
 10
67.56540000000001
 20
-97.48039300000002
 30
0.0
 11
69.35425399999999
 21
-96.01979900000001
 31
0.0
  0
LINE
  5
B979
330
A
100
AcDbEntity
  8
0
  6
Continuous
 62
     7
100
AcDbLine
 10
89.03165200000001
 20
-100.036431
 30
0.0
 11
69.35425399999999
 21
-96.01979900000001
 31
0.0
  0
LINE
  5
B97A
330
A
100
AcDbEntity
  8
0
  6
Continuous
 62
     9
100
AcDbLine
 10
92.60936099999998
 20
-155.538984
 30
0.0
 11
94.39821499999998
 21
-154.07839
 31
0.0
  0
LINE
  5
B97B
330
A
100
AcDbEntity
  8
0
  6
Continuous
 62
     7
100
AcDbLine
 10
94.39821499999998
 20
-154.07839
 30
0.0
 11
94.39821499999998
 21
-106.609102
 31
0.0
  0
ELLIPSE
  5
B97C
330
A
100
AcDbEntity
  8
0
  6
Continuous
 62
     7
100
AcDbEllipse
 10
87.24279799999997
 20
-154.443539
 30
0.0
 11
3.794733192202024
 21
-4.647580015448882
 31
0.0
210
0.0
220
0.0
230
0.9999999999999998
 40
0.8164969999999998
 41
6.283185307179581
 42
7.068583470577036
  0
ELLIPSE
  5
B97D
330
A
100
AcDbEntity
  8
0
  6
Continuous
 62
     7
100
AcDbEllipse
 10
89.03165200000001
 20
-152.982945
 30
0.0
 11
-3.794733192202052
 21
4.64758001544891
 31
-0.0000000000000002
210
0.0000000000000001
220
0.0000000000000001
230
0.9999999999999998
 40
0.816497
 41
3.141592653589786
 42
3.926990816987236
  0
ELLIPSE
  5
B97E
330
A
100
AcDbEntity
  8
0
  6
Continuous
 62
     7
100
AcDbEllipse
 10
69.35425399999999
 20
-100.40158
 30
0.0
 11
1.011928851253868
 21
-1.239354670786369
 31
0.0
210
0.0
220
0.0
230
0.9999999999999998
 40
0.816497
 41
2.356194490192152
 42
3.141592653589602
  0
LINE
  5
B97F
330
A
100
AcDbEntity
  8
0
  6
Continuous
 62
     7
100
AcDbLine
 10
69.35425399999999
 20
-98.94098599999999
 30
0.0
 11
86.885027
 21
-102.51944
 31
0.0
  0
ELLIPSE
  5
B980
330
A
100
AcDbEntity
  8
0
  6
Continuous
 62
     7
100
AcDbEllipse
 10
86.885027
 20
-107.266369
 30
0.0
 11
3.288768766575106
 21
-4.027902680055705
 31
0.0
210
0.0
220
0.0
230
1.0
 40
0.816497
 41
0.7853981633976125
 42
2.356194490192185
  0
LINE
  5
B981
330
A
100
AcDbEntity
  8
0
  6
Continuous
 62
     7
100
AcDbLine
 10
91.536048
 20
-108.215755
 30
0.0
 11
91.536048
 21
-155.685043
 31
0.0
  0
ELLIPSE
  5
B982
330
A
100
AcDbEntity
  8
0
  6
Continuous
 62
     7
100
AcDbEllipse
 10
86.885027
 20
-154.735657
 30
0.0
 11
3.288768766575106
 21
-4.027902680055713
 31
0.0
210
0.0
220
0.0
230
0.9999999999999998
 40
0.8164970000000002
 41
5.957125083200911
 42
6.283185307179485
  0
LINE
  5
B983
330
A
100
AcDbEntity
  8
0
  6
Continuous
 62
     7
100
AcDbLine
 10
67.92317
 20
-101.204906
 30
0.0
 11
67.92317
 21
-100.109461
 31
0.0
  0
LINE
  5
B984
330
A
100
AcDbEntity
  8
0
  6
Continuous
 62
     9
100
AcDbLine
 10
86.885027
 20
-102.51944
 30
0.0
 11
87.24279799999997
 21
-102.227321
 31
0.0
  0
ELLIPSE
  5
B985
330
A
100
AcDbEntity
  8
0
  6
Continuous
 62
     7
100
AcDbEllipse
 10
87.24279799999997
 20
-106.97425
 30
0.0
 11
-3.288768766575106
 21
4.027902680055691
 31
0.0
210
0.0
220
0.0
230
1.0
 40
0.816497
 41
3.926990816987408
 42
5.497787143781978
  0
LINE
  5
B986
330
A
100
AcDbEntity
  8
0
  6
Continuous
 62
     9
100
AcDbLine
 10
91.89381899999998
 20
-107.923636
 30
0.0
 11
91.536048
 21
-108.215755
 31
0.0
  0
LINE
  5
B987
330
A
100
AcDbEntity
  8
0
  6
Continuous
 62
     9
100
AcDbLine
 10
69.71202500000001
 20
-98.64886699999999
 30
0.0
 11
69.35425399999999
 21
-98.94098599999999
 31
0.0
  0
LINE
  5
B988
330
A
100
AcDbEntity
  8
0
  6
Continuous
 62
     7
100
AcDbLine
 10
69.71202500000001
 20
-98.64886699999999
 30
0.0
 11
87.24279799999997
 21
-102.227321
 31
0.0
  0
LINE
  5
B989
330
A
100
AcDbEntity
  8
0
  6
Continuous
 62
     9
100
AcDbLine
 10
91.536048
 20
-155.685043
 30
0.0
 11
91.89381899999998
 21
-155.392924
 31
0.0
  0
LINE
  5
B98A
330
A
100
AcDbEntity
  8
0
  6
Continuous
 62
     7
100
AcDbLine
 10
91.89381899999998
 20
-107.923636
 30
0.0
 11
91.89381899999998
 21
-155.392924
 31
0.0
  0
ELLIPSE
  5
B98B
330
A
100
AcDbEntity
  8
0
  6
Continuous
 62
     7
100
AcDbEllipse
 10
69.71202500000001
 20
-100.109461
 30
0.0
 11
-1.011928851253868
 21
1.239354670786369
 31
-0.0000000000000001
210
0.0000000000000001
220
0.0000000000000001
230
0.9999999999999998
 40
0.816497
 41
5.497787143782124
 42
6.283185307179584
  0
ELLIPSE
  5
B98C
330
A
100
AcDbEntity
  8
0
  6
Continuous
 62
     7
100
AcDbEllipse
 10
69.35425399999999
 20
-100.40158
 30
0.0
 11
1.011928851253868
 21
-1.239354670786369
 31
0.0000000000000001
210
0.0000000000000001
220
0.0000000000000001
230
0.9999999999999998
 40
0.816497
 41
3.141592653589773
 42
3.926990816987214
  0
ELLIPSE
  5
B98D
330
A
100
AcDbEntity
  8
0
  6
Continuous
 62
     7
100
AcDbEllipse
 10
86.885027
 20
-154.735657
 30
0.0
 11
3.288768766575106
 21
-4.027902680055705
 31
0.0000000000000002
210
0.0000000000000001
220
0.0000000000000001
230
1.0
 40
0.816497
 41
6.283185307179584
 42
7.068583470577032
  0
ELLIPSE
  5
B98E
330
A
100
AcDbEntity
  8
0
  6
Continuous
 62
     7
100
AcDbEllipse
 10
87.24279799999997
 20
-154.443539
 30
0.0
 11
-3.288768766575106
 21
4.027902680055698
 31
0.0
210
0.0
220
0.0
230
1.0
 40
0.816497
 41
3.141592653589968
 42
3.926990816987411
  0
ELLIPSE
  5
B98F
330
A
100
AcDbEntity
  8
0
  6
Continuous
 62
     7
100
AcDbEllipse
 10
54.75720200000001
 20
-119.075267
 30
0.0
 11
6.000000000000003
 21
0.0
 31
0.0
210
0.0
220
0.0000000000000001
230
1.0
 40
0.4082480000000002
 41
4.779993229438379
 42
5.223118947783638
  0
ELLIPSE
  5
B990
330
A
100
AcDbEntity
  8
0
  6
Continuous
 62
     7
100
AcDbEllipse
 10
55.10847699999999
 20
-121.193309
 30
0.0
 11
0.7999999999999952
 21
0.0
 31
0.0
210
0.0
220
0.0000000000000001
230
1.0
 40
0.4082480000000002
 41
3.996439501089117
 42
4.779993229438355
  0
ELLIPSE
  5
B991
330
A
100
AcDbEntity
  8
0
  6
Continuous
 62
     7
100
AcDbEllipse
 10
52.220607
 20
-122.548559
 30
0.0
 11
-3.60000000000002
 21
0.0
 31
0.0
210
0.0
220
0.0000000000000001
230
1.0
 40
0.4082480000000002
 41
3.996439501089127
 42
4.848821632811537
  0
ELLIPSE
  5
B992
330
A
100
AcDbEntity
  8
0
  6
Continuous
 62
     7
100
AcDbEllipse
 10
51.622164
 20
-120.768958
 30
0.0
 11
0.7999999999999952
 21
0.0
 31
0.0
210
0.0
220
0.0000000000000001
230
1.0
 40
0.4082480000000002
 41
4.065267904462262
 42
4.848821632811533
  0
ELLIPSE
  5
B993
330
A
100
AcDbEntity
  8
0
  6
Continuous
 62
     7
100
AcDbEllipse
 10
54.75720200000001
 20
-119.075267
 30
0.0
 11
6.000000000000003
 21
0.0
 31
0.0
210
0.0
220
0.0000000000000001
230
1.0
 40
0.4082480000000002
 41
3.141592653589792
 42
4.065267904462273
  0
ELLIPSE
  5
B994
330
A
100
AcDbEntity
  8
0
  6
Continuous
 62
     7
100
AcDbEllipse
 10
54.75720200000001
 20
-142.809911
 30
0.0
 11
6.000000000000003
 21
0.0
 31
0.0
210
0.0
220
0.0000000000000001
230
1.0
 40
0.4082480000000002
 41
4.779993229438379
 42
5.372946549304774
  0
LINE
  5
B995
330
A
100
AcDbEntity
  8
0
  6
Continuous
 62
     9
100
AcDbLine
 10
55.162519
 20
-145.253806
 30
0.0
 11
55.162519
 21
-121.519162
 31
0.0
  0
ELLIPSE
  5
B996
330
A
100
AcDbEntity
  8
0
  6
Continuous
 62
     7
100
AcDbEllipse
 10
52.220607
 20
-146.283203
 30
0.0
 11
-3.60000000000002
 21
0.0
 31
0.0
210
0.0
220
0.0000000000000001
230
1.0
 40
0.4082480000000002
 41
3.996439501089127
 42
4.848821632811537
  0
LINE
  5
B997
330
A
100
AcDbEntity
  8
0
  6
Continuous
 62
     9
100
AcDbLine
 10
51.73097099999998
 20
-144.827166
 30
0.0
 11
51.73097099999998
 21
-121.092522
 31
0.0
  0
LINE
  5
B998
330
A
100
AcDbEntity
  8
0
  6
Continuous
 62
     9
100
AcDbLine
 10
54.58340900000002
 20
-145.174362
 30
0.0
 11
54.58340900000002
 21
-121.439718
 31
0.0
  0
ELLIPSE
  5
B999
330
A
100
AcDbEntity
  8
0
  6
Continuous
 62
     7
100
AcDbEllipse
 10
55.10847699999999
 20
-144.927953
 30
0.0
 11
0.7999999999999952
 21
0.0
 31
0.0
210
0.0
220
0.0000000000000001
230
1.0
 40
0.4082480000000002
 41
3.996439501089117
 42
4.779993229438353
  0
ELLIPSE
  5
B99A
330
A
100
AcDbEntity
  8
0
  6
Continuous
 62
     7
100
AcDbEllipse
 10
51.622164
 20
-144.503602
 30
0.0
 11
0.7999999999999952
 21
0.0
 31
0.0
210
0.0
220
0.0000000000000001
230
1.0
 40
0.4082480000000002
 41
4.065267904462261
 42
4.848821632811536
  0
LINE
  5
B99B
330
A
100
AcDbEntity
  8
0
  6
Continuous
 62
     9
100
AcDbLine
 10
51.13984999999999
 20
-144.76417
 30
0.0
 11
51.13984999999999
 21
-121.029526
 31
0.0
  0
ELLIPSE
  5
B99C
330
A
100
AcDbEntity
  8
0
  6
Continuous
 62
     7
100
AcDbEllipse
 10
54.75720200000001
 20
-119.075267
 30
0.0
 11
6.000000000000003
 21
0.0
 31
0.0
210
0.0
220
0.0000000000000001
230
1.0
 40
0.4082480000000002
 41
2.986936695636646
 42
3.141592653589792
  0
ELLIPSE
  5
B99D
330
A
100
AcDbEntity
  8
0
  6
Continuous
 62
     7
100
AcDbEllipse
 10
54.75720200000001
 20
-142.809911
 30
0.0
 11
6.000000000000003
 21
0.0
 31
0.0
210
0.0
220
0.0000000000000001
230
1.0
 40
0.4082480000000002
 41
3.141592653589792
 42
4.065267904462273
  0
LINE
  5
B99E
330
A
100
AcDbEntity
  8
0
  6
Continuous
 62
     7
100
AcDbLine
 10
46.34958700000001
 20
-157.890539
 30
0.0
 11
46.34958700000001
 21
-99.4668
 31
0.0
  0
LINE
  5
B99F
330
A
100
AcDbEntity
  8
0
  6
Continuous
 62
     7
100
AcDbLine
 10
46.34958700000001
 20
-99.4668
 30
0.0
 11
49.211754
 21
-100.051037
 31
0.0
  0
LINE
  5
B9A0
330
A
100
AcDbEntity
  8
0
  6
Continuous
 62
     7
100
AcDbLine
 10
49.211754
 20
-100.786108
 30
0.0
 11
49.211754
 21
-100.051037
 31
0.0
  0
LINE
  5
B9A1
330
A
100
AcDbEntity
  8
0
  6
Continuous
 62
     7
100
AcDbLine
 10
46.34958700000001
 20
-157.890539
 30
0.0
 11
48.68564799999997
 21
-158.367386
 31
0.0
  0
LINE
  5
B9A2
330
A
100
AcDbEntity
  8
0
  6
Continuous
 62
     7
100
AcDbLine
 10
49.211754
 20
-100.051037
 30
0.0
 11
51.60063400000002
 21
-98.100524
 31
0.0
  0
LINE
  5
B9A3
330
A
100
AcDbEntity
  8
0
  6
Continuous
 62
     7
100
AcDbLine
 10
51.60063400000002
 20
-99.08224800000001
 30
0.0
 11
51.60063400000002
 21
-98.100524
 31
0.0
  0
LINE
  5
B9A4
330
A
100
AcDbEntity
  8
0
  6
Continuous
 62
     7
100
AcDbLine
 10
58.87156700000001
 20
-89.24264499999997
 30
0.0
 11
46.34958700000001
 21
-99.4668
 31
0.0
  0
LINE
  5
B9A5
330
A
100
AcDbEntity
  8
0
  6
Continuous
 62
     7
100
AcDbLine
 10
61.37596299999998
 20
-89.75385300000002
 30
0.0
 11
58.87156700000001
 21
-89.24264499999997
 31
0.0
  0
LINE
  5
B9A6
330
A
100
AcDbEntity
  8
0
  6
Continuous
 62
     7
100
AcDbLine
 10
51.71615
 20
-97.64105800000001
 30
0.0
 11
61.37596299999998
 21
-89.75385300000002
 31
0.0
  0
ELLIPSE
  5
B9A7
330
A
100
AcDbEntity
  8
0
  6
Continuous
 62
     7
100
AcDbEllipse
 10
53.14723299999999
 20
-97.93317700000001
 30
0.0
 11
1.600000000000016
 21
0.0
 31
0.0
210
0.0
220
0.0000000000000001
230
0.9999999999999998
 40
0.4082480000000001
 41
3.141592653589792
 42
3.400679292401191
  0
ELLIPSE
  5
B9A8
330
A
100
AcDbEntity
  8
0
  6
Continuous
 62
     7
100
AcDbEllipse
 10
53.14723299999999
 20
-97.93317700000001
 30
0.0
 11
1.600000000000016
 21
0.0
 31
0.0
210
0.0
220
0.0000000000000001
230
0.9999999999999998
 40
0.4082480000000001
 41
2.677945044588994
 42
3.141592653589792
  0
LINE
  5
B9A9
330
A
100
AcDbEntity
  8
0
  6
Continuous
 62
     9
100
AcDbLine
 10
51.71615
 20
-97.64105800000001
 30
0.0
 11
51.71615
 21
-99.046879
 31
0.0
  0
ELLIPSE
  5
B9AA
330
A
100
AcDbEntity
  8
0
  6
Continuous
 62
     7
100
AcDbEllipse
 10
58.51379599999997
 20
-99.39377
 30
0.0
 11
-0.7999999999999954
 21
-3.919183588453085
 31
0.0000000000000003
210
0.0
220
0.0000000000000001
230
1.0
 40
0.4082480000000002
 41
3.141592653589828
 42
4.865033693328467
  0
LINE
  5
B9AB
330
A
100
AcDbEntity
  8
0
  6
Continuous
 62
     7
100
AcDbLine
 10
61.37596299999998
 20
-100.59876
 30
0.0
 11
61.37596299999998
 21
-89.75385300000002
 31
0.0
  0
ELLIPSE
  5
B9AC
330
A
100
AcDbEntity
  8
0
  6
Continuous
 62
     7
100
AcDbEllipse
 10
58.156026
 20
-99.32074
 30
0.0
 11
-0.7999999999999954
 21
-3.919183588453071
 31
0.0
210
0.0
220
0.0
230
1.0
 40
0.4082480000000002
 41
1.418151613851136
 42
3.029555010939332
  0
ELLIPSE
  5
B9AD
330
A
100
AcDbEntity
  8
0
  6
Continuous
 62
     7
100
AcDbEllipse
 10
58.51379599999997
 20
-99.39377
 30
0.0
 11
-0.7999999999999954
 21
-3.919183588453085
 31
0.0
210
0.0
220
0.0
230
1.0
 40
0.4082480000000002
 41
1.418151613851168
 42
3.141592653589792
  0
ELLIPSE
  5
B9AE
330
A
100
AcDbEntity
  8
0
  6
Continuous
 62
     7
100
AcDbEllipse
 10
56.474502
 20
-98.97750100000001
 30
0.0
 11
-0.4240000000000079
 21
-2.077167301880149
 31
0.0
210
0.0
220
0.0
230
1.0
 40
0.4082480000000002
 41
1.2798157277399
 42
2.034443935795827
  0
ELLIPSE
  5
B9AF
330
A
100
AcDbEntity
  8
0
  6
Continuous
 62
     7
100
AcDbEllipse
 10
56.474502
 20
-98.97750100000001
 30
0.0
 11
-0.4240000000000079
 21
-2.077167301880149
 31
0.0000000000000001
210
0.0
220
0.0000000000000001
230
1.0
 40
0.4082480000000002
 41
2.034443935795708
 42
2.40717608259181
  0
ELLIPSE
  5
B9B0
330
A
100
AcDbEntity
  8
0
  6
Continuous
 62
     7
100
AcDbEllipse
 10
82.858651
 20
-89.43062299999999
 30
0.0
 11
-81.81600000000001
 21
0.0
 31
0.0
210
0.0
220
0.0000000000000001
230
1.0
 40
0.4082480000000002
 41
1.190067656998001
 42
1.267700950933891
  0
LINE
  5
B9B1
330
A
100
AcDbEntity
  8
0
  6
Continuous
 62
     9
100
AcDbLine
 10
52.45606599999999
 20
-120.44014
 30
0.0
 11
52.45606599999999
 21
-104.063235
 31
0.0
  0
ELLIPSE
  5
B9B2
330
A
100
AcDbEntity
  8
0
  6
Continuous
 62
     7
100
AcDbEllipse
 10
82.858651
 20
-73.053719
 30
0.0
 11
-81.81600000000001
 21
0.0
 31
0.0
210
0.0
220
0.0000000000000001
230
1.0
 40
0.4082480000000002
 41
1.190067656998001
 42
1.55026784203369
  0
LINE
  5
B9B8
330
A
100
AcDbEntity
  8
0
  6
Continuous
 62
     7
100
AcDbLine
 10
87.95833999999997
 20
-159.336527
 30
0.0
 11
87.95833999999997
 21
-111.867238
 31
0.0
  0
ARC
  5
B9B9
330
A
100
AcDbEntity
  8
0
  6
Continuous
 62
     7
100
AcDbCircle
 10
81.28459799999998
 20
-157.370524
 30
0.0
 40
7.501878999999998
100
AcDbArc
 50
269.1950690000004
 51
308.3865169999999
  0
ELLIPSE
  5
B9BA
330
A
100
AcDbEntity
  8
0
  6
Continuous
 62
     7
100
AcDbEllipse
 10
82.858651
 20
-131.477458
 30
0.0
 11
-81.81600000000001
 21
0.0
 31
0.0
210
0.0
220
0.0000000000000001
230
1.0
 40
0.4082480000000002
 41
1.190067656998001
 42
1.55026784203369
  0
LINE
  5
B9BB
330
A
100
AcDbEntity
  8
0
  6
Continuous
 62
     9
100
AcDbLine
 10
52.45606599999999
 20
-162.486975
 30
0.0
 11
52.45606599999999
 21
-146.11007
 31
0.0
  0
ELLIPSE
  5
B9BC
330
A
100
AcDbEntity
  8
0
  6
Continuous
 62
     7
100
AcDbEllipse
 10
82.858651
 20
-115.100554
 30
0.0
 11
81.81600000000001
 21
0.0
 31
-0.0000000000000007
210
0.0
220
0.0000000000000001
230
1.0
 40
0.4082480000000002
 41
4.331660310587796
 42
4.409293604523684
  0
LINE
  5
B9BD
330
A
100
AcDbEntity
  8
0
  6
Continuous
 62
     7
100
AcDbLine
 10
58.438546
 20
-146.979273
 30
0.0
 11
58.438546
 21
-121.309342
 31
0.0
  0
ELLIPSE
  5
B9BE
330
A
100
AcDbEntity
  8
0
  6
Continuous
 62
     7
100
AcDbEllipse
 10
54.75720200000001
 20
-101.73072
 30
0.0
 11
2.0
 21
0.0
 31
0.0
210
0.0
220
0.0000000000000001
230
1.0
 40
0.4082480000000002
 41
3.141592653589792
 42
5.819537698178768
  0
ELLIPSE
  5
B9BF
330
A
100
AcDbEntity
  8
0
  6
Continuous
 62
     7
100
AcDbEllipse
 10
63.20059499999999
 20
-100.898181
 30
0.0
 11
0.1600000000000212
 21
0.0
 31
0.0
210
0.0
220
0.0000000000000001
230
1.0
 40
0.4082480000000002
 41
4.248741371383961
 42
5.819537698178857
  0
LINE
  5
B9C0
330
A
100
AcDbEntity
  8
0
  6
Continuous
 62
     7
100
AcDbLine
 10
63.98769099999999
 20
-100.40158
 30
0.0
 11
63.343703
 21
-100.927393
 31
0.0
  0
LINE
  5
B9C1
330
A
100
AcDbEntity
  8
0
  6
Continuous
 62
     7
100
AcDbLine
 10
83.66508899999997
 20
-104.418212
 30
0.0
 11
63.98769099999999
 21
-100.40158
 31
0.0
  0
LINE
  5
B9C2
330
A
100
AcDbEntity
  8
0
  6
Continuous
 62
     9
100
AcDbLine
 10
81.17921
 20
-106.447923
 30
0.0
 11
83.66508899999997
 21
-104.418212
 31
0.0
  0
ELLIPSE
  5
B9C3
330
A
100
AcDbEntity
  8
0
  6
Continuous
 62
     7
100
AcDbEllipse
 10
54.68564799999999
 20
-101.789143
 30
0.0
 11
-6.000000000000003
 21
0.0
 31
0.0
210
0.0
220
0.0000000000000001
230
1.0
 40
0.4082480000000002
 41
5.81953769817878
 42
6.28318530717959
  0
LINE
  5
B9C4
330
A
100
AcDbEntity
  8
0
  6
Continuous
 62
     7
100
AcDbLine
 10
51.10793899999999
 20
-99.23310499999999
 30
0.0
 11
49.319085
 21
-100.693698
 31
0.0
  0
LINE
  5
B9C5
330
A
100
AcDbEntity
  8
0
  6
Continuous
 62
     7
100
AcDbLine
 10
52.539023
 20
-98.794927
 30
0.0
 11
51.10793899999999
 21
-99.23310499999999
 31
0.0
  0
LINE
  5
B9C6
330
A
100
AcDbEntity
  8
0
  6
Continuous
 62
     7
100
AcDbLine
 10
63.129041
 20
-100.956605
 30
0.0
 11
52.539023
 21
-98.794927
 31
0.0
  0
ELLIPSE
  5
B9C7
330
A
100
AcDbEntity
  8
0
  6
Continuous
 62
     7
100
AcDbEllipse
 10
83.66508899999997
 20
-109.895437
 30
0.0
 11
-3.794733192202053
 21
4.647580015448889
 31
-0.0000000000000002
210
0.0
220
0.0
230
0.9999999999999998
 40
0.816497
 41
3.92699081698724
 42
5.497787143782132
  0
LINE
  5
B9C8
330
A
100
AcDbEntity
  8
0
  6
Continuous
 62
     9
100
AcDbLine
 10
89.03165200000001
 20
-110.990882
 30
0.0
 11
87.95833999999997
 21
-111.867238
 31
0.0
  0
LINE
  5
B9C9
330
A
100
AcDbEntity
  8
0
  6
Continuous
 62
     9
100
AcDbLine
 10
87.95833999999997
 20
-159.336527
 30
0.0
 11
89.03165200000001
 21
-158.460171
 31
0.0
  0
LINE
  5
B9CA
330
A
100
AcDbEntity
  8
0
  6
Continuous
 62
     7
100
AcDbLine
 10
89.03165200000001
 20
-158.460171
 30
0.0
 11
89.03165200000001
 21
-110.990882
 31
0.0
  0
ELLIPSE
  5
B9CB
330
A
100
AcDbEntity
  8
0
  6
Continuous
 62
     7
100
AcDbEllipse
 10
54.68564799999999
 20
-101.789143
 30
0.0
 11
-6.000000000000003
 21
0.0
 31
0.0
210
0.0
220
0.0000000000000001
230
1.0
 40
0.4082480000000002
 41
0.0000000000000046
 42
1.190067656998001
  0
ELLIPSE
  5
B9CC
330
A
100
AcDbEntity
  8
0
  6
Continuous
 62
     7
100
AcDbEllipse
 10
54.68564799999999
 20
-118.166048
 30
0.0
 11
-6.000000000000003
 21
0.0
 31
0.0
210
0.0
220
0.0000000000000001
230
1.0
 40
0.4082480000000002
 41
6.283185307179584
 42
7.473252964177584
  0
ELLIPSE
  5
B9CD
330
A
100
AcDbEntity
  8
0
  6
Continuous
 62
     7
100
AcDbEllipse
 10
54.75720200000001
 20
-101.73072
 30
0.0
 11
2.0
 21
0.0
 31
0.0
210
0.0
220
0.0000000000000001
230
1.0
 40
0.4082480000000002
 41
5.819537698178768
 42
6.283185307179584
  0
ELLIPSE
  5
B9CE
330
A
100
AcDbEntity
  8
0
  6
Continuous
 62
     7
100
AcDbEllipse
 10
54.75720200000001
 20
-101.73072
 30
0.0
 11
2.0
 21
0.0
 31
0.0
210
0.0
220
0.0000000000000001
230
1.0
 40
0.4082480000000002
 41
0.0
 42
3.141592653589792
  0
ARC
  5
B9CF
330
A
100
AcDbEntity
  8
0
  6
Continuous
 62
     7
100
AcDbCircle
 10
82.842701
 20
-159.178582
 30
0.0
 40
5.118076
100
AcDbArc
 50
307.2830329999998
 51
358.2315560000001
  0
ELLIPSE
  5
B9D0
330
A
100
AcDbEntity
  8
0
  6
Continuous
 62
     7
100
AcDbEllipse
 10
83.66508899999997
 20
-157.364726
 30
0.0
 11
-3.794733192202053
 21
4.647580015448895
 31
-0.0000000000000002
210
0.0
220
0.0
230
1.0
 40
0.8164970000000002
 41
3.141592653589796
 42
3.926990816987241
  0
ELLIPSE
  5
B9D1
330
A
100
AcDbEntity
  8
0
  6
Continuous
 62
     7
100
AcDbEllipse
 10
54.68564799999999
 20
-143.835978
 30
0.0
 11
6.000000000000003
 21
0.0
 31
0.0
210
0.0
220
0.0000000000000001
230
1.0
 40
0.4082480000000002
 41
3.141592653589798
 42
4.331660310587793
  0
ELLIPSE
  5
B9D2
330
A
100
AcDbEntity
  8
0
  6
Continuous
 62
     7
100
AcDbEllipse
 10
54.68564799999999
 20
-160.212883
 30
0.0
 11
-6.000000000000003
 21
0.0
 31
0.0
210
0.0
220
0.0000000000000001
230
1.0
 40
0.4082480000000002
 41
0.0000000000000023
 42
1.190067656997999
  0
ELLIPSE
  5
B9D3
330
A
100
AcDbEntity
  8
0
  6
Continuous
 62
     7
100
AcDbEllipse
 10
54.68564799999999
 20
-143.835978
 30
0.0
 11
6.000000000000003
 21
0.0
 31
0.0
210
0.0
220
0.0000000000000001
230
1.0
 40
0.4082480000000002
 41
2.902036430852788
 42
3.141592653589798
  0
ARC
  5
B9D4
330
A
100
AcDbEntity
  8
0
  6
Continuous
 62
     7
100
AcDbCircle
 10
54.628356
 20
-136.645833
 30
0.0
 40
8.579971
100
AcDbArc
 50
252.2340170000004
 51
269.5820280000001
  0
LINE
  5
B9D5
330
A
100
AcDbEntity
  8
0
  6
Continuous
 62
     7
100
AcDbLine
 10
54.56576599999999
 20
-145.225575
 30
0.0
 11
54.786416
 21
-145.227307
 31
0.0
  0
LINE
  5
B9D6
330
A
100
AcDbEntity
  8
0
  6
Continuous
 62
     7
100
AcDbLine
 10
91.037531
 20
-159.091119
 30
0.0
 11
92.82638500000002
 21
-157.630525
 31
0.0
  0
LINE
  5
B9D7
330
A
100
AcDbEntity
  8
0
  6
Continuous
 62
     7
100
AcDbLine
 10
68.700096
 20
-98.87010600000001
 30
0.0
 11
68.34232499999997
 21
-99.16222500000001
 31
0.0
  0
LINE
  5
B9D8
330
A
100
AcDbEntity
  8
0
  6
Continuous
 62
     7
100
AcDbLine
 10
90.17379599999999
 20
-158.76356
 30
0.0
 11
90.531567
 21
-158.471441
 31
0.0
  0
ARC
  5
B9D9
330
A
100
AcDbEntity
  8
0
  6
Continuous
 62
     7
100
AcDbCircle
 10
54.75720200000001
 20
-103.191313
 30
0.0
 40
2.0
100
AcDbArc
 50
31.23739800000036
 51
148.7626019999996
  0
LINE
  5
B9DA
330
A
100
AcDbEntity
  8
0
  6
Continuous
 62
     7
100
AcDbLine
 10
48.75720199999999
 20
-119.075267
 30
0.0
 11
48.75720199999999
 21
-142.809911
 31
0.0
  0
LINE
  5
B9DB
330
A
100
AcDbEntity
  8
0
  6
Continuous
 62
     7
100
AcDbLine
 10
48.68564799999997
 20
-101.789143
 30
0.0
 11
48.68564799999997
 21
-118.166048
 31
0.0
  0
LINE
  5
B9DC
330
A
100
AcDbEntity
  8
0
  6
Continuous
 62
     7
100
AcDbLine
 10
85.94291100000003
 20
-163.250858
 30
0.0
 11
87.459822
 21
-162.012306
 31
0.0
  0
LINE
  5
B9DD
330
A
100
AcDbEntity
  8
0
  6
Continuous
 62
     7
100
AcDbLine
 10
48.68564799999997
 20
-143.835978
 30
0.0
 11
48.68564799999997
 21
-160.212883
 31
0.0
  0
LINE
  5
B9DE
330
A
100
AcDbEntity
  8
0
  6
Continuous
 62
     9
100
AcDbLine
 10
77.9
 20
-7.742006000000002
 30
0.0
 11
84.48891799999998
 21
-7.742006000000002
 31
0.0
  0
LINE
  5
B9DF
330
A
100
AcDbEntity
  8
0
  6
Continuous
 62
     9
100
AcDbLine
 10
85.15
 20
-8.529852000000005
 30
0.0
 11
77.9
 21
-8.529852000000005
 31
0.0
  0
LINE
  5
B9E0
330
A
100
AcDbEntity
  8
0
  6
Continuous
 62
     7
100
AcDbLine
 10
83.40000000000001
 20
-7.550000000000012
 30
0.0
 11
77.9
 21
-7.550000000000012
 31
0.0
  0
LINE
  5
B9E1
330
A
100
AcDbEntity
  8
0
  6
Continuous
 62
     9
100
AcDbLine
 10
77.9
 20
-41.470148
 30
0.0
 11
85.15
 21
-41.470148
 31
0.0
  0
LINE
  5
B9E2
330
A
100
AcDbEntity
  8
0
  6
Continuous
 62
     9
100
AcDbLine
 10
84.48891899999997
 20
-42.25799399999998
 30
0.0
 11
77.9
 21
-42.25799399999998
 31
0.0
  0
LINE
  5
B9E3
330
A
100
AcDbEntity
  8
0
  6
Continuous
 62
     7
100
AcDbLine
 10
77.9
 20
-42.44999999999999
 30
0.0
 11
83.40000000000001
 21
-42.44999999999999
 31
0.0
  0
LINE
  5
B9E4
330
A
100
AcDbEntity
  8
0
  6
Continuous
 62
     7
100
AcDbLine
 10
77.9
 20
-65.0
 30
0.0
 11
77.9
 21
15.0
 31
0.0
  0
LINE
  5
B9E5
330
A
100
AcDbEntity
  8
0
  6
Continuous
 62
     7
100
AcDbLine
 10
42.9
 20
-65.0
 30
0.0
 11
77.9
 21
-65.0
 31
0.0
  0
LINE
  5
B9E6
330
A
100
AcDbEntity
  8
0
  6
Continuous
 62
     7
100
AcDbLine
 10
42.9
 20
15.0
 30
0.0
 11
77.9
 21
15.0
 31
0.0
  0
CIRCLE
  5
B9E7
330
A
100
AcDbEntity
  8
0
  6
Continuous
 62
     7
100
AcDbCircle
 10
65.9
 20
-25.0
 30
0.0
 40
2.649999999999999
  0
CIRCLE
  5
B9E8
330
A
100
AcDbEntity
  8
0
  6
Continuous
 62
     7
100
AcDbCircle
 10
50.89999999999999
 20
-55.0
 30
0.0
 40
2.649999999999999
  0
CIRCLE
  5
B9E9
330
A
100
AcDbEntity
  8
0
  6
Continuous
 62
     7
100
AcDbCircle
 10
50.89999999999999
 20
5.0
 30
0.0
 40
2.649999999999999
  0
LINE
  5
B9EA
330
A
100
AcDbEntity
  8
0
  6
Continuous
 62
     7
100
AcDbLine
 10
42.9
 20
-65.0
 30
0.0
 11
42.9
 21
15.0
 31
0.0
  0
LINE
  5
B9EB
330
A
100
AcDbEntity
  8
0
  6
Continuous
 62
     9
100
AcDbLine
 10
78.9
 20
-8.75
 30
0.0
 11
78.9
 21
-41.25
 31
0.0
  0
LINE
  5
B9EC
330
A
100
AcDbEntity
  8
0
  6
Continuous
 62
     7
100
AcDbLine
 10
78.9
 20
-41.25
 30
0.0
 11
77.9
 21
-41.25
 31
0.0
  0
LINE
  5
B9ED
330
A
100
AcDbEntity
  8
0
  6
Continuous
 62
     7
100
AcDbLine
 10
78.9
 20
-8.75
 30
0.0
 11
77.9
 21
-8.75
 31
0.0
  0
LINE
  5
B9EE
330
A
100
AcDbEntity
  8
0
  6
Continuous
 62
     9
100
AcDbLine
 10
79.40000000000002
 20
-41.25
 30
0.0
 11
79.40000000000002
 21
-8.75
 31
0.0
  0
LINE
  5
B9EF
330
A
100
AcDbEntity
  8
0
  6
Continuous
 62
     9
100
AcDbLine
 10
86.77411899999999
 20
-41.25
 30
0.0
 11
86.77411899999999
 21
-8.75
 31
0.0
  0
LINE
  5
B9F0
330
A
100
AcDbEntity
  8
0
  6
Continuous
 62
     7
100
AcDbLine
 10
86.77411899999999
 20
-41.25
 30
0.0
 11
79.40000000000002
 21
-41.25
 31
0.0
  0
LINE
  5
B9F1
330
A
100
AcDbEntity
  8
0
  6
Continuous
 62
     7
100
AcDbLine
 10
86.77411899999999
 20
-8.75
 30
0.0
 11
79.40000000000002
 21
-8.75
 31
0.0
  0
LINE
  5
B9F2
330
A
100
AcDbEntity
  8
0
  6
Continuous
 62
     7
100
AcDbLine
 10
79.40000000000002
 20
-41.25
 30
0.0
 11
78.9
 21
-41.25
 31
0.0
  0
LINE
  5
B9F3
330
A
100
AcDbEntity
  8
0
  6
Continuous
 62
     7
100
AcDbLine
 10
79.40000000000002
 20
-8.75
 30
0.0
 11
78.9
 21
-8.75
 31
0.0
  0
LINE
  5
B9F4
330
A
100
AcDbEntity
  8
0
  6
Continuous
 62
     7
100
AcDbLine
 10
86.79090300000002
 20
-41.25
 30
0.0
 11
86.77411899999999
 21
-41.25
 31
0.0
  0
LINE
  5
B9F5
330
A
100
AcDbEntity
  8
0
  6
Continuous
 62
     7
100
AcDbLine
 10
86.79090300000002
 20
-8.75
 30
0.0
 11
86.77411899999999
 21
-8.75
 31
0.0
  0
LINE
  5
B9F6
330
A
100
AcDbEntity
  8
0
  6
Continuous
 62
     9
100
AcDbLine
 10
79.59999999999998
 20
-65.0
 30
0.0
 11
79.59999999999998
 21
-42.57499999999999
 31
0.0
  0
LINE
  5
B9F7
330
A
100
AcDbEntity
  8
0
  6
Continuous
 62
     7
100
AcDbLine
 10
77.9
 20
-65.0
 30
0.0
 11
79.59999999999998
 21
-65.0
 31
0.0
  0
LINE
  5
B9F8
330
A
100
AcDbEntity
  8
0
  6
Continuous
 62
     7
100
AcDbLine
 10
79.59999999999998
 20
-42.57499999999999
 30
0.0
 11
77.9
 21
-42.57499999999999
 31
0.0
  0
LINE
  5
B9F9
330
A
100
AcDbEntity
  8
0
  6
Continuous
 62
     7
100
AcDbLine
 10
87.09999999999999
 20
-42.57499999999999
 30
0.0
 11
79.59999999999998
 21
-42.57499999999999
 31
0.0
  0
LINE
  5
B9FA
330
A
100
AcDbEntity
  8
0
  6
Continuous
 62
     7
100
AcDbLine
 10
79.59999999999998
 20
-65.0
 30
0.0
 11
87.09999999999999
 21
-65.0
 31
0.0
  0
LINE
  5
B9FB
330
A
100
AcDbEntity
  8
0
  6
Continuous
 62
     7
100
AcDbLine
 10
79.59999999999998
 20
15.0
 30
0.0
 11
87.09999999999999
 21
15.0
 31
0.0
  0
LINE
  5
B9FC
330
A
100
AcDbEntity
  8
0
  6
Continuous
 62
     9
100
AcDbLine
 10
79.59999999999998
 20
-7.425000000000012
 30
0.0
 11
79.59999999999998
 21
15.0
 31
0.0
  0
LINE
  5
B9FD
330
A
100
AcDbEntity
  8
0
  6
Continuous
 62
     7
100
AcDbLine
 10
79.59999999999998
 20
-7.425000000000012
 30
0.0
 11
87.09999999999999
 21
-7.425000000000012
 31
0.0
  0
LINE
  5
B9FE
330
A
100
AcDbEntity
  8
0
  6
Continuous
 62
     7
100
AcDbLine
 10
77.9
 20
15.0
 30
0.0
 11
79.59999999999998
 21
15.0
 31
0.0
  0
LINE
  5
B9FF
330
A
100
AcDbEntity
  8
0
  6
Continuous
 62
     7
100
AcDbLine
 10
77.9
 20
-7.425000000000012
 30
0.0
 11
79.59999999999998
 21
-7.425000000000012
 31
0.0
  0
LINE
  5
BA00
330
A
100
AcDbEntity
  8
0
  6
Continuous
 62
     7
100
AcDbLine
 10
86.11033199999999
 20
-42.57499999999999
 30
0.0
 11
86.11033199999999
 21
-41.25
 31
0.0
  0
LINE
  5
BA01
330
A
100
AcDbEntity
  8
0
  6
Continuous
 62
     7
100
AcDbLine
 10
86.11033199999999
 20
-8.75
 30
0.0
 11
86.11033199999999
 21
-7.425000000000012
 31
0.0
  0
ARC
  5
BA02
330
A
100
AcDbEntity
  8
0
  6
Continuous
 62
     7
100
AcDbCircle
 10
84.35
 20
-8.529852000000005
 30
0.0
 40
0.8
100
AcDbArc
 50
0.0
 51
79.9999999999998
  0
LINE
  5
BA03
330
A
100
AcDbEntity
  8
0
  6
Continuous
 62
     7
100
AcDbLine
 10
85.15
 20
-8.75
 30
0.0
 11
85.15
 21
-8.529852000000005
 31
0.0
  0
LINE
  5
BA04
330
A
100
AcDbEntity
  8
0
  6
Continuous
 62
     7
100
AcDbLine
 10
84.48891899999997
 20
-7.742006000000002
 30
0.0
 11
83.40000000000001
 21
-7.550000000000012
 31
0.0
  0
LINE
  5
BA05
330
A
100
AcDbEntity
  8
0
  6
Continuous
 62
     7
100
AcDbLine
 10
85.15
 20
-41.470148
 30
0.0
 11
85.15
 21
-41.25
 31
0.0
  0
ARC
  5
BA06
330
A
100
AcDbEntity
  8
0
  6
Continuous
 62
     7
100
AcDbCircle
 10
84.35
 20
-41.470148
 30
0.0
 40
0.8
100
AcDbArc
 50
280.0000000000002
 51
0.0
  0
LINE
  5
BA07
330
A
100
AcDbEntity
  8
0
  6
Continuous
 62
     7
100
AcDbLine
 10
83.40000000000001
 20
-42.44999999999999
 30
0.0
 11
84.48891899999997
 21
-42.25799399999998
 31
0.0
  0
ARC
  5
BA08
330
A
100
AcDbEntity
  8
0
  6
Continuous
 62
     7
100
AcDbCircle
 10
79.40000000000002
 20
-63.0
 30
0.0
 40
2.5
100
AcDbArc
 50
270.0
 51
306.8698979999997
  0
ARC
  5
BA09
330
A
100
AcDbEntity
  8
0
  6
Continuous
 62
     7
100
AcDbCircle
 10
79.40000000000002
 20
-63.0
 30
0.0
 40
2.5
100
AcDbArc
 50
233.1301020000004
 51
270.0
  0
ARC
  5
BA0A
330
A
100
AcDbEntity
  8
0
  6
Continuous
 62
     7
100
AcDbCircle
 10
79.40000000000002
 20
13.0
 30
0.0
 40
2.5
100
AcDbArc
 50
90.0
 51
126.8698979999996
  0
ARC
  5
BA0B
330
A
100
AcDbEntity
  8
0
  6
Continuous
 62
     7
100
AcDbCircle
 10
79.40000000000002
 20
13.0
 30
0.0
 40
2.5
100
AcDbArc
 50
53.13010200000036
 51
90.0
  0
LINE
  5
BA0C
330
A
100
AcDbEntity
  8
0
  6
Continuous
 62
     7
100
AcDbLine
 10
81.90000000000003
 20
-42.57499999999999
 30
0.0
 11
81.90000000000003
 21
-42.44999999999999
 31
0.0
  0
LINE
  5
BA0D
330
A
100
AcDbEntity
  8
0
  6
Continuous
 62
     7
100
AcDbLine
 10
81.90000000000003
 20
-7.550000000000012
 30
0.0
 11
81.90000000000003
 21
-7.425000000000012
 31
0.0
  0
LINE
  5
BA0E
330
A
100
AcDbEntity
  8
0
  6
Continuous
 62
     7
100
AcDbLine
 10
86.79090300000002
 20
-41.25
 30
0.0
 11
86.79090300000002
 21
-8.75
 31
0.0
  0
LINE
  5
BA0F
330
A
100
AcDbEntity
  8
0
  6
Continuous
 62
     7
100
AcDbLine
 10
87.09999999999999
 20
-65.0
 30
0.0
 11
87.09999999999999
 21
-42.57499999999999
 31
0.0
  0
LINE
  5
BA10
330
A
100
AcDbEntity
  8
0
  6
Continuous
 62
     7
100
AcDbLine
 10
87.09999999999999
 20
-7.425000000000012
 30
0.0
 11
87.09999999999999
 21
15.0
 31
0.0
  0
LINE
  5
BA11
330
A
100
AcDbEntity
  8
0
  6
Continuous
 62
     7
100
AcDbLine
 10
-85.0
 20
-53.00000500000002
 30
0.0
 11
-85.0
 21
-50.0
 31
0.0
  0
LINE
  5
BA12
330
A
100
AcDbEntity
  8
0
  6
Continuous
 62
     7
100
AcDbLine
 10
-85.0
 20
-50.0
 30
0.0
 11
-85.0
 21
-46.99999499999998
 31
0.0
  0
LINE
  5
BA13
330
A
100
AcDbEntity
  8
0
  6
Continuous
 62
     7
100
AcDbLine
 10
-85.0
 20
-3.000005000000014
 30
0.0
 11
-85.0
 21
0.0
 31
0.0
  0
LINE
  5
BA14
330
A
100
AcDbEntity
  8
0
  6
Continuous
 62
     7
100
AcDbLine
 10
-85.0
 20
0.0
 30
0.0
 11
-85.0
 21
3.000005000000014
 31
0.0
  0
LINE
  5
BA15
330
A
100
AcDbEntity
  8
0
  6
Continuous
 62
     7
100
AcDbLine
 10
-91.6
 20
-42.09999999999999
 30
0.0
 11
-91.6
 21
-48.170749
 31
0.0
  0
LINE
  5
BA16
330
A
100
AcDbEntity
  8
0
  6
Continuous
 62
     7
100
AcDbLine
 10
-85.6
 20
-42.09999999999999
 30
0.0
 11
-85.6
 21
-48.170749
 31
0.0
  0
LINE
  5
BA17
330
A
100
AcDbEntity
  8
0
  6
Continuous
 62
     7
100
AcDbLine
 10
-91.6
 20
-48.170749
 30
0.0
 11
-85.6
 21
-48.170749
 31
0.0
  0
LINE
  5
BA18
330
A
100
AcDbEntity
  8
0
  6
Continuous
 62
     7
100
AcDbLine
 10
-91.6
 20
-49.82906100000001
 30
0.0
 11
-91.6
 21
-55.89999999999999
 31
0.0
  0
LINE
  5
BA19
330
A
100
AcDbEntity
  8
0
  6
Continuous
 62
     7
100
AcDbLine
 10
-85.6
 20
-49.82906100000001
 30
0.0
 11
-91.6
 21
-49.82906100000001
 31
0.0
  0
LINE
  5
BA1A
330
A
100
AcDbEntity
  8
0
  6
Continuous
 62
     7
100
AcDbLine
 10
-85.6
 20
-49.82906100000001
 30
0.0
 11
-85.6
 21
-55.89999999999999
 31
0.0
  0
LINE
  5
BA1B
330
A
100
AcDbEntity
  8
0
  6
Continuous
 62
     7
100
AcDbLine
 10
-91.6
 20
-48.170749
 30
0.0
 11
-91.6
 21
-49.82906100000001
 31
0.0
  0
LINE
  5
BA1C
330
A
100
AcDbEntity
  8
0
  6
Continuous
 62
     7
100
AcDbLine
 10
-85.6
 20
-48.170749
 30
0.0
 11
-85.6
 21
-49.82906100000001
 31
0.0
  0
LINE
  5
BA1D
330
A
100
AcDbEntity
  8
0
  6
Continuous
 62
     7
100
AcDbLine
 10
-91.6
 20
7.900000000000004
 30
0.0
 11
-91.6
 21
1.829250999999999
 31
0.0
  0
LINE
  5
BA1E
330
A
100
AcDbEntity
  8
0
  6
Continuous
 62
     7
100
AcDbLine
 10
-85.6
 20
7.900000000000004
 30
0.0
 11
-85.6
 21
1.829250999999999
 31
0.0
  0
LINE
  5
BA1F
330
A
100
AcDbEntity
  8
0
  6
Continuous
 62
     7
100
AcDbLine
 10
-91.6
 20
1.829250999999999
 30
0.0
 11
-85.6
 21
1.829250999999999
 31
0.0
  0
LINE
  5
BA20
330
A
100
AcDbEntity
  8
0
  6
Continuous
 62
     7
100
AcDbLine
 10
-91.6
 20
0.1709389999999757
 30
0.0
 11
-91.6
 21
-5.900000000000004
 31
0.0
  0
LINE
  5
BA21
330
A
100
AcDbEntity
  8
0
  6
Continuous
 62
     7
100
AcDbLine
 10
-85.6
 20
0.1709389999999757
 30
0.0
 11
-91.6
 21
0.1709389999999757
 31
0.0
  0
LINE
  5
BA22
330
A
100
AcDbEntity
  8
0
  6
Continuous
 62
     7
100
AcDbLine
 10
-85.6
 20
0.1709389999999757
 30
0.0
 11
-85.6
 21
-5.900000000000004
 31
0.0
  0
LINE
  5
BA23
330
A
100
AcDbEntity
  8
0
  6
Continuous
 62
     7
100
AcDbLine
 10
-91.6
 20
1.829250999999999
 30
0.0
 11
-91.6
 21
0.1709389999999757
 31
0.0
  0
LINE
  5
BA24
330
A
100
AcDbEntity
  8
0
  6
Continuous
 62
     7
100
AcDbLine
 10
-85.6
 20
1.829250999999999
 30
0.0
 11
-85.6
 21
0.1709389999999757
 31
0.0
  0
LINE
  5
BA25
330
A
100
AcDbEntity
  8
0
  6
Continuous
 62
     9
100
AcDbLine
 10
-76.84999999999998
 20
-55.41284199999998
 30
0.0
 11
-76.84999999999998
 21
-50.0
 31
0.0
  0
LINE
  5
BA26
330
A
100
AcDbEntity
  8
0
  6
Continuous
 62
     7
100
AcDbLine
 10
-78.3
 20
-43.75
 30
0.0
 11
-78.3
 21
-56.25
 31
0.0
  0
LINE
  5
BA27
330
A
100
AcDbEntity
  8
0
  6
Continuous
 62
     9
100
AcDbLine
 10
-76.84999999999998
 20
-50.0
 30
0.0
 11
-76.84999999999998
 21
-44.58715800000002
 31
0.0
  0
LINE
  5
BA28
330
A
100
AcDbEntity
  8
0
  6
Continuous
 62
     7
100
AcDbLine
 10
-76.6
 20
-45.020171
 30
0.0
 11
-76.6
 21
-50.0
 31
0.0
  0
LINE
  5
BA29
330
A
100
AcDbEntity
  8
0
  6
Continuous
 62
     7
100
AcDbLine
 10
-76.6
 20
-50.0
 30
0.0
 11
-76.6
 21
-54.979829
 31
0.0
  0
LINE
  5
BA2A
330
A
100
AcDbEntity
  8
0
  6
Continuous
 62
     9
100
AcDbLine
 10
-76.84999999999998
 20
-5.412841999999983
 30
0.0
 11
-76.84999999999998
 21
0.0
 31
0.0
  0
LINE
  5
BA2B
330
A
100
AcDbEntity
  8
0
  6
Continuous
 62
     7
100
AcDbLine
 10
-78.3
 20
6.25
 30
0.0
 11
-78.3
 21
-6.25
 31
0.0
  0
LINE
  5
BA2C
330
A
100
AcDbEntity
  8
0
  6
Continuous
 62
     9
100
AcDbLine
 10
-76.84999999999998
 20
0.0
 30
0.0
 11
-76.84999999999998
 21
5.412841999999983
 31
0.0
  0
LINE
  5
BA2D
330
A
100
AcDbEntity
  8
0
  6
Continuous
 62
     7
100
AcDbLine
 10
-76.6
 20
4.979828999999995
 30
0.0
 11
-76.6
 21
0.0
 31
0.0
  0
LINE
  5
BA2E
330
A
100
AcDbEntity
  8
0
  6
Continuous
 62
     7
100
AcDbLine
 10
-76.6
 20
0.0
 30
0.0
 11
-76.6
 21
-4.979828999999995
 31
0.0
  0
LINE
  5
BA2F
330
A
100
AcDbEntity
  8
0
  6
Continuous
 62
     9
100
AcDbLine
 10
-83.59999999999997
 20
-57.5
 30
0.0
 11
-78.59999999999998
 21
-57.5
 31
0.0
  0
LINE
  5
BA30
330
A
100
AcDbEntity
  8
0
  6
Continuous
 62
     7
100
AcDbLine
 10
-78.59999999999998
 20
-65.0
 30
0.0
 11
-83.59999999999997
 21
-65.0
 31
0.0
  0
LINE
  5
BA31
330
A
100
AcDbEntity
  8
0
  6
Continuous
 62
     7
100
AcDbLine
 10
-78.59999999999998
 20
-57.5
 30
0.0
 11
-78.59999999999998
 21
-65.0
 31
0.0
  0
LINE
  5
BA32
330
A
100
AcDbEntity
  8
0
  6
Continuous
 62
     7
100
AcDbLine
 10
-83.59999999999997
 20
-65.0
 30
0.0
 11
-83.59999999999997
 21
-57.5
 31
0.0
  0
LINE
  5
BA33
330
A
100
AcDbEntity
  8
0
  6
Continuous
 62
     7
100
AcDbLine
 10
-83.59999999999997
 20
15.0
 30
0.0
 11
-78.59999999999998
 21
15.0
 31
0.0
  0
LINE
  5
BA34
330
A
100
AcDbEntity
  8
0
  6
Continuous
 62
     9
100
AcDbLine
 10
-78.59999999999998
 20
7.5
 30
0.0
 11
-83.59999999999997
 21
7.5
 31
0.0
  0
LINE
  5
BA35
330
A
100
AcDbEntity
  8
0
  6
Continuous
 62
     7
100
AcDbLine
 10
-78.59999999999998
 20
15.0
 30
0.0
 11
-78.59999999999998
 21
7.5
 31
0.0
  0
LINE
  5
BA36
330
A
100
AcDbEntity
  8
0
  6
Continuous
 62
     7
100
AcDbLine
 10
-83.59999999999997
 20
7.5
 30
0.0
 11
-83.59999999999997
 21
15.0
 31
0.0
  0
LINE
  5
BA37
330
A
100
AcDbEntity
  8
0
  6
Continuous
 62
     7
100
AcDbLine
 10
-78.59999999999998
 20
-57.5
 30
0.0
 11
-78.59999999999998
 21
7.5
 31
0.0
  0
LINE
  5
BA38
330
A
100
AcDbEntity
  8
0
  6
Continuous
 62
     7
100
AcDbLine
 10
-83.59999999999997
 20
-57.5
 30
0.0
 11
-83.59999999999997
 21
7.5
 31
0.0
  0
LINE
  5
BA39
330
A
100
AcDbEntity
  8
0
  6
Continuous
 62
     7
100
AcDbLine
 10
-84.59999999999999
 20
14.0
 30
0.0
 11
-83.59999999999997
 21
14.0
 31
0.0
  0
LINE
  5
BA3A
330
A
100
AcDbEntity
  8
0
  6
Continuous
 62
     9
100
AcDbLine
 10
-83.59999999999997
 20
7.5
 30
0.0
 11
-84.59999999999999
 21
7.5
 31
0.0
  0
LINE
  5
BA3B
330
A
100
AcDbEntity
  8
0
  6
Continuous
 62
     7
100
AcDbLine
 10
-84.59999999999999
 20
7.5
 30
0.0
 11
-84.59999999999999
 21
14.0
 31
0.0
  0
LINE
  5
BA3C
330
A
100
AcDbEntity
  8
0
  6
Continuous
 62
     9
100
AcDbLine
 10
-84.59999999999999
 20
-57.5
 30
0.0
 11
-83.59999999999997
 21
-57.5
 31
0.0
  0
LINE
  5
BA3D
330
A
100
AcDbEntity
  8
0
  6
Continuous
 62
     7
100
AcDbLine
 10
-83.59999999999997
 20
-64.0
 30
0.0
 11
-84.59999999999999
 21
-64.0
 31
0.0
  0
LINE
  5
BA3E
330
A
100
AcDbEntity
  8
0
  6
Continuous
 62
     7
100
AcDbLine
 10
-84.59999999999999
 20
-64.0
 30
0.0
 11
-84.59999999999999
 21
-57.5
 31
0.0
  0
LINE
  5
BA3F
330
A
100
AcDbEntity
  8
0
  6
Continuous
 62
     7
100
AcDbLine
 10
-84.59999999999999
 20
7.5
 30
0.0
 11
-84.59999999999999
 21
-57.5
 31
0.0
  0
LINE
  5
BA40
330
A
100
AcDbEntity
  8
0
  6
Continuous
 62
     9
100
AcDbLine
 10
-92.59999999999999
 20
7.5
 30
0.0
 11
-93.59999999999999
 21
7.5
 31
0.0
  0
LINE
  5
BA41
330
A
100
AcDbEntity
  8
0
  6
Continuous
 62
     7
100
AcDbLine
 10
-93.59999999999999
 20
14.0
 30
0.0
 11
-92.59999999999999
 21
14.0
 31
0.0
  0
LINE
  5
BA42
330
A
100
AcDbEntity
  8
0
  6
Continuous
 62
     7
100
AcDbLine
 10
-92.59999999999999
 20
14.0
 30
0.0
 11
-92.59999999999999
 21
7.5
 31
0.0
  0
LINE
  5
BA43
330
A
100
AcDbEntity
  8
0
  6
Continuous
 62
     7
100
AcDbLine
 10
-92.59999999999999
 20
-64.0
 30
0.0
 11
-93.59999999999999
 21
-64.0
 31
0.0
  0
LINE
  5
BA44
330
A
100
AcDbEntity
  8
0
  6
Continuous
 62
     9
100
AcDbLine
 10
-93.59999999999999
 20
-57.5
 30
0.0
 11
-92.59999999999999
 21
-57.5
 31
0.0
  0
LINE
  5
BA45
330
A
100
AcDbEntity
  8
0
  6
Continuous
 62
     7
100
AcDbLine
 10
-92.59999999999999
 20
-57.5
 30
0.0
 11
-92.59999999999999
 21
-64.0
 31
0.0
  0
LINE
  5
BA46
330
A
100
AcDbEntity
  8
0
  6
Continuous
 62
     7
100
AcDbLine
 10
-92.59999999999999
 20
-57.5
 30
0.0
 11
-92.59999999999999
 21
7.5
 31
0.0
  0
LINE
  5
BA47
330
A
100
AcDbEntity
  8
0
  6
Continuous
 62
     7
100
AcDbLine
 10
-109.616194
 20
-41.25
 30
0.0
 11
-109.110332
 21
-41.25
 31
0.0
  0
LINE
  5
BA48
330
A
100
AcDbEntity
  8
0
  6
Continuous
 62
     7
100
AcDbLine
 10
-109.616194
 20
-8.75
 30
0.0
 11
-109.110332
 21
-8.75
 31
0.0
  0
LINE
  5
BA49
330
A
100
AcDbEntity
  8
0
  6
Continuous
 62
     9
100
AcDbLine
 10
-109.616194
 20
-41.25
 30
0.0
 11
-109.616194
 21
-8.75
 31
0.0
  0
LINE
  5
BA4A
330
A
100
AcDbEntity
  8
0
  6
Continuous
 62
     7
100
AcDbLine
 10
-109.616194
 20
-8.75
 30
0.0
 11
-109.790903
 21
-8.75
 31
0.0
  0
LINE
  5
BA4B
330
A
100
AcDbEntity
  8
0
  6
Continuous
 62
     7
100
AcDbLine
 10
-109.616194
 20
-41.25
 30
0.0
 11
-109.790903
 21
-41.25
 31
0.0
  0
LINE
  5
BA4C
330
A
100
AcDbEntity
  8
0
  6
Continuous
 62
     9
100
AcDbLine
 10
-92.9
 20
-64.0
 30
0.0
 11
-92.9
 21
-65.0
 31
0.0
  0
LINE
  5
BA4D
330
A
100
AcDbEntity
  8
0
  6
Continuous
 62
     7
100
AcDbLine
 10
-93.59999999999999
 20
-65.0
 30
0.0
 11
-92.9
 21
-65.0
 31
0.0
  0
LINE
  5
BA4E
330
A
100
AcDbEntity
  8
0
  6
Continuous
 62
     7
100
AcDbLine
 10
-92.9
 20
15.0
 30
0.0
 11
-93.59999999999999
 21
15.0
 31
0.0
  0
LINE
  5
BA4F
330
A
100
AcDbEntity
  8
0
  6
Continuous
 62
     9
100
AcDbLine
 10
-92.9
 20
15.0
 30
0.0
 11
-92.9
 21
14.0
 31
0.0
  0
ARC
  5
BA50
330
A
100
AcDbEntity
  8
0
  6
Continuous
 62
     7
100
AcDbCircle
 10
-73.9
 20
5.0
 30
0.0
 40
5.0
100
AcDbArc
 50
237.3163609999999
 51
160.0515559999998
  0
ARC
  5
BA51
330
A
100
AcDbEntity
  8
0
  6
Continuous
 62
     7
100
AcDbCircle
 10
-73.9
 20
-55.0
 30
0.0
 40
5.0
100
AcDbArc
 50
199.9484440000001
 51
122.683639
  0
LINE
  5
BA52
330
A
100
AcDbEntity
  8
0
  6
Continuous
 62
     7
100
AcDbLine
 10
-65.9
 20
-65.0
 30
0.0
 11
-65.9
 21
15.0
 31
0.0
  0
ARC
  5
BA53
330
A
100
AcDbEntity
  8
0
  6
Continuous
 62
     7
100
AcDbCircle
 10
-88.9
 20
-25.0
 30
0.0
 40
5.0
100
AcDbArc
 50
30.68341700000031
 51
137.7314159999998
  0
ARC
  5
BA54
330
A
100
AcDbEntity
  8
0
  6
Continuous
 62
     7
100
AcDbCircle
 10
-88.9
 20
-25.0
 30
0.0
 40
5.0
100
AcDbArc
 50
222.2685840000002
 51
329.3165829999997
  0
LINE
  5
BA55
330
A
100
AcDbEntity
  8
0
  6
Continuous
 62
     7
100
AcDbLine
 10
-92.9
 20
15.0
 30
0.0
 11
-83.59999999999997
 21
15.0
 31
0.0
  0
LINE
  5
BA56
330
A
100
AcDbEntity
  8
0
  6
Continuous
 62
     7
100
AcDbLine
 10
-78.59999999999998
 20
15.0
 30
0.0
 11
-65.9
 21
15.0
 31
0.0
  0
LINE
  5
BA57
330
A
100
AcDbEntity
  8
0
  6
Continuous
 62
     7
100
AcDbLine
 10
-92.9
 20
-65.0
 30
0.0
 11
-83.59999999999997
 21
-65.0
 31
0.0
  0
LINE
  5
BA58
330
A
100
AcDbEntity
  8
0
  6
Continuous
 62
     7
100
AcDbLine
 10
-78.59999999999998
 20
-65.0
 30
0.0
 11
-65.9
 21
-65.0
 31
0.0
  0
CIRCLE
  5
BA59
330
A
100
AcDbEntity
  8
0
  6
Continuous
 62
     7
100
AcDbCircle
 10
-88.9
 20
-25.0
 30
0.0
 40
2.649999999999999
  0
CIRCLE
  5
BA5A
330
A
100
AcDbEntity
  8
0
  6
Continuous
 62
     7
100
AcDbCircle
 10
-73.9
 20
5.0
 30
0.0
 40
2.649999999999999
  0
CIRCLE
  5
BA5B
330
A
100
AcDbEntity
  8
0
  6
Continuous
 62
     7
100
AcDbCircle
 10
-73.9
 20
-55.0
 30
0.0
 40
2.649999999999999
  0
LINE
  5
BA5C
330
A
100
AcDbEntity
  8
0
  6
Continuous
 62
     7
100
AcDbLine
 10
-100.548242
 20
15.0
 30
0.0
 11
-93.59999999999999
 21
15.0
 31
0.0
  0
LINE
  5
BA5D
330
A
100
AcDbEntity
  8
0
  6
Continuous
 62
     9
100
AcDbLine
 10
-93.59999999999999
 20
7.5
 30
0.0
 11
-96.6
 21
7.5
 31
0.0
  0
LINE
  5
BA65
330
A
100
AcDbEntity
  8
0
  6
Continuous
 62
     7
100
AcDbLine
 10
-93.59999999999999
 20
15.0
 30
0.0
 11
-93.59999999999999
 21
7.5
 31
0.0
  0
LINE
  5
BA66
330
A
100
AcDbEntity
  8
0
  6
Continuous
 62
     9
100
AcDbLine
 10
-96.6
 20
-57.5
 30
0.0
 11
-93.59999999999999
 21
-57.5
 31
0.0
  0
LINE
  5
BA67
330
A
100
AcDbEntity
  8
0
  6
Continuous
 62
     7
100
AcDbLine
 10
-93.59999999999999
 20
-65.0
 30
0.0
 11
-100.548242
 21
-65.0
 31
0.0
  0
LINE
  5
BA6D
330
A
100
AcDbEntity
  8
0
  6
Continuous
 62
     7
100
AcDbLine
 10
-93.59999999999999
 20
-57.5
 30
0.0
 11
-93.59999999999999
 21
-65.0
 31
0.0
  0
LINE
  5
BA6E
330
A
100
AcDbEntity
  8
0
  6
Continuous
 62
     7
100
AcDbLine
 10
-110.074231
 20
-7.425000000000012
 30
0.0
 11
-109.110332
 21
-7.425000000000012
 31
0.0
  0
LINE
  5
BA6F
330
A
100
AcDbEntity
  8
0
  6
Continuous
 62
     9
100
AcDbLine
 10
-110.074231
 20
-7.425000000000012
 30
0.0
 11
-110.074231
 21
15.0
 31
0.0
  0
LINE
  5
BA70
330
A
100
AcDbEntity
  8
0
  6
Continuous
 62
     7
100
AcDbLine
 10
-110.074231
 20
15.0
 30
0.0
 11
-100.548242
 21
15.0
 31
0.0
  0
LINE
  5
BA71
330
A
100
AcDbEntity
  8
0
  6
Continuous
 62
     7
100
AcDbLine
 10
-96.6
 20
-57.5
 30
0.0
 11
-96.6
 21
7.5
 31
0.0
  0
LINE
  5
BA72
330
A
100
AcDbEntity
  8
0
  6
Continuous
 62
     7
100
AcDbLine
 10
-110.074231
 20
-65.0
 30
0.0
 11
-100.548242
 21
-65.0
 31
0.0
  0
LINE
  5
BA73
330
A
100
AcDbEntity
  8
0
  6
Continuous
 62
     9
100
AcDbLine
 10
-110.074231
 20
-65.0
 30
0.0
 11
-110.074231
 21
-42.57499999999999
 31
0.0
  0
LINE
  5
BA74
330
A
100
AcDbEntity
  8
0
  6
Continuous
 62
     7
100
AcDbLine
 10
-109.110332
 20
-42.57499999999999
 30
0.0
 11
-110.074231
 21
-42.57499999999999
 31
0.0
  0
LINE
  5
BA75
330
A
100
AcDbEntity
  8
0
  6
Continuous
 62
     7
100
AcDbLine
 10
-109.110332
 20
-42.57499999999999
 30
0.0
 11
-109.110332
 21
-7.425000000000012
 31
0.0
  0
LINE
  5
BA76
330
A
100
AcDbEntity
  8
0
  6
Continuous
 62
     7
100
AcDbLine
 10
-93.59999999999999
 20
-57.5
 30
0.0
 11
-93.59999999999999
 21
7.5
 31
0.0
  0
LINE
  5
BA77
330
A
100
AcDbEntity
  8
0
  6
Continuous
 62
     7
100
AcDbLine
 10
-110.1
 20
-65.0
 30
0.0
 11
-110.074231
 21
-65.0
 31
0.0
  0
LINE
  5
BA78
330
A
100
AcDbEntity
  8
0
  6
Continuous
 62
     7
100
AcDbLine
 10
-110.074231
 20
-42.57499999999999
 30
0.0
 11
-110.1
 21
-42.57499999999999
 31
0.0
  0
LINE
  5
BA79
330
A
100
AcDbEntity
  8
0
  6
Continuous
 62
     7
100
AcDbLine
 10
-110.1
 20
15.0
 30
0.0
 11
-110.074231
 21
15.0
 31
0.0
  0
LINE
  5
BA7A
330
A
100
AcDbEntity
  8
0
  6
Continuous
 62
     7
100
AcDbLine
 10
-110.1
 20
-7.425000000000012
 30
0.0
 11
-110.074231
 21
-7.425000000000012
 31
0.0
  0
LINE
  5
BA7B
330
A
100
AcDbEntity
  8
0
  6
Continuous
 62
     9
100
AcDbLine
 10
-85.6
 20
-52.5
 30
0.0
 11
-85.0
 21
-52.5
 31
0.0
  0
LINE
  5
BA7C
330
A
100
AcDbEntity
  8
0
  6
Continuous
 62
     9
100
AcDbLine
 10
-85.0
 20
-47.5
 30
0.0
 11
-85.6
 21
-47.5
 31
0.0
  0
LINE
  5
BA7D
330
A
100
AcDbEntity
  8
0
  6
Continuous
 62
     9
100
AcDbLine
 10
-85.6
 20
-2.5
 30
0.0
 11
-85.0
 21
-2.5
 31
0.0
  0
LINE
  5
BA7E
330
A
100
AcDbEntity
  8
0
  6
Continuous
 62
     9
100
AcDbLine
 10
-85.0
 20
2.5
 30
0.0
 11
-85.6
 21
2.5
 31
0.0
  0
LINE
  5
BA7F
330
A
100
AcDbEntity
  8
0
  6
Continuous
 62
     7
100
AcDbLine
 10
-85.6
 20
-42.09999999999999
 30
0.0
 11
-91.6
 21
-42.09999999999999
 31
0.0
  0
LINE
  5
BA80
330
A
100
AcDbEntity
  8
0
  6
Continuous
 62
     7
100
AcDbLine
 10
-91.6
 20
-55.89999999999999
 30
0.0
 11
-85.6
 21
-55.89999999999999
 31
0.0
  0
LINE
  5
BA81
330
A
100
AcDbEntity
  8
0
  6
Continuous
 62
     7
100
AcDbLine
 10
-85.6
 20
7.900000000000004
 30
0.0
 11
-91.6
 21
7.900000000000004
 31
0.0
  0
LINE
  5
BA82
330
A
100
AcDbEntity
  8
0
  6
Continuous
 62
     7
100
AcDbLine
 10
-91.6
 20
-5.900000000000004
 30
0.0
 11
-85.6
 21
-5.900000000000004
 31
0.0
  0
LINE
  5
BA83
330
A
100
AcDbEntity
  8
0
  6
Continuous
 62
     7
100
AcDbLine
 10
-78.3
 20
-56.25
 30
0.0
 11
-76.84999999999998
 21
-55.41284199999998
 31
0.0
  0
LINE
  5
BA84
330
A
100
AcDbEntity
  8
0
  6
Continuous
 62
     7
100
AcDbLine
 10
-76.84999999999998
 20
-44.58715800000002
 30
0.0
 11
-78.3
 21
-43.75
 31
0.0
  0
LINE
  5
BA85
330
A
100
AcDbEntity
  8
0
  6
Continuous
 62
     7
100
AcDbLine
 10
-78.3
 20
-43.75
 30
0.0
 11
-78.59999999999998
 21
-43.75
 31
0.0
  0
LINE
  5
BA86
330
A
100
AcDbEntity
  8
0
  6
Continuous
 62
     7
100
AcDbLine
 10
-78.59999999999998
 20
-56.25
 30
0.0
 11
-78.3
 21
-56.25
 31
0.0
  0
ARC
  5
BA87
330
A
100
AcDbEntity
  8
0
  6
Continuous
 62
     7
100
AcDbCircle
 10
-77.09999999999998
 20
-45.020171
 30
0.0
 40
0.5
100
AcDbArc
 50
0.0
 51
60.00000000000028
  0
ARC
  5
BA88
330
A
100
AcDbEntity
  8
0
  6
Continuous
 62
     7
100
AcDbCircle
 10
-77.09999999999998
 20
-54.979829
 30
0.0
 40
0.5
100
AcDbArc
 50
299.9999999999997
 51
0.0
  0
LINE
  5
BA89
330
A
100
AcDbEntity
  8
0
  6
Continuous
 62
     7
100
AcDbLine
 10
-78.3
 20
6.25
 30
0.0
 11
-78.59999999999998
 21
6.25
 31
0.0
  0
LINE
  5
BA8A
330
A
100
AcDbEntity
  8
0
  6
Continuous
 62
     7
100
AcDbLine
 10
-78.59999999999998
 20
-6.25
 30
0.0
 11
-78.3
 21
-6.25
 31
0.0
  0
LINE
  5
BA8B
330
A
100
AcDbEntity
  8
0
  6
Continuous
 62
     7
100
AcDbLine
 10
-78.3
 20
-6.25
 30
0.0
 11
-76.84999999999998
 21
-5.412841999999983
 31
0.0
  0
LINE
  5
BA8C
330
A
100
AcDbEntity
  8
0
  6
Continuous
 62
     7
100
AcDbLine
 10
-76.84999999999998
 20
5.412841999999983
 30
0.0
 11
-78.3
 21
6.25
 31
0.0
  0
ARC
  5
BA8D
330
A
100
AcDbEntity
  8
0
  6
Continuous
 62
     7
100
AcDbCircle
 10
-77.09999999999998
 20
4.979828999999995
 30
0.0
 40
0.5
100
AcDbArc
 50
0.0
 51
60.00000000000028
  0
ARC
  5
BA8E
330
A
100
AcDbEntity
  8
0
  6
Continuous
 62
     7
100
AcDbCircle
 10
-77.09999999999998
 20
-4.979828999999995
 30
0.0
 40
0.5
100
AcDbArc
 50
299.9999999999997
 51
0.0
  0
LINE
  5
BA8F
330
A
100
AcDbEntity
  8
0
  6
Continuous
 62
     7
100
AcDbLine
 10
-85.005
 20
-53.0
 30
0.0
 11
-85.0
 21
-53.0
 31
0.0
  0
LINE
  5
BA90
330
A
100
AcDbEntity
  8
0
  6
Continuous
 62
     7
100
AcDbLine
 10
-85.0
 20
-53.0
 30
0.0
 11
-84.59999999999999
 21
-53.0
 31
0.0
  0
LINE
  5
BA91
330
A
100
AcDbEntity
  8
0
  6
Continuous
 62
     7
100
AcDbLine
 10
-84.59999999999999
 20
-47.0
 30
0.0
 11
-85.0
 21
-47.0
 31
0.0
  0
LINE
  5
BA92
330
A
100
AcDbEntity
  8
0
  6
Continuous
 62
     7
100
AcDbLine
 10
-85.0
 20
-47.0
 30
0.0
 11
-85.005
 21
-47.0
 31
0.0
  0
LINE
  5
BA93
330
A
100
AcDbEntity
  8
0
  6
Continuous
 62
     7
100
AcDbLine
 10
-85.6
 20
-53.0
 30
0.0
 11
-85.0
 21
-53.0
 31
0.0
  0
LINE
  5
BA94
330
A
100
AcDbEntity
  8
0
  6
Continuous
 62
     7
100
AcDbLine
 10
-85.0
 20
-53.0
 30
0.0
 11
-84.99500000000002
 21
-53.0
 31
0.0
  0
LINE
  5
BA95
330
A
100
AcDbEntity
  8
0
  6
Continuous
 62
     7
100
AcDbLine
 10
-84.99500000000002
 20
-47.0
 30
0.0
 11
-85.0
 21
-47.0
 31
0.0
  0
LINE
  5
BA96
330
A
100
AcDbEntity
  8
0
  6
Continuous
 62
     7
100
AcDbLine
 10
-85.0
 20
-47.0
 30
0.0
 11
-85.6
 21
-47.0
 31
0.0
  0
LINE
  5
BA97
330
A
100
AcDbEntity
  8
0
  6
Continuous
 62
     7
100
AcDbLine
 10
-85.005
 20
-3.0
 30
0.0
 11
-85.0
 21
-3.0
 31
0.0
  0
LINE
  5
BA98
330
A
100
AcDbEntity
  8
0
  6
Continuous
 62
     7
100
AcDbLine
 10
-85.0
 20
-3.0
 30
0.0
 11
-84.59999999999999
 21
-3.0
 31
0.0
  0
LINE
  5
BA99
330
A
100
AcDbEntity
  8
0
  6
Continuous
 62
     7
100
AcDbLine
 10
-84.59999999999999
 20
3.0
 30
0.0
 11
-85.0
 21
3.0
 31
0.0
  0
LINE
  5
BA9A
330
A
100
AcDbEntity
  8
0
  6
Continuous
 62
     7
100
AcDbLine
 10
-85.0
 20
3.0
 30
0.0
 11
-85.005
 21
3.0
 31
0.0
  0
LINE
  5
BA9B
330
A
100
AcDbEntity
  8
0
  6
Continuous
 62
     7
100
AcDbLine
 10
-85.6
 20
-3.0
 30
0.0
 11
-85.0
 21
-3.0
 31
0.0
  0
LINE
  5
BA9C
330
A
100
AcDbEntity
  8
0
  6
Continuous
 62
     7
100
AcDbLine
 10
-85.0
 20
-3.0
 30
0.0
 11
-84.99500000000002
 21
-3.0
 31
0.0
  0
LINE
  5
BA9D
330
A
100
AcDbEntity
  8
0
  6
Continuous
 62
     7
100
AcDbLine
 10
-84.99500000000002
 20
3.0
 30
0.0
 11
-85.0
 21
3.0
 31
0.0
  0
LINE
  5
BA9E
330
A
100
AcDbEntity
  8
0
  6
Continuous
 62
     7
100
AcDbLine
 10
-85.0
 20
3.0
 30
0.0
 11
-85.6
 21
3.0
 31
0.0
  0
ARC
  5
BA9F
330
A
100
AcDbEntity
  8
0
  6
Continuous
 62
     7
100
AcDbCircle
 10
-102.4
 20
13.0
 30
0.0
 40
2.5
100
AcDbArc
 50
90.0
 51
126.8698979999996
  0
ARC
  5
BAA0
330
A
100
AcDbEntity
  8
0
  6
Continuous
 62
     7
100
AcDbCircle
 10
-102.4
 20
13.0
 30
0.0
 40
2.5
100
AcDbArc
 50
53.13010200000036
 51
90.0
  0
ARC
  5
BAA1
330
A
100
AcDbEntity
  8
0
  6
Continuous
 62
     7
100
AcDbCircle
 10
-102.4
 20
-63.0
 30
0.0
 40
2.5
100
AcDbArc
 50
270.0
 51
306.8698979999997
  0
ARC
  5
BAA2
330
A
100
AcDbEntity
  8
0
  6
Continuous
 62
     7
100
AcDbCircle
 10
-102.4
 20
-63.0
 30
0.0
 40
2.5
100
AcDbArc
 50
233.1301020000004
 51
270.0
  0
LINE
  5
BAA3
330
A
100
AcDbEntity
  8
0
  6
Continuous
 62
     7
100
AcDbLine
 10
-109.790903
 20
-8.75
 30
0.0
 11
-109.790903
 21
-41.25
 31
0.0
  0
LINE
  5
BAA4
330
A
100
AcDbEntity
  8
0
  6
Continuous
 62
     7
100
AcDbLine
 10
-91.6
 20
-45.09999999999998
 30
0.0
 11
-92.59999999999999
 21
-45.09999999999998
 31
0.0
  0
LINE
  5
BAA5
330
A
100
AcDbEntity
  8
0
  6
Continuous
 62
     7
100
AcDbLine
 10
-92.59999999999999
 20
-54.90000000000001
 30
0.0
 11
-91.6
 21
-54.90000000000001
 31
0.0
  0
LINE
  5
BAA6
330
A
100
AcDbEntity
  8
0
  6
Continuous
 62
     7
100
AcDbLine
 10
-91.6
 20
4.900000000000004
 30
0.0
 11
-92.59999999999999
 21
4.900000000000004
 31
0.0
  0
LINE
  5
BAA7
330
A
100
AcDbEntity
  8
0
  6
Continuous
 62
     7
100
AcDbLine
 10
-92.59999999999999
 20
-4.900000000000004
 30
0.0
 11
-91.6
 21
-4.900000000000004
 31
0.0
  0
LINE
  5
BAA8
330
A
100
AcDbEntity
  8
0
  6
Continuous
 62
     7
100
AcDbLine
 10
-110.1
 20
-42.57499999999999
 30
0.0
 11
-110.1
 21
-65.0
 31
0.0
  0
LINE
  5
BAA9
330
A
100
AcDbEntity
  8
0
  6
Continuous
 62
     7
100
AcDbLine
 10
-110.1
 20
15.0
 30
0.0
 11
-110.1
 21
-7.425000000000012
 31
0.0
  0
LINE
  5
BAAA
330
A
100
AcDbEntity
  8
0
  6
Continuous
 62
     7
100
AcDbLine
 10
-3.000005000000001
 20
58.0
 30
0.0
 11
3.000005000000001
 21
58.0
 31
0.0
  0
LINE
  5
BAAB
330
A
100
AcDbEntity
  8
0
  6
Continuous
 62
     7
100
AcDbLine
 10
-27.3
 20
67.85000000000002
 30
0.0
 11
-24.70000000000001
 21
67.85000000000002
 31
0.0
  0
LINE
  5
BAAC
330
A
100
AcDbEntity
  8
0
  6
Continuous
 62
     7
100
AcDbLine
 10
6.849997999999998
 20
58.59999999999999
 30
0.0
 11
6.849997999999998
 21
64.60000000000002
 31
0.0
  0
LINE
  5
BAAD
330
A
100
AcDbEntity
  8
0
  6
Continuous
 62
     7
100
AcDbLine
 10
6.849997999999998
 20
58.59999999999999
 30
0.0
 11
-6.900013999999983
 21
58.59999999999999
 31
0.0
  0
LINE
  5
BAAE
330
A
100
AcDbEntity
  8
0
  6
Continuous
 62
     7
100
AcDbLine
 10
6.849997999999998
 20
64.60000000000002
 30
0.0
 11
-6.900013999999983
 21
64.60000000000002
 31
0.0
  0
LINE
  5
BAAF
330
A
100
AcDbEntity
  8
0
  6
Continuous
 62
     7
100
AcDbLine
 10
6.25
 20
51.30000000000001
 30
0.0
 11
-6.25
 21
51.30000000000001
 31
0.0
  0
LINE
  5
BAB0
330
A
100
AcDbEntity
  8
0
  6
Continuous
 62
     9
100
AcDbLine
 10
-5.412841999999997
 20
49.84999999999999
 30
0.0
 11
5.412841999999997
 21
49.84999999999999
 31
0.0
  0
LINE
  5
BAB1
330
A
100
AcDbEntity
  8
0
  6
Continuous
 62
     7
100
AcDbLine
 10
4.979829000000008
 20
49.59999999999999
 30
0.0
 11
-4.979829000000008
 21
49.59999999999999
 31
0.0
  0
LINE
  5
BAB2
330
A
100
AcDbEntity
  8
0
  6
Continuous
 62
     7
100
AcDbLine
 10
17.5
 20
56.6
 30
0.0
 11
17.5
 21
51.6
 31
0.0
  0
LINE
  5
BAB3
330
A
100
AcDbEntity
  8
0
  6
Continuous
 62
     9
100
AcDbLine
 10
10.0
 20
51.6
 30
0.0
 11
10.0
 21
56.6
 31
0.0
  0
LINE
  5
BAB4
330
A
100
AcDbEntity
  8
0
  6
Continuous
 62
     7
100
AcDbLine
 10
17.5
 20
51.6
 30
0.0
 11
10.0
 21
51.6
 31
0.0
  0
LINE
  5
BAB5
330
A
100
AcDbEntity
  8
0
  6
Continuous
 62
     7
100
AcDbLine
 10
10.0
 20
56.6
 30
0.0
 11
17.5
 21
56.6
 31
0.0
  0
LINE
  5
BAB6
330
A
100
AcDbEntity
  8
0
  6
Continuous
 62
     7
100
AcDbLine
 10
-17.5
 20
56.6
 30
0.0
 11
-17.5
 21
51.6
 31
0.0
  0
LINE
  5
BAB7
330
A
100
AcDbEntity
  8
0
  6
Continuous
 62
     7
100
AcDbLine
 10
-17.5
 20
51.6
 30
0.0
 11
10.0
 21
51.6
 31
0.0
  0
LINE
  5
BAB8
330
A
100
AcDbEntity
  8
0
  6
Continuous
 62
     7
100
AcDbLine
 10
-17.5
 20
56.6
 30
0.0
 11
10.0
 21
56.6
 31
0.0
  0
LINE
  5
BAB9
330
A
100
AcDbEntity
  8
0
  6
Continuous
 62
     7
100
AcDbLine
 10
16.5
 20
57.59999999999998
 30
0.0
 11
16.5
 21
56.6
 31
0.0
  0
LINE
  5
BABA
330
A
100
AcDbEntity
  8
0
  6
Continuous
 62
     9
100
AcDbLine
 10
10.0
 20
56.6
 30
0.0
 11
10.0
 21
57.59999999999998
 31
0.0
  0
LINE
  5
BABB
330
A
100
AcDbEntity
  8
0
  6
Continuous
 62
     7
100
AcDbLine
 10
10.0
 20
57.59999999999998
 30
0.0
 11
16.5
 21
57.59999999999998
 31
0.0
  0
LINE
  5
BABC
330
A
100
AcDbEntity
  8
0
  6
Continuous
 62
     9
100
AcDbLine
 10
-14.5
 20
57.59999999999998
 30
0.0
 11
-14.5
 21
56.6
 31
0.0
  0
LINE
  5
BABD
330
A
100
AcDbEntity
  8
0
  6
Continuous
 62
     7
100
AcDbLine
 10
10.0
 20
57.59999999999998
 30
0.0
 11
-14.5
 21
57.59999999999998
 31
0.0
  0
LINE
  5
BABE
330
A
100
AcDbEntity
  8
0
  6
Continuous
 62
     7
100
AcDbLine
 10
-16.5
 20
56.6
 30
0.0
 11
-16.5
 21
57.59999999999998
 31
0.0
  0
LINE
  5
BABF
330
A
100
AcDbEntity
  8
0
  6
Continuous
 62
     7
100
AcDbLine
 10
-16.5
 20
57.59999999999998
 30
0.0
 11
-14.5
 21
57.59999999999998
 31
0.0
  0
LINE
  5
BAC0
330
A
100
AcDbEntity
  8
0
  6
Continuous
 62
     9
100
AcDbLine
 10
10.0
 20
65.60000000000002
 30
0.0
 11
10.0
 21
66.60000000000002
 31
0.0
  0
LINE
  5
BAC1
330
A
100
AcDbEntity
  8
0
  6
Continuous
 62
     7
100
AcDbLine
 10
-14.5
 20
65.60000000000002
 30
0.0
 11
10.0
 21
65.60000000000002
 31
0.0
  0
LINE
  5
BAC2
330
A
100
AcDbEntity
  8
0
  6
Continuous
 62
     9
100
AcDbLine
 10
-14.5
 20
66.60000000000002
 30
0.0
 11
-14.5
 21
65.60000000000002
 31
0.0
  0
LINE
  5
BAC3
330
A
100
AcDbEntity
  8
0
  6
Continuous
 62
     7
100
AcDbLine
 10
-16.5
 20
65.60000000000002
 30
0.0
 11
-16.5
 21
66.60000000000002
 31
0.0
  0
LINE
  5
BAC4
330
A
100
AcDbEntity
  8
0
  6
Continuous
 62
     7
100
AcDbLine
 10
-14.5
 20
65.60000000000002
 30
0.0
 11
-16.5
 21
65.60000000000002
 31
0.0
  0
LINE
  5
BAC5
330
A
100
AcDbEntity
  8
0
  6
Continuous
 62
     7
100
AcDbLine
 10
16.5
 20
66.60000000000002
 30
0.0
 11
16.5
 21
65.60000000000002
 31
0.0
  0
LINE
  5
BAC6
330
A
100
AcDbEntity
  8
0
  6
Continuous
 62
     7
100
AcDbLine
 10
16.5
 20
65.60000000000002
 30
0.0
 11
10.0
 21
65.60000000000002
 31
0.0
  0
LINE
  5
BAC7
330
A
100
AcDbEntity
  8
0
  6
Continuous
 62
     9
100
AcDbLine
 10
-3.0
 20
58.0
 30
0.0
 11
3.0
 21
58.0
 31
0.0
  0
LINE
  5
BAC8
330
A
100
AcDbEntity
  8
0
  6
Continuous
 62
     7
100
AcDbLine
 10
-17.5
 20
68.11020400000001
 30
0.0
 11
-19.845276
 21
68.52373900000003
 31
0.0
  0
LINE
  5
BAC9
330
A
100
AcDbEntity
  8
0
  6
Continuous
 62
     7
100
AcDbLine
 10
-19.845276
 20
68.52373900000003
 30
0.0
 11
-19.831829
 21
68.60000000000002
 31
0.0
  0
ARC
  5
BACA
330
A
100
AcDbEntity
  8
0
  6
Continuous
 62
     7
100
AcDbCircle
 10
-33.0
 20
65.89999999999998
 30
0.0
 40
2.0
100
AcDbArc
 50
138.5903779999999
 51
180.0
  0
LINE
  5
BACB
330
A
100
AcDbEntity
  8
0
  6
Continuous
 62
     7
100
AcDbLine
 10
-35.0
 20
65.89999999999998
 30
0.0
 11
-35.0
 21
38.9
 31
0.0
  0
LINE
  5
BACC
330
A
100
AcDbEntity
  8
0
  6
Continuous
 62
     7
100
AcDbLine
 10
-35.0
 20
38.9
 30
0.0
 11
-38.5
 21
38.9
 31
0.0
  0
LINE
  5
BACD
330
A
100
AcDbEntity
  8
0
  6
Continuous
 62
     7
100
AcDbLine
 10
-38.5
 20
38.9
 30
0.0
 11
-38.5
 21
73.89999999999997
 31
0.0
  0
LINE
  5
BACE
330
A
100
AcDbEntity
  8
0
  6
Continuous
 62
     7
100
AcDbLine
 10
-38.5
 20
73.89999999999997
 30
0.0
 11
-34.5
 21
73.89999999999997
 31
0.0
  0
LINE
  5
BACF
330
A
100
AcDbEntity
  8
0
  6
Continuous
 62
     7
100
AcDbLine
 10
-34.5
 20
73.89999999999997
 30
0.0
 11
-34.5
 21
67.22287599999998
 31
0.0
  0
ARC
  5
BAD0
330
A
100
AcDbEntity
  8
0
  6
Continuous
 62
     7
100
AcDbCircle
 10
-26.0
 20
75.39999999999998
 30
0.0
 40
7.5
100
AcDbArc
 50
270.0
 51
294.9513009999998
  0
LINE
  5
BAD1
330
A
100
AcDbEntity
  8
0
  6
Continuous
 62
     7
100
AcDbLine
 10
-33.0
 20
67.89999999999998
 30
0.0
 11
-26.0
 21
67.89999999999998
 31
0.0
  0
ARC
  5
BAD2
330
A
100
AcDbEntity
  8
0
  6
Continuous
 62
     7
100
AcDbCircle
 10
-34.5
 20
74.89999999999998
 30
0.0
 40
1.0
100
AcDbArc
 50
270.0
 51
0.0
  0
ARC
  5
BAD3
330
A
100
AcDbEntity
  8
0
  6
Continuous
 62
     7
100
AcDbCircle
 10
-33.0
 20
65.89999999999998
 30
0.0
 40
2.0
100
AcDbArc
 50
90.0
 51
138.5903779999999
  0
CIRCLE
  5
BAD4
330
A
100
AcDbEntity
  8
0
  6
Continuous
 62
     7
100
AcDbCircle
 10
-26.0
 20
75.39999999999998
 30
0.0
 40
2.5
  0
ARC
  5
BAD5
330
A
100
AcDbEntity
  8
0
  6
Continuous
 62
     7
100
AcDbCircle
 10
-26.0
 20
75.60000000000002
 30
0.0
 40
7.5
100
AcDbArc
 50
85.24909500000012
 51
180.0
  0
ARC
  5
BAD6
330
A
100
AcDbEntity
  8
0
  6
Continuous
 62
     7
100
AcDbCircle
 10
-33.849226
 20
-18.84438899999998
 30
0.0
 40
102.27
100
AcDbArc
 50
64.61114399999967
 51
85.24909500000012
  0
LINE
  5
BAD7
330
A
100
AcDbEntity
  8
0
  6
Continuous
 62
     9
100
AcDbLine
 10
10.0
 20
66.60000000000002
 30
0.0
 11
10.0
 21
73.54824200000002
 31
0.0
  0
LINE
  5
BAD8
330
A
100
AcDbEntity
  8
0
  6
Continuous
 62
     7
100
AcDbLine
 10
10.0
 20
66.60000000000002
 30
0.0
 11
-17.5
 21
66.60000000000002
 31
0.0
  0
LINE
  5
BAD9
330
A
100
AcDbEntity
  8
0
  6
Continuous
 62
     7
100
AcDbLine
 10
-17.5
 20
66.60000000000002
 30
0.0
 11
-17.5
 21
68.39999999999998
 31
0.0
  0
ARC
  5
BADA
330
A
100
AcDbEntity
  8
0
  6
Continuous
 62
     7
100
AcDbCircle
 10
-17.7
 20
68.39999999999998
 30
0.0
 40
0.2
100
AcDbArc
 50
0.0
 51
90.0
  0
LINE
  5
BADB
330
A
100
AcDbEntity
  8
0
  6
Continuous
 62
     7
100
AcDbLine
 10
-17.7
 20
68.60000000000002
 30
0.0
 11
-32.5
 21
68.60000000000002
 31
0.0
  0
LINE
  5
BADC
330
A
100
AcDbEntity
  8
0
  6
Continuous
 62
     7
100
AcDbLine
 10
-33.5
 20
70.60000000000002
 30
0.0
 11
-32.5
 21
68.60000000000002
 31
0.0
  0
LINE
  5
BADD
330
A
100
AcDbEntity
  8
0
  6
Continuous
 62
     7
100
AcDbLine
 10
-33.5
 20
70.60000000000002
 30
0.0
 11
-33.5
 21
75.60000000000002
 31
0.0
  0
LINE
  5
BADE
330
A
100
AcDbEntity
  8
0
  6
Continuous
 62
     7
100
AcDbLine
 10
17.5
 20
69.60000000000002
 30
0.0
 11
17.5
 21
66.60000000000002
 31
0.0
  0
LINE
  5
BADF
330
A
100
AcDbEntity
  8
0
  6
Continuous
 62
     7
100
AcDbLine
 10
17.5
 20
66.60000000000002
 30
0.0
 11
10.0
 21
66.60000000000002
 31
0.0
  0
ARC
  5
BAE0
330
A
100
AcDbEntity
  8
0
  6
Continuous
 62
     7
100
AcDbCircle
 10
-33.849226
 20
-18.84438899999998
 30
0.0
 40
102.27
100
AcDbArc
 50
59.86131800000001
 51
64.61114399999967
  0
LINE
  5
BAE1
330
A
100
AcDbEntity
  8
0
  6
Continuous
 62
     9
100
AcDbLine
 10
-24.35
 20
68.03750000000002
 30
0.0
 11
-24.35
 21
68.08375099999995
 31
0.0
  0
LINE
  5
BAE2
330
A
100
AcDbEntity
  8
0
  6
Continuous
 62
     9
100
AcDbLine
 10
-2.5
 20
58.59999999999999
 30
0.0
 11
-2.5
 21
58.0
 31
0.0
  0
LINE
  5
BAE3
330
A
100
AcDbEntity
  8
0
  6
Continuous
 62
     9
100
AcDbLine
 10
2.5
 20
58.0
 30
0.0
 11
2.5
 21
58.59999999999999
 31
0.0
  0
LINE
  5
BAE4
330
A
100
AcDbEntity
  8
0
  6
Continuous
 62
     7
100
AcDbLine
 10
-27.393333
 20
67.89999999999998
 30
0.0
 11
-27.3
 21
67.85000000000002
 31
0.0
  0
LINE
  5
BAE5
330
A
100
AcDbEntity
  8
0
  6
Continuous
 62
     7
100
AcDbLine
 10
-24.70000000000001
 20
67.85000000000002
 30
0.0
 11
-24.35
 21
68.03750000000002
 31
0.0
  0
LINE
  5
BAE6
330
A
100
AcDbEntity
  8
0
  6
Continuous
 62
     7
100
AcDbLine
 10
-24.35
 20
68.03750000000002
 30
0.0
 11
-24.19532800000001
 21
68.12035999999999
 31
0.0
  0
LINE
  5
BAE7
330
A
100
AcDbEntity
  8
0
  6
Continuous
 62
     7
100
AcDbLine
 10
-6.900013999999983
 20
64.60000000000002
 30
0.0
 11
-6.900013999999983
 21
58.59999999999999
 31
0.0
  0
LINE
  5
BAE8
330
A
100
AcDbEntity
  8
0
  6
Continuous
 62
     7
100
AcDbLine
 10
6.25
 20
51.30000000000001
 30
0.0
 11
6.25
 21
51.6
 31
0.0
  0
LINE
  5
BAE9
330
A
100
AcDbEntity
  8
0
  6
Continuous
 62
     7
100
AcDbLine
 10
-6.25
 20
51.6
 30
0.0
 11
-6.25
 21
51.30000000000001
 31
0.0
  0
LINE
  5
BAEA
330
A
100
AcDbEntity
  8
0
  6
Continuous
 62
     7
100
AcDbLine
 10
-6.25
 20
51.30000000000001
 30
0.0
 11
-5.412841999999997
 21
49.84999999999999
 31
0.0
  0
LINE
  5
BAEB
330
A
100
AcDbEntity
  8
0
  6
Continuous
 62
     7
100
AcDbLine
 10
5.412841999999997
 20
49.84999999999999
 30
0.0
 11
6.25
 21
51.30000000000001
 31
0.0
  0
ARC
  5
BAEC
330
A
100
AcDbEntity
  8
0
  6
Continuous
 62
     7
100
AcDbCircle
 10
4.979829000000008
 20
50.09999999999998
 30
0.0
 40
0.5
100
AcDbArc
 50
270.0
 51
329.9999999999999
  0
ARC
  5
BAED
330
A
100
AcDbEntity
  8
0
  6
Continuous
 62
     7
100
AcDbCircle
 10
-4.979829000000008
 20
50.09999999999998
 30
0.0
 40
0.5
100
AcDbArc
 50
210.0000000000001
 51
270.0
  0
LINE
  5
BAEE
330
A
100
AcDbEntity
  8
0
  6
Continuous
 62
     7
100
AcDbLine
 10
-3.0
 20
58.00499999999999
 30
0.0
 11
-3.0
 21
58.0
 31
0.0
  0
LINE
  5
BAEF
330
A
100
AcDbEntity
  8
0
  6
Continuous
 62
     7
100
AcDbLine
 10
-3.0
 20
58.0
 30
0.0
 11
-3.0
 21
57.59999999999998
 31
0.0
  0
LINE
  5
BAF0
330
A
100
AcDbEntity
  8
0
  6
Continuous
 62
     7
100
AcDbLine
 10
3.0
 20
57.59999999999998
 30
0.0
 11
3.0
 21
58.0
 31
0.0
  0
LINE
  5
BAF1
330
A
100
AcDbEntity
  8
0
  6
Continuous
 62
     7
100
AcDbLine
 10
3.0
 20
58.0
 30
0.0
 11
3.0
 21
58.00499999999999
 31
0.0
  0
LINE
  5
BAF2
330
A
100
AcDbEntity
  8
0
  6
Continuous
 62
     7
100
AcDbLine
 10
-3.0
 20
58.59999999999999
 30
0.0
 11
-3.0
 21
58.0
 31
0.0
  0
LINE
  5
BAF3
330
A
100
AcDbEntity
  8
0
  6
Continuous
 62
     7
100
AcDbLine
 10
-3.0
 20
58.0
 30
0.0
 11
-3.0
 21
57.995
 31
0.0
  0
LINE
  5
BAF4
330
A
100
AcDbEntity
  8
0
  6
Continuous
 62
     7
100
AcDbLine
 10
3.0
 20
57.995
 30
0.0
 11
3.0
 21
58.0
 31
0.0
  0
LINE
  5
BAF5
330
A
100
AcDbEntity
  8
0
  6
Continuous
 62
     7
100
AcDbLine
 10
3.0
 20
58.0
 30
0.0
 11
3.0
 21
58.59999999999999
 31
0.0
  0
LINE
  5
BAF6
330
A
100
AcDbEntity
  8
0
  6
Continuous
 62
     7
100
AcDbLine
 10
4.900000000000004
 20
64.60000000000002
 30
0.0
 11
4.900000000000004
 21
65.60000000000002
 31
0.0
  0
LINE
  5
BAF7
330
A
100
AcDbEntity
  8
0
  6
Continuous
 62
     7
100
AcDbLine
 10
-4.900000000000004
 20
65.60000000000002
 30
0.0
 11
-4.900000000000004
 21
64.60000000000002
 31
0.0
  0
LINE
  5
BAF8
330
A
100
AcDbEntity
  8
0
  6
Continuous
 62
     9
100
AcDbLine
 10
-20.25
 20
-8.529852000000005
 30
0.0
 11
-26.00086899999999
 21
-8.529852000000005
 31
0.0
  0
LINE
  5
BAF9
330
A
100
AcDbEntity
  8
0
  6
Continuous
 62
     9
100
AcDbLine
 10
-26.00086899999999
 20
-8.529852000000005
 30
0.0
 11
-31.75
 21
-8.529852000000005
 31
0.0
  0
LINE
  5
BAFA
330
A
100
AcDbEntity
  8
0
  6
Continuous
 62
     9
100
AcDbLine
 10
-31.08891899999999
 20
-7.742006000000002
 30
0.0
 11
-26.00076899999999
 21
-7.742006000000002
 31
0.0
  0
LINE
  5
BAFB
330
A
100
AcDbEntity
  8
0
  6
Continuous
 62
     9
100
AcDbLine
 10
-26.00076899999999
 20
-7.742006000000002
 30
0.0
 11
-20.91108100000001
 21
-7.742006000000002
 31
0.0
  0
LINE
  5
BAFC
330
A
100
AcDbEntity
  8
0
  6
Continuous
 62
     7
100
AcDbLine
 10
-22.0
 20
-7.550000000000012
 30
0.0
 11
-30.0
 21
-7.550000000000012
 31
0.0
  0
LINE
  5
BAFD
330
A
100
AcDbEntity
  8
0
  6
Continuous
 62
     9
100
AcDbLine
 10
-31.75
 20
-41.470148
 30
0.0
 11
-20.25
 21
-41.470148
 31
0.0
  0
LINE
  5
BAFE
330
A
100
AcDbEntity
  8
0
  6
Continuous
 62
     9
100
AcDbLine
 10
-20.91108100000001
 20
-42.25799399999998
 30
0.0
 11
-31.08891899999999
 21
-42.25799399999998
 31
0.0
  0
LINE
  5
BAFF
330
A
100
AcDbEntity
  8
0
  6
Continuous
 62
     7
100
AcDbLine
 10
-30.0
 20
-42.44999999999999
 30
0.0
 11
-25.996734
 21
-42.44999999999999
 31
0.0
  0
LINE
  5
BB00
330
A
100
AcDbEntity
  8
0
  6
Continuous
 62
     7
100
AcDbLine
 10
-25.996734
 20
-42.44999999999999
 30
0.0
 11
-22.0
 21
-42.44999999999999
 31
0.0
  0
LINE
  5
BB01
330
A
100
AcDbEntity
  8
0
  6
Continuous
 62
     7
100
AcDbLine
 10
-18.853578
 20
-29.69999999999999
 30
0.0
 11
-17.909099
 21
-29.69999999999999
 31
0.0
  0
LINE
  5
BB02
330
A
100
AcDbEntity
  8
0
  6
Continuous
 62
     7
100
AcDbLine
 10
-17.909099
 20
-20.30000000000001
 30
0.0
 11
-18.853578
 21
-20.30000000000001
 31
0.0
  0
LINE
  5
BB03
330
A
100
AcDbEntity
  8
0
  6
Continuous
 62
     7
100
AcDbLine
 10
-17.909099
 20
-30.0
 30
0.0
 11
-18.853578
 21
-30.0
 31
0.0
  0
LINE
  5
BB04
330
A
100
AcDbEntity
  8
0
  6
Continuous
 62
     7
100
AcDbLine
 10
-18.853578
 20
-20.0
 30
0.0
 11
-17.909099
 21
-20.0
 31
0.0
  0
LINE
  5
BB05
330
A
100
AcDbEntity
  8
0
  6
Continuous
 62
     7
100
AcDbLine
 10
-19.228825
 20
-7.75
 30
0.0
 11
-19.228825
 21
-8.75
 31
0.0
  0
LINE
  5
BB06
330
A
100
AcDbEntity
  8
0
  6
Continuous
 62
     7
100
AcDbLine
 10
-18.412678
 20
-7.75
 30
0.0
 11
-19.228825
 21
-7.75
 31
0.0
  0
LINE
  5
BB07
330
A
100
AcDbEntity
  8
0
  6
Continuous
 62
     7
100
AcDbLine
 10
-18.412678
 20
-9.25
 30
0.0
 11
-18.412678
 21
-7.75
 31
0.0
  0
LINE
  5
BB08
330
A
100
AcDbEntity
  8
0
  6
Continuous
 62
     7
100
AcDbLine
 10
-17.88305099999998
 20
-9.25
 30
0.0
 11
-18.412678
 21
-9.25
 31
0.0
  0
ELLIPSE
  5
BB09
330
A
100
AcDbEntity
  8
0
  6
Continuous
 62
     7
100
AcDbEllipse
 10
-17.88305099999998
 20
-9.75
 30
0.0
 11
-0.0000000000001527
 21
-0.5000000000000006
 31
0.0
210
0.0
220
0.0
230
1.0
 40
0.173648
 41
1.570796326750293
 42
3.141592653545216
  0
LINE
  5
BB0A
330
A
100
AcDbEntity
  8
0
  6
Continuous
 62
     7
100
AcDbLine
 10
-17.796227
 20
-40.25
 30
0.0
 11
-17.796227
 21
-9.75
 31
0.0
  0
ELLIPSE
  5
BB0B
330
A
100
AcDbEntity
  8
0
  6
Continuous
 62
     7
100
AcDbEllipse
 10
-17.88305099999998
 20
-40.25
 30
0.0
 11
-0.0000000000001527
 21
-0.5000000000000006
 31
0.0
210
0.0
220
0.0
230
1.0
 40
0.173648
 41
6.283185307135065
 42
7.853981633929878
  0
LINE
  5
BB0C
330
A
100
AcDbEntity
  8
0
  6
Continuous
 62
     7
100
AcDbLine
 10
-18.412678
 20
-40.75
 30
0.0
 11
-17.88305099999998
 21
-40.75
 31
0.0
  0
LINE
  5
BB0D
330
A
100
AcDbEntity
  8
0
  6
Continuous
 62
     7
100
AcDbLine
 10
-18.412678
 20
-42.25
 30
0.0
 11
-18.412678
 21
-40.75
 31
0.0
  0
LINE
  5
BB0E
330
A
100
AcDbEntity
  8
0
  6
Continuous
 62
     7
100
AcDbLine
 10
-19.228825
 20
-42.25
 30
0.0
 11
-18.412678
 21
-42.25
 31
0.0
  0
LINE
  5
BB0F
330
A
100
AcDbEntity
  8
0
  6
Continuous
 62
     7
100
AcDbLine
 10
-19.228825
 20
-41.25
 30
0.0
 11
-19.228825
 21
-42.25
 31
0.0
  0
LINE
  5
BB10
330
A
100
AcDbEntity
  8
0
  6
Continuous
 62
     7
100
AcDbLine
 10
-18.853578
 20
-33.5
 30
0.0
 11
-18.38663100000001
 21
-33.5
 31
0.0
  0
LINE
  5
BB11
330
A
100
AcDbEntity
  8
0
  6
Continuous
 62
     7
100
AcDbLine
 10
-18.38663100000001
 20
-30.1
 30
0.0
 11
-18.38663100000001
 21
-33.5
 31
0.0
  0
LINE
  5
BB12
330
A
100
AcDbEntity
  8
0
  6
Continuous
 62
     7
100
AcDbLine
 10
-18.38663100000001
 20
-30.1
 30
0.0
 11
-17.909099
 21
-30.1
 31
0.0
  0
LINE
  5
BB13
330
A
100
AcDbEntity
  8
0
  6
Continuous
 62
     7
100
AcDbLine
 10
-17.909099
 20
-19.9
 30
0.0
 11
-17.909099
 21
-30.1
 31
0.0
  0
LINE
  5
BB14
330
A
100
AcDbEntity
  8
0
  6
Continuous
 62
     7
100
AcDbLine
 10
-18.38663100000001
 20
-19.9
 30
0.0
 11
-17.909099
 21
-19.9
 31
0.0
  0
LINE
  5
BB15
330
A
100
AcDbEntity
  8
0
  6
Continuous
 62
     7
100
AcDbLine
 10
-18.38663100000001
 20
-16.5
 30
0.0
 11
-18.38663100000001
 21
-19.9
 31
0.0
  0
LINE
  5
BB16
330
A
100
AcDbEntity
  8
0
  6
Continuous
 62
     7
100
AcDbLine
 10
-18.853578
 20
-16.5
 30
0.0
 11
-18.38663100000001
 21
-16.5
 31
0.0
  0
LINE
  5
BB17
330
A
100
AcDbEntity
  8
0
  6
Continuous
 62
     7
100
AcDbLine
 10
-17.88305099999998
 20
-9.25
 30
0.0
 11
-17.5
 21
-9.25
 31
0.0
  0
LINE
  5
BB18
330
A
100
AcDbEntity
  8
0
  6
Continuous
 62
     9
100
AcDbLine
 10
-17.5
 20
-9.75
 30
0.0
 11
-17.796227
 21
-9.75
 31
0.0
  0
LINE
  5
BB19
330
A
100
AcDbEntity
  8
0
  6
Continuous
 62
     9
100
AcDbLine
 10
-17.796227
 20
-40.25
 30
0.0
 11
-17.5
 21
-40.25
 31
0.0
  0
LINE
  5
BB1A
330
A
100
AcDbEntity
  8
0
  6
Continuous
 62
     7
100
AcDbLine
 10
-17.5
 20
-40.75
 30
0.0
 11
-17.88305099999998
 21
-40.75
 31
0.0
  0
LINE
  5
BB1B
330
A
100
AcDbEntity
  8
0
  6
Continuous
 62
     7
100
AcDbLine
 10
-18.412678
 20
-7.75
 30
0.0
 11
-17.5
 21
-7.75
 31
0.0
  0
LINE
  5
BB1C
330
A
100
AcDbEntity
  8
0
  6
Continuous
 62
     7
100
AcDbLine
 10
-18.412678
 20
-42.25
 30
0.0
 11
-17.5
 21
-42.25
 31
0.0
  0
LINE
  5
BB1D
330
A
100
AcDbEntity
  8
0
  6
Continuous
 62
     7
100
AcDbLine
 10
-18.853578
 20
-19.9
 30
0.0
 11
-18.38663100000001
 21
-19.9
 31
0.0
  0
LINE
  5
BB1E
330
A
100
AcDbEntity
  8
0
  6
Continuous
 62
     7
100
AcDbLine
 10
-18.853578
 20
-30.1
 30
0.0
 11
-18.38663100000001
 21
-30.1
 31
0.0
  0
LINE
  5
BB1F
330
A
100
AcDbEntity
  8
0
  6
Continuous
 62
     7
100
AcDbLine
 10
-26.621189
 20
-41.25
 30
0.0
 11
-27.36834399999999
 21
-41.25
 31
0.0
  0
LINE
  5
BB20
330
A
100
AcDbEntity
  8
0
  6
Continuous
 62
     9
100
AcDbLine
 10
-27.36834399999999
 20
-41.25
 30
0.0
 11
-27.36834399999999
 21
-8.75
 31
0.0
  0
LINE
  5
BB21
330
A
100
AcDbEntity
  8
0
  6
Continuous
 62
     7
100
AcDbLine
 10
-26.621189
 20
-8.75
 30
0.0
 11
-27.36834399999999
 21
-8.75
 31
0.0
  0
LINE
  5
BB22
330
A
100
AcDbEntity
  8
0
  6
Continuous
 62
     9
100
AcDbLine
 10
-26.621189
 20
-41.25
 30
0.0
 11
-26.621189
 21
-8.75
 31
0.0
  0
LINE
  5
BB23
330
A
100
AcDbEntity
  8
0
  6
Continuous
 62
     7
100
AcDbLine
 10
-33.5
 20
-41.25
 30
0.0
 11
-33.5
 21
-8.75
 31
0.0
  0
LINE
  5
BB24
330
A
100
AcDbEntity
  8
0
  6
Continuous
 62
     7
100
AcDbLine
 10
-27.36834399999999
 20
-41.25
 30
0.0
 11
-33.5
 21
-41.25
 31
0.0
  0
LINE
  5
BB25
330
A
100
AcDbEntity
  8
0
  6
Continuous
 62
     7
100
AcDbLine
 10
-27.36834399999999
 20
-8.75
 30
0.0
 11
-33.5
 21
-8.75
 31
0.0
  0
LINE
  5
BB26
330
A
100
AcDbEntity
  8
0
  6
Continuous
 62
     9
100
AcDbLine
 10
-22.956649
 20
-41.25
 30
0.0
 11
-22.956649
 21
-8.75
 31
0.0
  0
LINE
  5
BB27
330
A
100
AcDbEntity
  8
0
  6
Continuous
 62
     7
100
AcDbLine
 10
-26.621189
 20
-41.25
 30
0.0
 11
-22.956649
 21
-41.25
 31
0.0
  0
LINE
  5
BB28
330
A
100
AcDbEntity
  8
0
  6
Continuous
 62
     7
100
AcDbLine
 10
-26.621189
 20
-8.75
 30
0.0
 11
-22.956649
 21
-8.75
 31
0.0
  0
LINE
  5
BB29
330
A
100
AcDbEntity
  8
0
  6
Continuous
 62
     9
100
AcDbLine
 10
-22.200402
 20
-41.25
 30
0.0
 11
-22.200402
 21
-8.75
 31
0.0
  0
LINE
  5
BB2A
330
A
100
AcDbEntity
  8
0
  6
Continuous
 62
     7
100
AcDbLine
 10
-22.200402
 20
-41.25
 30
0.0
 11
-22.956649
 21
-41.25
 31
0.0
  0
LINE
  5
BB2B
330
A
100
AcDbEntity
  8
0
  6
Continuous
 62
     7
100
AcDbLine
 10
-22.200402
 20
-8.75
 30
0.0
 11
-22.956649
 21
-8.75
 31
0.0
  0
LINE
  5
BB2C
330
A
100
AcDbEntity
  8
0
  6
Continuous
 62
     9
100
AcDbLine
 10
-18.90797499999999
 20
-41.25
 30
0.0
 11
-18.90797499999999
 21
-8.75
 31
0.0
  0
LINE
  5
BB2D
330
A
100
AcDbEntity
  8
0
  6
Continuous
 62
     7
100
AcDbLine
 10
-18.90797499999999
 20
-41.25
 30
0.0
 11
-22.200402
 21
-41.25
 31
0.0
  0
LINE
  5
BB2E
330
A
100
AcDbEntity
  8
0
  6
Continuous
 62
     7
100
AcDbLine
 10
-18.90797499999999
 20
-8.75
 30
0.0
 11
-22.200402
 21
-8.75
 31
0.0
  0
LINE
  5
BB2F
330
A
100
AcDbEntity
  8
0
  6
Continuous
 62
     7
100
AcDbLine
 10
-18.853578
 20
-41.25
 30
0.0
 11
-18.90797499999999
 21
-41.25
 31
0.0
  0
LINE
  5
BB30
330
A
100
AcDbEntity
  8
0
  6
Continuous
 62
     7
100
AcDbLine
 10
-18.853578
 20
-8.75
 30
0.0
 11
-18.90797499999999
 21
-8.75
 31
0.0
  0
LINE
  5
BB31
330
A
100
AcDbEntity
  8
0
  6
Continuous
 62
     9
100
AcDbLine
 10
-34.5
 20
-41.25
 30
0.0
 11
-34.5
 21
-8.75
 31
0.0
  0
LINE
  5
BB32
330
A
100
AcDbEntity
  8
0
  6
Continuous
 62
     7
100
AcDbLine
 10
-33.5
 20
-41.25
 30
0.0
 11
-34.5
 21
-41.25
 31
0.0
  0
LINE
  5
BB33
330
A
100
AcDbEntity
  8
0
  6
Continuous
 62
     7
100
AcDbLine
 10
-33.5
 20
-8.75
 30
0.0
 11
-34.5
 21
-8.75
 31
0.0
  0
LINE
  5
BB34
330
A
100
AcDbEntity
  8
0
  6
Continuous
 62
     7
100
AcDbLine
 10
-38.5
 20
-65.0
 30
0.0
 11
-38.5
 21
15.0
 31
0.0
  0
LINE
  5
BB35
330
A
100
AcDbEntity
  8
0
  6
Continuous
 62
     7
100
AcDbLine
 10
-38.5
 20
-65.0
 30
0.0
 11
-34.5
 21
-65.0
 31
0.0
  0
LINE
  5
BB36
330
A
100
AcDbEntity
  8
0
  6
Continuous
 62
     7
100
AcDbLine
 10
-34.5
 20
-8.75
 30
0.0
 11
-34.5
 21
15.0
 31
0.0
  0
LINE
  5
BB37
330
A
100
AcDbEntity
  8
0
  6
Continuous
 62
     7
100
AcDbLine
 10
-38.5
 20
15.0
 30
0.0
 11
-34.5
 21
15.0
 31
0.0
  0
LINE
  5
BB38
330
A
100
AcDbEntity
  8
0
  6
Continuous
 62
     7
100
AcDbLine
 10
-34.5
 20
-65.0
 30
0.0
 11
-34.5
 21
-41.25
 31
0.0
  0
LINE
  5
BB39
330
A
100
AcDbEntity
  8
0
  6
Continuous
 62
     7
100
AcDbLine
 10
-33.5
 20
-65.0
 30
0.0
 11
-33.5
 21
-42.57499999999999
 31
0.0
  0
LINE
  5
BB3A
330
A
100
AcDbEntity
  8
0
  6
Continuous
 62
     9
100
AcDbLine
 10
-25.37881999999999
 20
-65.0
 30
0.0
 11
-25.37881999999999
 21
-42.57499999999999
 31
0.0
  0
LINE
  5
BB3B
330
A
100
AcDbEntity
  8
0
  6
Continuous
 62
     7
100
AcDbLine
 10
-25.37881999999999
 20
-42.57499999999999
 30
0.0
 11
-33.5
 21
-42.57499999999999
 31
0.0
  0
LINE
  5
BB3C
330
A
100
AcDbEntity
  8
0
  6
Continuous
 62
     7
100
AcDbLine
 10
-33.5
 20
-65.0
 30
0.0
 11
-25.37881999999999
 21
-65.0
 31
0.0
  0
LINE
  5
BB3D
330
A
100
AcDbEntity
  8
0
  6
Continuous
 62
     9
100
AcDbLine
 10
-25.37881999999999
 20
-7.425000000000012
 30
0.0
 11
-25.37881999999999
 21
15.0
 31
0.0
  0
LINE
  5
BB3E
330
A
100
AcDbEntity
  8
0
  6
Continuous
 62
     7
100
AcDbLine
 10
-33.5
 20
-7.425000000000012
 30
0.0
 11
-33.5
 21
15.0
 31
0.0
  0
LINE
  5
BB3F
330
A
100
AcDbEntity
  8
0
  6
Continuous
 62
     7
100
AcDbLine
 10
-33.5
 20
-7.425000000000012
 30
0.0
 11
-25.37881999999999
 21
-7.425000000000012
 31
0.0
  0
LINE
  5
BB40
330
A
100
AcDbEntity
  8
0
  6
Continuous
 62
     7
100
AcDbLine
 10
-33.5
 20
15.0
 30
0.0
 11
-25.37881999999999
 21
15.0
 31
0.0
  0
ARC
  5
BB41
330
A
100
AcDbEntity
  8
0
  6
Continuous
 62
     7
100
AcDbCircle
 10
9.999245
 20
7.499245000000001
 30
0.0
 40
7.500755
100
AcDbArc
 50
0.005766999999997
 51
89.99423300000001
  0
LINE
  5
BB42
330
A
100
AcDbEntity
  8
0
  6
Continuous
 62
     7
100
AcDbLine
 10
17.5
 20
-57.5
 30
0.0
 11
17.5
 21
7.5
 31
0.0
  0
ARC
  5
BB43
330
A
100
AcDbEntity
  8
0
  6
Continuous
 62
     7
100
AcDbCircle
 10
9.998422000000003
 20
-57.49842199999999
 30
0.0
 40
7.501578
100
AcDbArc
 50
270.0120499999997
 51
359.9879499999994
  0
LINE
  5
BB44
330
A
100
AcDbEntity
  8
0
  6
Continuous
 62
     7
100
AcDbLine
 10
-17.5
 20
-42.57499999999999
 30
0.0
 11
-17.5
 21
-7.425000000000012
 31
0.0
  0
LINE
  5
BB45
330
A
100
AcDbEntity
  8
0
  6
Continuous
 62
     7
100
AcDbLine
 10
-17.5
 20
-42.57499999999999
 30
0.0
 11
-25.37881999999999
 21
-42.57499999999999
 31
0.0
  0
LINE
  5
BB46
330
A
100
AcDbEntity
  8
0
  6
Continuous
 62
     7
100
AcDbLine
 10
-25.37881999999999
 20
-7.425000000000012
 30
0.0
 11
-17.5
 21
-7.425000000000012
 31
0.0
  0
LINE
  5
BB47
330
A
100
AcDbEntity
  8
0
  6
Continuous
 62
     7
100
AcDbLine
 10
-25.37881999999999
 20
15.0
 30
0.0
 11
10.0
 21
15.0
 31
0.0
  0
LINE
  5
BB48
330
A
100
AcDbEntity
  8
0
  6
Continuous
 62
     7
100
AcDbLine
 10
-25.37881999999999
 20
-65.0
 30
0.0
 11
10.0
 21
-65.0
 31
0.0
  0
LINE
  5
BB49
330
A
100
AcDbEntity
  8
0
  6
Continuous
 62
     7
100
AcDbLine
 10
-20.25
 20
-8.75
 30
0.0
 11
-20.25
 21
-8.529852000000005
 31
0.0
  0
LINE
  5
BB4A
330
A
100
AcDbEntity
  8
0
  6
Continuous
 62
     7
100
AcDbLine
 10
-31.75
 20
-8.529852000000005
 30
0.0
 11
-31.75
 21
-8.75
 31
0.0
  0
ARC
  5
BB4B
330
A
100
AcDbEntity
  8
0
  6
Continuous
 62
     7
100
AcDbCircle
 10
-30.95000000000001
 20
-8.529852000000005
 30
0.0
 40
0.8
100
AcDbArc
 50
100.0000000000002
 51
180.0
  0
ARC
  5
BB4C
330
A
100
AcDbEntity
  8
0
  6
Continuous
 62
     7
100
AcDbCircle
 10
-21.05
 20
-8.529852000000005
 30
0.0
 40
0.8
100
AcDbArc
 50
0.0
 51
79.9999999999998
  0
LINE
  5
BB4D
330
A
100
AcDbEntity
  8
0
  6
Continuous
 62
     7
100
AcDbLine
 10
-20.91108100000001
 20
-7.742006000000002
 30
0.0
 11
-22.0
 21
-7.550000000000012
 31
0.0
  0
LINE
  5
BB4E
330
A
100
AcDbEntity
  8
0
  6
Continuous
 62
     7
100
AcDbLine
 10
-30.0
 20
-7.550000000000012
 30
0.0
 11
-31.08891899999999
 21
-7.742006000000002
 31
0.0
  0
ARC
  5
BB4F
330
A
100
AcDbEntity
  8
0
  6
Continuous
 62
     7
100
AcDbCircle
 10
-21.05
 20
-41.470148
 30
0.0
 40
0.8
100
AcDbArc
 50
280.0000000000002
 51
0.0
  0
ARC
  5
BB50
330
A
100
AcDbEntity
  8
0
  6
Continuous
 62
     7
100
AcDbCircle
 10
-30.95000000000001
 20
-41.470148
 30
0.0
 40
0.8
100
AcDbArc
 50
180.0
 51
259.9999999999998
  0
LINE
  5
BB51
330
A
100
AcDbEntity
  8
0
  6
Continuous
 62
     7
100
AcDbLine
 10
-31.75
 20
-41.25
 30
0.0
 11
-31.75
 21
-41.470148
 31
0.0
  0
LINE
  5
BB52
330
A
100
AcDbEntity
  8
0
  6
Continuous
 62
     7
100
AcDbLine
 10
-20.25
 20
-41.470148
 30
0.0
 11
-20.25
 21
-41.25
 31
0.0
  0
LINE
  5
BB53
330
A
100
AcDbEntity
  8
0
  6
Continuous
 62
     7
100
AcDbLine
 10
-31.08891899999999
 20
-42.25799399999998
 30
0.0
 11
-30.0
 21
-42.44999999999999
 31
0.0
  0
LINE
  5
BB54
330
A
100
AcDbEntity
  8
0
  6
Continuous
 62
     7
100
AcDbLine
 10
-22.0
 20
-42.44999999999999
 30
0.0
 11
-20.91108100000001
 21
-42.25799399999998
 31
0.0
  0
ARC
  5
BB55
330
A
100
AcDbEntity
  8
0
  6
Continuous
 62
     7
100
AcDbCircle
 10
-26.0
 20
-63.0
 30
0.0
 40
2.5
100
AcDbArc
 50
270.0
 51
306.8698979999997
  0
ARC
  5
BB56
330
A
100
AcDbEntity
  8
0
  6
Continuous
 62
     7
100
AcDbCircle
 10
-26.0
 20
-63.0
 30
0.0
 40
2.5
100
AcDbArc
 50
233.1301020000004
 51
270.0
  0
ARC
  5
BB57
330
A
100
AcDbEntity
  8
0
  6
Continuous
 62
     7
100
AcDbCircle
 10
-26.0
 20
13.0
 30
0.0
 40
2.5
100
AcDbArc
 50
90.0
 51
126.8698979999996
  0
ARC
  5
BB58
330
A
100
AcDbEntity
  8
0
  6
Continuous
 62
     7
100
AcDbCircle
 10
-26.0
 20
13.0
 30
0.0
 40
2.5
100
AcDbArc
 50
53.13010200000036
 51
90.0
  0
LINE
  5
BB59
330
A
100
AcDbEntity
  8
0
  6
Continuous
 62
     7
100
AcDbLine
 10
-28.5
 20
-7.425000000000012
 30
0.0
 11
-28.5
 21
-7.550000000000012
 31
0.0
  0
LINE
  5
BB5A
330
A
100
AcDbEntity
  8
0
  6
Continuous
 62
     7
100
AcDbLine
 10
-28.5
 20
-42.44999999999999
 30
0.0
 11
-28.5
 21
-42.57499999999999
 31
0.0
  0
LINE
  5
BB5B
330
A
100
AcDbEntity
  8
0
  6
Continuous
 62
     7
100
AcDbLine
 10
-23.5
 20
-42.57499999999999
 30
0.0
 11
-23.5
 21
-42.44999999999999
 31
0.0
  0
LINE
  5
BB5C
330
A
100
AcDbEntity
  8
0
  6
Continuous
 62
     7
100
AcDbLine
 10
-23.5
 20
-7.550000000000012
 30
0.0
 11
-23.5
 21
-7.425000000000012
 31
0.0
  0
LINE
  5
BB5D
330
A
100
AcDbEntity
  8
0
  6
Continuous
 62
     7
100
AcDbLine
 10
-18.853578
 20
-41.25
 30
0.0
 11
-18.853578
 21
-8.75
 31
0.0
  0
ARC
  5
BB5E
330
A
100
AcDbEntity
  8
0
  6
Continuous
 62
     7
100
AcDbCircle
 10
82.33256462745066
 20
-112.2674746897725
 30
0.0
 40
5.63999449913054
100
AcDbArc
 50
4.069359279646594
 51
82.77776293349514
  0
ARC
  5
BB5F
330
A
100
AcDbEntity
  8
0
  6
Continuous
 62
     7
100
AcDbCircle
 10
81.10866309652328
 20
-114.8776034096856
 30
0.0
 40
8.429975603465713
100
AcDbArc
 50
76.74442646465556
 51
89.52051023656807
  0
ARC
  5
BB60
330
A
100
AcDbEntity
  8
0
  6
Continuous
 62
     7
100
AcDbCircle
 10
-101.4986450297708
 20
-60.84947826594086
 30
0.0
 40
4.257945112832576
100
AcDbArc
 50
282.8974639579816
 51
349.0848337960705
  0
ARC
  5
BB61
330
A
100
AcDbEntity
  8
0
  6
Continuous
 62
     7
100
AcDbCircle
 10
-108.639419673186
 20
-57.56054098919523
 30
0.0
 40
12.03957188933525
100
AcDbArc
 50
340.1142822394989
 51
0.2881130507643777
  0
ARC
  5
BB62
330
A
100
AcDbEntity
  8
0
  6
Continuous
 62
     7
100
AcDbCircle
 10
-105.8457135170488
 20
8.000947816174441
 30
0.0
 40
9.259274655925727
100
AcDbArc
 50
356.8986538015482
 51
45.2317272436032
  0
ARC
  5
BB63
330
A
100
AcDbEntity
  8
0
  6
Continuous
 62
     7
100
AcDbCircle
 10
-100.727055227676
 20
12.61306352288094
 30
0.0
 40
2.411181502156674
100
AcDbArc
 50
54.44382225297847
 51
75.84917456999789
  0
LINE
  5
BB64
330
A
100
AcDbEntity
  8
0
  6
Continuous
 62
     7
100
AcDbLine
 10
-100.137581
 20
14.95107899999999
 30
0.0
 11
-100.343697
 21
14.98773
 31
0.0
  0
LINE
  5
BB65
330
A
100
AcDbEntity
  8
0
  6
Continuous
 62
     7
100
AcDbLine
 10
-100.343697
 20
14.98773
 30
0.0
 11
-100.548242
 21
15.0
 31
0.0
  0
ENDSEC
  0
SECTION
  2
OBJECTS
  0
DICTIONARY
  5
19
330
0
100
AcDbDictionary
281
     1
  3
ACAD_COLOR
350
5829
  3
ACAD_GROUP
350
1A
  3
ACAD_LAYOUT
350
1E
  3
ACAD_MATERIAL
350
57FF
  3
ACAD_MLEADERSTYLE
350
584E
  3
ACAD_MLINESTYLE
350
1B
  3
ACAD_PLOTSETTINGS
350
22
  3
ACAD_PLOTSTYLENAME
350
1F
  3
ACAD_SCALELIST
350
582C
  3
ACAD_TABLESTYLE
350
582A
  3
ACAD_VISUALSTYLE
350
5818
  3
ACAD_WIPEOUT_VARS
350
23
  3
ACDB_RECOMPOSE_DATA
350
AB90
  3
AcDbVariableDictionary
350
AB91
  3
ASE_INDEX_DICTIONARY
350
BB66
  3
DWGPROPS
350
BFF6
  0
DICTIONARY
  5
5858
330
14
100
AcDbDictionary
280
     1
281
     1
  3
ADSK_XREC_LAYER_RECONCILED
360
5859
  0
DICTIONARY
  5
5864
330
A
100
AcDbDictionary
280
     1
281
     1
  3
ACAD_SORTENTS
360
5865
  0
DICTIONARY
  5
5829
102
{ACAD_REACTORS
330
19
102
}
330
19
100
AcDbDictionary
281
     1
  0
DICTIONARY
  5
1A
102
{ACAD_REACTORS
330
19
102
}
330
19
100
AcDbDictionary
281
     1
  0
DICTIONARY
  5
1E
102
{ACAD_REACTORS
330
19
102
}
330
19
100
AcDbDictionary
281
     1
  3
Layout1
350
21
  3
Model
350
20
  0
DICTIONARY
  5
57FF
102
{ACAD_REACTORS
330
19
102
}
330
19
100
AcDbDictionary
281
     1
  3
ByBlock
350
5808
  3
ByLayer
350
5800
  3
Global
350
5810
  0
DICTIONARY
  5
584E
102
{ACAD_REACTORS
330
19
102
}
330
19
100
AcDbDictionary
281
     1
  3
Standard
350
584F
  0
DICTIONARY
  5
1B
102
{ACAD_REACTORS
330
19
102
}
330
19
100
AcDbDictionary
281
     1
  3
Standard
350
1C
  0
DICTIONARY
  5
22
102
{ACAD_REACTORS
330
19
102
}
330
19
100
AcDbDictionary
281
     1
  0
ACDBDICTIONARYWDFLT
  5
1F
102
{ACAD_REACTORS
330
19
102
}
330
19
100
AcDbDictionary
281
     1
  3
Normal
350
1D
100
AcDbDictionaryWithDefault
340
1D
  0
DICTIONARY
  5
582C
102
{ACAD_REACTORS
330
19
102
}
330
19
100
AcDbDictionary
281
     1
  3
A0
350
582D
  3
A1
350
582E
  3
A2
350
582F
  3
A3
350
5830
  3
A4
350
5831
  3
A5
350
5832
  3
A6
350
5833
  3
A7
350
5834
  3
A8
350
5835
  3
A9
350
5836
  3
B0
350
5837
  3
B1
350
5838
  3
B2
350
5839
  3
B3
350
583A
  3
B4
350
583B
  3
B5
350
583C
  3
B6
350
583D
  3
B7
350
583E
  3
B8
350
583F
  3
B9
350
5840
  3
C0
350
5841
  3
C1
350
5842
  3
C2
350
5843
  3
C3
350
5844
  3
C4
350
5845
  3
C5
350
5846
  3
C6
350
5847
  3
C7
350
5848
  3
C8
350
5849
  3
C9
350
584A
  3
D0
350
584B
  3
D1
350
584C
  3
D2
350
584D
  0
DICTIONARY
  5
582A
102
{ACAD_REACTORS
330
19
102
}
330
19
100
AcDbDictionary
281
     1
  3
Standard
350
582B
  0
DICTIONARY
  5
5818
102
{ACAD_REACTORS
330
19
102
}
330
19
100
AcDbDictionary
281
     1
  3
2dWireframe
350
581E
  3
3D Hidden
350
5820
  3
3dWireframe
350
581F
  3
Basic
350
581D
  3
Brighten
350
5824
  3
ColorChange
350
5828
  3
Conceptual
350
5821
  3
Dim
350
5823
  3
Facepattern
350
5827
  3
Flat
350
5819
  3
FlatWithEdges
350
581A
  3
Gouraud
350
581B
  3
GouraudWithEdges
350
581C
  3
Linepattern
350
5826
  3
Realistic
350
5822
  3
Thicken
350
5825
  0
WIPEOUTVARIABLES
  5
23
330
19
100
AcDbWipeoutVariables
 70
     1
  0
XRECORD
  5
AB90
102
{ACAD_REACTORS
330
19
102
}
330
19
100
AcDbXrecord
280
     1
 90
        1
330
582B
  0
DICTIONARY
  5
AB91
102
{ACAD_REACTORS
330
19
102
}
330
19
100
AcDbDictionary
281
     1
  3
CANNOSCALE
350
AB95
  3
CMLEADERSTYLE
350
AB93
  3
CTABLESTYLE
350
AB92
  3
DIMASSOC
350
B616
  3
INDEXCTL
350
B615
  3
LIGHTINGUNITS
350
AB96
  3
MSLTSCALE
350
AB94
  3
SORTENTS
350
B614
  0
DICTIONARY
  5
BB66
102
{ACAD_REACTORS
330
19
102
}
330
19
100
AcDbDictionary
281
     1
  3
ASEBlockHierarchyIndexRecord
350
BB67
1001
DCO15
1040
1685073386.331
  0
XRECORD
  5
BFF6
102
{ACAD_REACTORS
330
19
102
}
330
19
100
AcDbXrecord
280
     1
  1
DWGPROPS COOKIE
  2

  3

  4

  6

  7

  8
renzo.ceresoli
  9

300
=
301
=
302
=
303
=
304
=
305
=
306
=
307
=
308
=
309
=
 40
0.1878967013888889
 41
2455301.802361111
 42
2455306.380810127
  1

 90
        0
  0
XRECORD
  5
5859
102
{ACAD_REACTORS
330
5858
102
}
330
5858
100
AcDbXrecord
280
     1
290
     1
  0
SORTENTSTABLE
  5
5865
102
{ACAD_REACTORS
330
5864
102
}
330
5864
100
AcDbSortentsTable
330
A
331
BA1C
  5
B9B8
331
BA5B
  5
B9F7
331
B96F
  5
BA81
331
B9A6
  5
BAB8
331
B8F1
  5
BAEE
331
B930
  5
BB23
331
B9E5
  5
BA49
331
B9ED
  5
BA51
331
BA24
  5
B9C0
331
B938
  5
BB2B
331
B977
  5
BA89
331
B8F9
  5
BAF6
331
B9AE
  5
BAC1
331
B9F5
  5
BA59
331
B940
  5
BB33
331
B97F
  5
BA91
331
BA2C
  5
B9C8
331
BA34
  5
B9D0
331
B9BE
  5
BACE
331
BAD1
  5
B982
331
BB08
  5
B901
331
BA92
  5
BA2A
331
BB4F
  5
B94C
331
BAD9
  5
B98A
331
BB10
  5
B909
331
BA9A
  5
BA32
331
BB57
  5
B954
331
BAA2
  5
BA3A
331
BAE1
  5
B992
331
BB18
  5
B914
331
BB20
  5
B91D
331
BAAA
  5
B95B
331
BB5F
  5
BAC7
331
B901
  5
BAFE
331
B948
  5
BB3B
331
BA3C
  5
B9D8
331
B987
  5
BA99
331
B9C6
  5
BAD6
331
B909
  5
BB06
331
B950
  5
BB43
331
B9FD
  5
BA67
331
BA05
  5
BA73
331
BA44
  5
B9E0
331
B958
  5
BB4B
331
B98F
  5
BAA1
331
B919
  5
BB0C
331
B9CE
  5
BADE
331
B9D6
  5
BAE6
331
BA0D
  5
BA7B
331
B960
  5
BB53
331
B997
  5
BAA9
331
BA4C
  5
B9E8
331
B921
  5
BB14
331
B9DE
  5
BA42
331
BA15
  5
B9AD
331
B99F
  5
BAB1
331
BA54
  5
B9F0
331
BAE9
  5
B99A
331
BB28
  5
B925
331
BA73
  5
BA0B
331
BAB2
  5
B963
331
BAF1
  5
B9A2
331
BB30
  5
B92D
331
BA7B
  5
BA13
331
BABA
  5
B96B
331
BAC2
  5
B973
331
BAF9
  5
B8F2
331
BA83
  5
BA1B
331
BB38
  5
B935
331
BB40
  5
B93D
331
BA8B
  5
BA23
331
BACA
  5
B97B
331
BB01
  5
B8FA
331
B929
  5
BB1C
331
B968
  5
BB5B
331
BA5C
  5
B9F8
331
B9A7
  5
BAB9
331
B9E6
  5
BA4A
331
B8F2
  5
BAEF
331
B931
  5
BB24
331
B970
  5
BA82
331
BA1D
  5
B9B9
331
BA25
  5
B9C1
331
B978
  5
BA8A
331
B9AF
  5
BAC2
331
B8FA
  5
BAF7
331
B939
  5
BB2C
331
B9EE
  5
BA52
331
BA2D
  5
B9C9
331
B941
  5
BB34
331
B9F6
  5
BA5A
331
BA35
  5
B9D1
331
B9BF
  5
BACF
331
BB48
  5
B945
331
BA93
  5
BA2B
331
BAD2
  5
B983
331
BB09
  5
B902
331
BB11
  5
B90A
331
BB50
  5
B94D
331
BA9B
  5
BA33
331
BADA
  5
B98B
331
BAE2
  5
B993
331
BB19
  5
B916
331
BAA3
  5
BA3B
331
BB58
  5
B955
331
BB21
  5
B91E
331
BAAB
  5
B95C
331
B949
  5
BB3C
331
B980
  5
BA92
331
B913
  5
BB64
331
B902
  5
BAFF
331
B9C7
  5
BAD7
331
B9FE
  5
BA68
331
B90A
  5
BB07
331
B951
  5
BB44
331
B988
  5
BA9A
331
BA3D
  5
B9D9
331
BA45
  5
B9E1
331
B9CF
  5
BADF
331
BA06
  5
BA74
331
B91A
  5
BB0D
331
B959
  5
BB4C
331
B990
  5
BAA2
331
BA4D
  5
B9E9
331
B998
  5
BAAA
331
B9D7
  5
BAE7
331
B922
  5
BB15
331
B961
  5
BB54
331
BA0E
  5
BA7C
331
BA16
  5
B9AE
331
BA55
  5
B9F1
331
B9DF
  5
BA43
331
BB60
  5
BA03
331
BAB3
  5
B964
331
BAEA
  5
B99B
331
BA74
  5
BA0C
331
BB29
  5
B926
331
BB31
  5
B92E
331
BA7C
  5
BA14
331
BABB
  5
B96C
331
BAF2
  5
B9A3
331
BAFA
  5
B8F3
331
BB39
  5
B936
331
BA84
  5
BA1C
331
BAC3
  5
B974
331
BB02
  5
B8FB
331
BB41
  5
B93E
331
BA8C
  5
BA24
331
BACB
  5
B97C
331
B969
  5
BB5C
331
B9A0
  5
BAB2
331
B92A
  5
BB1D
331
B9E7
  5
BA4B
331
BA1E
  5
B9BA
331
B971
  5
BA83
331
B9A8
  5
BABA
331
BA5D
  5
B9F9
331
B8F3
  5
BAF0
331
B932
  5
BB25
331
B9EF
  5
BA53
331
BA26
  5
B9C2
331
B93A
  5
BB2D
331
B979
  5
BA8B
331
B8FB
  5
BAF8
331
B9B0
  5
BAC3
331
BA65
  5
BA00
331
BA6D
  5
BA05
331
B9B8
  5
BAC8
331
B942
  5
BB35
331
B9F7
  5
BA5B
331
BA2E
  5
B9CA
331
BA36
  5
B9D2
331
BAD3
  5
B984
331
BB0A
  5
B903
331
BA94
  5
BA2C
331
BB49
  5
B946
331
BB51
  5
B94E
331
BA9C
  5
BA34
331
BADB
  5
B98C
331
BB12
  5
B90B
331
BB59
  5
B956
331
BAA4
  5
BA3C
331
BAE3
  5
B994
331
BB1A
  5
B917
331
BB22
  5
B91F
331
BAAC
  5
B95D
331
B981
  5
BA93
331
B9C0
  5
BAD0
331
B903
  5
BB00
331
B94A
  5
BB3D
331
B914
  5
BB65
331
BA3E
  5
B9DA
331
B989
  5
BA9B
331
B9C8
  5
BAD8
331
B90B
  5
BB08
331
B952
  5
BB45
331
B9FF
  5
BA6D
331
BA07
  5
BA75
331
BA46
  5
B9E2
331
B95A
  5
BB4D
331
B991
  5
BAA3
331
B91B
  5
BB0E
331
B9D0
  5
BAE0
331
B9D8
  5
BAE8
331
BA0F
  5
BA7D
331
B923
  5
BB16
331
B962
  5
BB55
331
B999
  5
BAAB
331
BA4E
  5
B9EA
331
BA56
  5
B9F2
331
BA17
  5
B9AF
331
BAEB
  5
B99C
331
BB2A
  5
B927
331
BA75
  5
BA0D
331
BAB4
  5
B965
331
BB61
  5
BA04
331
BAF3
  5
B9A4
331
BB32
  5
B92F
331
BA7D
  5
BA15
331
BABC
  5
B96D
331
BAC4
  5
B975
331
BAFB
  5
B8F4
331
BA85
  5
BA1D
331
BB3A
  5
B937
331
BB42
  5
B93F
331
BA8D
  5
BA25
331
BACC
  5
B97D
331
BB03
  5
B8FC
331
B9E0
  5
BA44
331
B92B
  5
BB1E
331
B96A
  5
BB5D
331
B9A1
  5
BAB3
331
B9A9
  5
BABB
331
B9E8
  5
BA4C
331
B8F4
  5
BAF1
331
B933
  5
BB26
331
B972
  5
BA84
331
BA1F
  5
B9BB
331
BA27
  5
B9C3
331
BA66
  5
BA01
331
B97A
  5
BA8C
331
B9B1
  5
BAC4
331
B8FC
  5
BAF9
331
B93B
  5
BB2E
331
B9F0
  5
BA54
331
BA2F
  5
B9CB
331
B9B9
  5
BAC9
331
BA6E
  5
BA06
331
B943
  5
BB36
331
BA37
  5
B9D3
331
BB0B
  5
B904
331
BB4A
  5
B947
331
BA95
  5
BA2D
331
BAD4
  5
B985
331
BB13
  5
B90D
331
BB52
  5
B94F
331
BA9D
  5
BA35
331
BADC
  5
B98D
331
BAE4
  5
B995
331
BB1B
  5
B918
331
BAA5
  5
BA3D
331
BB5A
  5
B957
331
BAAD
  5
B95E
331
BB23
  5
B920
331
B9F8
  5
BA5C
331
B94B
  5
BB3E
331
B982
  5
BA94
331
B904
  5
BB01
331
B9C1
  5
BAD1
331
B9C9
  5
BAD9
331
BA00
  5
BA6E
331
B953
  5
BB46
331
B98A
  5
BA9C
331
BA3F
  5
B9DB
331
BA47
  5
B9E3
331
B992
  5
BAA4
331
B9D1
  5
BAE1
331
B91C
  5
BB0F
331
B95B
  5
BB4E
331
BA08
  5
BA76
331
BA4F
  5
B9EB
331
B99A
  5
BAAC
331
B9D9
  5
BAE9
331
B924
  5
BB17
331
B963
  5
BB56
331
BA10
  5
BA7E
331
BA57
  5
B9F3
331
BB62
  5
B9FB
331
BAB5
  5
B966
331
BAEC
  5
B99D
331
BA76
  5
BA0E
331
BB2B
  5
B928
331
BB33
  5
B930
331
BA7E
  5
BA16
331
BABD
  5
B96E
331
BAF4
  5
B9A5
331
BAFC
  5
B8F5
331
BB3B
  5
B938
331
BA86
  5
BA1E
331
BAC5
  5
B976
331
BB04
  5
B8FD
331
BB43
  5
B940
331
BA8E
  5
BA26
331
BACD
  5
B97E
331
BA18
  5
B9B0
331
B96B
  5
BB5E
331
B9A2
  5
BAB4
331
B92C
  5
BB1F
331
B9E1
  5
BA45
331
B9E9
  5
BA4D
331
BA20
  5
B9BC
331
B934
  5
BB27
331
B973
  5
BA85
331
B8F5
  5
BAF2
331
B9AA
  5
BABC
331
BA67
  5
BA02
331
B9F1
  5
BA55
331
BA28
  5
B9C4
331
B93C
  5
BB2F
331
B97B
  5
BA8D
331
B8FD
  5
BAFA
331
B9B2
  5
BAC5
331
BA6F
  5
BA07
331
B9BA
  5
BACA
331
B944
  5
BB37
331
BA30
  5
B9CC
331
BAD5
  5
B986
331
BB0C
  5
B905
331
BA96
  5
BA2E
331
BB4B
  5
B948
331
BB53
  5
B950
331
BA9E
  5
BA36
331
BADD
  5
B98E
331
BB14
  5
B90E
331
BB1C
  5
B919
331
BB5B
  5
B958
331
BAA6
  5
BA3E
331
BAE5
  5
B996
331
BB24
  5
B921
331
BAAE
  5
B95F
331
BA38
  5
B9D4
331
B983
  5
BA95
331
B9C2
  5
BAD2
331
B916
  5
BB09
331
B905
  5
BB02
331
B94C
  5
BB3F
331
B9F9
  5
BA5D
331
BA01
  5
BA6F
331
BA40
  5
B9DC
331
B98B
  5
BA9D
331
B9CA
  5
BADA
331
B90D
  5
BB60
331
B954
  5
BB47
331
BA09
  5
BA77
331
BA48
  5
B9E4
331
B95C
  5
BB4F
331
B993
  5
BAA5
331
B91D
  5
BB10
331
B9D2
  5
BAE2
331
B9DA
  5
BAEA
331
BA11
  5
B9A9
331
B925
  5
BB18
331
B964
  5
BB57
331
B99B
  5
BAAD
331
BA50
  5
B9EC
331
BAED
  5
B99E
331
BB2C
  5
B929
331
BA77
  5
BA0F
331
BAB6
  5
B967
331
BB63
  5
B9FC
331
BABE
  5
B96F
331
BAF5
  5
B9A6
331
BA7F
  5
BA17
331
BB34
  5
B931
331
BAC6
  5
B977
331
BAFD
  5
B8F6
331
BA87
  5
BA1F
331
BB3C
  5
B939
331
BB44
  5
B941
331
BA8F
  5
BA27
331
BACE
  5
B97F
331
BB05
  5
B8FE
331
BA58
  5
B9F4
331
B9A3
  5
BAB5
331
B9E2
  5
BA46
331
B92D
  5
BB20
331
B96C
  5
BB5F
331
BA19
  5
B9B1
331
B9AB
  5
BABD
331
B9EA
  5
BA4E
331
B8F6
  5
BAF3
331
B935
  5
BB28
331
B974
  5
BA86
331
BA21
  5
B9BD
331
BA29
  5
B9C5
331
B97C
  5
BA8E
331
B8FE
  5
BAFB
331
B93D
  5
BB30
331
B9F2
  5
BA56
331
BA31
  5
B9CD
331
B945
  5
BB38
331
B9BB
  5
BACB
331
BB0D
  5
B906
331
BB4C
  5
B949
331
BA97
  5
BA2F
331
BAD6
  5
B987
331
BB15
  5
B90F
331
BB54
  5
B951
331
BA9F
  5
BA37
331
BADE
  5
B98F
331
BAE6
  5
B997
331
BB1D
  5
B91A
331
BAA7
  5
BA3F
331
BB5C
  5
B959
331
BAAF
  5
B960
331
BB25
  5
B922
331
B9FA
  5
BA5E
331
BA39
  5
B9D5
331
B94D
  5
BB40
331
B984
  5
BA96
331
B917
  5
BB0A
331
B906
  5
BB03
331
B9C3
  5
BAD3
331
B9CB
  5
BADB
331
BA02
  5
BA70
331
B90E
  5
BB61
331
B955
  5
BB48
331
B98C
  5
BA9E
331
BA41
  5
B9DD
331
BA49
  5
B9E5
331
B994
  5
BAA6
331
B9D3
  5
BAE3
331
B91E
  5
BB11
331
B95D
  5
BB50
331
BA0A
  5
BA78
331
BA12
  5
B9AA
331
BA51
  5
B9ED
331
B99C
  5
BAAE
331
B9DB
  5
BAEB
331
B926
  5
BB19
331
B965
  5
BB58
331
BA70
  5
BA08
331
BB2D
  5
B92A
331
BB64
  5
B9FD
331
BAB7
  5
B968
331
BAEE
  5
B99F
331
BA78
  5
BA10
331
BB35
  5
B932
331
BA80
  5
BA18
331
BABF
  5
B970
331
BAF6
  5
B9A7
331
BAFE
  5
B8F7
331
BB3D
  5
B93A
331
BA88
  5
BA20
331
BAC7
  5
B978
331
BACF
  5
B980
331
BB06
  5
B8FF
331
BB45
  5
B942
331
BA1A
  5
B9B2
331
BA59
  5
B9F5
331
B96D
  5
BA7F
331
B9A4
  5
BAB6
331
ABEF
  5
ABEF
331
B92E
  5
BB21
331
B9E3
  5
BA47
331
B9EB
  5
BA4F
331
BA22
  5
B9BE
331
B936
  5
BB29
331
B975
  5
BA87
331
B8F7
  5
BAF4
331
B9AC
  5
BABE
331
B9F3
  5
BA57
331
B93E
  5
BB31
331
B97D
  5
BA8F
331
BA2A
  5
B9C6
331
B8FF
  5
BAFC
331
B9BC
  5
BACC
331
B946
  5
BB39
331
BA32
  5
B9CE
331
BA90
  5
BA28
331
BAD7
  5
B988
331
BB0E
  5
B907
331
BA98
  5
BA30
331
BB4D
  5
B94A
331
BB55
  5
B952
331
BAA0
  5
BA38
331
BADF
  5
B990
331
BB16
  5
B910
331
BB1E
  5
B91B
331
BB5D
  5
B95A
331
BAA8
  5
BA40
331
BAE7
  5
B998
331
BB26
  5
B923
331
B910
  5
BB63
331
BA3A
  5
B9D6
331
B985
  5
BA97
331
B9C4
  5
BAD4
331
B907
  5
BB04
331
B94E
  5
BB41
331
B9FB
  5
BA65
331
BA03
  5
BA71
331
BA42
  5
B9DE
331
B956
  5
BB49
331
B98D
  5
BA9F
331
B90F
  5
BB62
331
B9CC
  5
BADC
331
BA0B
  5
BA79
331
BA4A
  5
B9E6
331
B95E
  5
BB51
331
B995
  5
BAA7
331
B91F
  5
BB12
331
B9D4
  5
BAE4
331
B9DC
  5
BAEC
331
BA13
  5
B9AB
331
B927
  5
BB1A
331
B966
  5
BB59
331
B99D
  5
BAAF
331
BA52
  5
B9EE
331
BA71
  5
BA09
331
BAB0
  5
B961
331
BAEF
  5
B9A0
331
BB2E
  5
B92B
331
BA79
  5
BA11
331
BAB8
  5
B969
331
BB65
  5
B9FF
331
BAC0
  5
B971
331
BAF7
  5
B9A8
331
BA81
  5
BA19
331
BB36
  5
B933
331
BB3E
  5
B93B
331
BAC8
  5
B979
331
BAFF
  5
B8F8
331
BA89
  5
BA21
331
BB46
  5
B943
331
BB07
  5
B900
331
BA5A
  5
B9F6
331
B9A5
  5
BAB7
331
B9E4
  5
BA48
331
B92F
  5
BB22
331
B96E
  5
BA80
331
BA1B
  5
B9B3
331
BA23
  5
B9BF
331
B9AD
  5
BAC0
331
B9EC
  5
BA50
331
B8F8
  5
BAF5
331
B937
  5
BB2A
331
B976
  5
BA88
331
BA2B
  5
B9C7
331
B97E
  5
BA90
331
B93F
  5
BB32
331
B9F4
  5
BA58
331
BA33
  5
B9CF
331
B947
  5
BB3A
331
B9BD
  5
BACD
331
BA91
  5
BA29
331
BAD0
  5
B981
331
BB0F
  5
B908
331
BB4E
  5
B94B
331
BA99
  5
BA31
331
BAD8
  5
B989
331
BAE0
  5
B991
331
BB17
  5
B913
331
BAA1
  5
BA39
331
BB56
  5
B953
331
BB1F
  5
B91C
331
BAA9
  5
BA41
331
BB5E
  5
BAC6
331
BB27
  5
B924
331
B900
  5
BAFD
331
B9C5
  5
BAD5
331
B9FC
  5
BA66
331
B94F
  5
BB42
331
B986
  5
BA98
331
BA3B
  5
B9D7
331
B908
  5
BB05
331
B9CD
  5
BADD
331
BA04
  5
BA72
331
B918
  5
BB0B
331
B957
  5
BB4A
331
B98E
  5
BAA0
331
BA43
  5
B9DF
331
BA4B
  5
B9E7
331
B996
  5
BAA8
331
B9D5
  5
BAE5
331
B920
  5
BB13
331
B95F
  5
BB52
331
BA0C
  5
BA7A
331
BA14
  5
B9AC
331
BA53
  5
B9EF
331
B967
  5
BB5A
331
B99E
  5
BAB0
331
B9DD
  5
BAED
331
BAB1
  5
B962
331
BAE8
  5
B999
331
BA72
  5
BA0A
331
BB2F
  5
B92C
331
BA7A
  5
BA12
331
BAB9
  5
B96A
331
BAF0
  5
B9A1
331
BB37
  5
B934
331
BA82
  5
BA1A
331
BAC1
  5
B972
331
BAF8
  5
B8F1
331
BB00
  5
B8F9
331
BB3F
  5
B93C
331
BA8A
  5
BA22
331
BAC9
  5
B97A
331
BB47
  5
B944
331
B928
  5
BB1B
  0
LAYOUT
  5
21
102
{ACAD_XDICTIONARY
360
BFF9
102
}
102
{ACAD_REACTORS
330
1E
102
}
330
1E
100
AcDbPlotSettings
  1

  2

  4

  6

 40
0.0
 41
0.0
 42
0.0
 43
0.0
 44
0.0
 45
0.0
 46
0.0
 47
0.0
 48
0.0
 49
0.0
140
0.0
141
0.0
142
1.0
143
1.0
 70
     0
 72
     0
 73
     0
 74
     0
  7

 75
     0
147
1.0
148
0.0
149
0.0
100
AcDbLayout
  1
Layout1
 70
     0
 71
     1
 10
0.0
 20
0.0
 11
12.0
 21
9.0
 12
0.0
 22
0.0
 32
0.0
 14
1.000000000000000E+20
 24
1.000000000000000E+20
 34
1.000000000000000E+20
 15
-1.000000000000000E+20
 25
-1.000000000000000E+20
 35
-1.000000000000000E+20
146
0.0
 13
0.0
 23
0.0
 33
0.0
 16
1.0
 26
0.0
 36
0.0
 17
0.0
 27
1.0
 37
0.0
 76
     0
330
B
  0
LAYOUT
  5
20
102
{ACAD_XDICTIONARY
360
BFF7
102
}
102
{ACAD_REACTORS
330
1E
102
}
330
1E
100
AcDbPlotSettings
  1

  2

  4

  6

 40
0.0
 41
0.0
 42
0.0
 43
0.0
 44
0.0
 45
0.0
 46
0.0
 47
0.0
 48
0.0
 49
0.0
140
0.0
141
0.0
142
1.0
143
1.0
 70
  1024
 72
     0
 73
     0
 74
     0
  7

 75
     0
147
1.0
148
0.0
149
0.0
100
AcDbLayout
  1
Model
 70
     0
 71
     0
 10
0.0
 20
0.0
 11
0.0
 21
0.0
 12
0.0
 22
0.0
 32
0.0
 14
0.0
 24
0.0
 34
0.0
 15
0.0
 25
0.0
 35
0.0
146
0.0
 13
0.0
 23
0.0
 33
0.0
 16
0.0
 26
0.0
 36
0.0
 17
0.0
 27
0.0
 37
0.0
 76
     0
330
A
331
15
  0
MATERIAL
  5
5808
102
{ACAD_XDICTIONARY
360
5809
102
}
102
{ACAD_REACTORS
330
57FF
102
}
330
57FF
100
AcDbMaterial
  1
ByBlock
 72
     0
 43
0.0208333333333333
 43
0.0
 43
0.0
 43
0.0
 43
0.0
 43
0.0208333333333333
 43
0.0
 43
0.0
 43
0.0
 43
0.0
 43
1.0
 43
0.0
 43
0.0
 43
0.0
 43
0.0
 43
1.0
 77
     0
 47
0.0208333333333333
 47
0.0
 47
0.0
 47
0.0
 47
0.0
 47
0.0208333333333333
 47
0.0
 47
0.0
 47
0.0
 47
0.0
 47
1.0
 47
0.0
 47
0.0
 47
0.0
 47
0.0
 47
1.0
171
     0
 49
0.0208333333333333
 49
0.0
 49
0.0
 49
0.0
 49
0.0
 49
0.0208333333333333
 49
0.0
 49
0.0
 49
0.0
 49
0.0
 49
1.0
 49
0.0
 49
0.0
 49
0.0
 49
0.0
 49
1.0
175
     0
142
0.0208333333333333
142
0.0
142
0.0
142
0.0
142
0.0
142
0.0208333333333333
142
0.0
142
0.0
142
0.0
142
0.0
142
1.0
142
0.0
142
0.0
142
0.0
142
0.0
142
1.0
179
     0
144
0.0208333333333333
144
0.0
144
0.0
144
0.0
144
0.0
144
0.0208333333333333
144
0.0
144
0.0
144
0.0
144
0.0
144
1.0
144
0.0
144
0.0
144
0.0
144
0.0
144
1.0
147
0.0208333333333333
147
0.0
147
0.0
147
0.0
147
0.0
147
0.0208333333333333
147
0.0
147
0.0
147
0.0
147
0.0
147
1.0
147
0.0
147
0.0
147
0.0
147
0.0
147
1.0
  0
MATERIAL
  5
5800
102
{ACAD_XDICTIONARY
360
5801
102
}
102
{ACAD_REACTORS
330
57FF
102
}
330
57FF
100
AcDbMaterial
  1
ByLayer
 72
     0
 43
0.0208333333333333
 43
0.0
 43
0.0
 43
0.0
 43
0.0
 43
0.0208333333333333
 43
0.0
 43
0.0
 43
0.0
 43
0.0
 43
1.0
 43
0.0
 43
0.0
 43
0.0
 43
0.0
 43
1.0
 77
     0
 47
0.0208333333333333
 47
0.0
 47
0.0
 47
0.0
 47
0.0
 47
0.0208333333333333
 47
0.0
 47
0.0
 47
0.0
 47
0.0
 47
1.0
 47
0.0
 47
0.0
 47
0.0
 47
0.0
 47
1.0
171
     0
 49
0.0208333333333333
 49
0.0
 49
0.0
 49
0.0
 49
0.0
 49
0.0208333333333333
 49
0.0
 49
0.0
 49
0.0
 49
0.0
 49
1.0
 49
0.0
 49
0.0
 49
0.0
 49
0.0
 49
1.0
175
     0
142
0.0208333333333333
142
0.0
142
0.0
142
0.0
142
0.0
142
0.0208333333333333
142
0.0
142
0.0
142
0.0
142
0.0
142
1.0
142
0.0
142
0.0
142
0.0
142
0.0
142
1.0
179
     0
144
0.0208333333333333
144
0.0
144
0.0
144
0.0
144
0.0
144
0.0208333333333333
144
0.0
144
0.0
144
0.0
144
0.0
144
1.0
144
0.0
144
0.0
144
0.0
144
0.0
144
1.0
147
0.0208333333333333
147
0.0
147
0.0
147
0.0
147
0.0
147
0.0208333333333333
147
0.0
147
0.0
147
0.0
147
0.0
147
1.0
147
0.0
147
0.0
147
0.0
147
0.0
147
1.0
  0
MATERIAL
  5
5810
102
{ACAD_XDICTIONARY
360
5811
102
}
102
{ACAD_REACTORS
330
57FF
102
}
330
57FF
100
AcDbMaterial
  1
Global
 72
     0
 43
0.0208333333333333
 43
0.0
 43
0.0
 43
0.0
 43
0.0
 43
0.0208333333333333
 43
0.0
 43
0.0
 43
0.0
 43
0.0
 43
1.0
 43
0.0
 43
0.0
 43
0.0
 43
0.0
 43
1.0
 77
     0
 47
0.0208333333333333
 47
0.0
 47
0.0
 47
0.0
 47
0.0
 47
0.0208333333333333
 47
0.0
 47
0.0
 47
0.0
 47
0.0
 47
1.0
 47
0.0
 47
0.0
 47
0.0
 47
0.0
 47
1.0
171
     0
 49
0.0208333333333333
 49
0.0
 49
0.0
 49
0.0
 49
0.0
 49
0.0208333333333333
 49
0.0
 49
0.0
 49
0.0
 49
0.0
 49
1.0
 49
0.0
 49
0.0
 49
0.0
 49
0.0
 49
1.0
175
     0
142
0.0208333333333333
142
0.0
142
0.0
142
0.0
142
0.0
142
0.0208333333333333
142
0.0
142
0.0
142
0.0
142
0.0
142
1.0
142
0.0
142
0.0
142
0.0
142
0.0
142
1.0
179
     0
144
0.0208333333333333
144
0.0
144
0.0
144
0.0
144
0.0
144
0.0208333333333333
144
0.0
144
0.0
144
0.0
144
0.0
144
1.0
144
0.0
144
0.0
144
0.0
144
0.0
144
1.0
147
0.0208333333333333
147
0.0
147
0.0
147
0.0
147
0.0
147
0.0208333333333333
147
0.0
147
0.0
147
0.0
147
0.0
147
1.0
147
0.0
147
0.0
147
0.0
147
0.0
147
1.0
  0
MLEADERSTYLE
  5
584F
102
{ACAD_REACTORS
330
584E
102
}
330
584E
100
AcDbMLeaderStyle
170
     2
171
     1
172
     0
 90
        2
 40
0.0
 41
0.0
173
     1
 91
-1056964608
340
11
 92
       -2
290
     1
 42
2.0
291
     1
 43
0.36
  3
Standard
 44
4.0
300

342
17
174
     1
178
     6
175
     1
176
     0
 93
-1056964608
 45
4.0
292
     0
297
     0
 46
4.0
 94
-1056964608
 47
1.0
 49
1.0
140
1.0
293
     1
141
0.0
294
     1
177
     0
142
1.0
295
     0
296
     0
143
0.125
1001
ACAD_MLEADERVER
1070
     2
  0
MLINESTYLE
  5
1C
102
{ACAD_REACTORS
330
1B
102
}
330
1B
100
AcDbMlineStyle
  2
STANDARD
 70
     0
  3

 62
     0
 51
90.0
 52
90.0
 71
     2
 49
0.5
 62
   256
  6
BYLAYER
 49
-0.5
 62
   256
  6
BYLAYER
  0
ACDBPLACEHOLDER
  5
1D
102
{ACAD_REACTORS
330
1F
102
}
330
1F
  0
SCALE
  5
582D
102
{ACAD_REACTORS
330
582C
102
}
330
582C
100
AcDbScale
 70
     0
300
1:1
140
1.0
141
1.0
290
     1
  0
SCALE
  5
582E
102
{ACAD_REACTORS
330
582C
102
}
330
582C
100
AcDbScale
 70
     0
300
1:2
140
1.0
141
2.0
290
     0
  0
SCALE
  5
582F
102
{ACAD_REACTORS
330
582C
102
}
330
582C
100
AcDbScale
 70
     0
300
1:4
140
1.0
141
4.0
290
     0
  0
SCALE
  5
5830
102
{ACAD_REACTORS
330
582C
102
}
330
582C
100
AcDbScale
 70
     0
300
1:5
140
1.0
141
5.0
290
     0
  0
SCALE
  5
5831
102
{ACAD_REACTORS
330
582C
102
}
330
582C
100
AcDbScale
 70
     0
300
1:8
140
1.0
141
8.0
290
     0
  0
SCALE
  5
5832
102
{ACAD_REACTORS
330
582C
102
}
330
582C
100
AcDbScale
 70
     0
300
1:10
140
1.0
141
10.0
290
     0
  0
SCALE
  5
5833
102
{ACAD_REACTORS
330
582C
102
}
330
582C
100
AcDbScale
 70
     0
300
1:16
140
1.0
141
16.0
290
     0
  0
SCALE
  5
5834
102
{ACAD_REACTORS
330
582C
102
}
330
582C
100
AcDbScale
 70
     0
300
1:20
140
1.0
141
20.0
290
     0
  0
SCALE
  5
5835
102
{ACAD_REACTORS
330
582C
102
}
330
582C
100
AcDbScale
 70
     0
300
1:30
140
1.0
141
30.0
290
     0
  0
SCALE
  5
5836
102
{ACAD_REACTORS
330
582C
102
}
330
582C
100
AcDbScale
 70
     0
300
1:40
140
1.0
141
40.0
290
     0
  0
SCALE
  5
5837
102
{ACAD_REACTORS
330
582C
102
}
330
582C
100
AcDbScale
 70
     0
300
1:50
140
1.0
141
50.0
290
     0
  0
SCALE
  5
5838
102
{ACAD_REACTORS
330
582C
102
}
330
582C
100
AcDbScale
 70
     0
300
1:100
140
1.0
141
100.0
290
     0
  0
SCALE
  5
5839
102
{ACAD_REACTORS
330
582C
102
}
330
582C
100
AcDbScale
 70
     0
300
2:1
140
2.0
141
1.0
290
     0
  0
SCALE
  5
583A
102
{ACAD_REACTORS
330
582C
102
}
330
582C
100
AcDbScale
 70
     0
300
4:1
140
4.0
141
1.0
290
     0
  0
SCALE
  5
583B
102
{ACAD_REACTORS
330
582C
102
}
330
582C
100
AcDbScale
 70
     0
300
8:1
140
8.0
141
1.0
290
     0
  0
SCALE
  5
583C
102
{ACAD_REACTORS
330
582C
102
}
330
582C
100
AcDbScale
 70
     0
300
10:1
140
10.0
141
1.0
290
     0
  0
SCALE
  5
583D
102
{ACAD_REACTORS
330
582C
102
}
330
582C
100
AcDbScale
 70
     0
300
100:1
140
100.0
141
1.0
290
     0
  0
SCALE
  5
583E
102
{ACAD_REACTORS
330
582C
102
}
330
582C
100
AcDbScale
 70
     0
300
1/128" = 1'-0"
140
0.0078125
141
12.0
290
     0
  0
SCALE
  5
583F
102
{ACAD_REACTORS
330
582C
102
}
330
582C
100
AcDbScale
 70
     0
300
1/64" = 1'-0"
140
0.015625
141
12.0
290
     0
  0
SCALE
  5
5840
102
{ACAD_REACTORS
330
582C
102
}
330
582C
100
AcDbScale
 70
     0
300
1/32" = 1'-0"
140
0.03125
141
12.0
290
     0
  0
SCALE
  5
5841
102
{ACAD_REACTORS
330
582C
102
}
330
582C
100
AcDbScale
 70
     0
300
1/16" = 1'-0"
140
0.0625
141
12.0
290
     0
  0
SCALE
  5
5842
102
{ACAD_REACTORS
330
582C
102
}
330
582C
100
AcDbScale
 70
     0
300
3/32" = 1'-0"
140
0.09375
141
12.0
290
     0
  0
SCALE
  5
5843
102
{ACAD_REACTORS
330
582C
102
}
330
582C
100
AcDbScale
 70
     0
300
1/8" = 1'-0"
140
0.125
141
12.0
290
     0
  0
SCALE
  5
5844
102
{ACAD_REACTORS
330
582C
102
}
330
582C
100
AcDbScale
 70
     0
300
3/16" = 1'-0"
140
0.1875
141
12.0
290
     0
  0
SCALE
  5
5845
102
{ACAD_REACTORS
330
582C
102
}
330
582C
100
AcDbScale
 70
     0
300
1/4" = 1'-0"
140
0.25
141
12.0
290
     0
  0
SCALE
  5
5846
102
{ACAD_REACTORS
330
582C
102
}
330
582C
100
AcDbScale
 70
     0
300
3/8" = 1'-0"
140
0.375
141
12.0
290
     0
  0
SCALE
  5
5847
102
{ACAD_REACTORS
330
582C
102
}
330
582C
100
AcDbScale
 70
     0
300
1/2" = 1'-0"
140
0.5
141
12.0
290
     0
  0
SCALE
  5
5848
102
{ACAD_REACTORS
330
582C
102
}
330
582C
100
AcDbScale
 70
     0
300
3/4" = 1'-0"
140
0.75
141
12.0
290
     0
  0
SCALE
  5
5849
102
{ACAD_REACTORS
330
582C
102
}
330
582C
100
AcDbScale
 70
     0
300
1" = 1'-0"
140
1.0
141
12.0
290
     0
  0
SCALE
  5
584A
102
{ACAD_REACTORS
330
582C
102
}
330
582C
100
AcDbScale
 70
     0
300
1-1/2" = 1'-0"
140
1.5
141
12.0
290
     0
  0
SCALE
  5
584B
102
{ACAD_REACTORS
330
582C
102
}
330
582C
100
AcDbScale
 70
     0
300
3" = 1'-0"
140
3.0
141
12.0
290
     0
  0
SCALE
  5
584C
102
{ACAD_REACTORS
330
582C
102
}
330
582C
100
AcDbScale
 70
     0
300
6" = 1'-0"
140
6.0
141
12.0
290
     0
  0
SCALE
  5
584D
102
{ACAD_REACTORS
330
582C
102
}
330
582C
100
AcDbScale
 70
     0
300
1'-0" = 1'-0"
140
12.0
141
12.0
290
     0
  0
TABLESTYLE
  5
582B
102
{ACAD_XDICTIONARY
360
AB8E
102
}
102
{ACAD_REACTORS
330
582A
102
}
330
582A
100
AcDbTableStyle
  3
Standard
 70
     0
 71
     0
 40
1.5
 41
1.5
280
     0
281
     0
  7
Standard
140
4.5
170
     2
 62
     0
 63
     7
283
     0
274
    -2
284
     1
 64
     0
275
    -2
285
     1
 65
     0
276
    -2
286
     1
 66
     0
277
    -2
287
     1
 67
     0
278
    -2
288
     1
 68
     0
279
    -2
289
     1
 69
     0
  7
Standard
140
6.0
170
     5
 62
     0
 63
     7
283
     0
274
    -2
284
     1
 64
     0
275
    -2
285
     1
 65
     0
276
    -2
286
     1
 66
     0
277
    -2
287
     1
 67
     0
278
    -2
288
     1
 68
     0
279
    -2
289
     1
 69
     0
  7
Standard
140
4.5
170
     5
 62
     0
 63
     7
283
     0
274
    -2
284
     1
 64
     0
275
    -2
285
     1
 65
     0
276
    -2
286
     1
 66
     0
277
    -2
287
     1
 67
     0
278
    -2
288
     1
 68
     0
279
    -2
289
     1
 69
     0
  0
VISUALSTYLE
  5
581E
102
{ACAD_REACTORS
330
5818
102
}
330
5818
100
AcDbVisualStyle
  2
2dWireframe
 70
     4
 71
     0
 72
     2
 73
     0
 90
        0
 40
-0.6
 41
-30.0
 62
     5
 63
     7
 74
     1
 91
        4
 64
     7
 65
   257
 75
     1
175
     1
 42
1.0
 92
        0
 66
   257
 43
1.0
 76
     1
 77
     6
 78
     2
 67
     7
 79
     5
170
     0
171
     0
290
     0
174
     0
 93
        1
 44
0.0
173
     0
291
     0
 45
0.0
1001
ACAD
1000
AcDbSavedByObjectVersion
1070
     0
1000
AcDbSavedByObjectVersion
1070
     0
1000
AcDbSavedByObjectVersion
1070
     0
1000
AcDbSavedByObjectVersion
1070
     0
1000
AcDbSavedByObjectVersion
1070
     0
  0
VISUALSTYLE
  5
5820
102
{ACAD_REACTORS
330
5818
102
}
330
5818
100
AcDbVisualStyle
  2
3D Hidden
 70
     6
 71
     1
 72
     2
 73
     2
 90
        0
 40
-0.6
 41
-30.0
 62
     5
 63
     7
 74
     2
 91
        2
 64
     7
 65
   257
 75
     2
175
     1
 42
40.0
 92
        0
 66
   257
 43
1.0
 76
     1
 77
     6
 78
     2
 67
     7
 79
     3
170
     0
171
     0
290
     0
174
     0
 93
        1
 44
0.0
173
     0
291
     0
 45
0.0
1001
ACAD
1000
AcDbSavedByObjectVersion
1070
     0
1000
AcDbSavedByObjectVersion
1070
     0
1000
AcDbSavedByObjectVersion
1070
     0
1000
AcDbSavedByObjectVersion
1070
     0
1000
AcDbSavedByObjectVersion
1070
     0
  0
VISUALSTYLE
  5
581F
102
{ACAD_REACTORS
330
5818
102
}
330
5818
100
AcDbVisualStyle
  2
3dWireframe
 70
     5
 71
     0
 72
     2
 73
     0
 90
        0
 40
-0.6
 41
-30.0
 62
     5
 63
     7
 74
     1
 91
        4
 64
     7
 65
   257
 75
     1
175
     1
 42
1.0
 92
        0
 66
   257
 43
1.0
 76
     1
 77
     6
 78
     2
 67
     7
 79
     5
170
     0
171
     0
290
     0
174
     0
 93
        1
 44
0.0
173
     0
291
     0
 45
0.0
1001
ACAD
1000
AcDbSavedByObjectVersion
1070
     0
1000
AcDbSavedByObjectVersion
1070
     0
1000
AcDbSavedByObjectVersion
1070
     0
1000
AcDbSavedByObjectVersion
1070
     0
1000
AcDbSavedByObjectVersion
1070
     0
  0
VISUALSTYLE
  5
581D
102
{ACAD_REACTORS
330
5818
102
}
330
5818
100
AcDbVisualStyle
  2
Basic
 70
     7
 71
     1
 72
     0
 73
     1
 90
        0
 40
-0.6
 41
-30.0
 62
     5
 63
     7
 74
     0
 91
        4
 64
     7
 65
   257
 75
     1
175
     1
 42
1.0
 92
        8
 66
     7
 43
1.0
 76
     1
 77
     6
 78
     2
 67
     7
 79
     5
170
     0
171
     0
290
     0
174
     0
 93
        1
 44
0.0
173
     0
291
     1
 45
0.0
1001
ACAD
1000
AcDbSavedByObjectVersion
1070
     0
1000
AcDbSavedByObjectVersion
1070
     0
1000
AcDbSavedByObjectVersion
1070
     0
1000
AcDbSavedByObjectVersion
1070
     0
1000
AcDbSavedByObjectVersion
1070
     0
  0
VISUALSTYLE
  5
5824
102
{ACAD_REACTORS
330
5818
102
}
330
5818
100
AcDbVisualStyle
  2
Brighten
 70
    12
 71
     2
 72
     2
 73
     0
 90
        0
 40
-0.6
 41
-30.0
 62
     5
 63
     7
 74
     1
 91
        4
 64
     7
 65
   257
 75
     1
175
     1
 42
1.0
 92
        8
 66
     7
 43
1.0
 76
     1
 77
     6
 78
     2
 67
     7
 79
     5
170
     0
171
     0
290
     0
174
     0
 93
        1
 44
50.0
173
     0
291
     1
 45
0.0
1001
ACAD
1000
AcDbSavedByObjectVersion
1070
     0
1000
AcDbSavedByObjectVersion
1070
     0
1000
AcDbSavedByObjectVersion
1070
     0
1000
AcDbSavedByObjectVersion
1070
     0
1000
AcDbSavedByObjectVersion
1070
     0
  0
VISUALSTYLE
  5
5828
102
{ACAD_REACTORS
330
5818
102
}
330
5818
100
AcDbVisualStyle
  2
ColorChange
 70
    16
 71
     2
 72
     2
 73
     3
 90
        0
 40
-0.6
 41
-30.0
 62
     5
 63
     8
 74
     1
 91
        4
 64
     7
 65
   257
 75
     1
175
     1
 42
1.0
 92
        8
 66
     8
 43
1.0
 76
     1
 77
     6
 78
     2
 67
     7
 79
     5
170
     0
171
     0
290
     0
174
     0
 93
        1
 44
0.0
173
     0
291
     1
 45
0.0
1001
ACAD
1000
AcDbSavedByObjectVersion
1070
     0
1000
AcDbSavedByObjectVersion
1070
     0
1000
AcDbSavedByObjectVersion
1070
     0
1000
AcDbSavedByObjectVersion
1070
     0
1000
AcDbSavedByObjectVersion
1070
     0
  0
VISUALSTYLE
  5
5821
102
{ACAD_REACTORS
330
5818
102
}
330
5818
100
AcDbVisualStyle
  2
Conceptual
 70
     9
 71
     3
 72
     2
 73
     0
 90
        0
 40
-0.6
 41
-30.0
 62
     5
 63
     7
 74
     2
 91
        2
 64
     7
 65
   257
 75
     1
175
     1
 42
40.0
 92
        8
 66
     7
 43
1.0
 76
     1
 77
     6
 78
     2
 67
     7
 79
     3
170
     0
171
     0
290
     0
174
     0
 93
        1
 44
0.0
173
     0
291
     0
 45
0.0
1001
ACAD
1000
AcDbSavedByObjectVersion
1070
     0
1000
AcDbSavedByObjectVersion
1070
     0
1000
AcDbSavedByObjectVersion
1070
     0
1000
AcDbSavedByObjectVersion
1070
     0
1000
AcDbSavedByObjectVersion
1070
     0
  0
VISUALSTYLE
  5
5823
102
{ACAD_REACTORS
330
5818
102
}
330
5818
100
AcDbVisualStyle
  2
Dim
 70
    11
 71
     2
 72
     2
 73
     0
 90
        0
 40
-0.6
 41
-30.0
 62
     5
 63
     7
 74
     1
 91
        4
 64
     7
 65
   257
 75
     1
175
     1
 42
1.0
 92
        8
 66
     7
 43
1.0
 76
     1
 77
     6
 78
     2
 67
     7
 79
     5
170
     0
171
     0
290
     0
174
     0
 93
        1
 44
-50.0
173
     0
291
     1
 45
0.0
1001
ACAD
1000
AcDbSavedByObjectVersion
1070
     0
1000
AcDbSavedByObjectVersion
1070
     0
1000
AcDbSavedByObjectVersion
1070
     0
1000
AcDbSavedByObjectVersion
1070
     0
1000
AcDbSavedByObjectVersion
1070
     0
  0
VISUALSTYLE
  5
5827
102
{ACAD_REACTORS
330
5818
102
}
330
5818
100
AcDbVisualStyle
  2
Facepattern
 70
    15
 71
     2
 72
     2
 73
     0
 90
        0
 40
-0.6
 41
-30.0
 62
     5
 63
     7
 74
     1
 91
        4
 64
     7
 65
   257
 75
     1
175
     1
 42
1.0
 92
        8
 66
     7
 43
1.0
 76
     1
 77
     6
 78
     2
 67
     7
 79
     5
170
     0
171
     0
290
     0
174
     0
 93
        1
 44
0.0
173
     0
291
     1
 45
0.0
1001
ACAD
1000
AcDbSavedByObjectVersion
1070
     0
1000
AcDbSavedByObjectVersion
1070
     0
1000
AcDbSavedByObjectVersion
1070
     0
1000
AcDbSavedByObjectVersion
1070
     0
1000
AcDbSavedByObjectVersion
1070
     0
  0
VISUALSTYLE
  5
5819
102
{ACAD_REACTORS
330
5818
102
}
330
5818
100
AcDbVisualStyle
  2
Flat
 70
     0
 71
     2
 72
     1
 73
     1
 90
        2
 40
-0.6
 41
30.0
 62
     5
 63
     7
 74
     0
 91
        4
 64
     7
 65
   257
 75
     1
175
     1
 42
1.0
 92
        8
 66
     7
 43
1.0
 76
     1
 77
     6
 78
     2
 67
     7
 79
     5
170
     0
171
     0
290
     0
174
     0
 93
       13
 44
0.0
173
     0
291
     1
 45
0.0
1001
ACAD
1000
AcDbSavedByObjectVersion
1070
     0
1000
AcDbSavedByObjectVersion
1070
     0
1000
AcDbSavedByObjectVersion
1070
     0
1000
AcDbSavedByObjectVersion
1070
     0
1000
AcDbSavedByObjectVersion
1070
     0
  0
VISUALSTYLE
  5
581A
102
{ACAD_REACTORS
330
5818
102
}
330
5818
100
AcDbVisualStyle
  2
FlatWithEdges
 70
     1
 71
     2
 72
     1
 73
     1
 90
        2
 40
-0.6
 41
30.0
 62
     5
 63
     7
 74
     1
 91
        4
 64
     7
 65
   257
 75
     1
175
     1
 42
1.0
 92
        0
 66
   257
 43
1.0
 76
     1
 77
     6
 78
     2
 67
     7
 79
     5
170
     0
171
     0
290
     0
174
     0
 93
       13
 44
0.0
173
     0
291
     1
 45
0.0
1001
ACAD
1000
AcDbSavedByObjectVersion
1070
     0
1000
AcDbSavedByObjectVersion
1070
     0
1000
AcDbSavedByObjectVersion
1070
     0
1000
AcDbSavedByObjectVersion
1070
     0
1000
AcDbSavedByObjectVersion
1070
     0
  0
VISUALSTYLE
  5
581B
102
{ACAD_REACTORS
330
5818
102
}
330
5818
100
AcDbVisualStyle
  2
Gouraud
 70
     2
 71
     2
 72
     2
 73
     1
 90
        2
 40
-0.6
 41
30.0
 62
     5
 63
     7
 74
     0
 91
        4
 64
     7
 65
   257
 75
     1
175
     1
 42
1.0
 92
        0
 66
     7
 43
1.0
 76
     1
 77
     6
 78
     2
 67
     7
 79
     5
170
     0
171
     0
290
     0
174
     0
 93
       13
 44
0.0
173
     0
291
     1
 45
0.0
1001
ACAD
1000
AcDbSavedByObjectVersion
1070
     0
1000
AcDbSavedByObjectVersion
1070
     0
1000
AcDbSavedByObjectVersion
1070
     0
1000
AcDbSavedByObjectVersion
1070
     0
1000
AcDbSavedByObjectVersion
1070
     0
  0
VISUALSTYLE
  5
581C
102
{ACAD_REACTORS
330
5818
102
}
330
5818
100
AcDbVisualStyle
  2
GouraudWithEdges
 70
     3
 71
     2
 72
     2
 73
     1
 90
        2
 40
-0.6
 41
30.0
 62
     5
 63
     7
 74
     1
 91
        4
 64
     7
 65
   257
 75
     1
175
     1
 42
1.0
 92
        0
 66
   257
 43
1.0
 76
     1
 77
     6
 78
     2
 67
     7
 79
     5
170
     0
171
     0
290
     0
174
     0
 93
       13
 44
0.0
173
     0
291
     1
 45
0.0
1001
ACAD
1000
AcDbSavedByObjectVersion
1070
     0
1000
AcDbSavedByObjectVersion
1070
     0
1000
AcDbSavedByObjectVersion
1070
     0
1000
AcDbSavedByObjectVersion
1070
     0
1000
AcDbSavedByObjectVersion
1070
     0
  0
VISUALSTYLE
  5
5826
102
{ACAD_REACTORS
330
5818
102
}
330
5818
100
AcDbVisualStyle
  2
Linepattern
 70
    14
 71
     2
 72
     2
 73
     0
 90
        0
 40
-0.6
 41
-30.0
 62
     5
 63
     7
 74
     1
 91
        4
 64
     7
 65
   257
 75
     7
175
     7
 42
1.0
 92
        8
 66
     7
 43
1.0
 76
     1
 77
     6
 78
     2
 67
     7
 79
     5
170
     0
171
     0
290
     0
174
     0
 93
        1
 44
0.0
173
     0
291
     1
 45
0.0
1001
ACAD
1000
AcDbSavedByObjectVersion
1070
     0
1000
AcDbSavedByObjectVersion
1070
     0
1000
AcDbSavedByObjectVersion
1070
     0
1000
AcDbSavedByObjectVersion
1070
     0
1000
AcDbSavedByObjectVersion
1070
     0
  0
VISUALSTYLE
  5
5822
102
{ACAD_REACTORS
330
5818
102
}
330
5818
100
AcDbVisualStyle
  2
Realistic
 70
     8
 71
     2
 72
     2
 73
     0
 90
        0
 40
-0.6
 41
-30.0
 62
     5
 63
     7
 74
     1
 91
        0
 64
     7
 65
   257
 75
     1
175
     1
 42
1.0
 92
        8
 66
     8
 43
1.0
 76
     1
 77
     6
 78
     2
 67
     7
 79
     5
170
     0
171
     0
290
     0
174
     0
 93
       13
 44
0.0
173
     0
291
     0
 45
0.0
1001
ACAD
1000
AcDbSavedByObjectVersion
1070
     0
1000
AcDbSavedByObjectVersion
1070
     0
1000
AcDbSavedByObjectVersion
1070
     0
1000
AcDbSavedByObjectVersion
1070
     0
1000
AcDbSavedByObjectVersion
1070
     0
  0
VISUALSTYLE
  5
5825
102
{ACAD_REACTORS
330
5818
102
}
330
5818
100
AcDbVisualStyle
  2
Thicken
 70
    13
 71
     2
 72
     2
 73
     0
 90
        0
 40
-0.6
 41
-30.0
 62
     5
 63
     7
 74
     1
 91
        4
 64
     7
 65
   257
 75
     1
175
     1
 42
1.0
 92
       12
 66
     7
 43
1.0
 76
     1
 77
     6
 78
     2
 67
     7
 79
     5
170
     0
171
     0
290
     0
174
     0
 93
        1
 44
0.0
173
     0
291
     1
 45
0.0
1001
ACAD
1000
AcDbSavedByObjectVersion
1070
     0
1000
AcDbSavedByObjectVersion
1070
     0
1000
AcDbSavedByObjectVersion
1070
     0
1000
AcDbSavedByObjectVersion
1070
     0
1000
AcDbSavedByObjectVersion
1070
     0
  0
DICTIONARYVAR
  5
AB95
102
{ACAD_REACTORS
330
AB91
102
}
330
AB91
100
DictionaryVariables
280
     0
  1
1:1
  0
DICTIONARYVAR
  5
AB93
102
{ACAD_REACTORS
330
AB91
102
}
330
AB91
100
DictionaryVariables
280
     0
  1
STANDARD
  0
DICTIONARYVAR
  5
AB92
102
{ACAD_REACTORS
330
AB91
102
}
330
AB91
100
DictionaryVariables
280
     0
  1
STANDARD
  0
DICTIONARYVAR
  5
B616
102
{ACAD_REACTORS
330
AB91
102
}
330
AB91
100
DictionaryVariables
280
     0
  1
1
  0
DICTIONARYVAR
  5
B615
102
{ACAD_REACTORS
330
AB91
102
}
330
AB91
100
DictionaryVariables
280
     0
  1
0
  0
DICTIONARYVAR
  5
AB96
102
{ACAD_REACTORS
330
AB91
102
}
330
AB91
100
DictionaryVariables
280
     0
  1
0
  0
DICTIONARYVAR
  5
AB94
102
{ACAD_REACTORS
330
AB91
102
}
330
AB91
100
DictionaryVariables
280
     0
  1
0
  0
DICTIONARYVAR
  5
B614
102
{ACAD_REACTORS
330
AB91
102
}
330
AB91
100
DictionaryVariables
280
     0
  1
127
  0
XRECORD
  5
BB67
102
{ACAD_REACTORS
330
BB66
102
}
330
BB66
100
AcDbXrecord
280
     1
  0
DICTIONARY
  5
BFF9
330
21
100
AcDbDictionary
280
     1
281
     1
  3
ACAD_XREC_ROUNDTRIP
360
BFFA
  0
DICTIONARY
  5
BFF7
330
20
100
AcDbDictionary
280
     1
281
     1
  3
ACAD_XREC_ROUNDTRIP
360
BFF8
  0
DICTIONARY
  5
5809
330
5808
100
AcDbDictionary
280
     1
281
     1
  3
ACAD_XREC_ROUNDTRIP
360
B61E
  3
BUMPTILE
360
580B
  3
DIFFUSETILE
360
580A
  3
OPACITYTILE
360
580E
  3
REFLECTIONTILE
360
580D
  3
REFRACTIONTILE
360
580F
  3
SPECULARTILE
360
580C
  0
DICTIONARY
  5
5801
330
5800
100
AcDbDictionary
280
     1
281
     1
  3
ACAD_XREC_ROUNDTRIP
360
B61D
  3
BUMPTILE
360
5803
  3
DIFFUSETILE
360
5802
  3
OPACITYTILE
360
5806
  3
REFLECTIONTILE
360
5805
  3
REFRACTIONTILE
360
5807
  3
SPECULARTILE
360
5804
  0
DICTIONARY
  5
5811
330
5810
100
AcDbDictionary
280
     1
281
     1
  3
ACAD_XREC_ROUNDTRIP
360
B61F
  3
BUMPTILE
360
5813
  3
DIFFUSETILE
360
5812
  3
OPACITYTILE
360
5816
  3
REFLECTIONTILE
360
5815
  3
REFRACTIONTILE
360
5817
  3
SPECULARTILE
360
5814
  0
DICTIONARY
  5
AB8E
330
582B
100
AcDbDictionary
280
     1
281
     1
  3
ACAD_ROUNDTRIP_2008_TABLESTYLE_CELLSTYLEMAP
360
BFF5
  3
ACAD_XREC_ROUNDTRIP
360
BFFB
  0
XRECORD
  5
BFFA
102
{ACAD_REACTORS
330
BFF9
102
}
330
BFF9
100
AcDbXrecord
280
     1
102
SHADEPLOT
 70
     0
102
SHADEPLOTRESLEVEL
 70
     2
102
SHADEPLOTCUSTOMDPI
 70
   300
  0
XRECORD
  5
BFF8
102
{ACAD_REACTORS
330
BFF7
102
}
330
BFF7
100
AcDbXrecord
280
     1
102
SHADEPLOT
 70
     0
102
SHADEPLOTRESLEVEL
 70
     2
102
SHADEPLOTCUSTOMDPI
 70
   300
  0
XRECORD
  5
B61E
102
{ACAD_REACTORS
330
5809
102
}
330
5809
100
AcDbXrecord
280
     1
102
MATERIAL
148
0.0
149
0.0
149
0.0
 93
        0
 94
      127
282
     0
 72
     0
 77
     0
171
     0
175
     0
179
     0
273
     0
  0
XRECORD
  5
580B
102
{ACAD_REACTORS
330
5809
102
}
330
5809
100
AcDbXrecord
280
     1
270
     1
271
     1
  0
XRECORD
  5
580A
102
{ACAD_REACTORS
330
5809
102
}
330
5809
100
AcDbXrecord
280
     1
270
     1
271
     1
  0
XRECORD
  5
580E
102
{ACAD_REACTORS
330
5809
102
}
330
5809
100
AcDbXrecord
280
     1
270
     1
271
     1
  0
XRECORD
  5
580D
102
{ACAD_REACTORS
330
5809
102
}
330
5809
100
AcDbXrecord
280
     1
270
     1
271
     1
  0
XRECORD
  5
580F
102
{ACAD_REACTORS
330
5809
102
}
330
5809
100
AcDbXrecord
280
     1
270
     1
271
     1
  0
XRECORD
  5
580C
102
{ACAD_REACTORS
330
5809
102
}
330
5809
100
AcDbXrecord
280
     1
270
     1
271
     1
  0
XRECORD
  5
B61D
102
{ACAD_REACTORS
330
5801
102
}
330
5801
100
AcDbXrecord
280
     1
102
MATERIAL
148
0.0
149
0.0
149
0.0
 93
        0
 94
      127
282
     0
 72
     0
 77
     0
171
     0
175
     0
179
     0
273
     0
  0
XRECORD
  5
5803
102
{ACAD_REACTORS
330
5801
102
}
330
5801
100
AcDbXrecord
280
     1
270
     1
271
     1
  0
XRECORD
  5
5802
102
{ACAD_REACTORS
330
5801
102
}
330
5801
100
AcDbXrecord
280
     1
270
     1
271
     1
  0
XRECORD
  5
5806
102
{ACAD_REACTORS
330
5801
102
}
330
5801
100
AcDbXrecord
280
     1
270
     1
271
     1
  0
XRECORD
  5
5805
102
{ACAD_REACTORS
330
5801
102
}
330
5801
100
AcDbXrecord
280
     1
270
     1
271
     1
  0
XRECORD
  5
5807
102
{ACAD_REACTORS
330
5801
102
}
330
5801
100
AcDbXrecord
280
     1
270
     1
271
     1
  0
XRECORD
  5
5804
102
{ACAD_REACTORS
330
5801
102
}
330
5801
100
AcDbXrecord
280
     1
270
     1
271
     1
  0
XRECORD
  5
B61F
102
{ACAD_REACTORS
330
5811
102
}
330
5811
100
AcDbXrecord
280
     1
102
MATERIAL
148
0.0
149
0.0
149
0.0
 93
        0
 94
      127
282
     0
 72
     0
 77
     0
171
     0
175
     0
179
     0
273
     0
  0
XRECORD
  5
5813
102
{ACAD_REACTORS
330
5811
102
}
330
5811
100
AcDbXrecord
280
     1
270
     1
271
     1
  0
XRECORD
  5
5812
102
{ACAD_REACTORS
330
5811
102
}
330
5811
100
AcDbXrecord
280
     1
270
     1
271
     1
  0
XRECORD
  5
5816
102
{ACAD_REACTORS
330
5811
102
}
330
5811
100
AcDbXrecord
280
     1
270
     1
271
     1
  0
XRECORD
  5
5815
102
{ACAD_REACTORS
330
5811
102
}
330
5811
100
AcDbXrecord
280
     1
270
     1
271
     1
  0
XRECORD
  5
5817
102
{ACAD_REACTORS
330
5811
102
}
330
5811
100
AcDbXrecord
280
     1
270
     1
271
     1
  0
XRECORD
  5
5814
102
{ACAD_REACTORS
330
5811
102
}
330
5811
100
AcDbXrecord
280
     1
270
     1
271
     1
  0
CELLSTYLEMAP
  5
BFF5
102
{ACAD_REACTORS
330
AB8E
102
}
330
AB8E
100
AcDbCellStyleMap
 90
        3
300
CELLSTYLE
  1
TABLEFORMAT_BEGIN
 90
        5
170
     1
 91
        0
 92
    32768
 62
   257
 93
        1
300
CONTENTFORMAT
  1
CONTENTFORMAT_BEGIN
 90
        0
 91
        0
 92
      512
 93
        0
300

 40
0.0
140
1.0
 94
        5
 62
     0
340
17
144
6.0
309
CONTENTFORMAT_END
171
     1
301
MARGIN
  1
CELLMARGIN_BEGIN
 40
1.5
 40
1.5
 40
1.5
 40
1.5
 40
0.18
 40
0.18
309
CELLMARGIN_END
 94
        6
 95
        1
302
GRIDFORMAT
  1
GRIDFORMAT_BEGIN
 90
        0
 91
        1
 62
     0
 92
       -2
340
0
 93
        0
 40
1.125
309
GRIDFORMAT_END
 95
        2
302
GRIDFORMAT
  1
GRIDFORMAT_BEGIN
 90
        0
 91
        1
 62
     0
 92
       -2
340
0
 93
        0
 40
1.125
309
GRIDFORMAT_END
 95
        4
302
GRIDFORMAT
  1
GRIDFORMAT_BEGIN
 90
        0
 91
        1
 62
     0
 92
       -2
340
0
 93
        0
 40
1.125
309
GRIDFORMAT_END
 95
        8
302
GRIDFORMAT
  1
GRIDFORMAT_BEGIN
 90
        0
 91
        1
 62
     0
 92
       -2
340
0
 93
        0
 40
1.125
309
GRIDFORMAT_END
 95
       16
302
GRIDFORMAT
  1
GRIDFORMAT_BEGIN
 90
        0
 91
        1
 62
     0
 92
       -2
340
0
 93
        0
 40
1.125
309
GRIDFORMAT_END
 95
       32
302
GRIDFORMAT
  1
GRIDFORMAT_BEGIN
 90
        0
 91
        1
 62
     0
 92
       -2
340
0
 93
        0
 40
1.125
309
GRIDFORMAT_END
309
TABLEFORMAT_END
  1
CELLSTYLE_BEGIN
 90
        1
 91
        1
300
_TITLE
309
CELLSTYLE_END
300
CELLSTYLE
  1
TABLEFORMAT_BEGIN
 90
        5
170
     1
 91
        0
 92
        0
 62
   257
 93
        1
300
CONTENTFORMAT
  1
CONTENTFORMAT_BEGIN
 90
        0
 91
        0
 92
      512
 93
        0
300

 40
0.0
140
1.0
 94
        5
 62
     0
340
17
144
4.5
309
CONTENTFORMAT_END
171
     1
301
MARGIN
  1
CELLMARGIN_BEGIN
 40
1.5
 40
1.5
 40
1.5
 40
1.5
 40
0.18
 40
0.18
309
CELLMARGIN_END
 94
        6
 95
        1
302
GRIDFORMAT
  1
GRIDFORMAT_BEGIN
 90
        0
 91
        1
 62
     0
 92
       -2
340
0
 93
        0
 40
1.125
309
GRIDFORMAT_END
 95
        2
302
GRIDFORMAT
  1
GRIDFORMAT_BEGIN
 90
        0
 91
        1
 62
     0
 92
       -2
340
0
 93
        0
 40
1.125
309
GRIDFORMAT_END
 95
        4
302
GRIDFORMAT
  1
GRIDFORMAT_BEGIN
 90
        0
 91
        1
 62
     0
 92
       -2
340
0
 93
        0
 40
1.125
309
GRIDFORMAT_END
 95
        8
302
GRIDFORMAT
  1
GRIDFORMAT_BEGIN
 90
        0
 91
        1
 62
     0
 92
       -2
340
0
 93
        0
 40
1.125
309
GRIDFORMAT_END
 95
       16
302
GRIDFORMAT
  1
GRIDFORMAT_BEGIN
 90
        0
 91
        1
 62
     0
 92
       -2
340
0
 93
        0
 40
1.125
309
GRIDFORMAT_END
 95
       32
302
GRIDFORMAT
  1
GRIDFORMAT_BEGIN
 90
        0
 91
        1
 62
     0
 92
       -2
340
0
 93
        0
 40
1.125
309
GRIDFORMAT_END
309
TABLEFORMAT_END
  1
CELLSTYLE_BEGIN
 90
        2
 91
        1
300
_HEADER
309
CELLSTYLE_END
300
CELLSTYLE
  1
TABLEFORMAT_BEGIN
 90
        5
170
     1
 91
        0
 92
        0
 62
   257
 93
        1
300
CONTENTFORMAT
  1
CONTENTFORMAT_BEGIN
 90
        0
 91
        0
 92
      512
 93
        0
300

 40
0.0
140
1.0
 94
        2
 62
     0
340
17
144
4.5
309
CONTENTFORMAT_END
171
     1
301
MARGIN
  1
CELLMARGIN_BEGIN
 40
1.5
 40
1.5
 40
1.5
 40
1.5
 40
0.18
 40
0.18
309
CELLMARGIN_END
 94
        6
 95
        1
302
GRIDFORMAT
  1
GRIDFORMAT_BEGIN
 90
        0
 91
        1
 62
     0
 92
       -2
340
0
 93
        0
 40
1.125
309
GRIDFORMAT_END
 95
        2
302
GRIDFORMAT
  1
GRIDFORMAT_BEGIN
 90
        0
 91
        1
 62
     0
 92
       -2
340
0
 93
        0
 40
1.125
309
GRIDFORMAT_END
 95
        4
302
GRIDFORMAT
  1
GRIDFORMAT_BEGIN
 90
        0
 91
        1
 62
     0
 92
       -2
340
0
 93
        0
 40
1.125
309
GRIDFORMAT_END
 95
        8
302
GRIDFORMAT
  1
GRIDFORMAT_BEGIN
 90
        0
 91
        1
 62
     0
 92
       -2
340
0
 93
        0
 40
1.125
309
GRIDFORMAT_END
 95
       16
302
GRIDFORMAT
  1
GRIDFORMAT_BEGIN
 90
        0
 91
        1
 62
     0
 92
       -2
340
0
 93
        0
 40
1.125
309
GRIDFORMAT_END
 95
       32
302
GRIDFORMAT
  1
GRIDFORMAT_BEGIN
 90
        0
 91
        1
 62
     0
 92
       -2
340
0
 93
        0
 40
1.125
309
GRIDFORMAT_END
309
TABLEFORMAT_END
  1
CELLSTYLE_BEGIN
 90
        3
 91
        2
300
_DATA
309
CELLSTYLE_END
  0
XRECORD
  5
BFFB
102
{ACAD_REACTORS
330
AB8E
102
}
330
AB8E
100
AcDbXrecord
280
     1
102
ACAD_ROUNDTRIP_PRE2007_TABLESTYLE
 90
      512
 91
        0
  1

 92
      512
 93
        0
  2

 94
      512
 95
        0
  3

  0
ENDSEC
  0
EOF
