  0
SECTION
  2
HEADER
  9
$ACADVER
  1
AC1024
  9
$ACADMAINTVER
 70
     6
  9
$DWGCODEPAGE
  3
ANSI_1252
  9
$LASTSAVEDBY
  1
renzo.ceresoli
  9
$INSBASE
 10
0.0
 20
0.0
 30
0.0
  9
$EXTMIN
 10
-121.4297246134019
 20
-161.825268433633
 30
-0.0000000000000098
  9
$EXTMAX
 10
116.7180206019293
 20
87.88041898821302
 30
0.0000000000000207
  9
$LIMMIN
 10
-20.0
 20
-575.8499999999997
  9
$LIMMAX
 10
1785.35
 20
579.8499999999997
  9
$ORTHOMODE
 70
     0
  9
$REGENMODE
 70
     1
  9
$FILLMODE
 70
     1
  9
$QTEXTMODE
 70
     0
  9
$MIRRTEXT
 70
     1
  9
$LTSCALE
 40
10.0
  9
$ATTMODE
 70
     1
  9
$TEXTSIZE
 40
0.0
  9
$TRACEWID
 40
0.05
  9
$TEXTSTYLE
  7
Standard
  9
$CLAYER
  8
0
  9
$CELTYPE
  6
Continuous
  9
$CECOLOR
 62
   256
  9
$CELTSCALE
 40
1.0
  9
$DISPSILH
 70
     0
  9
$DIMSCALE
 40
1.0
  9
$DIMASZ
 40
1.25
  9
$DIMEXO
 40
0.0
  9
$DIMDLI
 40
0.38
  9
$DIMRND
 40
0.0
  9
$DIMDLE
 40
0.0
  9
$DIMEXE
 40
0.75
  9
$DIMTP
 40
0.0
  9
$DIMTM
 40
0.0
  9
$DIMTXT
 40
2.5
  9
$DIMCEN
 40
0.09
  9
$DIMTSZ
 40
0.0
  9
$DIMTOL
 70
     0
  9
$DIMLIM
 70
     0
  9
$DIMTIH
 70
     0
  9
$DIMTOH
 70
     0
  9
$DIMSE1
 70
     0
  9
$DIMSE2
 70
     0
  9
$DIMTAD
 70
     1
  9
$DIMZIN
 70
     0
  9
$DIMBLK
  1

  9
$DIMASO
 70
     1
  9
$DIMSHO
 70
     1
  9
$DIMPOST
  1

  9
$DIMAPOST
  1

  9
$DIMALT
 70
     0
  9
$DIMALTD
 70
     2
  9
$DIMALTF
 40
25.4
  9
$DIMLFAC
 40
1.0
  9
$DIMTOFL
 70
     0
  9
$DIMTVP
 40
0.0
  9
$DIMTIX
 70
     0
  9
$DIMSOXD
 70
     0
  9
$DIMSAH
 70
     0
  9
$DIMBLK1
  1

  9
$DIMBLK2
  1

  9
$DIMSTYLE
  2
Standard
  9
$DIMCLRD
 70
     7
  9
$DIMCLRE
 70
     7
  9
$DIMCLRT
 70
     7
  9
$DIMTFAC
 40
0.8
  9
$DIMGAP
 40
1.25
  9
$DIMJUST
 70
     0
  9
$DIMSD1
 70
     0
  9
$DIMSD2
 70
     0
  9
$DIMTOLJ
 70
     1
  9
$DIMTZIN
 70
     0
  9
$DIMALTZ
 70
     0
  9
$DIMALTTZ
 70
     0
  9
$DIMUPT
 70
     0
  9
$DIMDEC
 70
     2
  9
$DIMTDEC
 70
     4
  9
$DIMALTU
 70
     2
  9
$DIMALTTD
 70
     2
  9
$DIMTXSTY
  7
Standard
  9
$DIMAUNIT
 70
     0
  9
$DIMADEC
 70
     0
  9
$DIMALTRND
 40
0.0
  9
$DIMAZIN
 70
     0
  9
$DIMDSEP
 70
     0
  9
$DIMATFIT
 70
     3
  9
$DIMFRAC
 70
     0
  9
$DIMLDRBLK
  1

  9
$DIMLUNIT
 70
     2
  9
$DIMLWD
 70
     0
  9
$DIMLWE
 70
     0
  9
$DIMTMOVE
 70
     0
  9
$DIMFXL
 40
1.0
  9
$DIMFXLON
 70
     0
  9
$DIMJOGANG
 40
0.7853981633974483
  9
$DIMTFILL
 70
     0
  9
$DIMTFILLCLR
 70
     0
  9
$DIMARCSYM
 70
     0
  9
$DIMLTYPE
  6

  9
$DIMLTEX1
  6

  9
$DIMLTEX2
  6

  9
$DIMTXTDIRECTION
 70
     0
  9
$LUNITS
 70
     2
  9
$LUPREC
 70
     4
  9
$SKETCHINC
 40
0.1
  9
$FILLETRAD
 40
0.0
  9
$AUNITS
 70
     0
  9
$AUPREC
 70
     0
  9
$MENU
  1
acad
  9
$ELEVATION
 40
0.0
  9
$PELEVATION
 40
0.0
  9
$THICKNESS
 40
0.0
  9
$LIMCHECK
 70
     0
  9
$CHAMFERA
 40
0.0
  9
$CHAMFERB
 40
0.0
  9
$CHAMFERC
 40
0.0
  9
$CHAMFERD
 40
0.0
  9
$SKPOLY
 70
     0
  9
$TDCREATE
 40
2455301.760694445
  9
$TDUCREATE
 40
2455301.719027778
  9
$TDUPDATE
 40
2455989.585926227
  9
$TDUUPDATE
 40
2455989.54425956
  9
$TDINDWG
 40
0.1652918981
  9
$TDUSRTIMER
 40
2455989.54420706
  9
$USRTIMER
 70
     1
  9
$ANGBASE
 50
0.0
  9
$ANGDIR
 70
     0
  9
$PDMODE
 70
     0
  9
$PDSIZE
 40
0.0
  9
$PLINEWID
 40
0.0
  9
$SPLFRAME
 70
     0
  9
$SPLINETYPE
 70
     6
  9
$SPLINESEGS
 70
     8
  9
$HANDSEED
  5
B96B
  9
$SURFTAB1
 70
     6
  9
$SURFTAB2
 70
     6
  9
$SURFTYPE
 70
     6
  9
$SURFU
 70
     6
  9
$SURFV
 70
     6
  9
$UCSBASE
  2

  9
$UCSNAME
  2

  9
$UCSORG
 10
0.0
 20
0.0
 30
0.0
  9
$UCSXDIR
 10
1.0
 20
0.0
 30
0.0
  9
$UCSYDIR
 10
0.0
 20
1.0
 30
0.0
  9
$UCSORTHOREF
  2

  9
$UCSORTHOVIEW
 70
     0
  9
$UCSORGTOP
 10
0.0
 20
0.0
 30
0.0
  9
$UCSORGBOTTOM
 10
0.0
 20
0.0
 30
0.0
  9
$UCSORGLEFT
 10
0.0
 20
0.0
 30
0.0
  9
$UCSORGRIGHT
 10
0.0
 20
0.0
 30
0.0
  9
$UCSORGFRONT
 10
0.0
 20
0.0
 30
0.0
  9
$UCSORGBACK
 10
0.0
 20
0.0
 30
0.0
  9
$PUCSBASE
  2

  9
$PUCSNAME
  2

  9
$PUCSORG
 10
0.0
 20
0.0
 30
0.0
  9
$PUCSXDIR
 10
1.0
 20
0.0
 30
0.0
  9
$PUCSYDIR
 10
0.0
 20
1.0
 30
0.0
  9
$PUCSORTHOREF
  2

  9
$PUCSORTHOVIEW
 70
     0
  9
$PUCSORGTOP
 10
0.0
 20
0.0
 30
0.0
  9
$PUCSORGBOTTOM
 10
0.0
 20
0.0
 30
0.0
  9
$PUCSORGLEFT
 10
0.0
 20
0.0
 30
0.0
  9
$PUCSORGRIGHT
 10
0.0
 20
0.0
 30
0.0
  9
$PUCSORGFRONT
 10
0.0
 20
0.0
 30
0.0
  9
$PUCSORGBACK
 10
0.0
 20
0.0
 30
0.0
  9
$USERI1
 70
     0
  9
$USERI2
 70
     0
  9
$USERI3
 70
     0
  9
$USERI4
 70
     0
  9
$USERI5
 70
     0
  9
$USERR1
 40
0.0
  9
$USERR2
 40
0.0
  9
$USERR3
 40
0.0
  9
$USERR4
 40
0.0
  9
$USERR5
 40
0.0
  9
$WORLDVIEW
 70
     1
  9
$SHADEDGE
 70
     3
  9
$SHADEDIF
 70
    70
  9
$TILEMODE
 70
     1
  9
$MAXACTVP
 70
    16
  9
$PINSBASE
 10
0.0
 20
0.0
 30
0.0
  9
$PLIMCHECK
 70
     0
  9
$PEXTMIN
 10
1.000000000000000E+20
 20
1.000000000000000E+20
 30
1.000000000000000E+20
  9
$PEXTMAX
 10
-1.000000000000000E+20
 20
-1.000000000000000E+20
 30
-1.000000000000000E+20
  9
$PLIMMIN
 10
0.0
 20
0.0
  9
$PLIMMAX
 10
12.0
 20
9.0
  9
$UNITMODE
 70
     0
  9
$VISRETAIN
 70
     0
  9
$PLINEGEN
 70
     1
  9
$PSLTSCALE
 70
     0
  9
$TREEDEPTH
 70
  3020
  9
$CMLSTYLE
  2
Standard
  9
$CMLJUST
 70
     0
  9
$CMLSCALE
 40
1.0
  9
$PROXYGRAPHICS
 70
     0
  9
$MEASUREMENT
 70
     1
  9
$CELWEIGHT
370
     0
  9
$ENDCAPS
280
     0
  9
$JOINSTYLE
280
     0
  9
$LWDISPLAY
290
     0
  9
$INSUNITS
 70
     0
  9
$HYPERLINKBASE
  1

  9
$STYLESHEET
  1

  9
$XEDIT
290
     1
  9
$CEPSNTYPE
380
     0
  9
$PSTYLEMODE
290
     1
  9
$FINGERPRINTGUID
  2

  9
$VERSIONGUID
  2
{37AFED2F-EC26-4F16-8A10-8CE81785D723}
  9
$EXTNAMES
290
     1
  9
$PSVPSCALE
 40
0.0
  9
$OLESTARTUP
290
     0
  9
$SORTENTS
280
   127
  9
$INDEXCTL
280
     0
  9
$HIDETEXT
280
     1
  9
$XCLIPFRAME
280
     2
  9
$HALOGAP
280
     0
  9
$OBSCOLOR
 70
   257
  9
$OBSLTYPE
280
     0
  9
$INTERSECTIONDISPLAY
280
     0
  9
$INTERSECTIONCOLOR
 70
   257
  9
$DIMASSOC
280
     1
  9
$PROJECTNAME
  1

  9
$CAMERADISPLAY
290
     0
  9
$LENSLENGTH
 40
50.0
  9
$CAMERAHEIGHT
 40
0.0
  9
$STEPSPERSEC
 40
2.0
  9
$STEPSIZE
 40
6.0
  9
$3DDWFPREC
 40
2.0
  9
$PSOLWIDTH
 40
0.25
  9
$PSOLHEIGHT
 40
4.0
  9
$LOFTANG1
 40
1.570796326794897
  9
$LOFTANG2
 40
1.570796326794897
  9
$LOFTMAG1
 40
0.0
  9
$LOFTMAG2
 40
0.0
  9
$LOFTPARAM
 70
     7
  9
$LOFTNORMALS
280
     1
  9
$LATITUDE
 40
37.795
  9
$LONGITUDE
 40
-122.394
  9
$NORTHDIRECTION
 40
0.0
  9
$TIMEZONE
 70
 -8000
  9
$LIGHTGLYPHDISPLAY
280
     1
  9
$TILEMODELIGHTSYNCH
280
     1
  9
$SOLIDHIST
280
     1
  9
$SHOWHIST
280
     1
  9
$DWFFRAME
280
     2
  9
$DGNFRAME
280
     2
  9
$REALWORLDSCALE
290
     1
  9
$INTERFERECOLOR
 62
   256
  9
$CSHADOW
280
     0
  9
$SHADOWPLANELOCATION
 40
0.0
  0
ENDSEC
  0
SECTION
  2
CLASSES
  0
CLASS
  1
IMAGE
  2
AcDbRasterImage
  3
ISM
 90
      127
 91
        5
280
     0
281
     1
  0
CLASS
  1
DICTIONARYVAR
  2
AcDbDictionaryVar
  3
ObjectDBX Classes
 90
        0
 91
        4
280
     0
281
     0
  0
CLASS
  1
RASTERVARIABLES
  2
AcDbRasterVariables
  3
ISM
 90
        0
 91
        4
280
     0
281
     0
  0
CLASS
  1
IMAGEDEF
  2
AcDbRasterImageDef
  3
ISM
 90
        0
 91
        4
280
     0
281
     0
  0
CLASS
  1
IMAGEDEF_REACTOR
  2
AcDbRasterImageDefReactor
  3
ISM
 90
        1
 91
        4
280
     0
281
     0
  0
CLASS
  1
IDBUFFER
  2
AcDbIdBuffer
  3
ObjectDBX Classes
 90
        0
 91
        4
280
     0
281
     0
  0
CLASS
  1
SPATIAL_FILTER
  2
AcDbSpatialFilter
  3
ObjectDBX Classes
 90
        0
 91
        4
280
     0
281
     0
  0
CLASS
  1
SORTENTSTABLE
  2
AcDbSortentsTable
  3
ObjectDBX Classes
 90
        0
 91
        4
280
     0
281
     0
  0
CLASS
  1
LAYER_INDEX
  2
AcDbLayerIndex
  3
ObjectDBX Classes
 90
        0
 91
        4
280
     0
281
     0
  0
CLASS
  1
SPATIAL_INDEX
  2
AcDbSpatialIndex
  3
AutoCAD 2000
 90
        0
 91
        4
280
     0
281
     0
  0
CLASS
  1
OBJECT_PTR
  2
CAseDLPNTableRecord
  3
ASE-LPNTableRecord
 90
        1
 91
        4
280
     0
281
     0
  0
CLASS
  1
LAYOUT
  2
AcDbLayout
  3
ObjectDBX Classes
 90
        0
 91
        1
280
     0
281
     0
  0
CLASS
  1
PLOTSETTINGS
  2
AcDbPlotSettings
  3
ObjectDBX Classes
 90
        0
 91
        4
280
     0
281
     0
  0
CLASS
  1
ACDBDICTIONARYWDFLT
  2
AcDbDictionaryWithDefault
  3
ObjectDBX Classes
 90
        0
 91
        4
280
     0
281
     0
  0
CLASS
  1
ACDBPLACEHOLDER
  2
AcDbPlaceHolder
  3
ObjectDBX Classes
 90
        0
 91
        1
280
     0
281
     0
  0
CLASS
  1
VBA_PROJECT
  2
AcDbVbaProject
  3
ObjectDBX Classes
 90
        0
 91
        1
280
     0
281
     0
  0
CLASS
  1
WIPEOUT
  2
AcDbWipeout
  3
WipeOut|AutoCAD Express Tool|expresstools@autodesk.com
 90
      127
 91
        4
280
     0
281
     1
  0
CLASS
  1
WIPEOUTVARIABLES
  2
AcDbWipeoutVariables
  3
WipeOut|AutoCAD Express Tool|expresstools@autodesk.com
 90
        0
 91
        4
280
     0
281
     0
  0
CLASS
  1
RTEXT
  2
RText
  3
RText|AutoCAD Express Tool|expresstools@autodesk.com
 90
        0
 91
        4
280
     0
281
     1
  0
CLASS
  1
ARCALIGNEDTEXT
  2
AcDbArcAlignedText
  3
ATEXT|AutoCAD Express Tool|expresstools@autodesk.com
 90
        0
 91
        4
280
     0
281
     1
  0
CLASS
  1
MATERIAL
  2
AcDbMaterial
  3
ObjectDBX Classes
 90
     1153
 91
        4
280
     0
281
     0
  0
CLASS
  1
VISUALSTYLE
  2
AcDbVisualStyle
  3
ObjectDBX Classes
 90
     4095
 91
        4
280
     0
281
     0
  0
CLASS
  1
TABLESTYLE
  2
AcDbTableStyle
  3
ObjectDBX Classes
 90
     4095
 91
        4
280
     0
281
     0
  0
CLASS
  1
SCALE
  2
AcDbScale
  3
ObjectDBX Classes
 90
     1153
 91
        4
280
     0
281
     0
  0
CLASS
  1
MLEADERSTYLE
  2
AcDbMLeaderStyle
  3
ACDB_MLEADERSTYLE_CLASS
 90
     4095
 91
        4
280
     0
281
     0
  0
CLASS
  1
CELLSTYLEMAP
  2
AcDbCellStyleMap
  3
ObjectDBX Classes
 90
     1152
 91
        4
280
     0
281
     0
  0
ENDSEC
  0
SECTION
  2
TABLES
  0
TABLE
  2
VPORT
  5
7
330
0
100
AcDbSymbolTable
 70
     1
  0
VPORT
  5
15
330
7
100
AcDbSymbolTableRecord
100
AcDbViewportTableRecord
  2
*ACTIVE
 70
     0
 10
0.0
 20
0.0
 11
1.0
 21
1.0
 12
-1.63189847694818
 22
-35.54472714994256
 13
0.0
 23
0.0
 14
1.0
 24
1.0
 15
0.0
 25
0.0
 16
0.0
 26
0.0
 36
1.0
 17
0.0
 27
0.0
 37
0.0
 40
282.5200986119571
 41
1.611330698287219
 42
50.0
 43
0.0
 44
0.0
 50
0.0
 51
0.0
 71
     0
 72
   100
 73
     1
 74
     1
 75
     0
 76
     0
 77
     0
 78
     0
281
     0
 65
     0
110
0.0
120
0.0
130
0.0
111
1.0
121
0.0
131
0.0
112
0.0
122
1.0
132
0.0
 79
     0
146
0.0
 60
     3
 61
     5
292
     1
282
     1
141
0.0
142
0.0
 63
   256
  0
ENDTAB
  0
TABLE
  2
LTYPE
  5
4
330
0
100
AcDbSymbolTable
 70
     2
  0
LTYPE
  5
11
330
4
100
AcDbSymbolTableRecord
100
AcDbLinetypeTableRecord
  2
ByBlock
 70
     0
  3

 72
    65
 73
     0
 40
0.0
  0
LTYPE
  5
12
330
4
100
AcDbSymbolTableRecord
100
AcDbLinetypeTableRecord
  2
ByLayer
 70
     0
  3

 72
    65
 73
     0
 40
0.0
  0
LTYPE
  5
13
330
4
100
AcDbSymbolTableRecord
100
AcDbLinetypeTableRecord
  2
Continuous
 70
     0
  3
Solid line
 72
    65
 73
     0
 40
0.0
  0
LTYPE
  5
108
330
4
100
AcDbSymbolTableRecord
100
AcDbLinetypeTableRecord
  2
CENTER
 70
     0
  3
____ _ ____ _ ____ _ ____ _ ____ _ ____ _ ____
 72
    65
 73
     4
 40
2.0
 49
1.25
 74
     0
 49
-0.25
 74
     0
 49
0.25
 74
     0
 49
-0.25
 74
     0
  0
ENDTAB
  0
TABLE
  2
LAYER
  5
2
330
0
100
AcDbSymbolTable
 70
     1
  0
LAYER
  5
14
102
{ACAD_XDICTIONARY
360
5858
102
}
330
2
100
AcDbSymbolTableRecord
100
AcDbLayerTableRecord
  2
0
 70
     0
 62
     7
  6
Continuous
370
    -3
390
1D
347
5810
  0
ENDTAB
  0
TABLE
  2
STYLE
  5
3
330
0
100
AcDbSymbolTable
 70
     1
  0
STYLE
  5
17
330
3
100
AcDbSymbolTableRecord
100
AcDbTextStyleTableRecord
  2
Standard
 70
     0
 40
0.0
 41
1.0
 50
0.0
 71
     0
 42
0.0
  3
I011000D.TTF
  4

1001
ACAD
1000
IsonormD
1071
        0
  0
ENDTAB
  0
TABLE
  2
VIEW
  5
5
330
0
100
AcDbSymbolTable
 70
     0
  0
ENDTAB
  0
TABLE
  2
UCS
  5
6
330
0
100
AcDbSymbolTable
 70
     0
  0
ENDTAB
  0
TABLE
  2
APPID
  5
8
330
0
100
AcDbSymbolTable
 70
     5
  0
APPID
  5
16
330
8
100
AcDbSymbolTableRecord
100
AcDbRegAppTableRecord
  2
ACAD
 70
     0
  0
APPID
  5
26
330
8
100
AcDbSymbolTableRecord
100
AcDbRegAppTableRecord
  2
TopSolid'Draft
 70
     0
  0
APPID
  5
5850
330
8
100
AcDbSymbolTableRecord
100
AcDbRegAppTableRecord
  2
ACAD_MLEADERVER
 70
     0
  0
APPID
  5
5856
330
8
100
AcDbSymbolTableRecord
100
AcDbRegAppTableRecord
  2
DCO15
 70
     0
  0
APPID
  5
B958
330
8
100
AcDbSymbolTableRecord
100
AcDbRegAppTableRecord
  2
ACAD_EXEMPT_FROM_CAD_STANDARDS
 70
     0
  0
ENDTAB
  0
TABLE
  2
DIMSTYLE
  5
9
330
0
100
AcDbSymbolTable
 70
     1
100
AcDbDimStyleTable
  0
DIMSTYLE
105
18
330
9
100
AcDbSymbolTableRecord
100
AcDbDimStyleTableRecord
  2
Standard
 70
     0
 41
1.25
 42
0.0
 44
0.75
 73
     0
 74
     0
 77
     1
140
2.5
146
0.8
147
1.25
176
     7
177
     7
271
     2
178
     7
271
     2
340
17
  0
ENDTAB
  0
TABLE
  2
BLOCK_RECORD
  5
1
330
0
100
AcDbSymbolTable
 70
     0
  0
BLOCK_RECORD
  5
A
102
{ACAD_XDICTIONARY
360
5864
102
}
330
1
100
AcDbSymbolTableRecord
100
AcDbBlockTableRecord
  2
*MODEL_SPACE
340
20
 70
     0
280
     1
281
     0
  0
BLOCK_RECORD
  5
B
330
1
100
AcDbSymbolTableRecord
100
AcDbBlockTableRecord
  2
*PAPER_SPACE
340
21
 70
     0
280
     1
281
     0
  0
ENDTAB
  0
ENDSEC
  0
SECTION
  2
BLOCKS
  0
BLOCK
  5
D
330
A
100
AcDbEntity
  8
0
100
AcDbBlockBegin
  2
*MODEL_SPACE
 70
     0
 10
0.0
 20
0.0
 30
0.0
  3
*MODEL_SPACE
  1

  0
ENDBLK
  5
E
330
A
100
AcDbEntity
  8
0
100
AcDbBlockEnd
  0
BLOCK
  5
F
330
B
100
AcDbEntity
 67
     1
  8
0
100
AcDbBlockBegin
  2
*PAPER_SPACE
 70
     0
 10
0.0
 20
0.0
 30
0.0
  3
*PAPER_SPACE
  1

  0
ENDBLK
  5
10
330
B
100
AcDbEntity
 67
     1
  8
0
100
AcDbBlockEnd
  0
ENDSEC
  0
SECTION
  2
ENTITIES
  0
LINE
  5
38A4
330
A
100
AcDbEntity
  8
0
  6
CENTER
 62
     1
100
AcDbLine
 10
-8.199999999999873
 20
0.0
 30
0.0
 11
8.199999999999932
 21
0.0
 31
0.0
  0
LINE
  5
38A5
330
A
100
AcDbEntity
  8
0
  6
CENTER
 62
     1
100
AcDbLine
 10
0.0
 20
-8.200000000000003
 30
0.0
 11
0.0
 21
8.199999999999989
 31
0.0
  0
LINE
  5
38A6
330
A
100
AcDbEntity
  8
0
  6
CENTER
 62
     1
100
AcDbLine
 10
-8.25000000002268
 20
-49.9999999999774
 30
0.0
 11
8.249999999977433
 21
-49.9999999999774
 31
0.0
  0
LINE
  5
38A7
330
A
100
AcDbEntity
  8
0
  6
CENTER
 62
     1
100
AcDbLine
 10
-0.0000000000226805
 20
-58.24999999997749
 30
0.0
 11
-0.0000000000226805
 21
-41.7499999999774
 31
0.0
  0
LINE
  5
38A8
330
A
100
AcDbEntity
  8
0
  6
CENTER
 62
     1
100
AcDbLine
 10
-33.01818117309222
 20
62.19230769233017
 30
0.0
 11
-38.46818117309221
 21
62.19230769233017
 31
0.0
  0
LINE
  5
38A9
330
A
100
AcDbEntity
  8
0
  6
CENTER
 62
     1
100
AcDbLine
 10
-29.00227701507868
 20
66.74230769232992
 30
0.0
 11
-29.00227701507868
 21
71.24230769232992
 31
0.0
  0
LINE
  5
38AA
330
A
100
AcDbEntity
  8
0
  6
CENTER
 62
     1
100
AcDbLine
 10
-50.49999935491036
 20
62.19230769233018
 30
0.0
 11
-40.49999935491036
 21
62.19230769233018
 31
0.0
  0
LINE
  5
38AB
330
A
100
AcDbEntity
  8
0
  6
CENTER
 62
     1
100
AcDbLine
 10
-25.24999999999642
 20
78.19230841230934
 30
0.0
 11
-17.74999999999642
 21
78.19230841230934
 31
0.0
  0
LINE
  5
38AC
330
A
100
AcDbEntity
  8
0
  6
CENTER
 62
     1
100
AcDbLine
 10
-21.49999999999642
 20
74.44230841230933
 30
0.0
 11
-21.49999999999642
 21
81.94230841230934
 31
0.0
  0
LINE
  5
38AD
330
A
100
AcDbEntity
  8
0
  6
CENTER
 62
     1
100
AcDbLine
 10
-0.0000000000461
 20
71.19230841230993
 30
0.0
 11
0.0000000000209184
 21
65.4423084123099
 31
0.0
  0
LINE
  5
38AE
330
A
100
AcDbEntity
  8
0
  6
CENTER
 62
     1
100
AcDbLine
 10
-100.2423073697606
 20
-13.80000000087278
 30
0.0
 11
-104.7423073697607
 21
-13.80000000058479
 31
0.0
  0
LINE
  5
38AF
330
A
100
AcDbEntity
  8
0
  6
CENTER
 62
     1
100
AcDbLine
 10
-95.6923073697609
 20
-58.2499999999769
 30
0.0
 11
-95.6923073697609
 21
-41.74999999997689
 31
0.0
  0
LINE
  5
38B0
330
A
100
AcDbEntity
  8
0
  6
CENTER
 62
     1
100
AcDbLine
 10
-95.6923073697609
 20
-8.249999999976893
 30
0.0
 11
-95.6923073697609
 21
8.250000000023093
 31
0.0
  0
LINE
  5
38B1
330
A
100
AcDbEntity
  8
0
  6
CENTER
 62
     1
100
AcDbLine
 10
-104.6923080897405
 20
-49.9999999999774
 30
0.0
 11
-87.4423073697609
 21
-49.9999999999774
 31
0.0
  0
LINE
  5
38B2
330
A
100
AcDbEntity
  8
0
  6
CENTER
 62
     1
100
AcDbLine
 10
-104.6923080897405
 20
0.0000000452488962
 30
0.0
 11
-87.4423073697609
 21
0.0000000452488962
 31
0.0
  0
LINE
  5
38B3
330
A
100
AcDbEntity
  8
0
  6
CENTER
 62
     1
100
AcDbLine
 10
-33.01818117309222
 20
-50.00000000009041
 30
0.0
 11
-38.46818117309221
 21
-49.99999999973699
 31
0.0
  0
LINE
  5
38B4
330
A
100
AcDbEntity
  8
0
  6
CENTER
 62
     1
100
AcDbLine
 10
-33.01818117308489
 20
-0.0000000000871268
 30
0.0
 11
-38.46818117308482
 21
0.0000000002559659
 31
0.0
  0
LINE
  5
38B5
330
A
100
AcDbEntity
  8
0
  6
CENTER
 62
     1
100
AcDbLine
 10
-28.99999935407578
 20
-21.5999999999769
 30
0.0
 11
-28.99999935503871
 21
-6.59999999997693
 31
0.0
  0
LINE
  5
38B6
330
A
100
AcDbEntity
  8
0
  6
CENTER
 62
     1
100
AcDbLine
 10
-50.49999935491036
 20
-50.00000000046958
 30
0.0
 11
-40.49999935491036
 21
-49.99999999984479
 31
0.0
  0
LINE
  5
38B7
330
A
100
AcDbEntity
  8
0
  6
CENTER
 62
     1
100
AcDbLine
 10
-50.49999935491036
 20
-0.0000000004500578
 30
0.0
 11
-40.49999935491036
 21
0.0000000001745804
 31
0.0
  0
LINE
  5
38B8
330
A
100
AcDbEntity
  8
0
  6
CENTER
 62
     1
100
AcDbLine
 10
-21.49999999999642
 20
-49.49999999997769
 30
0.0
 11
-21.49999999999642
 21
-1.749999999977774
 31
0.0
  0
LINE
  5
38B9
330
A
100
AcDbEntity
  8
0
  6
CENTER
 62
     1
100
AcDbLine
 10
-33.01818117308489
 20
-114.6923076922852
 30
0.0
 11
-38.46818117308482
 21
-114.6923076922852
 31
0.0
  0
LINE
  5
38BA
330
A
100
AcDbEntity
  8
0
  6
CENTER
 62
     1
100
AcDbLine
 10
-29.00227701507868
 20
-119.2423076922849
 30
0.0
 11
-29.00227701507868
 21
-123.742307692285
 31
0.0
  0
LINE
  5
38BB
330
A
100
AcDbEntity
  8
0
  6
CENTER
 62
     1
100
AcDbLine
 10
-50.49999935491036
 20
-114.6923076922871
 30
0.0
 11
-40.49999935491036
 21
-114.6923076922871
 31
0.0
  0
LINE
  5
38BC
330
A
100
AcDbEntity
  8
0
  6
CENTER
 62
     1
100
AcDbLine
 10
-25.99999999999972
 20
-130.692308412266
 30
0.0
 11
-16.99999999999971
 21
-130.692308412266
 31
0.0
  0
LINE
  5
38BD
330
A
100
AcDbEntity
  8
0
  6
CENTER
 62
     1
100
AcDbLine
 10
-21.49999999999971
 20
-135.1923084122661
 30
0.0
 11
-21.49999999999971
 21
-126.192308412266
 31
0.0
  0
LINE
  5
38BE
330
A
100
AcDbEntity
  8
0
  6
CENTER
 62
     1
100
AcDbLine
 10
-0.0000000000310365
 20
-123.6923084122649
 30
0.0
 11
0.0000000000218847
 21
-117.9423084122649
 31
0.0
  0
ELLIPSE
  5
74D8
330
A
100
AcDbEntity
  8
0
  6
Continuous
 62
     9
370
     0
100
AcDbEllipse
 10
85.5279790011247
 20
-121.97193932498
 30
0.0
 11
8.000000000000009
 21
0.0
 31
0.0
210
0.0
220
0.0
230
1.0
 40
0.4082482904638633
 41
4.550715842380302
 42
5.250659250327136
  0
ELLIPSE
  5
74D9
330
A
100
AcDbEntity
  8
0
  6
Continuous
 62
     9
370
     0
100
AcDbEllipse
 10
84.3689967987238
 20
-124.8729954618182
 30
0.0
 11
0.0531494523433596
 21
0.7982325073032374
 31
0.0
210
0.0
220
0.0
230
1.0
 40
0.1469446055560193
 41
0.4254476572219992
 42
1.996243984016905
  0
ELLIPSE
  5
74DA
330
A
100
AcDbEntity
  8
0
  6
Continuous
 62
     9
370
     0
100
AcDbEllipse
 10
85.5279790011247
 20
-128.3985506663739
 30
0.0
 11
-8.000000000000009
 21
0.0
 31
6.000000000000000E-16
210
7.499999999999991E-17
220
0.0
230
1.0
 40
0.408248290463863
 41
1.409123188790513
 42
2.106748260280014
  0
LINE
  5
74DB
330
A
100
AcDbEntity
  8
0
  6
Continuous
 62
     9
370
     0
100
AcDbLine
 10
84.24022099845695
 20
-125.1953350325779
 30
0.0
 11
84.24022099845695
 21
-131.6219463739719
 31
0.0
  0
ELLIPSE
  5
74DC
330
A
100
AcDbEntity
  8
0
  6
Continuous
 62
     9
370
     0
100
AcDbEllipse
 10
80.87695760792496
 20
-125.0391856470089
 30
0.0
 11
4.000000000000001
 21
0.0
 31
0.0
210
0.0
220
0.0
230
1.0
 40
0.408248290463863
 41
0.6295731955673256
 42
1.584724240020859
  0
ELLIPSE
  5
74DD
330
A
100
AcDbEntity
  8
0
  6
Continuous
 62
     9
370
     0
100
AcDbEllipse
 10
80.81567677105431
 20
-123.2430673946363
 30
0.0
 11
-0.4000000000000116
 21
0.0
 31
0.0
210
0.0
220
0.0
230
1.0
 40
0.4082482904638631
 41
1.081006519022082
 42
1.584724240020821
  0
ELLIPSE
  5
74DE
330
A
100
AcDbEntity
  8
0
  6
Continuous
 62
     9
370
     0
100
AcDbEllipse
 10
84.43338469885715
 20
-123.981528933098
 30
0.0
 11
-0.3999999999999559
 21
0.0
 31
0.0
210
0.0
220
0.0
230
1.0
 40
0.408248290463863
 41
0.6295731955673335
 42
1.40912318879053
  0
ELLIPSE
  5
74DF
330
A
100
AcDbEntity
  8
0
  6
Continuous
 62
     9
370
     0
100
AcDbEllipse
 10
84.43338469885715
 20
-124.7118256764381
 30
0.0
 11
1.199999999999978
 21
0.0
 31
0.0
210
0.0
220
0.0
230
1.0
 40
0.408248290463863
 41
3.771165849157102
 42
4.550715842380299
  0
ELLIPSE
  5
74E0
330
A
100
AcDbEntity
  8
0
  6
Continuous
 62
     9
370
     0
100
AcDbEllipse
 10
84.11007314513597
 20
-124.8079762867939
 30
0.0
 11
0.3911087586532247
 21
0.6978781690988867
 31
-9.999999999999999E-17
210
9.456194267976748E-17
220
9.029655715416083E-17
230
1.0
 40
0.737854296146193
 41
0.6495751075012228
 42
2.220371434296115
  0
ELLIPSE
  5
74E1
330
A
100
AcDbEntity
  8
0
  6
Continuous
 62
     9
370
     0
100
AcDbEllipse
 10
84.43338469885715
 20
-131.1384370178322
 30
0.0
 11
-1.199999999999978
 21
0.0
 31
9.999999999999999E-17
210
8.333333333333486E-17
220
0.0
230
1.0
 40
0.408248290463858
 41
0.6295731955673336
 42
1.409123188790518
  0
LINE
  5
74E2
330
A
100
AcDbEntity
  8
0
  6
Continuous
 62
     9
370
     0
100
AcDbLine
 10
83.4634500376939
 20
-125.0002775075048
 30
0.0
 11
83.4634500376939
 21
-131.4268888488988
 31
0.0
  0
ELLIPSE
  5
74E3
330
A
100
AcDbEntity
  8
0
  6
Continuous
 62
     9
370
     0
100
AcDbEllipse
 10
80.87695760792496
 20
-125.7694823903491
 30
0.0
 11
-3.199999999999978
 21
0.0
 31
0.0
210
0.0
220
0.0
230
1.0
 40
0.4082482904638631
 41
3.771165849157123
 42
4.726316893610653
  0
ELLIPSE
  5
74E4
330
A
100
AcDbEntity
  8
0
  6
Continuous
 62
     9
370
     0
100
AcDbEllipse
 10
80.82124775622451
 20
-124.1366476154651
 30
0.0
 11
-0.0045490580252716
 21
0.799987066189889
 31
-1.000000000000000E-16
210
-1.421672565167140E-19
220
1.250012125185590E-16
230
1.0
 40
0.0127139760215654
 41
4.291818495464092
 42
5.862614822258342
  0
ELLIPSE
  5
74E5
330
A
100
AcDbEntity
  8
0
  6
Continuous
 62
     9
370
     0
100
AcDbEllipse
 10
80.87695760792496
 20
-132.1960937317431
 30
0.0
 11
3.199999999999978
 21
0.0
 31
0.0
210
0.0
220
0.0
230
1.0
 40
0.4082482904638631
 41
0.6295731955673274
 42
1.584724240020859
  0
LINE
  5
74E6
330
A
100
AcDbEntity
  8
0
  6
Continuous
 62
     9
370
     0
100
AcDbLine
 10
80.83238972656443
 20
-124.4632145704418
 30
0.0
 11
80.83238972656443
 21
-130.8898259118358
 31
0.0
  0
ELLIPSE
  5
74E7
330
A
100
AcDbEntity
  8
0
  6
Continuous
 62
     9
370
     0
100
AcDbEllipse
 10
84.3689967987238
 20
-131.2996068032121
 30
0.0
 11
0.0531494523433596
 21
0.7982325073032374
 31
0.0
210
0.0
220
0.0
230
1.0
 40
0.146944605556016
 41
1.996243984016898
 42
3.141593686524275
  0
ELLIPSE
  5
74E8
330
A
100
AcDbEntity
  8
0
  6
Continuous
 62
     9
370
     0
100
AcDbEllipse
 10
80.81567677105431
 20
-123.9733641379767
 30
0.0
 11
1.200000000000034
 21
0.0
 31
0.0
210
0.0
220
0.0
230
1.0
 40
0.408248290463863
 41
3.946766900387455
 42
4.726316893610641
  0
ELLIPSE
  5
74E9
330
A
100
AcDbEntity
  8
0
  6
Continuous
 62
     9
370
     0
100
AcDbEllipse
 10
80.5384825222265
 20
-124.0910950093294
 30
0.0
 11
0.2922348853861002
 21
0.7447138858403258
 31
-1.000000000000000E-16
210
9.831285626179511E-17
220
9.570058390671005E-17
230
1.0
 40
0.6326064287233939
 41
0.64873214277147
 42
2.126016176938485
  0
ELLIPSE
  5
74EA
330
A
100
AcDbEntity
  8
0
  6
Continuous
 62
     9
370
     0
100
AcDbEllipse
 10
85.5279790011247
 20
-121.97193932498
 30
0.0
 11
8.000000000000009
 21
0.0
 31
-6.000000000000000E-16
210
7.499999999999991E-17
220
0.0
230
1.0
 40
0.408248290463863
 41
3.425707679248903
 42
3.946766900387458
  0
ELLIPSE
  5
74EB
330
A
100
AcDbEntity
  8
0
  6
Continuous
 62
     9
370
     0
100
AcDbEllipse
 10
80.81567677105431
 20
-130.3999754793705
 30
0.0
 11
-1.200000000000034
 21
0.0
 31
1.000000000000000E-16
210
8.333333333333097E-17
220
0.0
230
1.0
 40
0.4082482904638569
 41
0.8051742467976808
 42
1.58472424002085
  0
LINE
  5
74EC
330
A
100
AcDbEntity
  8
0
  6
Continuous
 62
     9
370
     0
100
AcDbLine
 10
79.98409402457122
 20
-124.3265567520349
 30
0.0
 11
79.98409402457122
 21
-130.7531680934289
 31
0.0
  0
ELLIPSE
  5
74ED
330
A
100
AcDbEntity
  8
0
  6
Continuous
 62
     9
370
     0
100
AcDbEllipse
 10
85.5279790011247
 20
-128.3985506663739
 30
0.0
 11
-8.000000000000009
 21
0.0
 31
6.000000000000000E-16
210
7.499999999999991E-17
220
0.0
230
1.0
 40
0.4082482904638626
 41
6.283185307179584
 42
7.088359553977253
  0
ELLIPSE
  5
74EE
330
A
100
AcDbEntity
  8
0
  6
Continuous
 62
     9
370
     0
100
AcDbEllipse
 10
84.11007314513597
 20
-131.2345876281877
 30
0.0
 11
0.3911087586532247
 21
0.6978781690988867
 31
-9.999999999999999E-17
210
9.456194267976748E-17
220
9.029655715416083E-17
230
1.0
 40
0.7378542961461957
 41
2.220371434296138
 42
3.141598729419464
  0
ELLIPSE
  5
74EF
330
A
100
AcDbEntity
  8
0
  6
Continuous
 62
     9
370
     0
100
AcDbEllipse
 10
80.82124775622451
 20
-130.563258956859
 30
0.0
 11
0.0045490580252716
 21
-0.7999870661898612
 31
0.0
210
9.999676657360668E-17
220
5.686230599319676E-19
230
1.0
 40
0.0127139760215653
 41
0.0002581393145731
 42
1.150225841874333
  0
ELLIPSE
  5
74F0
330
A
100
AcDbEntity
  8
0
  6
Continuous
 62
     9
370
     0
100
AcDbEllipse
 10
80.5384825222265
 20
-130.5177063507234
 30
0.0
 11
-0.2922348853861001
 21
-0.7447138858402979
 31
0.0
210
0.0
220
0.0
230
1.0
 40
0.6326064287233939
 41
5.267608830528287
 42
6.283186895473427
  0
ELLIPSE
  5
74F1
330
A
100
AcDbEntity
  8
0
  6
Continuous
 62
     7
370
     0
100
AcDbEllipse
 10
78.73033234952544
 20
-113.2814080792313
 30
0.0
 11
-2.400000000000013
 21
-1.509626000000000E-10
 31
2.000000000000000E-16
210
8.333333333962299E-17
220
-1.000000000010483E-16
230
1.0
 40
0.4082482904376565
 41
0.0000000000000029
 42
2.095580519204075
  0
ELLIPSE
  5
74F2
330
A
100
AcDbEntity
  8
0
  6
Continuous
 62
     7
370
     0
100
AcDbEllipse
 10
78.73033234952544
 20
-113.2814080792313
 30
0.0
 11
-2.400000000000013
 21
-1.509626000000000E-10
 31
2.999999999999999E-16
210
1.249999999999993E-16
220
1.572527083333282E-27
230
1.0
 40
0.4082482904376568
 41
6.137601658740793
 42
6.283185307179588
  0
LINE
  5
74F3
330
A
100
AcDbEntity
  8
0
  6
Continuous
 62
     7
370
     0
100
AcDbLine
 10
63.34618466432942
 20
-95.82731591340531
 30
0.0
 11
63.34618466432942
 21
-151.3298684072622
 31
0.0
  0
ELLIPSE
  5
74F4
330
A
100
AcDbEntity
  8
0
  6
Continuous
 62
     7
370
     0
100
AcDbEllipse
 10
63.70395554072945
 20
-95.53519721606916
 30
0.0
 11
0.1599999999999935
 21
0.7838367176906395
 31
0.0
210
0.0
220
0.0
230
1.0
 40
0.4082482904638633
 41
0.4636476090008114
 42
2.034443935795712
  0
LINE
  5
74F5
330
A
100
AcDbEntity
  8
0
  6
Continuous
 62
     7
370
     0
100
AcDbLine
 10
75.1526235855283
 20
-85.45710215797408
 30
0.0
 11
63.70395554072945
 21
-94.80490047272899
 31
0.0
  0
ELLIPSE
  5
74F6
330
A
100
AcDbEntity
  8
0
  6
Continuous
 62
     7
370
     0
100
AcDbEllipse
 10
75.1526235855283
 20
-89.10858587467519
 30
0.0
 11
0.8000000000000229
 21
3.919183588453084
 31
0.0
210
0.0
220
0.0
230
1.0
 40
0.4082482904638633
 41
5.176036589385494
 42
6.283185307179588
  0
LINE
  5
74F7
330
A
100
AcDbEntity
  8
0
  6
Continuous
 62
     7
370
     0
100
AcDbLine
 10
76.94147796752814
 20
-88.37828913130409
 30
0.0
 11
76.94147796752814
 21
-87.6479923879948
 31
0.0
  0
LINE
  5
74F8
330
A
100
AcDbEntity
  8
0
  6
Continuous
 62
     7
370
     0
100
AcDbLine
 10
63.70395554072945
 20
-151.7680464532663
 30
0.0
 11
67.63943518112313
 21
-148.5547407825742
 31
0.0
  0
ELLIPSE
  5
74F9
330
A
100
AcDbEntity
  8
0
  6
Continuous
 62
     7
370
     0
100
AcDbEllipse
 10
63.70395554072945
 20
-151.037749709926
 30
0.0
 11
0.1599999999999935
 21
0.7838367176906113
 31
0.0
210
0.0
220
0.0
230
1.0
 40
0.4082482904638633
 41
2.034443935795695
 42
3.141592653589823
  0
LINE
  5
74FA
330
A
100
AcDbEntity
  8
0
  6
Continuous
 62
     9
370
     0
100
AcDbLine
 10
61.9151011587295
 20
-95.53519721606916
 30
0.0
 11
62.63064291153398
 21
-95.68125656473808
 31
0.0
  0
LINE
  5
74FB
330
A
100
AcDbEntity
  8
0
  6
Continuous
 62
     9
370
     0
100
AcDbLine
 10
62.63064291153398
 20
-95.68125656473808
 30
0.0
 11
63.34618466432942
 21
-95.82731591340531
 31
0.0
  0
ELLIPSE
  5
74FC
330
A
100
AcDbEntity
  8
0
  6
Continuous
 62
     7
370
     0
100
AcDbEllipse
 10
62.27287203512941
 20
-95.24307851873309
 30
0.0
 11
0.1599999999999935
 21
0.7838367176906395
 31
0.0
210
0.0
220
0.0
230
1.0
 40
0.4082482904638633
 41
0.4636476090008114
 42
2.034443935795712
  0
LINE
  5
74FD
330
A
100
AcDbEntity
  8
0
  6
Continuous
 62
     9
370
     0
100
AcDbLine
 10
62.27287203512941
 20
-94.51278177539292
 30
0.0
 11
62.98841378793373
 21
-94.65884112406181
 31
0.0
  0
LINE
  5
74FE
330
A
100
AcDbEntity
  8
0
  6
Continuous
 62
     9
370
     0
100
AcDbLine
 10
62.98841378793373
 20
-94.65884112406181
 30
0.0
 11
63.70395554072945
 21
-94.80490047272899
 31
0.0
  0
LINE
  5
74FF
330
A
100
AcDbEntity
  8
0
  6
Continuous
 62
     9
370
     0
100
AcDbLine
 10
61.9151011587295
 20
-151.037749709926
 30
0.0
 11
62.63064291153398
 21
-151.183809058595
 31
0.0
  0
LINE
  5
7500
330
A
100
AcDbEntity
  8
0
  6
Continuous
 62
     9
370
     0
100
AcDbLine
 10
62.63064291153398
 20
-151.183809058595
 30
0.0
 11
63.34618466432942
 21
-151.3298684072621
 31
0.0
  0
LINE
  5
7501
330
A
100
AcDbEntity
  8
0
  6
Continuous
 62
     7
370
     0
100
AcDbLine
 10
61.9151011587295
 20
-95.53519721606916
 30
0.0
 11
61.9151011587295
 21
-151.037749709926
 31
0.0
  0
LINE
  5
7502
330
A
100
AcDbEntity
  8
0
  6
Continuous
 62
     7
370
     0
100
AcDbLine
 10
73.7215400799285
 20
-85.16498346063801
 30
0.0
 11
62.27287203512941
 21
-94.51278177539292
 31
0.0
  0
LINE
  5
7503
330
A
100
AcDbEntity
  8
0
  6
Continuous
 62
     9
370
     0
100
AcDbLine
 10
73.7215400799285
 20
-85.16498346063801
 30
0.0
 11
74.43708183273276
 21
-85.31104280930691
 31
0.0
  0
LINE
  5
7504
330
A
100
AcDbEntity
  8
0
  6
Continuous
 62
     9
370
     0
100
AcDbLine
 10
74.43708183273276
 20
-85.31104280930691
 30
0.0
 11
75.1526235855283
 21
-85.45710215797408
 31
0.0
  0
ELLIPSE
  5
7505
330
A
100
AcDbEntity
  8
0
  6
Continuous
 62
     7
370
     0
100
AcDbEllipse
 10
73.7215400799285
 20
-88.81646717733909
 30
0.0
 11
0.8000000000000229
 21
3.919183588453084
 31
0.0
210
0.0
220
0.0
230
1.0
 40
0.4082482904638635
 41
0.0000000000000017
 42
0.4636476090008039
  0
ELLIPSE
  5
7506
330
A
100
AcDbEntity
  8
0
  6
Continuous
 62
     7
370
     0
100
AcDbEllipse
 10
75.1526235855283
 20
-89.10858587467519
 30
0.0
 11
0.8000000000000229
 21
3.919183588453084
 31
0.0
210
0.0
220
0.0
230
1.0
 40
0.4082482904638635
 41
0.0000000000000021
 42
0.4636476090008041
  0
ELLIPSE
  5
7507
330
A
100
AcDbEntity
  8
0
  6
Continuous
 62
     7
370
     0
100
AcDbEllipse
 10
63.70395554072945
 20
-151.037749709926
 30
0.0
 11
0.1599999999999935
 21
0.7838367176906113
 31
-1.000000000000000E-16
210
1.014040820577348E-16
220
1.068785691968951E-16
230
1.0
 40
0.4082482904638631
 41
3.141592653589823
 42
3.605240262590608
  0
ELLIPSE
  5
7508
330
A
100
AcDbEntity
  8
0
  6
Continuous
 62
     7
370
     0
100
AcDbEllipse
 10
62.27287203512941
 20
-150.74563101259
 30
0.0
 11
0.1599999999999935
 21
0.7838367176906113
 31
0.0
210
0.0
220
0.0
230
1.0
 40
0.4082482904638633
 41
2.034443935795695
 42
3.141592653589823
  0
LINE
  5
7509
330
A
100
AcDbEntity
  8
0
  6
Continuous
 62
     9
370
     0
100
AcDbLine
 10
68.712747810346
 20
-95.82731591338379
 30
0.0
 11
67.99720605752327
 21
-95.68125656471108
 31
0.0
  0
LINE
  5
750A
330
A
100
AcDbEntity
  8
0
  6
Continuous
 62
     9
370
     0
100
AcDbLine
 10
68.71274781032628
 20
-96.92276102839052
 30
0.0
 11
68.35497693392784
 21
-96.84973135405691
 31
0.0
  0
LINE
  5
750B
330
A
100
AcDbEntity
  8
0
  6
Continuous
 62
     9
370
     0
100
AcDbLine
 10
68.35497693392784
 20
-96.84973135405691
 30
0.0
 11
67.63943518112313
 21
-96.70367200538792
 31
0.0
  0
ELLIPSE
  5
750C
330
A
100
AcDbEntity
  8
0
  6
Continuous
 62
     7
370
     0
100
AcDbEllipse
 10
67.99720605752327
 20
-96.4115533080516
 30
0.0
 11
-0.1599999999999935
 21
-0.7838367176906395
 31
0.0
210
0.0
220
0.0
230
1.0
 40
0.4082482904638633
 41
3.605240262590605
 42
5.176036589385507
  0
LINE
  5
750D
330
A
100
AcDbEntity
  8
0
  6
Continuous
 62
     9
370
     0
100
AcDbLine
 10
68.71274781032628
 20
-152.4253135222687
 30
0.0
 11
68.35497693392784
 21
-152.3522838479349
 31
0.0
  0
LINE
  5
750E
330
A
100
AcDbEntity
  8
0
  6
Continuous
 62
     9
370
     0
100
AcDbLine
 10
68.35497693392784
 20
-152.3522838479349
 30
0.0
 11
67.63943518112313
 21
-152.2062244992659
 31
0.0
  0
LINE
  5
750F
330
A
100
AcDbEntity
  8
0
  6
Continuous
 62
     7
370
     0
100
AcDbLine
 10
67.63943518112313
 20
-152.2062244992659
 30
0.0
 11
67.63943518112313
 21
-96.70367200538792
 31
0.0
  0
LINE
  5
7510
330
A
100
AcDbEntity
  8
0
  6
Continuous
 62
     9
370
     0
100
AcDbLine
 10
80.16141585514924
 20
-86.4795175986254
 30
0.0
 11
79.44587410232651
 21
-86.33345824995268
 31
0.0
  0
LINE
  5
7511
330
A
100
AcDbEntity
  8
0
  6
Continuous
 62
     7
370
     0
100
AcDbLine
 10
67.99720605752327
 20
-95.68125656471108
 30
0.0
 11
79.44587410232651
 21
-86.33345824995268
 31
0.0
  0
ELLIPSE
  5
7512
330
A
100
AcDbEntity
  8
0
  6
Continuous
 62
     7
370
     0
100
AcDbEllipse
 10
79.44587410232651
 20
-89.98494196665519
 30
0.0
 11
-0.8000000000000229
 21
-3.919183588453084
 31
0.0
210
0.0
220
0.0
230
1.0
 40
0.408248290463863
 41
3.141592653589792
 42
3.605240262590596
  0
ELLIPSE
  5
7513
330
A
100
AcDbEntity
  8
0
  6
Continuous
 62
     7
370
     0
100
AcDbEllipse
 10
67.99720605752327
 20
-151.9141058019298
 30
0.0
 11
-0.1599999999999935
 21
-0.7838367176906113
 31
0.0
210
0.0
220
0.0
230
1.0
 40
0.4082482904638633
 41
5.1760365893855
 42
6.283185307179532
  0
LINE
  5
7514
330
A
100
AcDbEntity
  8
0
  6
Continuous
 62
     7
370
     0
100
AcDbLine
 10
61.55733028233242
 20
-152.7904618939264
 30
0.0
 11
62.90395554071591
 21
-151.6909469746654
 31
0.0
  0
LINE
  5
7515
330
A
100
AcDbEntity
  8
0
  6
Continuous
 62
     7
370
     0
100
AcDbLine
 10
61.55733028233242
 20
-94.36672242672716
 30
0.0
 11
61.55733028233242
 21
-152.7904618939264
 31
0.0
  0
LINE
  5
7516
330
A
100
AcDbEntity
  8
0
  6
Continuous
 62
     7
370
     0
100
AcDbLine
 10
74.07931095632745
 20
-84.14256801996731
 30
0.0
 11
61.55733028233242
 21
-94.36672242672716
 31
0.0
  0
ELLIPSE
  5
7517
330
A
100
AcDbEntity
  8
0
  6
Continuous
 62
     7
370
     0
100
AcDbEllipse
 10
74.07931095632745
 20
-87.79405173666717
 30
0.0
 11
0.800000000000023
 21
3.919183588453056
 31
0.0
210
0.0
220
0.0
230
1.0
 40
0.4082482904638635
 41
5.533160329221792
 42
6.283185307179588
  0
LINE
  5
7518
330
A
100
AcDbEntity
  8
0
  6
Continuous
 62
     7
370
     0
100
AcDbLine
 10
58.69516327113274
 20
-93.78248503205496
 30
0.0
 11
61.55733028233242
 21
-94.36672242672716
 31
0.0
  0
LINE
  5
7519
330
A
100
AcDbEntity
  8
0
  6
Continuous
 62
     7
370
     0
100
AcDbLine
 10
71.21714394512765
 20
-83.5583306252951
 30
0.0
 11
58.69516327113274
 21
-93.78248503205496
 31
0.0
  0
LINE
  5
751A
330
A
100
AcDbEntity
  8
0
  6
Continuous
 62
     9
370
     0
100
AcDbLine
 10
74.07931095632745
 20
-84.14256801996731
 30
0.0
 11
71.21714394512765
 21
-83.5583306252951
 31
0.0
  0
LINE
  5
751B
330
A
100
AcDbEntity
  8
0
  6
Continuous
 62
     7
370
     0
100
AcDbLine
 10
58.69516327113274
 20
-152.2062244992543
 30
0.0
 11
61.55733028233242
 21
-152.7904618939264
 31
0.0
  0
LINE
  5
751C
330
A
100
AcDbEntity
  8
0
  6
Continuous
 62
     7
370
     0
100
AcDbLine
 10
58.69516327113274
 20
-93.78248503205496
 30
0.0
 11
58.69516327113274
 21
-152.2062244992543
 31
0.0
  0
ELLIPSE
  5
751D
330
A
100
AcDbEntity
  8
0
  6
Continuous
 62
     7
370
     0
100
AcDbEllipse
 10
74.07931095632745
 20
-87.79405173666717
 30
0.0
 11
0.800000000000023
 21
3.919183588453056
 31
-3.000000000000000E-16
210
9.140408205773426E-17
220
5.788877434122988E-17
230
1.0
 40
0.4082482904638631
 41
0.0000000000000008
 42
0.4636476090008058
  0
ELLIPSE
  5
751E
330
A
100
AcDbEntity
  8
0
  6
Continuous
 62
     7
370
     0
100
AcDbEllipse
 10
71.21714394512765
 20
-87.20981434199506
 30
0.0
 11
-0.800000000000023
 21
-3.919183588453056
 31
0.0
210
0.0
220
0.0
230
1.0
 40
0.4082482904638633
 41
3.141592653589796
 42
3.605240262590596
  0
LINE
  5
751F
330
A
100
AcDbEntity
  8
0
  6
Continuous
 62
     7
370
     0
100
AcDbLine
 10
62.63064291153046
 20
-95.68125656473129
 30
0.0
 11
62.63064291153046
 21
-151.1838090585819
 31
0.0
  0
ELLIPSE
  5
7520
330
A
100
AcDbEntity
  8
0
  6
Continuous
 62
     7
370
     0
100
AcDbEllipse
 10
62.98841378793042
 20
-95.3891378673951
 30
0.0
 11
0.1599999999999935
 21
0.7838367176906113
 31
0.0
210
0.0
220
0.0
230
1.0
 40
0.4082482904638633
 41
0.4636476090007945
 42
2.03444393579568
  0
LINE
  5
7521
330
A
100
AcDbEntity
  8
0
  6
Continuous
 62
     7
370
     0
100
AcDbLine
 10
74.43708183272787
 20
-85.31104280930128
 30
0.0
 11
62.98841378793042
 21
-94.65884112405509
 31
0.0
  0
ELLIPSE
  5
7522
330
A
100
AcDbEntity
  8
0
  6
Continuous
 62
     7
370
     0
100
AcDbEllipse
 10
62.98841378793042
 20
-150.8916903612458
 30
0.0
 11
0.1599999999999935
 21
0.7838367176906113
 31
0.0
210
0.0
220
0.0
230
1.0
 40
0.4082482904638633
 41
2.034443935795672
 42
3.141592653589762
  0
LINE
  5
7523
330
A
100
AcDbEntity
  8
0
  6
Continuous
 62
     9
370
     0
100
AcDbLine
 10
61.91510115873064
 20
-95.5351972160632
 30
0.0
 11
62.63064291153046
 21
-95.68125656473129
 31
0.0
  0
ELLIPSE
  5
7524
330
A
100
AcDbEntity
  8
0
  6
Continuous
 62
     7
370
     0
100
AcDbEllipse
 10
62.27287203513061
 20
-95.243078518727
 30
0.0
 11
0.1599999999999935
 21
0.7838367176906113
 31
0.0
210
0.0
220
0.0
230
1.0
 40
0.4082482904638633
 41
0.4636476090007987
 42
2.034443935795715
  0
LINE
  5
7525
330
A
100
AcDbEntity
  8
0
  6
Continuous
 62
     9
370
     0
100
AcDbLine
 10
62.27287203513061
 20
-94.512781775387
 30
0.0
 11
62.98841378793042
 21
-94.65884112405509
 31
0.0
  0
LINE
  5
7526
330
A
100
AcDbEntity
  8
0
  6
Continuous
 62
     9
370
     0
100
AcDbLine
 10
61.91510115873064
 20
-151.0377497099138
 30
0.0
 11
62.63064291153046
 21
-151.1838090585818
 31
0.0
  0
LINE
  5
7527
330
A
100
AcDbEntity
  8
0
  6
Continuous
 62
     7
370
     0
100
AcDbLine
 10
61.91510115873064
 20
-95.5351972160632
 30
0.0
 11
61.91510115873064
 21
-151.0377497099138
 31
0.0
  0
LINE
  5
7528
330
A
100
AcDbEntity
  8
0
  6
Continuous
 62
     9
370
     0
100
AcDbLine
 10
73.7215400799281
 20
-85.16498346063332
 30
0.0
 11
74.43708183272798
 21
-85.31104280930128
 31
0.0
  0
LINE
  5
7529
330
A
100
AcDbEntity
  8
0
  6
Continuous
 62
     7
370
     0
100
AcDbLine
 10
73.7215400799281
 20
-85.16498346063332
 30
0.0
 11
62.27287203513077
 21
-94.51278177538708
 31
0.0
  0
ELLIPSE
  5
752A
330
A
100
AcDbEntity
  8
0
  6
Continuous
 62
     7
370
     0
100
AcDbEllipse
 10
73.7215400799281
 20
-88.81646717733398
 30
0.0
 11
0.800000000000023
 21
3.919183588453056
 31
-3.000000000000000E-16
210
9.140408205773426E-17
220
5.788877434122988E-17
230
1.0
 40
0.408248290463863
 41
0.0000000000000008
 42
0.4636476090008058
  0
ELLIPSE
  5
752B
330
A
100
AcDbEntity
  8
0
  6
Continuous
 62
     7
370
     0
100
AcDbEllipse
 10
74.43708183272787
 20
-88.962526526002
 30
0.0
 11
0.800000000000023
 21
3.919183588453056
 31
-3.000000000000000E-16
210
9.140408205773426E-17
220
5.788877434122988E-17
230
1.0
 40
0.408248290463863
 41
0.0000000000000008
 42
0.4636476090008058
  0
ELLIPSE
  5
752C
330
A
100
AcDbEntity
  8
0
  6
Continuous
 62
     7
370
     0
100
AcDbEllipse
 10
62.27287203513061
 20
-150.7456310125778
 30
0.0
 11
0.1599999999999935
 21
0.7838367176906113
 31
0.0
210
0.0
220
0.0
230
1.0
 40
0.4082482904638633
 41
2.034443935795688
 42
3.141592653589805
  0
LINE
  5
752D
330
A
100
AcDbEntity
  8
0
  6
Continuous
 62
     9
370
     0
100
AcDbLine
 10
68.35497693392784
 20
-96.84973135409038
 30
0.0
 11
68.71274781032628
 21
-96.92276102842408
 31
0.0
  0
ELLIPSE
  5
752E
330
A
100
AcDbEntity
  8
0
  6
Continuous
 62
     7
370
     0
100
AcDbEllipse
 10
68.71274781032776
 20
-96.5576126567543
 30
0.0
 11
0.1599999999999935
 21
0.7838367176906113
 31
0.0
210
0.0
220
0.0
230
1.0
 40
0.4082482904637418
 41
0.4636476090009224
 42
2.034443935795576
  0
LINE
  5
752F
330
A
100
AcDbEntity
  8
0
  6
Continuous
 62
     9
370
     0
100
AcDbLine
 10
68.35497693392784
 20
-152.3522838479224
 30
0.0
 11
68.71274781032628
 21
-152.4253135222562
 31
0.0
  0
LINE
  5
7530
330
A
100
AcDbEntity
  8
0
  6
Continuous
 62
     7
370
     0
100
AcDbLine
 10
68.35497693392784
 20
-96.84973135409038
 30
0.0
 11
68.35497693392784
 21
-152.3522838479224
 31
0.0
  0
ELLIPSE
  5
7531
330
A
100
AcDbEntity
  8
0
  6
Continuous
 62
     7
370
     0
100
AcDbEllipse
 10
68.71274781032776
 20
-152.0601651505865
 30
0.0
 11
0.1599999999999935
 21
0.7838367176906113
 31
0.0
210
0.0
220
0.0
230
1.0
 40
0.4082482904637418
 41
2.034443935795565
 42
3.141592653589508
  0
LINE
  5
7532
330
A
100
AcDbEntity
  8
0
  6
Continuous
 62
     7
370
     0
100
AcDbLine
 10
83.73912389994325
 20
-95.31610830919239
 30
0.0
 11
110.5719396299407
 21
-100.793333884244
 31
0.0
  0
ELLIPSE
  5
7533
330
A
100
AcDbEntity
  8
0
  6
Continuous
 62
     7
370
     0
100
AcDbEllipse
 10
110.5719396299407
 20
-104.0796692292751
 30
0.0
 11
-2.276839915321238
 21
2.788548009269336
 31
1.000000000000000E-16
210
7.756820922315752E-17
220
2.747322071006687E-17
230
1.0
 40
0.8164965809277259
 41
3.926990816987236
 42
5.497787143782136
  0
LINE
  5
7534
330
A
100
AcDbEntity
  8
0
  6
Continuous
 62
     7
370
     0
100
AcDbLine
 10
113.7918775175404
 20
-104.7369362982813
 30
0.0
 11
113.7918775175402
 21
-153.8859071250781
 31
0.0
  0
ELLIPSE
  5
7535
330
A
100
AcDbEntity
  8
0
  6
Continuous
 62
     7
370
     0
100
AcDbEllipse
 10
110.5719396299407
 20
-153.228640056072
 30
0.0
 11
-2.276839915321238
 21
2.788548009269336
 31
1.000000000000000E-16
210
7.756820922315752E-17
220
2.747322071006687E-17
230
1.0
 40
0.8164965809277259
 41
3.141592653589788
 42
3.926990816987238
  0
LINE
  5
7536
330
A
100
AcDbEntity
  8
0
  6
Continuous
 62
     9
370
     0
100
AcDbLine
 10
110.9297105063408
 20
-100.5012151869078
 30
0.0
 11
110.5719396299407
 21
-100.793333884244
 31
0.0
  0
ELLIPSE
  5
7537
330
A
100
AcDbEntity
  8
0
  6
Continuous
 62
     7
370
     0
100
AcDbEllipse
 10
110.9297105063408
 20
-103.787550531939
 30
0.0
 11
-2.276839915321238
 21
2.788548009269336
 31
1.000000000000000E-16
210
7.756820922315752E-17
220
2.747322071006687E-17
230
1.0
 40
0.8164965809277259
 41
3.926990816987246
 42
5.497787143782141
  0
LINE
  5
7538
330
A
100
AcDbEntity
  8
0
  6
Continuous
 62
     9
370
     0
100
AcDbLine
 10
114.1496483939404
 20
-104.4448176009451
 30
0.0
 11
113.7918775175404
 21
-104.7369362982813
 31
0.0
  0
LINE
  5
7539
330
A
100
AcDbEntity
  8
0
  6
Continuous
 62
     9
370
     0
100
AcDbLine
 10
84.0968947763432
 20
-95.0239896118562
 30
0.0
 11
83.73912389994325
 21
-95.31610830919232
 31
0.0
  0
LINE
  5
753A
330
A
100
AcDbEntity
  8
0
  6
Continuous
 62
     7
370
     0
100
AcDbLine
 10
84.0968947763432
 20
-95.0239896118562
 30
0.0
 11
110.9297105063408
 21
-100.5012151869078
 31
0.0
  0
LINE
  5
753B
330
A
100
AcDbEntity
  8
0
  6
Continuous
 62
     9
370
     0
100
AcDbLine
 10
114.1496483939403
 20
-153.5937884277421
 30
0.0
 11
113.7918775175402
 21
-153.8859071250781
 31
0.0
  0
LINE
  5
753C
330
A
100
AcDbEntity
  8
0
  6
Continuous
 62
     7
370
     0
100
AcDbLine
 10
114.1496483939404
 20
-104.4448176009451
 30
0.0
 11
114.1496483939403
 21
-153.5937884277421
 31
0.0
  0
ELLIPSE
  5
753D
330
A
100
AcDbEntity
  8
0
  6
Continuous
 62
     7
370
     0
100
AcDbEllipse
 10
84.0968947763432
 20
-98.31032495688731
 30
0.0
 11
-2.276839915321238
 21
2.788548009269364
 31
1.000000000000000E-16
210
7.756820922315780E-17
220
2.747322071006682E-17
230
1.0
 40
0.8164965809277259
 41
5.497787143782137
 42
6.283185307179584
  0
ELLIPSE
  5
753E
330
A
100
AcDbEntity
  8
0
  6
Continuous
 62
     7
370
     0
100
AcDbEllipse
 10
83.73912389994325
 20
-98.6024436542234
 30
0.0
 11
-2.276839915321238
 21
2.788548009269336
 31
1.000000000000000E-16
210
7.756820922315752E-17
220
2.747322071006687E-17
230
1.0
 40
0.8164965809277259
 41
5.497787143782131
 42
6.28318530717958
  0
ELLIPSE
  5
753F
330
A
100
AcDbEntity
  8
0
  6
Continuous
 62
     7
370
     0
100
AcDbEllipse
 10
110.9297105063407
 20
-152.9365213587359
 30
0.0
 11
-2.276839915321238
 21
2.788548009269336
 31
1.000000000000000E-16
210
7.756820922315752E-17
220
2.747322071006687E-17
230
1.0
 40
0.8164965809277259
 41
3.14159265358979
 42
3.926990816987241
  0
LINE
  5
7540
330
A
100
AcDbEntity
  8
0
  6
Continuous
 62
     9
370
     0
100
AcDbLine
 10
113.4341066411409
 20
-105.0290549956178
 30
0.0
 11
113.7918775175416
 21
-104.7369362982811
 31
0.0
  0
LINE
  5
7541
330
A
100
AcDbEntity
  8
0
  6
Continuous
 62
     9
370
     0
100
AcDbLine
 10
113.7918775175416
 20
-104.7369362982811
 30
0.0
 11
114.1496483939412
 21
-104.4448176009454
 31
0.0
  0
ELLIPSE
  5
7542
330
A
100
AcDbEntity
  8
0
  6
Continuous
 62
     7
370
     0
100
AcDbEllipse
 10
110.2141687535412
 20
-104.3717879266115
 30
0.0
 11
2.276839915321238
 21
-2.788548009269336
 31
-1.000000000000000E-16
210
7.756820922315752E-17
220
2.747322071006687E-17
230
1.0
 40
0.8164965809280914
 41
0.7853981633972273
 42
2.356194490192569
  0
LINE
  5
7543
330
A
100
AcDbEntity
  8
0
  6
Continuous
 62
     9
370
     0
100
AcDbLine
 10
110.2141687535412
 20
-101.0854525815798
 30
0.0
 11
110.5719396299416
 21
-100.793333884243
 31
0.0
  0
LINE
  5
7544
330
A
100
AcDbEntity
  8
0
  6
Continuous
 62
     9
370
     0
100
AcDbLine
 10
110.5719396299416
 20
-100.793333884243
 30
0.0
 11
110.9297105063413
 21
-100.5012151869074
 31
0.0
  0
ELLIPSE
  5
7545
330
A
100
AcDbEntity
  8
0
  6
Continuous
 62
     7
370
     0
100
AcDbEllipse
 10
110.9297105063413
 20
-103.7875505319391
 30
0.0
 11
2.276839915321238
 21
-2.788548009269336
 31
-1.000000000000000E-16
210
7.756820922315752E-17
220
2.747322071006687E-17
230
1.0
 40
0.8164965809280914
 41
0.7853981633972273
 42
2.356194490192569
  0
ELLIPSE
  5
7546
330
A
100
AcDbEntity
  8
0
  6
Continuous
 62
     7
370
     0
100
AcDbEllipse
 10
83.3813530235438
 20
-98.89456235155978
 30
0.0
 11
2.276839915321238
 21
-2.788548009269336
 31
-1.000000000000000E-16
210
7.756820922315752E-17
220
2.747322071006687E-17
230
1.0
 40
0.8164965809280914
 41
2.356194490192556
 42
3.141592653590011
  0
LINE
  5
7547
330
A
100
AcDbEntity
  8
0
  6
Continuous
 62
     7
370
     0
100
AcDbLine
 10
110.2141687535412
 20
-101.0854525815798
 30
0.0
 11
83.3813530235438
 21
-95.6082270065281
 31
0.0
  0
LINE
  5
7548
330
A
100
AcDbEntity
  8
0
  6
Continuous
 62
     7
370
     0
100
AcDbLine
 10
113.4341066411407
 20
-154.1780258224257
 30
0.0
 11
113.4341066411409
 21
-105.0290549956178
 31
0.0
  0
ELLIPSE
  5
7549
330
A
100
AcDbEntity
  8
0
  6
Continuous
 62
     7
370
     0
100
AcDbEllipse
 10
110.2141687535411
 20
-153.5207587534195
 30
0.0
 11
2.276839915321238
 21
-2.788548009269336
 31
-1.000000000000000E-16
210
7.756820922315752E-17
220
2.747322071006687E-17
230
1.0
 40
0.8164965809280914
 41
6.086818113999916
 42
6.28318530717967
  0
LINE
  5
754A
330
A
100
AcDbEntity
  8
0
  6
Continuous
 62
     9
370
     0
100
AcDbLine
 10
83.3813530235438
 20
-95.6082270065281
 30
0.0
 11
83.7391238999442
 21
-95.3161083091914
 31
0.0
  0
LINE
  5
754B
330
A
100
AcDbEntity
  8
0
  6
Continuous
 62
     9
370
     0
100
AcDbLine
 10
83.7391238999442
 20
-95.3161083091914
 30
0.0
 11
84.09689477634377
 21
-95.02398961185567
 31
0.0
  0
LINE
  5
754C
330
A
100
AcDbEntity
  8
0
  6
Continuous
 62
     7
370
     0
100
AcDbLine
 10
110.9297105063413
 20
-100.5012151869074
 30
0.0
 11
84.09689477634377
 21
-95.02398961185567
 31
0.0
  0
LINE
  5
754D
330
A
100
AcDbEntity
  8
0
  6
Continuous
 62
     9
370
     0
100
AcDbLine
 10
113.4341066411407
 20
-154.1780258224257
 30
0.0
 11
113.7918775175414
 21
-153.885907125089
 31
0.0
  0
LINE
  5
754E
330
A
100
AcDbEntity
  8
0
  6
Continuous
 62
     9
370
     0
100
AcDbLine
 10
113.7918775175412
 20
-153.885907125089
 30
0.0
 11
114.149648393941
 21
-153.5937884277531
 31
0.0
  0
LINE
  5
754F
330
A
100
AcDbEntity
  8
0
  6
Continuous
 62
     7
370
     0
100
AcDbLine
 10
114.1496483939411
 20
-153.5937884277531
 30
0.0
 11
114.1496483939412
 21
-104.4448176009453
 31
0.0
  0
ELLIPSE
  5
7550
330
A
100
AcDbEntity
  8
0
  6
Continuous
 62
     7
370
     0
100
AcDbEllipse
 10
83.3813530235438
 20
-98.89456235155978
 30
0.0
 11
2.276839915321238
 21
-2.788548009269336
 31
1.000000000000000E-16
210
3.142158563250589E-17
220
6.151657414559691E-17
230
1.0
 40
0.8164965809280911
 41
3.141592653589786
 42
3.310987422369523
  0
ELLIPSE
  5
7551
330
A
100
AcDbEntity
  8
0
  6
Continuous
 62
     7
370
     0
100
AcDbEllipse
 10
84.09689477634377
 20
-98.3103249568874
 30
0.0
 11
2.276839915321238
 21
-2.788548009269336
 31
-1.000000000000000E-16
210
7.756820922315752E-17
220
2.747322071006687E-17
230
1.0
 40
0.8164965809280914
 41
2.356194490192556
 42
3.141592653590008
  0
ELLIPSE
  5
7552
330
A
100
AcDbEntity
  8
0
  6
Continuous
 62
     7
370
     0
100
AcDbEllipse
 10
110.2141687535411
 20
-153.5207587534195
 30
0.0
 11
2.276839915321238
 21
-2.788548009269336
 31
-1.000000000000000E-16
210
7.756820922315752E-17
220
2.747322071006687E-17
230
1.0
 40
0.8164965809280914
 41
6.283185307179584
 42
7.06858347057703
  0
ELLIPSE
  5
7553
330
A
100
AcDbEntity
  8
0
  6
Continuous
 62
     7
370
     0
100
AcDbEllipse
 10
110.9297105063413
 20
-152.9365213587469
 30
0.0
 11
2.276839915321238
 21
-2.788548009269336
 31
-1.000000000000000E-16
210
7.756820922315752E-17
220
2.747322071006687E-17
230
1.0
 40
0.8164965809280914
 41
6.283185307179584
 42
7.06858347057703
  0
ELLIPSE
  5
7554
330
A
100
AcDbEntity
  8
0
  6
Continuous
 62
     7
370
     0
100
AcDbEllipse
 10
111.6452522591418
 20
-154.2510554967135
 30
0.0
 11
2.529822128134683
 21
-3.098386676965935
 31
-1.000000000000000E-16
210
7.581138830084226E-17
220
2.962487812462626E-17
230
1.0
 40
0.8164965809277259
 41
5.593368217049037
 42
6.28318530717958
  0
LINE
  5
7555
330
A
100
AcDbEntity
  8
0
  6
Continuous
 62
     7
370
     0
100
AcDbLine
 10
79.44587338315841
 20
-96.1924644011718
 30
0.0
 11
79.44587338315841
 21
-92.90612905616132
 31
0.0
  0
LINE
  5
7556
330
A
100
AcDbEntity
  8
0
  6
Continuous
 62
     7
370
     0
100
AcDbLine
 10
79.44587338315841
 20
-92.90612905616132
 30
0.0
 11
111.6452522591418
 21
-99.47879974622047
 31
0.0
  0
ELLIPSE
  5
7557
330
A
100
AcDbEntity
  8
0
  6
Continuous
 62
     7
370
     0
100
AcDbEllipse
 10
111.6452522591418
 20
-103.13028346292
 30
0.0
 11
2.529822128134683
 21
-3.098386676965908
 31
-1.000000000000000E-16
210
7.581138830084203E-17
220
2.962487812462632E-17
230
1.0
 40
0.8164965809277259
 41
0.7853981633974457
 42
2.356194490192345
  0
LINE
  5
7558
330
A
100
AcDbEntity
  8
0
  6
Continuous
 62
     7
370
     0
100
AcDbLine
 10
115.2229610231397
 20
-103.8605802062599
 30
0.0
 11
115.2229610231397
 21
-154.9813522400534
 31
0.0
  0
ELLIPSE
  5
7559
330
A
100
AcDbEntity
  8
0
  6
Continuous
 62
     7
370
     0
100
AcDbEllipse
 10
83.20246758535654
 20
-97.5069985392027
 30
0.0
 11
-2.023857702507736
 21
2.478709341572735
 31
1.000000000000000E-16
210
7.976423537605283E-17
220
2.478364894186684E-17
230
1.0
 40
0.8164965809277259
 41
6.28318530717958
 42
6.879967084394967
  0
ELLIPSE
  5
755A
330
A
100
AcDbEntity
  8
0
  6
Continuous
 62
     7
370
     0
100
AcDbEllipse
 10
111.4663668209417
 20
-154.0319664737115
 30
0.0
 11
-2.023857702507791
 21
2.478709341572737
 31
1.000000000000000E-16
210
7.976423537605167E-17
220
2.478364894186764E-17
230
1.0
 40
0.8164965809277259
 41
3.141592653589788
 42
3.926990816987243
  0
LINE
  5
755B
330
A
100
AcDbEntity
  8
0
  6
Continuous
 62
     7
370
     0
100
AcDbLine
 10
114.3285338321402
 20
-154.6162038683834
 30
0.0
 11
114.3285338321402
 21
-103.8605802062599
 31
0.0
  0
ELLIPSE
  5
755C
330
A
100
AcDbEntity
  8
0
  6
Continuous
 62
     7
370
     0
100
AcDbEllipse
 10
111.4663668209417
 20
-103.2763428115879
 30
0.0
 11
-2.023857702507791
 21
2.478709341572737
 31
1.000000000000000E-16
210
7.976423537605167E-17
220
2.478364894186764E-17
230
1.0
 40
0.8164965809277259
 41
3.92699081698724
 42
5.497787143782135
  0
LINE
  5
755D
330
A
100
AcDbEntity
  8
0
  6
Continuous
 62
     7
370
     0
100
AcDbLine
 10
111.4663668209417
 20
-100.3551558382283
 30
0.0
 11
83.20246758535654
 21
-94.58581156584306
 31
0.0
  0
LINE
  5
755E
330
A
100
AcDbEntity
  8
0
  6
Continuous
 62
     9
370
     0
100
AcDbLine
 10
116.6540445287397
 20
-102.6921054169155
 30
0.0
 11
115.2229610231397
 21
-103.8605802062599
 31
0.0
  0
LINE
  5
755F
330
A
100
AcDbEntity
  8
0
  6
Continuous
 62
     9
370
     0
100
AcDbLine
 10
111.6452522591418
 20
-99.4787997462204
 30
0.0
 11
113.0763357647415
 21
-98.31032495687602
 31
0.0
  0
ELLIPSE
  5
7560
330
A
100
AcDbEntity
  8
0
  6
Continuous
 62
     7
370
     0
100
AcDbEllipse
 10
113.0763357647415
 20
-101.9618086735756
 30
0.0
 11
-2.529822128134683
 21
3.098386676965935
 31
1.000000000000000E-16
210
7.581138830084226E-17
220
2.962487812462626E-17
230
1.0
 40
0.8164965809277259
 41
3.926990816987238
 42
5.497787143782136
  0
ELLIPSE
  5
7561
330
A
100
AcDbEntity
  8
0
  6
Continuous
 62
     7
370
     0
100
AcDbEllipse
 10
111.6452522591418
 20
-153.8859071250435
 30
0.0
 11
2.023857702507791
 21
-2.478709341572737
 31
-1.000000000000000E-16
210
7.976423537605167E-17
220
2.478364894186764E-17
230
1.0
 40
0.8164965809277255
 41
5.623114974951566
 42
6.238976734573682
  0
LINE
  5
7562
330
A
100
AcDbEntity
  8
0
  6
Continuous
 62
     7
370
     0
100
AcDbLine
 10
79.44587338315841
 20
-92.90612905616132
 30
0.0
 11
80.1073987150171
 21
-92.3659958845015
 31
0.0
  0
ELLIPSE
  5
7563
330
A
100
AcDbEntity
  8
0
  6
Continuous
 62
     7
370
     0
100
AcDbEllipse
 10
82.21859767525648
 20
-94.65884124017751
 30
0.0
 11
6.000000000000003
 21
0.0
 31
-4.000000000000000E-16
210
6.666666666666663E-17
220
1.000000000000000E-16
230
1.0
 40
0.4082482904636871
 41
1.366070259800488
 42
1.930360694919604
  0
LINE
  5
7564
330
A
100
AcDbEntity
  8
0
  6
Continuous
 62
     7
370
     0
100
AcDbLine
 10
83.43839140617149
 20
-92.26050489825138
 30
0.0
 11
113.0763357647415
 21
-98.31032495687602
 31
0.0
  0
LINE
  5
7565
330
A
100
AcDbEntity
  8
0
  6
Continuous
 62
     9
370
     0
100
AcDbLine
 10
115.2229610231397
 20
-154.9813522400534
 30
0.0
 11
116.6540445287396
 21
-153.812877450709
 31
0.0
  0
LINE
  5
7566
330
A
100
AcDbEntity
  8
0
  6
Continuous
 62
     7
370
     0
100
AcDbLine
 10
116.6540445287397
 20
-153.812877450709
 30
0.0
 11
116.6540445287397
 21
-102.6921054169155
 31
0.0
  0
ELLIPSE
  5
7567
330
A
100
AcDbEntity
  8
0
  6
Continuous
 62
     7
370
     0
100
AcDbEllipse
 10
83.20246758535654
 20
-97.5069985392027
 30
0.0
 11
-2.023857702507736
 21
2.478709341572735
 31
1.000000000000000E-16
210
7.976423537605283E-17
220
2.478364894186684E-17
230
1.0
 40
0.8164965809277259
 41
5.497787143782135
 42
6.28318530717958
  0
ELLIPSE
  5
7568
330
A
100
AcDbEntity
  8
0
  6
Continuous
 62
     7
370
     0
100
AcDbEllipse
 10
83.38135302355641
 20
-97.3609391905346
 30
0.0
 11
2.023857702507791
 21
-2.478709341572737
 31
-1.000000000000000E-16
210
7.976423537605167E-17
220
2.478364894186764E-17
230
1.0
 40
0.8164965809277264
 41
3.185801365754413
 42
3.801662985812616
  0
ELLIPSE
  5
7569
330
A
100
AcDbEntity
  8
0
  6
Continuous
 62
     7
370
     0
100
AcDbEllipse
 10
111.6452522591418
 20
-154.2510554967135
 30
0.0
 11
2.529822128134683
 21
-3.098386676965935
 31
1.000000000000000E-16
210
3.317840655482162E-17
220
5.936491673103679E-17
230
1.0
 40
0.8164965809277264
 41
6.28318530717958
 42
7.068583470577032
  0
ELLIPSE
  5
756A
330
A
100
AcDbEntity
  8
0
  6
Continuous
 62
     7
370
     0
100
AcDbEllipse
 10
113.0763357647415
 20
-153.0825807073691
 30
0.0
 11
-2.529822128134683
 21
3.098386676965935
 31
1.000000000000000E-16
210
7.581138830084226E-17
220
2.962487812462626E-17
230
1.0
 40
0.8164965809277259
 41
3.141592653589794
 42
3.92699081698724
  0
ELLIPSE
  5
756B
330
A
100
AcDbEntity
  8
0
  6
Continuous
 62
     7
370
     0
100
AcDbEllipse
 10
111.4663668209417
 20
-154.0319664737115
 30
0.0
 11
-2.023857702507791
 21
2.478709341572737
 31
1.000000000000000E-16
210
7.976423537605167E-17
220
2.478364894186764E-17
230
1.0
 40
0.8164965809277259
 41
2.544810876369147
 42
3.141592653589788
  0
LINE
  5
756C
330
A
100
AcDbEntity
  8
0
  6
Continuous
 62
     9
370
     0
100
AcDbLine
 10
112.0030231355453
 20
-106.4896484822668
 30
0.0
 11
110.5719396299456
 21
-107.6581232716111
 31
0.0
  0
ELLIPSE
  5
756D
330
A
100
AcDbEntity
  8
0
  6
Continuous
 62
     7
370
     0
100
AcDbEllipse
 10
106.9942308659458
 20
-106.927826528271
 30
0.0
 11
2.529822128134683
 21
-3.098386676965935
 31
0.0
210
6.000000000000040E-17
220
4.898979485566347E-17
230
1.0
 40
0.8164965809277195
 41
0.7853981633974542
 42
2.356194490192338
  0
LINE
  5
756E
330
A
100
AcDbEntity
  8
0
  6
Continuous
 62
     9
370
     0
100
AcDbLine
 10
106.9942308659458
 20
-103.2763428115699
 30
0.0
 11
108.4253143715458
 21
-102.1078680222255
 31
0.0
  0
ELLIPSE
  5
756F
330
A
100
AcDbEntity
  8
0
  6
Continuous
 62
     7
370
     0
100
AcDbEllipse
 10
108.4253143715458
 20
-105.7593517389265
 30
0.0
 11
-2.529822128134683
 21
3.098386676965935
 31
0.0
210
6.000000000000040E-17
220
4.898979485566347E-17
230
1.0
 40
0.8164965809277193
 41
3.926990816987241
 42
5.497787143782129
  0
LINE
  5
7570
330
A
100
AcDbEntity
  8
0
  6
Continuous
 62
     7
370
     0
100
AcDbLine
 10
77.35628650736344
 20
-155.6502622201604
 30
0.0
 11
77.35628650736344
 21
-139.273357750756
 31
0.0
  0
LINE
  5
7571
330
A
100
AcDbEntity
  8
0
  6
Continuous
 62
     7
370
     0
100
AcDbLine
 10
88.34340580036125
 20
-141.5160940850004
 30
0.0
 11
77.35628650736344
 21
-139.273357750756
 31
0.0
  0
ELLIPSE
  5
7572
330
A
100
AcDbEntity
  8
0
  6
Continuous
 62
     7
370
     0
100
AcDbEllipse
 10
88.34340580036125
 20
-140.05550059832
 30
0.0
 11
-1.011928851253894
 21
1.239354670786366
 31
0.0
210
5.999999999999911E-17
220
4.898979485566374E-17
230
1.0
 40
0.8164965809277193
 41
3.141592653589785
 42
3.957123955382341
  0
ELLIPSE
  5
7573
330
A
100
AcDbEntity
  8
0
  6
Continuous
 62
     7
370
     0
100
AcDbEllipse
 10
458.0755372332203
 20
-204.1523841143085
 30
0.0
 11
260.5469080228684
 21
-319.1034893579443
 31
1.430000000000000E-14
210
2.703597454973251E-17
220
6.688782882714158E-17
230
1.0
 40
0.8164965809277195
 41
3.896857678592146
 42
3.957123955382345
  0
ELLIPSE
  5
7574
330
A
100
AcDbEntity
  8
0
  6
Continuous
 62
     7
370
     0
100
AcDbEllipse
 10
88.34340580036125
 20
-117.3067570432721
 30
0.0
 11
-1.011928851253894
 21
1.239354670786366
 31
0.0
210
5.999999999999911E-17
220
4.898979485566374E-17
230
1.0
 40
0.8164965809277193
 41
3.896857678592128
 42
5.497787143782124
  0
LINE
  5
7575
330
A
100
AcDbEntity
  8
0
  6
Continuous
 62
     7
370
     0
100
AcDbLine
 10
77.35628650736344
 20
-113.6034272223472
 30
0.0
 11
88.34340580036125
 21
-115.8461635565915
 31
0.0
  0
LINE
  5
7576
330
A
100
AcDbEntity
  8
0
  6
Continuous
 62
     7
370
     0
100
AcDbLine
 10
77.35628650736344
 20
-113.6034272223472
 30
0.0
 11
77.35628650736344
 21
-97.22652275294269
 31
0.0
  0
LINE
  5
7577
330
A
100
AcDbEntity
  8
0
  6
Continuous
 62
     7
370
     0
100
AcDbLine
 10
106.9942308659458
 20
-103.2763428115699
 30
0.0
 11
77.35628650736344
 21
-97.22652275294269
 31
0.0
  0
LINE
  5
7578
330
A
100
AcDbEntity
  8
0
  6
Continuous
 62
     7
370
     0
100
AcDbLine
 10
110.5719396299456
 20
-107.6581232716111
 30
0.0
 11
110.5719396299456
 21
-158.7788953054267
 31
0.0
  0
ELLIPSE
  5
7579
330
A
100
AcDbEntity
  8
0
  6
Continuous
 62
     7
370
     0
100
AcDbEllipse
 10
106.9942308659458
 20
-158.0485985620866
 30
0.0
 11
2.529822128134683
 21
-3.098386676965935
 31
0.0
210
6.000000000000040E-17
220
4.898979485566347E-17
230
1.0
 40
0.8164965809277195
 41
5.497787143782136
 42
6.28318530717958
  0
LINE
  5
757A
330
A
100
AcDbEntity
  8
0
  6
Continuous
 62
     7
370
     0
100
AcDbLine
 10
77.35628650736344
 20
-155.6502622201604
 30
0.0
 11
106.9942308659458
 21
-161.7000822787875
 31
0.0
  0
ELLIPSE
  5
757B
330
A
100
AcDbEntity
  8
0
  6
Continuous
 62
     7
370
     0
100
AcDbEllipse
 10
81.3241704842485
 20
-95.38913798349549
 30
0.0
 11
6.000000000000003
 21
2.780000000000000E-14
 31
-3.000000000000000E-16
210
4.999999999999997E-17
220
2.316666666666664E-31
230
1.0
 40
0.4082482904638657
 41
3.425529394258018
 42
3.989819829377661
  0
LINE
  5
757C
330
A
100
AcDbEntity
  8
0
  6
Continuous
 62
     7
370
     0
100
AcDbLine
 10
75.56441016369035
 20
-96.07533050382332
 30
0.0
 11
76.22593549554898
 21
-95.5351973321636
 31
0.0
  0
LINE
  5
757D
330
A
100
AcDbEntity
  8
0
  6
Continuous
 62
     7
370
     0
100
AcDbLine
 10
108.4253143715458
 20
-102.1078680222255
 30
0.0
 11
76.2259354955491
 21
-95.5351973321636
 31
0.0
  0
LINE
  5
757E
330
A
100
AcDbEntity
  8
0
  6
Continuous
 62
     7
370
     0
100
AcDbLine
 10
112.0030231355453
 20
-157.6104205160824
 30
0.0
 11
112.0030231355453
 21
-106.4896484822668
 31
0.0
  0
LINE
  5
757F
330
A
100
AcDbEntity
  8
0
  6
Continuous
 62
     9
370
     0
100
AcDbLine
 10
110.5719396299456
 20
-158.7788953054266
 30
0.0
 11
112.0030231355453
 21
-157.6104205160824
 31
0.0
  0
ELLIPSE
  5
7580
330
A
100
AcDbEntity
  8
0
  6
Continuous
 62
     7
370
     0
100
AcDbEllipse
 10
81.3241704842485
 20
-111.7660424529
 30
0.0
 11
6.000000000000003
 21
2.780000000000000E-14
 31
-3.000000000000000E-16
210
4.999999999999997E-17
220
2.316666666666664E-31
230
1.0
 40
0.4082482904638657
 41
3.425529394258021
 42
3.989819829377663
  0
LINE
  5
7581
330
A
100
AcDbEntity
  8
0
  6
Continuous
 62
     7
370
     0
100
AcDbLine
 10
75.56441016369035
 20
-96.07533050382332
 30
0.0
 11
75.56441016369035
 21
-112.4522349732278
 31
0.0
  0
ELLIPSE
  5
7582
330
A
100
AcDbEntity
  8
0
  6
Continuous
 62
     7
370
     0
100
AcDbEllipse
 10
106.9942308659458
 20
-158.0485985620866
 30
0.0
 11
2.529822128134683
 21
-3.098386676965935
 31
-1.000000000000000E-16
210
7.581138830084226E-17
220
2.962487812462626E-17
230
1.0
 40
0.8164965809277195
 41
6.283185307179584
 42
7.068583470577032
  0
ELLIPSE
  5
7583
330
A
100
AcDbEntity
  8
0
  6
Continuous
 62
     7
370
     0
100
AcDbEllipse
 10
108.4253143715458
 20
-156.8801237727422
 30
0.0
 11
-2.529822128134683
 21
3.098386676965935
 31
0.0
210
6.000000000000040E-17
220
4.898979485566347E-17
230
1.0
 40
0.8164965809277193
 41
3.141592653589797
 42
3.926990816987243
  0
ELLIPSE
  5
7584
330
A
100
AcDbEntity
  8
0
  6
Continuous
 62
     7
370
     0
100
AcDbEllipse
 10
88.34340580036125
 20
-140.05550059832
 30
0.0
 11
-1.011928851253894
 21
1.239354670786366
 31
1.000000000000000E-16
210
9.952847075210424E-17
220
5.775030280714661E-19
230
1.0
 40
0.8164965809277189
 41
2.356194490192331
 42
3.141592653589778
  0
LINE
  5
7585
330
A
100
AcDbEntity
  8
0
  6
Continuous
 62
     7
370
     0
100
AcDbLine
 10
89.77433508915772
 20
-140.3690298521078
 30
0.0
 11
89.0084021966079
 21
-140.9944114400946
 31
0.0
  0
LINE
  5
7586
330
A
100
AcDbEntity
  8
0
  6
Continuous
 62
     9
370
     0
100
AcDbLine
 10
88.34340580036125
 20
-141.5160940850004
 30
0.0
 11
89.7744893059612
 21
-140.3476192956559
 31
0.0
  0
ELLIPSE
  5
7587
330
A
100
AcDbEntity
  8
0
  6
Continuous
 62
     7
370
     0
100
AcDbEllipse
 10
88.987393377881
 20
-139.529686943115
 30
0.0
 11
1.011928851253895
 21
-1.239354670786396
 31
-9.999999999999999E-17
210
9.952847075210421E-17
220
5.775030280715094E-19
230
1.0
 40
0.8164965809277246
 41
5.512468029509641
 42
5.959357168604809
  0
ELLIPSE
  5
7588
330
A
100
AcDbEntity
  8
0
  6
Continuous
 62
     7
370
     0
100
AcDbEllipse
 10
81.3241704842485
 20
-137.4359729813088
 30
0.0
 11
-6.000000000000003
 21
0.0
 31
4.000000000000000E-16
210
6.666666666666663E-17
220
0.0
230
1.0
 40
0.408248290463863
 41
0.3793890952505055
 42
0.8482271757878695
  0
LINE
  5
7589
330
A
100
AcDbEntity
  8
0
  6
Continuous
 62
     7
370
     0
100
AcDbLine
 10
75.56441016369035
 20
-138.3050974475857
 30
0.0
 11
75.56441016369035
 21
-154.499069971041
 31
0.0
  0
ELLIPSE
  5
758A
330
A
100
AcDbEntity
  8
0
  6
Continuous
 62
     7
370
     0
100
AcDbEllipse
 10
81.3241704842485
 20
-153.8128774507132
 30
0.0
 11
-6.000000000000003
 21
0.0
 31
0.0
210
0.0
220
0.0
230
1.0
 40
0.4082482904638632
 41
0.2839367406682197
 42
0.8482271757878688
  0
ELLIPSE
  5
758B
330
A
100
AcDbEntity
  8
0
  6
Continuous
 62
     7
370
     0
100
AcDbEllipse
 10
85.52797920456572
 20
-113.3179227507443
 30
0.0
 11
4.599999999999936
 21
0.0
 31
0.0
210
0.0
220
0.0
230
1.0
 40
0.4082482904638673
 41
3.873543166141283
 42
4.623939576626471
  0
LINE
  5
758C
330
A
100
AcDbEntity
  8
0
  6
Continuous
 62
     9
370
     0
100
AcDbLine
 10
80.04529941372799
 20
-131.3690651447213
 30
0.0
 11
80.04529941372799
 21
-139.2197551356286
 31
0.0
  0
LINE
  5
758D
330
A
100
AcDbEntity
  8
0
  6
Continuous
 62
     7
370
     0
100
AcDbLine
 10
73.00599832712578
 20
-137.7828638182956
 30
0.0
 11
80.04529941372799
 21
-139.2197551356286
 31
0.0
  0
ELLIPSE
  5
758E
330
A
100
AcDbEntity
  8
0
  6
Continuous
 62
     7
370
     0
100
AcDbEllipse
 10
73.00599832712578
 20
-138.513160561636
 30
0.0
 11
-0.505964425626948
 21
0.6196773353931984
 31
0.0
210
6.000000000000022E-17
220
4.898979485566352E-17
230
1.0
 40
0.816496580927726
 41
0.0
 42
0.7853981633974414
  0
LINE
  5
758F
330
A
100
AcDbEntity
  8
0
  6
Continuous
 62
     7
370
     0
100
AcDbLine
 10
72.29045657432596
 20
-154.981352123958
 30
0.0
 11
72.29045657432596
 21
-138.3671012129679
 31
0.0
  0
LINE
  5
7590
330
A
100
AcDbEntity
  8
0
  6
Continuous
 62
     7
370
     0
100
AcDbLine
 10
68.71274781032628
 20
-154.2510553806178
 30
0.0
 11
72.29045657432596
 21
-154.981352123958
 31
0.0
  0
LINE
  5
7591
330
A
100
AcDbEntity
  8
0
  6
Continuous
 62
     7
370
     0
100
AcDbLine
 10
68.71274781032628
 20
-95.82731591339999
 30
0.0
 11
68.71274781032628
 21
-154.2510553806178
 31
0.0
  0
LINE
  5
7592
330
A
100
AcDbEntity
  8
0
  6
Continuous
 62
     7
370
     0
100
AcDbLine
 10
68.71274781032628
 20
-95.82731591339999
 30
0.0
 11
72.29045657432596
 21
-96.55761265674019
 31
0.0
  0
LINE
  5
7593
330
A
100
AcDbEntity
  8
0
  6
Continuous
 62
     7
370
     0
100
AcDbLine
 10
72.29045657432596
 20
-96.55761265674019
 30
0.0
 11
72.29045657432596
 21
-113.1718635677303
 31
0.0
  0
ELLIPSE
  5
7594
330
A
100
AcDbEntity
  8
0
  6
Continuous
 62
     7
370
     0
100
AcDbEllipse
 10
73.00599832712578
 20
-113.3179229163983
 30
0.0
 11
-0.505964425626948
 21
0.6196773353931984
 31
0.0
210
6.000000000000022E-17
220
4.898979485566352E-17
230
1.0
 40
0.816496580927726
 41
0.7853981633974414
 42
2.356194490192336
  0
LINE
  5
7595
330
A
100
AcDbEntity
  8
0
  6
Continuous
 62
     7
370
     0
100
AcDbLine
 10
73.00599832712578
 20
-114.0482196597385
 30
0.0
 11
80.04529941372799
 21
-115.4851109770713
 31
0.0
  0
LINE
  5
7596
330
A
100
AcDbEntity
  8
0
  6
Continuous
 62
     9
370
     0
100
AcDbLine
 10
80.04529941372799
 20
-115.4851109770713
 30
0.0
 11
80.04529941372799
 21
-123.3358009679788
 31
0.0
  0
LINE
  5
7597
330
A
100
AcDbEntity
  8
0
  6
Continuous
 62
     7
370
     0
100
AcDbLine
 10
80.04529941372799
 20
-123.3358009679788
 30
0.0
 11
74.72329853384576
 21
-122.2494520874492
 31
0.0
  0
LINE
  5
7598
330
A
100
AcDbEntity
  8
0
  6
Continuous
 62
     7
370
     0
100
AcDbLine
 10
74.72329853384576
 20
-122.2494520874492
 30
0.0
 11
74.72329853384576
 21
-130.2827162641916
 31
0.0
  0
LINE
  5
7599
330
A
100
AcDbEntity
  8
0
  6
Continuous
 62
     7
370
     0
100
AcDbLine
 10
74.72329853384576
 20
-130.2827162641916
 30
0.0
 11
80.04529941372799
 21
-131.3690651447213
 31
0.0
  0
LINE
  5
759A
330
A
100
AcDbEntity
  8
0
  6
Continuous
 62
     7
370
     0
100
AcDbLine
 10
72.29045657432596
 20
-96.55761265674019
 30
0.0
 11
72.67067616603782
 21
-96.24716466010561
 31
0.0
  0
LINE
  5
759B
330
A
100
AcDbEntity
  8
0
  6
Continuous
 62
     7
370
     0
100
AcDbLine
 10
72.67067616603782
 20
-96.24716466010561
 30
0.0
 11
72.67067616603782
 21
-112.8614155710958
 31
0.0
  0
LINE
  5
759C
330
A
100
AcDbEntity
  8
0
  6
Continuous
 62
     9
370
     0
100
AcDbLine
 10
72.29045657432596
 20
-113.1718635677303
 30
0.0
 11
72.67067616603782
 21
-112.8614155710958
 31
0.0
  0
LINE
  5
759D
330
A
100
AcDbEntity
  8
0
  6
Continuous
 62
     7
370
     0
100
AcDbLine
 10
78.3501127578134
 20
-91.60992410132506
 30
0.0
 11
78.73033234952521
 21
-91.29947610469065
 31
0.0
  0
ELLIPSE
  5
759E
330
A
100
AcDbEntity
  8
0
  6
Continuous
 62
     7
370
     0
100
AcDbEllipse
 10
81.95027023712503
 20
-95.2430785187278
 30
0.0
 11
9.599999999999996
 21
0.0
 31
0.0
210
0.0
220
0.0
230
1.0
 40
0.408248290463863
 41
3.141592653589792
 42
3.400679292402401
  0
LINE
  5
759F
330
A
100
AcDbEntity
  8
0
  6
Continuous
 62
     7
370
     0
100
AcDbLine
 10
81.2347284843251
 20
-85.6031615066369
 30
0.0
 11
68.71274781032628
 21
-95.82731591339999
 31
0.0
  0
LINE
  5
75A0
330
A
100
AcDbEntity
  8
0
  6
Continuous
 62
     9
370
     0
100
AcDbLine
 10
84.25951862116113
 20
-86.2205942078244
 30
0.0
 11
81.2347284843251
 21
-85.6031615066369
 31
0.0
  0
LINE
  5
75A1
330
A
100
AcDbEntity
  8
0
  6
Continuous
 62
     7
370
     0
100
AcDbLine
 10
78.73033234952521
 20
-91.29947610469065
 30
0.0
 11
84.25951862116113
 21
-86.2205942078244
 31
0.0
  0
ELLIPSE
  5
75A2
330
A
100
AcDbEntity
  8
0
  6
Continuous
 62
     7
370
     0
100
AcDbEllipse
 10
86.24352075392441
 20
-113.4639822650664
 30
0.0
 11
-7.199999999999982
 21
0.0
 31
0.0
210
0.0
220
0.0
230
1.0
 40
0.408248290463863
 41
1.351914556140632
 42
1.969616377955541
  0
ELLIPSE
  5
75A3
330
A
100
AcDbEntity
  8
0
  6
Continuous
 62
     7
370
     0
100
AcDbEllipse
 10
84.94069149571942
 20
-115.8550293133963
 30
0.0
 11
-1.199999999999978
 21
0.0
 31
0.0
210
0.0
220
0.0
230
1.0
 40
0.4082482904638633
 41
0.5693263248894872
 42
1.35191455614063
  0
ELLIPSE
  5
75A4
330
A
100
AcDbEntity
  8
0
  6
Continuous
 62
     7
370
     0
100
AcDbEllipse
 10
81.2347284843251
 20
-116.8233472844314
 30
0.0
 11
3.199999999999978
 21
0.0
 31
-2.000000000000000E-16
210
6.250000000000042E-17
220
0.0
230
1.0
 40
0.4082482904638631
 41
0.5693263248894893
 42
1.719703456133431
  0
ELLIPSE
  5
75A5
330
A
100
AcDbEntity
  8
0
  6
Continuous
 62
     7
370
     0
100
AcDbEllipse
 10
80.58195572832801
 20
-115.0469329310673
 30
0.0
 11
-1.199999999999978
 21
0.0
 31
0.0
210
0.0
220
0.0
230
1.0
 40
0.4082482904638631
 41
1.107148717794089
 42
1.719703456133408
  0
LINE
  5
75A6
330
A
100
AcDbEntity
  8
0
  6
Continuous
 62
     9
370
     0
100
AcDbLine
 10
73.5248253321439
 20
-113.6245991840482
 30
0.0
 11
73.00599832712595
 21
-114.0482196597385
 31
0.0
  0
ELLIPSE
  5
75A7
330
A
100
AcDbEntity
  8
0
  6
Continuous
 62
     9
370
     0
100
AcDbEllipse
 10
81.95027023712503
 20
-112.5876261730581
 30
0.0
 11
-8.799999999999976
 21
0.0
 31
0.0
210
0.0
220
0.0
230
1.0
 40
0.4082482904638633
 41
5.524390718189565
 42
6.575994082847162
  0
LINE
  5
75A8
330
A
100
AcDbEntity
  8
0
  6
Continuous
 62
     9
370
     0
100
AcDbLine
 10
84.68012564407843
 20
-116.3332387230623
 30
0.0
 11
84.68012564407843
 21
-124.1839287139697
 31
0.0
  0
ELLIPSE
  5
75A9
330
A
100
AcDbEntity
  8
0
  6
Continuous
 62
     7
370
     0
100
AcDbEllipse
 10
86.24352075392441
 20
-121.3146722559738
 30
0.0
 11
7.199999999999982
 21
0.0
 31
0.0
210
0.0
220
0.0
230
1.0
 40
0.4082482904638633
 41
4.493507209730426
 42
5.203588896454681
  0
ELLIPSE
  5
75AA
330
A
100
AcDbEntity
  8
0
  6
Continuous
 62
     7
370
     0
100
AcDbEllipse
 10
81.95027023712503
 20
-95.2430785187278
 30
0.0
 11
9.599999999999996
 21
0.0
 31
-7.000000000000000E-16
210
7.291666666666670E-17
220
0.0
230
1.0
 40
0.4082482904638628
 41
1.95521079677557
 42
3.141592653589792
  0
ELLIPSE
  5
75AB
330
A
100
AcDbEntity
  8
0
  6
Continuous
 62
     9
370
     0
100
AcDbEllipse
 10
81.95027023712503
 20
-111.8573294297179
 30
0.0
 11
9.599999999999996
 21
0.0
 31
-7.000000000000000E-16
210
7.291666666666670E-17
220
0.0
230
1.0
 40
0.408248290463863
 41
2.298549610231003
 42
2.88250601477718
  0
LINE
  5
75AC
330
A
100
AcDbEntity
  8
0
  6
Continuous
 62
     7
370
     0
100
AcDbLine
 10
78.3501127578134
 20
-91.60992410132506
 30
0.0
 11
78.3501127578134
 21
-95.96879320014438
 31
0.0
  0
LINE
  5
75AD
330
A
100
AcDbEntity
  8
0
  6
Continuous
 62
     9
370
     0
100
AcDbLine
 10
83.92997431079374
 20
-116.1191160327695
 30
0.0
 11
83.92997431079374
 21
-123.9698060236769
 31
0.0
  0
ELLIPSE
  5
75AE
330
A
100
AcDbEntity
  8
0
  6
Continuous
 62
     7
370
     0
100
AcDbEllipse
 10
84.94069149571942
 20
-123.7057193043036
 30
0.0
 11
1.199999999999978
 21
0.0
 31
0.0
210
0.0
220
0.0
230
1.0
 40
0.4082482904638633
 41
3.710918978479277
 42
4.493507209730423
  0
LINE
  5
75AF
330
A
100
AcDbEntity
  8
0
  6
Continuous
 62
     9
370
     0
100
AcDbLine
 10
80.75998466178174
 20
-115.5314095728939
 30
0.0
 11
80.75998466178174
 21
-123.3820995638013
 31
0.0
  0
ELLIPSE
  5
75B0
330
A
100
AcDbEntity
  8
0
  6
Continuous
 62
     7
370
     0
100
AcDbEllipse
 10
81.2347284843251
 20
-124.6740372753388
 30
0.0
 11
-3.199999999999978
 21
0.0
 31
0.0
210
0.0
220
0.0
230
1.0
 40
0.4082482904638631
 41
3.710918978479281
 42
4.861296109723222
  0
ELLIPSE
  5
75B1
330
A
100
AcDbEntity
  8
0
  6
Continuous
 62
     7
370
     0
100
AcDbEllipse
 10
80.58195572832801
 20
-122.8976229219747
 30
0.0
 11
1.199999999999978
 21
0.0
 31
-9.999999999999999E-17
210
8.333333333333486E-17
220
0.0
230
1.0
 40
0.408248290463863
 41
4.248741371383887
 42
4.861296109723198
  0
ELLIPSE
  5
75B2
330
A
100
AcDbEntity
  8
0
  6
Continuous
 62
     7
370
     0
100
AcDbEllipse
 10
78.73033234952544
 20
-113.3909525907323
 30
0.0
 11
2.679999999999957
 21
0.0
 31
0.0
210
0.0
220
0.0
230
1.0
 40
0.4082482904638631
 41
2.811912626230336
 42
3.605240262590611
  0
ELLIPSE
  5
75B3
330
A
100
AcDbEntity
  8
0
  6
Continuous
 62
     7
370
     0
100
AcDbEllipse
 10
78.73033234952544
 20
-113.3909525907323
 30
0.0
 11
2.679999999999957
 21
0.0
 31
-2.000000000000000E-16
210
7.462686567164298E-17
220
0.0
230
1.0
 40
0.4082482904638631
 41
3.605240262590611
 42
5.404761309926392
  0
ELLIPSE
  5
75B4
330
A
100
AcDbEntity
  8
0
  6
Continuous
 62
     7
370
     0
100
AcDbEllipse
 10
78.73033234952544
 20
-113.6100416137344
 30
0.0
 11
-2.439999999999995
 21
0.0
 31
2.000000000000000E-16
210
8.196721311475426E-17
220
0.0
230
1.0
 40
0.4082482904638631
 41
6.101865532756781
 42
6.283185307179594
  0
ELLIPSE
  5
75B5
330
A
100
AcDbEntity
  8
0
  6
Continuous
 62
     7
370
     0
100
AcDbEllipse
 10
78.73033234952544
 20
-113.6100416137344
 30
0.0
 11
-2.439999999999995
 21
0.0
 31
0.0
210
0.0
220
0.0
230
1.0
 40
0.4082482904638631
 41
0.0000000000000078
 42
0.3674503412978645
  0
LINE
  5
75B6
330
A
100
AcDbEntity
  8
0
  6
Continuous
 62
     7
370
     0
100
AcDbLine
 10
72.67067616603782
 20
-112.8614155710958
 30
0.0
 11
72.78639737325771
 21
-113.2338483078829
 31
0.0
  0
ELLIPSE
  5
75B7
330
A
100
AcDbEntity
  8
0
  6
Continuous
 62
     7
370
     0
100
AcDbEllipse
 10
86.24352075392441
 20
-129.3479364327162
 30
0.0
 11
-7.199999999999982
 21
0.0
 31
-1.000000000000000E-16
210
-1.388888888888892E-17
220
0.0
230
1.0
 40
0.408248290463863
 41
1.351914556140632
 42
2.058639062643309
  0
ELLIPSE
  5
75B8
330
A
100
AcDbEntity
  8
0
  6
Continuous
 62
     7
370
     0
100
AcDbEllipse
 10
84.94069149571942
 20
-131.7389834810461
 30
0.0
 11
-1.199999999999978
 21
0.0
 31
0.0
210
0.0
220
0.0
230
1.0
 40
0.4082482904638631
 41
0.6835204118713929
 42
1.351914556140638
  0
ELLIPSE
  5
75B9
330
A
100
AcDbEntity
  8
0
  6
Continuous
 62
     7
370
     0
100
AcDbEllipse
 10
81.2347284843251
 20
-132.7073014520811
 30
0.0
 11
3.199999999999978
 21
0.0
 31
-2.000000000000000E-16
210
6.250000000000042E-17
220
0.0
230
1.0
 40
0.4082482904638631
 41
1.699868577502533
 42
1.719703456133431
  0
ELLIPSE
  5
75BA
330
A
100
AcDbEntity
  8
0
  6
Continuous
 62
     7
370
     0
100
AcDbEllipse
 10
81.2347284843251
 20
-132.7073014520811
 30
0.0
 11
3.199999999999978
 21
0.0
 31
0.0
210
0.0
220
0.0
230
1.0
 40
0.4082482904638628
 41
1.285676341390975
 42
1.699868577502533
  0
ELLIPSE
  5
75BB
330
A
100
AcDbEntity
  8
0
  6
Continuous
 62
     7
370
     0
100
AcDbEllipse
 10
80.58195572832801
 20
-130.930887098717
 30
0.0
 11
-1.199999999999978
 21
0.0
 31
0.0
210
0.0
220
0.0
230
1.0
 40
0.4082482904638631
 41
1.107148717794089
 42
1.719703456133409
  0
LINE
  5
75BC
330
A
100
AcDbEntity
  8
0
  6
Continuous
 62
     7
370
     0
100
AcDbLine
 10
74.72329853384576
 20
-130.2827162641916
 30
0.0
 11
77.52797900112466
 21
-127.9927042520636
 31
0.0
  0
ELLIPSE
  5
75BD
330
A
100
AcDbEntity
  8
0
  6
Continuous
 62
     7
370
     0
100
AcDbEllipse
 10
86.24352075392441
 20
-137.1986264236236
 30
0.0
 11
-7.199999999999982
 21
0.0
 31
0.0
210
0.0
220
0.0
230
1.0
 40
0.408248290463863
 41
1.351914556140632
 42
2.080792754020975
  0
LINE
  5
75BE
330
A
100
AcDbEntity
  8
0
  6
Continuous
 62
     9
370
     0
100
AcDbLine
 10
84.68012564407843
 20
-132.2171928907121
 30
0.0
 11
84.68012564407843
 21
-140.0678828816196
 31
0.0
  0
ELLIPSE
  5
75DC
330
A
100
AcDbEntity
  8
0
  6
Continuous
 62
     7
370
     0
100
AcDbEllipse
 10
84.94069149571942
 20
-139.5896734719535
 30
0.0
 11
-1.199999999999978
 21
0.0
 31
0.0
210
0.0
220
0.0
230
1.0
 40
0.4082482904638633
 41
0.5693263248894879
 42
1.351914556140632
  0
LINE
  5
75DD
330
A
100
AcDbEntity
  8
0
  6
Continuous
 62
     9
370
     0
100
AcDbLine
 10
83.92997431079374
 20
-132.0245816527094
 30
0.0
 11
83.92997431079374
 21
-139.8537601913266
 31
0.0
  0
ELLIPSE
  5
75DE
330
A
100
AcDbEntity
  8
0
  6
Continuous
 62
     7
370
     0
100
AcDbEllipse
 10
81.2347284843251
 20
-140.5579914429886
 30
0.0
 11
3.199999999999978
 21
0.0
 31
-2.000000000000000E-16
210
6.250000000000042E-17
220
0.0
230
1.0
 40
0.4082482904638631
 41
0.5693263248894893
 42
1.719703456133431
  0
LINE
  5
75DF
330
A
100
AcDbEntity
  8
0
  6
Continuous
 62
     9
370
     0
100
AcDbLine
 10
80.75998466178174
 20
-131.4153637405436
 30
0.0
 11
80.75998466178174
 21
-139.2660537314511
 31
0.0
  0
ELLIPSE
  5
75E0
330
A
100
AcDbEntity
  8
0
  6
Continuous
 62
     7
370
     0
100
AcDbEllipse
 10
80.58195572832801
 20
-138.7815770896245
 30
0.0
 11
-1.199999999999978
 21
0.0
 31
0.0
210
0.0
220
0.0
230
1.0
 40
0.4082482904638631
 41
1.107148717794085
 42
1.719703456133411
  0
LINE
  5
75E1
330
A
100
AcDbEntity
  8
0
  6
Continuous
 62
     7
370
     0
100
AcDbLine
 10
78.73033234952521
 20
-91.29947610469065
 30
0.0
 11
78.73033234952521
 21
-96.04640519930292
 31
0.0
  0
ELLIPSE
  5
75E2
330
A
100
AcDbEntity
  8
0
  6
Continuous
 62
     7
370
     0
100
AcDbEllipse
 10
84.25951862116113
 20
-89.87207792452568
 30
0.0
 11
-0.7156375242910464
 21
-3.936273911043147
 31
0.0
210
0.0
220
0.0
230
1.0
 40
0.3709866613470836
 41
2.654669306484243
 42
3.133609300136865
  0
LINE
  5
75E3
330
A
100
AcDbEntity
  8
0
  6
Continuous
 62
     9
370
     0
100
AcDbLine
 10
85.57527229774485
 20
-92.6966938837061
 30
0.0
 11
85.57527229774485
 21
-86.51751711521081
 31
0.0
  0
LINE
  5
75E4
330
A
100
AcDbEntity
  8
0
  6
Continuous
 62
     7
370
     0
100
AcDbLine
 10
72.73427589217005
 20
-137.7822862769489
 30
0.0
 11
72.67067616603782
 21
-138.0566532163334
 31
0.0
  0
ELLIPSE
  5
75E5
330
A
100
AcDbEntity
  8
0
  6
Continuous
 62
     7
370
     0
100
AcDbEllipse
 10
73.00599832712578
 20
-138.513160561636
 30
0.0
 11
-0.505964425626948
 21
0.6196773353931984
 31
0.0
210
6.000000000000022E-17
220
4.898979485566352E-17
230
1.0
 40
0.816496580927726
 41
5.497787143782129
 42
6.283185307179584
  0
LINE
  5
75E6
330
A
100
AcDbEntity
  8
0
  6
Continuous
 62
     9
370
     0
100
AcDbLine
 10
72.67067616603782
 20
-138.0566532163334
 30
0.0
 11
72.29045657432596
 21
-138.3671012129679
 31
0.0
  0
LINE
  5
75E7
330
A
100
AcDbEntity
  8
0
  6
Continuous
 62
     7
370
     0
100
AcDbLine
 10
72.67067616603782
 20
-154.6709041273235
 30
0.0
 11
72.29045657432596
 21
-154.981352123958
 31
0.0
  0
LINE
  5
75E8
330
A
100
AcDbEntity
  8
0
  6
Continuous
 62
     7
370
     0
100
AcDbLine
 10
72.67067616603782
 20
-154.6709041273235
 30
0.0
 11
72.67067616603782
 21
-138.0566532163334
 31
0.0
  0
ELLIPSE
  5
75E9
330
A
100
AcDbEntity
  8
0
  6
Continuous
 62
     7
370
     0
100
AcDbEllipse
 10
81.95027023712503
 20
-153.6668179859456
 30
0.0
 11
-9.599999999999996
 21
0.0
 31
0.0
210
0.0
220
0.0
230
1.0
 40
0.4082482904638633
 41
5.440142263820797
 42
6.024098668366971
  0
ELLIPSE
  5
75EA
330
A
100
AcDbEntity
  8
0
  6
Continuous
 62
     7
370
     0
100
AcDbEllipse
 10
84.25951862116113
 20
-89.87207792452568
 30
0.0
 11
-0.7156375242910464
 21
-3.936273911043147
 31
0.0
210
0.0
220
0.0
230
1.0
 40
0.3709866613470836
 41
3.133609300136865
 42
3.597256909137669
  0
LINE
  5
75EB
330
A
100
AcDbEntity
  8
0
  6
Continuous
 62
     7
370
     0
100
AcDbLine
 10
85.57527229774485
 20
-86.51751711521081
 30
0.0
 11
85.64422303710495
 21
-86.86215853653042
 31
0.0
  0
ELLIPSE
  5
75EC
330
A
100
AcDbEntity
  8
0
  6
Continuous
 62
     7
370
     0
100
AcDbEllipse
 10
81.2347284843251
 20
-89.25464522333797
 30
0.0
 11
-0.7999999999999674
 21
-3.919183588453057
 31
0.0
210
0.0
220
0.0
230
1.0
 40
0.4082482904638633
 41
3.1415926535898
 42
3.605240262590601
  0
ARC
  5
75ED
330
A
100
AcDbEntity
  8
0
  6
Continuous
 62
     7
370
     0
100
AcDbCircle
 10
85.53700633029916
 20
-115.0846053861291
 30
0.0
 40
17.05700319018227
100
AcDbArc
 50
265.8945212535019
 51
283.9281987896502
  0
LINE
  5
75EE
330
A
100
AcDbEntity
  8
0
  6
Continuous
 62
     7
370
     0
100
AcDbLine
 10
77.52797900112466
 20
-122.8219550904812
 30
0.0
 11
77.52797900112466
 21
-128.3985506663739
 31
0.0
  0
LINE
  5
75EF
330
A
100
AcDbEntity
  8
0
  6
Continuous
 62
     7
370
     0
100
AcDbLine
 10
83.71896438648292
 20
-131.9324657972866
 30
0.0
 11
84.31584734638045
 21
-132.0978393105153
 31
0.0
  0
ARC
  5
75F0
330
A
100
AcDbEntity
  8
0
  6
Continuous
 62
     7
370
     0
100
AcDbCircle
 10
81.0750247478353
 20
-137.7336443555982
 30
0.0
 40
6.375271717991807
100
AcDbArc
 50
65.49844408253468
 51
92.24042974811611
  0
LINE
  5
75F1
330
A
100
AcDbEntity
  8
0
  6
Continuous
 62
     7
370
     0
100
AcDbLine
 10
80.2462476368405
 20
-131.2624202365637
 30
0.0
 11
80.82579681424966
 21
-131.3632460230488
 31
0.0
  0
LINE
  5
75F2
330
A
100
AcDbEntity
  8
0
  6
Continuous
 62
     7
370
     0
100
AcDbLine
 10
77.52797900308087
 20
-128.3986391249096
 30
0.0
 11
77.52801863952692
 21
-128.4111424424042
 31
0.0
  0
ARC
  5
75F3
330
A
100
AcDbEntity
  8
0
  6
Continuous
 62
     7
370
     0
100
AcDbCircle
 10
80.89729958237803
 20
-127.9204150249748
 30
0.0
 40
3.404830020731636
100
AcDbArc
 50
188.286720142907
 51
258.9763463364455
  0
LINE
  5
75F4
330
A
100
AcDbEntity
  8
0
  6
Continuous
 62
     7
370
     0
100
AcDbLine
 10
76.33033234952529
 20
-113.2814080793823
 30
0.0
 11
76.33033234955724
 21
-113.7896708616097
 31
0.0
  0
LINE
  5
75F5
330
A
100
AcDbEntity
  8
0
  6
Continuous
 62
     7
370
     0
100
AcDbLine
 10
75.95262358552833
 20
-85.18940228622218
 30
0.0
 11
75.23708183272714
 21
-85.04334293755389
 31
0.0
  0
LINE
  5
75F6
330
A
100
AcDbEntity
  8
0
  6
Continuous
 62
     7
370
     0
100
AcDbLine
 10
75.23708183272714
 20
-85.04334293755377
 30
0.0
 11
74.52154007992846
 21
-84.89728358888598
 31
0.0
  0
LINE
  5
75F7
330
A
100
AcDbEntity
  8
0
  6
Continuous
 62
     7
370
     0
100
AcDbLine
 10
62.11287203512938
 20
-151.5294677302805
 30
0.0
 11
62.82841378792801
 21
-151.6755270789484
 31
0.0
  0
LINE
  5
75F8
330
A
100
AcDbEntity
  8
0
  6
Continuous
 62
     7
370
     0
100
AcDbLine
 10
62.82841378792801
 20
-151.6755270789483
 30
0.0
 11
63.54395554072931
 21
-151.8215864276167
 31
0.0
  0
LINE
  5
75F9
330
A
100
AcDbEntity
  8
0
  6
Continuous
 62
     7
370
     0
100
AcDbLine
 10
80.5837070911499
 20
-86.1347182482753
 30
0.0
 11
80.24587410232681
 21
-86.06575837820058
 31
0.0
  0
LINE
  5
75FA
330
A
100
AcDbEntity
  8
0
  6
Continuous
 62
     7
370
     0
100
AcDbLine
 10
67.83720605752313
 20
-152.6979425196206
 30
0.0
 11
68.552747810325
 21
-152.8440018682892
 31
0.0
  0
LINE
  5
75FB
330
A
100
AcDbEntity
  8
0
  6
Continuous
 62
     7
370
     0
100
AcDbLine
 10
68.552747810325
 20
-152.8440018682892
 30
0.0
 11
68.71274781032628
 21
-152.8766617315265
 31
0.0
  0
LINE
  5
75FC
330
A
100
AcDbEntity
  8
0
  6
Continuous
 62
     7
370
     0
100
AcDbLine
 10
74.87931095632712
 20
-83.8748681482154
 30
0.0
 11
72.01714394512743
 21
-83.29063075354333
 31
0.0
  0
LINE
  5
75FD
330
A
100
AcDbEntity
  8
0
  6
Continuous
 62
     7
370
     0
100
AcDbLine
 10
75.23708183272788
 20
-85.0433429375494
 30
0.0
 11
74.52154007992787
 21
-84.8972835888813
 31
0.0
  0
LINE
  5
75FE
330
A
100
AcDbEntity
  8
0
  6
Continuous
 62
     7
370
     0
100
AcDbLine
 10
62.11287203513046
 20
-151.5294677302683
 30
0.0
 11
62.82841378793051
 21
-151.6755270789363
 31
0.0
  0
LINE
  5
75FF
330
A
100
AcDbEntity
  8
0
  6
Continuous
 62
     7
370
     0
100
AcDbLine
 10
68.55274781032773
 20
-152.8440018682767
 30
0.0
 11
68.71274781032628
 21
-152.8766617315135
 31
0.0
  0
LINE
  5
7600
330
A
100
AcDbEntity
  8
0
  6
Continuous
 62
     7
370
     0
100
AcDbLine
 10
81.82005486102196
 20
-95.52177694761794
 30
0.0
 11
81.46228398462193
 21
-95.81389564495399
 31
0.0
  0
LINE
  5
7601
330
A
100
AcDbEntity
  8
0
  6
Continuous
 62
     7
370
     0
100
AcDbLine
 10
112.848779545262
 20
-156.0171880653413
 30
0.0
 11
113.2065504216618
 21
-155.7250693680051
 31
0.0
  0
LINE
  5
7602
330
A
100
AcDbEntity
  8
0
  6
Continuous
 62
     7
370
     0
100
AcDbLine
 10
81.82005486102236
 20
-95.5217769476178
 30
0.0
 11
81.4622839846225
 21
-95.8138956449539
 31
0.0
  0
LINE
  5
7603
330
A
100
AcDbEntity
  8
0
  6
Continuous
 62
     7
370
     0
100
AcDbLine
 10
81.4622839846225
 20
-95.8138956449539
 30
0.0
 11
81.10451310822226
 21
-96.1060143422902
 31
0.0
  0
LINE
  5
7604
330
A
100
AcDbEntity
  8
0
  6
Continuous
 62
     7
370
     0
100
AcDbLine
 10
112.4910086688625
 20
-156.3093067626891
 30
0.0
 11
112.8487795452682
 21
-156.0171880653484
 31
0.0
  0
LINE
  5
7605
330
A
100
AcDbEntity
  8
0
  6
Continuous
 62
     7
370
     0
100
AcDbLine
 10
112.8487795452682
 20
-156.0171880653484
 30
0.0
 11
113.2065504216628
 21
-155.7250693680166
 31
0.0
  0
LINE
  5
7606
330
A
100
AcDbEntity
  8
0
  6
Continuous
 62
     7
370
     0
100
AcDbLine
 10
114.1750743872751
 20
-157.349442173678
 30
0.0
 11
115.6061578928751
 21
-156.1809673843338
 31
0.0
  0
LINE
  5
7607
330
A
100
AcDbEntity
  8
0
  6
Continuous
 62
     7
370
     0
100
AcDbLine
 10
109.5240529940805
 20
-161.1469852390524
 30
0.0
 11
110.9551364996804
 21
-159.9785104497081
 31
0.0
  0
LINE
  5
7608
330
A
100
AcDbEntity
  8
0
  6
Continuous
 62
     7
370
     0
100
AcDbLine
 10
84.98679134843383
 20
-85.93804894369197
 30
0.0
 11
82.034728484325
 21
-85.3354616348849
 31
0.0
  0
LINE
  5
7609
330
A
100
AcDbEntity
  8
0
  6
Continuous
 62
     7
370
     0
100
AcDbLine
 10
85.64422305884864
 20
-92.7107683988796
 30
0.0
 11
85.64422305884864
 21
-86.86232856161799
 31
0.0
  0
LINE
  5
760A
330
A
100
AcDbEntity
  8
0
  6
Continuous
 62
     7
370
     0
100
AcDbLine
 10
-102.2423073698885
 20
-15.80000000074477
 30
0.0
 11
-102.2423073696326
 21
-11.80000000074477
 31
0.0
  0
LINE
  5
760B
330
A
100
AcDbEntity
  8
0
  6
Continuous
 62
     9
370
     0
100
AcDbLine
 10
-119.6923080897417
 20
-20.5999999999769
 30
0.0
 11
-121.2398186819781
 21
-20.5999999999769
 31
0.0
  0
ELLIPSE
  5
760C
330
A
100
AcDbEntity
  8
0
  6
Continuous
 62
     9
370
     0
100
AcDbEllipse
 10
-120.2850675507563
 20
-20.5999999999769
 30
0.0
 11
0.0
 21
1.0
 31
0.0
210
0.0
220
0.0
230
1.0
 40
0.9547511312217196
 41
0.0
 42
1.570796326794896
  0
LINE
  5
760D
330
A
100
AcDbEntity
  8
0
  6
Continuous
 62
     7
370
     0
100
AcDbLine
 10
-120.2850675507563
 20
-19.5999999999769
 30
0.0
 11
-119.6923080897417
 21
-19.5999999999769
 31
0.0
  0
LINE
  5
760E
330
A
100
AcDbEntity
  8
0
  6
Continuous
 62
     9
370
     0
100
AcDbLine
 10
-102.1447960575436
 20
-20.5999999999769
 30
0.0
 11
-102.6923080897419
 21
-20.5999999999769
 31
0.0
  0
LINE
  5
760F
330
A
100
AcDbEntity
  8
0
  6
Continuous
 62
     9
370
     0
100
AcDbLine
 10
-102.1447960575436
 20
-20.5999999999769
 30
0.0
 11
-102.1447960575436
 21
-29.3999999999769
 31
0.0
  0
LINE
  5
7610
330
A
100
AcDbEntity
  8
0
  6
Continuous
 62
     9
370
     0
100
AcDbLine
 10
-102.6923080897419
 20
-29.3999999999769
 30
0.0
 11
-102.1447960575436
 21
-29.3999999999769
 31
0.0
  0
LINE
  5
7611
330
A
100
AcDbEntity
  8
0
  6
Continuous
 62
     9
370
     0
100
AcDbLine
 10
-121.2398186819781
 20
-29.3999999999769
 30
0.0
 11
-119.6923080897417
 21
-29.3999999999769
 31
0.0
  0
LINE
  5
7612
330
A
100
AcDbEntity
  8
0
  6
Continuous
 62
     7
370
     0
100
AcDbLine
 10
-119.6923080897417
 20
-30.3999999999769
 30
0.0
 11
-120.2850675507563
 21
-30.3999999999769
 31
0.0
  0
ELLIPSE
  5
7613
330
A
100
AcDbEntity
  8
0
  6
Continuous
 62
     9
370
     0
100
AcDbEllipse
 10
-120.2850675507563
 20
-29.3999999999769
 30
0.0
 11
0.0
 21
1.0
 31
0.0
210
0.0
220
0.0
230
1.0
 40
0.9547511312217183
 41
1.570796326794896
 42
3.141592653589792
  0
ELLIPSE
  5
7614
330
A
100
AcDbEntity
  8
0
  6
Continuous
 62
     9
370
     0
100
AcDbEllipse
 10
-103.0995471887653
 20
-29.3999999999769
 30
0.0
 11
0.0
 21
-1.0
 31
0.0
210
0.0
220
0.0
230
1.0
 40
0.9547511312217196
 41
0.4406633410808133
 42
1.570796326794896
  0
ELLIPSE
  5
7615
330
A
100
AcDbEntity
  8
0
  6
Continuous
 62
     9
370
     0
100
AcDbEllipse
 10
-103.0995471887653
 20
-20.5999999999769
 30
0.0
 11
0.0
 21
-1.0
 31
0.0
210
0.0
220
0.0
230
1.0
 40
0.9547511312217203
 41
1.570796326794896
 42
2.700929312508979
  0
LINE
  5
7616
330
A
100
AcDbEntity
  8
0
  6
Continuous
 62
     9
370
     0
100
AcDbLine
 10
-121.2398186819781
 20
-20.5999999999769
 30
0.0
 11
-121.2398186819781
 21
-29.3999999999769
 31
0.0
  0
LINE
  5
7617
330
A
100
AcDbEntity
  8
0
  6
Continuous
 62
     9
370
     0
100
AcDbLine
 10
-102.0769227543762
 20
-20.5999999999769
 30
0.0
 11
-102.1447960575436
 21
-20.5999999999769
 31
0.0
  0
LINE
  5
7618
330
A
100
AcDbEntity
  8
0
  6
Continuous
 62
     9
370
     0
100
AcDbLine
 10
-102.1447960575436
 20
-29.3999999999769
 30
0.0
 11
-102.0769227543762
 21
-29.3999999999769
 31
0.0
  0
LINE
  5
7619
330
A
100
AcDbEntity
  8
0
  6
Continuous
 62
     9
370
     0
100
AcDbLine
 10
-121.3076919851455
 20
-29.3999999999769
 30
0.0
 11
-121.2398186819781
 21
-29.3999999999769
 31
0.0
  0
LINE
  5
761A
330
A
100
AcDbEntity
  8
0
  6
Continuous
 62
     7
370
     0
100
AcDbLine
 10
-120.2850675507563
 20
-30.3999999999769
 30
0.0
 11
-120.3076919851455
 21
-30.3999999999769
 31
0.0
  0
LINE
  5
761B
330
A
100
AcDbEntity
  8
0
  6
Continuous
 62
     9
370
     0
100
AcDbLine
 10
-121.2398186819781
 20
-20.5999999999769
 30
0.0
 11
-121.3076919851455
 21
-20.5999999999769
 31
0.0
  0
LINE
  5
761C
330
A
100
AcDbEntity
  8
0
  6
Continuous
 62
     7
370
     0
100
AcDbLine
 10
-120.3076919851455
 20
-19.5999999999769
 30
0.0
 11
-120.2850675507563
 21
-19.5999999999769
 31
0.0
  0
CIRCLE
  5
761D
330
A
100
AcDbEntity
  8
0
  6
Continuous
 62
     9
370
     0
100
AcDbCircle
 10
-95.692307369761
 20
0.0000000000230642
 30
0.0
 40
4.979829407782853
  0
ARC
  5
761E
330
A
100
AcDbEntity
  8
0
  6
Continuous
 62
     9
370
     0
100
AcDbCircle
 10
-95.692307369761
 20
0.0000000000387956
 30
0.0
 40
5.412842109675073
100
AcDbArc
 50
202.5224860109069
 51
0.0
  0
ARC
  5
761F
330
A
100
AcDbEntity
  8
0
  6
Continuous
 62
     9
370
     0
100
AcDbCircle
 10
-95.692307369761
 20
0.0000000000387956
 30
0.0
 40
5.412842109675036
100
AcDbArc
 50
0.0
 51
157.4775139890931
  0
CIRCLE
  5
7620
330
A
100
AcDbEntity
  8
0
  6
Continuous
 62
     9
370
     0
100
AcDbCircle
 10
-95.6923073697609
 20
-49.99999999997689
 30
0.0
 40
4.979829407782798
  0
ARC
  5
7621
330
A
100
AcDbEntity
  8
0
  6
Continuous
 62
     9
370
     0
100
AcDbCircle
 10
-95.6923073697609
 20
-49.99999999996069
 30
0.0
 40
5.412842109675018
100
AcDbArc
 50
202.5224743121954
 51
0.0
  0
ARC
  5
7622
330
A
100
AcDbEntity
  8
0
  6
Continuous
 62
     9
370
     0
100
AcDbCircle
 10
-95.6923073697609
 20
-49.99999999996069
 30
0.0
 40
5.412842109675047
100
AcDbArc
 50
0.0
 51
157.4775258644099
  0
LINE
  5
7623
330
A
100
AcDbEntity
  8
0
  6
Continuous
 62
     7
370
     0
100
AcDbLine
 10
-102.3923080897405
 20
-43.7499999999774
 30
0.0
 11
-102.3923080897405
 21
-56.2499999999774
 31
0.0
  0
LINE
  5
7624
330
A
100
AcDbEntity
  8
0
  6
Continuous
 62
     9
370
     0
100
AcDbLine
 10
-100.9423080897407
 20
-55.4128421096525
 30
0.0
 11
-100.9423080897407
 21
-44.58715789030228
 31
0.0
  0
LINE
  5
7625
330
A
100
AcDbEntity
  8
0
  6
Continuous
 62
     7
370
     0
100
AcDbLine
 10
-100.6923080897405
 20
-45.0201705921946
 30
0.0
 11
-100.6923080897405
 21
-54.97982940776018
 31
0.0
  0
LINE
  5
7626
330
A
100
AcDbEntity
  8
0
  6
Continuous
 62
     7
370
     0
100
AcDbLine
 10
-102.3923080897405
 20
6.250000045248896
 30
0.0
 11
-102.3923080897405
 21
-6.249999954751103
 31
0.0
  0
LINE
  5
7627
330
A
100
AcDbEntity
  8
0
  6
Continuous
 62
     9
370
     0
100
AcDbLine
 10
-100.9423080897405
 20
-5.412842064426172
 30
0.0
 11
-100.9423080897405
 21
5.412842154923936
 31
0.0
  0
LINE
  5
7628
330
A
100
AcDbEntity
  8
0
  6
Continuous
 62
     7
370
     0
100
AcDbLine
 10
-100.6923080897405
 20
4.979829453031754
 30
0.0
 11
-100.6923080897405
 21
-4.979829362533905
 31
0.0
  0
LINE
  5
7629
330
A
100
AcDbEntity
  8
0
  6
Continuous
 62
     9
370
     0
100
AcDbLine
 10
-106.6923080897419
 20
8.649999999977865
 30
0.0
 11
-107.1923080897419
 21
8.649999999977865
 31
0.0
  0
LINE
  5
762A
330
A
100
AcDbEntity
  8
0
  6
Continuous
 62
     9
370
     0
100
AcDbLine
 10
-106.6923080897419
 20
-58.65000000002209
 30
0.0
 11
-107.1923080897419
 21
-58.65000000002209
 31
0.0
  0
LINE
  5
762B
330
A
100
AcDbEntity
  8
0
  6
Continuous
 62
     7
370
     0
100
AcDbLine
 10
-107.1923080897419
 20
8.649999999977865
 30
0.0
 11
-107.1923080897419
 21
-58.65000000002209
 31
0.0
  0
LINE
  5
762C
330
A
100
AcDbEntity
  8
0
  6
Continuous
 62
     7
370
     0
100
AcDbLine
 10
-106.6923080897419
 20
13.14999999997789
 30
0.0
 11
-107.1923080897419
 21
13.14999999997789
 31
0.0
  0
LINE
  5
762D
330
A
100
AcDbEntity
  8
0
  6
Continuous
 62
     7
370
     0
100
AcDbLine
 10
-107.1923080897419
 20
13.14999999997789
 30
0.0
 11
-107.1923080897419
 21
8.649999999977865
 31
0.0
  0
LINE
  5
762E
330
A
100
AcDbEntity
  8
0
  6
Continuous
 62
     7
370
     0
100
AcDbLine
 10
-106.6923080897419
 20
-63.15000000002209
 30
0.0
 11
-107.1923080897419
 21
-63.15000000002209
 31
0.0
  0
LINE
  5
762F
330
A
100
AcDbEntity
  8
0
  6
Continuous
 62
     7
370
     0
100
AcDbLine
 10
-107.1923080897419
 20
-58.65000000002209
 30
0.0
 11
-107.1923080897419
 21
-63.15000000002209
 31
0.0
  0
LINE
  5
7630
330
A
100
AcDbEntity
  8
0
  6
Continuous
 62
     9
370
     0
100
AcDbLine
 10
-108.1923080897427
 20
8.649999999977865
 30
0.0
 11
-107.192308089741
 21
8.649999999977865
 31
0.0
  0
LINE
  5
7631
330
A
100
AcDbEntity
  8
0
  6
Continuous
 62
     9
370
     0
100
AcDbLine
 10
-107.192308089741
 20
8.649999999977865
 30
0.0
 11
-106.6923080897419
 21
8.649999999977865
 31
0.0
  0
LINE
  5
7632
330
A
100
AcDbEntity
  8
0
  6
Continuous
 62
     7
370
     0
100
AcDbLine
 10
-108.1923080897427
 20
13.14999999997889
 30
0.0
 11
-107.192308089741
 21
13.14999999997889
 31
0.0
  0
LINE
  5
7633
330
A
100
AcDbEntity
  8
0
  6
Continuous
 62
     7
370
     0
100
AcDbLine
 10
-107.192308089741
 20
13.14999999997889
 30
0.0
 11
-106.6923080897405
 21
13.14999999997889
 31
0.0
  0
LINE
  5
7634
330
A
100
AcDbEntity
  8
0
  6
Continuous
 62
     7
370
     0
100
AcDbLine
 10
-108.1923080897427
 20
8.649999999977865
 30
0.0
 11
-108.1923080897427
 21
13.14999999998389
 31
0.0
  0
LINE
  5
7635
330
A
100
AcDbEntity
  8
0
  6
Continuous
 62
     9
370
     0
100
AcDbLine
 10
-108.1923080897427
 20
-58.65000000003718
 30
0.0
 11
-107.192308089741
 21
-58.65000000003718
 31
0.0
  0
LINE
  5
7636
330
A
100
AcDbEntity
  8
0
  6
Continuous
 62
     9
370
     0
100
AcDbLine
 10
-107.192308089741
 20
-58.65000000003718
 30
0.0
 11
-106.6923080897419
 21
-58.65000000003718
 31
0.0
  0
LINE
  5
7637
330
A
100
AcDbEntity
  8
0
  6
Continuous
 62
     7
370
     0
100
AcDbLine
 10
-108.1923080897427
 20
-58.65000000003718
 30
0.0
 11
-108.1923080897427
 21
8.649999999977865
 31
0.0
  0
LINE
  5
7638
330
A
100
AcDbEntity
  8
0
  6
Continuous
 62
     7
370
     0
100
AcDbLine
 10
-108.1923080897427
 20
-63.15000000003817
 30
0.0
 11
-107.192308089741
 21
-63.15000000003817
 31
0.0
  0
LINE
  5
7639
330
A
100
AcDbEntity
  8
0
  6
Continuous
 62
     7
370
     0
100
AcDbLine
 10
-107.192308089741
 20
-63.15000000003817
 30
0.0
 11
-106.6923080897405
 21
-63.15000000003817
 31
0.0
  0
LINE
  5
763A
330
A
100
AcDbEntity
  8
0
  6
Continuous
 62
     7
370
     0
100
AcDbLine
 10
-108.1923080897427
 20
-63.15000000004108
 30
0.0
 11
-108.1923080897427
 21
-58.65000000003718
 31
0.0
  0
LINE
  5
763B
330
A
100
AcDbEntity
  8
0
  6
Continuous
 62
     7
370
     0
100
AcDbLine
 10
-115.6923080897417
 20
13.15000000004421
 30
0.0
 11
-115.192308089741
 21
13.15000000004421
 31
0.0
  0
LINE
  5
763C
330
A
100
AcDbEntity
  8
0
  6
Continuous
 62
     7
370
     0
100
AcDbLine
 10
-115.192308089741
 20
8.650000000044201
 30
0.0
 11
-115.192308089741
 21
13.15000000004421
 31
0.0
  0
LINE
  5
763D
330
A
100
AcDbEntity
  8
0
  6
Continuous
 62
     9
370
     0
100
AcDbLine
 10
-115.6923080897417
 20
-58.64999999995567
 30
0.0
 11
-115.192308089741
 21
-58.64999999995567
 31
0.0
  0
LINE
  5
763E
330
A
100
AcDbEntity
  8
0
  6
Continuous
 62
     9
370
     0
100
AcDbLine
 10
-115.6923080897417
 20
8.650000000044201
 30
0.0
 11
-115.192308089741
 21
8.650000000044201
 31
0.0
  0
LINE
  5
763F
330
A
100
AcDbEntity
  8
0
  6
Continuous
 62
     7
370
     0
100
AcDbLine
 10
-115.192308089741
 20
-58.64999999995567
 30
0.0
 11
-115.192308089741
 21
8.650000000044201
 31
0.0
  0
LINE
  5
7640
330
A
100
AcDbEntity
  8
0
  6
Continuous
 62
     7
370
     0
100
AcDbLine
 10
-115.6923080897417
 20
-63.14999999995581
 30
0.0
 11
-115.192308089741
 21
-63.14999999995581
 31
0.0
  0
LINE
  5
7641
330
A
100
AcDbEntity
  8
0
  6
Continuous
 62
     7
370
     0
100
AcDbLine
 10
-115.192308089741
 20
-63.14999999995581
 30
0.0
 11
-115.192308089741
 21
-58.64999999995567
 31
0.0
  0
LINE
  5
7642
330
A
100
AcDbEntity
  8
0
  6
Continuous
 62
     9
370
     0
100
AcDbLine
 10
-115.6923080897417
 20
8.650000000044201
 30
0.0
 11
-115.192308089741
 21
8.650000000044201
 31
0.0
  0
LINE
  5
7643
330
A
100
AcDbEntity
  8
0
  6
Continuous
 62
     9
370
     0
100
AcDbLine
 10
-115.192308089741
 20
8.650000000044201
 30
0.0
 11
-114.1923080897417
 21
8.650000000044201
 31
0.0
  0
LINE
  5
7644
330
A
100
AcDbEntity
  8
0
  6
Continuous
 62
     7
370
     0
100
AcDbLine
 10
-115.6923080897417
 20
13.15000000004421
 30
0.0
 11
-115.192308089741
 21
13.15000000004421
 31
0.0
  0
LINE
  5
7645
330
A
100
AcDbEntity
  8
0
  6
Continuous
 62
     7
370
     0
100
AcDbLine
 10
-115.192308089741
 20
13.15000000004421
 30
0.0
 11
-114.1923080897417
 21
13.15000000004421
 31
0.0
  0
LINE
  5
7646
330
A
100
AcDbEntity
  8
0
  6
Continuous
 62
     7
370
     0
100
AcDbLine
 10
-114.1923080897417
 20
8.650000000044201
 30
0.0
 11
-114.1923080897417
 21
13.15000000004421
 31
0.0
  0
LINE
  5
7647
330
A
100
AcDbEntity
  8
0
  6
Continuous
 62
     9
370
     0
100
AcDbLine
 10
-115.6923080897417
 20
-58.64999999995567
 30
0.0
 11
-115.192308089741
 21
-58.64999999995567
 31
0.0
  0
LINE
  5
7648
330
A
100
AcDbEntity
  8
0
  6
Continuous
 62
     9
370
     0
100
AcDbLine
 10
-115.192308089741
 20
-58.64999999995567
 30
0.0
 11
-114.1923080897417
 21
-58.64999999995567
 31
0.0
  0
LINE
  5
7649
330
A
100
AcDbEntity
  8
0
  6
Continuous
 62
     7
370
     0
100
AcDbLine
 10
-114.1923080897417
 20
-58.64999999995567
 30
0.0
 11
-114.1923080897417
 21
8.650000000044201
 31
0.0
  0
LINE
  5
764A
330
A
100
AcDbEntity
  8
0
  6
Continuous
 62
     7
370
     0
100
AcDbLine
 10
-115.6923080897417
 20
-63.14999999995581
 30
0.0
 11
-115.192308089741
 21
-63.14999999995581
 31
0.0
  0
LINE
  5
764B
330
A
100
AcDbEntity
  8
0
  6
Continuous
 62
     7
370
     0
100
AcDbLine
 10
-115.192308089741
 20
-63.14999999995581
 30
0.0
 11
-114.1923080897417
 21
-63.14999999995581
 31
0.0
  0
LINE
  5
764C
330
A
100
AcDbEntity
  8
0
  6
Continuous
 62
     7
370
     0
100
AcDbLine
 10
-114.1923080897417
 20
-63.14999999995581
 30
0.0
 11
-114.1923080897417
 21
-58.64999999995567
 31
0.0
  0
LINE
  5
764D
330
A
100
AcDbEntity
  8
0
  6
Continuous
 62
     9
370
     0
100
AcDbLine
 10
-106.6923080897419
 20
-59.99999999997408
 30
0.0
 11
-102.6923080897419
 21
-59.99999999997408
 31
0.0
  0
LINE
  5
764E
330
A
100
AcDbEntity
  8
0
  6
Continuous
 62
     7
370
     0
100
AcDbLine
 10
-102.6923080897419
 20
-64.999999999972
 30
0.0
 11
-106.6923080897419
 21
-64.999999999972
 31
0.0
  0
LINE
  5
764F
330
A
100
AcDbEntity
  8
0
  6
Continuous
 62
     7
370
     0
100
AcDbLine
 10
-106.6923080897419
 20
-64.99999999997416
 30
0.0
 11
-106.6923080897419
 21
-59.99999999997408
 31
0.0
  0
LINE
  5
7650
330
A
100
AcDbEntity
  8
0
  6
Continuous
 62
     7
370
     0
100
AcDbLine
 10
-102.6923080897419
 20
-59.99999999997408
 30
0.0
 11
-102.6923080897419
 21
-64.99999999997416
 31
0.0
  0
LINE
  5
7651
330
A
100
AcDbEntity
  8
0
  6
Continuous
 62
     7
370
     0
100
AcDbLine
 10
-106.6923080897419
 20
9.999999999995708
 30
0.0
 11
-106.6923080897419
 21
-59.99999999997408
 31
0.0
  0
LINE
  5
7652
330
A
100
AcDbEntity
  8
0
  6
Continuous
 62
     9
370
     0
100
AcDbLine
 10
-102.6923080897419
 20
9.999999999995708
 30
0.0
 11
-106.6923080897419
 21
9.999999999995708
 31
0.0
  0
LINE
  5
7653
330
A
100
AcDbEntity
  8
0
  6
Continuous
 62
     7
370
     0
100
AcDbLine
 10
-102.6923080897419
 20
-59.99999999997408
 30
0.0
 11
-102.6923080897419
 21
9.999999999995708
 31
0.0
  0
LINE
  5
7654
330
A
100
AcDbEntity
  8
0
  6
Continuous
 62
     7
370
     0
100
AcDbLine
 10
-106.6923080897419
 20
14.99999999999356
 30
0.0
 11
-102.6923080897419
 21
14.99999999999356
 31
0.0
  0
LINE
  5
7655
330
A
100
AcDbEntity
  8
0
  6
Continuous
 62
     7
370
     0
100
AcDbLine
 10
-106.6923080897419
 20
9.999999999995708
 30
0.0
 11
-106.6923080897419
 21
14.99999999999571
 31
0.0
  0
LINE
  5
7656
330
A
100
AcDbEntity
  8
0
  6
Continuous
 62
     7
370
     0
100
AcDbLine
 10
-102.6923080897419
 20
14.99999999999571
 30
0.0
 11
-102.6923080897419
 21
9.999999999995708
 31
0.0
  0
LINE
  5
7657
330
A
100
AcDbEntity
  8
0
  6
Continuous
 62
     9
370
     0
100
AcDbLine
 10
-119.6923080897417
 20
-59.99999999997848
 30
0.0
 11
-115.6923080897417
 21
-59.99999999997848
 31
0.0
  0
LINE
  5
7658
330
A
100
AcDbEntity
  8
0
  6
Continuous
 62
     7
370
     0
100
AcDbLine
 10
-115.6923080897417
 20
-64.99999999997839
 30
0.0
 11
-119.6923080897417
 21
-64.99999999997839
 31
0.0
  0
LINE
  5
7659
330
A
100
AcDbEntity
  8
0
  6
Continuous
 62
     7
370
     0
100
AcDbLine
 10
-119.6923080897417
 20
-64.99999999997839
 30
0.0
 11
-119.6923080897417
 21
-59.99999999997848
 31
0.0
  0
LINE
  5
765A
330
A
100
AcDbEntity
  8
0
  6
Continuous
 62
     7
370
     0
100
AcDbLine
 10
-115.6923080897417
 20
-59.99999999997848
 30
0.0
 11
-115.6923080897417
 21
-64.99999999997831
 31
0.0
  0
LINE
  5
765B
330
A
100
AcDbEntity
  8
0
  6
Continuous
 62
     9
370
     0
100
AcDbLine
 10
-115.6923080897417
 20
10.00000000002157
 30
0.0
 11
-119.6923080897417
 21
10.00000000002157
 31
0.0
  0
LINE
  5
765C
330
A
100
AcDbEntity
  8
0
  6
Continuous
 62
     7
370
     0
100
AcDbLine
 10
-119.6923080897417
 20
10.00000000002157
 30
0.0
 11
-119.6923080897417
 21
-59.99999999997848
 31
0.0
  0
LINE
  5
765D
330
A
100
AcDbEntity
  8
0
  6
Continuous
 62
     7
370
     0
100
AcDbLine
 10
-115.6923080897417
 20
-59.99999999997848
 30
0.0
 11
-115.6923080897417
 21
10.00000000002157
 31
0.0
  0
LINE
  5
765E
330
A
100
AcDbEntity
  8
0
  6
Continuous
 62
     7
370
     0
100
AcDbLine
 10
-119.6923080897417
 20
15.00000000002156
 30
0.0
 11
-115.6923080897417
 21
15.00000000002156
 31
0.0
  0
LINE
  5
765F
330
A
100
AcDbEntity
  8
0
  6
Continuous
 62
     7
370
     0
100
AcDbLine
 10
-119.6923080897417
 20
10.00000000002157
 30
0.0
 11
-119.6923080897417
 21
15.00000000002141
 31
0.0
  0
LINE
  5
7660
330
A
100
AcDbEntity
  8
0
  6
Continuous
 62
     7
370
     0
100
AcDbLine
 10
-115.6923080897417
 20
15.0000000000215
 30
0.0
 11
-115.6923080897417
 21
10.00000000002157
 31
0.0
  0
LINE
  5
7661
330
A
100
AcDbEntity
  8
0
  6
Continuous
 62
     9
370
     0
100
AcDbLine
 10
-108.1923080897427
 20
0.0000000000215152
 30
0.0
 11
-114.1923080897417
 21
0.0000000000215152
 31
0.0
  0
LINE
  5
7662
330
A
100
AcDbEntity
  8
0
  6
Continuous
 62
     9
370
     0
100
AcDbLine
 10
-108.1923080897427
 20
-49.99999999997839
 30
0.0
 11
-114.1923080897417
 21
-49.99999999997839
 31
0.0
  0
LINE
  5
7663
330
A
100
AcDbEntity
  8
0
  6
Continuous
 62
     9
370
     0
100
AcDbLine
 10
-120.4240542316464
 20
-30.4999999999769
 30
0.0
 11
-120.4240542316464
 21
-41.24999999997689
 31
0.0
  0
LINE
  5
7664
330
A
100
AcDbEntity
  8
0
  6
Continuous
 62
     7
370
     0
100
AcDbLine
 10
-120.4240542316464
 20
-30.4999999999769
 30
0.0
 11
-119.6923080897417
 21
-30.4999999999769
 31
0.0
  0
LINE
  5
7665
330
A
100
AcDbEntity
  8
0
  6
Continuous
 62
     7
370
     0
100
AcDbLine
 10
-120.4240542316464
 20
-41.24999999997689
 30
0.0
 11
-119.6923080897417
 21
-41.24999999997689
 31
0.0
  0
LINE
  5
7666
330
A
100
AcDbEntity
  8
0
  6
Continuous
 62
     9
370
     0
100
AcDbLine
 10
-120.4240542316464
 20
-8.749999999976893
 30
0.0
 11
-120.4240542316464
 21
-19.49999999997689
 31
0.0
  0
LINE
  5
7667
330
A
100
AcDbEntity
  8
0
  6
Continuous
 62
     7
370
     0
100
AcDbLine
 10
-119.6923080897417
 20
-19.49999999997689
 30
0.0
 11
-120.4240542316464
 21
-19.49999999997689
 31
0.0
  0
LINE
  5
7668
330
A
100
AcDbEntity
  8
0
  6
Continuous
 62
     7
370
     0
100
AcDbLine
 10
-120.4240542316464
 20
-8.749999999976893
 30
0.0
 11
-119.6923080897417
 21
-8.749999999976893
 31
0.0
  0
LINE
  5
7669
330
A
100
AcDbEntity
  8
0
  6
Continuous
 62
     7
370
     0
100
AcDbLine
 10
-120.4687630879987
 20
-41.24999999997689
 30
0.0
 11
-120.4240542316464
 21
-41.24999999997689
 31
0.0
  0
LINE
  5
766A
330
A
100
AcDbEntity
  8
0
  6
Continuous
 62
     7
370
     0
100
AcDbLine
 10
-120.4687630879987
 20
-30.4999999999769
 30
0.0
 11
-120.4240542316464
 21
-30.4999999999769
 31
0.0
  0
LINE
  5
766B
330
A
100
AcDbEntity
  8
0
  6
Continuous
 62
     7
370
     0
100
AcDbLine
 10
-120.4687630879987
 20
-8.749999999976893
 30
0.0
 11
-120.4240542316464
 21
-8.749999999976893
 31
0.0
  0
LINE
  5
766C
330
A
100
AcDbEntity
  8
0
  6
Continuous
 62
     7
370
     0
100
AcDbLine
 10
-120.4240542316464
 20
-19.49999999997689
 30
0.0
 11
-120.4687630879987
 21
-19.49999999997689
 31
0.0
  0
LINE
  5
766D
330
A
100
AcDbEntity
  8
0
  6
Continuous
 62
     7
370
     0
100
AcDbLine
 10
-120.6923073697609
 20
-30.4999999999769
 30
0.0
 11
-120.6923073697609
 21
-41.24999999997689
 31
0.0
  0
LINE
  5
766E
330
A
100
AcDbEntity
  8
0
  6
Continuous
 62
     7
370
     0
100
AcDbLine
 10
-120.6923073697609
 20
-30.4999999999769
 30
0.0
 11
-120.4687630879987
 21
-30.4999999999769
 31
0.0
  0
LINE
  5
766F
330
A
100
AcDbEntity
  8
0
  6
Continuous
 62
     7
370
     0
100
AcDbLine
 10
-120.6923073697609
 20
-41.24999999997689
 30
0.0
 11
-120.4687630879987
 21
-41.24999999997689
 31
0.0
  0
LINE
  5
7670
330
A
100
AcDbEntity
  8
0
  6
Continuous
 62
     7
370
     0
100
AcDbLine
 10
-120.6923073697609
 20
-8.749999999976893
 30
0.0
 11
-120.6923073697609
 21
-19.49999999997689
 31
0.0
  0
LINE
  5
7671
330
A
100
AcDbEntity
  8
0
  6
Continuous
 62
     7
370
     0
100
AcDbLine
 10
-120.4687630879987
 20
-19.49999999997689
 30
0.0
 11
-120.6923073697609
 21
-19.49999999997689
 31
0.0
  0
LINE
  5
7672
330
A
100
AcDbEntity
  8
0
  6
Continuous
 62
     7
370
     0
100
AcDbLine
 10
-120.6923073697609
 20
-8.749999999976893
 30
0.0
 11
-120.4687630879987
 21
-8.749999999976893
 31
0.0
  0
LINE
  5
7673
330
A
100
AcDbEntity
  8
0
  6
Continuous
 62
     7
370
     0
100
AcDbLine
 10
-120.6923073697609
 20
-19.49999999997689
 30
0.0
 11
-120.6923073697609
 21
-19.67692307689998
 31
0.0
  0
LINE
  5
7674
330
A
100
AcDbEntity
  8
0
  6
Continuous
 62
     7
370
     0
100
AcDbLine
 10
-120.6923073697609
 20
-30.32307692305389
 30
0.0
 11
-120.6923073697609
 21
-30.4999999999769
 31
0.0
  0
LINE
  5
7675
330
A
100
AcDbEntity
  8
0
  6
Continuous
 62
     9
370
     0
100
AcDbLine
 10
-119.6923080897417
 20
-42.24999999997689
 30
0.0
 11
-120.6923073697609
 21
-42.24999999997689
 31
0.0
  0
LINE
  5
7676
330
A
100
AcDbEntity
  8
0
  6
Continuous
 62
     7
370
     0
100
AcDbLine
 10
-120.6923073697609
 20
-41.24999999997689
 30
0.0
 11
-120.6923073697609
 21
-42.24999999997689
 31
0.0
  0
LINE
  5
7677
330
A
100
AcDbEntity
  8
0
  6
Continuous
 62
     9
370
     0
100
AcDbLine
 10
-120.6923073697609
 20
-7.749999999976893
 30
0.0
 11
-119.6923080897417
 21
-7.749999999976893
 31
0.0
  0
LINE
  5
7678
330
A
100
AcDbEntity
  8
0
  6
Continuous
 62
     7
370
     0
100
AcDbLine
 10
-120.6923073697609
 20
-7.749999999976893
 30
0.0
 11
-120.6923073697609
 21
-8.749999999976893
 31
0.0
  0
LINE
  5
7679
330
A
100
AcDbEntity
  8
0
  6
Continuous
 62
     7
370
     0
100
AcDbLine
 10
-119.6923080897417
 20
-64.9999999999769
 30
0.0
 11
-120.6923073697609
 21
-64.9999999999769
 31
0.0
  0
LINE
  5
767A
330
A
100
AcDbEntity
  8
0
  6
Continuous
 62
     7
370
     0
100
AcDbLine
 10
-120.6923073697609
 20
-64.9999999999769
 30
0.0
 11
-120.6923073697609
 21
-42.24999999997689
 31
0.0
  0
LINE
  5
767B
330
A
100
AcDbEntity
  8
0
  6
Continuous
 62
     7
370
     0
100
AcDbLine
 10
-102.692307369761
 20
15.00000000002308
 30
0.0
 11
-85.6923073697609
 21
15.00000000002308
 31
0.0
  0
ARC
  5
767C
330
A
100
AcDbEntity
  8
0
  6
Continuous
 62
     7
370
     0
100
AcDbCircle
 10
-85.6923073697609
 20
10.00000000002308
 30
0.0
 40
5.000000000000023
100
AcDbArc
 50
35.99370854660528
 51
90.0
  0
LINE
  5
767D
330
A
100
AcDbEntity
  8
0
  6
Continuous
 62
     9
370
     0
100
AcDbLine
 10
-81.64689970884228
 20
-62.93848206678979
 30
0.0
 11
-81.64689970884228
 21
12.93848206683594
 31
0.0
  0
ARC
  5
767E
330
A
100
AcDbEntity
  8
0
  6
Continuous
 62
     7
370
     0
100
AcDbCircle
 10
-85.6923073697609
 20
-59.99999999997689
 30
0.0
 40
5.000000000000004
100
AcDbArc
 50
270.0
 51
324.0062914533954
  0
ARC
  5
767F
330
A
100
AcDbEntity
  8
0
  6
Continuous
 62
     7
370
     0
100
AcDbCircle
 10
-95.6923073697609
 20
-49.99999999997689
 30
0.0
 40
6.250000000000017
100
AcDbArc
 50
180.0
 51
143.1301133546384
  0
ARC
  5
7680
330
A
100
AcDbEntity
  8
0
  6
Continuous
 62
     7
370
     0
100
AcDbCircle
 10
-95.6923073697609
 20
0.0000000000230642
 30
0.0
 40
6.250000000000007
100
AcDbArc
 50
216.8698866504026
 51
143.1301133495974
  0
LINE
  5
7681
330
A
100
AcDbEntity
  8
0
  6
Continuous
 62
     7
370
     0
100
AcDbLine
 10
-102.6923073697609
 20
-64.9999999999769
 30
0.0
 11
-85.6923073697609
 21
-64.9999999999769
 31
0.0
  0
LINE
  5
7682
330
A
100
AcDbEntity
  8
0
  6
Continuous
 62
     7
370
     0
100
AcDbLine
 10
-115.6923080897417
 20
-64.9999999999769
 30
0.0
 11
-106.6923080897419
 21
-64.9999999999769
 31
0.0
  0
LINE
  5
7683
330
A
100
AcDbEntity
  8
0
  6
Continuous
 62
     7
370
     0
100
AcDbLine
 10
-106.6923080897419
 20
15.00000000002308
 30
0.0
 11
-115.6923080897417
 21
15.00000000002308
 31
0.0
  0
LINE
  5
7684
330
A
100
AcDbEntity
  8
0
  6
Continuous
 62
     7
370
     0
100
AcDbLine
 10
-120.6923073697609
 20
15.00000000002308
 30
0.0
 11
-119.6923080897417
 21
15.00000000002308
 31
0.0
  0
LINE
  5
7685
330
A
100
AcDbEntity
  8
0
  6
Continuous
 62
     7
370
     0
100
AcDbLine
 10
-120.6923073697609
 20
15.00000000002308
 30
0.0
 11
-120.6923073697609
 21
-7.749999999976893
 31
0.0
  0
LINE
  5
7686
330
A
100
AcDbEntity
  8
0
  6
Continuous
 62
     7
370
     0
100
AcDbLine
 10
-80.6923073697609
 20
10.00000000002308
 30
0.0
 11
-80.6923073697609
 21
-59.99999999997689
 31
0.0
  0
ARC
  5
7687
330
A
100
AcDbEntity
  8
0
  6
Continuous
 62
     7
370
     0
100
AcDbCircle
 10
-85.69231754085553
 20
9.999996695851465
 30
0.0
 40
5.000010171095675
100
AcDbArc
 50
0.000037862939973
 51
35.99367068366374
  0
ARC
  5
7688
330
A
100
AcDbEntity
  8
0
  6
Continuous
 62
     7
370
     0
100
AcDbCircle
 10
-85.69231772680621
 20
-59.99999663539759
 30
0.0
 40
5.000010357046412
100
AcDbArc
 50
324.0063300085554
 51
359.9999614448411
  0
LINE
  5
7689
330
A
100
AcDbEntity
  8
0
  6
Continuous
 62
     9
370
     0
100
AcDbLine
 10
-102.6923073697609
 20
-16.30000000071609
 30
0.0
 11
-102.4923073699207
 21
-16.30000000072888
 31
0.0
  0
LINE
  5
768A
330
A
100
AcDbEntity
  8
0
  6
Continuous
 62
     9
370
     0
100
AcDbLine
 10
-102.4923073696007
 20
-11.30000000072888
 30
0.0
 11
-102.6923073697609
 21
-11.30000000071609
 31
0.0
  0
LINE
  5
768B
330
A
100
AcDbEntity
  8
0
  6
Continuous
 62
     7
370
     0
100
AcDbLine
 10
-102.6923073697609
 20
-16.70000000034528
 30
0.0
 11
-102.4923073699207
 21
-16.3000000007288
 31
0.0
  0
LINE
  5
768C
330
A
100
AcDbEntity
  8
0
  6
Continuous
 62
     7
370
     0
100
AcDbLine
 10
-102.4923073699207
 20
-16.3000000007288
 30
0.0
 11
-102.2423073698885
 21
-15.80000000074477
 31
0.0
  0
LINE
  5
768D
330
A
100
AcDbEntity
  8
0
  6
Continuous
 62
     7
370
     0
100
AcDbLine
 10
-102.2423073696326
 20
-11.80000000074477
 30
0.0
 11
-102.4923073696007
 21
-11.30000000072888
 31
0.0
  0
LINE
  5
768E
330
A
100
AcDbEntity
  8
0
  6
Continuous
 62
     7
370
     0
100
AcDbLine
 10
-102.4923073696007
 20
-11.30000000072888
 30
0.0
 11
-102.6923073697609
 21
-10.90000000034439
 31
0.0
  0
ARC
  5
768F
330
A
100
AcDbEntity
  8
0
  6
Continuous
 62
     7
370
     0
100
AcDbCircle
 10
-103.0769227543762
 20
-20.5999999999769
 30
0.0
 40
1.0
100
AcDbArc
 50
0.0
 51
67.38017974148022
  0
LINE
  5
7690
330
A
100
AcDbEntity
  8
0
  6
Continuous
 62
     7
370
     0
100
AcDbLine
 10
-102.0769227543762
 20
-29.3999999999769
 30
0.0
 11
-102.0769227543762
 21
-20.5999999999769
 31
0.0
  0
ARC
  5
7691
330
A
100
AcDbEntity
  8
0
  6
Continuous
 62
     7
370
     0
100
AcDbCircle
 10
-103.0769227543762
 20
-29.3999999999769
 30
0.0
 40
1.000000000000012
100
AcDbArc
 50
292.6198202585198
 51
359.9999999999993
  0
ARC
  5
7692
330
A
100
AcDbEntity
  8
0
  6
Continuous
 62
     7
370
     0
100
AcDbCircle
 10
-120.3076919851455
 20
-29.3999999999769
 30
0.0
 40
1.0
100
AcDbArc
 50
180.0000000000008
 51
270.0
  0
LINE
  5
7693
330
A
100
AcDbEntity
  8
0
  6
Continuous
 62
     7
370
     0
100
AcDbLine
 10
-121.3076919851455
 20
-20.5999999999769
 30
0.0
 11
-121.3076919851455
 21
-29.3999999999769
 31
0.0
  0
ARC
  5
7694
330
A
100
AcDbEntity
  8
0
  6
Continuous
 62
     7
370
     0
100
AcDbCircle
 10
-120.3076919851455
 20
-20.5999999999769
 30
0.0
 40
1.0
100
AcDbArc
 50
90.0
 51
180.0
  0
LINE
  5
7695
330
A
100
AcDbEntity
  8
0
  6
Continuous
 62
     7
370
     0
100
AcDbLine
 10
-102.3923080897405
 20
-56.2499999999774
 30
0.0
 11
-100.9423080897407
 21
-55.4128421096525
 31
0.0
  0
LINE
  5
7696
330
A
100
AcDbEntity
  8
0
  6
Continuous
 62
     7
370
     0
100
AcDbLine
 10
-100.9423080897407
 20
-44.58715789030228
 30
0.0
 11
-102.3923080897405
 21
-43.7499999999774
 31
0.0
  0
LINE
  5
7697
330
A
100
AcDbEntity
  8
0
  6
Continuous
 62
     7
370
     0
100
AcDbLine
 10
-102.3923080897405
 20
-43.7499999999774
 30
0.0
 11
-102.6923080897405
 21
-43.7499999999774
 31
0.0
  0
LINE
  5
7698
330
A
100
AcDbEntity
  8
0
  6
Continuous
 62
     7
370
     0
100
AcDbLine
 10
-102.6923080897405
 20
-56.2499999999774
 30
0.0
 11
-102.3923080897405
 21
-56.2499999999774
 31
0.0
  0
ARC
  5
7699
330
A
100
AcDbEntity
  8
0
  6
Continuous
 62
     7
370
     0
100
AcDbCircle
 10
-101.1923080897407
 20
-45.0201705921946
 30
0.0
 40
0.5000000000000561
100
AcDbArc
 50
0.0
 51
59.99999999999986
  0
ARC
  5
769A
330
A
100
AcDbEntity
  8
0
  6
Continuous
 62
     7
370
     0
100
AcDbCircle
 10
-101.1923080897407
 20
-54.97982940776018
 30
0.0
 40
0.5000000000000159
100
AcDbArc
 50
300.0000000000034
 51
0.0000000000024427
  0
LINE
  5
769B
330
A
100
AcDbEntity
  8
0
  6
Continuous
 62
     7
370
     0
100
AcDbLine
 10
-102.3923080897405
 20
-6.249999954751103
 30
0.0
 11
-100.9423080897405
 21
-5.412842064426172
 31
0.0
  0
LINE
  5
769C
330
A
100
AcDbEntity
  8
0
  6
Continuous
 62
     7
370
     0
100
AcDbLine
 10
-100.9423080897405
 20
5.412842154923936
 30
0.0
 11
-102.3923080897405
 21
6.250000045248896
 31
0.0
  0
LINE
  5
769D
330
A
100
AcDbEntity
  8
0
  6
Continuous
 62
     7
370
     0
100
AcDbLine
 10
-102.3923080897405
 20
6.250000045248896
 30
0.0
 11
-102.6923080897405
 21
6.250000045248896
 31
0.0
  0
LINE
  5
769E
330
A
100
AcDbEntity
  8
0
  6
Continuous
 62
     7
370
     0
100
AcDbLine
 10
-102.6923080897405
 20
-6.249999954751103
 30
0.0
 11
-102.3923080897405
 21
-6.249999954751103
 31
0.0
  0
ARC
  5
769F
330
A
100
AcDbEntity
  8
0
  6
Continuous
 62
     7
370
     0
100
AcDbCircle
 10
-101.1923080897405
 20
4.979829453031754
 30
0.0
 40
0.5000000000000006
100
AcDbArc
 50
0.0
 51
59.99999999999986
  0
ARC
  5
76A0
330
A
100
AcDbEntity
  8
0
  6
Continuous
 62
     7
370
     0
100
AcDbCircle
 10
-101.1923080897405
 20
-4.979829362533905
 30
0.0
 40
0.5000000000000276
100
AcDbArc
 50
300.0000000000034
 51
0.0000000000016284
  0
LINE
  5
76A1
330
A
100
AcDbEntity
  8
0
  6
Continuous
 62
     7
370
     0
100
AcDbLine
 10
-108.1923080897427
 20
5.500000000021515
 30
0.0
 11
-114.1923080897417
 21
5.500000000021515
 31
0.0
  0
LINE
  5
76A2
330
A
100
AcDbEntity
  8
0
  6
Continuous
 62
     7
370
     0
100
AcDbLine
 10
-114.1923080897417
 20
-55.4999999999784
 30
0.0
 11
-108.1923080897427
 21
-55.4999999999784
 31
0.0
  0
LINE
  5
76A3
330
A
100
AcDbEntity
  8
0
  6
Continuous
 62
     7
370
     0
100
AcDbLine
 10
-120.4687630879987
 20
-30.4999999999769
 30
0.0
 11
-120.4687630879987
 21
-41.24999999997689
 31
0.0
  0
LINE
  5
76A4
330
A
100
AcDbEntity
  8
0
  6
Continuous
 62
     7
370
     0
100
AcDbLine
 10
-120.4687630879987
 20
-8.749999999976893
 30
0.0
 11
-120.4687630879987
 21
-19.49999999997689
 31
0.0
  0
ELLIPSE
  5
76A5
330
A
100
AcDbEntity
  8
0
  6
Continuous
 62
     9
370
     0
100
AcDbEllipse
 10
93.28506819584992
 20
-20.5999999999769
 30
0.0
 11
0.0
 21
1.0
 31
0.0
210
0.0
220
0.0
230
1.0
 40
0.9547511312217194
 41
4.712388980384688
 42
5.842521132346048
  0
LINE
  5
76A6
330
A
100
AcDbEntity
  8
0
  6
Continuous
 62
     9
370
     0
100
AcDbLine
 10
94.23981932707149
 20
-20.5999999999769
 30
0.0
 11
93.69230801485429
 21
-20.5999999999769
 31
0.0
  0
LINE
  5
76A7
330
A
100
AcDbEntity
  8
0
  6
Continuous
 62
     9
370
     0
100
AcDbLine
 10
93.69230801485429
 20
-29.3999999999769
 30
0.0
 11
94.23981932707149
 21
-29.3999999999769
 31
0.0
  0
ELLIPSE
  5
76A8
330
A
100
AcDbEntity
  8
0
  6
Continuous
 62
     9
370
     0
100
AcDbEllipse
 10
93.28506819584992
 20
-29.3999999999769
 30
0.0
 11
0.0
 21
-1.0
 31
0.0
210
0.0
220
0.0
230
1.0
 40
0.9547511312217194
 41
0.4406641748335363
 42
1.570796326794896
  0
LINE
  5
76A9
330
A
100
AcDbEntity
  8
0
  6
Continuous
 62
     9
370
     0
100
AcDbLine
 10
94.23981932707149
 20
-20.5999999999769
 30
0.0
 11
94.23981932707149
 21
-29.3999999999769
 31
0.0
  0
LINE
  5
76AA
330
A
100
AcDbEntity
  8
0
  6
Continuous
 62
     9
370
     0
100
AcDbLine
 10
94.30769263023893
 20
-20.5999999999769
 30
0.0
 11
94.23981932707149
 21
-20.5999999999769
 31
0.0
  0
LINE
  5
76AB
330
A
100
AcDbEntity
  8
0
  6
Continuous
 62
     9
370
     0
100
AcDbLine
 10
94.23981932707149
 20
-29.3999999999769
 30
0.0
 11
94.30769263023893
 21
-29.3999999999769
 31
0.0
  0
LINE
  5
76AC
330
A
100
AcDbEntity
  8
0
  6
Continuous
 62
     7
370
     0
100
AcDbLine
 10
93.69230801484638
 20
-64.99999999996447
 30
0.0
 11
58.69230801485741
 21
-64.99999999996447
 31
0.0
  0
ARC
  5
76AD
330
A
100
AcDbEntity
  8
0
  6
Continuous
 62
     7
370
     0
100
AcDbCircle
 10
58.69230801485741
 20
-59.99999999996598
 30
0.0
 40
5.000000000000004
100
AcDbArc
 50
179.9999999999992
 51
270.0
  0
ARC
  5
76AE
330
A
100
AcDbEntity
  8
0
  6
Continuous
 62
     7
370
     0
100
AcDbCircle
 10
58.69230801485741
 20
10.00000000001181
 30
0.0
 40
5.000000000000004
100
AcDbArc
 50
90.0
 51
180.0
  0
LINE
  5
76AF
330
A
100
AcDbEntity
  8
0
  6
Continuous
 62
     7
370
     0
100
AcDbLine
 10
58.69230801485741
 20
15.00000000001022
 30
0.0
 11
93.69230801484638
 21
15.00000000001022
 31
0.0
  0
LINE
  5
76B0
330
A
100
AcDbEntity
  8
0
  6
Continuous
 62
     7
370
     0
100
AcDbLine
 10
53.69230801485901
 20
-59.99999999996598
 30
0.0
 11
53.69230801485901
 21
10.00000000001181
 31
0.0
  0
LINE
  5
76B1
330
A
100
AcDbEntity
  8
0
  6
Continuous
 62
     7
370
     0
100
AcDbLine
 10
93.69230801484638
 20
15.00000000001022
 30
0.0
 11
93.69230801484638
 21
-64.99999999996447
 31
0.0
  0
ARC
  5
76B2
330
A
100
AcDbEntity
  8
0
  6
Continuous
 62
     7
370
     0
100
AcDbCircle
 10
93.30769263023895
 20
-20.5999999999769
 30
0.0
 40
0.9999999999998896
100
AcDbArc
 50
0.0
 51
67.3801350519612
  0
ARC
  5
76B3
330
A
100
AcDbEntity
  8
0
  6
Continuous
 62
     7
370
     0
100
AcDbCircle
 10
93.30769263023895
 20
-29.3999999999769
 30
0.0
 40
0.9999999999999666
100
AcDbArc
 50
292.6198649480355
 51
359.9999999999968
  0
LINE
  5
76B4
330
A
100
AcDbEntity
  8
0
  6
Continuous
 62
     7
370
     0
100
AcDbLine
 10
94.30769263023893
 20
-29.3999999999769
 30
0.0
 11
94.30769263023893
 21
-20.5999999999769
 31
0.0
  0
LINE
  5
76B5
330
A
100
AcDbEntity
  8
0
  6
Continuous
 62
     7
370
     0
100
AcDbLine
 10
-27.00227701507868
 20
-121.2423076922849
 30
0.0
 11
-31.00227701507868
 21
-121.2423076922849
 31
0.0
  0
ARC
  5
76B6
330
A
100
AcDbEntity
  8
0
  6
Continuous
 62
     7
370
     0
100
AcDbCircle
 10
-18.97204908950186
 20
-122.5769230769006
 30
0.0
 40
1.500000000000006
100
AcDbArc
 50
72.69813729121027
 51
117.363061822351
  0
LINE
  5
76B7
330
A
100
AcDbEntity
  8
0
  6
Continuous
 62
     9
370
     0
100
AcDbLine
 10
-18.52594021913569
 20
-121.144796380068
 30
0.0
 11
-18.69649075404021
 21
-121.6923084122662
 31
0.0
  0
LINE
  5
76B8
330
A
100
AcDbEntity
  8
0
  6
Continuous
 62
     9
370
     0
100
AcDbLine
 10
-19.66149007097687
 20
-121.2447552447328
 30
0.0
 11
-19.4298664814894
 21
-121.6923084122662
 31
0.0
  0
LINE
  5
76B9
330
A
100
AcDbEntity
  8
0
  6
Continuous
 62
     9
370
     0
100
AcDbLine
 10
-18.76686384990779
 20
-139.4663908427999
 30
0.0
 11
-18.52594021913569
 21
-140.2398190045024
 31
0.0
  0
ARC
  5
76BA
330
A
100
AcDbEntity
  8
0
  6
Continuous
 62
     7
370
     0
100
AcDbCircle
 10
-18.97204908950186
 20
-138.8076923076698
 30
0.0
 40
1.49999999999998
100
AcDbArc
 50
242.6369381776489
 51
287.3018627087897
  0
LINE
  5
76BB
330
A
100
AcDbEntity
  8
0
  6
Continuous
 62
     9
370
     0
100
AcDbLine
 10
-19.2553427294896
 20
-139.3550845927092
 30
0.0
 11
-19.66149007097687
 21
-140.1398601398376
 31
0.0
  0
ARC
  5
76BC
330
A
100
AcDbEntity
  8
0
  6
Continuous
 62
     7
370
     0
100
AcDbCircle
 10
-21.4999993549103
 20
-117.6923076922852
 30
0.0
 40
4.000000000000015
100
AcDbArc
 50
242.6369381776493
 51
270.0
  0
ARC
  5
76BD
330
A
100
AcDbEntity
  8
0
  6
Continuous
 62
     7
370
     0
100
AcDbCircle
 10
-21.4999993549103
 20
-117.6923076922852
 30
0.0
 40
4.000000000000001
100
AcDbArc
 50
270.0
 51
297.3630618223507
  0
LINE
  5
76BE
330
A
100
AcDbEntity
  8
0
  6
Continuous
 62
     9
370
     0
100
AcDbLine
 10
-23.57013222833121
 20
-121.6923084122662
 30
0.0
 11
-23.33850863884368
 21
-121.2447552447328
 31
0.0
  0
ARC
  5
76BF
330
A
100
AcDbEntity
  8
0
  6
Continuous
 62
     7
370
     0
100
AcDbCircle
 10
-21.4999993549103
 20
-130.6923076922852
 30
0.0
 40
10.00000000000002
100
AcDbArc
 50
287.3018627087897
 51
306.8698907705316
  0
LINE
  5
76C0
330
A
100
AcDbEntity
  8
0
  6
Continuous
 62
     9
370
     0
100
AcDbLine
 10
-23.73453134368475
 20
-139.3746478557221
 30
0.0
 11
-23.33850863884368
 21
-140.1398601398376
 31
0.0
  0
ARC
  5
76C1
330
A
100
AcDbEntity
  8
0
  6
Continuous
 62
     7
370
     0
100
AcDbCircle
 10
-24.02794962031874
 20
-138.8076923076698
 30
0.0
 40
1.500000000000006
100
AcDbArc
 50
252.6981372912102
 51
297.3630618223511
  0
LINE
  5
76C2
330
A
100
AcDbEntity
  8
0
  6
Continuous
 62
     9
370
     0
100
AcDbLine
 10
-24.28879263814849
 20
-139.6450669359966
 30
0.0
 11
-24.47405849068502
 21
-140.2398190045024
 31
0.0
  0
ARC
  5
76C3
330
A
100
AcDbEntity
  8
0
  6
Continuous
 62
     7
370
     0
100
AcDbCircle
 10
-21.4999993549103
 20
-130.6923076922852
 30
0.0
 40
9.999999999999975
100
AcDbArc
 50
64.1580577730058
 51
72.69813729121027
  0
ARC
  5
76C4
330
A
100
AcDbEntity
  8
0
  6
Continuous
 62
     7
370
     0
100
AcDbCircle
 10
-21.4999993549103
 20
-130.6923076922852
 30
0.0
 40
10.0
100
AcDbArc
 50
244.1580672368318
 51
252.6981372912102
  0
ARC
  5
76C5
330
A
100
AcDbEntity
  8
0
  6
Continuous
 62
     7
370
     0
100
AcDbCircle
 10
-21.4999993549103
 20
-130.6923076922852
 30
0.0
 40
9.999999999999988
100
AcDbArc
 50
107.30186270879
 51
115.8419327631682
  0
LINE
  5
76C6
330
A
100
AcDbEntity
  8
0
  6
Continuous
 62
     9
370
     0
100
AcDbLine
 10
-24.3035079557805
 20
-121.6923084122662
 30
0.0
 11
-24.47405849068502
 21
-121.144796380068
 31
0.0
  0
ARC
  5
76C7
330
A
100
AcDbEntity
  8
0
  6
Continuous
 62
     7
370
     0
100
AcDbCircle
 10
-24.02794962031874
 20
-122.5769230769006
 30
0.0
 40
1.500000000000024
100
AcDbArc
 50
62.63693817764931
 51
107.30186270879
  0
ARC
  5
76C8
330
A
100
AcDbEntity
  8
0
  6
Continuous
 62
     7
370
     0
100
AcDbCircle
 10
-21.4999993549103
 20
-143.6923076922852
 30
0.0
 40
3.999999999999991
100
AcDbArc
 50
62.63693817764931
 51
117.3630618223507
  0
LINE
  5
76C9
330
A
100
AcDbEntity
  8
0
  6
Continuous
 62
     9
370
     0
100
AcDbLine
 10
-35.01818117308488
 20
-120.1051498019603
 30
0.0
 11
-35.01818117308488
 21
-109.2794655826101
 31
0.0
  0
LINE
  5
76CA
330
A
100
AcDbEntity
  8
0
  6
Continuous
 62
     7
370
     0
100
AcDbLine
 10
-34.76818117308477
 20
-109.7124782845024
 30
0.0
 11
-34.76818117308477
 21
-119.672137100068
 31
0.0
  0
LINE
  5
76CB
330
A
100
AcDbEntity
  8
0
  6
Continuous
 62
     9
370
     0
100
AcDbLine
 10
-50.49999935491257
 20
-105.6923076922732
 30
0.0
 11
-49.49999935490637
 21
-105.6923076922732
 31
0.0
  0
LINE
  5
76CC
330
A
100
AcDbEntity
  8
0
  6
Continuous
 62
     9
370
     0
100
AcDbLine
 10
-49.49999935490637
 20
-105.6923076922732
 30
0.0
 11
-48.49999935491258
 21
-105.6923076922732
 31
0.0
  0
LINE
  5
76CD
330
A
100
AcDbEntity
  8
0
  6
Continuous
 62
     7
370
     0
100
AcDbLine
 10
-50.49999935491257
 20
-100.6923076922731
 30
0.0
 11
-49.49999935490637
 21
-100.6923076922731
 31
0.0
  0
LINE
  5
76CE
330
A
100
AcDbEntity
  8
0
  6
Continuous
 62
     7
370
     0
100
AcDbLine
 10
-49.49999935490637
 20
-100.6923076922731
 30
0.0
 11
-48.49999935491258
 21
-100.6923076922731
 31
0.0
  0
LINE
  5
76CF
330
A
100
AcDbEntity
  8
0
  6
Continuous
 62
     7
370
     0
100
AcDbLine
 10
-48.49999935491258
 20
-100.6923076922731
 30
0.0
 11
-48.49999935491258
 21
-105.6923076922732
 31
0.0
  0
LINE
  5
76D0
330
A
100
AcDbEntity
  8
0
  6
Continuous
 62
     9
370
     0
100
AcDbLine
 10
-50.4999993549128
 20
-137.6923076922732
 30
0.0
 11
-49.49999935490637
 21
-137.6923076922732
 31
0.0
  0
LINE
  5
76D1
330
A
100
AcDbEntity
  8
0
  6
Continuous
 62
     9
370
     0
100
AcDbLine
 10
-49.49999935490637
 20
-137.6923076922732
 30
0.0
 11
-48.4999993549128
 21
-137.6923076922732
 31
0.0
  0
LINE
  5
76D2
330
A
100
AcDbEntity
  8
0
  6
Continuous
 62
     7
370
     0
100
AcDbLine
 10
-48.49999935491258
 20
-105.6923076922732
 30
0.0
 11
-48.4999993549128
 21
-137.6923076922732
 31
0.0
  0
LINE
  5
76D3
330
A
100
AcDbEntity
  8
0
  6
Continuous
 62
     7
370
     0
100
AcDbLine
 10
-50.4999993549128
 20
-138.6923076922732
 30
0.0
 11
-49.49999935490637
 21
-138.6923076922732
 31
0.0
  0
LINE
  5
76D4
330
A
100
AcDbEntity
  8
0
  6
Continuous
 62
     7
370
     0
100
AcDbLine
 10
-49.49999935490637
 20
-138.6923076922732
 30
0.0
 11
-48.4999993549128
 21
-138.6923076922732
 31
0.0
  0
LINE
  5
76D5
330
A
100
AcDbEntity
  8
0
  6
Continuous
 62
     7
370
     0
100
AcDbLine
 10
-48.4999993549128
 20
-137.6923076922732
 30
0.0
 11
-48.4999993549128
 21
-138.6923076922732
 31
0.0
  0
LINE
  5
76D6
330
A
100
AcDbEntity
  8
0
  6
Continuous
 62
     7
370
     0
100
AcDbLine
 10
-40.49999935491036
 20
-100.6923076922795
 30
0.0
 11
-41.49999935490995
 21
-100.6923076922795
 31
0.0
  0
LINE
  5
76D7
330
A
100
AcDbEntity
  8
0
  6
Continuous
 62
     7
370
     0
100
AcDbLine
 10
-41.49999935490995
 20
-100.6923076922795
 30
0.0
 11
-42.49999935491035
 21
-100.6923076922795
 31
0.0
  0
LINE
  5
76D8
330
A
100
AcDbEntity
  8
0
  6
Continuous
 62
     9
370
     0
100
AcDbLine
 10
-40.49999935491036
 20
-105.6923076922817
 30
0.0
 11
-41.49999935490995
 21
-105.6923076922817
 31
0.0
  0
LINE
  5
76D9
330
A
100
AcDbEntity
  8
0
  6
Continuous
 62
     9
370
     0
100
AcDbLine
 10
-41.49999935490995
 20
-105.6923076922817
 30
0.0
 11
-42.49999935491035
 21
-105.6923076922817
 31
0.0
  0
LINE
  5
76DA
330
A
100
AcDbEntity
  8
0
  6
Continuous
 62
     7
370
     0
100
AcDbLine
 10
-42.49999935491035
 20
-105.6923076922817
 30
0.0
 11
-42.49999935491035
 21
-100.6923076922817
 31
0.0
  0
LINE
  5
76DB
330
A
100
AcDbEntity
  8
0
  6
Continuous
 62
     9
370
     0
100
AcDbLine
 10
-40.49999935491036
 20
-137.692307692294
 30
0.0
 11
-41.49999935490995
 21
-137.692307692294
 31
0.0
  0
LINE
  5
76DC
330
A
100
AcDbEntity
  8
0
  6
Continuous
 62
     9
370
     0
100
AcDbLine
 10
-41.49999935490995
 20
-137.692307692294
 30
0.0
 11
-42.49999935491035
 21
-137.692307692294
 31
0.0
  0
LINE
  5
76DD
330
A
100
AcDbEntity
  8
0
  6
Continuous
 62
     7
370
     0
100
AcDbLine
 10
-42.49999935491035
 20
-137.692307692294
 30
0.0
 11
-42.49999935491035
 21
-105.6923076922817
 31
0.0
  0
LINE
  5
76DE
330
A
100
AcDbEntity
  8
0
  6
Continuous
 62
     7
370
     0
100
AcDbLine
 10
-40.49999935491036
 20
-138.6923076922943
 30
0.0
 11
-41.49999935491007
 21
-138.6923076922943
 31
0.0
  0
LINE
  5
76DF
330
A
100
AcDbEntity
  8
0
  6
Continuous
 62
     7
370
     0
100
AcDbLine
 10
-41.49999935491007
 20
-138.6923076922943
 30
0.0
 11
-42.49999935491035
 21
-138.6923076922943
 31
0.0
  0
LINE
  5
76E0
330
A
100
AcDbEntity
  8
0
  6
Continuous
 62
     7
370
     0
100
AcDbLine
 10
-42.49999935491035
 20
-138.692307692294
 30
0.0
 11
-42.49999935491035
 21
-137.692307692294
 31
0.0
  0
LINE
  5
76E1
330
A
100
AcDbEntity
  8
0
  6
Continuous
 62
     7
370
     0
100
AcDbLine
 10
-54.49999935490655
 20
-99.69230769228989
 30
0.0
 11
-50.49999935490655
 21
-99.69230769228989
 31
0.0
  0
LINE
  5
76E2
330
A
100
AcDbEntity
  8
0
  6
Continuous
 62
     7
370
     0
100
AcDbLine
 10
-50.49999935490655
 20
-99.69230769228841
 30
0.0
 11
-50.49999935490655
 21
-104.6923076922884
 31
0.0
  0
LINE
  5
76E3
330
A
100
AcDbEntity
  8
0
  6
Continuous
 62
     9
370
     0
100
AcDbLine
 10
-50.49999935490655
 20
-104.6923076922884
 30
0.0
 11
-54.49999935490655
 21
-104.6923076922884
 31
0.0
  0
LINE
  5
76E4
330
A
100
AcDbEntity
  8
0
  6
Continuous
 62
     7
370
     0
100
AcDbLine
 10
-54.49999935490655
 20
-104.6923076922884
 30
0.0
 11
-54.49999935490655
 21
-99.69230769228841
 31
0.0
  0
LINE
  5
76E5
330
A
100
AcDbEntity
  8
0
  6
Continuous
 62
     7
370
     0
100
AcDbLine
 10
-54.49999935490655
 20
-139.6923076922773
 30
0.0
 11
-50.49999935490655
 21
-139.6923076922773
 31
0.0
  0
LINE
  5
76E6
330
A
100
AcDbEntity
  8
0
  6
Continuous
 62
     7
370
     0
100
AcDbLine
 10
-50.49999935490655
 20
-104.6923076922884
 30
0.0
 11
-50.49999935490655
 21
-139.6923076922773
 31
0.0
  0
LINE
  5
76E7
330
A
100
AcDbEntity
  8
0
  6
Continuous
 62
     7
370
     0
100
AcDbLine
 10
-54.49999935490655
 20
-104.6923076922884
 30
0.0
 11
-54.49999935490655
 21
-139.6923076922773
 31
0.0
  0
LINE
  5
76E8
330
A
100
AcDbEntity
  8
0
  6
Continuous
 62
     9
370
     0
100
AcDbLine
 10
-50.49999935490655
 20
-105.6923076922862
 30
0.0
 11
-49.49999935490637
 21
-105.6923076922862
 31
0.0
  0
LINE
  5
76E9
330
A
100
AcDbEntity
  8
0
  6
Continuous
 62
     7
370
     0
100
AcDbLine
 10
-50.49999935490655
 20
-100.6923076922866
 30
0.0
 11
-49.49999935490637
 21
-100.6923076922866
 31
0.0
  0
LINE
  5
76EA
330
A
100
AcDbEntity
  8
0
  6
Continuous
 62
     7
370
     0
100
AcDbLine
 10
-49.49999935490637
 20
-100.6923076922862
 30
0.0
 11
-49.49999935490637
 21
-105.6923076922862
 31
0.0
  0
LINE
  5
76EB
330
A
100
AcDbEntity
  8
0
  6
Continuous
 62
     7
370
     0
100
AcDbLine
 10
-50.49999935490655
 20
-138.6923076922824
 30
0.0
 11
-49.49999935490637
 21
-138.6923076922824
 31
0.0
  0
LINE
  5
76EC
330
A
100
AcDbEntity
  8
0
  6
Continuous
 62
     9
370
     0
100
AcDbLine
 10
-50.49999935490655
 20
-137.6923076922826
 30
0.0
 11
-49.49999935490637
 21
-137.6923076922826
 31
0.0
  0
LINE
  5
76ED
330
A
100
AcDbEntity
  8
0
  6
Continuous
 62
     7
370
     0
100
AcDbLine
 10
-49.49999935490637
 20
-137.6923076922826
 30
0.0
 11
-49.49999935490637
 21
-138.6923076922826
 31
0.0
  0
LINE
  5
76EE
330
A
100
AcDbEntity
  8
0
  6
Continuous
 62
     7
370
     0
100
AcDbLine
 10
-49.49999935490637
 20
-105.6923076922862
 30
0.0
 11
-49.49999935490637
 21
-137.6923076922826
 31
0.0
  0
LINE
  5
76EF
330
A
100
AcDbEntity
  8
0
  6
Continuous
 62
     7
370
     0
100
AcDbLine
 10
-41.49999935491007
 20
-138.6923076922815
 30
0.0
 11
-40.49999935491036
 21
-138.6923076922815
 31
0.0
  0
LINE
  5
76F0
330
A
100
AcDbEntity
  8
0
  6
Continuous
 62
     9
370
     0
100
AcDbLine
 10
-41.49999935491007
 20
-137.6923076922818
 30
0.0
 11
-40.49999935491036
 21
-137.6923076922818
 31
0.0
  0
LINE
  5
76F1
330
A
100
AcDbEntity
  8
0
  6
Continuous
 62
     7
370
     0
100
AcDbLine
 10
-41.49999935491007
 20
-137.6923076922818
 30
0.0
 11
-41.49999935491007
 21
-138.6923076922808
 31
0.0
  0
LINE
  5
76F2
330
A
100
AcDbEntity
  8
0
  6
Continuous
 62
     7
370
     0
100
AcDbLine
 10
-41.49999935490995
 20
-105.6923076922865
 30
0.0
 11
-41.49999935491007
 21
-137.6923076922818
 31
0.0
  0
LINE
  5
76F3
330
A
100
AcDbEntity
  8
0
  6
Continuous
 62
     9
370
     0
100
AcDbLine
 10
-41.49999935490995
 20
-105.6923076922865
 30
0.0
 11
-40.49999935491036
 21
-105.6923076922865
 31
0.0
  0
LINE
  5
76F4
330
A
100
AcDbEntity
  8
0
  6
Continuous
 62
     7
370
     0
100
AcDbLine
 10
-41.49999935490995
 20
-100.6923076922895
 30
0.0
 11
-41.49999935490995
 21
-105.6923076922865
 31
0.0
  0
LINE
  5
76F5
330
A
100
AcDbEntity
  8
0
  6
Continuous
 62
     7
370
     0
100
AcDbLine
 10
-41.49999935490995
 20
-100.6923076922873
 30
0.0
 11
-40.49999935491036
 21
-100.6923076922873
 31
0.0
  0
LINE
  5
76F6
330
A
100
AcDbEntity
  8
0
  6
Continuous
 62
     9
370
     0
100
AcDbLine
 10
5.412842109678649
 20
-119.9423084123151
 30
0.0
 11
-0.000000002926015
 21
-119.9423084122649
 31
0.0
  0
LINE
  5
76F7
330
A
100
AcDbEntity
  8
0
  6
Continuous
 62
     7
370
     0
100
AcDbLine
 10
-6.250000000010004
 20
-121.392308412207
 30
0.0
 11
6.249999999989995
 21
-121.3923084123228
 31
0.0
  0
LINE
  5
76F8
330
A
100
AcDbEntity
  8
0
  6
Continuous
 62
     9
370
     0
100
AcDbLine
 10
-0.000000002926015
 20
-119.9423084122649
 30
0.0
 11
-5.412842109671544
 21
-119.9423084122148
 31
0.0
  0
LINE
  5
76F9
330
A
100
AcDbEntity
  8
0
  6
Continuous
 62
     7
370
     0
100
AcDbLine
 10
-4.979829407777117
 20
-119.6923084122186
 30
0.0
 11
-0.0000000026892621
 21
-119.6923084122649
 31
0.0
  0
LINE
  5
76FA
330
A
100
AcDbEntity
  8
0
  6
Continuous
 62
     7
370
     0
100
AcDbLine
 10
-0.0000000026892621
 20
-119.6923084122649
 30
0.0
 11
4.97982940778877
 21
-119.692308412311
 31
0.0
  0
LINE
  5
76FB
330
A
100
AcDbEntity
  8
0
  6
Continuous
 62
     9
370
     0
100
AcDbLine
 10
-26.25000000000648
 20
-125.6923084122662
 30
0.0
 11
-26.25000000000648
 21
-126.192308412266
 31
0.0
  0
LINE
  5
76FC
330
A
100
AcDbEntity
  8
0
  6
Continuous
 62
     9
370
     0
100
AcDbLine
 10
11.24999999999329
 20
-125.6923084122662
 30
0.0
 11
11.24999999999329
 21
-126.192308412266
 31
0.0
  0
LINE
  5
76FD
330
A
100
AcDbEntity
  8
0
  6
Continuous
 62
     7
370
     0
100
AcDbLine
 10
-26.25000000000648
 20
-126.192308412266
 30
0.0
 11
11.24999999999329
 21
-126.192308412266
 31
0.0
  0
LINE
  5
76FE
330
A
100
AcDbEntity
  8
0
  6
Continuous
 62
     7
370
     0
100
AcDbLine
 10
-30.75000000000648
 20
-125.6923084122662
 30
0.0
 11
-30.75000000000648
 21
-126.192308412266
 31
0.0
  0
LINE
  5
76FF
330
A
100
AcDbEntity
  8
0
  6
Continuous
 62
     7
370
     0
100
AcDbLine
 10
-30.75000000000648
 20
-126.192308412266
 30
0.0
 11
-26.25000000000648
 21
-126.192308412266
 31
0.0
  0
LINE
  5
7700
330
A
100
AcDbEntity
  8
0
  6
Continuous
 62
     7
370
     0
100
AcDbLine
 10
15.74999999999329
 20
-125.6923084122662
 30
0.0
 11
15.74999999999329
 21
-126.192308412266
 31
0.0
  0
LINE
  5
7701
330
A
100
AcDbEntity
  8
0
  6
Continuous
 62
     7
370
     0
100
AcDbLine
 10
11.24999999999329
 20
-126.192308412266
 30
0.0
 11
15.74999999999329
 21
-126.192308412266
 31
0.0
  0
LINE
  5
7702
330
A
100
AcDbEntity
  8
0
  6
Continuous
 62
     9
370
     0
100
AcDbLine
 10
11.24999999999426
 20
-127.192308412267
 30
0.0
 11
11.24999999999426
 21
-126.1923084122653
 31
0.0
  0
LINE
  5
7703
330
A
100
AcDbEntity
  8
0
  6
Continuous
 62
     9
370
     0
100
AcDbLine
 10
11.24999999999426
 20
-126.1923084122653
 30
0.0
 11
11.24999999999426
 21
-125.6923084122662
 31
0.0
  0
LINE
  5
7704
330
A
100
AcDbEntity
  8
0
  6
Continuous
 62
     9
370
     0
100
AcDbLine
 10
-26.25000000000557
 20
-127.192308412267
 30
0.0
 11
-26.25000000000557
 21
-126.1923084122653
 31
0.0
  0
LINE
  5
7705
330
A
100
AcDbEntity
  8
0
  6
Continuous
 62
     9
370
     0
100
AcDbLine
 10
-26.25000000000557
 20
-126.1923084122653
 30
0.0
 11
-26.25000000000557
 21
-125.6923084122662
 31
0.0
  0
LINE
  5
7706
330
A
100
AcDbEntity
  8
0
  6
Continuous
 62
     7
370
     0
100
AcDbLine
 10
11.24999999999426
 20
-127.192308412267
 30
0.0
 11
-26.25000000000557
 21
-127.192308412267
 31
0.0
  0
LINE
  5
7707
330
A
100
AcDbEntity
  8
0
  6
Continuous
 62
     7
370
     0
100
AcDbLine
 10
-30.75000000000574
 20
-127.192308412267
 30
0.0
 11
-30.75000000000574
 21
-126.1923084122653
 31
0.0
  0
LINE
  5
7708
330
A
100
AcDbEntity
  8
0
  6
Continuous
 62
     7
370
     0
100
AcDbLine
 10
-30.75000000000574
 20
-126.1923084122653
 30
0.0
 11
-30.75000000000574
 21
-125.6923084122662
 31
0.0
  0
LINE
  5
7709
330
A
100
AcDbEntity
  8
0
  6
Continuous
 62
     7
370
     0
100
AcDbLine
 10
-26.25000000000557
 20
-127.192308412267
 30
0.0
 11
-30.75000000001165
 21
-127.192308412267
 31
0.0
  0
LINE
  5
770A
330
A
100
AcDbEntity
  8
0
  6
Continuous
 62
     7
370
     0
100
AcDbLine
 10
15.74999999999426
 20
-127.192308412267
 30
0.0
 11
15.74999999999426
 21
-126.1923084122653
 31
0.0
  0
LINE
  5
770B
330
A
100
AcDbEntity
  8
0
  6
Continuous
 62
     7
370
     0
100
AcDbLine
 10
15.74999999999426
 20
-126.1923084122653
 30
0.0
 11
15.74999999999426
 21
-125.6923084122648
 31
0.0
  0
LINE
  5
770C
330
A
100
AcDbEntity
  8
0
  6
Continuous
 62
     7
370
     0
100
AcDbLine
 10
15.74999999999824
 20
-127.192308412267
 30
0.0
 11
11.24999999999426
 21
-127.192308412267
 31
0.0
  0
LINE
  5
770D
330
A
100
AcDbEntity
  8
0
  6
Continuous
 62
     9
370
     0
100
AcDbLine
 10
-26.75000000000489
 20
-134.692308412266
 30
0.0
 11
-26.75000000000489
 21
-134.1923084122654
 31
0.0
  0
LINE
  5
770E
330
A
100
AcDbEntity
  8
0
  6
Continuous
 62
     7
370
     0
100
AcDbLine
 10
-31.25000000000489
 20
-134.692308412266
 30
0.0
 11
-31.25000000000489
 21
-134.1923084122654
 31
0.0
  0
LINE
  5
770F
330
A
100
AcDbEntity
  8
0
  6
Continuous
 62
     7
370
     0
100
AcDbLine
 10
-26.75000000000489
 20
-134.1923084122654
 30
0.0
 11
-31.25000000000489
 21
-134.1923084122654
 31
0.0
  0
LINE
  5
7710
330
A
100
AcDbEntity
  8
0
  6
Continuous
 62
     9
370
     0
100
AcDbLine
 10
10.74999999999511
 20
-134.692308412266
 30
0.0
 11
10.74999999999511
 21
-134.1923084122654
 31
0.0
  0
LINE
  5
7711
330
A
100
AcDbEntity
  8
0
  6
Continuous
 62
     7
370
     0
100
AcDbLine
 10
10.74999999999511
 20
-134.1923084122654
 30
0.0
 11
-26.75000000000489
 21
-134.1923084122654
 31
0.0
  0
LINE
  5
7712
330
A
100
AcDbEntity
  8
0
  6
Continuous
 62
     7
370
     0
100
AcDbLine
 10
15.24999999999511
 20
-134.692308412266
 30
0.0
 11
15.24999999999511
 21
-134.1923084122654
 31
0.0
  0
LINE
  5
7713
330
A
100
AcDbEntity
  8
0
  6
Continuous
 62
     7
370
     0
100
AcDbLine
 10
15.24999999999511
 20
-134.1923084122654
 30
0.0
 11
10.74999999999511
 21
-134.1923084122654
 31
0.0
  0
LINE
  5
7714
330
A
100
AcDbEntity
  8
0
  6
Continuous
 62
     7
370
     0
100
AcDbLine
 10
-31.25000000000489
 20
-134.692308412266
 30
0.0
 11
-31.25000000000489
 21
-134.1923084122654
 31
0.0
  0
LINE
  5
7715
330
A
100
AcDbEntity
  8
0
  6
Continuous
 62
     7
370
     0
100
AcDbLine
 10
-31.25000000000489
 20
-134.1923084122654
 30
0.0
 11
-31.25000000000489
 21
-133.1923084122661
 31
0.0
  0
LINE
  5
7716
330
A
100
AcDbEntity
  8
0
  6
Continuous
 62
     7
370
     0
100
AcDbLine
 10
-26.75000000000489
 20
-133.1923084122661
 30
0.0
 11
-31.25000000000489
 21
-133.1923084122661
 31
0.0
  0
LINE
  5
7717
330
A
100
AcDbEntity
  8
0
  6
Continuous
 62
     9
370
     0
100
AcDbLine
 10
10.74999999999511
 20
-134.692308412266
 30
0.0
 11
10.74999999999511
 21
-134.1923084122654
 31
0.0
  0
LINE
  5
7718
330
A
100
AcDbEntity
  8
0
  6
Continuous
 62
     9
370
     0
100
AcDbLine
 10
10.74999999999511
 20
-134.1923084122654
 30
0.0
 11
10.74999999999511
 21
-133.1923084122661
 31
0.0
  0
LINE
  5
7719
330
A
100
AcDbEntity
  8
0
  6
Continuous
 62
     9
370
     0
100
AcDbLine
 10
-26.75000000000489
 20
-134.692308412266
 30
0.0
 11
-26.75000000000489
 21
-134.1923084122654
 31
0.0
  0
LINE
  5
771A
330
A
100
AcDbEntity
  8
0
  6
Continuous
 62
     9
370
     0
100
AcDbLine
 10
-26.75000000000489
 20
-134.1923084122654
 30
0.0
 11
-26.75000000000489
 21
-133.1923084122661
 31
0.0
  0
LINE
  5
771B
330
A
100
AcDbEntity
  8
0
  6
Continuous
 62
     7
370
     0
100
AcDbLine
 10
10.74999999999511
 20
-133.1923084122661
 30
0.0
 11
-26.75000000000489
 21
-133.1923084122661
 31
0.0
  0
LINE
  5
771C
330
A
100
AcDbEntity
  8
0
  6
Continuous
 62
     7
370
     0
100
AcDbLine
 10
15.24999999999511
 20
-134.692308412266
 30
0.0
 11
15.24999999999511
 21
-134.1923084122654
 31
0.0
  0
LINE
  5
771D
330
A
100
AcDbEntity
  8
0
  6
Continuous
 62
     7
370
     0
100
AcDbLine
 10
15.24999999999511
 20
-134.1923084122654
 30
0.0
 11
15.24999999999511
 21
-133.1923084122661
 31
0.0
  0
LINE
  5
771E
330
A
100
AcDbEntity
  8
0
  6
Continuous
 62
     7
370
     0
100
AcDbLine
 10
15.24999999999511
 20
-133.1923084122661
 30
0.0
 11
10.74999999999511
 21
-133.1923084122661
 31
0.0
  0
ARC
  5
771F
330
A
100
AcDbEntity
  8
0
  6
Continuous
 62
     7
370
     0
100
AcDbCircle
 10
-26.99999999998818
 20
-128.9423084122661
 30
0.0
 40
7.499999999999985
100
AcDbArc
 50
104.835111581969
 51
137.1665719339201
  0
LINE
  5
7720
330
A
100
AcDbEntity
  8
0
  6
Continuous
 62
     7
370
     0
100
AcDbLine
 10
-28.9202864369546
 20
-121.6923084122662
 30
0.0
 11
12.49999999999448
 21
-121.6923084122662
 31
0.0
  0
LINE
  5
7721
330
A
100
AcDbEntity
  8
0
  6
Continuous
 62
     9
370
     0
100
AcDbLine
 10
12.49999999999448
 20
-125.6923084122662
 30
0.0
 11
12.49999999999448
 21
-121.6923084122662
 31
0.0
  0
LINE
  5
7722
330
A
100
AcDbEntity
  8
0
  6
Continuous
 62
     7
370
     0
100
AcDbLine
 10
-32.4999999999859
 20
-125.6923084122662
 30
0.0
 11
12.49999999999448
 21
-125.6923084122662
 31
0.0
  0
LINE
  5
7723
330
A
100
AcDbEntity
  8
0
  6
Continuous
 62
     7
370
     0
100
AcDbLine
 10
-32.4999999999859
 20
-125.6923084122662
 30
0.0
 11
-32.4999999999859
 21
-123.8432888986734
 31
0.0
  0
LINE
  5
7724
330
A
100
AcDbEntity
  8
0
  6
Continuous
 62
     7
370
     0
100
AcDbLine
 10
17.49999999999249
 20
-121.6923084122662
 30
0.0
 11
17.49999999999249
 21
-125.6923084122662
 31
0.0
  0
LINE
  5
7725
330
A
100
AcDbEntity
  8
0
  6
Continuous
 62
     7
370
     0
100
AcDbLine
 10
12.49999999999448
 20
-121.6923084122662
 30
0.0
 11
17.49999999999471
 21
-121.6923084122662
 31
0.0
  0
LINE
  5
7726
330
A
100
AcDbEntity
  8
0
  6
Continuous
 62
     7
370
     0
100
AcDbLine
 10
17.49999999999471
 20
-125.6923084122662
 30
0.0
 11
12.49999999999448
 21
-125.6923084122662
 31
0.0
  0
CIRCLE
  5
7727
330
A
100
AcDbEntity
  8
0
  6
Continuous
 62
     7
370
     0
100
AcDbCircle
 10
-21.49999999999642
 20
-130.6923084122644
 30
0.0
 40
1.77205953146761
  0
ARC
  5
7728
330
A
100
AcDbEntity
  8
0
  6
Continuous
 62
     7
370
     0
100
AcDbCircle
 10
-26.99999999999972
 20
-131.442308412266
 30
0.0
 40
7.500000000000013
100
AcDbArc
 50
222.8334280660667
 51
255.1648884180242
  0
LINE
  5
7729
330
A
100
AcDbEntity
  8
0
  6
Continuous
 62
     7
370
     0
100
AcDbLine
 10
-32.49999999999955
 20
-136.5413279258589
 30
0.0
 11
-32.49999999999955
 21
-134.692308412266
 31
0.0
  0
LINE
  5
772A
330
A
100
AcDbEntity
  8
0
  6
Continuous
 62
     9
370
     0
100
AcDbLine
 10
12.5
 20
-138.692308412266
 30
0.0
 11
12.5
 21
-134.692308412266
 31
0.0
  0
LINE
  5
772B
330
A
100
AcDbEntity
  8
0
  6
Continuous
 62
     7
370
     0
100
AcDbLine
 10
12.5
 20
-138.692308412266
 30
0.0
 11
-28.92028643696676
 21
-138.692308412266
 31
0.0
  0
LINE
  5
772C
330
A
100
AcDbEntity
  8
0
  6
Continuous
 62
     7
370
     0
100
AcDbLine
 10
12.5
 20
-134.692308412266
 30
0.0
 11
-32.49999999999955
 21
-134.692308412266
 31
0.0
  0
LINE
  5
772D
330
A
100
AcDbEntity
  8
0
  6
Continuous
 62
     7
370
     0
100
AcDbLine
 10
17.49999999999994
 20
-134.692308412266
 30
0.0
 11
17.49999999999994
 21
-138.692308412266
 31
0.0
  0
LINE
  5
772E
330
A
100
AcDbEntity
  8
0
  6
Continuous
 62
     7
370
     0
100
AcDbLine
 10
17.49999999999994
 20
-138.692308412266
 30
0.0
 11
12.5
 21
-138.692308412266
 31
0.0
  0
LINE
  5
772F
330
A
100
AcDbEntity
  8
0
  6
Continuous
 62
     7
370
     0
100
AcDbLine
 10
12.5
 20
-134.692308412266
 30
0.0
 11
17.49999999999977
 21
-134.692308412266
 31
0.0
  0
LINE
  5
7730
330
A
100
AcDbEntity
  8
0
  6
Continuous
 62
     7
370
     0
100
AcDbLine
 10
5.50000000000017
 20
-127.192308412267
 30
0.0
 11
5.50000000000017
 21
-133.1923084122661
 31
0.0
  0
LINE
  5
7731
330
A
100
AcDbEntity
  8
0
  6
Continuous
 62
     9
370
     0
100
AcDbLine
 10
-5.306140278369753
 20
-127.192308412267
 30
0.0
 11
-5.306140278369753
 21
-133.1923084122661
 31
0.0
  0
LINE
  5
7732
330
A
100
AcDbEntity
  8
0
  6
Continuous
 62
     9
370
     0
100
AcDbLine
 10
-9.165151389911557
 20
-127.192308412267
 30
0.0
 11
-9.165151389911557
 21
-133.1923084122661
 31
0.0
  0
ARC
  5
7733
330
A
100
AcDbEntity
  8
0
  6
Continuous
 62
     7
370
     0
100
AcDbCircle
 10
-21.49999999999971
 20
-130.692308412266
 30
0.0
 40
2.500000000000002
100
AcDbArc
 50
270.0
 51
0.0
  0
ARC
  5
7734
330
A
100
AcDbEntity
  8
0
  6
Continuous
 62
     7
370
     0
100
AcDbCircle
 10
-21.49999999999971
 20
-130.692308412266
 30
0.0
 40
2.500000000000002
100
AcDbArc
 50
0.0
 51
270.0
  0
LINE
  5
7735
330
A
100
AcDbEntity
  8
0
  6
Continuous
 62
     7
370
     0
100
AcDbLine
 10
-30.75000000000574
 20
-126.6923084122661
 30
0.0
 11
-32.49999999999955
 21
-126.6923084122661
 31
0.0
  0
LINE
  5
7736
330
A
100
AcDbEntity
  8
0
  6
Continuous
 62
     7
370
     0
100
AcDbLine
 10
-32.49999999999955
 20
-126.6923084122661
 30
0.0
 11
-32.49999999999955
 21
-134.692308412266
 31
0.0
  0
LINE
  5
7737
330
A
100
AcDbEntity
  8
0
  6
Continuous
 62
     7
370
     0
100
AcDbLine
 10
-35.49999935491036
 20
-122.7550537590914
 30
0.0
 11
-35.49999935491036
 21
-121.6923076922853
 31
0.0
  0
ARC
  5
7738
330
A
100
AcDbEntity
  8
0
  6
Continuous
 62
     7
370
     0
100
AcDbCircle
 10
-26.4999993549103
 20
-130.6923076922852
 30
0.0
 40
12.00000000000001
100
AcDbArc
 50
138.590377890729
 51
221.4096221092709
  0
LINE
  5
7739
330
A
100
AcDbEntity
  8
0
  6
Continuous
 62
     7
370
     0
100
AcDbLine
 10
-35.49999935491036
 20
-139.6923076922852
 30
0.0
 11
-35.49999935491036
 21
-138.629561625479
 31
0.0
  0
LINE
  5
773A
330
A
100
AcDbEntity
  8
0
  6
Continuous
 62
     7
370
     0
100
AcDbLine
 10
-40.49999935491036
 20
-139.6923076922852
 30
0.0
 11
-35.49999935491036
 21
-139.6923076922852
 31
0.0
  0
LINE
  5
773B
330
A
100
AcDbEntity
  8
0
  6
Continuous
 62
     7
370
     0
100
AcDbLine
 10
-40.49999935491036
 20
-104.6923076922852
 30
0.0
 11
-40.49999935491036
 21
-139.6923076922852
 31
0.0
  0
LINE
  5
773C
330
A
100
AcDbEntity
  8
0
  6
Continuous
 62
     9
370
     0
100
AcDbLine
 10
-36.27272662763755
 20
-104.6923076922852
 30
0.0
 11
-40.49999935491036
 21
-104.6923076922852
 31
0.0
  0
LINE
  5
773D
330
A
100
AcDbEntity
  8
0
  6
Continuous
 62
     7
370
     0
100
AcDbLine
 10
-35.49999935491036
 20
-121.6923076922853
 30
0.0
 11
-36.27272662763755
 21
-104.6923076922852
 31
0.0
  0
LINE
  5
773E
330
A
100
AcDbEntity
  8
0
  6
Continuous
 62
     7
370
     0
100
AcDbLine
 10
-40.49999935491036
 20
-99.6923076922852
 30
0.0
 11
-37.45557733425324
 21
-99.6923076922852
 31
0.0
  0
LINE
  5
7757
330
A
100
AcDbEntity
  8
0
  6
Continuous
 62
     7
370
     0
100
AcDbLine
 10
-40.49999935491036
 20
-104.6923076922852
 30
0.0
 11
-40.49999935491036
 21
-99.69230769228508
 31
0.0
  0
LINE
  5
7758
330
A
100
AcDbEntity
  8
0
  6
Continuous
 62
     7
370
     0
100
AcDbLine
 10
-36.45660879404307
 20
-100.6469000313665
 30
0.0
 11
-36.27272662763755
 21
-104.6923076922852
 31
0.0
  0
LINE
  5
7759
330
A
100
AcDbEntity
  8
0
  6
Continuous
 62
     9
370
     0
100
AcDbLine
 10
-34.49999935491036
 20
-121.6923076922852
 30
0.0
 11
-34.49999935491019
 21
-123.1424732570143
 31
0.0
  0
LINE
  5
775A
330
A
100
AcDbEntity
  8
0
  6
Continuous
 62
     7
370
     0
100
AcDbLine
 10
-34.49999935491019
 20
-123.1424732570143
 30
0.0
 11
-35.49999935491036
 21
-122.7550537590914
 31
0.0
  0
LINE
  5
775B
330
A
100
AcDbEntity
  8
0
  6
Continuous
 62
     7
370
     0
100
AcDbLine
 10
-34.49999935491036
 20
-121.6923076922852
 30
0.0
 11
-35.49999935491036
 21
-121.6923076922852
 31
0.0
  0
ARC
  5
775C
330
A
100
AcDbEntity
  8
0
  6
Continuous
 62
     9
370
     0
100
AcDbCircle
 10
-26.4999993549103
 20
-130.6923076922852
 30
0.0
 40
11.00000000000001
100
AcDbArc
 50
136.6582417727754
 51
223.341758227224
  0
LINE
  5
775D
330
A
100
AcDbEntity
  8
0
  6
Continuous
 62
     7
370
     0
100
AcDbLine
 10
-35.49999935491036
 20
-138.629561625479
 30
0.0
 11
-34.49999935491036
 21
-138.2421421275559
 31
0.0
  0
LINE
  5
775E
330
A
100
AcDbEntity
  8
0
  6
Continuous
 62
     9
370
     0
100
AcDbLine
 10
-34.49999935491036
 20
-138.2421421275561
 30
0.0
 11
-34.49999935491036
 21
-139.6923076922852
 31
0.0
  0
LINE
  5
775F
330
A
100
AcDbEntity
  8
0
  6
Continuous
 62
     7
370
     0
100
AcDbLine
 10
-35.49999935491036
 20
-139.6923076922852
 30
0.0
 11
-34.49999935491036
 21
-139.6923076922852
 31
0.0
  0
ARC
  5
7760
330
A
100
AcDbEntity
  8
0
  6
Continuous
 62
     7
370
     0
100
AcDbCircle
 10
-24.66227701507876
 20
-138.1923076922852
 30
0.0
 40
1.5
100
AcDbArc
 50
270.0
 51
305.096801227583
  0
ARC
  5
7761
330
A
100
AcDbEntity
  8
0
  6
Continuous
 62
     7
370
     0
100
AcDbCircle
 10
-20.4999993549103
 20
-130.6923076922852
 30
0.0
 40
9.000000000000012
100
AcDbArc
 50
284.0240495062374
 51
297.2660344456848
  0
ARC
  5
7762
330
A
100
AcDbEntity
  8
0
  6
Continuous
 62
     7
370
     0
100
AcDbCircle
 10
-21.4999993549103
 20
-142.6923076922852
 30
0.0
 40
3.999999999999986
100
AcDbArc
 50
90.0
 51
125.0968012275835
  0
ARC
  5
7763
330
A
100
AcDbEntity
  8
0
  6
Continuous
 62
     7
370
     0
100
AcDbCircle
 10
-21.4999993549103
 20
-142.6923076922852
 30
0.0
 40
4.000000000000001
100
AcDbArc
 50
59.18504675893971
 51
90.0
  0
ARC
  5
7764
330
A
100
AcDbEntity
  8
0
  6
Continuous
 62
     7
370
     0
100
AcDbCircle
 10
-18.68253073605524
 20
-137.9687634105231
 30
0.0
 40
1.500000000000003
100
AcDbArc
 50
239.1850467589397
 51
284.0240495062374
  0
LINE
  5
7765
330
A
100
AcDbEntity
  8
0
  6
Continuous
 62
     7
370
     0
100
AcDbLine
 10
-28.9202864369546
 20
-121.6923076922852
 30
0.0
 11
-34.49999935491036
 21
-121.6923076922852
 31
0.0
  0
LINE
  5
7766
330
A
100
AcDbEntity
  8
0
  6
Continuous
 62
     7
370
     0
100
AcDbLine
 10
-34.49999935491036
 20
-139.6923076922852
 30
0.0
 11
-24.66227701507876
 21
-139.6923076922852
 31
0.0
  0
LINE
  5
7767
330
A
100
AcDbEntity
  8
0
  6
Continuous
 62
     9
370
     0
100
AcDbLine
 10
-26.50227701507868
 20
-121.6922876922852
 30
0.0
 11
-26.50227701507868
 21
-121.4923076922849
 31
0.0
  0
LINE
  5
7768
330
A
100
AcDbEntity
  8
0
  6
Continuous
 62
     9
370
     0
100
AcDbLine
 10
-31.50227701507868
 20
-121.4923076922849
 30
0.0
 11
-31.50227701507868
 21
-121.6922876922852
 31
0.0
  0
LINE
  5
7769
330
A
100
AcDbEntity
  8
0
  6
Continuous
 62
     7
370
     0
100
AcDbLine
 10
-42.49999935491035
 20
-107.7923076922871
 30
0.0
 11
-48.49999935491036
 21
-107.7923076922871
 31
0.0
  0
LINE
  5
776A
330
A
100
AcDbEntity
  8
0
  6
Continuous
 62
     7
370
     0
100
AcDbLine
 10
-48.49999935491036
 20
-121.5923076922871
 30
0.0
 11
-42.49999935491035
 21
-121.5923076922871
 31
0.0
  0
LINE
  5
776B
330
A
100
AcDbEntity
  8
0
  6
Continuous
 62
     7
370
     0
100
AcDbLine
 10
-26.10227701507819
 20
-121.6923076922852
 30
0.0
 11
-26.50227701507868
 21
-121.492307692285
 31
0.0
  0
LINE
  5
776C
330
A
100
AcDbEntity
  8
0
  6
Continuous
 62
     7
370
     0
100
AcDbLine
 10
-26.50227701507868
 20
-121.492307692285
 30
0.0
 11
-27.00227701507868
 21
-121.2423076922849
 31
0.0
  0
LINE
  5
776D
330
A
100
AcDbEntity
  8
0
  6
Continuous
 62
     7
370
     0
100
AcDbLine
 10
-31.00227701507868
 20
-121.2423076922849
 30
0.0
 11
-31.50227701507868
 21
-121.492307692285
 31
0.0
  0
LINE
  5
776E
330
A
100
AcDbEntity
  8
0
  6
Continuous
 62
     7
370
     0
100
AcDbLine
 10
-31.50227701507868
 20
-121.492307692285
 30
0.0
 11
-31.90227701507922
 21
-121.6923076922852
 31
0.0
  0
LINE
  5
776F
330
A
100
AcDbEntity
  8
0
  6
Continuous
 62
     7
370
     0
100
AcDbLine
 10
-35.5579769305665
 20
-120.4168010278498
 30
0.0
 11
-35.01818117308488
 21
-120.1051498019603
 31
0.0
  0
LINE
  5
7770
330
A
100
AcDbEntity
  8
0
  6
Continuous
 62
     7
370
     0
100
AcDbLine
 10
-35.01818117308488
 20
-109.2794655826101
 30
0.0
 11
-36.09241066378769
 21
-108.6592588969814
 31
0.0
  0
ARC
  5
7771
330
A
100
AcDbEntity
  8
0
  6
Continuous
 62
     7
370
     0
100
AcDbCircle
 10
-35.26818117308477
 20
-109.7124782845024
 30
0.0
 40
0.5000000000000006
100
AcDbArc
 50
0.0
 51
59.99999999999986
  0
ARC
  5
7772
330
A
100
AcDbEntity
  8
0
  6
Continuous
 62
     7
370
     0
100
AcDbCircle
 10
-35.26818117308477
 20
-119.672137100068
 30
0.0
 40
0.499999999999988
100
AcDbArc
 50
299.9999999999965
 51
359.9999999999976
  0
LINE
  5
7773
330
A
100
AcDbEntity
  8
0
  6
Continuous
 62
     7
370
     0
100
AcDbLine
 10
6.249999999989995
 20
-121.3923084123228
 30
0.0
 11
5.412842109678649
 21
-119.9423084123151
 31
0.0
  0
LINE
  5
7774
330
A
100
AcDbEntity
  8
0
  6
Continuous
 62
     7
370
     0
100
AcDbLine
 10
-5.412842109671544
 20
-119.9423084122148
 30
0.0
 11
-6.250000000010004
 21
-121.392308412207
 31
0.0
  0
LINE
  5
7775
330
A
100
AcDbEntity
  8
0
  6
Continuous
 62
     7
370
     0
100
AcDbLine
 10
-6.250000000010004
 20
-121.392308412207
 30
0.0
 11
-6.250000000012676
 21
-121.692308412207
 31
0.0
  0
LINE
  5
7776
330
A
100
AcDbEntity
  8
0
  6
Continuous
 62
     7
370
     0
100
AcDbLine
 10
6.249999999987323
 20
-121.6923084123228
 30
0.0
 11
6.249999999989995
 21
-121.3923084123228
 31
0.0
  0
ARC
  5
7777
330
A
100
AcDbEntity
  8
0
  6
Continuous
 62
     7
370
     0
100
AcDbCircle
 10
-4.979829407781664
 20
-120.1923084122186
 30
0.0
 40
0.5000000000000006
100
AcDbArc
 50
89.99999999946586
 51
149.9999999994654
  0
ARC
  5
7778
330
A
100
AcDbEntity
  8
0
  6
Continuous
 62
     7
370
     0
100
AcDbCircle
 10
4.979829407783938
 20
-120.192308412311
 30
0.0
 40
0.5000000000000226
100
AcDbArc
 50
29.99999999946931
 51
89.99999999946913
  0
LINE
  5
7779
330
A
100
AcDbEntity
  8
0
  6
Continuous
 62
     7
370
     0
100
AcDbLine
 10
-31.00227701507868
 20
68.74230769232993
 30
0.0
 11
-29.00227701507868
 21
68.74230769232993
 31
0.0
  0
LINE
  5
777A
330
A
100
AcDbEntity
  8
0
  6
Continuous
 62
     7
370
     0
100
AcDbLine
 10
-29.00227701507868
 20
68.74230769232993
 30
0.0
 11
-27.00227701507868
 21
68.74230769232993
 31
0.0
  0
LINE
  5
777B
330
A
100
AcDbEntity
  8
0
  6
Continuous
 62
     9
370
     0
100
AcDbLine
 10
-24.3035079557805
 20
69.19230841231114
 30
0.0
 11
-24.47405849068502
 21
68.64479638011298
 31
0.0
  0
ARC
  5
777C
330
A
100
AcDbEntity
  8
0
  6
Continuous
 62
     7
370
     0
100
AcDbCircle
 10
-21.4999993549103
 20
78.19230769233017
 30
0.0
 40
9.999999999999988
100
AcDbArc
 50
244.1580672368318
 51
252.6981372912102
  0
ARC
  5
777D
330
A
100
AcDbEntity
  8
0
  6
Continuous
 62
     7
370
     0
100
AcDbCircle
 10
-21.4999993549103
 20
78.19230769233017
 30
0.0
 40
10.0
100
AcDbArc
 50
107.30186270879
 51
115.8419327631682
  0
LINE
  5
777E
330
A
100
AcDbEntity
  8
0
  6
Continuous
 62
     9
370
     0
100
AcDbLine
 10
-24.28879263814849
 20
87.14506693604157
 30
0.0
 11
-24.47405849068502
 21
87.73981900454739
 31
0.0
  0
ARC
  5
777F
330
A
100
AcDbEntity
  8
0
  6
Continuous
 62
     7
370
     0
100
AcDbCircle
 10
-24.02794962031874
 20
86.30769230771479
 30
0.0
 40
1.499999999999974
100
AcDbArc
 50
62.63693817764894
 51
107.3018627087897
  0
LINE
  5
7780
330
A
100
AcDbEntity
  8
0
  6
Continuous
 62
     9
370
     0
100
AcDbLine
 10
-23.73453134368475
 20
86.8746478557671
 30
0.0
 11
-23.33850863884368
 21
87.63986013988261
 31
0.0
  0
ARC
  5
7781
330
A
100
AcDbEntity
  8
0
  6
Continuous
 62
     7
370
     0
100
AcDbCircle
 10
-24.02794962031874
 20
70.07692307694553
 30
0.0
 40
1.5
100
AcDbArc
 50
252.69813729121
 51
270.0
  0
LINE
  5
7782
330
A
100
AcDbEntity
  8
0
  6
Continuous
 62
     9
370
     0
100
AcDbLine
 10
-23.57013222833121
 20
69.19230841231114
 30
0.0
 11
-23.33850863884368
 21
68.7447552447777
 31
0.0
  0
ARC
  5
7783
330
A
100
AcDbEntity
  8
0
  6
Continuous
 62
     7
370
     0
100
AcDbCircle
 10
-24.02794962031874
 20
70.07692307694553
 30
0.0
 40
1.500000000000013
100
AcDbArc
 50
270.0
 51
297.3630618223511
  0
ARC
  5
7784
330
A
100
AcDbEntity
  8
0
  6
Continuous
 62
     7
370
     0
100
AcDbCircle
 10
-21.4999993549103
 20
91.19230769233016
 30
0.0
 40
3.999999999999986
100
AcDbArc
 50
242.6369381776493
 51
297.3630618223507
  0
LINE
  5
7785
330
A
100
AcDbEntity
  8
0
  6
Continuous
 62
     9
370
     0
100
AcDbLine
 10
-19.66149007097687
 20
87.63986013988261
 30
0.0
 11
-19.2553427294896
 21
86.85508459275418
 31
0.0
  0
ARC
  5
7786
330
A
100
AcDbEntity
  8
0
  6
Continuous
 62
     7
370
     0
100
AcDbCircle
 10
-18.97204908950186
 20
86.30769230771479
 30
0.0
 40
1.500000000000014
100
AcDbArc
 50
72.69813729121027
 51
117.363061822351
  0
LINE
  5
7787
330
A
100
AcDbEntity
  8
0
  6
Continuous
 62
     9
370
     0
100
AcDbLine
 10
-18.52594021913569
 20
87.73981900454739
 30
0.0
 11
-18.76686384990779
 21
86.96639084284482
 31
0.0
  0
ARC
  5
7788
330
A
100
AcDbEntity
  8
0
  6
Continuous
 62
     7
370
     0
100
AcDbCircle
 10
-21.4999993549103
 20
78.19230769233017
 30
0.0
 40
9.999999999999991
100
AcDbArc
 50
53.13010922946835
 51
72.69813729121027
  0
ARC
  5
7789
330
A
100
AcDbEntity
  8
0
  6
Continuous
 62
     7
370
     0
100
AcDbCircle
 10
-18.97204908950186
 20
70.07692307694553
 30
0.0
 40
1.5
100
AcDbArc
 50
242.6369381776493
 51
270.0
  0
LINE
  5
778A
330
A
100
AcDbEntity
  8
0
  6
Continuous
 62
     9
370
     0
100
AcDbLine
 10
-18.69649075404021
 20
69.19230841231114
 30
0.0
 11
-18.52594021913569
 21
68.64479638011298
 31
0.0
  0
ARC
  5
778B
330
A
100
AcDbEntity
  8
0
  6
Continuous
 62
     7
370
     0
100
AcDbCircle
 10
-18.97204908950186
 20
70.07692307694553
 30
0.0
 40
1.5
100
AcDbArc
 50
270.0
 51
287.3018627087932
  0
LINE
  5
778C
330
A
100
AcDbEntity
  8
0
  6
Continuous
 62
     9
370
     0
100
AcDbLine
 10
-19.4298664814894
 20
69.19230841231114
 30
0.0
 11
-19.66149007097687
 21
68.7447552447777
 31
0.0
  0
ARC
  5
778D
330
A
100
AcDbEntity
  8
0
  6
Continuous
 62
     7
370
     0
100
AcDbCircle
 10
-21.4999993549103
 20
78.19230769233017
 30
0.0
 40
9.999999999999982
100
AcDbArc
 50
287.3018627087897
 51
295.8419422269942
  0
ARC
  5
778E
330
A
100
AcDbEntity
  8
0
  6
Continuous
 62
     7
370
     0
100
AcDbCircle
 10
-21.4999993549103
 20
65.19230769233016
 30
0.0
 40
4.000000000000001
100
AcDbArc
 50
90.0
 51
117.3630618223507
  0
ARC
  5
778F
330
A
100
AcDbEntity
  8
0
  6
Continuous
 62
     7
370
     0
100
AcDbCircle
 10
-21.4999993549103
 20
65.19230769233016
 30
0.0
 40
4.0
100
AcDbArc
 50
62.63693817764931
 51
90.0
  0
LINE
  5
7790
330
A
100
AcDbEntity
  8
0
  6
Continuous
 62
     9
370
     0
100
AcDbLine
 10
-35.01818117309222
 20
56.77946558265512
 30
0.0
 11
-35.01818117309222
 21
67.6051498020052
 31
0.0
  0
LINE
  5
7791
330
A
100
AcDbEntity
  8
0
  6
Continuous
 62
     7
370
     0
100
AcDbLine
 10
-34.76818117309205
 20
67.17213710011299
 30
0.0
 11
-34.76818117309205
 21
57.21247828454734
 31
0.0
  0
LINE
  5
7792
330
A
100
AcDbEntity
  8
0
  6
Continuous
 62
     9
370
     0
100
AcDbLine
 10
-50.49999935491257
 20
53.19230769231815
 30
0.0
 11
-49.49999935490637
 21
53.19230769231815
 31
0.0
  0
LINE
  5
7793
330
A
100
AcDbEntity
  8
0
  6
Continuous
 62
     9
370
     0
100
AcDbLine
 10
-49.49999935490637
 20
53.19230769231815
 30
0.0
 11
-48.49999935491258
 21
53.19230769231815
 31
0.0
  0
LINE
  5
7794
330
A
100
AcDbEntity
  8
0
  6
Continuous
 62
     9
370
     0
100
AcDbLine
 10
-50.49999935491257
 20
85.19230769231814
 30
0.0
 11
-49.49999935490637
 21
85.19230769231814
 31
0.0
  0
LINE
  5
7795
330
A
100
AcDbEntity
  8
0
  6
Continuous
 62
     9
370
     0
100
AcDbLine
 10
-49.49999935490637
 20
85.19230769231814
 30
0.0
 11
-48.49999935491258
 21
85.19230769231814
 31
0.0
  0
LINE
  5
7796
330
A
100
AcDbEntity
  8
0
  6
Continuous
 62
     7
370
     0
100
AcDbLine
 10
-48.49999935491258
 20
85.19230769231814
 30
0.0
 11
-48.49999935491258
 21
53.19230769231815
 31
0.0
  0
LINE
  5
7797
330
A
100
AcDbEntity
  8
0
  6
Continuous
 62
     7
370
     0
100
AcDbLine
 10
-50.49999935491257
 20
86.19230769231814
 30
0.0
 11
-49.49999935490637
 21
86.19230769231814
 31
0.0
  0
LINE
  5
7798
330
A
100
AcDbEntity
  8
0
  6
Continuous
 62
     7
370
     0
100
AcDbLine
 10
-49.49999935490637
 20
86.19230769231814
 30
0.0
 11
-48.49999935491258
 21
86.19230769231814
 31
0.0
  0
LINE
  5
7799
330
A
100
AcDbEntity
  8
0
  6
Continuous
 62
     7
370
     0
100
AcDbLine
 10
-48.49999935491258
 20
86.19230769231814
 30
0.0
 11
-48.49999935491258
 21
85.19230769231814
 31
0.0
  0
LINE
  5
779A
330
A
100
AcDbEntity
  8
0
  6
Continuous
 62
     7
370
     0
100
AcDbLine
 10
-50.49999935491257
 20
48.19230769231815
 30
0.0
 11
-49.49999935490637
 21
48.19230769231815
 31
0.0
  0
LINE
  5
779B
330
A
100
AcDbEntity
  8
0
  6
Continuous
 62
     7
370
     0
100
AcDbLine
 10
-49.49999935490637
 20
48.19230769231815
 30
0.0
 11
-48.49999935491258
 21
48.19230769231815
 31
0.0
  0
LINE
  5
779C
330
A
100
AcDbEntity
  8
0
  6
Continuous
 62
     7
370
     0
100
AcDbLine
 10
-48.49999935491258
 20
53.19230769231815
 30
0.0
 11
-48.49999935491258
 21
48.19230769231815
 31
0.0
  0
LINE
  5
779D
330
A
100
AcDbEntity
  8
0
  6
Continuous
 62
     9
370
     0
100
AcDbLine
 10
-40.49999935491036
 20
85.19230769233899
 30
0.0
 11
-41.49999935490995
 21
85.19230769233899
 31
0.0
  0
LINE
  5
779E
330
A
100
AcDbEntity
  8
0
  6
Continuous
 62
     9
370
     0
100
AcDbLine
 10
-41.49999935490995
 20
85.19230769233899
 30
0.0
 11
-42.49999935491035
 21
85.19230769233899
 31
0.0
  0
LINE
  5
779F
330
A
100
AcDbEntity
  8
0
  6
Continuous
 62
     9
370
     0
100
AcDbLine
 10
-40.49999935491036
 20
53.19230769232669
 30
0.0
 11
-41.49999935490995
 21
53.19230769232669
 31
0.0
  0
LINE
  5
77A0
330
A
100
AcDbEntity
  8
0
  6
Continuous
 62
     9
370
     0
100
AcDbLine
 10
-41.49999935490995
 20
53.19230769232669
 30
0.0
 11
-42.49999935491035
 21
53.19230769232669
 31
0.0
  0
LINE
  5
77A1
330
A
100
AcDbEntity
  8
0
  6
Continuous
 62
     7
370
     0
100
AcDbLine
 10
-42.49999935491035
 20
53.19230769232669
 30
0.0
 11
-42.49999935491035
 21
85.19230769233899
 31
0.0
  0
LINE
  5
77A2
330
A
100
AcDbEntity
  8
0
  6
Continuous
 62
     7
370
     0
100
AcDbLine
 10
-40.49999935491036
 20
48.19230769232479
 30
0.0
 11
-41.49999935490995
 21
48.19230769232479
 31
0.0
  0
LINE
  5
77A3
330
A
100
AcDbEntity
  8
0
  6
Continuous
 62
     7
370
     0
100
AcDbLine
 10
-41.49999935490995
 20
48.19230769232479
 30
0.0
 11
-42.49999935491035
 21
48.19230769232479
 31
0.0
  0
LINE
  5
77A4
330
A
100
AcDbEntity
  8
0
  6
Continuous
 62
     7
370
     0
100
AcDbLine
 10
-42.49999935491035
 20
48.19230769232672
 30
0.0
 11
-42.49999935491035
 21
53.19230769232669
 31
0.0
  0
LINE
  5
77A5
330
A
100
AcDbEntity
  8
0
  6
Continuous
 62
     7
370
     0
100
AcDbLine
 10
-40.49999935491036
 20
86.19230769233938
 30
0.0
 11
-41.49999935490995
 21
86.19230769233938
 31
0.0
  0
LINE
  5
77A6
330
A
100
AcDbEntity
  8
0
  6
Continuous
 62
     7
370
     0
100
AcDbLine
 10
-41.49999935490995
 20
86.19230769233938
 30
0.0
 11
-42.49999935491035
 21
86.19230769233938
 31
0.0
  0
LINE
  5
77A7
330
A
100
AcDbEntity
  8
0
  6
Continuous
 62
     7
370
     0
100
AcDbLine
 10
-42.49999935491035
 20
85.19230769233899
 30
0.0
 11
-42.49999935491035
 21
86.19230769233899
 31
0.0
  0
LINE
  5
77A8
330
A
100
AcDbEntity
  8
0
  6
Continuous
 62
     7
370
     0
100
AcDbLine
 10
-54.49999935490655
 20
87.19230769232225
 30
0.0
 11
-50.49999935490655
 21
87.19230769232225
 31
0.0
  0
LINE
  5
77A9
330
A
100
AcDbEntity
  8
0
  6
Continuous
 62
     7
370
     0
100
AcDbLine
 10
-50.49999935490655
 20
87.19230769232225
 30
0.0
 11
-50.49999935490655
 21
52.19230769233334
 31
0.0
  0
LINE
  5
77AA
330
A
100
AcDbEntity
  8
0
  6
Continuous
 62
     9
370
     0
100
AcDbLine
 10
-54.49999935490655
 20
52.19230769233334
 30
0.0
 11
-50.49999935490655
 21
52.19230769233334
 31
0.0
  0
LINE
  5
77AB
330
A
100
AcDbEntity
  8
0
  6
Continuous
 62
     7
370
     0
100
AcDbLine
 10
-54.49999935490655
 20
87.19230769232225
 30
0.0
 11
-54.49999935490655
 21
52.19230769233334
 31
0.0
  0
LINE
  5
77AC
330
A
100
AcDbEntity
  8
0
  6
Continuous
 62
     7
370
     0
100
AcDbLine
 10
-50.49999935490655
 20
47.19230769233489
 30
0.0
 11
-54.49999935490655
 21
47.19230769233489
 31
0.0
  0
LINE
  5
77AD
330
A
100
AcDbEntity
  8
0
  6
Continuous
 62
     7
370
     0
100
AcDbLine
 10
-50.49999935490655
 20
52.19230769233334
 30
0.0
 11
-50.49999935490655
 21
47.19230769233333
 31
0.0
  0
LINE
  5
77AE
330
A
100
AcDbEntity
  8
0
  6
Continuous
 62
     7
370
     0
100
AcDbLine
 10
-54.49999935490655
 20
47.19230769233333
 30
0.0
 11
-54.49999935490655
 21
52.19230769233334
 31
0.0
  0
LINE
  5
77AF
330
A
100
AcDbEntity
  8
0
  6
Continuous
 62
     9
370
     0
100
AcDbLine
 10
-50.49999935490655
 20
53.19230769233116
 30
0.0
 11
-49.49999935490637
 21
53.19230769233116
 31
0.0
  0
LINE
  5
77B0
330
A
100
AcDbEntity
  8
0
  6
Continuous
 62
     9
370
     0
100
AcDbLine
 10
-50.49999935490655
 20
85.19230769232756
 30
0.0
 11
-49.49999935490637
 21
85.19230769232756
 31
0.0
  0
LINE
  5
77B1
330
A
100
AcDbEntity
  8
0
  6
Continuous
 62
     7
370
     0
100
AcDbLine
 10
-49.49999935490637
 20
85.19230769232756
 30
0.0
 11
-49.49999935490637
 21
53.19230769233116
 31
0.0
  0
LINE
  5
77B2
330
A
100
AcDbEntity
  8
0
  6
Continuous
 62
     7
370
     0
100
AcDbLine
 10
-50.49999935490655
 20
86.19230769232745
 30
0.0
 11
-49.49999935490637
 21
86.19230769232745
 31
0.0
  0
LINE
  5
77B3
330
A
100
AcDbEntity
  8
0
  6
Continuous
 62
     7
370
     0
100
AcDbLine
 10
-49.49999935490637
 20
86.19230769232755
 30
0.0
 11
-49.49999935490637
 21
85.19230769232756
 31
0.0
  0
LINE
  5
77B4
330
A
100
AcDbEntity
  8
0
  6
Continuous
 62
     7
370
     0
100
AcDbLine
 10
-50.49999935490655
 20
48.19230769233174
 30
0.0
 11
-49.49999935490637
 21
48.19230769233174
 31
0.0
  0
LINE
  5
77B5
330
A
100
AcDbEntity
  8
0
  6
Continuous
 62
     7
370
     0
100
AcDbLine
 10
-49.49999935490637
 20
53.19230769233116
 30
0.0
 11
-49.49999935490637
 21
48.19230769233115
 31
0.0
  0
LINE
  5
77B6
330
A
100
AcDbEntity
  8
0
  6
Continuous
 62
     7
370
     0
100
AcDbLine
 10
-41.49999935490995
 20
86.19230769232612
 30
0.0
 11
-41.49999935490995
 21
85.19230769232672
 31
0.0
  0
LINE
  5
77B7
330
A
100
AcDbEntity
  8
0
  6
Continuous
 62
     7
370
     0
100
AcDbLine
 10
-41.49999935490995
 20
86.19230769232657
 30
0.0
 11
-40.49999935491036
 21
86.19230769232657
 31
0.0
  0
LINE
  5
77B8
330
A
100
AcDbEntity
  8
0
  6
Continuous
 62
     9
370
     0
100
AcDbLine
 10
-41.49999935490995
 20
53.19230769233148
 30
0.0
 11
-40.49999935491036
 21
53.19230769233148
 31
0.0
  0
LINE
  5
77B9
330
A
100
AcDbEntity
  8
0
  6
Continuous
 62
     7
370
     0
100
AcDbLine
 10
-41.49999935490995
 20
85.19230769232672
 30
0.0
 11
-41.49999935490995
 21
53.19230769233148
 31
0.0
  0
LINE
  5
77BA
330
A
100
AcDbEntity
  8
0
  6
Continuous
 62
     9
370
     0
100
AcDbLine
 10
-41.49999935490995
 20
85.19230769232672
 30
0.0
 11
-40.49999935491036
 21
85.19230769232672
 31
0.0
  0
LINE
  5
77BB
330
A
100
AcDbEntity
  8
0
  6
Continuous
 62
     7
370
     0
100
AcDbLine
 10
-41.49999935490995
 20
48.19230769233223
 30
0.0
 11
-40.49999935491036
 21
48.19230769233223
 31
0.0
  0
LINE
  5
77BC
330
A
100
AcDbEntity
  8
0
  6
Continuous
 62
     7
370
     0
100
AcDbLine
 10
-41.49999935490995
 20
53.19230769233148
 30
0.0
 11
-41.49999935490995
 21
48.19230769233596
 31
0.0
  0
LINE
  5
77BD
330
A
100
AcDbEntity
  8
0
  6
Continuous
 62
     7
370
     0
100
AcDbLine
 10
6.2499999999809
 20
68.89230841238232
 30
0.0
 11
-6.250000000019213
 21
68.89230841223753
 31
0.0
  0
LINE
  5
77BE
330
A
100
AcDbEntity
  8
0
  6
Continuous
 62
     9
370
     0
100
AcDbLine
 10
-5.412842109677342
 20
67.4423084122472
 30
0.0
 11
5.412842109672453
 21
67.44230841237263
 31
0.0
  0
LINE
  5
77BF
330
A
100
AcDbEntity
  8
0
  6
Continuous
 62
     7
370
     0
100
AcDbLine
 10
4.979829407783199
 20
67.1923084123676
 30
0.0
 11
-4.97982940778229
 21
67.19230841225222
 31
0.0
  0
LINE
  5
77C0
330
A
100
AcDbEntity
  8
0
  6
Continuous
 62
     7
370
     0
100
AcDbLine
 10
15.74999999999312
 20
73.19230841231114
 30
0.0
 11
15.74999999999312
 21
73.69230841231114
 31
0.0
  0
LINE
  5
77C1
330
A
100
AcDbEntity
  8
0
  6
Continuous
 62
     9
370
     0
100
AcDbLine
 10
11.24999999999312
 20
73.19230841231114
 30
0.0
 11
11.24999999999312
 21
73.69230841231114
 31
0.0
  0
LINE
  5
77C2
330
A
100
AcDbEntity
  8
0
  6
Continuous
 62
     7
370
     0
100
AcDbLine
 10
15.74999999999312
 20
73.69230841231114
 30
0.0
 11
11.24999999999312
 21
73.69230841231114
 31
0.0
  0
LINE
  5
77C3
330
A
100
AcDbEntity
  8
0
  6
Continuous
 62
     9
370
     0
100
AcDbLine
 10
-26.25000000000671
 20
73.19230841231114
 30
0.0
 11
-26.25000000000671
 21
73.69230841231114
 31
0.0
  0
LINE
  5
77C4
330
A
100
AcDbEntity
  8
0
  6
Continuous
 62
     7
370
     0
100
AcDbLine
 10
11.24999999999312
 20
73.69230841231114
 30
0.0
 11
-26.25000000000671
 21
73.69230841231114
 31
0.0
  0
LINE
  5
77C5
330
A
100
AcDbEntity
  8
0
  6
Continuous
 62
     7
370
     0
100
AcDbLine
 10
-30.75000000000671
 20
73.19230841231114
 30
0.0
 11
-30.75000000000671
 21
73.69230841231114
 31
0.0
  0
LINE
  5
77C6
330
A
100
AcDbEntity
  8
0
  6
Continuous
 62
     7
370
     0
100
AcDbLine
 10
-26.25000000000671
 20
73.69230841231114
 30
0.0
 11
-30.75000000000671
 21
73.69230841231114
 31
0.0
  0
LINE
  5
77C7
330
A
100
AcDbEntity
  8
0
  6
Continuous
 62
     9
370
     0
100
AcDbLine
 10
11.24999999999426
 20
74.69230841231203
 30
0.0
 11
11.24999999999426
 21
73.69230841231027
 31
0.0
  0
LINE
  5
77C8
330
A
100
AcDbEntity
  8
0
  6
Continuous
 62
     9
370
     0
100
AcDbLine
 10
11.24999999999426
 20
73.69230841231027
 30
0.0
 11
11.24999999999426
 21
73.19230841231114
 31
0.0
  0
LINE
  5
77C9
330
A
100
AcDbEntity
  8
0
  6
Continuous
 62
     7
370
     0
100
AcDbLine
 10
11.24999999999426
 20
74.69230841231203
 30
0.0
 11
15.75000000000023
 21
74.69230841231203
 31
0.0
  0
LINE
  5
77CA
330
A
100
AcDbEntity
  8
0
  6
Continuous
 62
     7
370
     0
100
AcDbLine
 10
15.74999999999426
 20
74.69230841231203
 30
0.0
 11
15.74999999999426
 21
73.69230841231027
 31
0.0
  0
LINE
  5
77CB
330
A
100
AcDbEntity
  8
0
  6
Continuous
 62
     7
370
     0
100
AcDbLine
 10
15.74999999999426
 20
73.69230841231027
 30
0.0
 11
15.74999999999426
 21
73.1923084123098
 31
0.0
  0
LINE
  5
77CC
330
A
100
AcDbEntity
  8
0
  6
Continuous
 62
     9
370
     0
100
AcDbLine
 10
-26.25000000000574
 20
74.69230841231203
 30
0.0
 11
-26.25000000000574
 21
73.69230841231027
 31
0.0
  0
LINE
  5
77CD
330
A
100
AcDbEntity
  8
0
  6
Continuous
 62
     9
370
     0
100
AcDbLine
 10
-26.25000000000574
 20
73.69230841231027
 30
0.0
 11
-26.25000000000574
 21
73.19230841231114
 31
0.0
  0
LINE
  5
77CE
330
A
100
AcDbEntity
  8
0
  6
Continuous
 62
     7
370
     0
100
AcDbLine
 10
-26.25000000000574
 20
74.69230841231203
 30
0.0
 11
11.24999999999426
 21
74.69230841231203
 31
0.0
  0
LINE
  5
77CF
330
A
100
AcDbEntity
  8
0
  6
Continuous
 62
     7
370
     0
100
AcDbLine
 10
-30.75000000000574
 20
74.69230841231203
 30
0.0
 11
-30.75000000000574
 21
73.69230841231027
 31
0.0
  0
LINE
  5
77D0
330
A
100
AcDbEntity
  8
0
  6
Continuous
 62
     7
370
     0
100
AcDbLine
 10
-30.75000000000574
 20
73.69230841231027
 30
0.0
 11
-30.75000000000574
 21
73.19230841231114
 31
0.0
  0
LINE
  5
77D1
330
A
100
AcDbEntity
  8
0
  6
Continuous
 62
     7
370
     0
100
AcDbLine
 10
-30.75000000000972
 20
74.69230841231203
 30
0.0
 11
-26.25000000000574
 21
74.69230841231203
 31
0.0
  0
LINE
  5
77D2
330
A
100
AcDbEntity
  8
0
  6
Continuous
 62
     9
370
     0
100
AcDbLine
 10
-26.75000000000489
 20
82.19230841231106
 30
0.0
 11
-26.75000000000489
 21
81.69230841231042
 31
0.0
  0
LINE
  5
77D3
330
A
100
AcDbEntity
  8
0
  6
Continuous
 62
     9
370
     0
100
AcDbLine
 10
10.74999999999494
 20
82.19230841231106
 30
0.0
 11
10.74999999999494
 21
81.69230841231042
 31
0.0
  0
LINE
  5
77D4
330
A
100
AcDbEntity
  8
0
  6
Continuous
 62
     7
370
     0
100
AcDbLine
 10
-26.75000000000489
 20
81.69230841231042
 30
0.0
 11
10.74999999999511
 21
81.69230841231042
 31
0.0
  0
LINE
  5
77D5
330
A
100
AcDbEntity
  8
0
  6
Continuous
 62
     7
370
     0
100
AcDbLine
 10
15.24999999999511
 20
82.19230841231106
 30
0.0
 11
15.24999999999511
 21
81.69230841231042
 31
0.0
  0
LINE
  5
77D6
330
A
100
AcDbEntity
  8
0
  6
Continuous
 62
     7
370
     0
100
AcDbLine
 10
10.74999999999494
 20
81.69230841231042
 30
0.0
 11
15.24999999999511
 21
81.69230841231042
 31
0.0
  0
LINE
  5
77D7
330
A
100
AcDbEntity
  8
0
  6
Continuous
 62
     7
370
     0
100
AcDbLine
 10
-31.25000000000489
 20
82.19230841231106
 30
0.0
 11
-31.25000000000489
 21
81.69230841231042
 31
0.0
  0
LINE
  5
77D8
330
A
100
AcDbEntity
  8
0
  6
Continuous
 62
     7
370
     0
100
AcDbLine
 10
-31.25000000000489
 20
81.69230841231042
 30
0.0
 11
-26.75000000000489
 21
81.69230841231042
 31
0.0
  0
LINE
  5
77D9
330
A
100
AcDbEntity
  8
0
  6
Continuous
 62
     9
370
     0
100
AcDbLine
 10
10.74999999999494
 20
82.19230841231106
 30
0.0
 11
10.74999999999494
 21
81.69230841231042
 31
0.0
  0
LINE
  5
77DA
330
A
100
AcDbEntity
  8
0
  6
Continuous
 62
     9
370
     0
100
AcDbLine
 10
10.74999999999494
 20
81.69230841231042
 30
0.0
 11
10.74999999999494
 21
80.69230841231106
 31
0.0
  0
LINE
  5
77DB
330
A
100
AcDbEntity
  8
0
  6
Continuous
 62
     7
370
     0
100
AcDbLine
 10
15.24999999999511
 20
82.19230841231106
 30
0.0
 11
15.24999999999511
 21
81.69230841231042
 31
0.0
  0
LINE
  5
77DC
330
A
100
AcDbEntity
  8
0
  6
Continuous
 62
     7
370
     0
100
AcDbLine
 10
15.24999999999511
 20
81.69230841231042
 30
0.0
 11
15.24999999999511
 21
80.69230841231106
 31
0.0
  0
LINE
  5
77DD
330
A
100
AcDbEntity
  8
0
  6
Continuous
 62
     7
370
     0
100
AcDbLine
 10
10.74999999999494
 20
80.69230841231106
 30
0.0
 11
15.24999999999511
 21
80.69230841231106
 31
0.0
  0
LINE
  5
77DE
330
A
100
AcDbEntity
  8
0
  6
Continuous
 62
     9
370
     0
100
AcDbLine
 10
-26.75000000000489
 20
82.19230841231106
 30
0.0
 11
-26.75000000000489
 21
81.69230841231042
 31
0.0
  0
LINE
  5
77DF
330
A
100
AcDbEntity
  8
0
  6
Continuous
 62
     9
370
     0
100
AcDbLine
 10
-26.75000000000489
 20
81.69230841231042
 30
0.0
 11
-26.75000000000489
 21
80.69230841231106
 31
0.0
  0
LINE
  5
77E0
330
A
100
AcDbEntity
  8
0
  6
Continuous
 62
     7
370
     0
100
AcDbLine
 10
-26.75000000000489
 20
80.69230841231106
 30
0.0
 11
10.74999999999511
 21
80.69230841231106
 31
0.0
  0
LINE
  5
77E1
330
A
100
AcDbEntity
  8
0
  6
Continuous
 62
     7
370
     0
100
AcDbLine
 10
-31.25000000000489
 20
82.19230841231106
 30
0.0
 11
-31.25000000000489
 21
81.69230841231042
 31
0.0
  0
LINE
  5
77E2
330
A
100
AcDbEntity
  8
0
  6
Continuous
 62
     7
370
     0
100
AcDbLine
 10
-31.25000000000489
 20
81.69230841231042
 30
0.0
 11
-31.25000000000489
 21
80.69230841231106
 31
0.0
  0
LINE
  5
77E3
330
A
100
AcDbEntity
  8
0
  6
Continuous
 62
     7
370
     0
100
AcDbLine
 10
-31.25000000000489
 20
80.69230841231106
 30
0.0
 11
-26.75000000000489
 21
80.69230841231106
 31
0.0
  0
LINE
  5
77E4
330
A
100
AcDbEntity
  8
0
  6
Continuous
 62
     7
370
     0
100
AcDbLine
 10
17.49999999999249
 20
73.19230841231114
 30
0.0
 11
17.49999999999249
 21
69.19230841231114
 31
0.0
  0
LINE
  5
77E5
330
A
100
AcDbEntity
  8
0
  6
Continuous
 62
     9
370
     0
100
AcDbLine
 10
12.49999999999448
 20
69.19230841231114
 30
0.0
 11
12.49999999999448
 21
73.19230841231114
 31
0.0
  0
LINE
  5
77E6
330
A
100
AcDbEntity
  8
0
  6
Continuous
 62
     7
370
     0
100
AcDbLine
 10
12.49999999999448
 20
73.19230841231114
 30
0.0
 11
17.49999999999471
 21
73.19230841231114
 31
0.0
  0
LINE
  5
77E7
330
A
100
AcDbEntity
  8
0
  6
Continuous
 62
     7
370
     0
100
AcDbLine
 10
17.49999999999471
 20
69.19230841231114
 30
0.0
 11
12.49999999999448
 21
69.19230841231114
 31
0.0
  0
ARC
  5
77E8
330
A
100
AcDbEntity
  8
0
  6
Continuous
 62
     7
370
     0
100
AcDbCircle
 10
-26.99999999998818
 20
76.44230841231112
 30
0.0
 40
7.499999999999999
100
AcDbArc
 50
222.8334280660799
 51
255.1648884180309
  0
LINE
  5
77E9
330
A
100
AcDbEntity
  8
0
  6
Continuous
 62
     7
370
     0
100
AcDbLine
 10
-32.4999999999859
 20
71.34328889871834
 30
0.0
 11
-32.4999999999859
 21
73.19230841231114
 31
0.0
  0
LINE
  5
77EA
330
A
100
AcDbEntity
  8
0
  6
Continuous
 62
     7
370
     0
100
AcDbLine
 10
12.49999999999448
 20
73.19230841231114
 30
0.0
 11
-32.4999999999859
 21
73.19230841231114
 31
0.0
  0
LINE
  5
77EB
330
A
100
AcDbEntity
  8
0
  6
Continuous
 62
     7
370
     0
100
AcDbLine
 10
12.49999999999448
 20
69.19230841231114
 30
0.0
 11
-28.9202864369546
 21
69.19230841231114
 31
0.0
  0
CIRCLE
  5
77EC
330
A
100
AcDbEntity
  8
0
  6
Continuous
 62
     7
370
     0
100
AcDbCircle
 10
-21.49999999999642
 20
78.19230841230934
 30
0.0
 40
1.75
  0
LINE
  5
77ED
330
A
100
AcDbEntity
  8
0
  6
Continuous
 62
     7
370
     0
100
AcDbLine
 10
-32.49999999999955
 20
82.19230841231106
 30
0.0
 11
-32.49999999999955
 21
84.04132792590386
 31
0.0
  0
ARC
  5
77EE
330
A
100
AcDbEntity
  8
0
  6
Continuous
 62
     7
370
     0
100
AcDbCircle
 10
-26.99999999999955
 20
78.94230841231109
 30
0.0
 40
7.500000000000027
100
AcDbArc
 50
104.8351115819757
 51
137.1665719339333
  0
LINE
  5
77EF
330
A
100
AcDbEntity
  8
0
  6
Continuous
 62
     7
370
     0
100
AcDbLine
 10
-28.92028643696676
 20
86.19230841231102
 30
0.0
 11
12.5
 21
86.19230841231104
 31
0.0
  0
LINE
  5
77F0
330
A
100
AcDbEntity
  8
0
  6
Continuous
 62
     9
370
     0
100
AcDbLine
 10
12.5
 20
82.19230841231106
 30
0.0
 11
12.5
 21
86.19230841231104
 31
0.0
  0
LINE
  5
77F1
330
A
100
AcDbEntity
  8
0
  6
Continuous
 62
     7
370
     0
100
AcDbLine
 10
-32.49999999999955
 20
82.19230841231106
 30
0.0
 11
12.5
 21
82.19230841231106
 31
0.0
  0
LINE
  5
77F2
330
A
100
AcDbEntity
  8
0
  6
Continuous
 62
     7
370
     0
100
AcDbLine
 10
17.49999999999994
 20
86.19230841231104
 30
0.0
 11
17.49999999999994
 21
82.19230841231106
 31
0.0
  0
LINE
  5
77F3
330
A
100
AcDbEntity
  8
0
  6
Continuous
 62
     7
370
     0
100
AcDbLine
 10
17.49999999999994
 20
82.19230841231106
 30
0.0
 11
12.5
 21
82.19230841231106
 31
0.0
  0
LINE
  5
77F4
330
A
100
AcDbEntity
  8
0
  6
Continuous
 62
     7
370
     0
100
AcDbLine
 10
12.5
 20
86.19230841231104
 30
0.0
 11
17.49999999999977
 21
86.19230841231104
 31
0.0
  0
LINE
  5
77F5
330
A
100
AcDbEntity
  8
0
  6
Continuous
 62
     9
370
     0
100
AcDbLine
 10
-5.266062276209822
 20
74.69230841231203
 30
0.0
 11
-5.266062276209822
 21
80.69230841231106
 31
0.0
  0
LINE
  5
77F6
330
A
100
AcDbEntity
  8
0
  6
Continuous
 62
     7
370
     0
100
AcDbLine
 10
5.50000000000017
 20
74.69230841231203
 30
0.0
 11
5.50000000000017
 21
80.69230841231094
 31
0.0
  0
LINE
  5
77F7
330
A
100
AcDbEntity
  8
0
  6
Continuous
 62
     9
370
     0
100
AcDbLine
 10
-8.530240324867577
 20
74.69230841231203
 30
0.0
 11
-8.530240324867577
 21
80.69230841231106
 31
0.0
  0
LINE
  5
77F8
330
A
100
AcDbEntity
  8
0
  6
Continuous
 62
     7
370
     0
100
AcDbLine
 10
-10.49999999999977
 20
74.69230841231203
 30
0.0
 11
-10.49999999999977
 21
80.69230841231106
 31
0.0
  0
ARC
  5
77F9
330
A
100
AcDbEntity
  8
0
  6
Continuous
 62
     7
370
     0
100
AcDbCircle
 10
-21.49999999999971
 20
78.1923084123111
 30
0.0
 40
2.500000000000002
100
AcDbArc
 50
270.0
 51
90.0
  0
ARC
  5
77FA
330
A
100
AcDbEntity
  8
0
  6
Continuous
 62
     7
370
     0
100
AcDbCircle
 10
-21.49999999999971
 20
78.1923084123111
 30
0.0
 40
2.499999999999988
100
AcDbArc
 50
90.0
 51
270.0
  0
LINE
  5
77FB
330
A
100
AcDbEntity
  8
0
  6
Continuous
 62
     7
370
     0
100
AcDbLine
 10
-32.49999999999955
 20
74.19230841231114
 30
0.0
 11
-30.75000000000574
 21
74.19230841231114
 31
0.0
  0
LINE
  5
77FC
330
A
100
AcDbEntity
  8
0
  6
Continuous
 62
     7
370
     0
100
AcDbLine
 10
-32.49999999999955
 20
82.19230841231106
 30
0.0
 11
-32.49999999999955
 21
74.19230841231114
 31
0.0
  0
LINE
  5
77FD
330
A
100
AcDbEntity
  8
0
  6
Continuous
 62
     7
370
     0
100
AcDbLine
 10
-40.49999935491036
 20
87.19230769233016
 30
0.0
 11
-35.49999935491036
 21
87.19230769233016
 31
0.0
  0
LINE
  5
77FE
330
A
100
AcDbEntity
  8
0
  6
Continuous
 62
     9
370
     0
100
AcDbLine
 10
-40.49999935491036
 20
52.19230769233017
 30
0.0
 11
-36.27272662763755
 21
52.19230769233017
 31
0.0
  0
LINE
  5
77FF
330
A
100
AcDbEntity
  8
0
  6
Continuous
 62
     7
370
     0
100
AcDbLine
 10
-40.49999935491036
 20
52.19230769233017
 30
0.0
 11
-40.49999935491036
 21
87.19230769233016
 31
0.0
  0
LINE
  5
7800
330
A
100
AcDbEntity
  8
0
  6
Continuous
 62
     7
370
     0
100
AcDbLine
 10
-35.49999935491036
 20
86.12956162552393
 30
0.0
 11
-35.49999935491036
 21
87.19230769233016
 31
0.0
  0
LINE
  5
7801
330
A
100
AcDbEntity
  8
0
  6
Continuous
 62
     7
370
     0
100
AcDbLine
 10
-35.49999935491036
 20
69.19230769233019
 30
0.0
 11
-36.27272662763755
 21
52.19230769233017
 31
0.0
  0
ARC
  5
7802
330
A
100
AcDbEntity
  8
0
  6
Continuous
 62
     7
370
     0
100
AcDbCircle
 10
-26.4999993549103
 20
78.19230769233017
 30
0.0
 40
12.00000000000002
100
AcDbArc
 50
138.590377890729
 51
221.4096221092709
  0
LINE
  5
7803
330
A
100
AcDbEntity
  8
0
  6
Continuous
 62
     7
370
     0
100
AcDbLine
 10
-35.49999935491036
 20
69.19230769233019
 30
0.0
 11
-35.49999935491036
 21
70.25505375913637
 31
0.0
  0
LINE
  5
781C
330
A
100
AcDbEntity
  8
0
  6
Continuous
 62
     7
370
     0
100
AcDbLine
 10
-37.45557733425324
 20
47.19230769233016
 30
0.0
 11
-40.49999935491036
 21
47.19230769233016
 31
0.0
  0
LINE
  5
781D
330
A
100
AcDbEntity
  8
0
  6
Continuous
 62
     7
370
     0
100
AcDbLine
 10
-40.49999935491036
 20
47.19230769233016
 30
0.0
 11
-40.49999935491036
 21
52.19230769233017
 31
0.0
  0
LINE
  5
781E
330
A
100
AcDbEntity
  8
0
  6
Continuous
 62
     7
370
     0
100
AcDbLine
 10
-36.27272662763755
 20
52.19230769233017
 30
0.0
 11
-36.45660879404307
 21
48.14690003141153
 31
0.0
  0
ARC
  5
781F
330
A
100
AcDbEntity
  8
0
  6
Continuous
 62
     9
370
     0
100
AcDbCircle
 10
-26.4999993549103
 20
78.19230769233017
 30
0.0
 40
11.0
100
AcDbArc
 50
136.6582417727754
 51
223.341758227224
  0
LINE
  5
7820
330
A
100
AcDbEntity
  8
0
  6
Continuous
 62
     7
370
     0
100
AcDbLine
 10
-35.49999935491036
 20
70.25505375913637
 30
0.0
 11
-34.49999935491036
 21
70.64247325705941
 31
0.0
  0
LINE
  5
7821
330
A
100
AcDbEntity
  8
0
  6
Continuous
 62
     7
370
     0
100
AcDbLine
 10
-34.49999935491019
 20
85.74214212760108
 30
0.0
 11
-35.49999935491036
 21
86.12956162552393
 31
0.0
  0
LINE
  5
7822
330
A
100
AcDbEntity
  8
0
  6
Continuous
 62
     9
370
     0
100
AcDbLine
 10
-34.49999935491036
 20
87.19230769233016
 30
0.0
 11
-34.49999935491019
 21
85.74214212760108
 31
0.0
  0
LINE
  5
7823
330
A
100
AcDbEntity
  8
0
  6
Continuous
 62
     7
370
     0
100
AcDbLine
 10
-34.49999935491036
 20
87.19230769233016
 30
0.0
 11
-35.49999935491036
 21
87.19230769233016
 31
0.0
  0
LINE
  5
7824
330
A
100
AcDbEntity
  8
0
  6
Continuous
 62
     9
370
     0
100
AcDbLine
 10
-34.49999935491036
 20
70.64247325705924
 30
0.0
 11
-34.49999935491036
 21
69.19230769233019
 31
0.0
  0
LINE
  5
7825
330
A
100
AcDbEntity
  8
0
  6
Continuous
 62
     7
370
     0
100
AcDbLine
 10
-35.49999935491036
 20
69.19230769233019
 30
0.0
 11
-34.49999935491036
 21
69.19230769233019
 31
0.0
  0
ARC
  5
7826
330
A
100
AcDbEntity
  8
0
  6
Continuous
 62
     7
370
     0
100
AcDbCircle
 10
-24.66227701507876
 20
85.69230769233016
 30
0.0
 40
1.5
100
AcDbArc
 50
54.90319877241699
 51
90.0
  0
ARC
  5
7827
330
A
100
AcDbEntity
  8
0
  6
Continuous
 62
     7
370
     0
100
AcDbCircle
 10
-18.68253073605524
 20
85.46876341056807
 30
0.0
 40
1.500000000000006
100
AcDbArc
 50
75.97595049376271
 51
120.8149532410603
  0
ARC
  5
7828
330
A
100
AcDbEntity
  8
0
  6
Continuous
 62
     7
370
     0
100
AcDbCircle
 10
-21.4999993549103
 20
90.19230769233017
 30
0.0
 40
3.999999999999978
100
AcDbArc
 50
234.9031987724165
 51
270.0000000115587
  0
ARC
  5
7829
330
A
100
AcDbEntity
  8
0
  6
Continuous
 62
     7
370
     0
100
AcDbCircle
 10
-21.4999993549103
 20
90.19230769233017
 30
0.0
 40
4.000000000000001
100
AcDbArc
 50
270.0000000115587
 51
300.8149532410603
  0
ARC
  5
782A
330
A
100
AcDbEntity
  8
0
  6
Continuous
 62
     7
370
     0
100
AcDbCircle
 10
-20.4999993549103
 20
78.19230769233017
 30
0.0
 40
8.999999999999996
100
AcDbArc
 50
62.7339655543152
 51
75.97595049376271
  0
LINE
  5
782B
330
A
100
AcDbEntity
  8
0
  6
Continuous
 62
     7
370
     0
100
AcDbLine
 10
-28.9202864369546
 20
69.19230769233019
 30
0.0
 11
-34.49999935491036
 21
69.19230769233019
 31
0.0
  0
LINE
  5
782C
330
A
100
AcDbEntity
  8
0
  6
Continuous
 62
     7
370
     0
100
AcDbLine
 10
-34.49999935491036
 20
87.19230769233016
 30
0.0
 11
-24.66227701507876
 21
87.19230769233016
 31
0.0
  0
LINE
  5
782D
330
A
100
AcDbEntity
  8
0
  6
Continuous
 62
     9
370
     0
100
AcDbLine
 10
-31.50227701507868
 20
69.19228769233017
 30
0.0
 11
-31.50227701507868
 21
68.99230769232992
 31
0.0
  0
LINE
  5
782E
330
A
100
AcDbEntity
  8
0
  6
Continuous
 62
     9
370
     0
100
AcDbLine
 10
-26.50227701507868
 20
68.99230769232992
 30
0.0
 11
-26.50227701507868
 21
69.19228769233017
 31
0.0
  0
LINE
  5
782F
330
A
100
AcDbEntity
  8
0
  6
Continuous
 62
     7
370
     0
100
AcDbLine
 10
-42.49999935491035
 20
69.09230769233018
 30
0.0
 11
-48.49999935491036
 21
69.09230769233018
 31
0.0
  0
LINE
  5
7830
330
A
100
AcDbEntity
  8
0
  6
Continuous
 62
     7
370
     0
100
AcDbLine
 10
-48.49999935491036
 20
55.29230769233018
 30
0.0
 11
-42.49999935491035
 21
55.29230769233018
 31
0.0
  0
LINE
  5
7831
330
A
100
AcDbEntity
  8
0
  6
Continuous
 62
     7
370
     0
100
AcDbLine
 10
-31.90227701507922
 20
69.19230769233019
 30
0.0
 11
-31.50227701507868
 21
68.99230769232993
 31
0.0
  0
LINE
  5
7832
330
A
100
AcDbEntity
  8
0
  6
Continuous
 62
     7
370
     0
100
AcDbLine
 10
-31.50227701507868
 20
68.99230769232993
 30
0.0
 11
-31.00227701507868
 21
68.74230769232993
 31
0.0
  0
LINE
  5
7833
330
A
100
AcDbEntity
  8
0
  6
Continuous
 62
     7
370
     0
100
AcDbLine
 10
-27.00227701507868
 20
68.74230769232993
 30
0.0
 11
-26.50227701507868
 21
68.99230769232993
 31
0.0
  0
LINE
  5
7834
330
A
100
AcDbEntity
  8
0
  6
Continuous
 62
     7
370
     0
100
AcDbLine
 10
-26.50227701507868
 20
68.99230769232993
 30
0.0
 11
-26.10227701507819
 21
69.19230769233019
 31
0.0
  0
LINE
  5
7835
330
A
100
AcDbEntity
  8
0
  6
Continuous
 62
     7
370
     0
100
AcDbLine
 10
-36.09241066378752
 20
56.15925889703067
 30
0.0
 11
-35.01818117309222
 21
56.77946558265512
 31
0.0
  0
LINE
  5
7836
330
A
100
AcDbEntity
  8
0
  6
Continuous
 62
     7
370
     0
100
AcDbLine
 10
-35.01818117309222
 20
67.6051498020052
 30
0.0
 11
-35.55797693056673
 21
67.91680102789054
 31
0.0
  0
ARC
  5
7837
330
A
100
AcDbEntity
  8
0
  6
Continuous
 62
     7
370
     0
100
AcDbCircle
 10
-35.26818117309222
 20
67.17213710011299
 30
0.0
 40
0.5000000000000561
100
AcDbArc
 50
0.0
 51
59.99999999999986
  0
ARC
  5
7838
330
A
100
AcDbEntity
  8
0
  6
Continuous
 62
     7
370
     0
100
AcDbCircle
 10
-35.26818117309222
 20
57.21247828454734
 30
0.0
 40
0.5000000000000276
100
AcDbArc
 50
300.0000000000034
 51
0.0000000000016284
  0
LINE
  5
7839
330
A
100
AcDbEntity
  8
0
  6
Continuous
 62
     7
370
     0
100
AcDbLine
 10
6.249999999980786
 20
68.89230841238232
 30
0.0
 11
6.249999999977319
 21
69.1923084123823
 31
0.0
  0
LINE
  5
783A
330
A
100
AcDbEntity
  8
0
  6
Continuous
 62
     7
370
     0
100
AcDbLine
 10
-6.25000000002268
 20
69.1923084122375
 30
0.0
 11
-6.250000000019213
 21
68.89230841223751
 31
0.0
  0
LINE
  5
783B
330
A
100
AcDbEntity
  8
0
  6
Continuous
 62
     7
370
     0
100
AcDbLine
 10
-6.250000000019213
 20
68.89230841223751
 30
0.0
 11
-5.412842109677342
 21
67.4423084122472
 31
0.0
  0
LINE
  5
783C
330
A
100
AcDbEntity
  8
0
  6
Continuous
 62
     7
370
     0
100
AcDbLine
 10
5.412842109672453
 20
67.44230841237263
 30
0.0
 11
6.2499999999809
 21
68.89230841238232
 31
0.0
  0
ARC
  5
783D
330
A
100
AcDbEntity
  8
0
  6
Continuous
 62
     7
370
     0
100
AcDbCircle
 10
4.979829407777401
 20
67.6923084123676
 30
0.0
 40
0.5000000000000006
100
AcDbArc
 50
270.0000000006611
 51
330.0000000006627
  0
ARC
  5
783E
330
A
100
AcDbEntity
  8
0
  6
Continuous
 62
     7
370
     0
100
AcDbCircle
 10
-4.979829407788145
 20
67.69230841225223
 30
0.0
 40
0.5000000000000174
100
AcDbArc
 50
210.0000000006652
 51
270.0000000006644
  0
LINE
  5
783F
330
A
100
AcDbEntity
  8
0
  6
Continuous
 62
     9
370
     0
100
AcDbLine
 10
-18.52594021913569
 20
-20.5999999999769
 30
0.0
 11
-19.66149007097687
 21
-20.5999999999769
 31
0.0
  0
LINE
  5
7840
330
A
100
AcDbEntity
  8
0
  6
Continuous
 62
     9
370
     0
100
AcDbLine
 10
-18.52594021913569
 20
-20.5999999999769
 30
0.0
 11
-18.52594021913569
 21
-29.3999999999769
 31
0.0
  0
LINE
  5
7841
330
A
100
AcDbEntity
  8
0
  6
Continuous
 62
     9
370
     0
100
AcDbLine
 10
-19.66149007097687
 20
-29.3999999999769
 30
0.0
 11
-18.52594021913569
 21
-29.3999999999769
 31
0.0
  0
LINE
  5
7842
330
A
100
AcDbEntity
  8
0
  6
Continuous
 62
     9
370
     0
100
AcDbLine
 10
-19.66149007097687
 20
-20.5999999999769
 30
0.0
 11
-19.66149007097687
 21
-29.3999999999769
 31
0.0
  0
ELLIPSE
  5
7843
330
A
100
AcDbEntity
  8
0
  6
Continuous
 62
     9
370
     0
100
AcDbEllipse
 10
-18.82334613271314
 20
-29.3999999999769
 30
0.0
 11
0.0
 21
1.0
 31
0.0
210
0.0
220
0.0
230
1.0
 40
0.2974059135774689
 41
3.141592653589792
 42
4.712388980384688
  0
LINE
  5
7844
330
A
100
AcDbEntity
  8
0
  6
Continuous
 62
     7
370
     0
100
AcDbLine
 10
-18.82334613271314
 20
-30.3999999999769
 30
0.0
 11
-19.20186274999361
 21
-30.3999999999769
 31
0.0
  0
ELLIPSE
  5
7845
330
A
100
AcDbEntity
  8
0
  6
Continuous
 62
     9
370
     0
100
AcDbEllipse
 10
-19.20186274999361
 20
-29.3999999999769
 30
0.0
 11
0.0
 21
1.0
 31
0.0
210
0.0
220
0.0
230
1.0
 40
0.4596273209833618
 41
1.570796326794896
 42
3.141592653589792
  0
LINE
  5
7846
330
A
100
AcDbEntity
  8
0
  6
Continuous
 62
     9
370
     0
100
AcDbLine
 10
-23.33850863884368
 20
-20.5999999999769
 30
0.0
 11
-24.47405849068502
 21
-20.5999999999769
 31
0.0
  0
LINE
  5
7847
330
A
100
AcDbEntity
  8
0
  6
Continuous
 62
     9
370
     0
100
AcDbLine
 10
-23.33850863884368
 20
-20.5999999999769
 30
0.0
 11
-23.33850863884368
 21
-29.3999999999769
 31
0.0
  0
LINE
  5
7848
330
A
100
AcDbEntity
  8
0
  6
Continuous
 62
     9
370
     0
100
AcDbLine
 10
-24.47405849068502
 20
-29.3999999999769
 30
0.0
 11
-23.33850863884368
 21
-29.3999999999769
 31
0.0
  0
LINE
  5
7849
330
A
100
AcDbEntity
  8
0
  6
Continuous
 62
     9
370
     0
100
AcDbLine
 10
-24.47405849068502
 20
-20.5999999999769
 30
0.0
 11
-24.47405849068502
 21
-29.3999999999769
 31
0.0
  0
LINE
  5
784A
330
A
100
AcDbEntity
  8
0
  6
Continuous
 62
     7
370
     0
100
AcDbLine
 10
-24.17665257710758
 20
-19.5999999999769
 30
0.0
 11
-23.79813595982705
 21
-19.5999999999769
 31
0.0
  0
ELLIPSE
  5
784B
330
A
100
AcDbEntity
  8
0
  6
Continuous
 62
     9
370
     0
100
AcDbEllipse
 10
-23.79813595982705
 20
-20.5999999999769
 30
0.0
 11
0.0
 21
1.0
 31
0.0
210
0.0
220
0.0
230
1.0
 40
0.459627320983353
 41
4.712388980384688
 42
6.283185307179584
  0
ELLIPSE
  5
784C
330
A
100
AcDbEntity
  8
0
  6
Continuous
 62
     9
370
     0
100
AcDbEllipse
 10
-24.17665257710758
 20
-20.5999999999769
 30
0.0
 11
0.0
 21
1.0
 31
0.0
210
0.0
220
0.0
230
1.0
 40
0.2974059135774658
 41
0.0
 42
1.570796326794896
  0
LINE
  5
784D
330
A
100
AcDbEntity
  8
0
  6
Continuous
 62
     7
370
     0
100
AcDbLine
 10
-19.20186274999361
 20
-19.5999999999769
 30
0.0
 11
-18.82334613271314
 21
-19.5999999999769
 31
0.0
  0
ELLIPSE
  5
784E
330
A
100
AcDbEntity
  8
0
  6
Continuous
 62
     9
370
     0
100
AcDbEllipse
 10
-18.82334613271314
 20
-20.5999999999769
 30
0.0
 11
0.0
 21
1.0
 31
0.0
210
0.0
220
0.0
230
1.0
 40
0.2974059135774652
 41
4.712388980384688
 42
6.283185307179584
  0
ELLIPSE
  5
784F
330
A
100
AcDbEntity
  8
0
  6
Continuous
 62
     9
370
     0
100
AcDbEllipse
 10
-19.20186274999361
 20
-20.5999999999769
 30
0.0
 11
0.0
 21
1.0
 31
0.0
210
0.0
220
0.0
230
1.0
 40
0.4596273209833564
 41
0.0
 42
1.570796326794896
  0
LINE
  5
7850
330
A
100
AcDbEntity
  8
0
  6
Continuous
 62
     7
370
     0
100
AcDbLine
 10
-23.79813595982705
 20
-30.3999999999769
 30
0.0
 11
-24.17665257710758
 21
-30.3999999999769
 31
0.0
  0
ELLIPSE
  5
7851
330
A
100
AcDbEntity
  8
0
  6
Continuous
 62
     9
370
     0
100
AcDbEllipse
 10
-24.17665257710758
 20
-29.3999999999769
 30
0.0
 11
0.0
 21
-1.0
 31
0.0
210
0.0
220
0.0
230
1.0
 40
0.2974059135774657
 41
4.712388980384688
 42
6.283185307179584
  0
ELLIPSE
  5
7852
330
A
100
AcDbEntity
  8
0
  6
Continuous
 62
     9
370
     0
100
AcDbEllipse
 10
-23.79813595982705
 20
-29.3999999999769
 30
0.0
 11
0.0
 21
-1.0
 31
0.0
210
0.0
220
0.0
230
1.0
 40
0.459627320983353
 41
0.0
 42
1.570796326794896
  0
LINE
  5
7853
330
A
100
AcDbEntity
  8
0
  6
Continuous
 62
     9
370
     0
100
AcDbLine
 10
-12.38235229608705
 20
-20.5999999999769
 30
0.0
 11
-18.52594021913569
 21
-20.5999999999769
 31
0.0
  0
LINE
  5
7854
330
A
100
AcDbEntity
  8
0
  6
Continuous
 62
     7
370
     0
100
AcDbLine
 10
-18.82334613271314
 20
-19.5999999999769
 30
0.0
 11
-13.29411700196925
 21
-19.5999999999769
 31
0.0
  0
ELLIPSE
  5
7855
330
A
100
AcDbEntity
  8
0
  6
Continuous
 62
     9
370
     0
100
AcDbEllipse
 10
-13.29411700196925
 20
-20.5999999999769
 30
0.0
 11
0.0
 21
-1.0
 31
0.0
210
0.0
220
0.0
230
1.0
 40
0.9117647058823454
 41
1.570796326794896
 42
3.141592653589792
  0
LINE
  5
7856
330
A
100
AcDbEntity
  8
0
  6
Continuous
 62
     9
370
     0
100
AcDbLine
 10
-31.49999935491036
 20
-29.3999999999769
 30
0.0
 11
-24.47405849068502
 21
-29.3999999999769
 31
0.0
  0
LINE
  5
7857
330
A
100
AcDbEntity
  8
0
  6
Continuous
 62
     7
370
     0
100
AcDbLine
 10
-24.17665257710758
 20
-30.3999999999769
 30
0.0
 11
-30.4999993549103
 21
-30.3999999999769
 31
0.0
  0
LINE
  5
7858
330
A
100
AcDbEntity
  8
0
  6
Continuous
 62
     7
370
     0
100
AcDbLine
 10
-30.4999993549103
 20
-19.5999999999769
 30
0.0
 11
-24.17665257710758
 21
-19.5999999999769
 31
0.0
  0
LINE
  5
7859
330
A
100
AcDbEntity
  8
0
  6
Continuous
 62
     9
370
     0
100
AcDbLine
 10
-24.47405849068502
 20
-20.5999999999769
 30
0.0
 11
-31.49999935491036
 21
-20.5999999999769
 31
0.0
  0
LINE
  5
785A
330
A
100
AcDbEntity
  8
0
  6
Continuous
 62
     9
370
     0
100
AcDbLine
 10
-12.38235229608705
 20
-20.5999999999769
 30
0.0
 11
-12.38235229608705
 21
-29.3999999999769
 31
0.0
  0
LINE
  5
785B
330
A
100
AcDbEntity
  8
0
  6
Continuous
 62
     9
370
     0
100
AcDbLine
 10
-18.52594021913569
 20
-29.3999999999769
 30
0.0
 11
-12.38235229608705
 21
-29.3999999999769
 31
0.0
  0
ELLIPSE
  5
785C
330
A
100
AcDbEntity
  8
0
  6
Continuous
 62
     9
370
     0
100
AcDbEllipse
 10
-13.29411700196925
 20
-29.3999999999769
 30
0.0
 11
0.0
 21
1.0
 31
0.0
210
0.0
220
0.0
230
1.0
 40
0.9117647058823471
 41
3.141592653589792
 42
4.712388980384688
  0
LINE
  5
785D
330
A
100
AcDbEntity
  8
0
  6
Continuous
 62
     7
370
     0
100
AcDbLine
 10
-13.29411700196925
 20
-30.3999999999769
 30
0.0
 11
-18.82334613271314
 21
-30.3999999999769
 31
0.0
  0
LINE
  5
785E
330
A
100
AcDbEntity
  8
0
  6
Continuous
 62
     7
370
     0
100
AcDbLine
 10
-19.20186274999361
 20
-19.5999999999769
 30
0.0
 11
-23.79813595982705
 21
-19.5999999999769
 31
0.0
  0
LINE
  5
785F
330
A
100
AcDbEntity
  8
0
  6
Continuous
 62
     9
370
     0
100
AcDbLine
 10
-23.33850863884368
 20
-20.5999999999769
 30
0.0
 11
-19.66149007097687
 21
-20.5999999999769
 31
0.0
  0
LINE
  5
7860
330
A
100
AcDbEntity
  8
0
  6
Continuous
 62
     7
370
     0
100
AcDbLine
 10
-23.79813595982705
 20
-30.3999999999769
 30
0.0
 11
-19.20186274999361
 21
-30.3999999999769
 31
0.0
  0
LINE
  5
7861
330
A
100
AcDbEntity
  8
0
  6
Continuous
 62
     9
370
     0
100
AcDbLine
 10
-19.66149007097687
 20
-29.3999999999769
 30
0.0
 11
-23.33850863884368
 21
-29.3999999999769
 31
0.0
  0
LINE
  5
7862
330
A
100
AcDbEntity
  8
0
  6
Continuous
 62
     9
370
     0
100
AcDbLine
 10
-12.24999935491036
 20
-20.5999999999769
 30
0.0
 11
-12.38235229608671
 21
-20.5999999999769
 31
0.0
  0
LINE
  5
7863
330
A
100
AcDbEntity
  8
0
  6
Continuous
 62
     7
370
     0
100
AcDbLine
 10
-13.29411700196925
 20
-19.5999999999769
 30
0.0
 11
-13.24999935491036
 21
-19.5999999999769
 31
0.0
  0
LINE
  5
7864
330
A
100
AcDbEntity
  8
0
  6
Continuous
 62
     7
370
     0
100
AcDbLine
 10
-13.24999935491036
 20
-30.3999999999769
 30
0.0
 11
-13.29411700196925
 21
-30.3999999999769
 31
0.0
  0
LINE
  5
7865
330
A
100
AcDbEntity
  8
0
  6
Continuous
 62
     9
370
     0
100
AcDbLine
 10
-12.38235229608671
 20
-29.3999999999769
 30
0.0
 11
-12.24999935491036
 21
-29.3999999999769
 31
0.0
  0
LINE
  5
7866
330
A
100
AcDbEntity
  8
0
  6
Continuous
 62
     7
370
     0
100
AcDbLine
 10
-31.99999935420419
 20
-19.60000000016949
 30
0.0
 11
-25.99999935420419
 21
-19.59999999978428
 31
0.0
  0
LINE
  5
7867
330
A
100
AcDbEntity
  8
0
  6
Continuous
 62
     7
370
     0
100
AcDbLine
 10
-31.99999935491036
 20
-8.600000000169487
 30
0.0
 11
-25.9999993549103
 21
-8.599999999784288
 31
0.0
  0
LINE
  5
7868
330
A
100
AcDbEntity
  8
0
  6
Continuous
 62
     9
370
     0
100
AcDbLine
 10
-35.01818117342555
 20
-5.412842109636244
 30
0.0
 11
-35.01818117274422
 21
5.412842109713864
 31
0.0
  0
LINE
  5
7869
330
A
100
AcDbEntity
  8
0
  6
Continuous
 62
     7
370
     0
100
AcDbLine
 10
-34.76818117277139
 20
4.979829407805922
 30
0.0
 11
-34.76818117339826
 21
-4.97982940775978
 31
0.0
  0
LINE
  5
786A
330
A
100
AcDbEntity
  8
0
  6
Continuous
 62
     9
370
     0
100
AcDbLine
 10
-35.018181173443
 20
-55.41284210963581
 30
0.0
 11
-35.01818117274115
 21
-44.58715789028559
 31
0.0
  0
LINE
  5
786B
330
A
100
AcDbEntity
  8
0
  6
Continuous
 62
     7
370
     0
100
AcDbLine
 10
-34.76818117276918
 20
-45.02017059219406
 30
0.0
 11
-34.76818117341509
 21
-54.97982940775969
 31
0.0
  0
LINE
  5
786C
330
A
100
AcDbEntity
  8
0
  6
Continuous
 62
     7
370
     0
100
AcDbLine
 10
-50.49999935491257
 20
-63.99999999998948
 30
0.0
 11
-49.49999935490637
 21
-63.99999999998948
 31
0.0
  0
LINE
  5
786D
330
A
100
AcDbEntity
  8
0
  6
Continuous
 62
     7
370
     0
100
AcDbLine
 10
-49.49999935490637
 20
-63.99999999998948
 30
0.0
 11
-48.49999935491258
 21
-63.99999999998948
 31
0.0
  0
LINE
  5
786E
330
A
100
AcDbEntity
  8
0
  6
Continuous
 62
     9
370
     0
100
AcDbLine
 10
-50.49999935491257
 20
-62.9999999999894
 30
0.0
 11
-49.49999935490637
 21
-62.9999999999894
 31
0.0
  0
LINE
  5
786F
330
A
100
AcDbEntity
  8
0
  6
Continuous
 62
     9
370
     0
100
AcDbLine
 10
-49.49999935490637
 20
-62.9999999999894
 30
0.0
 11
-48.49999935491258
 21
-62.9999999999894
 31
0.0
  0
LINE
  5
7870
330
A
100
AcDbEntity
  8
0
  6
Continuous
 62
     7
370
     0
100
AcDbLine
 10
-48.49999935491258
 20
-62.9999999999894
 30
0.0
 11
-48.49999935491258
 21
-63.99999999998948
 31
0.0
  0
LINE
  5
7871
330
A
100
AcDbEntity
  8
0
  6
Continuous
 62
     9
370
     0
100
AcDbLine
 10
-50.4999993549128
 20
13.00000000001056
 30
0.0
 11
-49.49999935490637
 21
13.00000000001056
 31
0.0
  0
LINE
  5
7872
330
A
100
AcDbEntity
  8
0
  6
Continuous
 62
     9
370
     0
100
AcDbLine
 10
-49.49999935490637
 20
13.00000000001056
 30
0.0
 11
-48.4999993549128
 21
13.00000000001056
 31
0.0
  0
LINE
  5
7873
330
A
100
AcDbEntity
  8
0
  6
Continuous
 62
     7
370
     0
100
AcDbLine
 10
-50.4999993549128
 20
14.00000000001056
 30
0.0
 11
-49.49999935490637
 21
14.00000000001056
 31
0.0
  0
LINE
  5
7874
330
A
100
AcDbEntity
  8
0
  6
Continuous
 62
     7
370
     0
100
AcDbLine
 10
-49.49999935490637
 20
14.00000000001056
 30
0.0
 11
-48.4999993549128
 21
14.00000000001056
 31
0.0
  0
LINE
  5
7875
330
A
100
AcDbEntity
  8
0
  6
Continuous
 62
     7
370
     0
100
AcDbLine
 10
-48.4999993549128
 20
14.00000000001056
 30
0.0
 11
-48.4999993549128
 21
13.00000000001056
 31
0.0
  0
LINE
  5
7876
330
A
100
AcDbEntity
  8
0
  6
Continuous
 62
     7
370
     0
100
AcDbLine
 10
-48.4999993549128
 20
13.00000000001056
 30
0.0
 11
-48.49999935491258
 21
-62.9999999999894
 31
0.0
  0
LINE
  5
7877
330
A
100
AcDbEntity
  8
0
  6
Continuous
 62
     7
370
     0
100
AcDbLine
 10
-40.49999935491036
 20
14.00000000005511
 30
0.0
 11
-41.49999935491007
 21
14.00000000005511
 31
0.0
  0
LINE
  5
7878
330
A
100
AcDbEntity
  8
0
  6
Continuous
 62
     7
370
     0
100
AcDbLine
 10
-41.49999935491007
 20
14.00000000005511
 30
0.0
 11
-42.49999935491035
 21
14.00000000005511
 31
0.0
  0
LINE
  5
7879
330
A
100
AcDbEntity
  8
0
  6
Continuous
 62
     9
370
     0
100
AcDbLine
 10
-40.49999935491036
 20
13.00000000005471
 30
0.0
 11
-41.49999935491007
 21
13.00000000005471
 31
0.0
  0
LINE
  5
787A
330
A
100
AcDbEntity
  8
0
  6
Continuous
 62
     9
370
     0
100
AcDbLine
 10
-41.49999935491007
 20
13.00000000005471
 30
0.0
 11
-42.49999935491035
 21
13.00000000005471
 31
0.0
  0
LINE
  5
787B
330
A
100
AcDbEntity
  8
0
  6
Continuous
 62
     7
370
     0
100
AcDbLine
 10
-42.49999935491035
 20
13.00000000005471
 30
0.0
 11
-42.49999935491035
 21
14.00000000005472
 31
0.0
  0
LINE
  5
787C
330
A
100
AcDbEntity
  8
0
  6
Continuous
 62
     7
370
     0
100
AcDbLine
 10
-42.49999935491035
 20
-62.9999999999745
 30
0.0
 11
-42.49999935491035
 21
13.00000000005471
 31
0.0
  0
LINE
  5
787D
330
A
100
AcDbEntity
  8
0
  6
Continuous
 62
     9
370
     0
100
AcDbLine
 10
-40.49999935491036
 20
-62.9999999999745
 30
0.0
 11
-41.49999935490995
 21
-62.9999999999745
 31
0.0
  0
LINE
  5
787E
330
A
100
AcDbEntity
  8
0
  6
Continuous
 62
     9
370
     0
100
AcDbLine
 10
-41.49999935490995
 20
-62.9999999999745
 30
0.0
 11
-42.49999935491035
 21
-62.9999999999745
 31
0.0
  0
LINE
  5
787F
330
A
100
AcDbEntity
  8
0
  6
Continuous
 62
     7
370
     0
100
AcDbLine
 10
-40.49999935491036
 20
-63.99999999997479
 30
0.0
 11
-41.49999935490995
 21
-63.99999999997479
 31
0.0
  0
LINE
  5
7880
330
A
100
AcDbEntity
  8
0
  6
Continuous
 62
     7
370
     0
100
AcDbLine
 10
-41.49999935490995
 20
-63.99999999997479
 30
0.0
 11
-42.49999935491035
 21
-63.99999999997479
 31
0.0
  0
LINE
  5
7881
330
A
100
AcDbEntity
  8
0
  6
Continuous
 62
     7
370
     0
100
AcDbLine
 10
-42.49999935491035
 20
-63.99999999997451
 30
0.0
 11
-42.49999935491035
 21
-62.9999999999745
 31
0.0
  0
LINE
  5
7882
330
A
100
AcDbEntity
  8
0
  6
Continuous
 62
     7
370
     0
100
AcDbLine
 10
-54.49999935490655
 20
-64.99999999996447
 30
0.0
 11
-50.49999935490655
 21
-64.99999999996447
 31
0.0
  0
LINE
  5
7883
330
A
100
AcDbEntity
  8
0
  6
Continuous
 62
     7
370
     0
100
AcDbLine
 10
-54.49999935490655
 20
15.00000000001022
 30
0.0
 11
-54.49999935490655
 21
-64.99999999996447
 31
0.0
  0
LINE
  5
7884
330
A
100
AcDbEntity
  8
0
  6
Continuous
 62
     7
370
     0
100
AcDbLine
 10
-54.49999935490655
 20
15.00000000001022
 30
0.0
 11
-50.49999935490655
 21
15.00000000001022
 31
0.0
  0
LINE
  5
7885
330
A
100
AcDbEntity
  8
0
  6
Continuous
 62
     7
370
     0
100
AcDbLine
 10
-50.49999935490655
 20
15.00000000001022
 30
0.0
 11
-50.49999935490655
 21
-64.99999999996447
 31
0.0
  0
LINE
  5
7886
330
A
100
AcDbEntity
  8
0
  6
Continuous
 62
     7
370
     0
100
AcDbLine
 10
-50.49999935490655
 20
-63.9999999999676
 30
0.0
 11
-49.49999935490637
 21
-63.9999999999676
 31
0.0
  0
LINE
  5
7887
330
A
100
AcDbEntity
  8
0
  6
Continuous
 62
     9
370
     0
100
AcDbLine
 10
-50.49999935490655
 20
-62.99999999996768
 30
0.0
 11
-49.49999935490637
 21
-62.99999999996768
 31
0.0
  0
LINE
  5
7888
330
A
100
AcDbEntity
  8
0
  6
Continuous
 62
     7
370
     0
100
AcDbLine
 10
-49.49999935490637
 20
-62.99999999996768
 30
0.0
 11
-49.49999935490637
 21
-63.99999999996769
 31
0.0
  0
LINE
  5
7889
330
A
100
AcDbEntity
  8
0
  6
Continuous
 62
     9
370
     0
100
AcDbLine
 10
-50.49999935490655
 20
13.00000000002372
 30
0.0
 11
-49.49999935490637
 21
13.00000000002372
 31
0.0
  0
LINE
  5
788A
330
A
100
AcDbEntity
  8
0
  6
Continuous
 62
     7
370
     0
100
AcDbLine
 10
-49.49999935490637
 20
13.00000000002372
 30
0.0
 11
-49.49999935490637
 21
-62.99999999996768
 31
0.0
  0
LINE
  5
788B
330
A
100
AcDbEntity
  8
0
  6
Continuous
 62
     7
370
     0
100
AcDbLine
 10
-50.49999935490655
 20
14.00000000002356
 30
0.0
 11
-49.49999935490637
 21
14.00000000002356
 31
0.0
  0
LINE
  5
788C
330
A
100
AcDbEntity
  8
0
  6
Continuous
 62
     7
370
     0
100
AcDbLine
 10
-49.49999935490637
 20
14.0000000000237
 30
0.0
 11
-49.49999935490637
 21
13.00000000002372
 31
0.0
  0
LINE
  5
788D
330
A
100
AcDbEntity
  8
0
  6
Continuous
 62
     7
370
     0
100
AcDbLine
 10
-41.49999935491007
 20
14.00000000000199
 30
0.0
 11
-40.49999935491036
 21
14.00000000000199
 31
0.0
  0
LINE
  5
788E
330
A
100
AcDbEntity
  8
0
  6
Continuous
 62
     7
370
     0
100
AcDbLine
 10
-41.49999935491007
 20
14.00000000000185
 30
0.0
 11
-41.49999935491007
 21
13.00000000000241
 31
0.0
  0
LINE
  5
788F
330
A
100
AcDbEntity
  8
0
  6
Continuous
 62
     9
370
     0
100
AcDbLine
 10
-41.49999935491007
 20
13.00000000000241
 30
0.0
 11
-40.49999935491036
 21
13.00000000000241
 31
0.0
  0
LINE
  5
7890
330
A
100
AcDbEntity
  8
0
  6
Continuous
 62
     7
370
     0
100
AcDbLine
 10
-41.49999935491007
 20
13.00000000000241
 30
0.0
 11
-41.49999935490995
 21
-62.99999999996368
 31
0.0
  0
LINE
  5
7891
330
A
100
AcDbEntity
  8
0
  6
Continuous
 62
     7
370
     0
100
AcDbLine
 10
-41.49999935490995
 20
-63.99999999996319
 30
0.0
 11
-40.49999935491036
 21
-63.99999999996319
 31
0.0
  0
LINE
  5
7892
330
A
100
AcDbEntity
  8
0
  6
Continuous
 62
     7
370
     0
100
AcDbLine
 10
-41.49999935490995
 20
-62.99999999996368
 30
0.0
 11
-41.49999935490995
 21
-63.99999999996279
 31
0.0
  0
LINE
  5
7893
330
A
100
AcDbEntity
  8
0
  6
Continuous
 62
     9
370
     0
100
AcDbLine
 10
-41.49999935490995
 20
-62.99999999996368
 30
0.0
 11
-40.49999935491036
 21
-62.99999999996368
 31
0.0
  0
LINE
  5
7894
330
A
100
AcDbEntity
  8
0
  6
Continuous
 62
     7
370
     0
100
AcDbLine
 10
-11.77572527557009
 20
-29.99999999998619
 30
0.0
 11
-12.44999935491739
 21
-29.99999999998619
 31
0.0
  0
LINE
  5
7895
330
A
100
AcDbEntity
  8
0
  6
Continuous
 62
     7
370
     0
100
AcDbLine
 10
-12.2960601534964
 20
-29.69999999998619
 30
0.0
 11
-11.77855091234301
 21
-29.69999999998619
 31
0.0
  0
LINE
  5
7896
330
A
100
AcDbEntity
  8
0
  6
Continuous
 62
     7
370
     0
100
AcDbLine
 10
-11.77855091234306
 20
-20.29999999998619
 30
0.0
 11
-12.2960601534906
 21
-20.29999999998619
 31
0.0
  0
LINE
  5
7897
330
A
100
AcDbEntity
  8
0
  6
Continuous
 62
     7
370
     0
100
AcDbLine
 10
-12.44999935490347
 20
-19.99999999998619
 30
0.0
 11
-11.77572527557021
 21
-19.99999999998619
 31
0.0
  0
LINE
  5
7898
330
A
100
AcDbEntity
  8
0
  6
Continuous
 62
     7
370
     0
100
AcDbLine
 10
-11.78999999999985
 20
-9.24999999999069
 30
0.0
 11
-11.57299138784958
 21
-9.24999999999069
 31
0.0
  0
LINE
  5
7899
330
A
100
AcDbEntity
  8
0
  6
Continuous
 62
     9
370
     0
100
AcDbLine
 10
-11.5741401668875
 20
-9.749999999990491
 30
0.0
 11
-11.78999999999985
 21
-9.749999999990491
 31
0.0
  0
LINE
  5
789A
330
A
100
AcDbEntity
  8
0
  6
Continuous
 62
     7
370
     0
100
AcDbLine
 10
-11.78999999999985
 20
-9.749999999990491
 30
0.0
 11
-11.78999999999985
 21
-9.249999999990491
 31
0.0
  0
LINE
  5
789B
330
A
100
AcDbEntity
  8
0
  6
Continuous
 62
     7
370
     0
100
AcDbLine
 10
-11.78999999999985
 20
-40.74999999997717
 30
0.0
 11
-11.78999999999985
 21
-40.24999999997717
 31
0.0
  0
LINE
  5
789C
330
A
100
AcDbEntity
  8
0
  6
Continuous
 62
     9
370
     0
100
AcDbLine
 10
-11.78999999999985
 20
-40.24999999997717
 30
0.0
 11
-11.57414016688687
 21
-40.24999999997717
 31
0.0
  0
LINE
  5
789D
330
A
100
AcDbEntity
  8
0
  6
Continuous
 62
     7
370
     0
100
AcDbLine
 10
-11.57299138785049
 20
-40.749999999977
 30
0.0
 11
-11.78999999999985
 21
-40.749999999977
 31
0.0
  0
LINE
  5
789E
330
A
100
AcDbEntity
  8
0
  6
Continuous
 62
     7
370
     0
100
AcDbLine
 10
-11.78999999999985
 20
-40.24999999997717
 30
0.0
 11
-11.78999999999985
 21
-28.2091931747859
 31
0.0
  0
LINE
  5
789F
330
A
100
AcDbEntity
  8
0
  6
Continuous
 62
     7
370
     0
100
AcDbLine
 10
-11.78999999999985
 20
-21.7908068251984
 30
0.0
 11
-11.78999999999985
 21
-9.749999999990491
 31
0.0
  0
LINE
  5
78A0
330
A
100
AcDbEntity
  8
0
  6
Continuous
 62
     7
370
     0
100
AcDbLine
 10
-11.78999999999985
 20
-9.24999999999069
 30
0.0
 11
-11.78999999999985
 21
-8.504001964319585
 31
0.0
  0
LINE
  5
78A1
330
A
100
AcDbEntity
  8
0
  6
Continuous
 62
     7
370
     0
100
AcDbLine
 10
-11.78999999999985
 20
-41.49599803563856
 30
0.0
 11
-11.78999999999985
 21
-40.749999999977
 31
0.0
  0
LINE
  5
78A2
330
A
100
AcDbEntity
  8
0
  6
Continuous
 62
     7
370
     0
100
AcDbLine
 10
-28.92028643696676
 20
-64.99999999997839
 30
0.0
 11
-28.92028643696676
 21
-42.57499999997847
 31
0.0
  0
LINE
  5
78A3
330
A
100
AcDbEntity
  8
0
  6
Continuous
 62
     7
370
     0
100
AcDbLine
 10
-32.49999999999972
 20
-64.99999999997839
 30
0.0
 11
-28.92028643696676
 21
-64.99999999997839
 31
0.0
  0
LINE
  5
78A4
330
A
100
AcDbEntity
  8
0
  6
Continuous
 62
     7
370
     0
100
AcDbLine
 10
-32.49999999999955
 20
-42.57499999997847
 30
0.0
 11
-32.49999999999955
 21
-64.99999999997839
 31
0.0
  0
LINE
  5
78A5
330
A
100
AcDbEntity
  8
0
  6
Continuous
 62
     7
370
     0
100
AcDbLine
 10
-32.49999999999972
 20
-42.57499999997847
 30
0.0
 11
-28.92028643696676
 21
-42.57499999997847
 31
0.0
  0
ARC
  5
78A6
330
A
100
AcDbEntity
  8
0
  6
Continuous
 62
     7
370
     0
100
AcDbCircle
 10
-13.56532042694022
 20
-40.57499999997841
 30
0.0
 40
1.999999999999995
100
AcDbArc
 50
270.0
 51
1.726501653522886
  0
ARC
  5
78A7
330
A
100
AcDbEntity
  8
0
  6
Continuous
 62
     7
370
     0
100
AcDbCircle
 10
503.1510416666598
 20
-24.9999999999784
 30
0.0
 40
514.951041666664
100
AcDbArc
 50
178.2734983464771
 51
181.7265016535229
  0
LINE
  5
78A8
330
A
100
AcDbEntity
  8
0
  6
Continuous
 62
     7
370
     0
100
AcDbLine
 10
-28.92028643696676
 20
-7.424999999978481
 30
0.0
 11
-28.92028643696676
 21
15.00000000002153
 31
0.0
  0
ARC
  5
78A9
330
A
100
AcDbEntity
  8
0
  6
Continuous
 62
     7
370
     0
100
AcDbCircle
 10
12.5
 20
10.00000000002157
 30
0.0
 40
4.999999999999948
100
AcDbArc
 50
0.0
 51
90.0
  0
LINE
  5
78AA
330
A
100
AcDbEntity
  8
0
  6
Continuous
 62
     7
370
     0
100
AcDbLine
 10
17.49999999999994
 20
10.00000000002157
 30
0.0
 11
17.49999999999994
 21
-59.99999999997848
 31
0.0
  0
ARC
  5
78AB
330
A
100
AcDbEntity
  8
0
  6
Continuous
 62
     7
370
     0
100
AcDbCircle
 10
12.5
 20
-59.99999999997848
 30
0.0
 40
5.000000000000004
100
AcDbArc
 50
270.0
 51
0.0
  0
ARC
  5
78AC
330
A
100
AcDbEntity
  8
0
  6
Continuous
 62
     7
370
     0
100
AcDbCircle
 10
-13.56532042694022
 20
-9.42499999997841
 30
0.0
 40
2.0
100
AcDbArc
 50
358.2734983464771
 51
90.0
  0
LINE
  5
78AD
330
A
100
AcDbEntity
  8
0
  6
Continuous
 62
     7
370
     0
100
AcDbLine
 10
-13.56532042694022
 20
-42.57499999997847
 30
0.0
 11
-28.92028643696676
 21
-42.57499999997847
 31
0.0
  0
LINE
  5
78AE
330
A
100
AcDbEntity
  8
0
  6
Continuous
 62
     7
370
     0
100
AcDbLine
 10
-28.92028643696676
 20
-7.424999999978481
 30
0.0
 11
-13.56532042694022
 21
-7.42499999997841
 31
0.0
  0
LINE
  5
78AF
330
A
100
AcDbEntity
  8
0
  6
Continuous
 62
     7
370
     0
100
AcDbLine
 10
-28.92028643696676
 20
-64.99999999997839
 30
0.0
 11
12.5
 21
-64.99999999997839
 31
0.0
  0
LINE
  5
78B0
330
A
100
AcDbEntity
  8
0
  6
Continuous
 62
     7
370
     0
100
AcDbLine
 10
12.5
 20
15.00000000002156
 30
0.0
 11
-28.92028643696676
 21
15.00000000002153
 31
0.0
  0
LINE
  5
78B1
330
A
100
AcDbEntity
  8
0
  6
Continuous
 62
     7
370
     0
100
AcDbLine
 10
-32.49999999999955
 20
15.00000000002153
 30
0.0
 11
-32.49999999999955
 21
-7.42499999997841
 31
0.0
  0
LINE
  5
78B2
330
A
100
AcDbEntity
  8
0
  6
Continuous
 62
     7
370
     0
100
AcDbLine
 10
-28.92028643696676
 20
-7.42499999997841
 30
0.0
 11
-32.49999999999972
 21
-7.42499999997841
 31
0.0
  0
LINE
  5
78B3
330
A
100
AcDbEntity
  8
0
  6
Continuous
 62
     7
370
     0
100
AcDbLine
 10
-28.92028643696676
 20
15.00000000002156
 30
0.0
 11
-32.49999999999972
 21
15.00000000002156
 31
0.0
  0
LINE
  5
78B4
330
A
100
AcDbEntity
  8
0
  6
Continuous
 62
     9
370
     0
100
AcDbLine
 10
-26.58891789642104
 20
-7.742005718748799
 30
0.0
 11
-16.41108498926911
 21
-7.742005718748799
 31
0.0
  0
LINE
  5
78B5
330
A
100
AcDbEntity
  8
0
  6
Continuous
 62
     9
370
     0
100
AcDbLine
 10
-15.75000407403524
 20
-8.529851921158581
 30
0.0
 11
-27.24999935428747
 21
-8.529851921158581
 31
0.0
  0
LINE
  5
78B6
330
A
100
AcDbEntity
  8
0
  6
Continuous
 62
     7
370
     0
100
AcDbLine
 10
-17.49999935428724
 20
-7.549999999976904
 30
0.0
 11
-25.49999935428747
 21
-7.549999999976904
 31
0.0
  0
LINE
  5
78B7
330
A
100
AcDbEntity
  8
0
  6
Continuous
 62
     9
370
     0
100
AcDbLine
 10
-27.24999999999972
 20
-41.4701480787968
 30
0.0
 11
-17.21659353883592
 21
-41.4701480787968
 31
0.0
  0
LINE
  5
78B8
330
A
100
AcDbEntity
  8
0
  6
Continuous
 62
     9
370
     0
100
AcDbLine
 10
-16.4110814578662
 20
-42.25799428120658
 30
0.0
 11
-17.70905972804985
 21
-42.25799428120658
 31
0.0
  0
LINE
  5
78B9
330
A
100
AcDbEntity
  8
0
  6
Continuous
 62
     9
370
     0
100
AcDbLine
 10
-17.21659353883592
 20
-41.4701480787968
 30
0.0
 11
-15.74999999999977
 21
-41.4701480787968
 31
0.0
  0
LINE
  5
78BA
330
A
100
AcDbEntity
  8
0
  6
Continuous
 62
     9
370
     0
100
AcDbLine
 10
-17.70905972804985
 20
-42.25799428120658
 30
0.0
 11
-26.58891854213329
 21
-42.25799428120658
 31
0.0
  0
LINE
  5
78BB
330
A
100
AcDbEntity
  8
0
  6
Continuous
 62
     7
370
     0
100
AcDbLine
 10
-25.49999999999972
 20
-42.44999999997841
 30
0.0
 11
-17.49999999999971
 21
-42.44999999997841
 31
0.0
  0
LINE
  5
78BC
330
A
100
AcDbEntity
  8
0
  6
Continuous
 62
     9
370
     0
100
AcDbLine
 10
-23.79983765321458
 20
-30.4999999999769
 30
0.0
 11
-23.79983765321458
 21
-41.24999999997689
 31
0.0
  0
LINE
  5
78BD
330
A
100
AcDbEntity
  8
0
  6
Continuous
 62
     9
370
     0
100
AcDbLine
 10
-24.66227701507876
 20
-30.4999999999769
 30
0.0
 11
-24.66227701507876
 21
-41.24999999997689
 31
0.0
  0
LINE
  5
78BE
330
A
100
AcDbEntity
  8
0
  6
Continuous
 62
     7
370
     0
100
AcDbLine
 10
-24.66227701507876
 20
-30.4999999999769
 30
0.0
 11
-23.79983765321458
 21
-30.4999999999769
 31
0.0
  0
LINE
  5
78BF
330
A
100
AcDbEntity
  8
0
  6
Continuous
 62
     7
370
     0
100
AcDbLine
 10
-24.66227701507876
 20
-41.24999999997689
 30
0.0
 11
-23.79983765321458
 21
-41.24999999997689
 31
0.0
  0
LINE
  5
78C0
330
A
100
AcDbEntity
  8
0
  6
Continuous
 62
     9
370
     0
100
AcDbLine
 10
-24.66227701507876
 20
-8.749999999976893
 30
0.0
 11
-24.66227701507876
 21
-19.49999999997689
 31
0.0
  0
LINE
  5
78C1
330
A
100
AcDbEntity
  8
0
  6
Continuous
 62
     9
370
     0
100
AcDbLine
 10
-23.79983765321458
 20
-8.749999999976893
 30
0.0
 11
-23.79983765321458
 21
-19.49999999997689
 31
0.0
  0
LINE
  5
78C2
330
A
100
AcDbEntity
  8
0
  6
Continuous
 62
     7
370
     0
100
AcDbLine
 10
-23.79983765321458
 20
-19.49999999997689
 30
0.0
 11
-24.66227701507876
 21
-19.49999999997689
 31
0.0
  0
LINE
  5
78C3
330
A
100
AcDbEntity
  8
0
  6
Continuous
 62
     7
370
     0
100
AcDbLine
 10
-24.66227701507876
 20
-8.749999999976893
 30
0.0
 11
-23.79983765321458
 21
-8.749999999976893
 31
0.0
  0
LINE
  5
78C4
330
A
100
AcDbEntity
  8
0
  6
Continuous
 62
     7
370
     0
100
AcDbLine
 10
-35.49999935491036
 20
-64.9999999999769
 30
0.0
 11
-35.49999935491036
 21
-42.24999999997689
 31
0.0
  0
LINE
  5
78C5
330
A
100
AcDbEntity
  8
0
  6
Continuous
 62
     7
370
     0
100
AcDbLine
 10
-32.09999935491027
 20
-19.49999999997689
 30
0.0
 11
-32.09999935491027
 21
-30.4999999999769
 31
0.0
  0
LINE
  5
78C6
330
A
100
AcDbEntity
  8
0
  6
Continuous
 62
     7
370
     0
100
AcDbLine
 10
-32.09999935491027
 20
-30.4999999999769
 30
0.0
 11
-24.66227701507876
 21
-30.4999999999769
 31
0.0
  0
ARC
  5
78C7
330
A
100
AcDbEntity
  8
0
  6
Continuous
 62
     7
370
     0
100
AcDbCircle
 10
-34.49999935491036
 20
-7.749999999976893
 30
0.0
 40
1.0
100
AcDbArc
 50
180.0
 51
270.0
  0
LINE
  5
78C8
330
A
100
AcDbEntity
  8
0
  6
Continuous
 62
     7
370
     0
100
AcDbLine
 10
-24.66227701507876
 20
-19.49999999997689
 30
0.0
 11
-32.09999935491027
 21
-19.49999999997689
 31
0.0
  0
ARC
  5
78C9
330
A
100
AcDbEntity
  8
0
  6
Continuous
 62
     7
370
     0
100
AcDbCircle
 10
-34.49999935491036
 20
-42.24999999997689
 30
0.0
 40
1.0
100
AcDbArc
 50
90.0
 51
180.0
  0
LINE
  5
78CA
330
A
100
AcDbEntity
  8
0
  6
Continuous
 62
     7
370
     0
100
AcDbLine
 10
-40.49999935491036
 20
-64.9999999999769
 30
0.0
 11
-35.49999935491036
 21
-64.9999999999769
 31
0.0
  0
LINE
  5
78CB
330
A
100
AcDbEntity
  8
0
  6
Continuous
 62
     7
370
     0
100
AcDbLine
 10
-40.49999935491036
 20
15.00000000002308
 30
0.0
 11
-35.49999935491036
 21
15.00000000002308
 31
0.0
  0
LINE
  5
78CC
330
A
100
AcDbEntity
  8
0
  6
Continuous
 62
     7
370
     0
100
AcDbLine
 10
-34.49999935491036
 20
-41.24999999997689
 30
0.0
 11
-24.66227701507876
 21
-41.24999999997689
 31
0.0
  0
LINE
  5
78CD
330
A
100
AcDbEntity
  8
0
  6
Continuous
 62
     7
370
     0
100
AcDbLine
 10
-35.49999935491036
 20
15.00000000002308
 30
0.0
 11
-35.49999935491036
 21
-7.749999999976893
 31
0.0
  0
LINE
  5
78CE
330
A
100
AcDbEntity
  8
0
  6
Continuous
 62
     7
370
     0
100
AcDbLine
 10
-34.49999935491036
 20
-8.749999999976893
 30
0.0
 11
-24.66227701507876
 21
-8.749999999976893
 31
0.0
  0
LINE
  5
78CF
330
A
100
AcDbEntity
  8
0
  6
Continuous
 62
     7
370
     0
100
AcDbLine
 10
-40.49999935491036
 20
15.00000000002308
 30
0.0
 11
-40.49999935491036
 21
-64.9999999999769
 31
0.0
  0
LINE
  5
78D0
330
A
100
AcDbEntity
  8
0
  6
Continuous
 62
     9
370
     0
100
AcDbLine
 10
-19.45093126847024
 20
-8.749999999976893
 30
0.0
 11
-19.45093126847024
 21
-19.49999999997689
 31
0.0
  0
LINE
  5
78D1
330
A
100
AcDbEntity
  8
0
  6
Continuous
 62
     9
370
     0
100
AcDbLine
 10
-18.31903701228441
 20
-8.749999999976893
 30
0.0
 11
-18.31903701228441
 21
-19.49999999997689
 31
0.0
  0
LINE
  5
78D2
330
A
100
AcDbEntity
  8
0
  6
Continuous
 62
     7
370
     0
100
AcDbLine
 10
-18.31903701228441
 20
-19.49999999997689
 30
0.0
 11
-19.45093126847024
 21
-19.49999999997689
 31
0.0
  0
LINE
  5
78D3
330
A
100
AcDbEntity
  8
0
  6
Continuous
 62
     7
370
     0
100
AcDbLine
 10
-19.45093126847024
 20
-8.749999999976893
 30
0.0
 11
-18.31903701228441
 21
-8.749999999976893
 31
0.0
  0
LINE
  5
78D4
330
A
100
AcDbEntity
  8
0
  6
Continuous
 62
     9
370
     0
100
AcDbLine
 10
-18.31903701228441
 20
-30.4999999999769
 30
0.0
 11
-18.31903701228441
 21
-41.24999999997689
 31
0.0
  0
LINE
  5
78D5
330
A
100
AcDbEntity
  8
0
  6
Continuous
 62
     9
370
     0
100
AcDbLine
 10
-19.45093126847024
 20
-30.4999999999769
 30
0.0
 11
-19.45093126847024
 21
-41.24999999997689
 31
0.0
  0
LINE
  5
78D6
330
A
100
AcDbEntity
  8
0
  6
Continuous
 62
     7
370
     0
100
AcDbLine
 10
-19.45093126847024
 20
-30.4999999999769
 30
0.0
 11
-18.31903701228441
 21
-30.4999999999769
 31
0.0
  0
LINE
  5
78D7
330
A
100
AcDbEntity
  8
0
  6
Continuous
 62
     7
370
     0
100
AcDbLine
 10
-19.45093126847024
 20
-41.24999999997689
 30
0.0
 11
-18.31903701228441
 21
-41.24999999997689
 31
0.0
  0
LINE
  5
78D8
330
A
100
AcDbEntity
  8
0
  6
Continuous
 62
     9
370
     0
100
AcDbLine
 10
-12.48181753672867
 20
-8.749999999976893
 30
0.0
 11
-12.48181753672867
 21
-19.49999999997689
 31
0.0
  0
LINE
  5
78D9
330
A
100
AcDbEntity
  8
0
  6
Continuous
 62
     7
370
     0
100
AcDbLine
 10
-12.48181753672867
 20
-19.49999999997689
 30
0.0
 11
-18.31903701228441
 21
-19.49999999997689
 31
0.0
  0
LINE
  5
78DA
330
A
100
AcDbEntity
  8
0
  6
Continuous
 62
     7
370
     0
100
AcDbLine
 10
-18.31903701228441
 20
-8.749999999976893
 30
0.0
 11
-12.48181753672867
 21
-8.749999999976893
 31
0.0
  0
LINE
  5
78DB
330
A
100
AcDbEntity
  8
0
  6
Continuous
 62
     9
370
     0
100
AcDbLine
 10
-12.48181753672867
 20
-30.4999999999769
 30
0.0
 11
-12.48181753672867
 21
-41.24999999997689
 31
0.0
  0
LINE
  5
78DC
330
A
100
AcDbEntity
  8
0
  6
Continuous
 62
     7
370
     0
100
AcDbLine
 10
-18.31903701228441
 20
-30.4999999999769
 30
0.0
 11
-12.48181753672867
 21
-30.4999999999769
 31
0.0
  0
LINE
  5
78DD
330
A
100
AcDbEntity
  8
0
  6
Continuous
 62
     7
370
     0
100
AcDbLine
 10
-18.31903701228441
 20
-41.24999999997689
 30
0.0
 11
-12.48181753672867
 21
-41.24999999997689
 31
0.0
  0
LINE
  5
78DE
330
A
100
AcDbEntity
  8
0
  6
Continuous
 62
     7
370
     0
100
AcDbLine
 10
-19.45093126847024
 20
-30.4999999999769
 30
0.0
 11
-23.79983765321458
 21
-30.4999999999769
 31
0.0
  0
LINE
  5
78DF
330
A
100
AcDbEntity
  8
0
  6
Continuous
 62
     7
370
     0
100
AcDbLine
 10
-19.45093126847024
 20
-41.24999999997689
 30
0.0
 11
-23.79983765321458
 21
-41.24999999997689
 31
0.0
  0
LINE
  5
78E0
330
A
100
AcDbEntity
  8
0
  6
Continuous
 62
     7
370
     0
100
AcDbLine
 10
-23.79983765321458
 20
-19.49999999997689
 30
0.0
 11
-19.45093126847024
 21
-19.49999999997689
 31
0.0
  0
LINE
  5
78E1
330
A
100
AcDbEntity
  8
0
  6
Continuous
 62
     7
370
     0
100
AcDbLine
 10
-19.45093126847024
 20
-8.749999999976893
 30
0.0
 11
-23.79983765321458
 21
-8.749999999976893
 31
0.0
  0
LINE
  5
78E2
330
A
100
AcDbEntity
  8
0
  6
Continuous
 62
     7
370
     0
100
AcDbLine
 10
-12.31818117309217
 20
-19.49999999997689
 30
0.0
 11
-12.48181753672867
 21
-19.49999999997689
 31
0.0
  0
LINE
  5
78E3
330
A
100
AcDbEntity
  8
0
  6
Continuous
 62
     7
370
     0
100
AcDbLine
 10
-12.48181753672867
 20
-8.749999999976893
 30
0.0
 11
-12.31818117309217
 21
-8.749999999976893
 31
0.0
  0
LINE
  5
78E4
330
A
100
AcDbEntity
  8
0
  6
Continuous
 62
     7
370
     0
100
AcDbLine
 10
-12.48181753672867
 20
-30.4999999999769
 30
0.0
 11
-12.31818117309217
 21
-30.4999999999769
 31
0.0
  0
LINE
  5
78E5
330
A
100
AcDbEntity
  8
0
  6
Continuous
 62
     7
370
     0
100
AcDbLine
 10
-12.48181753672867
 20
-41.24999999997689
 30
0.0
 11
-12.31818117309217
 21
-41.24999999997689
 31
0.0
  0
LINE
  5
78E6
330
A
100
AcDbEntity
  8
0
  6
Continuous
 62
     7
370
     0
100
AcDbLine
 10
-42.49999935534129
 20
6.900000000049672
 30
0.0
 11
-48.4999993553414
 21
6.899999999674875
 31
0.0
  0
LINE
  5
78E7
330
A
100
AcDbEntity
  8
0
  6
Continuous
 62
     7
370
     0
100
AcDbLine
 10
-48.49999935447937
 20
-6.900000000325121
 30
0.0
 11
-42.49999935447937
 21
-6.899999999950367
 31
0.0
  0
LINE
  5
78E8
330
A
100
AcDbEntity
  8
0
  6
Continuous
 62
     7
370
     0
100
AcDbLine
 10
-42.49999935534151
 20
-43.09999999996978
 30
0.0
 11
-48.49999935534151
 21
-43.10000000034458
 31
0.0
  0
LINE
  5
78E9
330
A
100
AcDbEntity
  8
0
  6
Continuous
 62
     7
370
     0
100
AcDbLine
 10
-48.4999993544792
 20
-56.90000000034467
 30
0.0
 11
-42.49999935447919
 21
-56.89999999996979
 31
0.0
  0
ARC
  5
78EA
330
A
100
AcDbEntity
  8
0
  6
Continuous
 62
     7
370
     0
100
AcDbCircle
 10
-30.4999993549103
 20
-29.3999999999769
 30
0.0
 40
1.0
100
AcDbArc
 50
180.0
 51
270.0
  0
ARC
  5
78EB
330
A
100
AcDbEntity
  8
0
  6
Continuous
 62
     7
370
     0
100
AcDbCircle
 10
-30.4999993549103
 20
-20.5999999999769
 30
0.0
 40
1.0
100
AcDbArc
 50
90.0
 51
180.0
  0
LINE
  5
78EC
330
A
100
AcDbEntity
  8
0
  6
Continuous
 62
     7
370
     0
100
AcDbLine
 10
-31.49999935491036
 20
-20.5999999999769
 30
0.0
 11
-31.49999935491036
 21
-29.3999999999769
 31
0.0
  0
ARC
  5
78ED
330
A
100
AcDbEntity
  8
0
  6
Continuous
 62
     7
370
     0
100
AcDbCircle
 10
-13.24999935491036
 20
-20.5999999999769
 30
0.0
 40
1.0
100
AcDbArc
 50
0.0
 51
90.0
  0
ARC
  5
78EE
330
A
100
AcDbEntity
  8
0
  6
Continuous
 62
     7
370
     0
100
AcDbCircle
 10
-13.24999935491036
 20
-29.3999999999769
 30
0.0
 40
1.0
100
AcDbArc
 50
270.0
 51
359.9999999999993
  0
LINE
  5
78EF
330
A
100
AcDbEntity
  8
0
  6
Continuous
 62
     7
370
     0
100
AcDbLine
 10
-12.24999935491036
 20
-29.3999999999769
 30
0.0
 11
-12.24999935491036
 21
-20.5999999999769
 31
0.0
  0
LINE
  5
78F0
330
A
100
AcDbEntity
  8
0
  6
Continuous
 62
     7
370
     0
100
AcDbLine
 10
-31.99999935491036
 20
-8.600000000169487
 30
0.0
 11
-31.99999935490075
 21
-8.749999999976893
 31
0.0
  0
LINE
  5
78F1
330
A
100
AcDbEntity
  8
0
  6
Continuous
 62
     7
370
     0
100
AcDbLine
 10
-31.99999935421061
 20
-19.49999999997689
 30
0.0
 11
-31.99999935420419
 21
-19.60000000016949
 31
0.0
  0
LINE
  5
78F2
330
A
100
AcDbEntity
  8
0
  6
Continuous
 62
     7
370
     0
100
AcDbLine
 10
-25.99999935420419
 20
-19.59999999978428
 30
0.0
 11
-25.99999935421062
 21
-19.49999999997689
 31
0.0
  0
LINE
  5
78F3
330
A
100
AcDbEntity
  8
0
  6
Continuous
 62
     7
370
     0
100
AcDbLine
 10
-25.99999935490075
 20
-8.749999999976893
 30
0.0
 11
-25.9999993549103
 21
-8.599999999784288
 31
0.0
  0
LINE
  5
78F4
330
A
100
AcDbEntity
  8
0
  6
Continuous
 62
     7
370
     0
100
AcDbLine
 10
-35.49999935491036
 20
-5.691019966376529
 30
0.0
 11
-35.01818117342555
 21
-5.412842109636244
 31
0.0
  0
LINE
  5
78F5
330
A
100
AcDbEntity
  8
0
  6
Continuous
 62
     7
370
     0
100
AcDbLine
 10
-35.01818117274422
 20
5.412842109713821
 30
0.0
 11
-35.49999935491036
 21
5.691019966928408
 31
0.0
  0
ARC
  5
78F6
330
A
100
AcDbEntity
  8
0
  6
Continuous
 62
     7
370
     0
100
AcDbCircle
 10
-35.2681811727714
 20
4.979829407837343
 30
0.0
 40
0.5000000000000006
100
AcDbArc
 50
359.9999999963963
 51
59.99999999639361
  0
ARC
  5
78F7
330
A
100
AcDbEntity
  8
0
  6
Continuous
 62
     7
370
     0
100
AcDbCircle
 10
-35.26818117339826
 20
-4.979829407728303
 30
0.0
 40
0.5000000000000289
100
AcDbArc
 50
299.9999999963939
 51
359.9999999963955
  0
LINE
  5
78F8
330
A
100
AcDbEntity
  8
0
  6
Continuous
 62
     7
370
     0
100
AcDbLine
 10
-35.49999935491036
 20
-55.69101996636459
 30
0.0
 11
-35.018181173443
 21
-55.41284210963581
 31
0.0
  0
LINE
  5
78F9
330
A
100
AcDbEntity
  8
0
  6
Continuous
 62
     7
370
     0
100
AcDbLine
 10
-35.01818117274115
 20
-44.58715789028559
 30
0.0
 11
-35.49999935491036
 21
-44.30898003306819
 31
0.0
  0
ARC
  5
78FA
330
A
100
AcDbEntity
  8
0
  6
Continuous
 62
     7
370
     0
100
AcDbCircle
 10
-35.26818117276917
 20
-45.02017059216169
 30
0.0
 40
0.4999999999999451
100
AcDbArc
 50
359.9999999962847
 51
59.99999999628455
  0
ARC
  5
78FB
330
A
100
AcDbEntity
  8
0
  6
Continuous
 62
     7
370
     0
100
AcDbCircle
 10
-35.26818117341509
 20
-54.97982940772729
 30
0.0
 40
0.4999999999999851
100
AcDbArc
 50
299.999999996288
 51
359.999999996288
  0
LINE
  5
78FC
330
A
100
AcDbEntity
  8
0
  6
Continuous
 62
     7
370
     0
100
AcDbLine
 10
-23.99999999999642
 20
-7.424999999978481
 30
0.0
 11
-23.99999999999642
 21
-7.549999999976904
 31
0.0
  0
LINE
  5
78FD
330
A
100
AcDbEntity
  8
0
  6
Continuous
 62
     7
370
     0
100
AcDbLine
 10
-23.99999999999642
 20
-42.44999999997841
 30
0.0
 11
-23.99999999999642
 21
-42.57499999997847
 31
0.0
  0
LINE
  5
78FE
330
A
100
AcDbEntity
  8
0
  6
Continuous
 62
     7
370
     0
100
AcDbLine
 10
-18.99999999999642
 20
-42.57499999997847
 30
0.0
 11
-18.99999999999642
 21
-42.44999999997841
 31
0.0
  0
LINE
  5
78FF
330
A
100
AcDbEntity
  8
0
  6
Continuous
 62
     7
370
     0
100
AcDbLine
 10
-18.99999999999642
 20
-7.549999999976904
 30
0.0
 11
-18.99999999999642
 21
-7.424999999978481
 31
0.0
  0
ARC
  5
7900
330
A
100
AcDbEntity
  8
0
  6
Continuous
 62
     7
370
     0
100
AcDbCircle
 10
-26.4499993542874
 20
-8.529851921158581
 30
0.0
 40
0.7999999999999985
100
AcDbArc
 50
100.0000000000018
 51
180.0
  0
ARC
  5
7901
330
A
100
AcDbEntity
  8
0
  6
Continuous
 62
     7
370
     0
100
AcDbCircle
 10
-16.54999935428719
 20
-8.529851921158581
 30
0.0
 40
0.8000000000000229
100
AcDbArc
 50
0.0
 51
80.00000000000142
  0
LINE
  5
7902
330
A
100
AcDbEntity
  8
0
  6
Continuous
 62
     7
370
     0
100
AcDbLine
 10
-15.74999935428747
 20
-8.749999999976893
 30
0.0
 11
-15.74999935428747
 21
-8.529851921158581
 31
0.0
  0
LINE
  5
7903
330
A
100
AcDbEntity
  8
0
  6
Continuous
 62
     7
370
     0
100
AcDbLine
 10
-27.24999935428741
 20
-8.529851921158581
 30
0.0
 11
-27.24999935428741
 21
-8.599999999864295
 31
0.0
  0
LINE
  5
7904
330
A
100
AcDbEntity
  8
0
  6
Continuous
 62
     7
370
     0
100
AcDbLine
 10
-16.41108081215378
 20
-7.742005718748799
 30
0.0
 11
-17.49999935428724
 21
-7.549999999976904
 31
0.0
  0
LINE
  5
7905
330
A
100
AcDbEntity
  8
0
  6
Continuous
 62
     7
370
     0
100
AcDbLine
 10
-25.49999935428724
 20
-7.549999999976904
 30
0.0
 11
-26.58891789642093
 21
-7.742005718748799
 31
0.0
  0
LINE
  5
7906
330
A
100
AcDbEntity
  8
0
  6
Continuous
 62
     7
370
     0
100
AcDbLine
 10
-17.99999935428718
 20
-19.5999999999769
 30
0.0
 11
-17.99999935428718
 21
-19.49999999997689
 31
0.0
  0
LINE
  5
7907
330
A
100
AcDbEntity
  8
0
  6
Continuous
 62
     7
370
     0
100
AcDbLine
 10
-24.99999935428741
 20
-19.49999999997689
 30
0.0
 11
-24.99999935428741
 21
-19.5999999999769
 31
0.0
  0
ARC
  5
7908
330
A
100
AcDbEntity
  8
0
  6
Continuous
 62
     7
370
     0
100
AcDbCircle
 10
-16.54999999999978
 20
-41.4701480787968
 30
0.0
 40
0.7999999999999714
100
AcDbArc
 50
280.0000000000018
 51
0.0
  0
ARC
  5
7909
330
A
100
AcDbEntity
  8
0
  6
Continuous
 62
     7
370
     0
100
AcDbCircle
 10
-26.44999999999971
 20
-41.4701480787968
 30
0.0
 40
0.7999999999999674
100
AcDbArc
 50
180.0
 51
259.9999999999982
  0
LINE
  5
790A
330
A
100
AcDbEntity
  8
0
  6
Continuous
 62
     7
370
     0
100
AcDbLine
 10
-27.24999999999972
 20
-41.24999999997848
 30
0.0
 11
-27.24999999999972
 21
-41.4701480787968
 31
0.0
  0
LINE
  5
790B
330
A
100
AcDbEntity
  8
0
  6
Continuous
 62
     7
370
     0
100
AcDbLine
 10
-15.74999999999977
 20
-41.4701480787968
 30
0.0
 11
-15.74999999999977
 21
-41.24999999997848
 31
0.0
  0
LINE
  5
790C
330
A
100
AcDbEntity
  8
0
  6
Continuous
 62
     7
370
     0
100
AcDbLine
 10
-26.58891854213329
 20
-42.25799428120658
 30
0.0
 11
-25.49999999999972
 21
-42.44999999997841
 31
0.0
  0
LINE
  5
790D
330
A
100
AcDbEntity
  8
0
  6
Continuous
 62
     7
370
     0
100
AcDbLine
 10
-17.49999999999971
 20
-42.44999999997841
 30
0.0
 11
-16.4110814578662
 21
-42.25799428120658
 31
0.0
  0
LINE
  5
790E
330
A
100
AcDbEntity
  8
0
  6
Continuous
 62
     7
370
     0
100
AcDbLine
 10
-24.99999999999972
 20
-30.3999999999769
 30
0.0
 11
-24.99999999999972
 21
-30.4999999999769
 31
0.0
  0
LINE
  5
790F
330
A
100
AcDbEntity
  8
0
  6
Continuous
 62
     7
370
     0
100
AcDbLine
 10
-17.99999999999971
 20
-30.4999999999769
 30
0.0
 11
-17.99999999999971
 21
-30.3999999999769
 31
0.0
  0
LINE
  5
7910
330
A
100
AcDbEntity
  8
0
  6
Continuous
 62
     7
370
     0
100
AcDbLine
 10
-12.31818117309217
 20
-19.49999999997689
 30
0.0
 11
-12.31818117309217
 21
-8.749999999976893
 31
0.0
  0
LINE
  5
7911
330
A
100
AcDbEntity
  8
0
  6
Continuous
 62
     7
370
     0
100
AcDbLine
 10
-12.31818117309217
 20
-41.24999999997689
 30
0.0
 11
-12.31818117309217
 21
-30.4999999999769
 31
0.0
  0
TEXT
  5
ADBE
330
A
100
AcDbEntity
  8
0
  6
Continuous
 62
     7
370
     0
100
AcDbText
 10
35.62330088728208
 20
72.50732064423917
 30
0.0
 40
10.0
  1
8506R
100
AcDbText
  0
LINE
  5
ADC0
330
A
100
AcDbEntity
  8
0
  6
Continuous
 62
     7
370
     0
100
AcDbLine
 10
72.78639737325771
 20
-113.2338483078829
 30
0.0
 11
72.79946632422883
 21
-113.2529693738774
 31
0.0
  0
LINE
  5
ADC1
330
A
100
AcDbEntity
  8
0
  6
Continuous
 62
     7
370
     0
100
AcDbLine
 10
72.79946632422883
 20
-113.2529693738774
 30
0.0
 11
72.81783549757074
 21
-113.2779169434757
 31
0.0
  0
LINE
  5
ADC2
330
A
100
AcDbEntity
  8
0
  6
Continuous
 62
     7
370
     0
100
AcDbLine
 10
72.81783549757074
 20
-113.2779169434757
 30
0.0
 11
72.83724041664931
 21
-113.3021835743193
 31
0.0
  0
LINE
  5
ADC3
330
A
100
AcDbEntity
  8
0
  6
Continuous
 62
     7
370
     0
100
AcDbLine
 10
72.83724041664931
 20
-113.3021835743193
 30
0.0
 11
72.86235861799298
 21
-113.3309243839365
 31
0.0
  0
LINE
  5
ADC4
330
A
100
AcDbEntity
  8
0
  6
Continuous
 62
     7
370
     0
100
AcDbLine
 10
72.86235861799298
 20
-113.3309243839365
 30
0.0
 11
72.88891689779223
 21
-113.3585661272634
 31
0.0
  0
LINE
  5
ADC5
330
A
100
AcDbEntity
  8
0
  6
Continuous
 62
     7
370
     0
100
AcDbLine
 10
72.88891689779223
 20
-113.3585661272634
 30
0.0
 11
72.91582406916399
 21
-113.3841296622838
 31
0.0
  0
LINE
  5
ADC6
330
A
100
AcDbEntity
  8
0
  6
Continuous
 62
     7
370
     0
100
AcDbLine
 10
72.91582406916399
 20
-113.3841296622838
 30
0.0
 11
72.94393157568146
 21
-113.4085748393142
 31
0.0
  0
LINE
  5
ADC7
330
A
100
AcDbEntity
  8
0
  6
Continuous
 62
     7
370
     0
100
AcDbLine
 10
72.94393157568146
 20
-113.4085748393142
 30
0.0
 11
72.97177661358614
 21
-113.4307946040568
 31
0.0
  0
LINE
  5
ADC8
330
A
100
AcDbEntity
  8
0
  6
Continuous
 62
     7
370
     0
100
AcDbLine
 10
72.97177661358614
 20
-113.4307946040568
 30
0.0
 11
73.00058813415183
 21
-113.4519279008527
 31
0.0
  0
LINE
  5
ADC9
330
A
100
AcDbEntity
  8
0
  6
Continuous
 62
     7
370
     0
100
AcDbLine
 10
73.00058813415183
 20
-113.4519279008527
 30
0.0
 11
73.02968432229426
 21
-113.4715428886589
 31
0.0
  0
LINE
  5
ADCA
330
A
100
AcDbEntity
  8
0
  6
Continuous
 62
     7
370
     0
100
AcDbLine
 10
73.02968432229426
 20
-113.4715428886589
 30
0.0
 11
73.05876565646616
 21
-113.4895705114798
 31
0.0
  0
LINE
  5
ADCB
330
A
100
AcDbEntity
  8
0
  6
Continuous
 62
     7
370
     0
100
AcDbLine
 10
73.05876565646616
 20
-113.4895705114798
 30
0.0
 11
73.08867693980721
 21
-113.5066013883941
 31
0.0
  0
LINE
  5
ADCC
330
A
100
AcDbEntity
  8
0
  6
Continuous
 62
     7
370
     0
100
AcDbLine
 10
73.08867693980721
 20
-113.5066013883941
 30
0.0
 11
73.11925550982454
 21
-113.522546084757
 31
0.0
  0
LINE
  5
ADCD
330
A
100
AcDbEntity
  8
0
  6
Continuous
 62
     7
370
     0
100
AcDbLine
 10
73.11925550982454
 20
-113.522546084757
 30
0.0
 11
73.15065494075293
 21
-113.5374796904861
 31
0.0
  0
LINE
  5
ADCE
330
A
100
AcDbEntity
  8
0
  6
Continuous
 62
     7
370
     0
100
AcDbLine
 10
73.15065494075293
 20
-113.5374796904861
 30
0.0
 11
73.18262339219393
 21
-113.5512791592036
 31
0.0
  0
LINE
  5
ADCF
330
A
100
AcDbEntity
  8
0
  6
Continuous
 62
     7
370
     0
100
AcDbLine
 10
73.18262339219393
 20
-113.5512791592036
 30
0.0
 11
73.21532043302123
 21
-113.5640077981808
 31
0.0
  0
LINE
  5
ADD0
330
A
100
AcDbEntity
  8
0
  6
Continuous
 62
     7
370
     0
100
AcDbLine
 10
73.21532043302123
 20
-113.5640077981808
 30
0.0
 11
73.24848632592523
 21
-113.5755604103407
 31
0.0
  0
LINE
  5
ADD1
330
A
100
AcDbEntity
  8
0
  6
Continuous
 62
     7
370
     0
100
AcDbLine
 10
73.24848632592523
 20
-113.5755604103407
 30
0.0
 11
73.28219294005322
 21
-113.5859613677007
 31
0.0
  0
LINE
  5
ADD2
330
A
100
AcDbEntity
  8
0
  6
Continuous
 62
     7
370
     0
100
AcDbLine
 10
73.28219294005322
 20
-113.5859613677007
 30
0.0
 11
73.31098636723083
 21
-113.5938164952537
 31
0.0
  0
LINE
  5
ADD3
330
A
100
AcDbEntity
  8
0
  6
Continuous
 62
     7
370
     0
100
AcDbLine
 10
73.31098636723083
 20
-113.5938164952537
 30
0.0
 11
73.34000888554476
 21
-113.6008040349601
 31
0.0
  0
LINE
  5
ADD4
330
A
100
AcDbEntity
  8
0
  6
Continuous
 62
     7
370
     0
100
AcDbLine
 10
73.34000888554476
 20
-113.6008040349601
 30
0.0
 11
73.37925677599327
 21
-113.6088076502852
 31
0.0
  0
LINE
  5
ADD5
330
A
100
AcDbEntity
  8
0
  6
Continuous
 62
     7
370
     0
100
AcDbLine
 10
73.37925677599327
 20
-113.6088076502852
 30
0.0
 11
73.41880209087331
 21
-113.615236136383
 31
0.0
  0
LINE
  5
ADD6
330
A
100
AcDbEntity
  8
0
  6
Continuous
 62
     7
370
     0
100
AcDbLine
 10
73.41880209087331
 20
-113.615236136383
 30
0.0
 11
73.45853143419623
 21
-113.6200765941083
 31
0.0
  0
LINE
  5
ADD7
330
A
100
AcDbEntity
  8
0
  6
Continuous
 62
     7
370
     0
100
AcDbLine
 10
73.45853143419623
 20
-113.6200765941083
 30
0.0
 11
73.48861573376024
 21
-113.6226763007529
 31
0.0
  0
LINE
  5
ADD8
330
A
100
AcDbEntity
  8
0
  6
Continuous
 62
     7
370
     0
100
AcDbLine
 10
73.48861573376024
 20
-113.6226763007529
 30
0.0
 11
73.51874035587082
 21
-113.6243679289584
 31
0.0
  0
LINE
  5
ADD9
330
A
100
AcDbEntity
  8
0
  6
Continuous
 62
     7
370
     0
100
AcDbLine
 10
73.51874035587082
 20
-113.6243679289584
 30
0.0
 11
73.5248253321439
 21
-113.6245991840482
 31
0.0
  0
LINE
  5
ADDA
330
A
100
AcDbEntity
  8
0
  6
Continuous
 62
     7
370
     0
100
AcDbLine
 10
-36.45660879404307
 20
-100.6469000313665
 30
0.0
 11
-36.46221004406669
 21
-100.5773232290421
 31
0.0
  0
LINE
  5
ADDB
330
A
100
AcDbEntity
  8
0
  6
Continuous
 62
     7
370
     0
100
AcDbLine
 10
-36.46221004406669
 20
-100.5773232290421
 30
0.0
 11
-36.47230618813074
 21
-100.5101598040091
 31
0.0
  0
LINE
  5
ADDC
330
A
100
AcDbEntity
  8
0
  6
Continuous
 62
     7
370
     0
100
AcDbLine
 10
-36.47230618813074
 20
-100.5101598040091
 30
0.0
 11
-36.48667859608537
 21
-100.4448472398713
 31
0.0
  0
LINE
  5
ADDD
330
A
100
AcDbEntity
  8
0
  6
Continuous
 62
     7
370
     0
100
AcDbLine
 10
-36.48667859608537
 20
-100.4448472398713
 30
0.0
 11
-36.504845000952
 21
-100.3822947402716
 31
0.0
  0
LINE
  5
ADDE
330
A
100
AcDbEntity
  8
0
  6
Continuous
 62
     7
370
     0
100
AcDbLine
 10
-36.504845000952
 20
-100.3822947402716
 30
0.0
 11
-36.52658616500076
 21
-100.3222042475008
 31
0.0
  0
LINE
  5
ADDF
330
A
100
AcDbEntity
  8
0
  6
Continuous
 62
     7
370
     0
100
AcDbLine
 10
-36.52658616500076
 20
-100.3222042475008
 30
0.0
 11
-36.55149146842751
 21
-100.2649568443688
 31
0.0
  0
LINE
  5
ADE0
330
A
100
AcDbEntity
  8
0
  6
Continuous
 62
     7
370
     0
100
AcDbLine
 10
-36.55149146842751
 20
-100.2649568443688
 30
0.0
 11
-36.57957128740355
 21
-100.2100075721497
 31
0.0
  0
LINE
  5
ADE1
330
A
100
AcDbEntity
  8
0
  6
Continuous
 62
     7
370
     0
100
AcDbLine
 10
-36.57957128740355
 20
-100.2100075721497
 30
0.0
 11
-36.61034713283641
 21
-100.1579053096064
 31
0.0
  0
LINE
  5
ADE2
330
A
100
AcDbEntity
  8
0
  6
Continuous
 62
     7
370
     0
100
AcDbLine
 10
-36.61034713283641
 20
-100.1579053096064
 30
0.0
 11
-36.66373195892135
 21
-100.0815860686582
 31
0.0
  0
LINE
  5
ADE3
330
A
100
AcDbEntity
  8
0
  6
Continuous
 62
     7
370
     0
100
AcDbLine
 10
-36.66373195892135
 20
-100.0815860686582
 30
0.0
 11
-36.72254085293543
 21
-100.0121183678635
 31
0.0
  0
LINE
  5
ADE4
330
A
100
AcDbEntity
  8
0
  6
Continuous
 62
     7
370
     0
100
AcDbLine
 10
-36.72254085293543
 20
-100.0121183678635
 30
0.0
 11
-36.78593919830297
 21
-99.94962016251168
 31
0.0
  0
LINE
  5
ADE5
330
A
100
AcDbEntity
  8
0
  6
Continuous
 62
     7
370
     0
100
AcDbLine
 10
-36.78593919830297
 20
-99.94962016251168
 30
0.0
 11
-36.85399588773021
 21
-99.89349622316416
 31
0.0
  0
LINE
  5
ADE6
330
A
100
AcDbEntity
  8
0
  6
Continuous
 62
     7
370
     0
100
AcDbLine
 10
-36.85399588773021
 20
-99.89349622316416
 30
0.0
 11
-36.92547402982575
 21
-99.8443746249767
 31
0.0
  0
LINE
  5
ADE7
330
A
100
AcDbEntity
  8
0
  6
Continuous
 62
     7
370
     0
100
AcDbLine
 10
-36.92547402982575
 20
-99.8443746249767
 30
0.0
 11
-37.00057729004061
 21
-99.8018162775223
 31
0.0
  0
LINE
  5
ADE8
330
A
100
AcDbEntity
  8
0
  6
Continuous
 62
     7
370
     0
100
AcDbLine
 10
-37.00057729004061
 20
-99.8018162775223
 30
0.0
 11
-37.07811398917687
 21
-99.76628316608517
 31
0.0
  0
LINE
  5
ADE9
330
A
100
AcDbEntity
  8
0
  6
Continuous
 62
     7
370
     0
100
AcDbLine
 10
-37.07811398917687
 20
-99.76628316608517
 30
0.0
 11
-37.15773086913117
 21
-99.73769390482232
 31
0.0
  0
LINE
  5
ADEA
330
A
100
AcDbEntity
  8
0
  6
Continuous
 62
     7
370
     0
100
AcDbLine
 10
-37.15773086913117
 20
-99.73769390482232
 30
0.0
 11
-37.22959392135812
 21
-99.71817654244128
 31
0.0
  0
LINE
  5
ADEB
330
A
100
AcDbEntity
  8
0
  6
Continuous
 62
     7
370
     0
100
AcDbLine
 10
-37.22959392135812
 20
-99.71817654244128
 30
0.0
 11
-37.30243403362891
 21
-99.70410370045256
 31
0.0
  0
LINE
  5
ADEC
330
A
100
AcDbEntity
  8
0
  6
Continuous
 62
     7
370
     0
100
AcDbLine
 10
-37.30243403362891
 20
-99.70410370045256
 30
0.0
 11
-37.37590519273118
 21
-99.69548656998433
 31
0.0
  0
LINE
  5
ADED
330
A
100
AcDbEntity
  8
0
  6
Continuous
 62
     7
370
     0
100
AcDbLine
 10
-37.37590519273118
 20
-99.69548656998433
 30
0.0
 11
-37.44980384754877
 21
-99.69232435899796
 31
0.0
  0
LINE
  5
ADEE
330
A
100
AcDbEntity
  8
0
  6
Continuous
 62
     7
370
     0
100
AcDbLine
 10
-37.44980384754877
 20
-99.69232435899796
 30
0.0
 11
-37.45557733425324
 21
-99.6923076922852
 31
0.0
  0
LINE
  5
ADEF
330
A
100
AcDbEntity
  8
0
  6
Continuous
 62
     7
370
     0
100
AcDbLine
 10
-37.45557733425324
 20
47.19230769233016
 30
0.0
 11
-37.44980384754808
 21
47.19232435904305
 31
0.0
  0
LINE
  5
ADF0
330
A
100
AcDbEntity
  8
0
  6
Continuous
 62
     7
370
     0
100
AcDbLine
 10
-37.44980384754808
 20
47.19232435904305
 30
0.0
 11
-37.37624573491479
 21
47.19545941032012
 31
0.0
  0
LINE
  5
ADF1
330
A
100
AcDbEntity
  8
0
  6
Continuous
 62
     7
370
     0
100
AcDbLine
 10
-37.37624573491479
 20
47.19545941032012
 30
0.0
 11
-37.30284159302375
 21
47.20404062652705
 31
0.0
  0
LINE
  5
ADF2
330
A
100
AcDbEntity
  8
0
  6
Continuous
 62
     7
370
     0
100
AcDbLine
 10
-37.30284159302375
 20
47.20404062652705
 30
0.0
 11
-37.22993170559272
 21
47.21809824346077
 31
0.0
  0
LINE
  5
ADF3
330
A
100
AcDbEntity
  8
0
  6
Continuous
 62
     7
370
     0
100
AcDbLine
 10
-37.22993170559272
 20
47.21809824346077
 30
0.0
 11
-37.15773086913117
 21
47.23769390486727
 31
0.0
  0
LINE
  5
ADF4
330
A
100
AcDbEntity
  8
0
  6
Continuous
 62
     7
370
     0
100
AcDbLine
 10
-37.15773086913117
 20
47.23769390486727
 30
0.0
 11
-37.08059004815772
 21
47.26527773851705
 31
0.0
  0
LINE
  5
ADF5
330
A
100
AcDbEntity
  8
0
  6
Continuous
 62
     7
370
     0
100
AcDbLine
 10
-37.08059004815772
 20
47.26527773851705
 30
0.0
 11
-37.00500889039978
 21
47.29956580499453
 31
0.0
  0
LINE
  5
ADF6
330
A
100
AcDbEntity
  8
0
  6
Continuous
 62
     7
370
     0
100
AcDbLine
 10
-37.00500889039978
 20
47.29956580499453
 30
0.0
 11
-36.93151890720424
 21
47.34062537770866
 31
0.0
  0
LINE
  5
ADF7
330
A
100
AcDbEntity
  8
0
  6
Continuous
 62
     7
370
     0
100
AcDbLine
 10
-36.93151890720424
 20
47.34062537770866
 30
0.0
 11
-36.85998722959193
 21
47.38901918424004
 31
0.0
  0
LINE
  5
ADF8
330
A
100
AcDbEntity
  8
0
  6
Continuous
 62
     7
370
     0
100
AcDbLine
 10
-36.85998722959193
 20
47.38901918424004
 30
0.0
 11
-36.7916053734329
 21
47.44455022145841
 31
0.0
  0
LINE
  5
ADF9
330
A
100
AcDbEntity
  8
0
  6
Continuous
 62
     7
370
     0
100
AcDbLine
 10
-36.7916053734329
 20
47.44455022145841
 30
0.0
 11
-36.7264012295542
 21
47.50798159437973
 31
0.0
  0
LINE
  5
ADFA
330
A
100
AcDbEntity
  8
0
  6
Continuous
 62
     7
370
     0
100
AcDbLine
 10
-36.7264012295542
 20
47.50798159437973
 30
0.0
 11
-36.66573884834907
 21
47.57899279263759
 31
0.0
  0
LINE
  5
ADFB
330
A
100
AcDbEntity
  8
0
  6
Continuous
 62
     7
370
     0
100
AcDbLine
 10
-36.66573884834907
 20
47.57899279263759
 30
0.0
 11
-36.61034713283641
 21
47.65790530965142
 31
0.0
  0
LINE
  5
ADFC
330
A
100
AcDbEntity
  8
0
  6
Continuous
 62
     7
370
     0
100
AcDbLine
 10
-36.61034713283641
 20
47.65790530965142
 30
0.0
 11
-36.5803919042649
 21
47.70852007039673
 31
0.0
  0
LINE
  5
ADFD
330
A
100
AcDbEntity
  8
0
  6
Continuous
 62
     7
370
     0
100
AcDbLine
 10
-36.5803919042649
 20
47.70852007039673
 30
0.0
 11
-36.55292622273942
 21
47.76193463220191
 31
0.0
  0
LINE
  5
ADFE
330
A
100
AcDbEntity
  8
0
  6
Continuous
 62
     7
370
     0
100
AcDbLine
 10
-36.55292622273942
 20
47.76193463220191
 30
0.0
 11
-36.52801922602049
 21
47.81862725673597
 31
0.0
  0
LINE
  5
ADFF
330
A
100
AcDbEntity
  8
0
  6
Continuous
 62
     7
370
     0
100
AcDbLine
 10
-36.52801922602049
 20
47.81862725673597
 30
0.0
 11
-36.50621486877401
 21
47.8781247692756
 31
0.0
  0
LINE
  5
AE00
330
A
100
AcDbEntity
  8
0
  6
Continuous
 62
     7
370
     0
100
AcDbLine
 10
-36.50621486877401
 20
47.8781247692756
 30
0.0
 11
-36.48773190660768
 21
47.9407591228099
 31
0.0
  0
LINE
  5
AE01
330
A
100
AcDbEntity
  8
0
  6
Continuous
 62
     7
370
     0
100
AcDbLine
 10
-36.48773190660768
 20
47.9407591228099
 30
0.0
 11
-36.4730517823208
 21
48.00617994104175
 31
0.0
  0
LINE
  5
AE02
330
A
100
AcDbEntity
  8
0
  6
Continuous
 62
     7
370
     0
100
AcDbLine
 10
-36.4730517823208
 20
48.00617994104175
 30
0.0
 11
-36.46246833599742
 21
48.07511333417583
 31
0.0
  0
LINE
  5
AE03
330
A
100
AcDbEntity
  8
0
  6
Continuous
 62
     7
370
     0
100
AcDbLine
 10
-36.46246833599742
 20
48.07511333417583
 30
0.0
 11
-36.45660879404307
 21
48.14690003141151
 31
0.0
  0
LINE
  5
B930
330
A
100
AcDbEntity
  8
0
  6
CENTER
 62
     1
100
AcDbLine
 10
8.499999999999943
 20
0.0000000000095639
 30
0.0
 11
8.499999999999943
 21
-49.99999999999039
 31
0.0
  0
ARC
  5
B931
330
A
100
AcDbEntity
  8
0
  6
CENTER
 62
     1
100
AcDbCircle
 10
0.4999999999999432
 20
-49.99999999999039
 30
0.0
 40
8.0
100
AcDbArc
 50
202.6198650000018
 51
0.0
  0
ARC
  5
B932
330
A
100
AcDbEntity
  8
0
  6
CENTER
 62
     1
100
AcDbCircle
 10
-11.50000000000005
 20
-54.99999999999039
 30
0.0
 40
5.0
100
AcDbArc
 50
22.61986500000181
 51
90.0
  0
LINE
  5
B933
330
A
100
AcDbEntity
  8
0
  6
CENTER
 62
     1
100
AcDbLine
 10
-11.50000000000005
 20
-49.99999999999039
 30
0.0
 11
-32.5
 21
-49.99999999999039
 31
0.0
  0
LINE
  5
B934
330
A
100
AcDbEntity
  8
0
  6
CENTER
 62
     1
100
AcDbLine
 10
-32.5
 20
0.0000000000095639
 30
0.0
 11
-11.50000000000005
 21
0.0000000000095639
 31
0.0
  0
ARC
  5
B935
330
A
100
AcDbEntity
  8
0
  6
CENTER
 62
     1
100
AcDbCircle
 10
-11.50000000000005
 20
5.000000000009563
 30
0.0
 40
5.0
100
AcDbArc
 50
270.0
 51
337.3801349999982
  0
ARC
  5
B936
330
A
100
AcDbEntity
  8
0
  6
CENTER
 62
     1
100
AcDbCircle
 10
0.4999999999999432
 20
0.0000000000095639
 30
0.0
 40
8.0
100
AcDbArc
 50
0.0
 51
157.3801349999982
  0
ENDSEC
  0
SECTION
  2
OBJECTS
  0
DICTIONARY
  5
19
330
0
100
AcDbDictionary
281
     1
  3
ACAD_COLOR
350
5829
  3
ACAD_GROUP
350
1A
  3
ACAD_IMAGE_VARS
350
B967
  3
ACAD_LAYOUT
350
1E
  3
ACAD_MATERIAL
350
57FF
  3
ACAD_MLEADERSTYLE
350
584E
  3
ACAD_MLINESTYLE
350
1B
  3
ACAD_PLOTSETTINGS
350
22
  3
ACAD_PLOTSTYLENAME
350
1F
  3
ACAD_SCALELIST
350
582C
  3
ACAD_TABLESTYLE
350
582A
  3
ACAD_VISUALSTYLE
350
5818
  3
ACAD_WIPEOUT_VARS
350
23
  3
ACDB_RECOMPOSE_DATA
350
B96A
  3
AcDbVariableDictionary
350
AB91
  3
APPDATA
350
B966
  3
ASE_INDEX_DICTIONARY
350
B60C
  0
DICTIONARY
  5
5858
330
14
100
AcDbDictionary
280
     1
281
     1
  3
ADSK_XREC_LAYER_RECONCILED
360
5859
  0
DICTIONARY
  5
5864
330
A
100
AcDbDictionary
280
     1
281
     1
  3
ACAD_SORTENTS
360
5865
  0
DICTIONARY
  5
5829
102
{ACAD_REACTORS
330
19
102
}
330
19
100
AcDbDictionary
281
     1
  0
DICTIONARY
  5
1A
102
{ACAD_REACTORS
330
19
102
}
330
19
100
AcDbDictionary
281
     1
  0
RASTERVARIABLES
  5
B967
102
{ACAD_REACTORS
330
19
102
}
330
19
100
AcDbRasterVariables
 90
        0
 70
     1
 71
     1
 72
     0
  0
DICTIONARY
  5
1E
102
{ACAD_REACTORS
330
19
102
}
330
19
100
AcDbDictionary
281
     1
  3
Layout1
350
21
  3
Model
350
20
  0
DICTIONARY
  5
57FF
102
{ACAD_REACTORS
330
19
102
}
330
19
100
AcDbDictionary
281
     1
  3
ByBlock
350
5808
  3
ByLayer
350
5800
  3
Global
350
5810
  0
DICTIONARY
  5
584E
102
{ACAD_REACTORS
330
19
102
}
330
19
100
AcDbDictionary
281
     1
  3
Standard
350
584F
  0
DICTIONARY
  5
1B
102
{ACAD_REACTORS
330
19
102
}
330
19
100
AcDbDictionary
281
     1
  3
Standard
350
1C
  0
DICTIONARY
  5
22
102
{ACAD_REACTORS
330
19
102
}
330
19
100
AcDbDictionary
281
     1
  0
ACDBDICTIONARYWDFLT
  5
1F
102
{ACAD_REACTORS
330
19
102
}
330
19
100
AcDbDictionary
281
     1
  3
Normal
350
1D
100
AcDbDictionaryWithDefault
340
1D
  0
DICTIONARY
  5
582C
102
{ACAD_REACTORS
330
19
102
}
330
19
100
AcDbDictionary
281
     1
  3
A0
350
582D
  3
A1
350
582E
  3
A2
350
582F
  3
A3
350
5830
  3
A4
350
5831
  3
A5
350
5832
  3
A6
350
5833
  3
A7
350
5834
  3
A8
350
5835
  3
A9
350
5836
  3
B0
350
5837
  3
B1
350
5838
  3
B2
350
5839
  3
B3
350
583A
  3
B4
350
583B
  3
B5
350
583C
  3
B6
350
583D
  3
B7
350
583E
  3
B8
350
583F
  3
B9
350
5840
  3
C0
350
5841
  3
C1
350
5842
  3
C2
350
5843
  3
C3
350
5844
  3
C4
350
5845
  3
C5
350
5846
  3
C6
350
5847
  3
C7
350
5848
  3
C8
350
5849
  3
C9
350
584A
  3
D0
350
584B
  3
D1
350
584C
  3
D2
350
584D
  0
DICTIONARY
  5
582A
102
{ACAD_REACTORS
330
19
102
}
330
19
100
AcDbDictionary
281
     1
  3
Standard
350
582B
  0
DICTIONARY
  5
5818
102
{ACAD_REACTORS
330
19
102
}
330
19
100
AcDbDictionary
281
     1
  3
2dWireframe
350
581E
  3
3D Hidden
350
5820
  3
3dWireframe
350
581F
  3
Basic
350
581D
  3
Brighten
350
5824
  3
ColorChange
350
5828
  3
Conceptual
350
5821
  3
Dim
350
5823
  3
Facepattern
350
5827
  3
Flat
350
5819
  3
FlatWithEdges
350
581A
  3
Gouraud
350
581B
  3
GouraudWithEdges
350
581C
  3
Linepattern
350
5826
  3
Realistic
350
5822
  3
Thicken
350
5825
  0
WIPEOUTVARIABLES
  5
23
330
19
100
AcDbWipeoutVariables
 70
     1
  0
XRECORD
  5
B96A
102
{ACAD_REACTORS
330
19
102
}
330
19
100
AcDbXrecord
280
     1
 90
        1
330
582B
  0
DICTIONARY
  5
AB91
102
{ACAD_REACTORS
330
19
102
}
330
19
100
AcDbDictionary
281
     1
  3
CANNOSCALE
350
B968
  3
CMLEADERSTYLE
350
AB93
  3
CTABLESTYLE
350
AB92
  3
DIMASSOC
350
B616
  3
INDEXCTL
350
B615
  3
LIGHTINGUNITS
350
AB96
  3
MSLTSCALE
350
AB94
  3
SORTENTS
350
B614
  0
DICTIONARY
  5
B966
102
{ACAD_REACTORS
330
19
102
}
330
19
100
AcDbDictionary
281
     1
  0
DICTIONARY
  5
B60C
102
{ACAD_REACTORS
330
19
102
}
330
19
100
AcDbDictionary
281
     1
  3
ASEBlockHierarchyIndexRecord
350
B60D
1001
DCO15
1040
1684840282.966
  0
XRECORD
  5
5859
102
{ACAD_REACTORS
330
5858
102
}
330
5858
100
AcDbXrecord
280
     1
290
     1
  0
SORTENTSTABLE
  5
5865
102
{ACAD_REACTORS
330
5864
102
}
330
5864
100
AcDbSortentsTable
330
A
331
38A4
  5
8804
331
38A5
  5
8805
331
38A6
  5
8806
331
38A7
  5
8807
331
38A8
  5
8808
331
38A9
  5
8809
331
38AA
  5
880A
331
38AB
  5
880B
331
38AC
  5
880C
331
38AD
  5
880D
331
38AE
  5
880E
331
38AF
  5
880F
331
38B0
  5
8810
331
38B1
  5
8811
331
38B2
  5
8812
331
38B3
  5
8813
331
38B4
  5
8814
331
38B5
  5
8815
331
38B6
  5
8816
331
38B7
  5
8817
331
38B8
  5
8818
331
38B9
  5
8819
331
38BA
  5
881A
331
38BB
  5
881B
331
38BC
  5
881C
331
38BD
  5
881D
331
38BE
  5
881E
331
74D8
  5
881F
331
74D9
  5
8820
331
74DA
  5
8821
331
74DB
  5
8822
331
74DC
  5
8823
331
74DD
  5
8824
331
74DE
  5
8825
331
74DF
  5
8826
331
74E0
  5
8827
331
74E1
  5
8828
331
74E2
  5
8829
331
74E3
  5
882A
331
74E4
  5
882B
331
74E5
  5
882C
331
74E6
  5
882D
331
74E7
  5
882E
331
74E8
  5
882F
331
74E9
  5
8830
331
74EA
  5
8831
331
74EB
  5
8832
331
74EC
  5
8833
331
74ED
  5
8834
331
74EE
  5
8835
331
74EF
  5
8836
331
74F0
  5
8837
331
74F1
  5
8838
331
74F2
  5
8839
331
74F3
  5
883A
331
74F4
  5
883B
331
74F5
  5
883C
331
74F6
  5
883D
331
74F7
  5
883E
331
74F8
  5
883F
331
74F9
  5
8840
331
74FA
  5
8841
331
74FB
  5
8842
331
74FC
  5
8843
331
74FD
  5
8844
331
74FE
  5
8845
331
74FF
  5
8846
331
7500
  5
8847
331
7501
  5
8848
331
7502
  5
8849
331
7503
  5
884A
331
7504
  5
884B
331
7505
  5
884C
331
7506
  5
884D
331
7507
  5
884E
331
7508
  5
884F
331
7509
  5
8850
331
750A
  5
8851
331
750B
  5
8852
331
750C
  5
8853
331
750D
  5
8854
331
750E
  5
8855
331
750F
  5
8856
331
7510
  5
8857
331
7511
  5
8858
331
7512
  5
8859
331
7513
  5
885A
331
7514
  5
885B
331
7515
  5
885C
331
7516
  5
885D
331
7517
  5
885E
331
7518
  5
885F
331
7519
  5
8860
331
751A
  5
8861
331
751B
  5
8862
331
751C
  5
8863
331
751D
  5
8864
331
751E
  5
8865
331
751F
  5
8866
331
7520
  5
8867
331
7521
  5
8868
331
7522
  5
8869
331
7523
  5
886A
331
7524
  5
886B
331
7525
  5
886C
331
7526
  5
886D
331
7527
  5
886E
331
7528
  5
886F
331
7529
  5
8870
331
752A
  5
8871
331
752B
  5
8872
331
752C
  5
8873
331
752D
  5
8874
331
752E
  5
8875
331
752F
  5
8876
331
7530
  5
8877
331
7531
  5
8878
331
7532
  5
8879
331
7533
  5
887A
331
7534
  5
887B
331
7535
  5
887C
331
7536
  5
887D
331
7537
  5
887E
331
7538
  5
887F
331
7539
  5
8880
331
753A
  5
8881
331
753B
  5
8882
331
753C
  5
8883
331
753D
  5
8884
331
753E
  5
8885
331
753F
  5
8886
331
7540
  5
8887
331
7541
  5
8888
331
7542
  5
8889
331
7543
  5
888A
331
7544
  5
888B
331
7545
  5
888C
331
7546
  5
888D
331
7547
  5
888E
331
7548
  5
888F
331
7549
  5
8890
331
754A
  5
8891
331
754B
  5
8892
331
754C
  5
8893
331
754D
  5
8894
331
754E
  5
8895
331
754F
  5
8896
331
7550
  5
8897
331
7551
  5
8898
331
7552
  5
8899
331
7553
  5
889A
331
7554
  5
889B
331
7555
  5
889C
331
7556
  5
889D
331
7557
  5
889E
331
7558
  5
88A4
331
7559
  5
88AA
331
755A
  5
88AB
331
755B
  5
88AC
331
755C
  5
88AD
331
755D
  5
88AE
331
755E
  5
88AF
331
755F
  5
88B0
331
7560
  5
88B1
331
7561
  5
88B2
331
7562
  5
88B3
331
7563
  5
88B4
331
7564
  5
88B5
331
7565
  5
88B6
331
7566
  5
88B7
331
7567
  5
88B8
331
7568
  5
88B9
331
7569
  5
88BA
331
756A
  5
88BB
331
756B
  5
88BC
331
756C
  5
88BD
331
756D
  5
88BE
331
756E
  5
88BF
331
756F
  5
88C0
331
7570
  5
88C1
331
7571
  5
88C2
331
7572
  5
88C3
331
7573
  5
88C4
331
7574
  5
88C5
331
7575
  5
88C6
331
7576
  5
88C7
331
7577
  5
88C8
331
7578
  5
88C9
331
7579
  5
88CA
331
757A
  5
88CB
331
757B
  5
88CC
331
757C
  5
88CD
331
757D
  5
88CE
331
757E
  5
88CF
331
757F
  5
88D0
331
7580
  5
88D1
331
7581
  5
88D2
331
7582
  5
88D3
331
7583
  5
88D4
331
7584
  5
88D5
331
7585
  5
88D6
331
7586
  5
88EF
331
7587
  5
8909
331
7588
  5
890A
331
7589
  5
890B
331
758A
  5
890C
331
758B
  5
890D
331
758C
  5
8926
331
758D
  5
8940
331
758E
  5
8941
331
758F
  5
8942
331
7590
  5
8943
331
7591
  5
8944
331
7592
  5
8945
331
7593
  5
8946
331
7594
  5
8947
331
7595
  5
8948
331
7596
  5
8949
331
7597
  5
894A
331
7598
  5
894B
331
7599
  5
894C
331
759A
  5
894D
331
759B
  5
894E
331
759C
  5
894F
331
759D
  5
8950
331
759E
  5
8951
331
759F
  5
8952
331
75A0
  5
8953
331
75A1
  5
8954
331
75A2
  5
8955
331
75A3
  5
8956
331
75A4
  5
8957
331
75A5
  5
8958
331
75A6
  5
8959
331
75A7
  5
895A
331
75A8
  5
895B
331
75A9
  5
895C
331
75AA
  5
895D
331
75AB
  5
895E
331
75AC
  5
895F
331
75AD
  5
8960
331
75AE
  5
8961
331
75AF
  5
8962
331
75B0
  5
8963
331
75B1
  5
8964
331
75B2
  5
8965
331
75B3
  5
8966
331
75B4
  5
8967
331
75B5
  5
8968
331
75B6
  5
8969
331
75B7
  5
896A
331
75B8
  5
896B
331
75B9
  5
896C
331
75BA
  5
896D
331
75BB
  5
896E
331
75BC
  5
896F
331
75BD
  5
8970
331
75BE
  5
8971
331
75DC
  5
8973
331
75DD
  5
8974
331
75DE
  5
8975
331
75DF
  5
8976
331
75E0
  5
8977
331
75E1
  5
8978
331
75E2
  5
8979
331
75E3
  5
897A
331
75E4
  5
897B
331
75E5
  5
897C
331
75E6
  5
897D
331
75E7
  5
897E
331
75E8
  5
897F
331
75E9
  5
8980
331
75EA
  5
8981
331
75EB
  5
8982
331
75EC
  5
8983
331
75ED
  5
8984
331
75EE
  5
8985
331
75EF
  5
8986
331
75F0
  5
8987
331
75F1
  5
8988
331
75F2
  5
8989
331
75F3
  5
898A
331
75F4
  5
898B
331
75F5
  5
898C
331
75F6
  5
898D
331
75F7
  5
898E
331
75F8
  5
898F
331
75F9
  5
8990
331
75FA
  5
8991
331
75FB
  5
8992
331
75FC
  5
8993
331
75FD
  5
8994
331
75FE
  5
8995
331
75FF
  5
8996
331
7600
  5
8997
331
7601
  5
8998
331
7602
  5
8999
331
7603
  5
899A
331
7604
  5
899B
331
7605
  5
899C
331
7606
  5
899D
331
7607
  5
899E
331
7608
  5
899F
331
7609
  5
89A0
331
760A
  5
874D
331
760B
  5
874E
331
760C
  5
874F
331
760D
  5
8750
331
760E
  5
8751
331
760F
  5
8752
331
7610
  5
8753
331
7611
  5
8754
331
7612
  5
8755
331
7613
  5
8756
331
7614
  5
8757
331
7615
  5
8758
331
7616
  5
8759
331
7617
  5
875A
331
7618
  5
875B
331
7619
  5
875C
331
761A
  5
875D
331
761B
  5
875E
331
761C
  5
875F
331
761D
  5
8760
331
761E
  5
8761
331
761F
  5
8762
331
7620
  5
8763
331
7621
  5
8764
331
7622
  5
8765
331
7623
  5
8766
331
7624
  5
8767
331
7625
  5
8768
331
7626
  5
8769
331
7627
  5
876A
331
7628
  5
876B
331
7629
  5
876C
331
762A
  5
876D
331
762B
  5
876E
331
762C
  5
876F
331
762D
  5
8770
331
762E
  5
8771
331
762F
  5
8772
331
7630
  5
8773
331
7631
  5
8774
331
7632
  5
8775
331
7633
  5
8776
331
7634
  5
8777
331
7635
  5
8778
331
7636
  5
8779
331
7637
  5
877A
331
7638
  5
877B
331
7639
  5
877C
331
763A
  5
877D
331
763B
  5
877E
331
763C
  5
877F
331
763D
  5
8780
331
763E
  5
8781
331
763F
  5
8782
331
7640
  5
8783
331
7641
  5
8784
331
7642
  5
8785
331
7643
  5
8786
331
7644
  5
8787
331
7645
  5
8788
331
7646
  5
8789
331
7647
  5
878A
331
7648
  5
878B
331
7649
  5
878C
331
764A
  5
878D
331
764B
  5
878E
331
764C
  5
878F
331
764D
  5
8790
331
764E
  5
8791
331
764F
  5
8792
331
7650
  5
8793
331
7651
  5
8794
331
7652
  5
8795
331
7653
  5
8796
331
7654
  5
8797
331
7655
  5
8798
331
7656
  5
8799
331
7657
  5
879A
331
7658
  5
879B
331
7659
  5
879C
331
765A
  5
879D
331
765B
  5
879E
331
765C
  5
879F
331
765D
  5
87A0
331
765E
  5
87A1
331
765F
  5
87A2
331
7660
  5
87A3
331
7661
  5
87A4
331
7662
  5
87A5
331
7663
  5
87A6
331
7664
  5
87A7
331
7665
  5
87A8
331
7666
  5
87A9
331
7667
  5
87AA
331
7668
  5
87AB
331
7669
  5
87AC
331
766A
  5
87AD
331
766B
  5
87AE
331
766C
  5
87AF
331
766D
  5
87B0
331
766E
  5
87B1
331
766F
  5
87B2
331
7670
  5
87B3
331
7671
  5
87B4
331
7672
  5
87B5
331
7673
  5
87B6
331
7674
  5
87B7
331
7675
  5
87B8
331
7676
  5
87B9
331
7677
  5
87BA
331
7678
  5
87BB
331
7679
  5
87BC
331
767A
  5
87BD
331
767B
  5
87BE
331
767C
  5
87BF
331
767D
  5
87C0
331
767E
  5
87C1
331
767F
  5
87C2
331
7680
  5
87C3
331
7681
  5
87C4
331
7682
  5
87C5
331
7683
  5
87C6
331
7684
  5
87C7
331
7685
  5
87C8
331
7686
  5
87C9
331
7687
  5
87CA
331
7688
  5
87CB
331
7689
  5
87CC
331
768A
  5
87CD
331
768B
  5
87CE
331
768C
  5
87CF
331
768D
  5
87D0
331
768E
  5
87D1
331
768F
  5
87D2
331
7690
  5
87D3
331
7691
  5
87D4
331
7692
  5
87F1
331
7693
  5
87F2
331
7694
  5
87F3
331
7695
  5
87F4
331
7696
  5
87F5
331
7697
  5
87F6
331
7698
  5
87F7
331
7699
  5
87F8
331
769A
  5
87F9
331
769B
  5
87FA
331
769C
  5
87FB
331
769D
  5
87FC
331
769E
  5
87FD
331
769F
  5
87FE
331
76A0
  5
87FF
331
76A1
  5
8800
331
76A2
  5
8801
331
76A3
  5
8802
331
76A4
  5
8803
331
76A5
  5
873D
331
76A6
  5
873E
331
76A7
  5
873F
331
76A8
  5
8740
331
76A9
  5
8741
331
76AA
  5
8742
331
76AB
  5
8743
331
76AC
  5
8744
331
76AD
  5
8745
331
76AE
  5
8746
331
76AF
  5
8747
331
76B0
  5
8748
331
76B1
  5
8749
331
76B2
  5
874A
331
76B3
  5
874B
331
76B4
  5
874C
331
76B5
  5
8690
331
76B6
  5
8691
331
76B7
  5
8692
331
76B8
  5
8693
331
76B9
  5
8694
331
76BA
  5
8695
331
76BB
  5
8696
331
76BC
  5
8697
331
76BD
  5
8698
331
76BE
  5
8699
331
76BF
  5
869A
331
76C0
  5
869B
331
76C1
  5
869C
331
76C2
  5
869D
331
76C3
  5
869E
331
76C4
  5
869F
331
76C5
  5
86A0
331
76C6
  5
86A1
331
76C7
  5
86A2
331
76C8
  5
86A3
331
76C9
  5
86A4
331
76CA
  5
86A5
331
76CB
  5
86A6
331
76CC
  5
86A7
331
76CD
  5
86A8
331
76CE
  5
86A9
331
76CF
  5
86AA
331
76D0
  5
86AB
331
76D1
  5
86AC
331
76D2
  5
86AD
331
76D3
  5
86AE
331
76D4
  5
86AF
331
76D5
  5
86B0
331
76D6
  5
86B1
331
76D7
  5
86B2
331
76D8
  5
86B3
331
76D9
  5
86B4
331
76DA
  5
86B5
331
76DB
  5
86B6
331
76DC
  5
86B7
331
76DD
  5
86B8
331
76DE
  5
86B9
331
76DF
  5
86BA
331
76E0
  5
86BB
331
76E1
  5
86BC
331
76E2
  5
86BD
331
76E3
  5
86BE
331
76E4
  5
86BF
331
76E5
  5
86C0
331
76E6
  5
86C1
331
76E7
  5
86C2
331
76E8
  5
86C3
331
76E9
  5
86C4
331
76EA
  5
86C5
331
76EB
  5
86C6
331
76EC
  5
86C7
331
76ED
  5
86C8
331
76EE
  5
86C9
331
76EF
  5
86CA
331
76F0
  5
86CB
331
76F1
  5
86CC
331
76F2
  5
86CD
331
76F3
  5
86CE
331
76F4
  5
86CF
331
76F5
  5
86D0
331
76F6
  5
86D1
331
76F7
  5
86D2
331
76F8
  5
86D3
331
76F9
  5
86D4
331
76FA
  5
86D5
331
76FB
  5
86D6
331
76FC
  5
86D7
331
76FD
  5
86D8
331
76FE
  5
86D9
331
76FF
  5
86DA
331
7700
  5
86DB
331
7701
  5
86DC
331
7702
  5
86DD
331
7703
  5
86DE
331
7704
  5
86DF
331
7705
  5
86E0
331
7706
  5
86E1
331
7707
  5
86E2
331
7708
  5
86E3
331
7709
  5
86E4
331
770A
  5
86E5
331
770B
  5
86E6
331
770C
  5
86E7
331
770D
  5
86E8
331
770E
  5
86E9
331
770F
  5
86EA
331
7710
  5
86EB
331
7711
  5
86EC
331
7712
  5
86ED
331
7713
  5
86EE
331
7714
  5
86EF
331
7715
  5
86F0
331
7716
  5
86F1
331
7717
  5
86F2
331
7718
  5
86F3
331
7719
  5
86F4
331
771A
  5
86F5
331
771B
  5
86F6
331
771C
  5
86F7
331
771D
  5
86F8
331
771E
  5
86F9
331
771F
  5
86FA
331
7720
  5
86FB
331
7721
  5
86FC
331
7722
  5
86FD
331
7723
  5
86FE
331
7724
  5
86FF
331
7725
  5
8700
331
7726
  5
8701
331
7727
  5
8702
331
7728
  5
8703
331
7729
  5
8704
331
772A
  5
8705
331
772B
  5
8706
331
772C
  5
8707
331
772D
  5
8708
331
772E
  5
8709
331
772F
  5
870A
331
7730
  5
870B
331
7731
  5
870C
331
7732
  5
870D
331
7733
  5
870E
331
7734
  5
870F
331
7735
  5
8710
331
7736
  5
8711
331
7737
  5
8712
331
7738
  5
8713
331
7739
  5
8714
331
773A
  5
8715
331
773B
  5
8716
331
773C
  5
8717
331
773D
  5
8718
331
773E
  5
8719
331
7757
  5
871B
331
7758
  5
871C
331
7759
  5
871D
331
775A
  5
871E
331
775B
  5
871F
331
775C
  5
8720
331
775D
  5
8721
331
775E
  5
8722
331
775F
  5
8723
331
7760
  5
8724
331
7761
  5
8725
331
7762
  5
8726
331
7763
  5
8727
331
7764
  5
8728
331
7765
  5
8729
331
7766
  5
872A
331
7767
  5
872B
331
7768
  5
872C
331
7769
  5
872D
331
776A
  5
872E
331
776B
  5
872F
331
776C
  5
8730
331
776D
  5
8731
331
776E
  5
8732
331
776F
  5
8733
331
7770
  5
8734
331
7771
  5
8735
331
7772
  5
8736
331
7773
  5
8737
331
7774
  5
8738
331
7775
  5
8739
331
7776
  5
873A
331
7777
  5
873B
331
7778
  5
873C
331
7779
  5
85E1
331
777A
  5
85E2
331
777B
  5
85E3
331
777C
  5
85E4
331
777D
  5
85E5
331
777E
  5
85E6
331
777F
  5
85E7
331
7780
  5
85E8
331
7781
  5
85E9
331
7782
  5
85EA
331
7783
  5
85EB
331
7784
  5
85EC
331
7785
  5
85ED
331
7786
  5
85EE
331
7787
  5
85EF
331
7788
  5
85F0
331
7789
  5
85F1
331
778A
  5
85F2
331
778B
  5
85F3
331
778C
  5
85F4
331
778D
  5
85F5
331
778E
  5
85F6
331
778F
  5
85F7
331
7790
  5
85F8
331
7791
  5
85F9
331
7792
  5
85FA
331
7793
  5
85FB
331
7794
  5
85FC
331
7795
  5
85FD
331
7796
  5
85FE
331
7797
  5
85FF
331
7798
  5
8600
331
7799
  5
8601
331
779A
  5
8602
331
779B
  5
8603
331
779C
  5
8604
331
779D
  5
8605
331
779E
  5
8606
331
779F
  5
8607
331
77A0
  5
8608
331
77A1
  5
8609
331
77A2
  5
860A
331
77A3
  5
860B
331
77A4
  5
860C
331
77A5
  5
860D
331
77A6
  5
860E
331
77A7
  5
860F
331
77A8
  5
8610
331
77A9
  5
8611
331
77AA
  5
8612
331
77AB
  5
8613
331
77AC
  5
8614
331
77AD
  5
8615
331
77AE
  5
8616
331
77AF
  5
8617
331
77B0
  5
8618
331
77B1
  5
8619
331
77B2
  5
861A
331
77B3
  5
861B
331
77B4
  5
861C
331
77B5
  5
861D
331
77B6
  5
861E
331
77B7
  5
861F
331
77B8
  5
8620
331
77B9
  5
8621
331
77BA
  5
8622
331
77BB
  5
8623
331
77BC
  5
8624
331
77BD
  5
8625
331
77BE
  5
8626
331
77BF
  5
8627
331
77C0
  5
8628
331
77C1
  5
8629
331
77C2
  5
862A
331
77C3
  5
862B
331
77C4
  5
862C
331
77C5
  5
862D
331
77C6
  5
862E
331
77C7
  5
862F
331
77C8
  5
8630
331
77C9
  5
8631
331
77CA
  5
8632
331
77CB
  5
8633
331
77CC
  5
8634
331
77CD
  5
8635
331
77CE
  5
8636
331
77CF
  5
8637
331
77D0
  5
8638
331
77D1
  5
8639
331
77D2
  5
863A
331
77D3
  5
863B
331
77D4
  5
863C
331
77D5
  5
863D
331
77D6
  5
863E
331
77D7
  5
863F
331
77D8
  5
8640
331
77D9
  5
8641
331
77DA
  5
8642
331
77DB
  5
8643
331
77DC
  5
8644
331
77DD
  5
8645
331
77DE
  5
8646
331
77DF
  5
8647
331
77E0
  5
8648
331
77E1
  5
8649
331
77E2
  5
864A
331
77E3
  5
864B
331
77E4
  5
864C
331
77E5
  5
864D
331
77E6
  5
864E
331
77E7
  5
864F
331
77E8
  5
8650
331
77E9
  5
8651
331
77EA
  5
8652
331
77EB
  5
8653
331
77EC
  5
8654
331
77ED
  5
8655
331
77EE
  5
8656
331
77EF
  5
8657
331
77F0
  5
8658
331
77F1
  5
8659
331
77F2
  5
865A
331
77F3
  5
865B
331
77F4
  5
865C
331
77F5
  5
865D
331
77F6
  5
865E
331
77F7
  5
865F
331
77F8
  5
8660
331
77F9
  5
8661
331
77FA
  5
8662
331
77FB
  5
8663
331
77FC
  5
8664
331
77FD
  5
8665
331
77FE
  5
8666
331
77FF
  5
8667
331
7800
  5
8668
331
7801
  5
8669
331
7802
  5
866A
331
7803
  5
866B
331
781C
  5
866D
331
781D
  5
866E
331
781E
  5
866F
331
781F
  5
8670
331
7820
  5
8671
331
7821
  5
8672
331
7822
  5
8673
331
7823
  5
8674
331
7824
  5
8675
331
7825
  5
8676
331
7826
  5
8677
331
7827
  5
8678
331
7828
  5
8679
331
7829
  5
867A
331
782A
  5
867B
331
782B
  5
867C
331
782C
  5
867D
331
782D
  5
867E
331
782E
  5
867F
331
782F
  5
8680
331
7830
  5
8681
331
7831
  5
8682
331
7832
  5
8683
331
7833
  5
8684
331
7834
  5
8685
331
7835
  5
8686
331
7836
  5
8687
331
7837
  5
8688
331
7838
  5
8689
331
7839
  5
868A
331
783A
  5
868B
331
783B
  5
868C
331
783C
  5
868D
331
783D
  5
868E
331
783E
  5
868F
331
783F
  5
84C4
331
7840
  5
84C5
331
7841
  5
84C6
331
7842
  5
84C7
331
7843
  5
84E1
331
7844
  5
8513
331
7845
  5
8514
331
7846
  5
8515
331
7847
  5
8516
331
7848
  5
8517
331
7849
  5
8518
331
784A
  5
8519
331
784B
  5
851A
331
784C
  5
851B
331
784D
  5
851C
331
784E
  5
851D
331
784F
  5
851E
331
7850
  5
851F
331
7851
  5
8520
331
7852
  5
8521
331
7853
  5
8522
331
7854
  5
8523
331
7855
  5
8524
331
7856
  5
8525
331
7857
  5
8526
331
7858
  5
8527
331
7859
  5
8528
331
785A
  5
8529
331
785B
  5
852A
331
785C
  5
852B
331
785D
  5
852C
331
785E
  5
852D
331
785F
  5
852E
331
7860
  5
852F
331
7861
  5
8530
331
7862
  5
8531
331
7863
  5
8532
331
7864
  5
8533
331
7865
  5
8534
331
7866
  5
8535
331
7867
  5
8536
331
7868
  5
8537
331
7869
  5
8538
331
786A
  5
8539
331
786B
  5
853A
331
786C
  5
853B
331
786D
  5
853C
331
786E
  5
853D
331
786F
  5
853E
331
7870
  5
853F
331
7871
  5
8540
331
7872
  5
8541
331
7873
  5
8542
331
7874
  5
8543
331
7875
  5
8544
331
7876
  5
8545
331
7877
  5
8546
331
7878
  5
8547
331
7879
  5
8548
331
787A
  5
8549
331
787B
  5
854A
331
787C
  5
854B
331
787D
  5
854C
331
787E
  5
854D
331
787F
  5
854E
331
7880
  5
854F
331
7881
  5
8550
331
7882
  5
8551
331
7883
  5
8552
331
7884
  5
8553
331
7885
  5
8554
331
7886
  5
8555
331
7887
  5
8556
331
7888
  5
8557
331
7889
  5
8558
331
788A
  5
8559
331
788B
  5
855A
331
788C
  5
855B
331
788D
  5
855C
331
788E
  5
855D
331
788F
  5
855E
331
7890
  5
855F
331
7891
  5
8560
331
7892
  5
8561
331
7893
  5
8562
331
7894
  5
8563
331
7895
  5
8564
331
7896
  5
8565
331
7897
  5
8566
331
7898
  5
8567
331
7899
  5
8568
331
789A
  5
8569
331
789B
  5
856A
331
789C
  5
856B
331
789D
  5
856C
331
789E
  5
856D
331
789F
  5
856E
331
78A0
  5
856F
331
78A1
  5
8570
331
78A2
  5
8571
331
78A3
  5
8572
331
78A4
  5
8573
331
78A5
  5
8574
331
78A6
  5
8575
331
78A7
  5
8576
331
78A8
  5
8577
331
78A9
  5
8578
331
78AA
  5
8579
331
78AB
  5
857A
331
78AC
  5
857B
331
78AD
  5
857C
331
78AE
  5
857D
331
78AF
  5
857E
331
78B0
  5
857F
331
78B1
  5
8580
331
78B2
  5
8581
331
78B3
  5
8582
331
78B4
  5
8583
331
78B5
  5
8584
331
78B6
  5
8585
331
78B7
  5
8586
331
78B8
  5
8587
331
78B9
  5
8588
331
78BA
  5
8589
331
78BB
  5
858A
331
78BC
  5
858B
331
78BD
  5
858C
331
78BE
  5
858D
331
78BF
  5
858E
331
78C0
  5
858F
331
78C1
  5
8590
331
78C2
  5
8591
331
78C3
  5
8592
331
78C4
  5
8593
331
78C5
  5
8594
331
78C6
  5
8595
331
78C7
  5
8596
331
78C8
  5
8597
331
78C9
  5
8598
331
78CA
  5
8599
331
78CB
  5
859A
331
78CC
  5
859B
331
78CD
  5
859C
331
78CE
  5
859D
331
78CF
  5
859E
331
78D0
  5
859F
331
78D1
  5
85A0
331
78D2
  5
85A1
331
78D3
  5
85A2
331
78D4
  5
85A3
331
78D5
  5
85A4
331
78D6
  5
85A5
331
78D7
  5
85A6
331
78D8
  5
85A7
331
78D9
  5
85A8
331
78DA
  5
85A9
331
78DB
  5
85AA
331
78DC
  5
85AB
331
78DD
  5
85AC
331
78DE
  5
85AD
331
78DF
  5
85AE
331
78E0
  5
85AF
331
78E1
  5
85B0
331
78E2
  5
85B1
331
78E3
  5
85B2
331
78E4
  5
85B3
331
78E5
  5
85B4
331
78E6
  5
85B5
331
78E7
  5
85B6
331
78E8
  5
85B7
331
78E9
  5
85B8
331
78EA
  5
85B9
331
78EB
  5
85BA
331
78EC
  5
85BB
331
78ED
  5
85BC
331
78EE
  5
85BD
331
78EF
  5
85BE
331
78F0
  5
85BF
331
78F1
  5
85C0
331
78F2
  5
85C1
331
78F3
  5
85C2
331
78F4
  5
85C3
331
78F5
  5
85C4
331
78F6
  5
85C5
331
78F7
  5
85C6
331
78F8
  5
85C7
331
78F9
  5
85C8
331
78FA
  5
85C9
331
78FB
  5
85CA
331
78FC
  5
85CB
331
78FD
  5
85CC
331
78FE
  5
85CD
331
78FF
  5
85CE
331
7900
  5
85CF
331
7901
  5
85D0
331
7902
  5
85D1
331
7903
  5
85D2
331
7904
  5
85D3
331
7905
  5
85D4
331
7906
  5
85D5
331
7907
  5
85D6
331
7908
  5
85D7
331
7909
  5
85D8
331
790A
  5
85D9
331
790B
  5
85DA
331
790C
  5
85DB
331
790D
  5
85DC
331
790E
  5
85DD
331
790F
  5
85DE
331
7910
  5
85DF
331
7911
  5
85E0
  0
LAYOUT
  5
21
102
{ACAD_REACTORS
330
1E
102
}
330
1E
100
AcDbPlotSettings
  1

  2

  4

  6

 40
0.0
 41
0.0
 42
0.0
 43
0.0
 44
0.0
 45
0.0
 46
0.0
 47
0.0
 48
0.0
 49
0.0
140
0.0
141
0.0
142
1.0
143
1.0
 70
     0
 72
     0
 73
     0
 74
     0
  7

 75
     0
 76
     0
 77
     2
 78
   300
147
1.0
148
0.0
149
0.0
100
AcDbLayout
  1
Layout1
 70
     0
 71
     1
 10
0.0
 20
0.0
 11
12.0
 21
9.0
 12
0.0
 22
0.0
 32
0.0
 14
1.000000000000000E+20
 24
1.000000000000000E+20
 34
1.000000000000000E+20
 15
-1.000000000000000E+20
 25
-1.000000000000000E+20
 35
-1.000000000000000E+20
146
0.0
 13
0.0
 23
0.0
 33
0.0
 16
1.0
 26
0.0
 36
0.0
 17
0.0
 27
1.0
 37
0.0
 76
     0
330
B
  0
LAYOUT
  5
20
102
{ACAD_REACTORS
330
1E
102
}
330
1E
100
AcDbPlotSettings
  1

  2

  4

  6

 40
0.0
 41
0.0
 42
0.0
 43
0.0
 44
0.0
 45
0.0
 46
0.0
 47
0.0
 48
0.0
 49
0.0
140
0.0
141
0.0
142
1.0
143
1.0
 70
  1024
 72
     0
 73
     0
 74
     0
  7

 75
     0
 76
     0
 77
     2
 78
   300
147
1.0
148
0.0
149
0.0
100
AcDbLayout
  1
Model
 70
     0
 71
     0
 10
0.0
 20
0.0
 11
0.0
 21
0.0
 12
0.0
 22
0.0
 32
0.0
 14
0.0
 24
0.0
 34
0.0
 15
0.0
 25
0.0
 35
0.0
146
0.0
 13
0.0
 23
0.0
 33
0.0
 16
0.0
 26
0.0
 36
0.0
 17
0.0
 27
0.0
 37
0.0
 76
     0
330
A
331
15
  0
MATERIAL
  5
5808
102
{ACAD_REACTORS
330
57FF
102
}
330
57FF
100
AcDbMaterial
  1
ByBlock
 72
     0
 43
0.0208333333333333
 43
0.0
 43
0.0
 43
0.0
 43
0.0
 43
0.0208333333333333
 43
0.0
 43
0.0
 43
0.0
 43
0.0
 43
1.0
 43
0.0
 43
0.0
 43
0.0
 43
0.0
 43
1.0
 77
     0
 47
0.0208333333333333
 47
0.0
 47
0.0
 47
0.0
 47
0.0
 47
0.0208333333333333
 47
0.0
 47
0.0
 47
0.0
 47
0.0
 47
1.0
 47
0.0
 47
0.0
 47
0.0
 47
0.0
 47
1.0
171
     0
 49
0.0208333333333333
 49
0.0
 49
0.0
 49
0.0
 49
0.0
 49
0.0208333333333333
 49
0.0
 49
0.0
 49
0.0
 49
0.0
 49
1.0
 49
0.0
 49
0.0
 49
0.0
 49
0.0
 49
1.0
175
     0
142
0.0208333333333333
142
0.0
142
0.0
142
0.0
142
0.0
142
0.0208333333333333
142
0.0
142
0.0
142
0.0
142
0.0
142
1.0
142
0.0
142
0.0
142
0.0
142
0.0
142
1.0
179
     0
144
0.0208333333333333
144
0.0
144
0.0
144
0.0
144
0.0
144
0.0208333333333333
144
0.0
144
0.0
144
0.0
144
0.0
144
1.0
144
0.0
144
0.0
144
0.0
144
0.0
144
1.0
147
0.0208333333333333
147
0.0
147
0.0
147
0.0
147
0.0
147
0.0208333333333333
147
0.0
147
0.0
147
0.0
147
0.0
147
1.0
147
0.0
147
0.0
147
0.0
147
0.0
147
1.0
 94
      127
  0
MATERIAL
  5
5800
102
{ACAD_REACTORS
330
57FF
102
}
330
57FF
100
AcDbMaterial
  1
ByLayer
 72
     0
 43
0.0208333333333333
 43
0.0
 43
0.0
 43
0.0
 43
0.0
 43
0.0208333333333333
 43
0.0
 43
0.0
 43
0.0
 43
0.0
 43
1.0
 43
0.0
 43
0.0
 43
0.0
 43
0.0
 43
1.0
 77
     0
 47
0.0208333333333333
 47
0.0
 47
0.0
 47
0.0
 47
0.0
 47
0.0208333333333333
 47
0.0
 47
0.0
 47
0.0
 47
0.0
 47
1.0
 47
0.0
 47
0.0
 47
0.0
 47
0.0
 47
1.0
171
     0
 49
0.0208333333333333
 49
0.0
 49
0.0
 49
0.0
 49
0.0
 49
0.0208333333333333
 49
0.0
 49
0.0
 49
0.0
 49
0.0
 49
1.0
 49
0.0
 49
0.0
 49
0.0
 49
0.0
 49
1.0
175
     0
142
0.0208333333333333
142
0.0
142
0.0
142
0.0
142
0.0
142
0.0208333333333333
142
0.0
142
0.0
142
0.0
142
0.0
142
1.0
142
0.0
142
0.0
142
0.0
142
0.0
142
1.0
179
     0
144
0.0208333333333333
144
0.0
144
0.0
144
0.0
144
0.0
144
0.0208333333333333
144
0.0
144
0.0
144
0.0
144
0.0
144
1.0
144
0.0
144
0.0
144
0.0
144
0.0
144
1.0
147
0.0208333333333333
147
0.0
147
0.0
147
0.0
147
0.0
147
0.0208333333333333
147
0.0
147
0.0
147
0.0
147
0.0
147
1.0
147
0.0
147
0.0
147
0.0
147
0.0
147
1.0
 94
      127
  0
MATERIAL
  5
5810
102
{ACAD_REACTORS
330
57FF
102
}
330
57FF
100
AcDbMaterial
  1
Global
 72
     0
 43
0.0208333333333333
 43
0.0
 43
0.0
 43
0.0
 43
0.0
 43
0.0208333333333333
 43
0.0
 43
0.0
 43
0.0
 43
0.0
 43
1.0
 43
0.0
 43
0.0
 43
0.0
 43
0.0
 43
1.0
 77
     0
 47
0.0208333333333333
 47
0.0
 47
0.0
 47
0.0
 47
0.0
 47
0.0208333333333333
 47
0.0
 47
0.0
 47
0.0
 47
0.0
 47
1.0
 47
0.0
 47
0.0
 47
0.0
 47
0.0
 47
1.0
171
     0
 49
0.0208333333333333
 49
0.0
 49
0.0
 49
0.0
 49
0.0
 49
0.0208333333333333
 49
0.0
 49
0.0
 49
0.0
 49
0.0
 49
1.0
 49
0.0
 49
0.0
 49
0.0
 49
0.0
 49
1.0
175
     0
142
0.0208333333333333
142
0.0
142
0.0
142
0.0
142
0.0
142
0.0208333333333333
142
0.0
142
0.0
142
0.0
142
0.0
142
1.0
142
0.0
142
0.0
142
0.0
142
0.0
142
1.0
179
     0
144
0.0208333333333333
144
0.0
144
0.0
144
0.0
144
0.0
144
0.0208333333333333
144
0.0
144
0.0
144
0.0
144
0.0
144
1.0
144
0.0
144
0.0
144
0.0
144
0.0
144
1.0
147
0.0208333333333333
147
0.0
147
0.0
147
0.0
147
0.0
147
0.0208333333333333
147
0.0
147
0.0
147
0.0
147
0.0
147
1.0
147
0.0
147
0.0
147
0.0
147
0.0
147
1.0
 94
      127
  0
MLEADERSTYLE
  5
584F
102
{ACAD_REACTORS
330
584E
102
}
330
584E
100
AcDbMLeaderStyle
179
     2
170
     2
171
     1
172
     0
 90
        2
 40
0.0
 41
0.0
173
     1
 91
-1056964608
340
11
 92
       -2
290
     1
 42
2.0
291
     1
 43
0.36
  3
Standard
341
0
 44
4.0
300

342
17
174
     1
178
     6
175
     1
176
     0
 93
-1056964608
 45
4.0
292
     0
297
     0
 46
4.0
343
0
 94
-1056964608
 47
1.0
 49
1.0
140
1.0
293
     1
141
0.0
294
     1
177
     0
142
1.0
295
     0
296
     0
143
0.125
271
     0
272
     9
273
     9
1001
ACAD_MLEADERVER
1070
     2
  0
MLINESTYLE
  5
1C
102
{ACAD_REACTORS
330
1B
102
}
330
1B
100
AcDbMlineStyle
  2
STANDARD
 70
     0
  3

 62
     0
 51
90.0
 52
90.0
 71
     2
 49
0.5
 62
   256
  6
BYLAYER
 49
-0.5
 62
   256
  6
BYLAYER
  0
ACDBPLACEHOLDER
  5
1D
102
{ACAD_REACTORS
330
1F
102
}
330
1F
  0
SCALE
  5
582D
102
{ACAD_REACTORS
330
582C
102
}
330
582C
100
AcDbScale
 70
     0
300
1:1
140
1.0
141
1.0
290
     1
  0
SCALE
  5
582E
102
{ACAD_REACTORS
330
582C
102
}
330
582C
100
AcDbScale
 70
     0
300
1:2
140
1.0
141
2.0
290
     0
  0
SCALE
  5
582F
102
{ACAD_REACTORS
330
582C
102
}
330
582C
100
AcDbScale
 70
     0
300
1:4
140
1.0
141
4.0
290
     0
  0
SCALE
  5
5830
102
{ACAD_REACTORS
330
582C
102
}
330
582C
100
AcDbScale
 70
     0
300
1:5
140
1.0
141
5.0
290
     0
  0
SCALE
  5
5831
102
{ACAD_REACTORS
330
582C
102
}
330
582C
100
AcDbScale
 70
     0
300
1:8
140
1.0
141
8.0
290
     0
  0
SCALE
  5
5832
102
{ACAD_REACTORS
330
582C
102
}
330
582C
100
AcDbScale
 70
     0
300
1:10
140
1.0
141
10.0
290
     0
  0
SCALE
  5
5833
102
{ACAD_REACTORS
330
582C
102
}
330
582C
100
AcDbScale
 70
     0
300
1:16
140
1.0
141
16.0
290
     0
  0
SCALE
  5
5834
102
{ACAD_REACTORS
330
582C
102
}
330
582C
100
AcDbScale
 70
     0
300
1:20
140
1.0
141
20.0
290
     0
  0
SCALE
  5
5835
102
{ACAD_REACTORS
330
582C
102
}
330
582C
100
AcDbScale
 70
     0
300
1:30
140
1.0
141
30.0
290
     0
  0
SCALE
  5
5836
102
{ACAD_REACTORS
330
582C
102
}
330
582C
100
AcDbScale
 70
     0
300
1:40
140
1.0
141
40.0
290
     0
  0
SCALE
  5
5837
102
{ACAD_REACTORS
330
582C
102
}
330
582C
100
AcDbScale
 70
     0
300
1:50
140
1.0
141
50.0
290
     0
  0
SCALE
  5
5838
102
{ACAD_REACTORS
330
582C
102
}
330
582C
100
AcDbScale
 70
     0
300
1:100
140
1.0
141
100.0
290
     0
  0
SCALE
  5
5839
102
{ACAD_REACTORS
330
582C
102
}
330
582C
100
AcDbScale
 70
     0
300
2:1
140
2.0
141
1.0
290
     0
  0
SCALE
  5
583A
102
{ACAD_REACTORS
330
582C
102
}
330
582C
100
AcDbScale
 70
     0
300
4:1
140
4.0
141
1.0
290
     0
  0
SCALE
  5
583B
102
{ACAD_REACTORS
330
582C
102
}
330
582C
100
AcDbScale
 70
     0
300
8:1
140
8.0
141
1.0
290
     0
  0
SCALE
  5
583C
102
{ACAD_REACTORS
330
582C
102
}
330
582C
100
AcDbScale
 70
     0
300
10:1
140
10.0
141
1.0
290
     0
  0
SCALE
  5
583D
102
{ACAD_REACTORS
330
582C
102
}
330
582C
100
AcDbScale
 70
     0
300
100:1
140
100.0
141
1.0
290
     0
  0
SCALE
  5
583E
102
{ACAD_REACTORS
330
582C
102
}
330
582C
100
AcDbScale
 70
     0
300
1/128" = 1'-0"
140
0.0078125
141
12.0
290
     0
  0
SCALE
  5
583F
102
{ACAD_REACTORS
330
582C
102
}
330
582C
100
AcDbScale
 70
     0
300
1/64" = 1'-0"
140
0.015625
141
12.0
290
     0
  0
SCALE
  5
5840
102
{ACAD_REACTORS
330
582C
102
}
330
582C
100
AcDbScale
 70
     0
300
1/32" = 1'-0"
140
0.03125
141
12.0
290
     0
  0
SCALE
  5
5841
102
{ACAD_REACTORS
330
582C
102
}
330
582C
100
AcDbScale
 70
     0
300
1/16" = 1'-0"
140
0.0625
141
12.0
290
     0
  0
SCALE
  5
5842
102
{ACAD_REACTORS
330
582C
102
}
330
582C
100
AcDbScale
 70
     0
300
3/32" = 1'-0"
140
0.09375
141
12.0
290
     0
  0
SCALE
  5
5843
102
{ACAD_REACTORS
330
582C
102
}
330
582C
100
AcDbScale
 70
     0
300
1/8" = 1'-0"
140
0.125
141
12.0
290
     0
  0
SCALE
  5
5844
102
{ACAD_REACTORS
330
582C
102
}
330
582C
100
AcDbScale
 70
     0
300
3/16" = 1'-0"
140
0.1875
141
12.0
290
     0
  0
SCALE
  5
5845
102
{ACAD_REACTORS
330
582C
102
}
330
582C
100
AcDbScale
 70
     0
300
1/4" = 1'-0"
140
0.25
141
12.0
290
     0
  0
SCALE
  5
5846
102
{ACAD_REACTORS
330
582C
102
}
330
582C
100
AcDbScale
 70
     0
300
3/8" = 1'-0"
140
0.375
141
12.0
290
     0
  0
SCALE
  5
5847
102
{ACAD_REACTORS
330
582C
102
}
330
582C
100
AcDbScale
 70
     0
300
1/2" = 1'-0"
140
0.5
141
12.0
290
     0
  0
SCALE
  5
5848
102
{ACAD_REACTORS
330
582C
102
}
330
582C
100
AcDbScale
 70
     0
300
3/4" = 1'-0"
140
0.75
141
12.0
290
     0
  0
SCALE
  5
5849
102
{ACAD_REACTORS
330
582C
102
}
330
582C
100
AcDbScale
 70
     0
300
1" = 1'-0"
140
1.0
141
12.0
290
     0
  0
SCALE
  5
584A
102
{ACAD_REACTORS
330
582C
102
}
330
582C
100
AcDbScale
 70
     0
300
1-1/2" = 1'-0"
140
1.5
141
12.0
290
     0
  0
SCALE
  5
584B
102
{ACAD_REACTORS
330
582C
102
}
330
582C
100
AcDbScale
 70
     0
300
3" = 1'-0"
140
3.0
141
12.0
290
     0
  0
SCALE
  5
584C
102
{ACAD_REACTORS
330
582C
102
}
330
582C
100
AcDbScale
 70
     0
300
6" = 1'-0"
140
6.0
141
12.0
290
     0
  0
SCALE
  5
584D
102
{ACAD_REACTORS
330
582C
102
}
330
582C
100
AcDbScale
 70
     0
300
1'-0" = 1'-0"
140
12.0
141
12.0
290
     0
  0
TABLESTYLE
  5
582B
102
{ACAD_REACTORS
330
582A
102
}
102
{ACAD_XDICTIONARY
360
AB8E
102
}
330
582A
100
AcDbTableStyle
  3
Standard
 70
     0
 71
     0
 40
1.5
 41
1.5
280
     0
281
     0
  7
Standard
140
4.5
170
     2
 62
     0
 63
   257
283
     0
 90
      512
 91
        0
  1

274
    -2
284
     1
 64
     0
275
    -2
285
     1
 65
     0
276
    -2
286
     1
 66
     0
277
    -2
287
     1
 67
     0
278
    -2
288
     1
 68
     0
279
    -2
289
     1
 69
     0
  7
Standard
140
6.0
170
     5
 62
     0
 63
   257
283
     0
 90
      512
 91
        0
  1

274
    -2
284
     1
 64
     0
275
    -2
285
     1
 65
     0
276
    -2
286
     1
 66
     0
277
    -2
287
     1
 67
     0
278
    -2
288
     1
 68
     0
279
    -2
289
     1
 69
     0
  7
Standard
140
4.5
170
     5
 62
     0
 63
   257
283
     0
 90
      512
 91
        0
  1

274
    -2
284
     1
 64
     0
275
    -2
285
     1
 65
     0
276
    -2
286
     1
 66
     0
277
    -2
287
     1
 67
     0
278
    -2
288
     1
 68
     0
279
    -2
289
     1
 69
     0
  0
VISUALSTYLE
  5
581E
102
{ACAD_REACTORS
330
5818
102
}
330
5818
100
AcDbVisualStyle
  2
2dWireframe
 70
     4
177
     2
291
     0
 71
     0
176
     1
 72
     2
176
     1
 73
     0
176
     1
 90
        0
176
     1
 40
-0.6
176
     1
 41
-30.0
176
     1
 62
     5
 63
     7
176
     1
 74
     1
176
     1
 91
        4
176
     1
 64
     7
176
     1
 65
   257
176
     1
 75
     1
176
     1
175
     1
176
     1
 42
1.0
176
     1
 92
        0
176
     1
 66
   257
176
     1
 43
1.0
176
     1
 76
     1
176
     1
 77
     6
176
     1
 78
     2
176
     1
 67
     7
176
     1
 79
     5
176
     1
170
     0
176
     1
171
     0
176
     1
290
     0
176
     1
 93
        1
176
     1
 44
0.0
176
     1
173
     0
176
     1
1001
ACAD
1000
AcDbSavedByObjectVersion
1070
     0
1000
AcDbSavedByObjectVersion
1070
     0
  0
VISUALSTYLE
  5
5820
102
{ACAD_REACTORS
330
5818
102
}
330
5818
100
AcDbVisualStyle
  2
3D Hidden
 70
     6
177
     2
291
     0
 71
     1
176
     1
 72
     2
176
     1
 73
     2
176
     1
 90
        0
176
     1
 40
-0.6
176
     1
 41
-30.0
176
     1
 62
     5
 63
     7
176
     1
 74
     2
176
     1
 91
        2
176
     1
 64
     7
176
     1
 65
   257
176
     1
 75
     2
176
     1
175
     1
176
     1
 42
40.0
176
     1
 92
        0
176
     1
 66
   257
176
     1
 43
1.0
176
     1
 76
     1
176
     1
 77
     6
176
     1
 78
     2
176
     1
 67
     7
176
     1
 79
     3
176
     1
170
     0
176
     1
171
     0
176
     1
290
     0
176
     1
 93
        1
176
     1
 44
0.0
176
     1
173
     0
176
     1
1001
ACAD
1000
AcDbSavedByObjectVersion
1070
     0
1000
AcDbSavedByObjectVersion
1070
     0
  0
VISUALSTYLE
  5
581F
102
{ACAD_REACTORS
330
5818
102
}
330
5818
100
AcDbVisualStyle
  2
3dWireframe
 70
     5
177
     2
291
     0
 71
     0
176
     1
 72
     2
176
     1
 73
     0
176
     1
 90
        0
176
     1
 40
-0.6
176
     1
 41
-30.0
176
     1
 62
     5
 63
     7
176
     1
 74
     1
176
     1
 91
        4
176
     1
 64
     7
176
     1
 65
   257
176
     1
 75
     1
176
     1
175
     1
176
     1
 42
1.0
176
     1
 92
        0
176
     1
 66
   257
176
     1
 43
1.0
176
     1
 76
     1
176
     1
 77
     6
176
     1
 78
     2
176
     1
 67
     7
176
     1
 79
     5
176
     1
170
     0
176
     1
171
     0
176
     1
290
     0
176
     1
 93
        1
176
     1
 44
0.0
176
     1
173
     0
176
     1
1001
ACAD
1000
AcDbSavedByObjectVersion
1070
     0
1000
AcDbSavedByObjectVersion
1070
     0
  0
VISUALSTYLE
  5
581D
102
{ACAD_REACTORS
330
5818
102
}
330
5818
100
AcDbVisualStyle
  2
Basic
 70
     7
177
     2
291
     1
 71
     1
176
     1
 72
     0
176
     1
 73
     1
176
     1
 90
        0
176
     1
 40
-0.6
176
     1
 41
-30.0
176
     1
 62
     5
 63
     7
176
     1
 74
     0
176
     1
 91
        4
176
     1
 64
     7
176
     1
 65
   257
176
     1
 75
     1
176
     1
175
     1
176
     1
 42
1.0
176
     1
 92
        8
176
     1
 66
     7
176
     1
 43
1.0
176
     1
 76
     1
176
     1
 77
     6
176
     1
 78
     2
176
     1
 67
     7
176
     1
 79
     5
176
     1
170
     0
176
     1
171
     0
176
     1
290
     0
176
     1
 93
        1
176
     1
 44
0.0
176
     1
173
     0
176
     1
1001
ACAD
1000
AcDbSavedByObjectVersion
1070
     0
1000
AcDbSavedByObjectVersion
1070
     0
  0
VISUALSTYLE
  5
5824
102
{ACAD_REACTORS
330
5818
102
}
330
5818
100
AcDbVisualStyle
  2
Brighten
 70
    12
177
     2
291
     1
 71
     2
176
     1
 72
     2
176
     1
 73
     0
176
     1
 90
        0
176
     1
 40
-0.6
176
     1
 41
-30.0
176
     1
 62
     5
 63
     7
176
     1
 74
     1
176
     1
 91
        4
176
     1
 64
     7
176
     1
 65
   257
176
     1
 75
     1
176
     1
175
     1
176
     1
 42
1.0
176
     1
 92
        8
176
     1
 66
     7
176
     1
 43
1.0
176
     1
 76
     1
176
     1
 77
     6
176
     1
 78
     2
176
     1
 67
     7
176
     1
 79
     5
176
     1
170
     0
176
     1
171
     0
176
     1
290
     0
176
     1
 93
        1
176
     1
 44
50.0
176
     1
173
     0
176
     1
1001
ACAD
1000
AcDbSavedByObjectVersion
1070
     0
1000
AcDbSavedByObjectVersion
1070
     0
  0
VISUALSTYLE
  5
5828
102
{ACAD_REACTORS
330
5818
102
}
330
5818
100
AcDbVisualStyle
  2
ColorChange
 70
    16
177
     2
291
     1
 71
     2
176
     1
 72
     2
176
     1
 73
     3
176
     1
 90
        0
176
     1
 40
-0.6
176
     1
 41
-30.0
176
     1
 62
     5
 63
     8
176
     1
 74
     1
176
     1
 91
        4
176
     1
 64
     7
176
     1
 65
   257
176
     1
 75
     1
176
     1
175
     1
176
     1
 42
1.0
176
     1
 92
        8
176
     1
 66
     8
176
     1
 43
1.0
176
     1
 76
     1
176
     1
 77
     6
176
     1
 78
     2
176
     1
 67
     7
176
     1
 79
     5
176
     1
170
     0
176
     1
171
     0
176
     1
290
     0
176
     1
 93
        1
176
     1
 44
0.0
176
     1
173
     0
176
     1
1001
ACAD
1000
AcDbSavedByObjectVersion
1070
     0
1000
AcDbSavedByObjectVersion
1070
     0
  0
VISUALSTYLE
  5
5821
102
{ACAD_REACTORS
330
5818
102
}
330
5818
100
AcDbVisualStyle
  2
Conceptual
 70
     9
177
     2
291
     0
 71
     3
176
     1
 72
     2
176
     1
 73
     0
176
     1
 90
        0
176
     1
 40
-0.6
176
     1
 41
-30.0
176
     1
 62
     5
 63
     7
176
     1
 74
     2
176
     1
 91
        2
176
     1
 64
     7
176
     1
 65
   257
176
     1
 75
     1
176
     1
175
     1
176
     1
 42
40.0
176
     1
 92
        8
176
     1
 66
     7
176
     1
 43
1.0
176
     1
 76
     1
176
     1
 77
     6
176
     1
 78
     2
176
     1
 67
     7
176
     1
 79
     3
176
     1
170
     0
176
     1
171
     0
176
     1
290
     0
176
     1
 93
        1
176
     1
 44
0.0
176
     1
173
     0
176
     1
1001
ACAD
1000
AcDbSavedByObjectVersion
1070
     0
1000
AcDbSavedByObjectVersion
1070
     0
  0
VISUALSTYLE
  5
5823
102
{ACAD_REACTORS
330
5818
102
}
330
5818
100
AcDbVisualStyle
  2
Dim
 70
    11
177
     2
291
     1
 71
     2
176
     1
 72
     2
176
     1
 73
     0
176
     1
 90
        0
176
     1
 40
-0.6
176
     1
 41
-30.0
176
     1
 62
     5
 63
     7
176
     1
 74
     1
176
     1
 91
        4
176
     1
 64
     7
176
     1
 65
   257
176
     1
 75
     1
176
     1
175
     1
176
     1
 42
1.0
176
     1
 92
        8
176
     1
 66
     7
176
     1
 43
1.0
176
     1
 76
     1
176
     1
 77
     6
176
     1
 78
     2
176
     1
 67
     7
176
     1
 79
     5
176
     1
170
     0
176
     1
171
     0
176
     1
290
     0
176
     1
 93
        1
176
     1
 44
-50.0
176
     1
173
     0
176
     1
1001
ACAD
1000
AcDbSavedByObjectVersion
1070
     0
1000
AcDbSavedByObjectVersion
1070
     0
  0
VISUALSTYLE
  5
5827
102
{ACAD_REACTORS
330
5818
102
}
330
5818
100
AcDbVisualStyle
  2
Facepattern
 70
    15
177
     2
291
     1
 71
     2
176
     1
 72
     2
176
     1
 73
     0
176
     1
 90
        0
176
     1
 40
-0.6
176
     1
 41
-30.0
176
     1
 62
     5
 63
     7
176
     1
 74
     1
176
     1
 91
        4
176
     1
 64
     7
176
     1
 65
   257
176
     1
 75
     1
176
     1
175
     1
176
     1
 42
1.0
176
     1
 92
        8
176
     1
 66
     7
176
     1
 43
1.0
176
     1
 76
     1
176
     1
 77
     6
176
     1
 78
     2
176
     1
 67
     7
176
     1
 79
     5
176
     1
170
     0
176
     1
171
     0
176
     1
290
     0
176
     1
 93
        1
176
     1
 44
0.0
176
     1
173
     0
176
     1
1001
ACAD
1000
AcDbSavedByObjectVersion
1070
     0
1000
AcDbSavedByObjectVersion
1070
     0
  0
VISUALSTYLE
  5
5819
102
{ACAD_REACTORS
330
5818
102
}
330
5818
100
AcDbVisualStyle
  2
Flat
 70
     0
177
     2
291
     1
 71
     2
176
     1
 72
     1
176
     1
 73
     1
176
     1
 90
        2
176
     1
 40
-0.6
176
     1
 41
30.0
176
     1
 62
     5
 63
     7
176
     1
 74
     0
176
     1
 91
        4
176
     1
 64
     7
176
     1
 65
   257
176
     1
 75
     1
176
     1
175
     1
176
     1
 42
1.0
176
     1
 92
        8
176
     1
 66
     7
176
     1
 43
1.0
176
     1
 76
     1
176
     1
 77
     6
176
     1
 78
     2
176
     1
 67
     7
176
     1
 79
     5
176
     1
170
     0
176
     1
171
     0
176
     1
290
     0
176
     1
 93
       13
176
     1
 44
0.0
176
     1
173
     0
176
     1
1001
ACAD
1000
AcDbSavedByObjectVersion
1070
     0
1000
AcDbSavedByObjectVersion
1070
     0
  0
VISUALSTYLE
  5
581A
102
{ACAD_REACTORS
330
5818
102
}
330
5818
100
AcDbVisualStyle
  2
FlatWithEdges
 70
     1
177
     2
291
     1
 71
     2
176
     1
 72
     1
176
     1
 73
     1
176
     1
 90
        2
176
     1
 40
-0.6
176
     1
 41
30.0
176
     1
 62
     5
 63
     7
176
     1
 74
     1
176
     1
 91
        4
176
     1
 64
     7
176
     1
 65
   257
176
     1
 75
     1
176
     1
175
     1
176
     1
 42
1.0
176
     1
 92
        0
176
     1
 66
   257
176
     1
 43
1.0
176
     1
 76
     1
176
     1
 77
     6
176
     1
 78
     2
176
     1
 67
     7
176
     1
 79
     5
176
     1
170
     0
176
     1
171
     0
176
     1
290
     0
176
     1
 93
       13
176
     1
 44
0.0
176
     1
173
     0
176
     1
1001
ACAD
1000
AcDbSavedByObjectVersion
1070
     0
1000
AcDbSavedByObjectVersion
1070
     0
  0
VISUALSTYLE
  5
581B
102
{ACAD_REACTORS
330
5818
102
}
330
5818
100
AcDbVisualStyle
  2
Gouraud
 70
     2
177
     2
291
     1
 71
     2
176
     1
 72
     2
176
     1
 73
     1
176
     1
 90
        2
176
     1
 40
-0.6
176
     1
 41
30.0
176
     1
 62
     5
 63
     7
176
     1
 74
     0
176
     1
 91
        4
176
     1
 64
     7
176
     1
 65
   257
176
     1
 75
     1
176
     1
175
     1
176
     1
 42
1.0
176
     1
 92
        0
176
     1
 66
     7
176
     1
 43
1.0
176
     1
 76
     1
176
     1
 77
     6
176
     1
 78
     2
176
     1
 67
     7
176
     1
 79
     5
176
     1
170
     0
176
     1
171
     0
176
     1
290
     0
176
     1
 93
       13
176
     1
 44
0.0
176
     1
173
     0
176
     1
1001
ACAD
1000
AcDbSavedByObjectVersion
1070
     0
1000
AcDbSavedByObjectVersion
1070
     0
  0
VISUALSTYLE
  5
581C
102
{ACAD_REACTORS
330
5818
102
}
330
5818
100
AcDbVisualStyle
  2
GouraudWithEdges
 70
     3
177
     2
291
     1
 71
     2
176
     1
 72
     2
176
     1
 73
     1
176
     1
 90
        2
176
     1
 40
-0.6
176
     1
 41
30.0
176
     1
 62
     5
 63
     7
176
     1
 74
     1
176
     1
 91
        4
176
     1
 64
     7
176
     1
 65
   257
176
     1
 75
     1
176
     1
175
     1
176
     1
 42
1.0
176
     1
 92
        0
176
     1
 66
   257
176
     1
 43
1.0
176
     1
 76
     1
176
     1
 77
     6
176
     1
 78
     2
176
     1
 67
     7
176
     1
 79
     5
176
     1
170
     0
176
     1
171
     0
176
     1
290
     0
176
     1
 93
       13
176
     1
 44
0.0
176
     1
173
     0
176
     1
1001
ACAD
1000
AcDbSavedByObjectVersion
1070
     0
1000
AcDbSavedByObjectVersion
1070
     0
  0
VISUALSTYLE
  5
5826
102
{ACAD_REACTORS
330
5818
102
}
330
5818
100
AcDbVisualStyle
  2
Linepattern
 70
    14
177
     2
291
     1
 71
     2
176
     1
 72
     2
176
     1
 73
     0
176
     1
 90
        0
176
     1
 40
-0.6
176
     1
 41
-30.0
176
     1
 62
     5
 63
     7
176
     1
 74
     1
176
     1
 91
        4
176
     1
 64
     7
176
     1
 65
   257
176
     1
 75
     7
176
     1
175
     7
176
     1
 42
1.0
176
     1
 92
        8
176
     1
 66
     7
176
     1
 43
1.0
176
     1
 76
     1
176
     1
 77
     6
176
     1
 78
     2
176
     1
 67
     7
176
     1
 79
     5
176
     1
170
     0
176
     1
171
     0
176
     1
290
     0
176
     1
 93
        1
176
     1
 44
0.0
176
     1
173
     0
176
     1
1001
ACAD
1000
AcDbSavedByObjectVersion
1070
     0
1000
AcDbSavedByObjectVersion
1070
     0
  0
VISUALSTYLE
  5
5822
102
{ACAD_REACTORS
330
5818
102
}
330
5818
100
AcDbVisualStyle
  2
Realistic
 70
     8
177
     2
291
     0
 71
     2
176
     1
 72
     2
176
     1
 73
     0
176
     1
 90
        0
176
     1
 40
-0.6
176
     1
 41
-30.0
176
     1
 62
     5
 63
     7
176
     1
 74
     1
176
     1
 91
        0
176
     1
 64
     7
176
     1
 65
   257
176
     1
 75
     1
176
     1
175
     1
176
     1
 42
1.0
176
     1
 92
        8
176
     1
 66
     8
176
     1
 43
1.0
176
     1
 76
     1
176
     1
 77
     6
176
     1
 78
     2
176
     1
 67
     7
176
     1
 79
     5
176
     1
170
     0
176
     1
171
     0
176
     1
290
     0
176
     1
 93
       13
176
     1
 44
0.0
176
     1
173
     0
176
     1
1001
ACAD
1000
AcDbSavedByObjectVersion
1070
     0
1000
AcDbSavedByObjectVersion
1070
     0
  0
VISUALSTYLE
  5
5825
102
{ACAD_REACTORS
330
5818
102
}
330
5818
100
AcDbVisualStyle
  2
Thicken
 70
    13
177
     2
291
     1
 71
     2
176
     1
 72
     2
176
     1
 73
     0
176
     1
 90
        0
176
     1
 40
-0.6
176
     1
 41
-30.0
176
     1
 62
     5
 63
     7
176
     1
 74
     1
176
     1
 91
        4
176
     1
 64
     7
176
     1
 65
   257
176
     1
 75
     1
176
     1
175
     1
176
     1
 42
1.0
176
     1
 92
       12
176
     1
 66
     7
176
     1
 43
1.0
176
     1
 76
     1
176
     1
 77
     6
176
     1
 78
     2
176
     1
 67
     7
176
     1
 79
     5
176
     1
170
     0
176
     1
171
     0
176
     1
290
     0
176
     1
 93
        1
176
     1
 44
0.0
176
     1
173
     0
176
     1
1001
ACAD
1000
AcDbSavedByObjectVersion
1070
     0
1000
AcDbSavedByObjectVersion
1070
     0
  0
DICTIONARYVAR
  5
B968
102
{ACAD_REACTORS
330
AB91
102
}
330
AB91
100
DictionaryVariables
280
     0
  1
1:1
  0
DICTIONARYVAR
  5
AB93
102
{ACAD_REACTORS
330
AB91
102
}
330
AB91
100
DictionaryVariables
280
     0
  1
Standard
  0
DICTIONARYVAR
  5
AB92
102
{ACAD_REACTORS
330
AB91
102
}
330
AB91
100
DictionaryVariables
280
     0
  1
Standard
  0
DICTIONARYVAR
  5
B616
102
{ACAD_REACTORS
330
AB91
102
}
330
AB91
100
DictionaryVariables
280
     0
  1
1
  0
DICTIONARYVAR
  5
B615
102
{ACAD_REACTORS
330
AB91
102
}
330
AB91
100
DictionaryVariables
280
     0
  1
0
  0
DICTIONARYVAR
  5
AB96
102
{ACAD_REACTORS
330
AB91
102
}
330
AB91
100
DictionaryVariables
280
     0
  1
0
  0
DICTIONARYVAR
  5
AB94
102
{ACAD_REACTORS
330
AB91
102
}
330
AB91
100
DictionaryVariables
280
     0
  1
0
  0
DICTIONARYVAR
  5
B614
102
{ACAD_REACTORS
330
AB91
102
}
330
AB91
100
DictionaryVariables
280
     0
  1
127
  0
XRECORD
  5
B60D
102
{ACAD_REACTORS
330
B60C
102
}
330
B60C
100
AcDbXrecord
280
     1
  0
DICTIONARY
  5
AB8E
330
582B
100
AcDbDictionary
280
     1
281
     1
  3
ACAD_ROUNDTRIP_2008_TABLESTYLE_CELLSTYLEMAP
360
B969
  0
CELLSTYLEMAP
  5
B969
102
{ACAD_REACTORS
330
AB8E
102
}
330
AB8E
100
AcDbCellStyleMap
 90
        3
300
CELLSTYLE
  1
TABLEFORMAT_BEGIN
 90
        5
170
     1
 91
        0
 92
    32768
 62
   257
 93
        1
300
CONTENTFORMAT
  1
CONTENTFORMAT_BEGIN
 90
        0
 91
        0
 92
      512
 93
        0
300

 40
0.0
140
1.0
 94
        5
 62
     0
340
17
144
6.0
309
CONTENTFORMAT_END
171
     1
301
MARGIN
  1
CELLMARGIN_BEGIN
 40
1.5
 40
1.5
 40
1.5
 40
1.5
 40
0.18
 40
0.18
309
CELLMARGIN_END
 94
        6
 95
        1
302
GRIDFORMAT
  1
GRIDFORMAT_BEGIN
 90
        0
 91
        1
 62
     0
 92
       -2
340
0
 93
        0
 40
0.045
309
GRIDFORMAT_END
 95
        2
302
GRIDFORMAT
  1
GRIDFORMAT_BEGIN
 90
        0
 91
        1
 62
     0
 92
       -2
340
0
 93
        0
 40
0.045
309
GRIDFORMAT_END
 95
        4
302
GRIDFORMAT
  1
GRIDFORMAT_BEGIN
 90
        0
 91
        1
 62
     0
 92
       -2
340
0
 93
        0
 40
0.045
309
GRIDFORMAT_END
 95
        8
302
GRIDFORMAT
  1
GRIDFORMAT_BEGIN
 90
        0
 91
        1
 62
     0
 92
       -2
340
0
 93
        0
 40
0.045
309
GRIDFORMAT_END
 95
       16
302
GRIDFORMAT
  1
GRIDFORMAT_BEGIN
 90
        0
 91
        1
 62
     0
 92
       -2
340
0
 93
        0
 40
0.045
309
GRIDFORMAT_END
 95
       32
302
GRIDFORMAT
  1
GRIDFORMAT_BEGIN
 90
        0
 91
        1
 62
     0
 92
       -2
340
0
 93
        0
 40
0.045
309
GRIDFORMAT_END
309
TABLEFORMAT_END
  1
CELLSTYLE_BEGIN
 90
        1
 91
        1
300
_TITLE
309
CELLSTYLE_END
300
CELLSTYLE
  1
TABLEFORMAT_BEGIN
 90
        5
170
     1
 91
        0
 92
        0
 62
   257
 93
        1
300
CONTENTFORMAT
  1
CONTENTFORMAT_BEGIN
 90
        0
 91
        0
 92
      512
 93
        0
300

 40
0.0
140
1.0
 94
        5
 62
     0
340
17
144
4.5
309
CONTENTFORMAT_END
171
     1
301
MARGIN
  1
CELLMARGIN_BEGIN
 40
1.5
 40
1.5
 40
1.5
 40
1.5
 40
0.18
 40
0.18
309
CELLMARGIN_END
 94
        6
 95
        1
302
GRIDFORMAT
  1
GRIDFORMAT_BEGIN
 90
        0
 91
        1
 62
     0
 92
       -2
340
0
 93
        0
 40
0.045
309
GRIDFORMAT_END
 95
        2
302
GRIDFORMAT
  1
GRIDFORMAT_BEGIN
 90
        0
 91
        1
 62
     0
 92
       -2
340
0
 93
        0
 40
0.045
309
GRIDFORMAT_END
 95
        4
302
GRIDFORMAT
  1
GRIDFORMAT_BEGIN
 90
        0
 91
        1
 62
     0
 92
       -2
340
0
 93
        0
 40
0.045
309
GRIDFORMAT_END
 95
        8
302
GRIDFORMAT
  1
GRIDFORMAT_BEGIN
 90
        0
 91
        1
 62
     0
 92
       -2
340
0
 93
        0
 40
0.045
309
GRIDFORMAT_END
 95
       16
302
GRIDFORMAT
  1
GRIDFORMAT_BEGIN
 90
        0
 91
        1
 62
     0
 92
       -2
340
0
 93
        0
 40
0.045
309
GRIDFORMAT_END
 95
       32
302
GRIDFORMAT
  1
GRIDFORMAT_BEGIN
 90
        0
 91
        1
 62
     0
 92
       -2
340
0
 93
        0
 40
0.045
309
GRIDFORMAT_END
309
TABLEFORMAT_END
  1
CELLSTYLE_BEGIN
 90
        2
 91
        1
300
_HEADER
309
CELLSTYLE_END
300
CELLSTYLE
  1
TABLEFORMAT_BEGIN
 90
        5
170
     1
 91
        0
 92
        0
 62
   257
 93
        1
300
CONTENTFORMAT
  1
CONTENTFORMAT_BEGIN
 90
        0
 91
        0
 92
      512
 93
        0
300

 40
0.0
140
1.0
 94
        2
 62
     0
340
17
144
4.5
309
CONTENTFORMAT_END
171
     1
301
MARGIN
  1
CELLMARGIN_BEGIN
 40
1.5
 40
1.5
 40
1.5
 40
1.5
 40
0.18
 40
0.18
309
CELLMARGIN_END
 94
        6
 95
        1
302
GRIDFORMAT
  1
GRIDFORMAT_BEGIN
 90
        0
 91
        1
 62
     0
 92
       -2
340
0
 93
        0
 40
0.045
309
GRIDFORMAT_END
 95
        2
302
GRIDFORMAT
  1
GRIDFORMAT_BEGIN
 90
        0
 91
        1
 62
     0
 92
       -2
340
0
 93
        0
 40
0.045
309
GRIDFORMAT_END
 95
        4
302
GRIDFORMAT
  1
GRIDFORMAT_BEGIN
 90
        0
 91
        1
 62
     0
 92
       -2
340
0
 93
        0
 40
0.045
309
GRIDFORMAT_END
 95
        8
302
GRIDFORMAT
  1
GRIDFORMAT_BEGIN
 90
        0
 91
        1
 62
     0
 92
       -2
340
0
 93
        0
 40
0.045
309
GRIDFORMAT_END
 95
       16
302
GRIDFORMAT
  1
GRIDFORMAT_BEGIN
 90
        0
 91
        1
 62
     0
 92
       -2
340
0
 93
        0
 40
0.045
309
GRIDFORMAT_END
 95
       32
302
GRIDFORMAT
  1
GRIDFORMAT_BEGIN
 90
        0
 91
        1
 62
     0
 92
       -2
340
0
 93
        0
 40
0.045
309
GRIDFORMAT_END
309
TABLEFORMAT_END
  1
CELLSTYLE_BEGIN
 90
        3
 91
        2
300
_DATA
309
CELLSTYLE_END
  0
ENDSEC
  0
EOF
