  0
SECTION
  2
HEADER
  9
$ACADVER
  1
AC1024
  9
$ACADMAINTVER
 70
     6
  9
$DWGCODEPAGE
  3
ANSI_1252
  9
$LASTSAVEDBY
  1
renzo.ceresoli
  9
$INSBASE
 10
0.0
 20
0.0
 30
0.0
  9
$EXTMIN
 10
-124.1064491083916
 20
-76.03154965448243
 30
-0.0000000000000057
  9
$EXTMAX
 10
111.0063730557644
 20
113.0138549156739
 30
0.0000000000000099
  9
$LIMMIN
 10
-20.0
 20
-108.35
  9
$LIMMAX
 10
1350.85
 20
342.0054945054945
  9
$ORTHOMODE
 70
     1
  9
$REGENMODE
 70
     1
  9
$FILLMODE
 70
     1
  9
$QTEXTMODE
 70
     0
  9
$MIRRTEXT
 70
     1
  9
$LTSCALE
 40
10.0
  9
$ATTMODE
 70
     1
  9
$TEXTSIZE
 40
0.0
  9
$TRACEWID
 40
0.05
  9
$TEXTSTYLE
  7
STANDARD
  9
$CLAYER
  8
0
  9
$CELTYPE
  6
CONTINUOUS
  9
$CECOLOR
 62
   256
  9
$CELTSCALE
 40
1.0
  9
$DISPSILH
 70
     0
  9
$DIMSCALE
 40
1.0
  9
$DIMASZ
 40
1.25
  9
$DIMEXO
 40
0.0
  9
$DIMDLI
 40
0.38
  9
$DIMRND
 40
0.0
  9
$DIMDLE
 40
0.0
  9
$DIMEXE
 40
0.75
  9
$DIMTP
 40
0.0
  9
$DIMTM
 40
0.0
  9
$DIMTXT
 40
2.5
  9
$DIMCEN
 40
0.09
  9
$DIMTSZ
 40
0.0
  9
$DIMTOL
 70
     0
  9
$DIMLIM
 70
     0
  9
$DIMTIH
 70
     0
  9
$DIMTOH
 70
     0
  9
$DIMSE1
 70
     0
  9
$DIMSE2
 70
     0
  9
$DIMTAD
 70
     1
  9
$DIMZIN
 70
     0
  9
$DIMBLK
  1

  9
$DIMASO
 70
     1
  9
$DIMSHO
 70
     1
  9
$DIMPOST
  1

  9
$DIMAPOST
  1

  9
$DIMALT
 70
     0
  9
$DIMALTD
 70
     2
  9
$DIMALTF
 40
25.4
  9
$DIMLFAC
 40
1.0
  9
$DIMTOFL
 70
     0
  9
$DIMTVP
 40
0.0
  9
$DIMTIX
 70
     0
  9
$DIMSOXD
 70
     0
  9
$DIMSAH
 70
     0
  9
$DIMBLK1
  1

  9
$DIMBLK2
  1

  9
$DIMSTYLE
  2
STANDARD
  9
$DIMCLRD
 70
     7
  9
$DIMCLRE
 70
     7
  9
$DIMCLRT
 70
     7
  9
$DIMTFAC
 40
0.8
  9
$DIMGAP
 40
1.25
  9
$DIMJUST
 70
     0
  9
$DIMSD1
 70
     0
  9
$DIMSD2
 70
     0
  9
$DIMTOLJ
 70
     1
  9
$DIMTZIN
 70
     0
  9
$DIMALTZ
 70
     0
  9
$DIMALTTZ
 70
     0
  9
$DIMUPT
 70
     0
  9
$DIMDEC
 70
     2
  9
$DIMTDEC
 70
     4
  9
$DIMALTU
 70
     2
  9
$DIMALTTD
 70
     2
  9
$DIMTXSTY
  7
STANDARD
  9
$DIMAUNIT
 70
     0
  9
$DIMADEC
 70
     0
  9
$DIMALTRND
 40
0.0
  9
$DIMAZIN
 70
     0
  9
$DIMDSEP
 70
    46
  9
$DIMATFIT
 70
     3
  9
$DIMFRAC
 70
     0
  9
$DIMLDRBLK
  1

  9
$DIMLUNIT
 70
     2
  9
$DIMLWD
 70
    -2
  9
$DIMLWE
 70
    -2
  9
$DIMTMOVE
 70
     2
  9
$DIMFXL
 40
1.0
  9
$DIMFXLON
 70
     0
  9
$DIMJOGANG
 40
0.7853981633974483
  9
$DIMTFILL
 70
     0
  9
$DIMTFILLCLR
 70
     0
  9
$DIMARCSYM
 70
     0
  9
$DIMLTYPE
  6

  9
$DIMLTEX1
  6

  9
$DIMLTEX2
  6

  9
$DIMTXTDIRECTION
 70
     0
  9
$LUNITS
 70
     2
  9
$LUPREC
 70
     4
  9
$SKETCHINC
 40
0.1
  9
$FILLETRAD
 40
0.0
  9
$AUNITS
 70
     0
  9
$AUPREC
 70
     0
  9
$MENU
  1
acad
  9
$ELEVATION
 40
0.0
  9
$PELEVATION
 40
0.0
  9
$THICKNESS
 40
0.0
  9
$LIMCHECK
 70
     0
  9
$CHAMFERA
 40
0.0
  9
$CHAMFERB
 40
0.0
  9
$CHAMFERC
 40
0.0
  9
$CHAMFERD
 40
0.0
  9
$SKPOLY
 70
     0
  9
$TDCREATE
 40
2455307.655694445
  9
$TDUCREATE
 40
2455307.614027778
  9
$TDUPDATE
 40
2455940.38018235
  9
$TDUUPDATE
 40
2455940.338515683
  9
$TDINDWG
 40
0.001836088
  9
$TDUSRTIMER
 40
2455940.334719421
  9
$USRTIMER
 70
     1
  9
$ANGBASE
 50
0.0
  9
$ANGDIR
 70
     0
  9
$PDMODE
 70
     0
  9
$PDSIZE
 40
0.0
  9
$PLINEWID
 40
0.0
  9
$SPLFRAME
 70
     0
  9
$SPLINETYPE
 70
     6
  9
$SPLINESEGS
 70
     8
  9
$HANDSEED
  5
1483
  9
$SURFTAB1
 70
     6
  9
$SURFTAB2
 70
     6
  9
$SURFTYPE
 70
     6
  9
$SURFU
 70
     6
  9
$SURFV
 70
     6
  9
$UCSBASE
  2

  9
$UCSNAME
  2

  9
$UCSORG
 10
0.0
 20
0.0
 30
0.0
  9
$UCSXDIR
 10
1.0
 20
0.0
 30
0.0
  9
$UCSYDIR
 10
0.0
 20
1.0
 30
0.0
  9
$UCSORTHOREF
  2

  9
$UCSORTHOVIEW
 70
     0
  9
$UCSORGTOP
 10
0.0
 20
0.0
 30
0.0
  9
$UCSORGBOTTOM
 10
0.0
 20
0.0
 30
0.0
  9
$UCSORGLEFT
 10
0.0
 20
0.0
 30
0.0
  9
$UCSORGRIGHT
 10
0.0
 20
0.0
 30
0.0
  9
$UCSORGFRONT
 10
0.0
 20
0.0
 30
0.0
  9
$UCSORGBACK
 10
0.0
 20
0.0
 30
0.0
  9
$PUCSBASE
  2

  9
$PUCSNAME
  2

  9
$PUCSORG
 10
0.0
 20
0.0
 30
0.0
  9
$PUCSXDIR
 10
1.0
 20
0.0
 30
0.0
  9
$PUCSYDIR
 10
0.0
 20
1.0
 30
0.0
  9
$PUCSORTHOREF
  2

  9
$PUCSORTHOVIEW
 70
     0
  9
$PUCSORGTOP
 10
0.0
 20
0.0
 30
0.0
  9
$PUCSORGBOTTOM
 10
0.0
 20
0.0
 30
0.0
  9
$PUCSORGLEFT
 10
0.0
 20
0.0
 30
0.0
  9
$PUCSORGRIGHT
 10
0.0
 20
0.0
 30
0.0
  9
$PUCSORGFRONT
 10
0.0
 20
0.0
 30
0.0
  9
$PUCSORGBACK
 10
0.0
 20
0.0
 30
0.0
  9
$USERI1
 70
     0
  9
$USERI2
 70
     0
  9
$USERI3
 70
     0
  9
$USERI4
 70
     0
  9
$USERI5
 70
     0
  9
$USERR1
 40
0.0
  9
$USERR2
 40
0.0
  9
$USERR3
 40
0.0
  9
$USERR4
 40
0.0
  9
$USERR5
 40
0.0
  9
$WORLDVIEW
 70
     1
  9
$SHADEDGE
 70
     3
  9
$SHADEDIF
 70
    70
  9
$TILEMODE
 70
     1
  9
$MAXACTVP
 70
    16
  9
$PINSBASE
 10
0.0
 20
0.0
 30
0.0
  9
$PLIMCHECK
 70
     0
  9
$PEXTMIN
 10
1.000000000000000E+20
 20
1.000000000000000E+20
 30
1.000000000000000E+20
  9
$PEXTMAX
 10
-1.000000000000000E+20
 20
-1.000000000000000E+20
 30
-1.000000000000000E+20
  9
$PLIMMIN
 10
0.0
 20
0.0
  9
$PLIMMAX
 10
12.0
 20
9.0
  9
$UNITMODE
 70
     0
  9
$VISRETAIN
 70
     0
  9
$PLINEGEN
 70
     1
  9
$PSLTSCALE
 70
     0
  9
$TREEDEPTH
 70
  3020
  9
$CMLSTYLE
  2
STANDARD
  9
$CMLJUST
 70
     0
  9
$CMLSCALE
 40
1.0
  9
$PROXYGRAPHICS
 70
     0
  9
$MEASUREMENT
 70
     1
  9
$CELWEIGHT
370
    -1
  9
$ENDCAPS
280
     0
  9
$JOINSTYLE
280
     0
  9
$LWDISPLAY
290
     0
  9
$INSUNITS
 70
     0
  9
$HYPERLINKBASE
  1

  9
$STYLESHEET
  1

  9
$XEDIT
290
     1
  9
$CEPSNTYPE
380
     0
  9
$PSTYLEMODE
290
     1
  9
$FINGERPRINTGUID
  2
{3899E822-AA3D-465C-BFBF-A9C4F6E2721A}
  9
$VERSIONGUID
  2
{FAEB1C32-E019-11D5-929B-00C0DF256EC4}
  9
$EXTNAMES
290
     1
  9
$PSVPSCALE
 40
0.0
  9
$OLESTARTUP
290
     0
  9
$SORTENTS
280
   127
  9
$INDEXCTL
280
     0
  9
$HIDETEXT
280
     1
  9
$XCLIPFRAME
280
     2
  9
$HALOGAP
280
     0
  9
$OBSCOLOR
 70
   257
  9
$OBSLTYPE
280
     0
  9
$INTERSECTIONDISPLAY
280
     0
  9
$INTERSECTIONCOLOR
 70
   257
  9
$DIMASSOC
280
     1
  9
$PROJECTNAME
  1

  9
$CAMERADISPLAY
290
     0
  9
$LENSLENGTH
 40
50.0
  9
$CAMERAHEIGHT
 40
0.0
  9
$STEPSPERSEC
 40
2.0
  9
$STEPSIZE
 40
6.0
  9
$3DDWFPREC
 40
2.0
  9
$PSOLWIDTH
 40
0.25
  9
$PSOLHEIGHT
 40
4.0
  9
$LOFTANG1
 40
1.570796326794897
  9
$LOFTANG2
 40
1.570796326794897
  9
$LOFTMAG1
 40
0.0
  9
$LOFTMAG2
 40
0.0
  9
$LOFTPARAM
 70
     7
  9
$LOFTNORMALS
280
     1
  9
$LATITUDE
 40
37.795
  9
$LONGITUDE
 40
-122.394
  9
$NORTHDIRECTION
 40
0.0
  9
$TIMEZONE
 70
 -8000
  9
$LIGHTGLYPHDISPLAY
280
     1
  9
$TILEMODELIGHTSYNCH
280
     1
  9
$SOLIDHIST
280
     1
  9
$SHOWHIST
280
     1
  9
$DWFFRAME
280
     2
  9
$DGNFRAME
280
     2
  9
$REALWORLDSCALE
290
     1
  9
$INTERFERECOLOR
 62
   256
  9
$CSHADOW
280
     0
  9
$SHADOWPLANELOCATION
 40
0.0
  0
ENDSEC
  0
SECTION
  2
CLASSES
  0
CLASS
  1
IMAGE
  2
AcDbRasterImage
  3
ISM
 90
      127
 91
        5
280
     0
281
     1
  0
CLASS
  1
DICTIONARYVAR
  2
AcDbDictionaryVar
  3
ObjectDBX Classes
 90
        0
 91
        4
280
     0
281
     0
  0
CLASS
  1
RASTERVARIABLES
  2
AcDbRasterVariables
  3
ISM
 90
        0
 91
        4
280
     0
281
     0
  0
CLASS
  1
IMAGEDEF
  2
AcDbRasterImageDef
  3
ISM
 90
        0
 91
        4
280
     0
281
     0
  0
CLASS
  1
IMAGEDEF_REACTOR
  2
AcDbRasterImageDefReactor
  3
ISM
 90
        1
 91
        4
280
     0
281
     0
  0
CLASS
  1
IDBUFFER
  2
AcDbIdBuffer
  3
ObjectDBX Classes
 90
        0
 91
        4
280
     0
281
     0
  0
CLASS
  1
SPATIAL_FILTER
  2
AcDbSpatialFilter
  3
ObjectDBX Classes
 90
        0
 91
        4
280
     0
281
     0
  0
CLASS
  1
SORTENTSTABLE
  2
AcDbSortentsTable
  3
ObjectDBX Classes
 90
        0
 91
        4
280
     0
281
     0
  0
CLASS
  1
LAYER_INDEX
  2
AcDbLayerIndex
  3
ObjectDBX Classes
 90
        0
 91
        4
280
     0
281
     0
  0
CLASS
  1
SPATIAL_INDEX
  2
AcDbSpatialIndex
  3
AutoCAD 2000
 90
        0
 91
        4
280
     0
281
     0
  0
CLASS
  1
OBJECT_PTR
  2
CAseDLPNTableRecord
  3
ASE-LPNTableRecord
 90
        1
 91
        4
280
     0
281
     0
  0
CLASS
  1
LAYOUT
  2
AcDbLayout
  3
ObjectDBX Classes
 90
        0
 91
        1
280
     0
281
     0
  0
CLASS
  1
PLOTSETTINGS
  2
AcDbPlotSettings
  3
ObjectDBX Classes
 90
        0
 91
        4
280
     0
281
     0
  0
CLASS
  1
ACDBDICTIONARYWDFLT
  2
AcDbDictionaryWithDefault
  3
ObjectDBX Classes
 90
        0
 91
        4
280
     0
281
     0
  0
CLASS
  1
ACDBPLACEHOLDER
  2
AcDbPlaceHolder
  3
ObjectDBX Classes
 90
        0
 91
        1
280
     0
281
     0
  0
CLASS
  1
VBA_PROJECT
  2
AcDbVbaProject
  3
ObjectDBX Classes
 90
        0
 91
        1
280
     0
281
     0
  0
CLASS
  1
WIPEOUT
  2
AcDbWipeout
  3
WipeOut|AutoCAD Express Tool|expresstools@autodesk.com
 90
      127
 91
        4
280
     0
281
     1
  0
CLASS
  1
WIPEOUTVARIABLES
  2
AcDbWipeoutVariables
  3
WipeOut|AutoCAD Express Tool|expresstools@autodesk.com
 90
        0
 91
        4
280
     0
281
     0
  0
CLASS
  1
RTEXT
  2
RText
  3
RText|AutoCAD Express Tool|expresstools@autodesk.com
 90
        0
 91
        4
280
     0
281
     1
  0
CLASS
  1
ARCALIGNEDTEXT
  2
AcDbArcAlignedText
  3
ATEXT|AutoCAD Express Tool|expresstools@autodesk.com
 90
        0
 91
        4
280
     0
281
     1
  0
CLASS
  1
MATERIAL
  2
AcDbMaterial
  3
ObjectDBX Classes
 90
     1153
 91
        4
280
     0
281
     0
  0
CLASS
  1
VISUALSTYLE
  2
AcDbVisualStyle
  3
ObjectDBX Classes
 90
     4095
 91
        4
280
     0
281
     0
  0
CLASS
  1
TABLESTYLE
  2
AcDbTableStyle
  3
ObjectDBX Classes
 90
     4095
 91
        4
280
     0
281
     0
  0
CLASS
  1
SCALE
  2
AcDbScale
  3
ObjectDBX Classes
 90
     1153
 91
        4
280
     0
281
     0
  0
CLASS
  1
MLEADERSTYLE
  2
AcDbMLeaderStyle
  3
ACDB_MLEADERSTYLE_CLASS
 90
     4095
 91
        4
280
     0
281
     0
  0
CLASS
  1
CELLSTYLEMAP
  2
AcDbCellStyleMap
  3
ObjectDBX Classes
 90
     1152
 91
        4
280
     0
281
     0
  0
CLASS
  1
XRECORD
  2
AcDbXrecord
  3
AutoCAD 2000
 90
        0
 91
        1
280
     0
281
     0
  0
CLASS
  1
LWPOLYLINE
  2
AcDbPolyline
  3
AutoCAD 2000
 90
        0
 91
        1
280
     0
281
     1
  0
CLASS
  1
HATCH
  2
AcDbHatch
  3
AutoCAD 2000
 90
        0
 91
        1
280
     0
281
     1
  0
ENDSEC
  0
SECTION
  2
TABLES
  0
TABLE
  2
VPORT
  5
7
330
0
100
AcDbSymbolTable
 70
     1
  0
VPORT
  5
15
330
7
100
AcDbSymbolTableRecord
100
AcDbViewportTableRecord
  2
*ACTIVE
 70
     0
 10
0.0
 20
0.0
 11
1.0
 21
1.0
 12
92.33131382804122
 22
-34.93468694781555
 13
0.0
 23
0.0
 14
1.0
 24
1.0
 15
0.0
 25
0.0
 16
0.0
 26
0.0
 36
1.0
 17
0.0
 27
0.0
 37
0.0
 40
170.4155140772563
 41
1.602631578947368
 42
50.0
 43
0.0
 44
0.0
 50
0.0
 51
0.0
 71
    16
 72
   100
 73
     1
 74
     1
 75
     0
 76
     0
 77
     0
 78
     0
281
     0
 65
     1
110
0.0
120
0.0
130
0.0
111
1.0
121
0.0
131
0.0
112
0.0
122
1.0
132
0.0
 79
     0
146
0.0
 60
     3
 61
     5
292
     1
282
     1
141
0.0
142
0.0
 63
   256
  0
ENDTAB
  0
TABLE
  2
LTYPE
  5
4
330
0
100
AcDbSymbolTable
 70
     3
  0
LTYPE
  5
11
330
4
100
AcDbSymbolTableRecord
100
AcDbLinetypeTableRecord
  2
BYBLOCK
 70
     0
  3

 72
    65
 73
     0
 40
0.0
  0
LTYPE
  5
12
330
4
100
AcDbSymbolTableRecord
100
AcDbLinetypeTableRecord
  2
BYLAYER
 70
     0
  3

 72
    65
 73
     0
 40
0.0
  0
LTYPE
  5
13
330
4
100
AcDbSymbolTableRecord
100
AcDbLinetypeTableRecord
  2
CONTINUOUS
 70
     0
  3
Solid line
 72
    65
 73
     0
 40
0.0
  0
LTYPE
  5
4E0
330
4
100
AcDbSymbolTableRecord
100
AcDbLinetypeTableRecord
  2
CENTER
 70
     0
  3
____ _ ____ _ ____ _ ____ _ ____ _ ____ _ ____
 72
    65
 73
     4
 40
2.0
 49
1.25
 74
     0
 49
-0.25
 74
     0
 49
0.25
 74
     0
 49
-0.25
 74
     0
  0
LTYPE
  5
1020
330
4
100
AcDbSymbolTableRecord
100
AcDbLinetypeTableRecord
  2
________________
 70
     0
  3

 72
    65
 73
     0
 40
0.0
  0
ENDTAB
  0
TABLE
  2
LAYER
  5
2
330
0
100
AcDbSymbolTable
 70
     2
  0
LAYER
  5
14
330
2
100
AcDbSymbolTableRecord
100
AcDbLayerTableRecord
  2
0
 70
     0
 62
     7
  6
CONTINUOUS
370
    -3
390
0
347
144A
  0
LAYER
  5
1464
330
2
100
AcDbSymbolTableRecord
100
AcDbLayerTableRecord
  2
Defpoints
 70
     0
 62
     7
  6
CONTINUOUS
290
     0
370
    -3
390
0
347
144A
  0
ENDTAB
  0
TABLE
  2
STYLE
  5
3
330
0
100
AcDbSymbolTable
 70
     1
  0
STYLE
  5
17
330
3
100
AcDbSymbolTableRecord
100
AcDbTextStyleTableRecord
  2
STANDARD
 70
     0
 40
0.0
 41
1.0
 50
0.0
 71
     0
 42
0.0
  3
I011000D_0.TTF
  4

1001
ACAD
1000
IsonormD
1071
        0
  0
ENDTAB
  0
TABLE
  2
VIEW
  5
5
330
0
100
AcDbSymbolTable
 70
     0
  0
ENDTAB
  0
TABLE
  2
UCS
  5
6
330
0
100
AcDbSymbolTable
 70
     0
  0
ENDTAB
  0
TABLE
  2
APPID
  5
8
330
0
100
AcDbSymbolTable
 70
     6
  0
APPID
  5
16
330
8
100
AcDbSymbolTableRecord
100
AcDbRegAppTableRecord
  2
ACAD
 70
     0
  0
APPID
  5
26
330
8
100
AcDbSymbolTableRecord
100
AcDbRegAppTableRecord
  2
TOPSOLID_DRAFT
 70
     0
  0
APPID
  5
86D
330
8
100
AcDbSymbolTableRecord
100
AcDbRegAppTableRecord
  2
ACAD_MLEADERVER
 70
     0
  0
APPID
  5
873
330
8
100
AcDbSymbolTableRecord
100
AcDbRegAppTableRecord
  2
DCO15
 70
     0
  0
APPID
  5
100F
330
8
100
AcDbSymbolTableRecord
100
AcDbRegAppTableRecord
  2
ACAD_EXEMPT_FROM_CAD_STAND
 70
     0
  0
APPID
  5
1463
330
8
100
AcDbSymbolTableRecord
100
AcDbRegAppTableRecord
  2
ACAD_DSTYLE_DIMRADIAL_EXTENSION
 70
     0
  0
ENDTAB
  0
TABLE
  2
DIMSTYLE
  5
9
330
0
100
AcDbSymbolTable
 70
     1
100
AcDbDimStyleTable
  0
DIMSTYLE
105
18
330
9
100
AcDbSymbolTableRecord
100
AcDbDimStyleTableRecord
  2
STANDARD
 70
     0
 41
1.25
 42
0.0
 44
0.75
 73
     0
 74
     0
 77
     1
140
2.5
146
0.8
147
1.25
176
     7
177
     7
271
     2
178
     7
271
     2
340
17
  0
ENDTAB
  0
TABLE
  2
BLOCK_RECORD
  5
1
330
0
100
AcDbSymbolTable
 70
     1
  0
BLOCK_RECORD
  5
A
102
{ACAD_XDICTIONARY
360
8AF
102
}
330
1
100
AcDbSymbolTableRecord
100
AcDbBlockTableRecord
  2
*MODEL_SPACE
340
1445
 70
     0
280
     1
281
     0
  0
BLOCK_RECORD
  5
B
330
1
100
AcDbSymbolTableRecord
100
AcDbBlockTableRecord
  2
*PAPER_SPACE
340
1446
 70
     0
280
     1
281
     0
  0
BLOCK_RECORD
  5
1466
330
1
100
AcDbSymbolTableRecord
100
AcDbBlockTableRecord
  2
*D0
340
0
 70
     0
280
     1
281
     0
  0
ENDTAB
  0
ENDSEC
  0
SECTION
  2
BLOCKS
  0
BLOCK
  5
D
330
A
100
AcDbEntity
  8
0
100
AcDbBlockBegin
  2
*MODEL_SPACE
 70
     0
 10
0.0
 20
0.0
 30
0.0
  3
*MODEL_SPACE
  1

  0
ENDBLK
  5
E
330
A
100
AcDbEntity
  8
0
100
AcDbBlockEnd
  0
BLOCK
  5
F
330
B
100
AcDbEntity
 67
     1
  8
0
100
AcDbBlockBegin
  2
*PAPER_SPACE
 70
     0
 10
0.0
 20
0.0
 30
0.0
  3
*PAPER_SPACE
  1

  0
ENDBLK
  5
10
330
B
100
AcDbEntity
 67
     1
  8
0
100
AcDbBlockEnd
  0
BLOCK
  5
146C
330
1466
100
AcDbEntity
  8
0
100
AcDbBlockBegin
  2
*D0
 70
     1
 10
0.0
 20
0.0
 30
0.0
  3
*D0
  1

  0
LINE
  5
1467
330
1466
100
AcDbEntity
  8
0
  6
Continuous
 62
     7
370
    -2
100
AcDbLine
 10
54.19874012555422
 20
13.83255117282023
 30
0.0
 11
50.99999999997976
 21
7.888599489887412
 31
0.0
  0
MTEXT
  5
1468
330
1466
100
AcDbEntity
  8
0
  6
Continuous
 62
     7
100
AcDbMText
 10
73.67529965537314
 20
36.32590564922658
 30
0.0
 40
2.5
 41
0.0
 46
0.0
 71
     5
 72
     1
  1
\A1;R8.00
 11
0.4738874260110313
 21
0.8805854345085657
 31
0.0
 73
     1
 44
1.0
  0
SOLID
  5
1469
330
1466
100
AcDbEntity
  8
0
 62
     7
100
AcDbTrace
 10
54.38219542441018
 20
13.7338246257346
 30
0.0
 11
54.01528482669827
 21
13.93127771990586
 31
0.0
 12
54.79109940806801
 22
14.93328296595594
 32
0.0
 13
54.79109940806801
 23
14.93328296595594
 33
0.0
  0
POINT
  5
146A
330
1466
100
AcDbEntity
  8
Defpoints
 62
     0
100
AcDbPoint
 10
54.79109940806801
 20
14.93328296595594
 30
0.0
  0
POINT
  5
146B
330
1466
100
AcDbEntity
  8
Defpoints
 62
     0
100
AcDbPoint
 10
50.99999999997976
 20
7.888599489887412
 30
0.0
  0
ENDBLK
  5
146D
330
1466
100
AcDbEntity
  8
0
100
AcDbBlockEnd
  0
ENDSEC
  0
SECTION
  2
ENTITIES
  0
LINE
  5
1303
330
A
100
AcDbEntity
  8
0
  6
________________
 62
     7
100
AcDbLine
 10
54.00000500997976
 20
-79.95922672712209
 30
0.0
 11
47.99999498997977
 21
-79.95922672712209
 31
0.0
  0
LINE
  5
1306
330
A
100
AcDbEntity
  8
0
  6
________________
 62
   253
100
AcDbLine
 10
22.99999999997982
 20
-88.05922672712205
 30
0.0
 11
22.99999999997982
 21
-89.55922672712205
 31
0.0
  0
LINE
  5
1307
330
A
100
AcDbEntity
  8
0
  6
________________
 62
     7
100
AcDbLine
 10
73.99999999997982
 20
-88.05922672712205
 30
0.0
 11
22.99999999997982
 21
-88.05922672712205
 31
0.0
  0
LINE
  5
1308
330
A
100
AcDbEntity
  8
0
  6
________________
 62
   253
100
AcDbLine
 10
73.99999999997982
 20
-88.05922672712205
 30
0.0
 11
73.99999999997982
 21
-89.55922672712205
 31
0.0
  0
LINE
  5
1309
330
A
100
AcDbEntity
  8
0
  6
________________
 62
     7
100
AcDbLine
 10
73.99999999997982
 20
-89.55922672712205
 30
0.0
 11
22.99999999997982
 21
-89.55922672712205
 31
0.0
  0
LINE
  5
130A
330
A
100
AcDbEntity
  8
0
  6
________________
 62
     7
100
AcDbLine
 10
18.49999999997982
 20
-88.05922672712205
 30
0.0
 11
18.49999999997982
 21
-89.55922672712205
 31
0.0
  0
LINE
  5
130B
330
A
100
AcDbEntity
  8
0
  6
________________
 62
     7
100
AcDbLine
 10
22.99999999997982
 20
-88.05922672712205
 30
0.0
 11
18.49999999997982
 21
-88.05922672712205
 31
0.0
  0
LINE
  5
130C
330
A
100
AcDbEntity
  8
0
  6
________________
 62
     7
100
AcDbLine
 10
22.99999999997982
 20
-89.55922672712205
 30
0.0
 11
18.49999999997982
 21
-89.55922672712205
 31
0.0
  0
LINE
  5
130D
330
A
100
AcDbEntity
  8
0
  6
________________
 62
     7
100
AcDbLine
 10
78.49999999997982
 20
-88.05922672712205
 30
0.0
 11
78.49999999997982
 21
-89.55922672712205
 31
0.0
  0
LINE
  5
130E
330
A
100
AcDbEntity
  8
0
  6
________________
 62
     7
100
AcDbLine
 10
78.49999999997982
 20
-88.05922672712205
 30
0.0
 11
73.99999999997982
 21
-88.05922672712205
 31
0.0
  0
LINE
  5
130F
330
A
100
AcDbEntity
  8
0
  6
________________
 62
     7
100
AcDbLine
 10
78.49999999997982
 20
-89.55922672712205
 30
0.0
 11
73.99999999997982
 21
-89.55922672712211
 31
0.0
  0
LINE
  5
1310
330
A
100
AcDbEntity
  8
0
  6
________________
 62
   253
100
AcDbLine
 10
22.99999999997976
 20
-89.55922672712205
 30
0.0
 11
22.99999999997976
 21
-90.15922672712207
 31
0.0
  0
LINE
  5
1311
330
A
100
AcDbEntity
  8
0
  6
________________
 62
     7
100
AcDbLine
 10
73.99999999997982
 20
-89.55922672712211
 30
0.0
 11
22.99999999997976
 21
-89.55922672712205
 31
0.0
  0
LINE
  5
1312
330
A
100
AcDbEntity
  8
0
  6
________________
 62
   253
100
AcDbLine
 10
73.99999999997982
 20
-89.55922672712211
 30
0.0
 11
73.99999999997982
 21
-90.15922672712207
 31
0.0
  0
LINE
  5
1313
330
A
100
AcDbEntity
  8
0
  6
________________
 62
     7
100
AcDbLine
 10
18.49999999997976
 20
-89.55922672712205
 30
0.0
 11
18.49999999997976
 21
-90.15922672712207
 31
0.0
  0
LINE
  5
1314
330
A
100
AcDbEntity
  8
0
  6
________________
 62
     7
100
AcDbLine
 10
22.99999999997976
 20
-89.55922672712205
 30
0.0
 11
18.49999999997976
 21
-89.55922672712205
 31
0.0
  0
LINE
  5
1315
330
A
100
AcDbEntity
  8
0
  6
________________
 62
     7
100
AcDbLine
 10
78.49999999997982
 20
-89.55922672712211
 30
0.0
 11
78.49999999997982
 21
-90.15922672712207
 31
0.0
  0
LINE
  5
1316
330
A
100
AcDbEntity
  8
0
  6
________________
 62
     7
100
AcDbLine
 10
78.49999999997982
 20
-89.55922672712211
 30
0.0
 11
73.99999999997982
 21
-89.55922672712211
 31
0.0
  0
LINE
  5
1317
330
A
100
AcDbEntity
  8
0
  6
________________
 62
     7
100
AcDbLine
 10
10.99999999999727
 20
-78.05922672712182
 30
0.0
 11
7.999999999997243
 21
-78.05922672712182
 31
0.0
  0
LINE
  5
1318
330
A
100
AcDbEntity
  8
0
  6
________________
 62
   253
100
AcDbLine
 10
53.99999993179404
 20
-79.95922672712209
 30
0.0
 11
47.99999999997976
 21
-79.95922672712209
 31
0.0
  0
LINE
  5
1319
330
A
100
AcDbEntity
  8
0
  6
________________
 62
     7
100
AcDbLine
 10
80.37192322718647
 20
-74.03922672712258
 30
0.0
 11
80.37192322718641
 21
-79.55922672712256
 31
0.0
  0
ARC
  5
131A
330
A
100
AcDbEntity
  8
0
  6
________________
 62
     7
100
AcDbCircle
 10
-98.71099012510535
 20
-89.19539939869333
 30
0.0
 40
23.79140485000437
210
0.0
220
0.0
230
-1.0
100
AcDbArc
 50
39.57175251847323
 51
51.5276711398255
  0
LINE
  5
131B
330
A
100
AcDbEntity
  8
0
  6
________________
 62
     7
100
AcDbLine
 10
83.90948636706071
 20
-70.56890130491826
 30
0.0
 11
85.99999999997107
 21
-69.03922672712952
 31
0.0
  0
LINE
  5
131C
330
A
100
AcDbEntity
  8
0
  6
________________
 62
     7
100
AcDbLine
 10
80.37192322718641
 20
-79.55922672712256
 30
0.0
 11
86.00000000000006
 21
-79.55922672712256
 31
0.0
  0
LINE
  5
131D
330
A
100
AcDbEntity
  8
0
  6
________________
 62
     7
100
AcDbLine
 10
-0.0000000001803642
 20
-74.03922672712253
 30
0.0
 11
80.37192322718647
 21
-74.03922672712258
 31
0.0
  0
LINE
  5
131E
330
A
100
AcDbEntity
  8
0
  6
________________
 62
     7
100
AcDbLine
 10
-0.0000000000644889
 20
-70.56890130491826
 30
0.0
 11
-0.0000000000644889
 21
-74.03922672712253
 31
0.0
  0
LINE
  5
1320
330
A
100
AcDbEntity
  8
0
  6
________________
 62
     7
100
AcDbLine
 10
15.99999999981964
 20
-77.55922672712262
 30
0.0
 11
-0.0000000001803642
 21
-77.55922672712262
 31
0.0
  0
LINE
  5
1321
330
A
100
AcDbEntity
  8
0
  6
________________
 62
     7
100
AcDbLine
 10
-0.0000000001803642
 20
-77.55922672712262
 30
0.0
 11
-0.0000000001803642
 21
-74.03922672712253
 31
0.0
  0
LINE
  5
1322
330
A
100
AcDbEntity
  8
0
  6
________________
 62
     7
100
AcDbLine
 10
15.99999999981964
 20
-79.5592267271225
 30
0.0
 11
15.99999999981964
 21
-77.55922672712262
 31
0.0
  0
LINE
  5
1323
330
A
100
AcDbEntity
  8
0
  6
________________
 62
     7
100
AcDbLine
 10
15.99999999981964
 20
-79.5592267271225
 30
0.0
 11
80.37192322718641
 21
-79.55922672712256
 31
0.0
  0
LINE
  5
1324
330
A
100
AcDbEntity
  8
0
  6
________________
 62
     7
100
AcDbLine
 10
0.0
 20
-69.03922672712253
 30
0.0
 11
0.0
 21
-70.56890130491826
 31
0.0
  0
ARC
  5
1325
330
A
100
AcDbEntity
  8
0
  6
________________
 62
     7
100
AcDbCircle
 10
103.0241867032022
 20
-84.98750843993037
 30
0.0
 40
27.26360469440752
100
AcDbArc
 50
213.8128849732519
 51
228.2826745723532
  0
LINE
  5
1327
330
A
100
AcDbEntity
  8
0
  6
________________
 62
     7
100
AcDbLine
 10
15.99999999997976
 20
-100.1592267271221
 30
0.0
 11
80.37196594789839
 21
-100.1592267271221
 31
0.0
  0
LINE
  5
1328
330
A
100
AcDbEntity
  8
0
  6
________________
 62
     7
100
AcDbLine
 10
15.99999999997974
 20
-100.1592267271221
 30
0.0
 11
15.99999999997974
 21
-105.3380715182562
 31
0.0
  0
LINE
  5
1329
330
A
100
AcDbEntity
  8
0
  6
________________
 62
     7
100
AcDbLine
 10
80.37196594789845
 20
-90.15922672712207
 30
0.0
 11
15.99999999997976
 21
-90.15922672712207
 31
0.0
  0
LINE
  5
132A
330
A
100
AcDbEntity
  8
0
  6
________________
 62
     7
100
AcDbLine
 10
80.37196594789845
 20
-90.15922672712207
 30
0.0
 11
80.37196594789839
 21
-100.1592267271221
 31
0.0
  0
LINE
  5
132B
330
A
100
AcDbEntity
  8
0
  6
________________
 62
     7
100
AcDbLine
 10
15.99999999997976
 20
-100.1592267271221
 30
0.0
 11
15.99999999997976
 21
-90.15922672712207
 31
0.0
  0
LINE
  5
132C
330
A
100
AcDbEntity
  8
0
  6
________________
 62
     7
100
AcDbLine
 10
85.99999999997976
 20
-90.15922672712207
 30
0.0
 11
80.37196594789845
 21
-90.15922672712207
 31
0.0
  0
LINE
  5
132D
330
A
100
AcDbEntity
  8
0
  6
________________
 62
     7
100
AcDbLine
 10
84.88145473340234
 20
-105.3380715182563
 30
0.0
 11
85.9999999999489
 21
-106.1592267270993
 31
0.0
  0
LINE
  5
132E
330
A
100
AcDbEntity
  8
0
  6
________________
 62
     7
100
AcDbLine
 10
45.99999999997976
 20
-88.05922672712205
 30
0.0
 11
45.99999999997976
 21
-82.15922672712207
 31
0.0
  0
LINE
  5
132F
330
A
100
AcDbEntity
  8
0
  6
________________
 62
     7
100
AcDbLine
 10
45.99999999997976
 20
-82.15922672712207
 30
0.0
 11
48.99999999997976
 21
-82.15922672712207
 31
0.0
  0
LINE
  5
1330
330
A
100
AcDbEntity
  8
0
  6
________________
 62
   253
100
AcDbLine
 10
48.99999999997976
 20
-82.15922672712207
 30
0.0
 11
48.99999999997976
 21
-88.05922672712205
 31
0.0
  0
LINE
  5
1331
330
A
100
AcDbEntity
  8
0
  6
________________
 62
   253
100
AcDbLine
 10
52.99999999997976
 20
-88.05922672712205
 30
0.0
 11
52.99999999997976
 21
-82.15922672712207
 31
0.0
  0
LINE
  5
1332
330
A
100
AcDbEntity
  8
0
  6
________________
 62
     7
100
AcDbLine
 10
52.99999999997976
 20
-82.15922672712207
 30
0.0
 11
48.99999999997976
 21
-82.15922672712207
 31
0.0
  0
LINE
  5
1333
330
A
100
AcDbEntity
  8
0
  6
________________
 62
     7
100
AcDbLine
 10
55.99999999997976
 20
-82.15922672712207
 30
0.0
 11
55.99999999997976
 21
-88.05922672712205
 31
0.0
  0
LINE
  5
1334
330
A
100
AcDbEntity
  8
0
  6
________________
 62
     7
100
AcDbLine
 10
52.99999999997976
 20
-82.15922672712207
 30
0.0
 11
55.99999999997976
 21
-82.15922672712207
 31
0.0
  0
LINE
  5
1335
330
A
100
AcDbEntity
  8
0
  6
________________
 62
     7
100
AcDbLine
 10
15.99999999997974
 20
-105.3380715182562
 30
0.0
 11
15.99999999997974
 21
-106.1592267271221
 31
0.0
  0
LINE
  5
1336
330
A
100
AcDbEntity
  8
0
  6
________________
 62
     7
100
AcDbLine
 10
7.49999999999747
 20
-77.55922672712211
 30
0.0
 11
7.999999999997243
 21
-78.05922672712182
 31
0.0
  0
LINE
  5
1337
330
A
100
AcDbEntity
  8
0
  6
________________
 62
     7
100
AcDbLine
 10
10.99999999999727
 20
-78.05922672712182
 30
0.0
 11
11.49999999999704
 21
-77.55922672712211
 31
0.0
  0
LINE
  5
1338
330
A
100
AcDbEntity
  8
0
  6
________________
 62
     7
100
AcDbLine
 10
53.99999999997976
 20
-79.95922672712209
 30
0.0
 11
53.99999999997976
 21
-79.55922672712245
 31
0.0
  0
LINE
  5
1339
330
A
100
AcDbEntity
  8
0
  6
________________
 62
     7
100
AcDbLine
 10
47.99999999997976
 20
-79.5592267271225
 30
0.0
 11
47.99999999997976
 21
-79.95922672712209
 31
0.0
  0
LINE
  5
133A
330
A
100
AcDbEntity
  8
0
  6
________________
 62
     7
100
AcDbLine
 10
53.99999999997976
 20
-82.15921173712206
 30
0.0
 11
53.99999999997976
 21
-79.95922672712209
 31
0.0
  0
LINE
  5
133B
330
A
100
AcDbEntity
  8
0
  6
________________
 62
     7
100
AcDbLine
 10
47.99999999997976
 20
-79.95922672712209
 30
0.0
 11
47.99999999997976
 21
-82.15921173712206
 31
0.0
  0
LINE
  5
133C
330
A
100
AcDbEntity
  8
0
  6
________________
 62
     7
100
AcDbLine
 10
86.0
 20
-79.55922672712256
 30
0.0
 11
86.0
 21
-69.03922672712258
 31
0.0
  0
LINE
  5
133D
330
A
100
AcDbEntity
  8
0
  6
________________
 62
     7
100
AcDbLine
 10
86.0
 20
-69.03922672712258
 30
0.0
 11
0.0
 21
-69.03922672712253
 31
0.0
  0
LINE
  5
133E
330
A
100
AcDbEntity
  8
0
  6
________________
 62
     7
100
AcDbLine
 10
85.99999999997976
 20
-106.1592267271221
 30
0.0
 11
85.99999999997976
 21
-90.15922672712207
 31
0.0
  0
LINE
  5
133F
330
A
100
AcDbEntity
  8
0
  6
________________
 62
     7
100
AcDbLine
 10
15.99999999997974
 20
-106.1592267271221
 30
0.0
 11
85.99999999997976
 21
-106.1592267271221
 31
0.0
  0
LINE
  5
1340
330
A
100
AcDbEntity
  8
0
  6
________________
 62
     7
100
AcDbLine
 10
136.216038181888
 20
-8.49999498985693
 30
0.0
 11
136.216038181888
 21
-14.50000500985692
 31
0.0
  0
LINE
  5
1341
330
A
100
AcDbEntity
  8
0
  6
________________
 62
     7
100
AcDbLine
 10
136.2160381818894
 20
14.50000501013335
 30
0.0
 11
136.2160381818894
 21
8.499994990133416
 31
0.0
  0
LINE
  5
1342
330
A
100
AcDbEntity
  8
0
  6
________________
 62
   253
100
AcDbLine
 10
144.3160381818894
 20
-20.49999999986215
 30
0.0
 11
145.8160381818894
 21
-20.49999999986215
 31
0.0
  0
LINE
  5
1343
330
A
100
AcDbEntity
  8
0
  6
________________
 62
     7
100
AcDbLine
 10
144.3160381818894
 20
20.50000000013779
 30
0.0
 11
144.3160381818893
 21
-20.49999999986215
 31
0.0
  0
LINE
  5
1344
330
A
100
AcDbEntity
  8
0
  6
________________
 62
   253
100
AcDbLine
 10
144.3160381818894
 20
20.50000000013779
 30
0.0
 11
145.8160381818893
 21
20.50000000013779
 31
0.0
  0
LINE
  5
1345
330
A
100
AcDbEntity
  8
0
  6
________________
 62
     7
100
AcDbLine
 10
145.8160381818894
 20
20.50000000013779
 30
0.0
 11
145.8160381818894
 21
-20.49999999986215
 31
0.0
  0
LINE
  5
1346
330
A
100
AcDbEntity
  8
0
  6
________________
 62
     7
100
AcDbLine
 10
144.3160381818894
 20
25.00000000013779
 30
0.0
 11
144.3160381818894
 21
20.50000000013779
 31
0.0
  0
LINE
  5
1347
330
A
100
AcDbEntity
  8
0
  6
________________
 62
     7
100
AcDbLine
 10
144.3160381818894
 20
25.00000000013779
 30
0.0
 11
145.8160381818893
 21
25.00000000013779
 31
0.0
  0
LINE
  5
1348
330
A
100
AcDbEntity
  8
0
  6
________________
 62
     7
100
AcDbLine
 10
145.8160381818893
 20
25.00000000013779
 30
0.0
 11
145.8160381818894
 21
20.50000000013779
 31
0.0
  0
LINE
  5
1349
330
A
100
AcDbEntity
  8
0
  6
________________
 62
     7
100
AcDbLine
 10
144.3160381818894
 20
-24.99999999986215
 30
0.0
 11
145.8160381818893
 21
-24.99999999986215
 31
0.0
  0
LINE
  5
134A
330
A
100
AcDbEntity
  8
0
  6
________________
 62
     7
100
AcDbLine
 10
144.3160381818894
 20
-20.49999999986215
 30
0.0
 11
144.3160381818894
 21
-24.99999999986215
 31
0.0
  0
LINE
  5
134B
330
A
100
AcDbEntity
  8
0
  6
________________
 62
     7
100
AcDbLine
 10
145.8160381818894
 20
-20.49999999986215
 30
0.0
 11
145.8160381818894
 21
-24.99999999986215
 31
0.0
  0
LINE
  5
134C
330
A
100
AcDbEntity
  8
0
  6
________________
 62
   253
100
AcDbLine
 10
135.8160381818892
 20
18.50000000013267
 30
0.0
 11
134.8160381818894
 21
18.50000000013267
 31
0.0
  0
LINE
  5
134D
330
A
100
AcDbEntity
  8
0
  6
________________
 62
   253
100
AcDbLine
 10
134.8160381818894
 20
-18.49999999985454
 30
0.0
 11
135.8160381818892
 21
-18.49999999985454
 31
0.0
  0
LINE
  5
134E
330
A
100
AcDbEntity
  8
0
  6
________________
 62
     7
100
AcDbLine
 10
135.8160381818892
 20
18.50000000013267
 30
0.0
 11
135.8160381818892
 21
-18.49999999985454
 31
0.0
  0
LINE
  5
134F
330
A
100
AcDbEntity
  8
0
  6
________________
 62
     7
100
AcDbLine
 10
134.8160381818894
 20
19.50000000013227
 30
0.0
 11
135.8160381818892
 21
19.50000000013227
 31
0.0
  0
LINE
  5
1350
330
A
100
AcDbEntity
  8
0
  6
________________
 62
     7
100
AcDbLine
 10
135.8160381818892
 20
19.50000000013216
 30
0.0
 11
135.8160381818892
 21
18.50000000013267
 31
0.0
  0
LINE
  5
1351
330
A
100
AcDbEntity
  8
0
  6
________________
 62
     7
100
AcDbLine
 10
135.8160381818892
 20
-19.49999999985414
 30
0.0
 11
134.8160381818894
 21
-19.49999999985414
 31
0.0
  0
LINE
  5
1352
330
A
100
AcDbEntity
  8
0
  6
________________
 62
     7
100
AcDbLine
 10
135.8160381818892
 20
-18.49999999985454
 30
0.0
 11
135.8160381818892
 21
-19.4999999998538
 31
0.0
  0
LINE
  5
1353
330
A
100
AcDbEntity
  8
0
  6
________________
 62
   253
100
AcDbLine
 10
145.8160381818894
 20
20.50000000013779
 30
0.0
 11
146.4160381818894
 21
20.50000000013779
 31
0.0
  0
LINE
  5
1354
330
A
100
AcDbEntity
  8
0
  6
________________
 62
     7
100
AcDbLine
 10
145.8160381818894
 20
25.00000000013779
 30
0.0
 11
146.4160381818894
 21
25.00000000013779
 31
0.0
  0
LINE
  5
1355
330
A
100
AcDbEntity
  8
0
  6
________________
 62
     7
100
AcDbLine
 10
145.8160381818894
 20
25.00000000013779
 30
0.0
 11
145.8160381818894
 21
20.50000000013779
 31
0.0
  0
LINE
  5
1356
330
A
100
AcDbEntity
  8
0
  6
________________
 62
   253
100
AcDbLine
 10
145.8160381818894
 20
-20.49999999986215
 30
0.0
 11
146.4160381818894
 21
-20.49999999986215
 31
0.0
  0
LINE
  5
1357
330
A
100
AcDbEntity
  8
0
  6
________________
 62
     7
100
AcDbLine
 10
145.8160381818894
 20
20.50000000013779
 30
0.0
 11
145.8160381818894
 21
-20.49999999986215
 31
0.0
  0
LINE
  5
1358
330
A
100
AcDbEntity
  8
0
  6
________________
 62
     7
100
AcDbLine
 10
145.8160381818894
 20
-24.99999999986215
 30
0.0
 11
146.4160381818894
 21
-24.99999999986215
 31
0.0
  0
LINE
  5
1359
330
A
100
AcDbEntity
  8
0
  6
________________
 62
     7
100
AcDbLine
 10
145.8160381818894
 20
-20.49999999986215
 30
0.0
 11
145.8160381818894
 21
-24.99999999986215
 31
0.0
  0
LINE
  5
135A
330
A
100
AcDbEntity
  8
0
  6
________________
 62
     7
100
AcDbLine
 10
134.3160381818892
 20
-9.499999999856868
 30
0.0
 11
134.3160381818892
 21
-12.49999999985687
 31
0.0
  0
LINE
  5
135B
330
A
100
AcDbEntity
  8
0
  6
________________
 62
     7
100
AcDbLine
 10
134.3160381818892
 20
12.5000000001337
 30
0.0
 11
134.3160381818892
 21
9.500000000133696
 31
0.0
  0
LINE
  5
135C
330
A
100
AcDbEntity
  8
0
  6
________________
 62
   253
100
AcDbLine
 10
136.2160381818881
 20
-8.499999999856925
 30
0.0
 11
136.2160381818881
 21
-11.60003189479465
 31
0.0
  0
LINE
  5
135D
330
A
100
AcDbEntity
  8
0
  6
________________
 62
   253
100
AcDbLine
 10
136.2160381818881
 20
-11.60003189479465
 30
0.0
 11
136.2160381818881
 21
-14.49999999985693
 31
0.0
  0
LINE
  5
135E
330
A
100
AcDbEntity
  8
0
  6
________________
 62
   253
100
AcDbLine
 10
136.2160381818895
 20
14.50000000013341
 30
0.0
 11
136.2160381818895
 21
11.39996810519131
 31
0.0
  0
LINE
  5
135F
330
A
100
AcDbEntity
  8
0
  6
________________
 62
   253
100
AcDbLine
 10
136.2160381818895
 20
11.39996810519131
 30
0.0
 11
136.2160381818895
 21
8.500000000133412
 31
0.0
  0
ARC
  5
1360
330
A
100
AcDbEntity
  8
0
  6
________________
 62
     7
100
AcDbCircle
 10
-166.1816392532453
 20
-9.830148960799534
 30
0.0
 40
40.00000000000004
210
0.0
220
0.0
230
-1.0
100
AcDbArc
 50
333.7846464041326
 51
349.7042064633538
  0
ARC
  5
1361
330
A
100
AcDbEntity
  8
0
  6
________________
 62
     7
100
AcDbCircle
 10
-220.2960381818899
 20
0.0
 30
0.0
 40
94.99999999999999
210
0.0
220
0.0
230
-1.0
100
AcDbArc
 50
349.704206463354
 51
10.29579353664615
  0
ARC
  5
1362
330
A
100
AcDbEntity
  8
0
  6
________________
 62
     7
100
AcDbCircle
 10
-166.1816392532453
 20
9.830148960799534
 30
0.0
 40
40.00000000000001
210
0.0
220
0.0
230
-1.0
100
AcDbArc
 50
10.2957935366461
 51
26.21535359586763
  0
LINE
  5
1363
330
A
100
AcDbEntity
  8
0
  6
________________
 62
     7
100
AcDbLine
 10
133.81603818189
 20
27.5
 30
0.0
 11
130.2960381818899
 21
27.5
 31
0.0
  0
LINE
  5
1364
330
A
100
AcDbEntity
  8
0
  6
________________
 62
     7
100
AcDbLine
 10
133.81603818189
 20
-27.5
 30
0.0
 11
133.81603818189
 21
27.5
 31
0.0
  0
LINE
  5
1365
330
A
100
AcDbEntity
  8
0
  6
________________
 62
     7
100
AcDbLine
 10
130.2960381818899
 20
-27.5
 30
0.0
 11
133.81603818189
 21
-27.5
 31
0.0
  0
LINE
  5
1366
330
A
100
AcDbEntity
  8
0
  6
________________
 62
     7
100
AcDbLine
 10
135.8160381818898
 20
20.50000000010499
 30
0.0
 11
135.8160381818898
 21
27.50000000010493
 31
0.0
  0
LINE
  5
1367
330
A
100
AcDbEntity
  8
0
  6
________________
 62
     7
100
AcDbLine
 10
135.8160381818898
 20
20.50000000010499
 30
0.0
 11
133.81603818189
 21
20.50000000010499
 31
0.0
  0
LINE
  5
1368
330
A
100
AcDbEntity
  8
0
  6
________________
 62
     7
100
AcDbLine
 10
135.8160381818898
 20
27.50000000010493
 30
0.0
 11
133.81603818189
 21
27.50000000010493
 31
0.0
  0
LINE
  5
1369
330
A
100
AcDbEntity
  8
0
  6
________________
 62
     7
100
AcDbLine
 10
135.8160381818898
 20
-27.49999999989507
 30
0.0
 11
135.8160381818898
 21
-20.49999999989507
 31
0.0
  0
LINE
  5
136A
330
A
100
AcDbEntity
  8
0
  6
________________
 62
     7
100
AcDbLine
 10
133.81603818189
 20
-20.49999999989501
 30
0.0
 11
135.8160381818898
 21
-20.49999999989507
 31
0.0
  0
LINE
  5
136B
330
A
100
AcDbEntity
  8
0
  6
________________
 62
     7
100
AcDbLine
 10
133.81603818189
 20
-27.49999999989507
 30
0.0
 11
135.8160381818898
 21
-27.49999999989507
 31
0.0
  0
LINE
  5
136C
330
A
100
AcDbEntity
  8
0
  6
________________
 62
     7
100
AcDbLine
 10
133.81603818189
 20
20.35889894404028
 30
0.0
 11
135.8160381818898
 21
20.35889894404028
 31
0.0
  0
LINE
  5
136D
330
A
100
AcDbEntity
  8
0
  6
________________
 62
     7
100
AcDbLine
 10
135.8160381818898
 20
20.50000000036732
 30
0.0
 11
135.8160381818898
 21
20.35889894404028
 31
0.0
  0
LINE
  5
136E
330
A
100
AcDbEntity
  8
0
  6
________________
 62
     7
100
AcDbLine
 10
135.8160381818898
 20
-20.35889894304103
 30
0.0
 11
133.81603818189
 21
-20.35889894304103
 31
0.0
  0
LINE
  5
136F
330
A
100
AcDbEntity
  8
0
  6
________________
 62
     7
100
AcDbLine
 10
135.8160381818898
 20
-20.35889894304103
 30
0.0
 11
135.8160381818898
 21
-20.49999999963273
 31
0.0
  0
LINE
  5
1370
330
A
100
AcDbEntity
  8
0
  6
________________
 62
     7
100
AcDbLine
 10
135.8160381818898
 20
19.50000000013227
 30
0.0
 11
135.8160381818898
 21
20.35889894404028
 31
0.0
  0
LINE
  5
1371
330
A
100
AcDbEntity
  8
0
  6
________________
 62
     7
100
AcDbLine
 10
135.8160381818898
 20
-20.35889894304103
 30
0.0
 11
135.8160381818898
 21
-19.49999999985414
 31
0.0
  0
LINE
  5
1372
330
A
100
AcDbEntity
  8
0
  6
________________
 62
     7
100
AcDbLine
 10
134.8160381818894
 20
20.00000000012983
 30
0.0
 11
134.8160381818894
 21
-19.99999999985329
 31
0.0
  0
LINE
  5
1373
330
A
100
AcDbEntity
  8
0
  6
________________
 62
     7
100
AcDbLine
 10
133.8160381818894
 20
-19.99999999985329
 30
0.0
 11
134.8160381818894
 21
-19.99999999985329
 31
0.0
  0
LINE
  5
1374
330
A
100
AcDbEntity
  8
0
  6
________________
 62
     7
100
AcDbLine
 10
134.8160381818894
 20
20.00000000012983
 30
0.0
 11
133.8160381818894
 21
20.00000000012983
 31
0.0
  0
LINE
  5
1375
330
A
100
AcDbEntity
  8
0
  6
________________
 62
     7
100
AcDbLine
 10
148.4160381818893
 20
-9.999999999862268
 30
0.0
 11
148.4160381818893
 21
10.00000000013779
 31
0.0
  0
ARC
  5
1376
330
A
100
AcDbEntity
  8
0
  6
________________
 62
     7
100
AcDbCircle
 10
-151.4160381818893
 20
-9.999999999862268
 30
0.0
 40
3.000000000000003
210
0.0
220
0.0
230
-1.0
100
AcDbArc
 50
270.0
 51
0.0
  0
LINE
  5
1377
330
A
100
AcDbEntity
  8
0
  6
________________
 62
     7
100
AcDbLine
 10
157.9160381818894
 20
-12.99999999986227
 30
0.0
 11
151.4160381818893
 21
-12.99999999986227
 31
0.0
  0
ARC
  5
1378
330
A
100
AcDbEntity
  8
0
  6
________________
 62
     7
100
AcDbCircle
 10
-157.9160381818894
 20
-9.999999999862268
 30
0.0
 40
3.000000000000003
210
0.0
220
0.0
230
-1.0
100
AcDbArc
 50
180.0
 51
270.0
  0
LINE
  5
1379
330
A
100
AcDbEntity
  8
0
  6
________________
 62
     7
100
AcDbLine
 10
160.9160381818894
 20
10.00000000013779
 30
0.0
 11
160.9160381818894
 21
-9.999999999862268
 31
0.0
  0
ARC
  5
137A
330
A
100
AcDbEntity
  8
0
  6
________________
 62
     7
100
AcDbCircle
 10
-157.9160381818894
 20
10.00000000013779
 30
0.0
 40
3.000000000000003
210
0.0
220
0.0
230
-1.0
100
AcDbArc
 50
90.0
 51
180.0
  0
LINE
  5
137B
330
A
100
AcDbEntity
  8
0
  6
________________
 62
     7
100
AcDbLine
 10
151.4160381818893
 20
13.00000000013779
 30
0.0
 11
157.9160381818894
 21
13.00000000013779
 31
0.0
  0
LINE
  5
137C
330
A
100
AcDbEntity
  8
0
  6
________________
 62
     7
100
AcDbLine
 10
156.4160381818893
 20
27.50000000013773
 30
0.0
 11
146.4160381818893
 21
27.50000000013773
 31
0.0
  0
ARC
  5
137D
330
A
100
AcDbEntity
  8
0
  6
________________
 62
     7
100
AcDbCircle
 10
-121.9406325346513
 20
7.215858276653762
 30
0.0
 40
39.99999999999999
210
0.0
220
0.0
230
-1.0
100
AcDbArc
 50
149.5289099348394
 51
172.4612077067492
  0
ARC
  5
137E
330
A
100
AcDbEntity
  8
0
  6
________________
 62
     7
100
AcDbCircle
 10
-67.41603818188935
 20
0.0000000001377884
 30
0.0
 40
94.99999999999996
210
0.0
220
0.0
230
-1.0
100
AcDbArc
 50
172.4612077067491
 51
187.5387922932509
  0
ARC
  5
137F
330
A
100
AcDbEntity
  8
0
  6
________________
 62
     7
100
AcDbCircle
 10
-121.9406325346513
 20
-7.215858276378412
 30
0.0
 40
39.99999999999996
210
0.0
220
0.0
230
-1.0
100
AcDbArc
 50
187.5387922932509
 51
210.4710900651604
  0
LINE
  5
1380
330
A
100
AcDbEntity
  8
0
  6
________________
 62
     7
100
AcDbLine
 10
156.4160381818895
 20
-27.49999999986221
 30
0.0
 11
146.4160381818893
 21
-27.49999999986221
 31
0.0
  0
LINE
  5
1381
330
A
100
AcDbEntity
  8
0
  6
________________
 62
     7
100
AcDbLine
 10
146.4160381818893
 20
27.50000000013773
 30
0.0
 11
146.4160381818893
 21
-27.49999999986221
 31
0.0
  0
ARC
  5
1382
330
A
100
AcDbEntity
  8
0
  6
________________
 62
     7
100
AcDbCircle
 10
-151.4160381818893
 20
10.00000000013779
 30
0.0
 40
2.999999999999975
210
0.0
220
0.0
230
-1.0
100
AcDbArc
 50
0.0
 51
90.0
  0
LINE
  5
1383
330
A
100
AcDbEntity
  8
0
  6
________________
 62
     7
100
AcDbLine
 10
144.3160381818894
 20
-15.49999999986227
 30
0.0
 11
138.4160381818894
 21
-15.49999999986227
 31
0.0
  0
LINE
  5
1384
330
A
100
AcDbEntity
  8
0
  6
________________
 62
   253
100
AcDbLine
 10
138.4160381818893
 20
-12.49999999986227
 30
0.0
 11
144.3160381818893
 21
-12.49999999986227
 31
0.0
  0
LINE
  5
1385
330
A
100
AcDbEntity
  8
0
  6
________________
 62
     7
100
AcDbLine
 10
138.4160381818894
 20
-15.49999999986227
 30
0.0
 11
138.4160381818894
 21
-12.49999999986227
 31
0.0
  0
LINE
  5
1386
330
A
100
AcDbEntity
  8
0
  6
________________
 62
     7
100
AcDbLine
 10
144.3160381818894
 20
-3.999999999862212
 30
0.0
 11
138.4160381818894
 21
-3.999999999862212
 31
0.0
  0
LINE
  5
1387
330
A
100
AcDbEntity
  8
0
  6
________________
 62
     7
100
AcDbLine
 10
138.4160381818893
 20
-3.999999999862212
 30
0.0
 11
138.4160381818893
 21
-12.49999999986227
 31
0.0
  0
LINE
  5
1388
330
A
100
AcDbEntity
  8
0
  6
________________
 62
   253
100
AcDbLine
 10
144.3160381818894
 20
12.50000000013779
 30
0.0
 11
138.4160381818894
 21
12.50000000013779
 31
0.0
  0
LINE
  5
1389
330
A
100
AcDbEntity
  8
0
  6
________________
 62
     7
100
AcDbLine
 10
138.4160381818893
 20
12.50000000013779
 30
0.0
 11
138.4160381818893
 21
4.000000000137788
 31
0.0
  0
LINE
  5
138A
330
A
100
AcDbEntity
  8
0
  6
________________
 62
     7
100
AcDbLine
 10
144.3160381818894
 20
4.000000000137788
 30
0.0
 11
138.4160381818893
 21
4.000000000137788
 31
0.0
  0
LINE
  5
138B
330
A
100
AcDbEntity
  8
0
  6
________________
 62
     7
100
AcDbLine
 10
138.4160381818894
 20
15.50000000013779
 30
0.0
 11
144.3160381818894
 21
15.50000000013779
 31
0.0
  0
LINE
  5
138C
330
A
100
AcDbEntity
  8
0
  6
________________
 62
     7
100
AcDbLine
 10
138.4160381818894
 20
12.50000000013779
 30
0.0
 11
138.4160381818894
 21
15.50000000013779
 31
0.0
  0
LINE
  5
138D
330
A
100
AcDbEntity
  8
0
  6
________________
 62
     7
100
AcDbLine
 10
133.8160381818894
 20
-12.99999999985573
 30
0.0
 11
134.3160381818892
 21
-12.49999999985619
 31
0.0
  0
LINE
  5
138E
330
A
100
AcDbEntity
  8
0
  6
________________
 62
     7
100
AcDbLine
 10
134.3160381818892
 20
-9.499999999857494
 30
0.0
 11
133.8160381818894
 21
-8.999999999857891
 31
0.0
  0
LINE
  5
138F
330
A
100
AcDbEntity
  8
0
  6
________________
 62
     7
100
AcDbLine
 10
133.8160381818894
 20
9.000000000133866
 30
0.0
 11
134.3160381818892
 21
9.500000000133696
 31
0.0
  0
LINE
  5
1390
330
A
100
AcDbEntity
  8
0
  6
________________
 62
     7
100
AcDbLine
 10
134.3160381818892
 20
12.5000000001337
 30
0.0
 11
133.8160381818894
 21
13.00000000013347
 31
0.0
  0
LINE
  5
1391
330
A
100
AcDbEntity
  8
0
  6
________________
 62
     7
100
AcDbLine
 10
136.2160381818881
 20
-8.499999999856925
 30
0.0
 11
135.8160381818892
 21
-8.499999999856925
 31
0.0
  0
LINE
  5
1392
330
A
100
AcDbEntity
  8
0
  6
________________
 62
     7
100
AcDbLine
 10
135.8160381818892
 20
-14.49999999985693
 30
0.0
 11
136.216038181888
 21
-14.49999999985693
 31
0.0
  0
LINE
  5
1393
330
A
100
AcDbEntity
  8
0
  6
________________
 62
     7
100
AcDbLine
 10
138.4160231918894
 20
-8.499999999856925
 30
0.0
 11
136.216038181888
 21
-8.499999999856925
 31
0.0
  0
LINE
  5
1394
330
A
100
AcDbEntity
  8
0
  6
________________
 62
     7
100
AcDbLine
 10
136.2160381818881
 20
-14.49999999985693
 30
0.0
 11
138.4160231918894
 21
-14.49999999985693
 31
0.0
  0
LINE
  5
1395
330
A
100
AcDbEntity
  8
0
  6
________________
 62
     7
100
AcDbLine
 10
138.4160231918895
 20
14.50000000013341
 30
0.0
 11
136.2160381818895
 21
14.50000000013341
 31
0.0
  0
LINE
  5
1396
330
A
100
AcDbEntity
  8
0
  6
________________
 62
     7
100
AcDbLine
 10
136.2160381818894
 20
8.500000000133412
 30
0.0
 11
138.4160231918894
 21
8.500000000133412
 31
0.0
  0
LINE
  5
1397
330
A
100
AcDbEntity
  8
0
  6
________________
 62
     7
100
AcDbLine
 10
136.2160381818895
 20
14.50000000013341
 30
0.0
 11
135.8160381818898
 21
14.50000000013341
 31
0.0
  0
LINE
  5
1398
330
A
100
AcDbEntity
  8
0
  6
________________
 62
     7
100
AcDbLine
 10
135.8160381818892
 20
8.500000000133412
 30
0.0
 11
136.2160381818895
 21
8.500000000133412
 31
0.0
  0
ARC
  5
1399
330
A
100
AcDbEntity
  8
0
  6
________________
 62
   253
100
AcDbCircle
 10
-9.499999999997215
 20
-10.99999999985687
 30
0.0
 40
2.099999999999998
210
0.0
220
0.0
230
-1.0
100
AcDbArc
 50
180.0
 51
90.0
  0
ARC
  5
139A
330
A
100
AcDbEntity
  8
0
  6
________________
 62
   253
100
AcDbCircle
 10
-9.499999999997243
 20
11.0000000001337
 30
0.0
 40
2.099999999999998
210
0.0
220
0.0
230
-1.0
100
AcDbArc
 50
180.0
 51
90.0
  0
ARC
  5
139B
330
A
100
AcDbEntity
  8
0
  6
________________
 62
   253
100
AcDbCircle
 10
9.499999999997215
 20
-10.99999999985687
 30
0.0
 40
2.500000000000002
100
AcDbArc
 50
90.0
 51
0.0
  0
ARC
  5
139C
330
A
100
AcDbEntity
  8
0
  6
________________
 62
   253
100
AcDbCircle
 10
9.499999999997243
 20
11.0000000001337
 30
0.0
 40
2.500000000000002
100
AcDbArc
 50
90.0
 51
0.0
  0
CIRCLE
  5
139D
330
A
100
AcDbEntity
  8
0
  6
________________
 62
     7
100
AcDbCircle
 10
9.499999999997215
 20
-10.99999999985687
 30
0.0
 40
1.500000000000001
  0
CIRCLE
  5
139E
330
A
100
AcDbEntity
  8
0
  6
________________
 62
     7
100
AcDbCircle
 10
9.499999999997243
 20
11.0000000001337
 30
0.0
 40
1.500000000000001
  0
ARC
  5
139F
330
A
100
AcDbEntity
  8
0
  6
________________
 62
     7
100
AcDbCircle
 10
8.000000000101636
 20
-15.49999999994753
 30
0.0
 40
4.999999999999997
100
AcDbArc
 50
180.0000000003758
 51
270.0000000003758
  0
ARC
  5
13A0
330
A
100
AcDbEntity
  8
0
  6
________________
 62
     7
100
AcDbCircle
 10
7.999999999898307
 20
15.50000000005247
 30
0.0
 40
4.999999999999997
100
AcDbArc
 50
90.00000000037586
 51
180.0000000003758
  0
LINE
  5
13A1
330
A
100
AcDbEntity
  8
0
  6
________________
 62
     7
100
AcDbLine
 10
0.0000000001803642
 20
-27.5
 30
0.0
 11
-0.0000000001803642
 21
27.5
 31
0.0
  0
LINE
  5
13A2
330
A
100
AcDbEntity
  8
0
  6
________________
 62
     7
100
AcDbLine
 10
2.999999999898307
 20
15.50000000001972
 30
0.0
 11
2.999999999901604
 21
15.00000000013193
 31
0.0
  0
LINE
  5
13A3
330
A
100
AcDbEntity
  8
0
  6
________________
 62
     7
100
AcDbLine
 10
2.999999999901632
 20
15.00000000013188
 30
0.0
 11
3.000000000098396
 21
-14.99999999988825
 31
0.0
  0
LINE
  5
13A4
330
A
100
AcDbEntity
  8
0
  6
________________
 62
     7
100
AcDbLine
 10
3.000000000098339
 20
-14.99999999988825
 30
0.0
 11
3.000000000101636
 21
-15.49999999998033
 31
0.0
  0
LINE
  5
13A5
330
A
100
AcDbEntity
  8
0
  6
________________
 62
     7
100
AcDbLine
 10
0.0000000001803642
 20
-27.5
 30
0.0
 11
16.00000000018036
 21
-27.49999999989507
 31
0.0
  0
LINE
  5
13A6
330
A
100
AcDbEntity
  8
0
  6
________________
 62
     7
100
AcDbLine
 10
8.000000000134435
 20
-20.49999999994753
 30
0.0
 11
16.00000000013443
 21
-20.49999999989507
 31
0.0
  0
LINE
  5
13A7
330
A
100
AcDbEntity
  8
0
  6
________________
 62
     7
100
AcDbLine
 10
15.99999999986551
 20
20.50000000010493
 30
0.0
 11
7.999999999865508
 21
20.50000000005247
 31
0.0
  0
LINE
  5
13A8
330
A
100
AcDbEntity
  8
0
  6
________________
 62
     7
100
AcDbLine
 10
15.99999999981964
 20
27.50000000010493
 30
0.0
 11
-0.0000000001803642
 21
27.5
 31
0.0
  0
ARC
  5
13A9
330
A
100
AcDbEntity
  8
0
  6
________________
 62
     7
100
AcDbCircle
 10
-7.999999999997897
 20
-14.99999999985539
 30
0.0
 40
5.000000000000004
210
0.0
220
0.0
230
-1.0
100
AcDbArc
 50
270.0000000000002
 51
0.0
  0
LINE
  5
13AA
330
A
100
AcDbEntity
  8
0
  6
________________
 62
     7
100
AcDbLine
 10
3.0
 20
-14.99999999985539
 30
0.0
 11
3.0
 21
15.00000000013188
 31
0.0
  0
ARC
  5
13AB
330
A
100
AcDbEntity
  8
0
  6
________________
 62
     7
100
AcDbCircle
 10
-7.999999999997897
 20
15.00000000013188
 30
0.0
 40
4.999999999999997
210
0.0
220
0.0
230
-1.0
100
AcDbArc
 50
0.0
 51
90.00000000000034
  0
CIRCLE
  5
13AC
330
A
100
AcDbEntity
  8
0
  6
________________
 62
     7
100
AcDbCircle
 10
-9.499999999997215
 20
-10.99999999985687
 30
0.0
 40
2.600000000000005
210
0.0
220
0.0
230
-1.0
  0
CIRCLE
  5
13AD
330
A
100
AcDbEntity
  8
0
  6
________________
 62
     7
100
AcDbCircle
 10
-9.499999999997243
 20
11.0000000001337
 30
0.0
 40
2.600000000000005
210
0.0
220
0.0
230
-1.0
  0
LINE
  5
13AE
330
A
100
AcDbEntity
  8
0
  6
________________
 62
     7
100
AcDbLine
 10
15.99999999999451
 20
-19.99999999985329
 30
0.0
 11
7.999999999997897
 21
-19.99999999985329
 31
0.0
  0
LINE
  5
13AF
330
A
100
AcDbEntity
  8
0
  6
________________
 62
     7
100
AcDbLine
 10
7.999999999997897
 20
20.00000000012977
 30
0.0
 11
15.99999999999454
 21
20.00000000012977
 31
0.0
  0
ARC
  5
13B2
330
A
100
AcDbEntity
  8
0
  6
________________
 62
     7
100
AcDbCircle
 10
-15.98498372646711
 20
0.0000000001377884
 30
0.0
 40
70.01477637625449
210
0.0
220
0.0
230
-1.0
100
AcDbArc
 50
169.7457773366561
 51
190.2542226633441
  0
LINE
  5
13B3
330
A
100
AcDbEntity
  8
0
  6
________________
 62
     7
100
AcDbLine
 10
15.99999999997976
 20
12.46375520502903
 30
0.0
 11
15.99999999997976
 21
-12.46375520475362
 31
0.0
  0
LINE
  5
13B4
330
A
100
AcDbEntity
  8
0
  6
________________
 62
     7
100
AcDbLine
 10
15.99999999997976
 20
27.50000000013773
 30
0.0
 11
80.37196594789845
 21
27.50000000013773
 31
0.0
  0
ARC
  5
13B5
330
A
100
AcDbEntity
  8
0
  6
________________
 62
     7
100
AcDbCircle
 10
-15.9814092540791
 20
-0.0055755116535465
 30
0.0
 40
70.01928645433925
210
0.0
220
0.0
230
-1.0
100
AcDbArc
 50
156.8693844107803
 51
169.7418085333817
  0
LINE
  5
13B6
330
A
100
AcDbEntity
  8
0
  6
________________
 62
     7
100
AcDbLine
 10
15.99999999997976
 20
27.50000000013773
 30
0.0
 11
15.99999999997976
 21
12.46375520502903
 31
0.0
  0
LINE
  5
13B7
330
A
100
AcDbEntity
  8
0
  6
________________
 62
     7
100
AcDbLine
 10
15.99999999997974
 20
-27.49999999986227
 30
0.0
 11
80.37196594789839
 21
-27.49999999986227
 31
0.0
  0
ARC
  5
13B8
330
A
100
AcDbEntity
  8
0
  6
________________
 62
     7
100
AcDbCircle
 10
-15.98411476565082
 20
0.004764107602
 30
0.0
 40
70.01647969210191
210
0.0
220
0.0
230
-1.0
100
AcDbArc
 50
190.2579323662956
 51
203.1308746895426
  0
LINE
  5
13B9
330
A
100
AcDbEntity
  8
0
  6
________________
 62
     7
100
AcDbLine
 10
15.99999999997976
 20
-12.46375520475368
 30
0.0
 11
15.99999999997976
 21
-27.49999999986227
 31
0.0
  0
ELLIPSE
  5
13BA
330
A
100
AcDbEntity
  8
0
  6
________________
 62
     7
100
AcDbEllipse
 10
140.9219425479429
 20
-62.89846488827516
 30
0.0
 11
0.5059644256269303
 21
0.6196773353931738
 31
0.0
210
0.0
220
0.0
230
1.0
 40
0.8164965809275374
 41
0.785398163397569
 42
2.35619449019224
  0
LINE
  5
13BB
330
A
100
AcDbEntity
  8
0
  6
________________
 62
     7
100
AcDbLine
 10
143.6410012085799
 20
-61.61314261999723
 30
0.0
 11
140.9219425479429
 21
-62.16816814493524
 31
0.0
  0
LINE
  5
13BC
330
A
100
AcDbEntity
  8
0
  6
________________
 62
     7
100
AcDbLine
 10
140.9219425479429
 20
-90.649741135194
 30
0.0
 11
143.6410012085799
 21
-90.094715610256
 31
0.0
  0
ELLIPSE
  5
13BD
330
A
100
AcDbEntity
  8
0
  6
________________
 62
     7
100
AcDbEllipse
 10
140.9219425479429
 20
-89.91944439185403
 30
0.0
 11
0.5059644256269427
 21
0.6196773353931889
 31
0.0
210
0.0
220
0.0
230
1.0
 40
0.8164965809275375
 41
2.356194490192234
 42
3.141592653589671
  0
LINE
  5
13BE
330
A
100
AcDbEntity
  8
0
  6
________________
 62
     7
100
AcDbLine
 10
140.206400795143
 20
-63.04452423694323
 30
0.0
 11
140.206400795143
 21
-90.06550374052205
 31
0.0
  0
LINE
  5
13BF
330
A
100
AcDbEntity
  8
0
  6
________________
 62
   253
100
AcDbLine
 10
140.206400795143
 20
-63.04452423694323
 30
0.0
 11
139.8486299187431
 21
-62.7524055396072
 31
0.0
  0
ELLIPSE
  5
13C0
330
A
100
AcDbEntity
  8
0
  6
________________
 62
     7
100
AcDbEllipse
 10
140.5641716715429
 20
-62.60634619093918
 30
0.0
 11
-0.5059644256269247
 21
-0.6196773353931669
 31
0.0
210
0.0
220
0.0
230
-1.0
 40
0.8164965809275374
 41
0.7853981633975693
 42
2.356194490192235
  0
LINE
  5
13C1
330
A
100
AcDbEntity
  8
0
  6
________________
 62
   253
100
AcDbLine
 10
140.5641716715429
 20
-61.87604944759926
 30
0.0
 11
140.9219425479429
 21
-62.16816814493524
 31
0.0
  0
LINE
  5
13C2
330
A
100
AcDbEntity
  8
0
  6
________________
 62
   253
100
AcDbLine
 10
139.8486299187431
 20
-89.77338504318607
 30
0.0
 11
140.206400795143
 21
-90.0655037405221
 31
0.0
  0
LINE
  5
13C3
330
A
100
AcDbEntity
  8
0
  6
________________
 62
     7
100
AcDbLine
 10
139.8486299187431
 20
-62.7524055396072
 30
0.0
 11
139.8486299187431
 21
-89.77338504318607
 31
0.0
  0
LINE
  5
13C4
330
A
100
AcDbEntity
  8
0
  6
________________
 62
     7
100
AcDbLine
 10
143.6410012085799
 20
-61.24799424832725
 30
0.0
 11
140.5641716715429
 21
-61.87604944759926
 31
0.0
  0
ELLIPSE
  5
13C5
330
A
100
AcDbEntity
  8
0
  6
________________
 62
     7
100
AcDbEllipse
 10
140.564171671543
 20
-89.62732569451799
 30
0.0
 11
-0.505964425626944
 21
-0.6196773353931906
 31
0.0
210
0.0
220
0.0
230
-1.0
 40
0.8164965809275377
 41
0.0
 42
0.7853981633974436
  0
ELLIPSE
  5
13C6
330
A
100
AcDbEntity
  8
0
  6
________________
 62
     7
100
AcDbEllipse
 10
140.9219425479429
 20
-89.91944439185403
 30
0.0
 11
0.5059644256269427
 21
0.6196773353931889
 31
0.0
210
0.0
220
0.0
230
1.0
 40
0.8164965809275379
 41
3.141592653589793
 42
3.926990816987248
  0
ELLIPSE
  5
13C7
330
A
100
AcDbEntity
  8
0
  6
________________
 62
     7
100
AcDbEllipse
 10
134.6609522109532
 20
-85.17251556014236
 30
0.0
 11
0.7589466384404118
 21
0.9295160030897806
 31
0.0
210
0.0
220
0.0
230
1.0
 40
0.8164965809277263
 41
0.0
 42
6.283185307179586
  0
ELLIPSE
  5
13C8
330
A
100
AcDbEntity
  8
0
  6
________________
 62
     7
100
AcDbEllipse
 10
134.6609522109532
 20
-69.10598720666434
 30
0.0
 11
0.7589466384404118
 21
0.9295160030897806
 31
0.0
210
0.0
220
0.0
230
1.0
 40
0.8164965809277263
 41
0.0
 42
6.283185307179586
  0
LINE
  5
13C9
330
A
100
AcDbEntity
  8
0
  6
________________
 62
     7
100
AcDbLine
 10
139.1330881658259
 20
-55.96064582658749
 30
0.0
 11
127.684420121027
 21
-58.29759540535287
 31
0.0
  0
LINE
  5
13CA
330
A
100
AcDbEntity
  8
0
  6
________________
 62
     7
100
AcDbLine
 10
127.684420121027
 20
-58.29759540535287
 30
0.0
 11
126.4250666360991
 21
-57.26933759072978
 31
0.0
  0
LINE
  5
13CB
330
A
100
AcDbEntity
  8
0
  6
________________
 62
     7
100
AcDbLine
 10
126.4250666360991
 20
-57.26933759072978
 30
0.0
 11
183.9345334581108
 21
-45.53026683255757
 31
0.0
  0
LINE
  5
13CC
330
A
100
AcDbEntity
  8
0
  6
________________
 62
     7
100
AcDbLine
 10
183.9345334581108
 20
-45.53026683255757
 30
0.0
 11
185.9094286958386
 21
-47.14276204185279
 31
0.0
  0
LINE
  5
13CD
330
A
100
AcDbEntity
  8
0
  6
________________
 62
     7
100
AcDbLine
 10
139.8486299186258
 20
-56.54488322125968
 30
0.0
 11
185.9094286958385
 21
-47.14276204185279
 31
0.0
  0
LINE
  5
13CE
330
A
100
AcDbEntity
  8
0
  6
________________
 62
     7
100
AcDbLine
 10
139.8486299186258
 20
-56.54488322125968
 30
0.0
 11
139.1330881658259
 21
-55.96064582658749
 31
0.0
  0
ELLIPSE
  5
13CF
330
A
100
AcDbEntity
  8
0
  6
________________
 62
     7
100
AcDbEllipse
 10
139.2638895817127
 20
-95.01427884325824
 30
0.0
 11
-6.400000000201477
 21
31.35346870758358
 31
0.0
210
0.0
220
0.0
230
-1.0
 40
0.4082482904611855
 41
4.718492354565697
 42
4.996341093068093
  0
ELLIPSE
  5
13D0
330
A
100
AcDbEntity
  8
0
  6
________________
 62
     7
100
AcDbEllipse
 10
158.6244455122251
 20
-103.6431807928075
 30
0.0
 11
-15.20000000047851
 21
74.46448818051094
 31
0.0
210
0.0
220
0.0
230
-1.0
 40
0.4082482904611859
 41
4.996341093068093
 42
5.355732085708146
  0
ELLIPSE
  5
13D1
330
A
100
AcDbEntity
  8
0
  6
________________
 62
     7
100
AcDbEllipse
 10
139.2638895816204
 20
-80.65642729803477
 30
0.0
 11
-6.400000000201479
 21
31.35346870758359
 31
0.0
210
0.0
220
0.0
230
-1.0
 40
0.4082482904611853
 41
5.355732085708145
 42
5.633580824210544
  0
LINE
  5
13D2
330
A
100
AcDbEntity
  8
0
  6
________________
 62
     7
100
AcDbLine
 10
127.6844201212851
 20
-98.46391628901233
 30
0.0
 11
127.684420121027
 21
-58.29759540535287
 31
0.0
  0
LINE
  5
13D3
330
A
100
AcDbEntity
  8
0
  6
________________
 62
     7
100
AcDbLine
 10
126.4250666363572
 20
-97.4356584743893
 30
0.0
 11
127.6844201212851
 21
-98.46391628901233
 31
0.0
  0
ELLIPSE
  5
13D4
330
A
100
AcDbEntity
  8
0
  6
________________
 62
     7
100
AcDbEllipse
 10
133.4087541434828
 20
-65.89268153604132
 30
0.0
 11
2.529822128134709
 21
3.098386676965939
 31
0.0
210
0.0
220
0.0
230
1.0
 40
0.8164965809277263
 41
0.7853981634040091
 42
2.3561944901989
  0
LINE
  5
13D5
330
A
100
AcDbEntity
  8
0
  6
________________
 62
     7
100
AcDbLine
 10
129.8310453794831
 20
-66.62297827940552
 30
0.0
 11
129.8310453794855
 21
-66.98812665092129
 31
0.0
  0
LINE
  5
13D6
330
A
100
AcDbEntity
  8
0
  6
________________
 62
     7
100
AcDbLine
 10
129.8310453794854
 20
-66.98812665092129
 30
0.0
 11
129.8310453796262
 21
-88.89702895120007
 31
0.0
  0
LINE
  5
13D7
330
A
100
AcDbEntity
  8
0
  6
________________
 62
     7
100
AcDbLine
 10
129.8310453796262
 20
-88.89702895120007
 30
0.0
 11
129.8310453796286
 21
-89.2621773229227
 31
0.0
  0
ELLIPSE
  5
13D8
330
A
100
AcDbEntity
  8
0
  6
________________
 62
     7
100
AcDbEllipse
 10
133.4087541436282
 20
-88.5318805795585
 30
0.0
 11
2.529822128134709
 21
3.098386676965939
 31
0.0
210
0.0
220
0.0
230
1.0
 40
0.8164965809277263
 41
2.356194490198904
 42
3.141592653589793
  0
LINE
  5
13D9
330
A
100
AcDbEntity
  8
0
  6
________________
 62
     7
100
AcDbLine
 10
133.4087541436517
 20
-92.18336429625487
 30
0.0
 11
139.1330881660512
 21
-91.01488950687212
 31
0.0
  0
LINE
  5
13DA
330
A
100
AcDbEntity
  8
0
  6
________________
 62
     7
100
AcDbLine
 10
139.1330881660512
 20
-91.01488950687212
 30
0.0
 11
139.1330881660841
 21
-96.12696671024702
 31
0.0
  0
LINE
  5
13DB
330
A
100
AcDbEntity
  8
0
  6
________________
 62
     7
100
AcDbLine
 10
127.6844201212851
 20
-98.46391628901233
 30
0.0
 11
139.1330881660841
 21
-96.12696671024702
 31
0.0
  0
LINE
  5
13DC
330
A
100
AcDbEntity
  8
0
  6
________________
 62
     7
100
AcDbLine
 10
139.1330881658259
 20
-55.96064582658749
 30
0.0
 11
139.1330881658587
 21
-61.07272302996239
 31
0.0
  0
LINE
  5
13DD
330
A
100
AcDbEntity
  8
0
  6
________________
 62
     7
100
AcDbLine
 10
139.1330881658588
 20
-61.07272302996239
 30
0.0
 11
133.4087541434594
 21
-62.24119781934508
 31
0.0
  0
LINE
  5
13DE
330
A
100
AcDbEntity
  8
0
  6
________________
 62
     7
100
AcDbLine
 10
139.8486299186587
 20
-61.65696042463446
 30
0.0
 11
139.8486299186259
 21
-56.54488322125962
 31
0.0
  0
ELLIPSE
  5
13DF
330
A
100
AcDbEntity
  8
0
  6
________________
 62
     7
100
AcDbEllipse
 10
139.8486299187549
 20
-76.62811669276374
 30
0.0
 11
-35.41750979388588
 21
-43.37741347752308
 31
0.0
210
0.0
220
0.0
230
-1.0
 40
0.8164965809277264
 41
3.523252782464663
 42
3.604274010244377
  0
LINE
  5
13E0
330
A
100
AcDbEntity
  8
0
  6
________________
 62
     7
100
AcDbLine
 10
143.6410012085799
 20
-95.93708955698247
 30
0.0
 11
139.8486299188839
 21
-96.7112041049192
 31
0.0
  0
LINE
  5
13E1
330
A
100
AcDbEntity
  8
0
  6
________________
 62
     7
100
AcDbLine
 10
139.8486299188839
 20
-96.71120410491915
 30
0.0
 11
139.8486299188511
 21
-91.59912690154431
 31
0.0
  0
LINE
  5
13E2
330
A
100
AcDbEntity
  8
0
  6
________________
 62
     7
100
AcDbLine
 10
143.6410012085799
 20
-90.82501235360093
 30
0.0
 11
139.8486299188511
 21
-91.59912690154431
 31
0.0
  0
LINE
  5
13E3
330
A
100
AcDbEntity
  8
0
  6
________________
 62
     7
100
AcDbLine
 10
139.8486299186587
 20
-61.65696042463446
 30
0.0
 11
143.6410012085799
 21
-60.88284587665186
 31
0.0
  0
LINE
  5
13E4
330
A
100
AcDbEntity
  8
0
  6
________________
 62
     7
100
AcDbLine
 10
139.8486299186587
 20
-61.65696042463446
 30
0.0
 11
139.1330881658587
 21
-61.07272302996233
 31
0.0
  0
ELLIPSE
  5
13E5
330
A
100
AcDbEntity
  8
0
  6
________________
 62
     7
100
AcDbEllipse
 10
131.6198997616283
 20
-87.07128709287804
 30
0.0
 11
-2.529822128134709
 21
-3.098386676965939
 31
0.0
210
0.0
220
0.0
230
-1.0
 40
0.8164965809277265
 41
5.904873025316643
 42
5.921818183272184
  0
ELLIPSE
  5
13E6
330
A
100
AcDbEntity
  8
0
  6
________________
 62
     7
100
AcDbEllipse
 10
163.461507761067
 20
-58.48016959094434
 30
0.0
 11
2.529822128134702
 21
3.098386676965931
 31
0.0
210
0.0
220
0.0
230
1.0
 40
0.8164965809277261
 41
0.125410833950128
 42
1.445385492844772
  0
ELLIPSE
  5
13E7
330
A
100
AcDbEntity
  8
0
  6
________________
 62
     7
100
AcDbEllipse
 10
133.4087541436282
 20
-88.5318805795585
 30
0.0
 11
2.529822128134708
 21
3.098386676965939
 31
0.0
210
0.0
220
0.0
230
1.0
 40
0.8164965809277259
 41
3.141592653589793
 42
3.926990816993805
  0
LINE
  5
13E8
330
A
100
AcDbEntity
  8
0
  6
________________
 62
   253
100
AcDbLine
 10
133.4087541436517
 20
-92.18336429625487
 30
0.0
 11
133.030982876536
 21
-91.87491534828217
 31
0.0
  0
LINE
  5
13E9
330
A
100
AcDbEntity
  8
0
  6
________________
 62
     7
100
AcDbLine
 10
162.24088496922
 20
-55.29693348127813
 30
0.0
 11
164.68213055287
 21
-54.79861631319801
 31
0.0
  0
LINE
  5
13EA
330
A
100
AcDbEntity
  8
0
  6
________________
 62
     7
100
AcDbLine
 10
139.1330881660512
 20
-91.01488950687212
 30
0.0
 11
139.8486299188511
 21
-91.59912690154431
 31
0.0
  0
LINE
  5
13EB
330
A
100
AcDbEntity
  8
0
  6
________________
 62
     7
100
AcDbLine
 10
139.1330881660841
 20
-96.12696671024702
 30
0.0
 11
139.848629918884
 21
-96.71120410491915
 31
0.0
  0
ELLIPSE
  5
13EC
330
A
100
AcDbEntity
  8
0
  6
________________
 62
     7
100
AcDbEllipse
 10
177.7723428170657
 20
-55.55898261748763
 30
0.0
 11
2.529822128134699
 21
3.098386676965927
 31
0.0
210
0.0
220
0.0
230
1.0
 40
0.8164965809277263
 41
0.1254108339073335
 42
1.44538549288756
  0
LINE
  5
13ED
330
A
100
AcDbEntity
  8
0
  6
________________
 62
     7
100
AcDbLine
 10
176.5517200252186
 20
-52.37574650782148
 30
0.0
 11
178.9929656088686
 21
-51.87742933974135
 31
0.0
  0
LINE
  5
13EE
330
A
100
AcDbEntity
  8
0
  6
________________
 62
     7
100
AcDbLine
 10
133.4087541435538
 20
-62.60634619093912
 30
0.0
 11
139.1330881659508
 21
-61.43787140159532
 31
0.0
  0
LINE
  5
13EF
330
A
100
AcDbEntity
  8
0
  6
________________
 62
     7
100
AcDbLine
 10
139.1330881659509
 20
-61.43786775011159
 30
0.0
 11
139.1330881659509
 21
-90.64974113519185
 31
0.0
  0
LINE
  5
13F0
330
A
100
AcDbEntity
  8
0
  6
________________
 62
     7
100
AcDbLine
 10
139.1330881659508
 20
-90.64974113519185
 30
0.0
 11
133.4087541435538
 21
-91.8182159245357
 31
0.0
  0
ELLIPSE
  5
13F1
330
A
100
AcDbEntity
  8
0
  6
________________
 62
     7
100
AcDbEllipse
 10
133.4087541435538
 20
-88.16673220783616
 30
0.0
 11
-2.529822128134702
 21
-3.098386676965931
 31
0.0
210
0.0
220
0.0
230
-1.0
 40
0.8164965809277266
 41
5.497787143782134
 42
6.283185307179586
  0
LINE
  5
13F2
330
A
100
AcDbEntity
  8
0
  6
________________
 62
     7
100
AcDbLine
 10
129.8310453795556
 20
-88.89702895117608
 30
0.0
 11
129.8310453795556
 21
-66.98812665097864
 31
0.0
  0
ELLIPSE
  5
13F3
330
A
100
AcDbEntity
  8
0
  6
________________
 62
     7
100
AcDbEllipse
 10
133.4087541435538
 20
-66.25782990763872
 30
0.0
 11
-2.529822128134709
 21
-3.098386676965939
 31
0.0
210
0.0
220
0.0
230
-1.0
 40
0.8164965809277265
 41
0.7853981633974488
 42
2.356194490192344
  0
ELLIPSE
  5
13F4
330
A
100
AcDbEntity
  8
0
  6
________________
 62
     7
100
AcDbEllipse
 10
134.4820667727532
 20
-85.0264562114744
 30
0.0
 11
-1.315507506630044
 21
-1.611161072022283
 31
0.0
210
0.0
220
0.0
230
-1.0
 40
0.8164965809277271
 41
0.0
 42
6.283185307179586
  0
ELLIPSE
  5
13F5
330
A
100
AcDbEntity
  8
0
  6
________________
 62
     7
100
AcDbEllipse
 10
134.4820667727533
 20
-68.95992785799638
 30
0.0
 11
-1.315507506630044
 21
-1.611161072022283
 31
0.0
210
0.0
220
0.0
230
-1.0
 40
0.8164965809277271
 41
0.0
 42
6.283185307179586
  0
LINE
  5
13F6
330
A
100
AcDbEntity
  8
0
  6
________________
 62
   253
100
AcDbLine
 10
133.4087541435538
 20
-62.60634619093912
 30
0.0
 11
133.0673133405741
 21
-62.3275609427169
 31
0.0
  0
LINE
  5
13F7
330
A
100
AcDbEntity
  8
0
  6
________________
 62
     7
100
AcDbLine
 10
139.8486299186551
 20
-61.65696042461695
 30
0.0
 11
139.4908590423508
 21
-61.72999009893141
 31
0.0
  0
LINE
  5
13F8
330
A
100
AcDbEntity
  8
0
  6
________________
 62
     7
100
AcDbLine
 10
139.4908590423508
 20
-61.72999009893141
 30
0.0
 11
139.1330881659509
 21
-61.43787140159532
 31
0.0
  0
LINE
  5
13F9
330
A
100
AcDbEntity
  8
0
  6
________________
 62
     7
100
AcDbLine
 10
139.4908590423508
 20
-61.72999009893141
 30
0.0
 11
139.4908590423508
 21
-90.94185983252794
 31
0.0
  0
LINE
  5
13FA
330
A
100
AcDbEntity
  8
0
  6
________________
 62
     7
100
AcDbLine
 10
139.1330881659508
 20
-90.64974113519185
 30
0.0
 11
139.4908590423508
 21
-90.94185983252794
 31
0.0
  0
LINE
  5
13FB
330
A
100
AcDbEntity
  8
0
  6
________________
 62
     7
100
AcDbLine
 10
139.4908590423508
 20
-90.94185983252794
 30
0.0
 11
140.9219425479428
 21
-90.6497411351935
 31
0.0
  0
ELLIPSE
  5
13FC
330
A
100
AcDbEntity
  8
0
  6
________________
 62
     7
100
AcDbEllipse
 10
133.4087541435538
 20
-88.16673220783616
 30
0.0
 11
-2.529822128134702
 21
-3.098386676965931
 31
0.0
210
0.0
220
0.0
230
-1.0
 40
0.8164965809277266
 41
0.0
 42
0.7853981633974464
  0
ELLIPSE
  5
13FD
330
A
100
AcDbEntity
  8
0
  6
________________
 62
     7
100
AcDbEllipse
 10
174.1946340531322
 20
-56.47185354688344
 30
0.0
 11
2.529822128134716
 21
3.098386676965948
 31
0.0
210
0.0
220
0.0
230
1.0
 40
0.8164965809277257
 41
0.2118850589771673
 42
0.3110363960388832
  0
ELLIPSE
  5
13FE
330
A
100
AcDbEntity
  8
0
  6
________________
 62
     7
100
AcDbEllipse
 10
145.4298555905797
 20
-73.88212790810906
 30
0.0
 11
-0.4799999999999993
 21
2.35151015307185
 31
0.0
210
0.0
220
0.0
230
-1.0
 40
0.4082482904638631
 41
5.176036589385492
 42
6.283185307179586
  0
LINE
  5
13FF
330
A
100
AcDbEntity
  8
0
  6
________________
 62
     7
100
AcDbLine
 10
144.3565429613798
 20
-87.61170668290526
 30
0.0
 11
144.3565429613798
 21
-73.00577181610078
 31
0.0
  0
ELLIPSE
  5
1400
330
A
100
AcDbEntity
  8
0
  6
________________
 62
     7
100
AcDbEllipse
 10
145.4298555905797
 20
-88.48806277491343
 30
0.0
 11
-0.480000000000002
 21
2.351510153071863
 31
0.0
210
0.0
220
0.0
230
-1.0
 40
0.4082482904638631
 41
3.605240262590601
 42
5.176036589385491
  0
LINE
  5
1401
330
A
100
AcDbEntity
  8
0
  6
________________
 62
     7
100
AcDbLine
 10
147.7553662871795
 20
-92.57772453761868
 30
0.0
 11
145.4298555905797
 21
-90.6789530049341
 31
0.0
  0
ELLIPSE
  5
1402
330
A
100
AcDbEntity
  8
0
  6
________________
 62
     7
100
AcDbEllipse
 10
147.7553662871795
 20
-90.38683430759801
 30
0.0
 11
-0.4800000000000042
 21
2.351510153071875
 31
0.0
210
0.0
220
0.0
230
-1.0
 40
0.408248290463863
 41
2.034443935795697
 42
3.141592653589784
  0
LINE
  5
1403
330
A
100
AcDbEntity
  8
0
  6
________________
 62
     7
100
AcDbLine
 10
148.8286789163794
 20
-76.65725553280191
 30
0.0
 11
148.8286789163794
 21
-91.26319039960634
 31
0.0
  0
ELLIPSE
  5
1404
330
A
100
AcDbEntity
  8
0
  6
________________
 62
     7
100
AcDbEllipse
 10
147.7553662871795
 20
-75.78089944079363
 30
0.0
 11
-0.4800000000000042
 21
2.351510153071875
 31
0.0
210
0.0
220
0.0
230
-1.0
 40
0.408248290463863
 41
0.4636476090008073
 42
2.034443935795703
  0
LINE
  5
1405
330
A
100
AcDbEntity
  8
0
  6
________________
 62
     7
100
AcDbLine
 10
145.4298555905797
 20
-71.69123767808838
 30
0.0
 11
147.7553662871795
 21
-73.59000921077296
 31
0.0
  0
LINE
  5
1406
330
A
100
AcDbEntity
  8
0
  6
________________
 62
     7
100
AcDbLine
 10
147.2187099725796
 20
-62.5625283863356
 30
0.0
 11
143.6410012085799
 21
-59.64134141297467
 31
0.0
  0
ELLIPSE
  5
1407
330
A
100
AcDbEntity
  8
0
  6
________________
 62
     7
100
AcDbEllipse
 10
134.8844138799228
 20
-67.30506044064305
 30
0.0
 11
-6.399999999999999
 21
31.35346870762471
 31
0.0
210
0.0
220
0.0
230
-1.0
 40
0.408248290463863
 41
1.502623087486918
 42
1.902867188654501
  0
ELLIPSE
  5
1408
330
A
100
AcDbEntity
  8
0
  6
________________
 62
     7
100
AcDbEllipse
 10
115.3771019729825
 20
-56.64712476527978
 30
0.0
 11
-15.2
 21
74.46448818060868
 31
0.0
210
0.0
220
0.0
230
-1.0
 40
0.408248290463863
 41
1.902867188654501
 42
2.166020682936906
  0
ELLIPSE
  5
1409
330
A
100
AcDbEntity
  8
0
  6
________________
 62
     7
100
AcDbEllipse
 10
134.8844138799228
 20
-77.84449604013162
 30
0.0
 11
-6.399999999999991
 21
31.35346870762467
 31
0.0
210
0.0
220
0.0
230
-1.0
 40
0.408248290463863
 41
2.166020682936907
 42
2.566264784104484
  0
LINE
  5
140A
330
A
100
AcDbEntity
  8
0
  6
________________
 62
     7
100
AcDbLine
 10
147.2187099725796
 20
-102.7288492700478
 30
0.0
 11
143.64100120858
 21
-99.80766229668694
 31
0.0
  0
LINE
  5
140B
330
A
100
AcDbEntity
  8
0
  6
________________
 62
     7
100
AcDbLine
 10
143.6410012085799
 20
-59.64134141297473
 30
0.0
 11
143.6410012085799
 21
-99.80766229668694
 31
0.0
  0
ARC
  5
140C
330
A
100
AcDbEntity
  8
0
  6
________________
 62
     7
100
AcDbCircle
 10
-158.6259221441498
 20
-75.04117344019562
 30
0.0
 40
40.98342820266095
210
0.0
220
0.0
230
-1.0
100
AcDbArc
 50
147.7311198548962
 51
165.8113491727765
  0
LINE
  5
140E
330
A
100
AcDbEntity
  8
0
  6
________________
 62
     7
100
AcDbLine
 10
147.2187099725796
 20
-62.5625283863356
 30
0.0
 11
193.2795393181309
 21
-53.16040096750106
 31
0.0
  0
LINE
  5
140F
330
A
100
AcDbEntity
  8
0
  6
________________
 62
     7
100
AcDbLine
 10
189.7018305541312
 20
-50.23921399414019
 30
0.0
 11
143.6410012085799
 21
-59.64134141297467
 31
0.0
  0
LINE
  5
1410
330
A
100
AcDbEntity
  8
0
  6
________________
 62
     7
100
AcDbLine
 10
189.7018305541312
 20
-50.23921399414019
 30
0.0
 11
193.2795393181309
 21
-53.16040096750106
 31
0.0
  0
ARC
  5
1411
330
A
100
AcDbEntity
  8
0
  6
________________
 62
     7
100
AcDbCircle
 10
-161.0132368479049
 20
-74.09774580861256
 30
0.0
 40
38.43910460222329
210
0.0
220
0.0
230
-1.0
100
AcDbArc
 50
166.3024645937922
 51
193.6975354062079
  0
ELLIPSE
  5
1413
330
A
100
AcDbEntity
  8
0
  6
________________
 62
     7
100
AcDbEllipse
 10
145.4298555905797
 20
-73.88212790810906
 30
0.0
 11
-0.4799999999999992
 21
2.35151015307185
 31
0.0
210
0.0
220
0.0
230
-1.0
 40
0.4082482904638631
 41
0.0
 42
0.4636476090008086
  0
LINE
  5
1414
330
A
100
AcDbEntity
  8
0
  6
________________
 62
   253
100
AcDbLine
 10
144.3565429613798
 20
-73.00577181610078
 30
0.0
 11
146.5031682197796
 21
-72.56759377009666
 31
0.0
  0
ELLIPSE
  5
1415
330
A
100
AcDbEntity
  8
0
  6
________________
 62
     7
100
AcDbEllipse
 10
147.7553662871795
 20
-90.38683430759801
 30
0.0
 11
-0.4800000000000042
 21
2.351510153071875
 31
0.0
210
0.0
220
0.0
230
-1.0
 40
0.4082482904638629
 41
3.141592653589784
 42
3.6052402625906
  0
LINE
  5
1416
330
A
100
AcDbEntity
  8
0
  6
________________
 62
   253
100
AcDbLine
 10
147.7553662871795
 20
-92.57772453761868
 30
0.0
 11
148.6140163905394
 21
-92.40245331921705
 31
0.0
  0
ARC
  5
1417
330
A
100
AcDbEntity
  8
0
  6
________________
 62
     7
100
AcDbCircle
 10
-173.8760528480631
 20
-77.25661709616367
 30
0.0
 40
25.19411744896761
210
0.0
220
0.0
230
-1.0
100
AcDbArc
 50
193.6448590449259
 51
219.6317946804835
  0
LINE
  5
1418
330
A
100
AcDbEntity
  8
0
  6
________________
 62
     7
100
AcDbLine
 10
147.2187099725796
 20
-102.7288492700478
 30
0.0
 11
193.279539318131
 21
-93.32672185121334
 31
0.0
  0
LINE
  5
1419
330
A
100
AcDbEntity
  8
0
  6
________________
 62
   253
100
AcDbLine
 10
144.3565429613798
 20
-87.61170668290526
 30
0.0
 11
148.8286789163794
 21
-86.69883575372995
 31
0.0
  0
LINE
  5
141A
330
A
100
AcDbEntity
  8
0
  6
________________
 62
   253
100
AcDbLine
 10
145.4298555905797
 20
-90.6789530049341
 30
0.0
 11
148.8286789163794
 21
-89.98517109876093
 31
0.0
  0
LINE
  5
141B
330
A
100
AcDbEntity
  8
0
  6
________________
 62
     7
100
AcDbLine
 10
140.0582072459162
 20
-90.24700302991107
 30
0.0
 11
140.415978122316
 21
-90.53912172724705
 31
0.0
  0
LINE
  5
141C
330
A
100
AcDbEntity
  8
0
  6
________________
 62
     7
100
AcDbLine
 10
130.1234210282348
 20
-90.64824674691062
 30
0.0
 11
130.8789320154201
 21
-91.26511888480076
 31
0.0
  0
LINE
  5
141D
330
A
100
AcDbEntity
  8
0
  6
CENTER
 62
     1
100
AcDbLine
 10
-3.456180667328908
 20
-0.1114005101125883
 30
0.0
 11
44.99999999997976
 21
-0.1114005101125883
 31
0.0
  0
TEXT
  5
141E
330
A
100
AcDbEntity
  8
0
  6
Continuous
 62
     7
100
AcDbText
 10
76.33605453242254
 20
-54.27779350232397
 30
0.0
 40
10.0
  1
6415
100
AcDbText
1001
ACAD
1000
MTEXTBEGIN
1070
    73
1070
     1
1070
    44
1040
1.0
1070
    74
1070
     0
1000
MTEXTEND
  0
LINE
  5
145E
330
A
100
AcDbEntity
  8
0
  6
CENTER
 62
     1
100
AcDbLine
 10
50.99999999997978
 20
21.88859948988741
 30
0.0
 11
50.99999999997976
 21
-22.11140051011259
 31
0.0
  0
LINE
  5
1460
330
A
100
AcDbEntity
  8
0
  6
CENTER
 62
     1
100
AcDbLine
 10
36.99999999997976
 20
-8.111400510112588
 30
0.0
 11
64.99999999997976
 21
-8.111400510112588
 31
0.0
  0
ARC
  5
146E
330
A
100
AcDbEntity
  8
0
  6
CENTER
 62
     1
100
AcDbCircle
 10
50.99999999997976
 20
-8.111400510112588
 30
0.0
 40
10.0
100
AcDbArc
 50
126.869897645844
 51
53.13010235415597
  0
ARC
  5
146F
330
A
100
AcDbEntity
  8
0
  6
CENTER
 62
     1
100
AcDbCircle
 10
50.99999999997976
 20
7.888599489887412
 30
0.0
 40
10.0
100
AcDbArc
 50
306.869897645844
 51
233.130102354156
  0
LINE
  5
1470
330
A
100
AcDbEntity
  8
0
  6
CENTER
 62
     1
100
AcDbLine
 10
56.99999999997976
 20
-0.1114005101125883
 30
0.0
 11
94.29878323480585
 21
-0.1114005101125883
 31
0.0
  0
LINE
  5
1476
330
A
100
AcDbEntity
  8
0
  6
CENTER
 62
     1
100
AcDbLine
 10
36.99999999997977
 20
-0.1114005101125883
 30
0.0
 11
64.99999999997976
 21
-0.1114005101125883
 31
0.0
  0
ENDSEC
  0
SECTION
  2
OBJECTS
  0
DICTIONARY
  5
19
330
0
100
AcDbDictionary
281
     1
  3
ACAD_GROUP
350
1A
  3
ACAD_IMAGE_VARS
350
101E
  3
ACAD_LAYOUT
350
1444
  3
ACAD_MATERIAL
350
1447
  3
ACAD_MLEADERSTYLE
350
147C
  3
ACAD_MLINESTYLE
350
1B
  3
ACAD_SCALELIST
350
1422
  3
ACAD_TABLESTYLE
350
145C
  3
ACAD_VISUALSTYLE
350
144B
  3
ACAD_WIPEOUT_VARS
350
23
  3
ACDB_RECOMPOSE_DATA
350
1482
  3
ACDBVARIABLEDICTIONARY
350
880
  3
APPDATA
350
101D
  3
ASE_INDEX_DICTIONARY
350
872
  0
DICTIONARY
  5
8AF
330
A
100
AcDbDictionary
280
     1
281
     1
  3
ACAD_SORTENTS
360
8B0
  0
DICTIONARY
  5
1A
102
{ACAD_REACTORS
330
19
102
}
330
19
100
AcDbDictionary
281
     1
  0
RASTERVARIABLES
  5
101E
102
{ACAD_REACTORS
330
19
102
}
330
19
100
AcDbRasterVariables
 90
        0
 70
     1
 71
     1
 72
     0
  0
DICTIONARY
  5
1444
102
{ACAD_REACTORS
330
19
102
}
330
19
100
AcDbDictionary
281
     1
  3
Foglio 1
350
1446
  3
Model
350
1445
  0
DICTIONARY
  5
1447
102
{ACAD_REACTORS
330
19
102
}
330
19
100
AcDbDictionary
281
     1
  3
ByBlock
350
1449
  3
ByLayer
350
1448
  3
Global
350
144A
  0
DICTIONARY
  5
147C
102
{ACAD_REACTORS
330
19
102
}
330
19
100
AcDbDictionary
281
     1
  0
DICTIONARY
  5
1B
102
{ACAD_REACTORS
330
19
102
}
330
19
100
AcDbDictionary
281
     1
  3
STANDARD
350
1C
  0
DICTIONARY
  5
1422
102
{ACAD_REACTORS
330
19
102
}
330
19
100
AcDbDictionary
281
     1
  3
A0
350
1423
  3
A1
350
1424
  3
A2
350
1425
  3
A3
350
1426
  3
A4
350
1427
  3
A5
350
1428
  3
A6
350
1429
  3
A7
350
142A
  3
A8
350
142B
  3
A9
350
142C
  3
B0
350
142D
  3
B1
350
142E
  3
B2
350
142F
  3
B3
350
1430
  3
B4
350
1431
  3
B5
350
1432
  3
B6
350
1433
  3
B7
350
1434
  3
B8
350
1435
  3
B9
350
1436
  3
C0
350
1437
  3
C1
350
1438
  3
C2
350
1439
  3
C3
350
143A
  3
C4
350
143B
  3
C5
350
143C
  3
C6
350
143D
  3
C7
350
143E
  3
C8
350
143F
  3
C9
350
1440
  3
D0
350
1441
  3
D1
350
1442
  3
D2
350
1443
  0
DICTIONARY
  5
145C
102
{ACAD_REACTORS
330
19
102
}
330
19
100
AcDbDictionary
281
     1
  3
Standard
350
145D
  0
DICTIONARY
  5
144B
102
{ACAD_REACTORS
330
19
102
}
330
19
100
AcDbDictionary
281
     1
  3
2dWireframe
350
1450
  3
3D Hidden
350
1452
  3
3dWireframe
350
1451
  3
Basic
350
1453
  3
Brighten
350
1457
  3
ColorChange
350
145B
  3
Conceptual
350
1455
  3
Dim
350
1456
  3
Facepattern
350
145A
  3
Flat
350
144C
  3
FlatWithEdges
350
144D
  3
Gouraud
350
144E
  3
GouraudWithEdges
350
144F
  3
Linepattern
350
1459
  3
Realistic
350
1454
  3
Thicken
350
1458
  0
WIPEOUTVARIABLES
  5
23
330
19
100
AcDbWipeoutVariables
 70
     1
  0
XRECORD
  5
1482
102
{ACAD_REACTORS
330
19
102
}
330
19
100
AcDbXrecord
280
     1
 90
        1
330
145D
  0
DICTIONARY
  5
880
102
{ACAD_REACTORS
330
19
102
}
330
19
100
AcDbDictionary
281
     1
  3
CANNOSCALE
350
1477
  3
CTABLESTYLE
350
147B
  3
DIMASSOC
350
886
  3
INDEXCTL
350
885
  3
SORTENTS
350
884
  0
DICTIONARY
  5
101D
102
{ACAD_REACTORS
330
19
102
}
330
19
100
AcDbDictionary
281
     1
  0
DICTIONARY
  5
872
102
{ACAD_REACTORS
330
19
102
}
330
19
100
AcDbDictionary
281
     1
  3
ASEBLOCKHIERARCHYINDEXRECORD
350
874
1001
DCO15
1040
1685180420.18
  0
SORTENTSTABLE
  5
8B0
102
{ACAD_REACTORS
330
8AF
102
}
330
8AF
100
AcDbSortentsTable
330
A
331
0
  5
CC6
  0
LAYOUT
  5
1446
102
{ACAD_REACTORS
330
1444
102
}
330
1444
100
AcDbPlotSettings
  1

  2
none_device
  4

  6

 40
0.0
 41
0.0
 42
0.0
 43
0.0
 44
0.0
 45
0.0
 46
0.0
 47
0.0
 48
0.0
 49
0.0
140
0.0
141
0.0
142
1.0
143
1.0
 70
   688
 72
     0
 73
     0
 74
     5
  7

 75
    16
 76
     0
 77
     2
 78
   300
147
1.0
148
0.0
149
0.0
100
AcDbLayout
  1
Foglio 1
 70
     0
 71
     1
 10
0.0
 20
0.0
 11
12.0
 21
9.0
 12
0.0
 22
0.0
 32
0.0
 14
1.000000000000000E+20
 24
1.000000000000000E+20
 34
1.000000000000000E+20
 15
-1.000000000000000E+20
 25
-1.000000000000000E+20
 35
-1.000000000000000E+20
146
0.0
 13
0.0
 23
0.0
 33
0.0
 16
1.0
 26
0.0
 36
0.0
 17
0.0
 27
1.0
 37
0.0
 76
     0
330
B
  0
LAYOUT
  5
1445
102
{ACAD_REACTORS
330
1444
102
}
330
1444
100
AcDbPlotSettings
  1

  2
none_device
  4

  6

 40
0.0
 41
0.0
 42
0.0
 43
0.0
 44
0.0
 45
0.0
 46
0.0
 47
0.0
 48
0.0
 49
0.0
140
0.0
141
0.0
142
1.0
143
1.0
 70
  1712
 72
     0
 73
     0
 74
     0
  7

 75
     0
 76
     0
 77
     2
 78
   300
147
1.0
148
0.0
149
0.0
100
AcDbLayout
  1
Model
 70
     1
 71
     0
 10
0.0
 20
0.0
 11
1350.85
 21
342.0054945054945
 12
0.0
 22
0.0
 32
0.0
 14
-124.1064491083916
 24
-76.03154965448243
 34
-0.0000000000000057
 15
111.0063730557644
 25
113.0138549156739
 35
0.0000000000000099
146
0.0
 13
0.0
 23
0.0
 33
0.0
 16
1.0
 26
0.0
 36
0.0
 17
0.0
 27
1.0
 37
0.0
 76
     0
330
A
331
15
  0
MATERIAL
  5
1449
102
{ACAD_REACTORS
330
1447
102
}
330
1447
100
AcDbMaterial
  1
ByBlock
 72
     1
 94
      127
  0
MATERIAL
  5
1448
102
{ACAD_REACTORS
330
1447
102
}
330
1447
100
AcDbMaterial
  1
ByLayer
 72
     1
 94
      127
  0
MATERIAL
  5
144A
102
{ACAD_REACTORS
330
1447
102
}
330
1447
100
AcDbMaterial
  1
Global
 72
     1
 94
      127
  0
MLINESTYLE
  5
1C
102
{ACAD_REACTORS
330
1B
102
}
330
1B
100
AcDbMlineStyle
  2
STANDARD
 70
     0
  3

 62
     0
 51
90.0
 52
90.0
 71
     2
 49
0.5
 62
   256
  6
BYLAYER
 49
-0.5
 62
   256
  6
BYLAYER
  0
SCALE
  5
1423
102
{ACAD_REACTORS
330
1422
102
}
330
1422
100
AcDbScale
 70
     0
300
1:1
140
1.0
141
1.0
290
     1
  0
SCALE
  5
1424
102
{ACAD_REACTORS
330
1422
102
}
330
1422
100
AcDbScale
 70
     0
300
1:2
140
1.0
141
2.0
290
     0
  0
SCALE
  5
1425
102
{ACAD_REACTORS
330
1422
102
}
330
1422
100
AcDbScale
 70
     0
300
1:4
140
1.0
141
4.0
290
     0
  0
SCALE
  5
1426
102
{ACAD_REACTORS
330
1422
102
}
330
1422
100
AcDbScale
 70
     0
300
1:5
140
1.0
141
5.0
290
     0
  0
SCALE
  5
1427
102
{ACAD_REACTORS
330
1422
102
}
330
1422
100
AcDbScale
 70
     0
300
1:8
140
1.0
141
8.0
290
     0
  0
SCALE
  5
1428
102
{ACAD_REACTORS
330
1422
102
}
330
1422
100
AcDbScale
 70
     0
300
1:10
140
1.0
141
10.0
290
     0
  0
SCALE
  5
1429
102
{ACAD_REACTORS
330
1422
102
}
330
1422
100
AcDbScale
 70
     0
300
1:16
140
1.0
141
16.0
290
     0
  0
SCALE
  5
142A
102
{ACAD_REACTORS
330
1422
102
}
330
1422
100
AcDbScale
 70
     0
300
1:20
140
1.0
141
20.0
290
     0
  0
SCALE
  5
142B
102
{ACAD_REACTORS
330
1422
102
}
330
1422
100
AcDbScale
 70
     0
300
1:30
140
1.0
141
30.0
290
     0
  0
SCALE
  5
142C
102
{ACAD_REACTORS
330
1422
102
}
330
1422
100
AcDbScale
 70
     0
300
1:40
140
1.0
141
40.0
290
     0
  0
SCALE
  5
142D
102
{ACAD_REACTORS
330
1422
102
}
330
1422
100
AcDbScale
 70
     0
300
1:50
140
1.0
141
50.0
290
     0
  0
SCALE
  5
142E
102
{ACAD_REACTORS
330
1422
102
}
330
1422
100
AcDbScale
 70
     0
300
1:100
140
1.0
141
100.0
290
     0
  0
SCALE
  5
142F
102
{ACAD_REACTORS
330
1422
102
}
330
1422
100
AcDbScale
 70
     0
300
2:1
140
2.0
141
1.0
290
     0
  0
SCALE
  5
1430
102
{ACAD_REACTORS
330
1422
102
}
330
1422
100
AcDbScale
 70
     0
300
4:1
140
4.0
141
1.0
290
     0
  0
SCALE
  5
1431
102
{ACAD_REACTORS
330
1422
102
}
330
1422
100
AcDbScale
 70
     0
300
8:1
140
8.0
141
1.0
290
     0
  0
SCALE
  5
1432
102
{ACAD_REACTORS
330
1422
102
}
330
1422
100
AcDbScale
 70
     0
300
10:1
140
10.0
141
1.0
290
     0
  0
SCALE
  5
1433
102
{ACAD_REACTORS
330
1422
102
}
330
1422
100
AcDbScale
 70
     0
300
100:1
140
100.0
141
1.0
290
     0
  0
SCALE
  5
1434
102
{ACAD_REACTORS
330
1422
102
}
330
1422
100
AcDbScale
 70
     0
300
1/128" = 1'-0"
140
0.0078125
141
12.0
290
     0
  0
SCALE
  5
1435
102
{ACAD_REACTORS
330
1422
102
}
330
1422
100
AcDbScale
 70
     0
300
1/64" = 1'-0"
140
0.015625
141
12.0
290
     0
  0
SCALE
  5
1436
102
{ACAD_REACTORS
330
1422
102
}
330
1422
100
AcDbScale
 70
     0
300
1/32" = 1'-0"
140
0.03125
141
12.0
290
     0
  0
SCALE
  5
1437
102
{ACAD_REACTORS
330
1422
102
}
330
1422
100
AcDbScale
 70
     0
300
1/16" = 1'-0"
140
0.0625
141
12.0
290
     0
  0
SCALE
  5
1438
102
{ACAD_REACTORS
330
1422
102
}
330
1422
100
AcDbScale
 70
     0
300
3/32" = 1'-0"
140
0.09375
141
12.0
290
     0
  0
SCALE
  5
1439
102
{ACAD_REACTORS
330
1422
102
}
330
1422
100
AcDbScale
 70
     0
300
1/8" = 1'-0"
140
0.125
141
12.0
290
     0
  0
SCALE
  5
143A
102
{ACAD_REACTORS
330
1422
102
}
330
1422
100
AcDbScale
 70
     0
300
3/16" = 1'-0"
140
0.1875
141
12.0
290
     0
  0
SCALE
  5
143B
102
{ACAD_REACTORS
330
1422
102
}
330
1422
100
AcDbScale
 70
     0
300
1/4" = 1'-0"
140
0.25
141
12.0
290
     0
  0
SCALE
  5
143C
102
{ACAD_REACTORS
330
1422
102
}
330
1422
100
AcDbScale
 70
     0
300
3/8" = 1'-0"
140
0.375
141
12.0
290
     0
  0
SCALE
  5
143D
102
{ACAD_REACTORS
330
1422
102
}
330
1422
100
AcDbScale
 70
     0
300
1/2" = 1'-0"
140
0.5
141
12.0
290
     0
  0
SCALE
  5
143E
102
{ACAD_REACTORS
330
1422
102
}
330
1422
100
AcDbScale
 70
     0
300
3/4" = 1'-0"
140
0.75
141
12.0
290
     0
  0
SCALE
  5
143F
102
{ACAD_REACTORS
330
1422
102
}
330
1422
100
AcDbScale
 70
     0
300
1" = 1'-0"
140
1.0
141
12.0
290
     0
  0
SCALE
  5
1440
102
{ACAD_REACTORS
330
1422
102
}
330
1422
100
AcDbScale
 70
     0
300
1-1/2" = 1'-0"
140
1.5
141
12.0
290
     0
  0
SCALE
  5
1441
102
{ACAD_REACTORS
330
1422
102
}
330
1422
100
AcDbScale
 70
     0
300
3" = 1'-0"
140
3.0
141
12.0
290
     0
  0
SCALE
  5
1442
102
{ACAD_REACTORS
330
1422
102
}
330
1422
100
AcDbScale
 70
     0
300
6" = 1'-0"
140
6.0
141
12.0
290
     0
  0
SCALE
  5
1443
102
{ACAD_REACTORS
330
1422
102
}
330
1422
100
AcDbScale
 70
     0
300
1'-0" = 1'-0"
140
12.0
141
12.0
290
     0
  0
TABLESTYLE
  5
145D
102
{ACAD_REACTORS
330
145C
102
}
102
{ACAD_XDICTIONARY
360
1480
102
}
330
145C
100
AcDbTableStyle
  3
Standard
 70
     0
 71
     0
 40
0.06
 41
0.06
280
     0
281
     0
  7
STANDARD
140
4.5
170
     2
 62
     0
 63
   257
283
     0
 90
        4
 91
        0
  1

274
    -2
284
     1
 64
     0
275
    -2
285
     1
 65
     0
276
    -2
286
     1
 66
     0
277
    -2
287
     1
 67
     0
278
    -2
288
     1
 68
     0
279
    -2
289
     1
 69
     0
  7
STANDARD
140
6.0
170
     5
 62
     0
 63
   257
283
     0
 90
        4
 91
        0
  1

274
    -2
284
     1
 64
     0
275
    -2
285
     1
 65
     0
276
    -2
286
     1
 66
     0
277
    -2
287
     1
 67
     0
278
    -2
288
     1
 68
     0
279
    -2
289
     1
 69
     0
  7
STANDARD
140
4.5
170
     5
 62
     0
 63
   257
283
     0
 90
        4
 91
        0
  1

274
    -2
284
     1
 64
     0
275
    -2
285
     1
 65
     0
276
    -2
286
     1
 66
     0
277
    -2
287
     1
 67
     0
278
    -2
288
     1
 68
     0
279
    -2
289
     1
 69
     0
  0
VISUALSTYLE
  5
1450
102
{ACAD_REACTORS
330
144B
102
}
330
144B
100
AcDbVisualStyle
  2
2dWireframe
 70
     4
177
     2
291
     0
 71
     0
176
     1
 72
     2
176
     1
 73
     0
176
     1
 90
        0
176
     1
 40
-0.6
176
     1
 41
-30.0
176
     1
 62
     5
 63
     7
421
 16777215
176
     1
 74
     1
176
     1
 91
        4
176
     1
 64
     7
176
     1
 65
   257
176
     1
 75
     1
176
     1
175
     1
176
     1
 42
1.0
176
     1
 92
        0
176
     1
 66
   257
176
     1
 43
1.0
176
     1
 76
     1
176
     1
 77
     6
176
     1
 78
     2
176
     1
 67
     7
176
     1
 79
     5
176
     1
170
     0
176
     1
171
     0
176
     1
290
     0
176
     1
 93
        1
176
     1
 44
0.0
176
     1
173
     0
176
     1
  0
VISUALSTYLE
  5
1452
102
{ACAD_REACTORS
330
144B
102
}
330
144B
100
AcDbVisualStyle
  2
3D Hidden
 70
     6
177
     2
291
     0
 71
     1
176
     1
 72
     2
176
     1
 73
     2
176
     1
 90
        0
176
     1
 40
-0.6
176
     1
 41
-30.0
176
     1
 62
     5
 63
     7
421
 16777215
176
     1
 74
     2
176
     1
 91
        2
176
     1
 64
     7
176
     1
 65
   257
176
     1
 75
     2
176
     1
175
     1
176
     1
 42
40.0
176
     1
 92
        0
176
     1
 66
   257
176
     1
 43
1.0
176
     1
 76
     1
176
     1
 77
     6
176
     1
 78
     2
176
     1
 67
     7
176
     1
 79
     3
176
     1
170
     0
176
     1
171
     0
176
     1
290
     0
176
     1
 93
        1
176
     1
 44
0.0
176
     1
173
     0
176
     1
  0
VISUALSTYLE
  5
1451
102
{ACAD_REACTORS
330
144B
102
}
330
144B
100
AcDbVisualStyle
  2
3dWireframe
 70
     5
177
     2
291
     0
 71
     0
176
     1
 72
     2
176
     1
 73
     0
176
     1
 90
        0
176
     1
 40
-0.6
176
     1
 41
-30.0
176
     1
 62
     5
 63
     7
421
 16777215
176
     1
 74
     1
176
     1
 91
        4
176
     1
 64
     7
176
     1
 65
   257
176
     1
 75
     1
176
     1
175
     1
176
     1
 42
1.0
176
     1
 92
        0
176
     1
 66
   257
176
     1
 43
1.0
176
     1
 76
     1
176
     1
 77
     6
176
     1
 78
     2
176
     1
 67
     7
176
     1
 79
     5
176
     1
170
     0
176
     1
171
     0
176
     1
290
     0
176
     1
 93
        1
176
     1
 44
0.0
176
     1
173
     0
176
     1
  0
VISUALSTYLE
  5
1453
102
{ACAD_REACTORS
330
144B
102
}
330
144B
100
AcDbVisualStyle
  2
Basic
 70
     7
177
     2
291
     1
 71
     1
176
     1
 72
     0
176
     1
 73
     1
176
     1
 90
        0
176
     1
 40
-0.6
176
     1
 41
-30.0
176
     1
 62
     5
 63
     7
421
 16777215
176
     1
 74
     0
176
     1
 91
        4
176
     1
 64
     7
176
     1
 65
   257
176
     1
 75
     1
176
     1
175
     1
176
     1
 42
1.0
176
     1
 92
        8
176
     1
 66
     7
176
     1
 43
1.0
176
     1
 76
     1
176
     1
 77
     6
176
     1
 78
     2
176
     1
 67
     7
176
     1
 79
     5
176
     1
170
     0
176
     1
171
     0
176
     1
290
     0
176
     1
 93
        1
176
     1
 44
0.0
176
     1
173
     0
176
     1
  0
VISUALSTYLE
  5
1457
102
{ACAD_REACTORS
330
144B
102
}
330
144B
100
AcDbVisualStyle
  2
Brighten
 70
    12
177
     2
291
     1
 71
     2
176
     1
 72
     2
176
     1
 73
     0
176
     1
 90
        0
176
     1
 40
-0.6
176
     1
 41
-30.0
176
     1
 62
     5
 63
     7
421
 16777215
176
     1
 74
     1
176
     1
 91
        4
176
     1
 64
     7
176
     1
 65
   257
176
     1
 75
     1
176
     1
175
     1
176
     1
 42
1.0
176
     1
 92
        8
176
     1
 66
     7
176
     1
 43
1.0
176
     1
 76
     1
176
     1
 77
     6
176
     1
 78
     2
176
     1
 67
     7
176
     1
 79
     5
176
     1
170
     0
176
     1
171
     0
176
     1
290
     0
176
     1
 93
        1
176
     1
 44
50.0
176
     1
173
     0
176
     1
  0
VISUALSTYLE
  5
145B
102
{ACAD_REACTORS
330
144B
102
}
330
144B
100
AcDbVisualStyle
  2
ColorChange
 70
    16
177
     2
291
     1
 71
     2
176
     1
 72
     2
176
     1
 73
     3
176
     1
 90
        0
176
     1
 40
-0.6
176
     1
 41
-30.0
176
     1
 62
     5
 63
     8
421
  8421504
176
     1
 74
     1
176
     1
 91
        4
176
     1
 64
     7
176
     1
 65
   257
176
     1
 75
     1
176
     1
175
     1
176
     1
 42
1.0
176
     1
 92
        8
176
     1
 66
     8
424
  8421504
176
     1
 43
1.0
176
     1
 76
     1
176
     1
 77
     6
176
     1
 78
     2
176
     1
 67
     7
176
     1
 79
     5
176
     1
170
     0
176
     1
171
     0
176
     1
290
     0
176
     1
 93
        1
176
     1
 44
0.0
176
     1
173
     0
176
     1
  0
VISUALSTYLE
  5
1455
102
{ACAD_REACTORS
330
144B
102
}
330
144B
100
AcDbVisualStyle
  2
Conceptual
 70
     9
177
     2
291
     0
 71
     3
176
     1
 72
     2
176
     1
 73
     0
176
     1
 90
        0
176
     1
 40
-0.6
176
     1
 41
-30.0
176
     1
 62
     5
 63
     7
421
 16777215
176
     1
 74
     2
176
     1
 91
        2
176
     1
 64
     7
176
     1
 65
   257
176
     1
 75
     1
176
     1
175
     1
176
     1
 42
40.0
176
     1
 92
        8
176
     1
 66
     7
176
     1
 43
1.0
176
     1
 76
     1
176
     1
 77
     6
176
     1
 78
     2
176
     1
 67
     7
176
     1
 79
     3
176
     1
170
     0
176
     1
171
     0
176
     1
290
     0
176
     1
 93
        1
176
     1
 44
0.0
176
     1
173
     0
176
     1
  0
VISUALSTYLE
  5
1456
102
{ACAD_REACTORS
330
144B
102
}
330
144B
100
AcDbVisualStyle
  2
Dim
 70
    11
177
     2
291
     1
 71
     2
176
     1
 72
     2
176
     1
 73
     0
176
     1
 90
        0
176
     1
 40
-0.6
176
     1
 41
-30.0
176
     1
 62
     5
 63
     7
421
 16777215
176
     1
 74
     1
176
     1
 91
        4
176
     1
 64
     7
176
     1
 65
   257
176
     1
 75
     1
176
     1
175
     1
176
     1
 42
1.0
176
     1
 92
        8
176
     1
 66
     7
176
     1
 43
1.0
176
     1
 76
     1
176
     1
 77
     6
176
     1
 78
     2
176
     1
 67
     7
176
     1
 79
     5
176
     1
170
     0
176
     1
171
     0
176
     1
290
     0
176
     1
 93
        1
176
     1
 44
-50.0
176
     1
173
     0
176
     1
  0
VISUALSTYLE
  5
145A
102
{ACAD_REACTORS
330
144B
102
}
330
144B
100
AcDbVisualStyle
  2
Facepattern
 70
    15
177
     2
291
     1
 71
     2
176
     1
 72
     2
176
     1
 73
     0
176
     1
 90
        0
176
     1
 40
-0.6
176
     1
 41
-30.0
176
     1
 62
     5
 63
     7
421
 16777215
176
     1
 74
     1
176
     1
 91
        4
176
     1
 64
     7
176
     1
 65
   257
176
     1
 75
     1
176
     1
175
     1
176
     1
 42
1.0
176
     1
 92
        8
176
     1
 66
     7
176
     1
 43
1.0
176
     1
 76
     1
176
     1
 77
     6
176
     1
 78
     2
176
     1
 67
     7
176
     1
 79
     5
176
     1
170
     0
176
     1
171
     0
176
     1
290
     0
176
     1
 93
        1
176
     1
 44
0.0
176
     1
173
     0
176
     1
  0
VISUALSTYLE
  5
144C
102
{ACAD_REACTORS
330
144B
102
}
330
144B
100
AcDbVisualStyle
  2
Flat
 70
     0
177
     2
291
     1
 71
     2
176
     1
 72
     1
176
     1
 73
     1
176
     1
 90
        2
176
     1
 40
-0.6
176
     1
 41
30.0
176
     1
 62
     5
 63
     7
421
 16777215
176
     1
 74
     0
176
     1
 91
        4
176
     1
 64
     7
176
     1
 65
   257
176
     1
 75
     1
176
     1
175
     1
176
     1
 42
1.0
176
     1
 92
        8
176
     1
 66
     7
176
     1
 43
1.0
176
     1
 76
     1
176
     1
 77
     6
176
     1
 78
     2
176
     1
 67
     7
176
     1
 79
     5
176
     1
170
     0
176
     1
171
     0
176
     1
290
     0
176
     1
 93
       13
176
     1
 44
0.0
176
     1
173
     0
176
     1
  0
VISUALSTYLE
  5
144D
102
{ACAD_REACTORS
330
144B
102
}
330
144B
100
AcDbVisualStyle
  2
FlatWithEdges
 70
     1
177
     2
291
     1
 71
     2
176
     1
 72
     1
176
     1
 73
     1
176
     1
 90
        2
176
     1
 40
-0.6
176
     1
 41
30.0
176
     1
 62
     5
 63
     7
421
 16777215
176
     1
 74
     1
176
     1
 91
        4
176
     1
 64
     7
176
     1
 65
   257
176
     1
 75
     1
176
     1
175
     1
176
     1
 42
1.0
176
     1
 92
        0
176
     1
 66
   257
176
     1
 43
1.0
176
     1
 76
     1
176
     1
 77
     6
176
     1
 78
     2
176
     1
 67
     7
176
     1
 79
     5
176
     1
170
     0
176
     1
171
     0
176
     1
290
     0
176
     1
 93
       13
176
     1
 44
0.0
176
     1
173
     0
176
     1
  0
VISUALSTYLE
  5
144E
102
{ACAD_REACTORS
330
144B
102
}
330
144B
100
AcDbVisualStyle
  2
Gouraud
 70
     2
177
     2
291
     1
 71
     2
176
     1
 72
     2
176
     1
 73
     1
176
     1
 90
        2
176
     1
 40
-0.6
176
     1
 41
30.0
176
     1
 62
     5
 63
     7
421
 16777215
176
     1
 74
     0
176
     1
 91
        4
176
     1
 64
     7
176
     1
 65
   257
176
     1
 75
     1
176
     1
175
     1
176
     1
 42
1.0
176
     1
 92
        0
176
     1
 66
     7
176
     1
 43
1.0
176
     1
 76
     1
176
     1
 77
     6
176
     1
 78
     2
176
     1
 67
     7
176
     1
 79
     5
176
     1
170
     0
176
     1
171
     0
176
     1
290
     0
176
     1
 93
       13
176
     1
 44
0.0
176
     1
173
     0
176
     1
  0
VISUALSTYLE
  5
144F
102
{ACAD_REACTORS
330
144B
102
}
330
144B
100
AcDbVisualStyle
  2
GouraudWithEdges
 70
     3
177
     2
291
     1
 71
     2
176
     1
 72
     2
176
     1
 73
     1
176
     1
 90
        2
176
     1
 40
-0.6
176
     1
 41
30.0
176
     1
 62
     5
 63
     7
421
 16777215
176
     1
 74
     1
176
     1
 91
        4
176
     1
 64
     7
176
     1
 65
   257
176
     1
 75
     1
176
     1
175
     1
176
     1
 42
1.0
176
     1
 92
        0
176
     1
 66
   257
176
     1
 43
1.0
176
     1
 76
     1
176
     1
 77
     6
176
     1
 78
     2
176
     1
 67
     7
176
     1
 79
     5
176
     1
170
     0
176
     1
171
     0
176
     1
290
     0
176
     1
 93
       13
176
     1
 44
0.0
176
     1
173
     0
176
     1
  0
VISUALSTYLE
  5
1459
102
{ACAD_REACTORS
330
144B
102
}
330
144B
100
AcDbVisualStyle
  2
Linepattern
 70
    14
177
     2
291
     1
 71
     2
176
     1
 72
     2
176
     1
 73
     0
176
     1
 90
        0
176
     1
 40
-0.6
176
     1
 41
-30.0
176
     1
 62
     5
 63
     7
421
 16777215
176
     1
 74
     1
176
     1
 91
        4
176
     1
 64
     7
176
     1
 65
   257
176
     1
 75
     7
176
     1
175
     7
176
     1
 42
1.0
176
     1
 92
        8
176
     1
 66
     7
176
     1
 43
1.0
176
     1
 76
     1
176
     1
 77
     6
176
     1
 78
     2
176
     1
 67
     7
176
     1
 79
     5
176
     1
170
     0
176
     1
171
     0
176
     1
290
     0
176
     1
 93
        1
176
     1
 44
0.0
176
     1
173
     0
176
     1
  0
VISUALSTYLE
  5
1454
102
{ACAD_REACTORS
330
144B
102
}
330
144B
100
AcDbVisualStyle
  2
Realistic
 70
     8
177
     2
291
     0
 71
     2
176
     1
 72
     2
176
     1
 73
     0
176
     1
 90
        0
176
     1
 40
-0.6
176
     1
 41
-30.0
176
     1
 62
     5
 63
     7
421
 16777215
176
     1
 74
     1
176
     1
 91
        0
176
     1
 64
     7
176
     1
 65
   257
176
     1
 75
     1
176
     1
175
     1
176
     1
 42
1.0
176
     1
 92
        8
176
     1
 66
     8
424
  7895160
176
     1
 43
1.0
176
     1
 76
     1
176
     1
 77
     6
176
     1
 78
     2
176
     1
 67
     7
176
     1
 79
     5
176
     1
170
     0
176
     1
171
     0
176
     1
290
     0
176
     1
 93
       13
176
     1
 44
0.0
176
     1
173
     0
176
     1
  0
VISUALSTYLE
  5
1458
102
{ACAD_REACTORS
330
144B
102
}
330
144B
100
AcDbVisualStyle
  2
Thicken
 70
    13
177
     2
291
     1
 71
     2
176
     1
 72
     2
176
     1
 73
     0
176
     1
 90
        0
176
     1
 40
-0.6
176
     1
 41
-30.0
176
     1
 62
     5
 63
     7
421
 16777215
176
     1
 74
     1
176
     1
 91
        4
176
     1
 64
     7
176
     1
 65
   257
176
     1
 75
     1
176
     1
175
     1
176
     1
 42
1.0
176
     1
 92
       12
176
     1
 66
     7
176
     1
 43
1.0
176
     1
 76
     1
176
     1
 77
     6
176
     1
 78
     2
176
     1
 67
     7
176
     1
 79
     5
176
     1
170
     0
176
     1
171
     0
176
     1
290
     0
176
     1
 93
        1
176
     1
 44
0.0
176
     1
173
     0
176
     1
  0
DICTIONARYVAR
  5
1477
102
{ACAD_REACTORS
330
880
102
}
330
880
100
DictionaryVariables
280
     0
  1
1:1
  0
DICTIONARYVAR
  5
147B
102
{ACAD_REACTORS
330
880
102
}
330
880
100
DictionaryVariables
280
     0
  1
Standard
  0
DICTIONARYVAR
  5
886
102
{ACAD_REACTORS
330
880
102
}
330
880
100
DictionaryVariables
280
     0
  1
1
  0
DICTIONARYVAR
  5
885
102
{ACAD_REACTORS
330
880
102
}
330
880
100
DictionaryVariables
280
     0
  1
0
  0
DICTIONARYVAR
  5
884
102
{ACAD_REACTORS
330
880
102
}
330
880
100
DictionaryVariables
280
     0
  1
127
  0
XRECORD
  5
874
102
{ACAD_REACTORS
330
872
102
}
330
872
100
AcDbXrecord
280
     1
330
0
330
0
330
0
330
0
330
0
330
0
330
0
330
0
330
0
330
0
330
0
330
0
330
0
330
0
330
0
330
0
330
0
330
0
330
0
330
0
330
0
330
0
330
0
330
0
330
0
330
0
330
0
330
0
330
0
330
0
330
0
330
0
330
0
330
0
330
0
330
0
330
0
330
0
330
0
330
0
330
0
330
0
330
0
330
0
330
0
330
0
330
0
  0
DICTIONARY
  5
1480
330
145D
100
AcDbDictionary
280
     1
281
     1
  3
ACAD_ROUNDTRIP_2008_TABLESTYLE_CELLSTYLEMAP
360
1481
  0
CELLSTYLEMAP
  5
1481
102
{ACAD_REACTORS
330
1480
102
}
330
1480
100
AcDbCellStyleMap
 90
        3
300
CELLSTYLE
  1
TABLEFORMAT_BEGIN
 90
        5
170
     1
 91
        0
 92
        0
 62
   257
 93
        1
300
CONTENTFORMAT
  1
CONTENTFORMAT_BEGIN
 90
        0
 91
        0
 92
        4
 93
        0
300

 40
0.0
140
1.0
 94
        5
 62
     0
340
17
144
6.0
309
CONTENTFORMAT_END
171
     1
301
MARGIN
  1
CELLMARGIN_BEGIN
 40
1.5
 40
1.5
 40
1.5
 40
1.5
 40
1.5
 40
1.5
309
CELLMARGIN_END
 94
        6
 95
        1
302
GRIDFORMAT
  1
GRIDFORMAT_BEGIN
 90
        0
 91
        1
 62
     0
 92
       -2
340
11
 93
        0
 40
0.045
309
GRIDFORMAT_END
 95
        2
302
GRIDFORMAT
  1
GRIDFORMAT_BEGIN
 90
        0
 91
        1
 62
     0
 92
       -2
340
11
 93
        0
 40
0.045
309
GRIDFORMAT_END
 95
        4
302
GRIDFORMAT
  1
GRIDFORMAT_BEGIN
 90
        0
 91
        1
 62
     0
 92
       -2
340
11
 93
        0
 40
0.045
309
GRIDFORMAT_END
 95
        8
302
GRIDFORMAT
  1
GRIDFORMAT_BEGIN
 90
        0
 91
        1
 62
     0
 92
       -2
340
11
 93
        0
 40
0.045
309
GRIDFORMAT_END
 95
       16
302
GRIDFORMAT
  1
GRIDFORMAT_BEGIN
 90
        0
 91
        1
 62
     0
 92
       -2
340
11
 93
        0
 40
0.045
309
GRIDFORMAT_END
 95
       32
302
GRIDFORMAT
  1
GRIDFORMAT_BEGIN
 90
        0
 91
        1
 62
     0
 92
       -2
340
11
 93
        0
 40
0.045
309
GRIDFORMAT_END
309
TABLEFORMAT_END
  1
CELLSTYLE_BEGIN
 90
        1
 91
        1
300
_TITLE
309
CELLSTYLE_END
300
CELLSTYLE
  1
TABLEFORMAT_BEGIN
 90
        5
170
     1
 91
        0
 92
        0
 62
   257
 93
        1
300
CONTENTFORMAT
  1
CONTENTFORMAT_BEGIN
 90
        0
 91
        0
 92
        4
 93
        0
300

 40
0.0
140
1.0
 94
        5
 62
     0
340
17
144
4.5
309
CONTENTFORMAT_END
171
     1
301
MARGIN
  1
CELLMARGIN_BEGIN
 40
1.5
 40
1.5
 40
1.5
 40
1.5
 40
1.5
 40
1.5
309
CELLMARGIN_END
 94
        6
 95
        1
302
GRIDFORMAT
  1
GRIDFORMAT_BEGIN
 90
        0
 91
        1
 62
     0
 92
       -2
340
11
 93
        0
 40
0.045
309
GRIDFORMAT_END
 95
        2
302
GRIDFORMAT
  1
GRIDFORMAT_BEGIN
 90
        0
 91
        1
 62
     0
 92
       -2
340
11
 93
        0
 40
0.045
309
GRIDFORMAT_END
 95
        4
302
GRIDFORMAT
  1
GRIDFORMAT_BEGIN
 90
        0
 91
        1
 62
     0
 92
       -2
340
11
 93
        0
 40
0.045
309
GRIDFORMAT_END
 95
        8
302
GRIDFORMAT
  1
GRIDFORMAT_BEGIN
 90
        0
 91
        1
 62
     0
 92
       -2
340
11
 93
        0
 40
0.045
309
GRIDFORMAT_END
 95
       16
302
GRIDFORMAT
  1
GRIDFORMAT_BEGIN
 90
        0
 91
        1
 62
     0
 92
       -2
340
11
 93
        0
 40
0.045
309
GRIDFORMAT_END
 95
       32
302
GRIDFORMAT
  1
GRIDFORMAT_BEGIN
 90
        0
 91
        1
 62
     0
 92
       -2
340
11
 93
        0
 40
0.045
309
GRIDFORMAT_END
309
TABLEFORMAT_END
  1
CELLSTYLE_BEGIN
 90
        2
 91
        1
300
_HEADER
309
CELLSTYLE_END
300
CELLSTYLE
  1
TABLEFORMAT_BEGIN
 90
        5
170
     1
 91
        0
 92
        0
 62
   257
 93
        1
300
CONTENTFORMAT
  1
CONTENTFORMAT_BEGIN
 90
        0
 91
        0
 92
        4
 93
        0
300

 40
0.0
140
1.0
 94
        2
 62
     0
340
17
144
4.5
309
CONTENTFORMAT_END
171
     1
301
MARGIN
  1
CELLMARGIN_BEGIN
 40
1.5
 40
1.5
 40
1.5
 40
1.5
 40
1.5
 40
1.5
309
CELLMARGIN_END
 94
        6
 95
        1
302
GRIDFORMAT
  1
GRIDFORMAT_BEGIN
 90
        0
 91
        1
 62
     0
 92
       -2
340
11
 93
        0
 40
0.045
309
GRIDFORMAT_END
 95
        2
302
GRIDFORMAT
  1
GRIDFORMAT_BEGIN
 90
        0
 91
        1
 62
     0
 92
       -2
340
11
 93
        0
 40
0.045
309
GRIDFORMAT_END
 95
        4
302
GRIDFORMAT
  1
GRIDFORMAT_BEGIN
 90
        0
 91
        1
 62
     0
 92
       -2
340
11
 93
        0
 40
0.045
309
GRIDFORMAT_END
 95
        8
302
GRIDFORMAT
  1
GRIDFORMAT_BEGIN
 90
        0
 91
        1
 62
     0
 92
       -2
340
11
 93
        0
 40
0.045
309
GRIDFORMAT_END
 95
       16
302
GRIDFORMAT
  1
GRIDFORMAT_BEGIN
 90
        0
 91
        1
 62
     0
 92
       -2
340
11
 93
        0
 40
0.045
309
GRIDFORMAT_END
 95
       32
302
GRIDFORMAT
  1
GRIDFORMAT_BEGIN
 90
        0
 91
        1
 62
     0
 92
       -2
340
11
 93
        0
 40
0.045
309
GRIDFORMAT_END
309
TABLEFORMAT_END
  1
CELLSTYLE_BEGIN
 90
        3
 91
        2
300
_DATA
309
CELLSTYLE_END
  0
ENDSEC
  0
EOF
