  0
SECTION
  2
HEADER
  9
$ACADVER
  1
AC1015
  9
$ACADMAINTVER
 70
    20
  9
$DWGCODEPAGE
  3
ANSI_1252
  9
$INSBASE
 10
0.0
 20
0.0
 30
0.0
  9
$EXTMIN
 10
-119.0053477342189
 20
-238.085083090974
 30
-0.0000000000000154
  9
$EXTMAX
 10
1082.283311951368
 20
141.3157553675883
 30
0.0000000000000151
  9
$LIMMIN
 10
-66.34999999999982
 20
-2008.85
  9
$LIMMAX
 10
3734.350000000001
 20
346.85
  9
$ORTHOMODE
 70
     0
  9
$REGENMODE
 70
     1
  9
$FILLMODE
 70
     1
  9
$QTEXTMODE
 70
     0
  9
$MIRRTEXT
 70
     1
  9
$LTSCALE
 40
10.0
  9
$ATTMODE
 70
     1
  9
$TEXTSIZE
 40
0.0
  9
$TRACEWID
 40
0.05
  9
$TEXTSTYLE
  7
Standard
  9
$CLAYER
  8
0
  9
$CELTYPE
  6
Continuous
  9
$CECOLOR
 62
   256
  9
$CELTSCALE
 40
1.0
  9
$DISPSILH
 70
     0
  9
$DIMSCALE
 40
1.0
  9
$DIMASZ
 40
1.25
  9
$DIMEXO
 40
0.0
  9
$DIMDLI
 40
0.38
  9
$DIMRND
 40
0.0
  9
$DIMDLE
 40
0.0
  9
$DIMEXE
 40
0.75
  9
$DIMTP
 40
0.0
  9
$DIMTM
 40
0.0
  9
$DIMTXT
 40
2.5
  9
$DIMCEN
 40
0.09
  9
$DIMTSZ
 40
0.0
  9
$DIMTOL
 70
     0
  9
$DIMLIM
 70
     0
  9
$DIMTIH
 70
     0
  9
$DIMTOH
 70
     0
  9
$DIMSE1
 70
     0
  9
$DIMSE2
 70
     0
  9
$DIMTAD
 70
     1
  9
$DIMZIN
 70
     0
  9
$DIMBLK
  1

  9
$DIMASO
 70
     1
  9
$DIMSHO
 70
     1
  9
$DIMPOST
  1

  9
$DIMAPOST
  1

  9
$DIMALT
 70
     0
  9
$DIMALTD
 70
     2
  9
$DIMALTF
 40
25.4
  9
$DIMLFAC
 40
1.0
  9
$DIMTOFL
 70
     0
  9
$DIMTVP
 40
0.0
  9
$DIMTIX
 70
     0
  9
$DIMSOXD
 70
     0
  9
$DIMSAH
 70
     0
  9
$DIMBLK1
  1

  9
$DIMBLK2
  1

  9
$DIMSTYLE
  2
Standard
  9
$DIMCLRD
 70
     7
  9
$DIMCLRE
 70
     7
  9
$DIMCLRT
 70
     7
  9
$DIMTFAC
 40
0.8
  9
$DIMGAP
 40
1.25
  9
$DIMJUST
 70
     0
  9
$DIMSD1
 70
     0
  9
$DIMSD2
 70
     0
  9
$DIMTOLJ
 70
     1
  9
$DIMTZIN
 70
     0
  9
$DIMALTZ
 70
     0
  9
$DIMALTTZ
 70
     0
  9
$DIMUPT
 70
     0
  9
$DIMDEC
 70
     2
  9
$DIMTDEC
 70
     4
  9
$DIMALTU
 70
     2
  9
$DIMALTTD
 70
     2
  9
$DIMTXSTY
  7
Standard
  9
$DIMAUNIT
 70
     0
  9
$DIMADEC
 70
     0
  9
$DIMALTRND
 40
0.0
  9
$DIMAZIN
 70
     0
  9
$DIMDSEP
 70
     0
  9
$DIMATFIT
 70
     3
  9
$DIMFRAC
 70
     0
  9
$DIMLDRBLK
  1

  9
$DIMLUNIT
 70
     2
  9
$DIMLWD
 70
     0
  9
$DIMLWE
 70
     0
  9
$DIMTMOVE
 70
     0
  9
$LUNITS
 70
     2
  9
$LUPREC
 70
     4
  9
$SKETCHINC
 40
0.1
  9
$FILLETRAD
 40
0.0
  9
$AUNITS
 70
     0
  9
$AUPREC
 70
     0
  9
$MENU
  1
acad
  9
$ELEVATION
 40
0.0
  9
$PELEVATION
 40
0.0
  9
$THICKNESS
 40
0.0
  9
$LIMCHECK
 70
     0
  9
$CHAMFERA
 40
0.0
  9
$CHAMFERB
 40
0.0
  9
$CHAMFERC
 40
0.0
  9
$CHAMFERD
 40
0.0
  9
$SKPOLY
 70
     0
  9
$TDCREATE
 40
2455303.686250000
  9
$TDUCREATE
 40
2455303.644583334
  9
$TDUPDATE
 40
2455537.482570798
  9
$TDUUPDATE
 40
2455537.440904132
  9
$TDINDWG
 40
0.0072727894
  9
$TDUSRTIMER
 40
0.0072726042
  9
$USRTIMER
 70
     1
  9
$ANGBASE
 50
0.0
  9
$ANGDIR
 70
     0
  9
$PDMODE
 70
     0
  9
$PDSIZE
 40
0.0
  9
$PLINEWID
 40
0.0
  9
$SPLFRAME
 70
     0
  9
$SPLINETYPE
 70
     6
  9
$SPLINESEGS
 70
     8
  9
$HANDSEED
  5
6E3B
  9
$SURFTAB1
 70
     6
  9
$SURFTAB2
 70
     6
  9
$SURFTYPE
 70
     6
  9
$SURFU
 70
     6
  9
$SURFV
 70
     6
  9
$UCSBASE
  2

  9
$UCSNAME
  2

  9
$UCSORG
 10
0.0
 20
0.0
 30
0.0
  9
$UCSXDIR
 10
1.0
 20
0.0
 30
0.0
  9
$UCSYDIR
 10
0.0
 20
1.0
 30
0.0
  9
$UCSORTHOREF
  2

  9
$UCSORTHOVIEW
 70
     0
  9
$UCSORGTOP
 10
0.0
 20
0.0
 30
0.0
  9
$UCSORGBOTTOM
 10
0.0
 20
0.0
 30
0.0
  9
$UCSORGLEFT
 10
0.0
 20
0.0
 30
0.0
  9
$UCSORGRIGHT
 10
0.0
 20
0.0
 30
0.0
  9
$UCSORGFRONT
 10
0.0
 20
0.0
 30
0.0
  9
$UCSORGBACK
 10
0.0
 20
0.0
 30
0.0
  9
$PUCSBASE
  2

  9
$PUCSNAME
  2

  9
$PUCSORG
 10
0.0
 20
0.0
 30
0.0
  9
$PUCSXDIR
 10
1.0
 20
0.0
 30
0.0
  9
$PUCSYDIR
 10
0.0
 20
1.0
 30
0.0
  9
$PUCSORTHOREF
  2

  9
$PUCSORTHOVIEW
 70
     0
  9
$PUCSORGTOP
 10
0.0
 20
0.0
 30
0.0
  9
$PUCSORGBOTTOM
 10
0.0
 20
0.0
 30
0.0
  9
$PUCSORGLEFT
 10
0.0
 20
0.0
 30
0.0
  9
$PUCSORGRIGHT
 10
0.0
 20
0.0
 30
0.0
  9
$PUCSORGFRONT
 10
0.0
 20
0.0
 30
0.0
  9
$PUCSORGBACK
 10
0.0
 20
0.0
 30
0.0
  9
$USERI1
 70
     0
  9
$USERI2
 70
     0
  9
$USERI3
 70
     0
  9
$USERI4
 70
     0
  9
$USERI5
 70
     0
  9
$USERR1
 40
0.0
  9
$USERR2
 40
0.0
  9
$USERR3
 40
0.0
  9
$USERR4
 40
0.0
  9
$USERR5
 40
0.0
  9
$WORLDVIEW
 70
     1
  9
$SHADEDGE
 70
     3
  9
$SHADEDIF
 70
    70
  9
$TILEMODE
 70
     1
  9
$MAXACTVP
 70
    16
  9
$PINSBASE
 10
0.0
 20
0.0
 30
0.0
  9
$PLIMCHECK
 70
     0
  9
$PEXTMIN
 10
1.000000000000000E+20
 20
1.000000000000000E+20
 30
1.000000000000000E+20
  9
$PEXTMAX
 10
-1.000000000000000E+20
 20
-1.000000000000000E+20
 30
-1.000000000000000E+20
  9
$PLIMMIN
 10
0.0
 20
0.0
  9
$PLIMMAX
 10
12.0
 20
9.0
  9
$UNITMODE
 70
     0
  9
$VISRETAIN
 70
     0
  9
$PLINEGEN
 70
     1
  9
$PSLTSCALE
 70
     0
  9
$TREEDEPTH
 70
  3020
  9
$CMLSTYLE
  2
Standard
  9
$CMLJUST
 70
     0
  9
$CMLSCALE
 40
1.0
  9
$PROXYGRAPHICS
 70
     0
  9
$MEASUREMENT
 70
     1
  9
$CELWEIGHT
370
     0
  9
$ENDCAPS
280
     0
  9
$JOINSTYLE
280
     0
  9
$LWDISPLAY
290
     0
  9
$INSUNITS
 70
     0
  9
$HYPERLINKBASE
  1

  9
$STYLESHEET
  1

  9
$XEDIT
290
     1
  9
$CEPSNTYPE
380
     0
  9
$PSTYLEMODE
290
     1
  9
$FINGERPRINTGUID
  2

  9
$VERSIONGUID
  2
{D2F8C838-FFD9-46F8-8E7A-142807B170CE}
  9
$EXTNAMES
290
     1
  9
$PSVPSCALE
 40
0.0
  9
$OLESTARTUP
290
     0
  0
ENDSEC
  0
SECTION
  2
CLASSES
  0
CLASS
  1
IMAGE
  2
AcDbRasterImage
  3
ISM
 90
    34943
280
     0
281
     1
  0
CLASS
  1
DICTIONARYVAR
  2
AcDbDictionaryVar
  3
ObjectDBX Classes
 90
        0
280
     0
281
     0
  0
CLASS
  1
RASTERVARIABLES
  2
AcDbRasterVariables
  3
ISM
 90
    32768
280
     0
281
     0
  0
CLASS
  1
IMAGEDEF
  2
AcDbRasterImageDef
  3
ISM
 90
    32768
280
     0
281
     0
  0
CLASS
  1
IMAGEDEF_REACTOR
  2
AcDbRasterImageDefReactor
  3
ISM
 90
    32769
280
     0
281
     0
  0
CLASS
  1
IDBUFFER
  2
AcDbIdBuffer
  3
ObjectDBX Classes
 90
    32768
280
     0
281
     0
  0
CLASS
  1
SPATIAL_FILTER
  2
AcDbSpatialFilter
  3
ObjectDBX Classes
 90
    32768
280
     0
281
     0
  0
CLASS
  1
SORTENTSTABLE
  2
AcDbSortentsTable
  3
ObjectDBX Classes
 90
        0
280
     0
281
     0
  0
CLASS
  1
LAYER_INDEX
  2
AcDbLayerIndex
  3
ObjectDBX Classes
 90
    32768
280
     0
281
     0
  0
CLASS
  1
SPATIAL_INDEX
  2
AcDbSpatialIndex
  3
ObjectDBX Classes
 90
    32768
280
     0
281
     0
  0
CLASS
  1
OBJECT_PTR
  2
CAseDLPNTableRecord
  3
ASE-LPNTableRecord
 90
    32769
280
     0
281
     0
  0
CLASS
  1
LAYOUT
  2
AcDbLayout
  3
ObjectDBX Classes
 90
        0
280
     0
281
     0
  0
CLASS
  1
PLOTSETTINGS
  2
AcDbPlotSettings
  3
ObjectDBX Classes
 90
    32768
280
     0
281
     0
  0
CLASS
  1
ACDBDICTIONARYWDFLT
  2
AcDbDictionaryWithDefault
  3
ObjectDBX Classes
 90
        0
280
     0
281
     0
  0
CLASS
  1
ACDBPLACEHOLDER
  2
AcDbPlaceHolder
  3
ObjectDBX Classes
 90
        0
280
     0
281
     0
  0
CLASS
  1
VBA_PROJECT
  2
AcDbVbaProject
  3
acad
 90
    32768
280
     0
281
     0
  0
CLASS
  1
WIPEOUT
  2
AcDbWipeout
  3
"WipeOut|Product Desc: Object Enabler for WipeOut entity                        |Company: Autodesk, Inc.                        |WEB Address: www.autodesk.com"
 90
    34943
280
     0
281
     1
  0
CLASS
  1
WIPEOUTVARIABLES
  2
AcDbWipeoutVariables
  3
"WipeOut|Product Desc:     WipeOut Dbx Application|Company:          Autodesk, Inc.|WEB Address:      www.autodesk.com"
 90
        0
280
     0
281
     0
  0
CLASS
  1
RTEXT
  2
RText
  3
RText|AutoCAD Express Tool|expresstools@autodesk.com
 90
    35839
280
     0
281
     1
  0
CLASS
  1
ARCALIGNEDTEXT
  2
AcDbArcAlignedText
  3
ATEXT|AutoCAD Express Tool|expresstools@autodesk.com
 90
    32768
280
     0
281
     1
  0
CLASS
  1
MATERIAL
  2
AcDbMaterial
  3
ObjectDBX Classes
 90
     1153
280
     0
281
     0
  0
CLASS
  1
VISUALSTYLE
  2
AcDbVisualStyle
  3
ObjectDBX Classes
 90
     4095
280
     0
281
     0
  0
CLASS
  1
TABLESTYLE
  2
AcDbTableStyle
  3
ObjectDBX Classes
 90
     4095
280
     0
281
     0
  0
CLASS
  1
SCALE
  2
AcDbScale
  3
ObjectDBX Classes
 90
     1153
280
     0
281
     0
  0
CLASS
  1
MLEADERSTYLE
  2
AcDbMLeaderStyle
  3
ACDB_MLEADERSTYLE_CLASS
 90
     4095
280
     0
281
     0
  0
CLASS
  1
CELLSTYLEMAP
  2
AcDbCellStyleMap
  3
ObjectDBX Classes
 90
     1152
280
     0
281
     0
  0
ENDSEC
  0
SECTION
  2
TABLES
  0
TABLE
  2
VPORT
  5
7
330
0
100
AcDbSymbolTable
 70
     1
  0
VPORT
  5
15
330
7
100
AcDbSymbolTableRecord
100
AcDbViewportTableRecord
  2
*ACTIVE
 70
     0
 10
0.0
 20
0.0
 11
1.0
 21
1.0
 12
505.4760211633182
 22
-44.88031926669111
 13
0.0
 23
0.0
 14
1.0
 24
1.0
 15
0.0
 25
0.0
 16
0.0
 26
0.0
 36
1.0
 17
0.0
 27
0.0
 37
0.0
 40
840.9904590347643
 41
1.611330698287219
 42
50.0
 43
0.0
 44
0.0
 50
0.0
 51
0.0
 71
     0
 72
   100
 73
     1
 74
     1
 75
     0
 76
     0
 77
     0
 78
     0
281
     0
 65
     0
110
0.0
120
0.0
130
0.0
111
1.0
121
0.0
131
0.0
112
0.0
122
1.0
132
0.0
 79
     0
146
0.0
  0
ENDTAB
  0
TABLE
  2
LTYPE
  5
4
330
0
100
AcDbSymbolTable
 70
     2
  0
LTYPE
  5
11
330
4
100
AcDbSymbolTableRecord
100
AcDbLinetypeTableRecord
  2
ByBlock
 70
     0
  3

 72
    65
 73
     0
 40
0.0
  0
LTYPE
  5
12
330
4
100
AcDbSymbolTableRecord
100
AcDbLinetypeTableRecord
  2
ByLayer
 70
     0
  3

 72
    65
 73
     0
 40
0.0
  0
LTYPE
  5
13
330
4
100
AcDbSymbolTableRecord
100
AcDbLinetypeTableRecord
  2
Continuous
 70
     0
  3
Solid line
 72
    65
 73
     0
 40
0.0
  0
LTYPE
  5
1E4
330
4
100
AcDbSymbolTableRecord
100
AcDbLinetypeTableRecord
  2
CENTER
 70
     0
  3
____ _ ____ _ ____ _ ____ _ ____ _ ____ _ ____
 72
    65
 73
     4
 40
2.0
 49
1.25
 74
     0
 49
-0.25
 74
     0
 49
0.25
 74
     0
 49
-0.25
 74
     0
  0
ENDTAB
  0
TABLE
  2
LAYER
  5
2
330
0
100
AcDbSymbolTable
 70
     1
  0
LAYER
  5
14
102
{ACAD_XDICTIONARY
360
5E41
102
}
330
2
100
AcDbSymbolTableRecord
100
AcDbLayerTableRecord
  2
0
 70
     0
 62
     7
  6
Continuous
370
    -3
390
1D
  0
ENDTAB
  0
TABLE
  2
STYLE
  5
3
330
0
100
AcDbSymbolTable
 70
     1
  0
STYLE
  5
17
330
3
100
AcDbSymbolTableRecord
100
AcDbTextStyleTableRecord
  2
Standard
 70
     0
 40
0.0
 41
1.0
 50
0.0
 71
     0
 42
0.0
  3
I011000D.TTF
  4

1001
ACAD
1000
IsonormD
1071
        0
  0
ENDTAB
  0
TABLE
  2
VIEW
  5
5
330
0
100
AcDbSymbolTable
 70
     0
  0
ENDTAB
  0
TABLE
  2
UCS
  5
6
330
0
100
AcDbSymbolTable
 70
     0
  0
ENDTAB
  0
TABLE
  2
APPID
  5
8
330
0
100
AcDbSymbolTable
 70
     5
  0
APPID
  5
16
330
8
100
AcDbSymbolTableRecord
100
AcDbRegAppTableRecord
  2
ACAD
 70
     0
  0
APPID
  5
26
330
8
100
AcDbSymbolTableRecord
100
AcDbRegAppTableRecord
  2
TopSolid'Draft
 70
     0
  0
APPID
  5
319D
330
8
100
AcDbSymbolTableRecord
100
AcDbRegAppTableRecord
  2
ACAD_MLEADERVER
 70
     0
  0
APPID
  5
5E45
330
8
100
AcDbSymbolTableRecord
100
AcDbRegAppTableRecord
  2
DCO15
 70
     0
  0
APPID
  5
636E
330
8
100
AcDbSymbolTableRecord
100
AcDbRegAppTableRecord
  2
ACAD_EXEMPT_FROM_CAD_STANDARDS
 70
     0
  0
ENDTAB
  0
TABLE
  2
DIMSTYLE
  5
9
330
0
100
AcDbSymbolTable
 70
     1
100
AcDbDimStyleTable
 71
     1
340
18
  0
DIMSTYLE
105
18
330
9
100
AcDbSymbolTableRecord
100
AcDbDimStyleTableRecord
  2
Standard
 70
     0
 41
1.25
 42
0.0
 44
0.75
 73
     0
 74
     0
 77
     1
140
2.5
146
0.8
147
1.25
176
     7
177
     7
178
     7
271
     2
340
17
  0
ENDTAB
  0
TABLE
  2
BLOCK_RECORD
  5
1
330
0
100
AcDbSymbolTable
 70
     0
  0
BLOCK_RECORD
  5
A
102
{ACAD_XDICTIONARY
360
31A7
102
}
330
1
100
AcDbSymbolTableRecord
100
AcDbBlockTableRecord
  2
*MODEL_SPACE
340
20
  0
BLOCK_RECORD
  5
B
330
1
100
AcDbSymbolTableRecord
100
AcDbBlockTableRecord
  2
*PAPER_SPACE
340
21
  0
ENDTAB
  0
ENDSEC
  0
SECTION
  2
BLOCKS
  0
BLOCK
  5
D
330
A
100
AcDbEntity
  8
0
100
AcDbBlockBegin
  2
*MODEL_SPACE
 70
     0
 10
0.0
 20
0.0
 30
0.0
  3
*MODEL_SPACE
  1

  0
ENDBLK
  5
E
330
A
100
AcDbEntity
  8
0
100
AcDbBlockEnd
  0
BLOCK
  5
F
330
B
100
AcDbEntity
 67
     1
  8
0
100
AcDbBlockBegin
  2
*PAPER_SPACE
 70
     0
 10
0.0
 20
0.0
 30
0.0
  3
*PAPER_SPACE
  1

  0
ENDBLK
  5
10
330
B
100
AcDbEntity
 67
     1
  8
0
100
AcDbBlockEnd
  0
ENDSEC
  0
SECTION
  2
ENTITIES
  0
TEXT
  5
6248
330
A
100
AcDbEntity
  8
0
  6
Continuous
 62
     7
370
     0
100
AcDbText
 10
456.2310701371313
 20
114.5666255162688
 30
0.0
 40
20.0
  1
5F22
100
AcDbText
  0
LINE
  5
6B70
330
A
100
AcDbEntity
  8
0
  6
Continuous
 62
     7
370
     0
100
AcDbLine
 10
-106.0000000000421
 20
90.88287993069707
 30
0.0
 11
-109.0000000000421
 21
90.88287993069707
 31
0.0
  0
LINE
  5
6B71
330
A
100
AcDbEntity
  8
0
  6
Continuous
 62
     7
370
     0
100
AcDbLine
 10
-109.0000000000421
 20
90.88287993069707
 30
0.0
 11
-112.0000000000421
 21
90.88287993069707
 31
0.0
  0
LINE
  5
6B72
330
A
100
AcDbEntity
  8
0
  6
Continuous
 62
     7
370
     0
100
AcDbLine
 10
-107.0000000000421
 20
91.38287993069708
 30
0.0
 11
-109.0000000000421
 21
91.38287993069708
 31
0.0
  0
LINE
  5
6B73
330
A
100
AcDbEntity
  8
0
  6
Continuous
 62
     7
370
     0
100
AcDbLine
 10
-109.0000000000421
 20
91.38287993069708
 30
0.0
 11
-111.0000000000421
 21
91.38287993069708
 31
0.0
  0
LINE
  5
6B74
330
A
100
AcDbEntity
  8
0
  6
Continuous
 62
     7
370
     0
100
AcDbLine
 10
-106.49999996952
 20
92.25787984897124
 30
0.0
 11
-108.99999996952
 21
92.25787984897124
 31
0.0
  0
LINE
  5
6B75
330
A
100
AcDbEntity
  8
0
  6
Continuous
 62
     7
370
     0
100
AcDbLine
 10
-108.99999996952
 20
92.25787984897124
 30
0.0
 11
-111.49999996952
 21
92.25787984897124
 31
0.0
  0
LINE
  5
6B76
330
A
100
AcDbEntity
  8
0
  6
Continuous
 62
     7
370
     0
100
AcDbLine
 10
-107.29999996952
 20
92.63287984897102
 30
0.0
 11
-108.99999996952
 21
92.63287984897102
 31
0.0
  0
LINE
  5
6B77
330
A
100
AcDbEntity
  8
0
  6
Continuous
 62
     7
370
     0
100
AcDbLine
 10
-108.99999996952
 20
92.63287984897102
 30
0.0
 11
-110.69999996952
 21
92.63287984897102
 31
0.0
  0
LINE
  5
6B78
330
A
100
AcDbEntity
  8
0
  6
Continuous
 62
     7
370
     0
100
AcDbLine
 10
-106.4999999961308
 20
89.95787993318026
 30
0.0
 11
-108.9999999961308
 21
89.95787993318026
 31
0.0
  0
LINE
  5
6B79
330
A
100
AcDbEntity
  8
0
  6
Continuous
 62
     7
370
     0
100
AcDbLine
 10
-107.2999999961307
 20
90.33287993318026
 30
0.0
 11
-108.9999999961308
 21
90.33287993318026
 31
0.0
  0
LINE
  5
6B7A
330
A
100
AcDbEntity
  8
0
  6
Continuous
 62
     7
370
     0
100
AcDbLine
 10
-108.9999999961308
 20
89.95787993318026
 30
0.0
 11
-111.4999999961308
 21
89.95787993318026
 31
0.0
  0
LINE
  5
6B7B
330
A
100
AcDbEntity
  8
0
  6
Continuous
 62
     7
370
     0
100
AcDbLine
 10
-108.9999999961308
 20
90.33287993318026
 30
0.0
 11
-110.6999999961308
 21
90.33287993318026
 31
0.0
  0
LINE
  5
6B7C
330
A
100
AcDbEntity
  8
0
  6
Continuous
 62
     7
370
     0
100
AcDbLine
 10
-109.3730937018209
 20
78.48855772478282
 30
0.0
 11
-110.3940653038096
 21
79.50882745444573
 31
0.0
  0
LINE
  5
6B7D
330
A
100
AcDbEntity
  8
0
  6
Continuous
 62
     7
370
     0
100
AcDbLine
 10
-107.9790283962264
 20
78.8626102038163
 30
0.0
 11
-109.3730937018209
 21
78.48855772478282
 31
0.0
  0
LINE
  5
6B7E
330
A
100
AcDbEntity
  8
0
  6
Continuous
 62
     7
370
     0
100
AcDbLine
 10
-107.6059346926206
 20
80.25693241251246
 30
0.0
 11
-107.9790283962264
 21
78.8626102038163
 31
0.0
  0
LINE
  5
6B7F
330
A
100
AcDbEntity
  8
0
  6
Continuous
 62
     7
370
     0
100
AcDbLine
 10
-108.6269062946093
 20
81.27720214217516
 30
0.0
 11
-107.6059346926206
 21
80.25693241251246
 31
0.0
  0
LINE
  5
6B80
330
A
100
AcDbEntity
  8
0
  6
Continuous
 62
     7
370
     0
100
AcDbLine
 10
-110.0209716002038
 20
80.9031496631419
 30
0.0
 11
-108.6269062946093
 21
81.27720214217516
 31
0.0
  0
LINE
  5
6B81
330
A
100
AcDbEntity
  8
0
  6
Continuous
 62
     7
370
     0
100
AcDbLine
 10
-110.3940653038096
 20
79.50882745444573
 30
0.0
 11
-110.0209716002038
 21
80.9031496631419
 31
0.0
  0
LINE
  5
6B82
330
A
100
AcDbEntity
  8
0
  6
Continuous
 62
     7
370
     0
100
AcDbLine
 10
-111.4999999978084
 20
78.3828799345049
 30
0.0
 11
-111.4999999969843
 21
81.38287993450489
 31
0.0
  0
ARC
  5
6B83
330
A
100
AcDbEntity
  8
0
  6
Continuous
 62
     7
370
     0
100
AcDbCircle
 10
-108.9999999978084
 20
78.38287993381823
 30
0.0
 40
2.500000000000168
100
AcDbArc
 50
179.9999999842627
 51
269.9999999842627
  0
ARC
  5
6B84
330
A
100
AcDbEntity
  8
0
  6
Continuous
 62
     7
370
     0
100
AcDbCircle
 10
-108.9999999978084
 20
78.38287993381823
 30
0.0
 40
2.500000000000002
100
AcDbArc
 50
269.9999999842627
 51
359.9999999842627
  0
LINE
  5
6B85
330
A
100
AcDbEntity
  8
0
  6
Continuous
 62
     7
370
     0
100
AcDbLine
 10
-106.4999999969843
 20
81.38287993313133
 30
0.0
 11
-106.4999999978084
 21
78.38287993313134
 31
0.0
  0
ARC
  5
6B86
330
A
100
AcDbEntity
  8
0
  6
Continuous
 62
     7
370
     0
100
AcDbCircle
 10
-108.9999999969842
 20
81.38287993381799
 30
0.0
 40
2.499999999999946
100
AcDbArc
 50
359.9999999842627
 51
89.99999998426272
  0
ARC
  5
6B87
330
A
100
AcDbEntity
  8
0
  6
Continuous
 62
     7
370
     0
100
AcDbCircle
 10
-108.9999999969842
 20
81.38287993381799
 30
0.0
 40
2.500000000000057
100
AcDbArc
 50
89.99999998426272
 51
179.9999999842627
  0
ARC
  5
6B88
330
A
100
AcDbEntity
  8
0
  6
Continuous
 62
     7
370
     0
100
AcDbCircle
 10
-100.9999999951986
 20
87.88287993162043
 30
0.0
 40
2.000000000000001
100
AcDbArc
 50
359.9999999842627
 51
89.99999998426272
  0
LINE
  5
6B89
330
A
100
AcDbEntity
  8
0
  6
Continuous
 62
     7
370
     0
100
AcDbLine
 10
-98.99999999519861
 20
87.88287993107088
 30
0.0
 11
-98.99999999959403
 21
71.88287993107087
 31
0.0
  0
LINE
  5
6B8A
330
A
100
AcDbEntity
  8
0
  6
Continuous
 62
     7
370
     0
100
AcDbLine
 10
-101.0000000001434
 20
69.88287993162043
 30
0.0
 11
-117.0000000001435
 21
69.8828799360158
 31
0.0
  0
ARC
  5
6B8B
330
A
100
AcDbEntity
  8
0
  6
Continuous
 62
     7
370
     0
100
AcDbCircle
 10
-116.999999999594
 20
71.8828799360158
 30
0.0
 40
2.000000000000001
100
AcDbArc
 50
179.9999999842627
 51
269.9999999842627
  0
LINE
  5
6B8C
330
A
100
AcDbEntity
  8
0
  6
Continuous
 62
     7
370
     0
100
AcDbLine
 10
-118.999999999594
 20
71.88287993656513
 30
0.0
 11
-118.9999999951986
 21
87.88287993656513
 31
0.0
  0
ARC
  5
6B8D
330
A
100
AcDbEntity
  8
0
  6
Continuous
 62
     7
370
     0
100
AcDbCircle
 10
-116.9999999951986
 20
87.8828799360158
 30
0.0
 40
2.000000000000001
100
AcDbArc
 50
89.9999999842562
 51
179.9999999842627
  0
LINE
  5
6B8E
330
A
100
AcDbEntity
  8
0
  6
Continuous
 62
     7
370
     0
100
AcDbLine
 10
-100.9999999946491
 20
89.88287993162044
 30
0.0
 11
-116.9999999946492
 21
89.88287993601579
 31
0.0
  0
ARC
  5
6B8F
330
A
100
AcDbEntity
  8
0
  6
Continuous
 62
     7
370
     0
100
AcDbCircle
 10
-100.999999999594
 20
71.88287993162044
 30
0.0
 40
2.000000000000001
100
AcDbArc
 50
269.9999999842562
 51
359.9999999842562
  0
LINE
  5
6B90
330
A
100
AcDbEntity
  8
0
  6
Continuous
 62
     9
370
     0
100
AcDbLine
 10
-106.5000000000421
 20
89.95787993318026
 30
0.0
 11
-106.5000000000421
 21
91.13287993069731
 31
0.0
  0
LINE
  5
6B91
330
A
100
AcDbEntity
  8
0
  6
Continuous
 62
     9
370
     0
100
AcDbLine
 10
-111.5000000000421
 20
91.13287993069731
 30
0.0
 11
-111.5000000000421
 21
89.95787993318026
 31
0.0
  0
LINE
  5
6B92
330
A
100
AcDbEntity
  8
0
  6
Continuous
 62
     9
370
     0
100
AcDbLine
 10
-106.89999996952
 20
91.33287991543602
 30
0.0
 11
-106.89999996952
 21
92.44537984897101
 31
0.0
  0
LINE
  5
6B93
330
A
100
AcDbEntity
  8
0
  6
Continuous
 62
     9
370
     0
100
AcDbLine
 10
-111.09999996952
 20
92.44537984897124
 30
0.0
 11
-111.09999996952
 21
91.33287994595798
 31
0.0
  0
LINE
  5
6B94
330
A
100
AcDbEntity
  8
0
  6
Continuous
 62
     9
370
     0
100
AcDbLine
 10
-106.8999999961308
 20
89.88287984902035
 30
0.0
 11
-106.8999999961308
 21
90.14537993318027
 31
0.0
  0
LINE
  5
6B95
330
A
100
AcDbEntity
  8
0
  6
Continuous
 62
     9
370
     0
100
AcDbLine
 10
-111.0999999961307
 20
90.14537993318027
 30
0.0
 11
-111.0999999961307
 21
89.8828798489219
 31
0.0
  0
LINE
  5
6B96
330
A
100
AcDbEntity
  8
0
  6
Continuous
 62
     7
370
     0
100
AcDbLine
 10
-106.0000000000421
 20
89.88287993117319
 30
0.0
 11
-106.0000000000421
 21
90.88287993069707
 31
0.0
  0
LINE
  5
6B97
330
A
100
AcDbEntity
  8
0
  6
Continuous
 62
     7
370
     0
100
AcDbLine
 10
-112.0000000000421
 20
90.88287993069707
 30
0.0
 11
-112.0000000000421
 21
89.88287993117319
 31
0.0
  0
LINE
  5
6B98
330
A
100
AcDbEntity
  8
0
  6
Continuous
 62
     7
370
     0
100
AcDbLine
 10
-106.0000000000421
 20
90.88287993069707
 30
0.0
 11
-106.49999996952
 21
91.13287991543598
 31
0.0
  0
LINE
  5
6B99
330
A
100
AcDbEntity
  8
0
  6
Continuous
 62
     7
370
     0
100
AcDbLine
 10
-106.49999996952
 20
91.13287991543598
 30
0.0
 11
-107.0000000000421
 21
91.38287993069708
 31
0.0
  0
LINE
  5
6B9A
330
A
100
AcDbEntity
  8
0
  6
Continuous
 62
     7
370
     0
100
AcDbLine
 10
-111.0000000000421
 20
91.38287993069708
 30
0.0
 11
-111.49999996952
 21
91.13287994595816
 31
0.0
  0
LINE
  5
6B9B
330
A
100
AcDbEntity
  8
0
  6
Continuous
 62
     7
370
     0
100
AcDbLine
 10
-111.49999996952
 20
91.13287994595816
 30
0.0
 11
-112.0000000000421
 21
90.88287993069707
 31
0.0
  0
LINE
  5
6B9C
330
A
100
AcDbEntity
  8
0
  6
Continuous
 62
     7
370
     0
100
AcDbLine
 10
-106.49999996952
 20
91.13287991543598
 30
0.0
 11
-106.49999996952
 21
92.25787984897124
 31
0.0
  0
LINE
  5
6B9D
330
A
100
AcDbEntity
  8
0
  6
Continuous
 62
     7
370
     0
100
AcDbLine
 10
-111.49999996952
 20
92.25787984897124
 30
0.0
 11
-111.49999996952
 21
91.13287994595816
 31
0.0
  0
LINE
  5
6B9E
330
A
100
AcDbEntity
  8
0
  6
Continuous
 62
     7
370
     0
100
AcDbLine
 10
-106.49999996952
 20
92.25787984897124
 30
0.0
 11
-106.89999996952
 21
92.44537984897124
 31
0.0
  0
LINE
  5
6B9F
330
A
100
AcDbEntity
  8
0
  6
Continuous
 62
     7
370
     0
100
AcDbLine
 10
-106.89999996952
 20
92.44537984897124
 30
0.0
 11
-107.29999996952
 21
92.63287984897102
 31
0.0
  0
LINE
  5
6BA0
330
A
100
AcDbEntity
  8
0
  6
Continuous
 62
     7
370
     0
100
AcDbLine
 10
-110.69999996952
 20
92.63287984897102
 30
0.0
 11
-111.09999996952
 21
92.44537984897124
 31
0.0
  0
LINE
  5
6BA1
330
A
100
AcDbEntity
  8
0
  6
Continuous
 62
     7
370
     0
100
AcDbLine
 10
-111.09999996952
 20
92.44537984897124
 30
0.0
 11
-111.49999996952
 21
92.25787984897124
 31
0.0
  0
LINE
  5
6BA2
330
A
100
AcDbEntity
  8
0
  6
Continuous
 62
     7
370
     0
100
AcDbLine
 10
-106.4999999961308
 20
89.95787993318026
 30
0.0
 11
-106.8999999961308
 21
90.14537993318027
 31
0.0
  0
LINE
  5
6BA3
330
A
100
AcDbEntity
  8
0
  6
Continuous
 62
     7
370
     0
100
AcDbLine
 10
-106.8999999961308
 20
90.14537993318027
 30
0.0
 11
-107.2999999961307
 21
90.33287993318026
 31
0.0
  0
LINE
  5
6BA4
330
A
100
AcDbEntity
  8
0
  6
Continuous
 62
     7
370
     0
100
AcDbLine
 10
-110.6999999961308
 20
90.33287993318026
 30
0.0
 11
-111.0999999961307
 21
90.14537993318027
 31
0.0
  0
LINE
  5
6BA5
330
A
100
AcDbEntity
  8
0
  6
Continuous
 62
     7
370
     0
100
AcDbLine
 10
-111.0999999961307
 20
90.14537993318027
 30
0.0
 11
-111.4999999961308
 21
89.95787993318026
 31
0.0
  0
LINE
  5
6BA6
330
A
100
AcDbEntity
  8
0
  6
Continuous
 62
     7
370
     0
100
AcDbLine
 10
-106.4999999961308
 20
89.88287993313134
 30
0.0
 11
-106.4999999961308
 21
89.95787993318026
 31
0.0
  0
LINE
  5
6BA7
330
A
100
AcDbEntity
  8
0
  6
Continuous
 62
     7
370
     0
100
AcDbLine
 10
-111.4999999961308
 20
89.95787993318026
 30
0.0
 11
-111.4999999961307
 21
89.88287993450489
 31
0.0
  0
LINE
  5
6BA8
330
A
100
AcDbEntity
  8
0
  6
Continuous
 62
     7
370
     0
100
AcDbLine
 10
1074.999999999958
 20
90.88287991831771
 30
0.0
 11
1074.499999969436
 21
90.88287991831771
 31
0.0
  0
LINE
  5
6BA9
330
A
100
AcDbEntity
  8
0
  6
Continuous
 62
     7
370
     0
100
AcDbLine
 10
1069.499999969436
 20
90.88287991831771
 30
0.0
 11
1068.999999999958
 21
90.88287991831771
 31
0.0
  0
LINE
  5
6BAA
330
A
100
AcDbEntity
  8
0
  6
Continuous
 62
     7
370
     0
100
AcDbLine
 10
1074.499999969436
 20
92.25787984897124
 30
0.0
 11
1069.499999969435
 21
92.25787984897124
 31
0.0
  0
LINE
  5
6BAB
330
A
100
AcDbEntity
  8
0
  6
Continuous
 62
     7
370
     0
100
AcDbLine
 10
1073.699999969436
 20
92.63287984897102
 30
0.0
 11
1070.299999969436
 21
92.63287984897102
 31
0.0
  0
LINE
  5
6BAC
330
A
100
AcDbEntity
  8
0
  6
Continuous
 62
     7
370
     0
100
AcDbLine
 10
1079.999999968932
 20
69.88287984962198
 30
0.0
 11
1063.999999968932
 21
69.88287984999669
 31
0.0
  0
ARC
  5
6BAD
330
A
100
AcDbEntity
  8
0
  6
Continuous
 62
     7
370
     0
100
AcDbCircle
 10
1063.999999968978
 20
71.8828798499967
 30
0.0
 40
2.000000000000001
100
AcDbArc
 50
179.9999999986581
 51
269.9999999986582
  0
LINE
  5
6BAE
330
A
100
AcDbEntity
  8
0
  6
Continuous
 62
     7
370
     0
100
AcDbLine
 10
1061.999999969353
 20
87.88287985004354
 30
0.0
 11
1061.999999968978
 21
71.88287985004354
 31
0.0
  0
ARC
  5
6BAF
330
A
100
AcDbEntity
  8
0
  6
Continuous
 62
     7
370
     0
100
AcDbCircle
 10
1063.999999969353
 20
87.88287984999669
 30
0.0
 40
2.000000000000001
100
AcDbArc
 50
89.99999999865817
 51
179.9999999986581
  0
LINE
  5
6BB0
330
A
100
AcDbEntity
  8
0
  6
Continuous
 62
     7
370
     0
100
AcDbLine
 10
1079.9999999694
 20
89.88287984962198
 30
0.0
 11
1063.9999999694
 21
89.8828798499967
 31
0.0
  0
ARC
  5
6BB1
330
A
100
AcDbEntity
  8
0
  6
Continuous
 62
     7
370
     0
100
AcDbCircle
 10
1079.999999969353
 20
87.88287984962199
 30
0.0
 40
2.000000000000001
100
AcDbArc
 50
359.9999999986581
 51
89.99999999865817
  0
LINE
  5
6BB2
330
A
100
AcDbEntity
  8
0
  6
Continuous
 62
     7
370
     0
100
AcDbLine
 10
1081.999999969353
 20
87.88287984957515
 30
0.0
 11
1081.999999968978
 21
71.88287984957515
 31
0.0
  0
ARC
  5
6BB3
330
A
100
AcDbEntity
  8
0
  6
Continuous
 62
     7
370
     0
100
AcDbCircle
 10
1079.999999968978
 20
71.88287984962198
 30
0.0
 40
2.000000000000001
100
AcDbArc
 50
269.9999999986582
 51
359.9999999986581
  0
LINE
  5
6BB4
330
A
100
AcDbEntity
  8
0
  6
Continuous
 62
     9
370
     0
100
AcDbLine
 10
1074.099999969436
 20
89.88287984828913
 30
0.0
 11
1074.099999969436
 21
92.44537984897124
 31
0.0
  0
LINE
  5
6BB5
330
A
100
AcDbEntity
  8
0
  6
Continuous
 62
     9
370
     0
100
AcDbLine
 10
1069.899999969435
 20
92.44537984897101
 30
0.0
 11
1069.899999969435
 21
89.88287984838757
 31
0.0
  0
LINE
  5
6BB6
330
A
100
AcDbEntity
  8
0
  6
Continuous
 62
     7
370
     0
100
AcDbLine
 10
1074.999999999958
 20
89.88287992799905
 30
0.0
 11
1074.999999999958
 21
90.88287991831771
 31
0.0
  0
LINE
  5
6BB7
330
A
100
AcDbEntity
  8
0
  6
Continuous
 62
     7
370
     0
100
AcDbLine
 10
1068.999999999958
 20
90.88287991831771
 30
0.0
 11
1068.999999999958
 21
89.88287992799905
 31
0.0
  0
LINE
  5
6BB8
330
A
100
AcDbEntity
  8
0
  6
Continuous
 62
     7
370
     0
100
AcDbLine
 10
1074.999999999958
 20
90.88287991831771
 30
0.0
 11
1074.499999969436
 21
91.1328799335788
 31
0.0
  0
LINE
  5
6BB9
330
A
100
AcDbEntity
  8
0
  6
Continuous
 62
     7
370
     0
100
AcDbLine
 10
1069.499999969435
 20
91.13287990305662
 30
0.0
 11
1068.999999999958
 21
90.88287991831771
 31
0.0
  0
LINE
  5
6BBA
330
A
100
AcDbEntity
  8
0
  6
Continuous
 62
     7
370
     0
100
AcDbLine
 10
1074.499999969436
 20
89.88287984975091
 30
0.0
 11
1074.499999969436
 21
92.25787984897124
 31
0.0
  0
LINE
  5
6BBB
330
A
100
AcDbEntity
  8
0
  6
Continuous
 62
     7
370
     0
100
AcDbLine
 10
1069.499999969435
 20
92.25787984897124
 30
0.0
 11
1069.499999969435
 21
89.88287984986778
 31
0.0
  0
LINE
  5
6BBC
330
A
100
AcDbEntity
  8
0
  6
Continuous
 62
     7
370
     0
100
AcDbLine
 10
1074.499999969436
 20
92.25787984897124
 30
0.0
 11
1074.099999969436
 21
92.44537984897124
 31
0.0
  0
LINE
  5
6BBD
330
A
100
AcDbEntity
  8
0
  6
Continuous
 62
     7
370
     0
100
AcDbLine
 10
1074.099999969436
 20
92.44537984897124
 30
0.0
 11
1073.699999969436
 21
92.63287984897102
 31
0.0
  0
LINE
  5
6BBE
330
A
100
AcDbEntity
  8
0
  6
Continuous
 62
     7
370
     0
100
AcDbLine
 10
1070.299999969436
 20
92.63287984897102
 30
0.0
 11
1069.899999969435
 21
92.44537984897124
 31
0.0
  0
LINE
  5
6BBF
330
A
100
AcDbEntity
  8
0
  6
Continuous
 62
     7
370
     0
100
AcDbLine
 10
1069.899999969435
 20
92.44537984897124
 30
0.0
 11
1069.499999969435
 21
92.25787984897124
 31
0.0
  0
ELLIPSE
  5
6BC0
330
A
100
AcDbEntity
  8
0
  6
Continuous
 62
     7
370
     0
100
AcDbEllipse
 10
85.91842338970639
 20
-208.102117359351
 30
0.0
 11
2.399999999999957
 21
0.0
 31
0.0
210
0.0
220
0.0
230
1.0
 40
0.4082482904638628
 41
0.4636476090008059
 42
1.10714871779409
  0
ELLIPSE
  5
6BC1
330
A
100
AcDbEntity
  8
0
  6
Continuous
 62
     7
370
     0
100
AcDbEllipse
 10
85.91842338970639
 20
-207.7369689876809
 30
0.0
 11
1.599999999999934
 21
0.0
 31
0.0
210
0.0
220
0.0
230
1.0
 40
0.408248290463863
 41
0.4636476090008108
 42
1.107148717794094
  0
ELLIPSE
  5
6BC2
330
A
100
AcDbEntity
  8
0
  6
Continuous
 62
     7
370
     0
100
AcDbEllipse
 10
85.91842338970639
 20
-207.7369689876809
 30
0.0
 11
1.599999999999934
 21
0.0
 31
0.0
210
0.0
220
0.0
230
1.0
 40
0.408248290463863
 41
1.107148717794094
 42
2.034443935795698
  0
ELLIPSE
  5
6BC3
330
A
100
AcDbEntity
  8
0
  6
Continuous
 62
     7
370
     0
100
AcDbEllipse
 10
85.91842338970639
 20
-208.102117359351
 30
0.0
 11
2.399999999999957
 21
0.0
 31
0.0
210
0.0
220
0.0
230
1.0
 40
0.408248290463863
 41
0.0
 42
0.4636476090008059
  0
ELLIPSE
  5
6BC4
330
A
100
AcDbEntity
  8
0
  6
Continuous
 62
     7
370
     0
100
AcDbEllipse
 10
85.91842338970639
 20
-207.7369689876809
 30
0.0
 11
1.599999999999934
 21
0.0
 31
0.0
210
0.0
220
0.0
230
1.0
 40
0.408248290463863
 41
2.034443935795698
 42
6.746832916180395
  0
ELLIPSE
  5
6BC5
330
A
100
AcDbEntity
  8
0
  6
Continuous
 62
     7
370
     0
100
AcDbEllipse
 10
85.91842338970639
 20
-208.102117359351
 30
0.0
 11
2.399999999999957
 21
0.0
 31
0.0000000000000002
210
-0.0000000000000001
220
0.0
230
1.0
 40
0.4082482904638628
 41
2.034443935795702
 42
3.141592653589793
  0
ELLIPSE
  5
6BC6
330
A
100
AcDbEntity
  8
0
  6
Continuous
 62
     7
370
     0
100
AcDbEllipse
 10
85.91842338970639
 20
-208.102117359351
 30
0.0
 11
2.399999999999957
 21
0.0
 31
0.0000000000000002
210
-0.0000000000000001
220
0.0
230
1.0
 40
0.4082482904638628
 41
3.141592653589793
 42
6.283185307179586
  0
LINE
  5
6BC7
330
A
100
AcDbEntity
  8
0
  6
Continuous
 62
     7
370
     0
100
AcDbLine
 10
87.30157468660298
 20
-207.7708621774923
 30
0.0
 11
86.53810072509974
 21
-208.2429334133078
 31
0.0
  0
LINE
  5
6BC8
330
A
100
AcDbEntity
  8
0
  6
Continuous
 62
     7
370
     0
100
AcDbLine
 10
86.68189735120961
 20
-207.2648977518654
 30
0.0
 11
87.30157468660298
 21
-207.7708621774923
 31
0.0
  0
LINE
  5
6BC9
330
A
100
AcDbEntity
  8
0
  6
Continuous
 62
     7
370
     0
100
AcDbLine
 10
85.29874605431325
 20
-207.231004562054
 30
0.0
 11
86.68189735120961
 21
-207.2648977518654
 31
0.0
  0
LINE
  5
6BCA
330
A
100
AcDbEntity
  8
0
  6
Continuous
 62
     7
370
     0
100
AcDbLine
 10
84.53527209281004
 20
-207.7030757978696
 30
0.0
 11
85.29874605431325
 21
-207.231004562054
 31
0.0
  0
LINE
  5
6BCB
330
A
100
AcDbEntity
  8
0
  6
Continuous
 62
     7
370
     0
100
AcDbLine
 10
85.15494942820316
 20
-208.2090402234964
 30
0.0
 11
84.53527209281004
 21
-207.7030757978696
 31
0.0
  0
LINE
  5
6BCC
330
A
100
AcDbEntity
  8
0
  6
Continuous
 62
     7
370
     0
100
AcDbLine
 10
86.53810072509974
 20
-208.2429334133078
 30
0.0
 11
85.15494942820316
 21
-208.2090402234964
 31
0.0
  0
LINE
  5
6BCD
330
A
100
AcDbEntity
  8
0
  6
Continuous
 62
     7
370
     0
100
AcDbLine
 10
86.68189735120961
 20
-207.2648977518654
 30
0.0
 11
86.68189735120961
 21
-208.1540210804496
 31
0.0
  0
LINE
  5
6BCE
330
A
100
AcDbEntity
  8
0
  6
Continuous
 62
     7
370
     0
100
AcDbLine
 10
85.29874605431325
 20
-207.231004562054
 30
0.0
 11
85.29874605431325
 21
-208.2125638628511
 31
0.0
  0
ELLIPSE
  5
6BCF
330
A
100
AcDbEntity
  8
0
  6
Continuous
 62
     7
370
     0
100
AcDbEllipse
 10
766.3986303024429
 20
-69.19967676700025
 30
0.0
 11
2.399999999999957
 21
0.0
 31
0.0
210
0.0
220
0.0
230
1.0
 40
0.408248290463863
 41
0.4636476090007752
 42
1.107148717794124
  0
ELLIPSE
  5
6BD0
330
A
100
AcDbEntity
  8
0
  6
Continuous
 62
     7
370
     0
100
AcDbEllipse
 10
766.3986303024429
 20
-68.83452839533015
 30
0.0
 11
1.599999999999823
 21
0.0
 31
0.0000000000000001
210
-0.0000000000000001
220
0.0
230
1.0
 40
0.4082482904638628
 41
0.4636476090008238
 42
1.107148717794111
  0
ELLIPSE
  5
6BD1
330
A
100
AcDbEntity
  8
0
  6
Continuous
 62
     7
370
     0
100
AcDbEllipse
 10
766.3986303024429
 20
-68.83452839533015
 30
0.0
 11
1.599999999999823
 21
0.0
 31
0.0
210
0.0
220
0.0
230
1.0
 40
0.408248290463863
 41
1.107148717794111
 42
2.034443935795747
  0
ELLIPSE
  5
6BD2
330
A
100
AcDbEntity
  8
0
  6
Continuous
 62
     7
370
     0
100
AcDbEllipse
 10
766.3986303024429
 20
-69.19967676700025
 30
0.0
 11
2.399999999999957
 21
0.0
 31
0.0
210
0.0
220
0.0
230
1.0
 40
0.408248290463863
 41
0.0
 42
0.4636476090007752
  0
ELLIPSE
  5
6BD3
330
A
100
AcDbEntity
  8
0
  6
Continuous
 62
     7
370
     0
100
AcDbEllipse
 10
766.3986303024429
 20
-68.83452839533015
 30
0.0
 11
1.599999999999823
 21
0.0
 31
0.0
210
0.0
220
0.0
230
1.0
 40
0.408248290463863
 41
2.034443935795748
 42
6.74683291618041
  0
ELLIPSE
  5
6BD4
330
A
100
AcDbEntity
  8
0
  6
Continuous
 62
     7
370
     0
100
AcDbEllipse
 10
766.3986303024429
 20
-69.19967676700025
 30
0.0
 11
2.399999999999957
 21
0.0
 31
0.0
210
0.0
220
0.0
230
1.0
 40
0.408248290463863
 41
2.03444393579571
 42
3.141592653589821
  0
ELLIPSE
  5
6BD5
330
A
100
AcDbEntity
  8
0
  6
Continuous
 62
     7
370
     0
100
AcDbEllipse
 10
766.3986303024429
 20
-69.19967676700025
 30
0.0
 11
2.399999999999957
 21
0.0
 31
0.0
210
0.0
220
0.0
230
1.0
 40
0.408248290463863
 41
3.141592653589821
 42
6.283185307179586
  0
LINE
  5
6BD6
330
A
100
AcDbEntity
  8
0
  6
Continuous
 62
     7
370
     0
100
AcDbLine
 10
767.7817815993391
 20
-68.8684215851415
 30
0.0
 11
767.0183076378358
 21
-69.34049282095703
 31
0.0
  0
LINE
  5
6BD7
330
A
100
AcDbEntity
  8
0
  6
Continuous
 62
     7
370
     0
100
AcDbLine
 10
767.1621042639461
 20
-68.36245715951463
 30
0.0
 11
767.7817815993392
 21
-68.8684215851415
 31
0.0
  0
LINE
  5
6BD8
330
A
100
AcDbEntity
  8
0
  6
Continuous
 62
     7
370
     0
100
AcDbLine
 10
765.7789529670496
 20
-68.32856396970328
 30
0.0
 11
767.1621042639461
 21
-68.36245715951463
 31
0.0
  0
LINE
  5
6BD9
330
A
100
AcDbEntity
  8
0
  6
Continuous
 62
     7
370
     0
100
AcDbLine
 10
765.0154790055463
 20
-68.80063520551857
 30
0.0
 11
765.7789529670496
 21
-68.32856396970328
 31
0.0
  0
LINE
  5
6BDA
330
A
100
AcDbEntity
  8
0
  6
Continuous
 62
     7
370
     0
100
AcDbLine
 10
765.6351563409397
 20
-69.30659963114568
 30
0.0
 11
765.0154790055463
 21
-68.80063520551857
 31
0.0
  0
LINE
  5
6BDB
330
A
100
AcDbEntity
  8
0
  6
Continuous
 62
     7
370
     0
100
AcDbLine
 10
767.0183076378358
 20
-69.34049282095703
 30
0.0
 11
765.6351563409394
 21
-69.30659963114568
 31
0.0
  0
LINE
  5
6BDC
330
A
100
AcDbEntity
  8
0
  6
Continuous
 62
     7
370
     0
100
AcDbLine
 10
767.1621042639461
 20
-68.36245715951463
 30
0.0
 11
767.1621042639461
 21
-69.25158048809862
 31
0.0
  0
LINE
  5
6BDD
330
A
100
AcDbEntity
  8
0
  6
Continuous
 62
     7
370
     0
100
AcDbLine
 10
765.7789529670496
 20
-68.32856396970328
 30
0.0
 11
765.7789529670496
 21
-69.31012327050007
 31
0.0
  0
LINE
  5
6BDE
330
A
100
AcDbEntity
  8
0
  6
Continuous
 62
     7
370
     0
100
AcDbLine
 10
34.04164630029129
 20
-235.1230969043304
 30
0.0
 11
34.0416463006037
 21
-228.185277842616
 31
0.0
  0
ELLIPSE
  5
6BDF
330
A
100
AcDbEntity
  8
0
  6
Continuous
 62
     7
370
     0
100
AcDbEllipse
 10
33.32610454781264
 20
-227.6010404479075
 30
0.0
 11
0.3199999999424774
 21
-1.567673435392879
 31
0.0000000000000001
210
0.0
220
0.0000000000000001
230
0.9999999999999998
 40
0.4082482904725532
 41
1.107148717785628
 42
1.908505629910967
  0
ELLIPSE
  5
6BE0
330
A
100
AcDbEntity
  8
0
  6
Continuous
 62
     7
370
     0
100
AcDbEllipse
 10
34.75718805341728
 20
-227.3089217506251
 30
0.0
 11
0.3199999999424774
 21
-1.567673435392879
 31
0.0000000000000001
210
0.0
220
0.0000000000000001
230
0.9999999999999998
 40
0.4082482904725532
 41
1.107148717785636
 42
2.306110779588841
  0
LINE
  5
6BE1
330
A
100
AcDbEntity
  8
0
  6
Continuous
 62
     9
370
     0
100
AcDbLine
 10
35.47272980620812
 20
-227.8931591453333
 30
0.0
 11
34.04164630060348
 21
-228.1852778426157
 31
0.0
  0
LINE
  5
6BE2
330
A
100
AcDbEntity
  8
0
  6
Continuous
 62
     7
370
     0
100
AcDbLine
 10
35.47272980589549
 20
-234.830978207048
 30
0.0
 11
35.47272980620812
 21
-227.8931591453336
 31
0.0
  0
LINE
  5
6BE3
330
A
100
AcDbEntity
  8
0
  6
Continuous
 62
     9
370
     0
100
AcDbLine
 10
35.47272980589549
 20
-234.830978207048
 30
0.0
 11
34.04164630029106
 21
-235.1230969043304
 31
0.0
  0
ELLIPSE
  5
6BE4
330
A
100
AcDbEntity
  8
0
  6
Continuous
 62
     7
370
     0
100
AcDbEllipse
 10
34.75718805310487
 20
-234.2467408123396
 30
0.0
 11
0.3199999999424774
 21
-1.567673435393102
 31
0.0
210
-0.0000000000000001
220
0.0
230
0.9999999999999998
 40
0.4082482904725479
 41
0.0
 42
1.107148717785629
  0
ELLIPSE
  5
6BE5
330
A
100
AcDbEntity
  8
0
  6
Continuous
 62
     7
370
     0
100
AcDbEllipse
 10
33.32610454750045
 20
-234.538859509622
 30
0.0
 11
0.3199999999424774
 21
-1.567673435392879
 31
0.0
210
0.0
220
0.0
230
0.9999999999999998
 40
0.4082482904725489
 41
0.0599511666235422
 42
1.107148717785644
  0
LINE
  5
6BE6
330
A
100
AcDbEntity
  8
0
  6
Continuous
 62
     9
370
     0
100
AcDbLine
 10
33.68387542421294
 20
-228.2583075169343
 30
0.0
 11
34.0416463006037
 21
-228.1852778426157
 31
0.0
  0
ELLIPSE
  5
6BE7
330
A
100
AcDbEntity
  8
0
  6
Continuous
 62
     7
370
     0
100
AcDbEllipse
 10
33.32610454781264
 20
-227.6010404479075
 30
0.0
 11
-0.3199999999424774
 21
1.567673435392879
 31
-0.0000000000000001
210
0.0
220
0.0000000000000001
230
0.9999999999999998
 40
0.4082482904725403
 41
4.248741371375446
 42
5.050098283156883
  0
LINE
  5
6BE8
330
A
100
AcDbEntity
  8
0
  6
Continuous
 62
     9
370
     0
100
AcDbLine
 10
33.68387542390076
 20
-235.1961265786488
 30
0.0
 11
34.04164630029129
 21
-235.1230969043304
 31
0.0
  0
LINE
  5
6BE9
330
A
100
AcDbEntity
  8
0
  6
Continuous
 62
     7
370
     0
100
AcDbLine
 10
34.04164630060348
 20
-228.1852778426157
 30
0.0
 11
34.04164630029129
 21
-235.1230969043304
 31
0.0
  0
ELLIPSE
  5
6BEA
330
A
100
AcDbEntity
  8
0
  6
Continuous
 62
     7
370
     0
100
AcDbEllipse
 10
33.32610454750045
 20
-234.538859509622
 30
0.0
 11
-0.3199999999424774
 21
1.567673435392879
 31
-0.0000000000000001
210
0.0
220
0.0000000000000001
230
0.9999999999999998
 40
0.4082482904725531
 41
3.201543820213339
 42
4.24874137137542
  0
ELLIPSE
  5
6BEB
330
A
100
AcDbEntity
  8
0
  6
Continuous
 62
     7
370
     0
100
AcDbEllipse
 10
43.70145996355961
 20
-215.7154609504066
 30
0.0
 11
2.000000000000001
 21
0.0
 31
0.0000000000000001
210
-0.0000000000000001
220
0.0
230
1.0
 40
0.4082482904638628
 41
0.4636476090008059
 42
1.266492142662235
  0
ELLIPSE
  5
6BEC
330
A
100
AcDbEntity
  8
0
  6
Continuous
 62
     7
370
     0
100
AcDbEllipse
 10
43.70145996355961
 20
-215.4415996716539
 30
0.0
 11
1.360000000000027
 21
0.0
 31
0.0
210
0.0
220
0.0
230
1.0
 40
0.4082482904638627
 41
0.463647609000798
 42
1.266492142662265
  0
ELLIPSE
  5
6BED
330
A
100
AcDbEntity
  8
0
  6
Continuous
 62
     7
370
     0
100
AcDbEllipse
 10
43.70145996355961
 20
-215.4415996716539
 30
0.0
 11
1.360000000000027
 21
0.0
 31
0.0
210
0.0
220
0.0
230
1.0
 40
0.4082482904638627
 41
1.266492142662264
 42
1.875100510927527
  0
ELLIPSE
  5
6BEE
330
A
100
AcDbEntity
  8
0
  6
Continuous
 62
     7
370
     0
100
AcDbEllipse
 10
43.70145996355961
 20
-215.7154609504066
 30
0.0
 11
2.000000000000001
 21
0.0
 31
0.0
210
0.0
220
0.0
230
1.0
 40
0.408248290463863
 41
0.0
 42
0.4636476090008059
  0
ELLIPSE
  5
6BEF
330
A
100
AcDbEntity
  8
0
  6
Continuous
 62
     7
370
     0
100
AcDbEllipse
 10
43.70145996355961
 20
-215.4415996716539
 30
0.0
 11
1.359999999999916
 21
0.0
 31
0.0
210
0.0
220
0.0
230
1.0
 40
0.408248290463863
 41
1.875100510927526
 42
6.746832916180383
  0
ELLIPSE
  5
6BF0
330
A
100
AcDbEntity
  8
0
  6
Continuous
 62
     7
370
     0
100
AcDbEllipse
 10
43.70145996355961
 20
-215.7154609504066
 30
0.0
 11
2.000000000000001
 21
0.0
 31
0.0000000000000001
210
-0.0000000000000001
220
0.0
230
1.0
 40
0.4082482904638628
 41
1.87510051092753
 42
3.141592653589793
  0
ELLIPSE
  5
6BF1
330
A
100
AcDbEntity
  8
0
  6
Continuous
 62
     7
370
     0
100
AcDbEllipse
 10
43.70145996355961
 20
-215.7154609504066
 30
0.0
 11
2.000000000000001
 21
0.0
 31
0.0000000000000001
210
-0.0000000000000001
220
0.0
230
1.0
 40
0.4082482904638628
 41
3.141592653589793
 42
6.283185307179586
  0
LINE
  5
6BF2
330
A
100
AcDbEntity
  8
0
  6
Continuous
 62
     7
370
     0
100
AcDbLine
 10
44.85408604430688
 20
-215.4698439964968
 30
0.0
 11
44.21785774305419
 21
-215.8632366930099
 31
0.0
  0
LINE
  5
6BF3
330
A
100
AcDbEntity
  8
0
  6
Continuous
 62
     7
370
     0
100
AcDbLine
 10
44.33768826481229
 20
-215.0482069751411
 30
0.0
 11
44.85408604430688
 21
-215.4698439964968
 31
0.0
  0
LINE
  5
6BF4
330
A
100
AcDbEntity
  8
0
  6
Continuous
 62
     7
370
     0
100
AcDbLine
 10
43.18506218406549
 20
-215.0199626502983
 30
0.0
 11
44.33768826481229
 21
-215.0482069751413
 31
0.0
  0
LINE
  5
6BF5
330
A
100
AcDbEntity
  8
0
  6
Continuous
 62
     7
370
     0
100
AcDbLine
 10
42.5488338828128
 20
-215.4133553468112
 30
0.0
 11
43.18506218406549
 21
-215.0199626502983
 31
0.0
  0
LINE
  5
6BF6
330
A
100
AcDbEntity
  8
0
  6
Continuous
 62
     7
370
     0
100
AcDbLine
 10
43.06523166230692
 20
-215.8349923681669
 30
0.0
 11
42.5488338828128
 21
-215.4133553468109
 31
0.0
  0
LINE
  5
6BF7
330
A
100
AcDbEntity
  8
0
  6
Continuous
 62
     7
370
     0
100
AcDbLine
 10
44.21785774305419
 20
-215.8632366930099
 30
0.0
 11
43.06523166230692
 21
-215.8349923681671
 31
0.0
  0
LINE
  5
6BF8
330
A
100
AcDbEntity
  8
0
  6
Continuous
 62
     7
370
     0
100
AcDbLine
 10
44.33768826481229
 20
-215.0482069751411
 30
0.0
 11
44.33768826481229
 21
-215.7891430822942
 31
0.0
  0
LINE
  5
6BF9
330
A
100
AcDbEntity
  8
0
  6
Continuous
 62
     7
370
     0
100
AcDbLine
 10
43.18506218406549
 20
-215.0199626502983
 30
0.0
 11
43.18506218406549
 21
-215.8379287342959
 31
0.0
  0
ELLIPSE
  5
6BFA
330
A
100
AcDbEntity
  8
0
  6
Continuous
 62
     7
370
     0
100
AcDbEllipse
 10
56.93898239039128
 20
-214.693045510227
 30
0.0
 11
2.000000000000001
 21
0.0
 31
0.0000000000000001
210
-0.0000000000000001
220
0.0
230
1.0
 40
0.4082482904638628
 41
0.4636476090008059
 42
1.266492142662262
  0
ELLIPSE
  5
6BFB
330
A
100
AcDbEntity
  8
0
  6
Continuous
 62
     7
370
     0
100
AcDbEllipse
 10
56.93898239039128
 20
-214.4191842314742
 30
0.0
 11
1.360000000000027
 21
0.0
 31
0.0
210
0.0
220
0.0
230
1.0
 40
0.4082482904638627
 41
0.463647609000798
 42
1.266492142662265
  0
ELLIPSE
  5
6BFC
330
A
100
AcDbEntity
  8
0
  6
Continuous
 62
     7
370
     0
100
AcDbEllipse
 10
56.93898239039128
 20
-214.4191842314742
 30
0.0
 11
1.360000000000027
 21
0.0
 31
0.0
210
0.0
220
0.0
230
1.0
 40
0.4082482904638627
 41
1.266492142662264
 42
1.875100510927527
  0
ELLIPSE
  5
6BFD
330
A
100
AcDbEntity
  8
0
  6
Continuous
 62
     7
370
     0
100
AcDbEllipse
 10
56.93898239039128
 20
-214.693045510227
 30
0.0
 11
2.000000000000001
 21
0.0
 31
0.0
210
0.0
220
0.0
230
1.0
 40
0.408248290463863
 41
0.0
 42
0.4636476090008059
  0
ELLIPSE
  5
6BFE
330
A
100
AcDbEntity
  8
0
  6
Continuous
 62
     7
370
     0
100
AcDbEllipse
 10
56.93898239039128
 20
-214.4191842314742
 30
0.0
 11
1.359999999999916
 21
0.0
 31
0.0
210
0.0
220
0.0
230
1.0
 40
0.408248290463863
 41
1.875100510927526
 42
6.746832916180383
  0
ELLIPSE
  5
6BFF
330
A
100
AcDbEntity
  8
0
  6
Continuous
 62
     7
370
     0
100
AcDbEllipse
 10
56.93898239039128
 20
-214.693045510227
 30
0.0
 11
2.000000000000001
 21
0.0
 31
0.0000000000000001
210
-0.0000000000000001
220
0.0
230
1.0
 40
0.4082482904638628
 41
1.875100510927534
 42
3.141592653589793
  0
ELLIPSE
  5
6C00
330
A
100
AcDbEntity
  8
0
  6
Continuous
 62
     7
370
     0
100
AcDbEllipse
 10
56.93898239039128
 20
-214.693045510227
 30
0.0
 11
2.000000000000001
 21
0.0
 31
0.0000000000000001
210
-0.0000000000000001
220
0.0
230
1.0
 40
0.4082482904638628
 41
3.141592653589793
 42
6.283185307179586
  0
LINE
  5
6C01
330
A
100
AcDbEntity
  8
0
  6
Continuous
 62
     7
370
     0
100
AcDbLine
 10
58.09160847113833
 20
-214.4474285563171
 30
0.0
 11
57.45538016988587
 21
-214.8408212528302
 31
0.0
  0
LINE
  5
6C02
330
A
100
AcDbEntity
  8
0
  6
Continuous
 62
     7
370
     0
100
AcDbLine
 10
57.5752106916442
 20
-214.0257915349614
 30
0.0
 11
58.09160847113855
 21
-214.4474285563169
 31
0.0
  0
LINE
  5
6C03
330
A
100
AcDbEntity
  8
0
  6
Continuous
 62
     7
370
     0
100
AcDbLine
 10
56.42258461089716
 20
-213.9975472101187
 30
0.0
 11
57.5752106916442
 21
-214.0257915349616
 31
0.0
  0
LINE
  5
6C04
330
A
100
AcDbEntity
  8
0
  6
Continuous
 62
     7
370
     0
100
AcDbLine
 10
55.78635630964424
 20
-214.3909399066315
 30
0.0
 11
56.42258461089693
 21
-213.9975472101187
 31
0.0
  0
LINE
  5
6C05
330
A
100
AcDbEntity
  8
0
  6
Continuous
 62
     7
370
     0
100
AcDbLine
 10
56.3027540891386
 20
-214.8125769279872
 30
0.0
 11
55.78635630964424
 21
-214.3909399066315
 31
0.0
  0
LINE
  5
6C06
330
A
100
AcDbEntity
  8
0
  6
Continuous
 62
     7
370
     0
100
AcDbLine
 10
57.45538016988587
 20
-214.8408212528302
 30
0.0
 11
56.3027540891386
 21
-214.8125769279872
 31
0.0
  0
LINE
  5
6C07
330
A
100
AcDbEntity
  8
0
  6
Continuous
 62
     7
370
     0
100
AcDbLine
 10
57.5752106916442
 20
-214.0257915349614
 30
0.0
 11
57.5752106916442
 21
-214.7667276421146
 31
0.0
  0
LINE
  5
6C08
330
A
100
AcDbEntity
  8
0
  6
Continuous
 62
     7
370
     0
100
AcDbLine
 10
56.42258461089716
 20
-213.9975472101187
 30
0.0
 11
56.42258461089716
 21
-214.815513294116
 31
0.0
  0
ELLIPSE
  5
6C09
330
A
100
AcDbEntity
  8
0
  6
Continuous
 62
     7
370
     0
100
AcDbEllipse
 10
795.3780712888701
 20
-63.95979763069454
 30
0.0
 11
2.000000000000001
 21
0.0
 31
0.0
210
0.0
220
0.0
230
1.0
 40
0.408248290463863
 41
0.4636476090008436
 42
1.266492142662262
  0
ELLIPSE
  5
6C0A
330
A
100
AcDbEntity
  8
0
  6
Continuous
 62
     7
370
     0
100
AcDbEllipse
 10
795.3780712888701
 20
-63.68593635194201
 30
0.0
 11
1.360000000000027
 21
0.0
 31
0.0
210
0.0
220
0.0
230
1.0
 40
0.4082482904638628
 41
0.4636476090008614
 42
1.26649214266222
  0
ELLIPSE
  5
6C0B
330
A
100
AcDbEntity
  8
0
  6
Continuous
 62
     7
370
     0
100
AcDbEllipse
 10
795.3780712888701
 20
-63.68593635194201
 30
0.0
 11
1.360000000000027
 21
0.0
 31
0.0
210
0.0
220
0.0
230
1.0
 40
0.4082482904638631
 41
1.266492142662219
 42
1.875100510927576
  0
ELLIPSE
  5
6C0C
330
A
100
AcDbEntity
  8
0
  6
Continuous
 62
     7
370
     0
100
AcDbEllipse
 10
795.3780712888701
 20
-63.95979763069454
 30
0.0
 11
2.000000000000001
 21
0.0
 31
0.0
210
0.0
220
0.0
230
1.0
 40
0.408248290463863
 41
0.0
 42
0.4636476090008436
  0
ELLIPSE
  5
6C0D
330
A
100
AcDbEntity
  8
0
  6
Continuous
 62
     7
370
     0
100
AcDbEllipse
 10
795.3780712888701
 20
-63.68593635194201
 30
0.0
 11
1.360000000000027
 21
0.0
 31
0.0
210
0.0
220
0.0
230
1.0
 40
0.4082482904638631
 41
1.875100510927576
 42
6.746832916180447
  0
ELLIPSE
  5
6C0E
330
A
100
AcDbEntity
  8
0
  6
Continuous
 62
     7
370
     0
100
AcDbEllipse
 10
795.3780712888701
 20
-63.95979763069454
 30
0.0
 11
2.000000000000001
 21
0.0
 31
0.0
210
0.0
220
0.0
230
1.0
 40
0.408248290463863
 41
1.87510051092753
 42
3.141592653589793
  0
ELLIPSE
  5
6C0F
330
A
100
AcDbEntity
  8
0
  6
Continuous
 62
     7
370
     0
100
AcDbEllipse
 10
795.3780712888701
 20
-63.95979763069454
 30
0.0
 11
2.000000000000001
 21
0.0
 31
0.0
210
0.0
220
0.0
230
1.0
 40
0.408248290463863
 41
3.141592653589793
 42
6.283185307179586
  0
LINE
  5
6C10
330
A
100
AcDbEntity
  8
0
  6
Continuous
 62
     7
370
     0
100
AcDbLine
 10
796.530697369617
 20
-63.71418067678496
 30
0.0
 11
795.8944690683641
 21
-64.10757337329801
 31
0.0
  0
LINE
  5
6C11
330
A
100
AcDbEntity
  8
0
  6
Continuous
 62
     7
370
     0
100
AcDbLine
 10
796.0142995901224
 20
-63.2925436554292
 30
0.0
 11
796.5306973696169
 21
-63.71418067678496
 31
0.0
  0
LINE
  5
6C12
330
A
100
AcDbEntity
  8
0
  6
Continuous
 62
     7
370
     0
100
AcDbLine
 10
794.8616735093755
 20
-63.26429933058648
 30
0.0
 11
796.0142995901227
 21
-63.2925436554292
 31
0.0
  0
LINE
  5
6C13
330
A
100
AcDbEntity
  8
0
  6
Continuous
 62
     7
370
     0
100
AcDbLine
 10
794.2254452081227
 20
-63.6576920270993
 30
0.0
 11
794.8616735093755
 21
-63.26429933058648
 31
0.0
  0
LINE
  5
6C14
330
A
100
AcDbEntity
  8
0
  6
Continuous
 62
     7
370
     0
100
AcDbLine
 10
794.7418429876171
 20
-64.07932904845506
 30
0.0
 11
794.2254452081225
 21
-63.6576920270993
 31
0.0
  0
LINE
  5
6C15
330
A
100
AcDbEntity
  8
0
  6
Continuous
 62
     7
370
     0
100
AcDbLine
 10
795.8944690683641
 20
-64.10757337329801
 30
0.0
 11
794.7418429876171
 21
-64.07932904845506
 31
0.0
  0
LINE
  5
6C16
330
A
100
AcDbEntity
  8
0
  6
Continuous
 62
     7
370
     0
100
AcDbLine
 10
796.0142995901224
 20
-63.2925436554292
 30
0.0
 11
796.0142995901223
 21
-64.0334797625826
 31
0.0
  0
LINE
  5
6C17
330
A
100
AcDbEntity
  8
0
  6
Continuous
 62
     7
370
     0
100
AcDbLine
 10
794.8616735093755
 20
-63.26429933058648
 30
0.0
 11
794.8616735093755
 21
-64.08226541458384
 31
0.0
  0
ELLIPSE
  5
6C18
330
A
100
AcDbEntity
  8
0
  6
Continuous
 62
     7
370
     0
100
AcDbEllipse
 10
790.0115081442549
 20
-72.41298243608207
 30
0.0
 11
-0.4800000002167515
 21
2.351510153027591
 31
0.0000000000000002
210
-0.0000000000000001
220
-0.0000000000000001
230
1.0
 40
0.408248290488089
 41
3.14159265358977
 42
4.421105226720191
  0
ELLIPSE
  5
6C19
330
A
100
AcDbEntity
  8
0
  6
Continuous
 62
     7
370
     0
100
AcDbEllipse
 10
790.0115081442549
 20
-72.41298243608207
 30
0.0
 11
-0.4800000002167515
 21
2.351510153027591
 31
-0.0000000000000002
210
-0.0000000000000001
220
0.0000000000000001
230
1.0
 40
0.4082482904880842
 41
2.978637091665449
 42
3.141592653589769
  0
ELLIPSE
  5
6C1A
330
A
100
AcDbEntity
  8
0
  6
Continuous
 62
     7
370
     0
100
AcDbEllipse
 10
37.97712594094003
 20
-225.921357938372
 30
0.0
 11
-0.8799999998418961
 21
4.311101947330753
 31
0.0
210
0.0
220
0.0
230
1.0
 40
0.4082482904725459
 41
4.611412540879575
 42
4.793790410334489
  0
ELLIPSE
  5
6C1B
330
A
100
AcDbEntity
  8
0
  6
Continuous
 62
     7
370
     0
100
AcDbEllipse
 10
37.97712594094003
 20
-225.921357938372
 30
0.0
 11
-0.8799999998418961
 21
4.311101947330753
 31
-0.0000000000000003
210
0.0
220
0.0000000000000001
230
1.0
 40
0.4082482904725504
 41
1.489394896845077
 42
3.141592653589767
  0
ELLIPSE
  5
6C1C
330
A
100
AcDbEntity
  8
0
  6
Continuous
 62
     7
370
     0
100
AcDbEllipse
 10
39.05043857014346
 20
-225.70226891541
 30
0.0
 11
-0.8799999998418961
 21
4.311101947330753
 31
0.0
210
0.0
220
0.0
230
1.0
 40
0.4082482904725459
 41
4.611412540879573
 42
4.793790410334493
  0
ELLIPSE
  5
6C1D
330
A
100
AcDbEntity
  8
0
  6
Continuous
 62
     7
370
     0
100
AcDbEllipse
 10
37.97712594094003
 20
-225.921357938372
 30
0.0
 11
-0.8799999998418961
 21
4.311101947330753
 31
0.0
210
-0.0000000000000001
220
0.0
230
1.0
 40
0.4082482904725539
 41
3.141592653589767
 42
4.611412540879571
  0
ELLIPSE
  5
6C1E
330
A
100
AcDbEntity
  8
0
  6
Continuous
 62
     7
370
     0
100
AcDbEllipse
 10
39.05043857014346
 20
-225.70226891541
 30
0.0
 11
-0.8799999998418961
 21
4.311101947330753
 31
0.0
210
-0.0000000000000001
220
0.0
230
1.0
 40
0.4082482904725539
 41
3.141592653589806
 42
4.611412540879577
  0
LINE
  5
6C1F
330
A
100
AcDbEntity
  8
0
  6
Continuous
 62
     9
370
     0
100
AcDbLine
 10
806.8267393331598
 20
-66.78969750842952
 30
0.0
 11
791.8003625243317
 21
-69.85694383132386
 31
0.0
  0
ELLIPSE
  5
6C20
330
A
100
AcDbEntity
  8
0
  6
Continuous
 62
     7
370
     0
100
AcDbEllipse
 10
791.0848207715377
 20
-69.27270643705151
 30
0.0
 11
0.3200000000860292
 21
-1.56767343536357
 31
0.0
210
0.0
220
0.0
230
0.9999999999999998
 40
0.4082482904370175
 41
1.107148718046389
 42
2.230359745544889
  0
ELLIPSE
  5
6C21
330
A
100
AcDbEntity
  8
0
  6
Continuous
 62
     7
370
     0
100
AcDbEllipse
 10
791.5185003111843
 20
-69.18418197169194
 30
0.0
 11
0.1393253794852445
 21
1.659839556137798
 31
0.0
210
0.0
220
0.0
230
0.9999999999999998
 40
0.1508319456039421
 41
0.5078254152901345
 42
0.9554107145865343
  0
LINE
  5
6C22
330
A
100
AcDbEntity
  8
0
  6
Continuous
 62
     9
370
     0
100
AcDbLine
 10
791.5185003109046
 20
-67.72358848486783
 30
0.0
 11
806.111197580086
 21
-64.74486662733352
 31
0.0
  0
ELLIPSE
  5
6C23
330
A
100
AcDbEntity
  8
0
  6
Continuous
 62
     7
370
     0
100
AcDbEllipse
 10
806.1111975803655
 20
-66.2054601141574
 30
0.0
 11
-0.3200000000860292
 21
1.56767343536357
 31
-0.0000000000000001
210
0.0
220
0.0000000000000001
230
0.9999999999999998
 40
0.408248290437007
 41
4.248741371636216
 42
5.819537698431082
  0
ELLIPSE
  5
6C24
330
A
100
AcDbEntity
  8
0
  6
Continuous
 62
     7
370
     0
100
AcDbEllipse
 10
791.0848207737741
 20
-80.95745433164371
 30
0.0
 11
0.3200000000860292
 21
-1.56767343536357
 31
0.0
210
0.0
220
0.0
230
0.9999999999999998
 40
0.4082482904369939
 41
6.267122997727536
 42
7.390334025225941
  0
LINE
  5
6C25
330
A
100
AcDbEntity
  8
0
  6
Continuous
 62
     7
370
     0
100
AcDbLine
 10
791.3945000590789
 20
-82.52702382431062
 30
0.0
 11
791.3945000563384
 21
-68.20884109890176
 31
0.0
  0
LINE
  5
6C26
330
A
100
AcDbEntity
  8
0
  6
Continuous
 62
     7
370
     0
100
AcDbLine
 10
791.8003625243319
 20
-69.85694383132386
 30
0.0
 11
791.8003625265684
 21
-81.54169172591583
 31
0.0
  0
LINE
  5
6C27
330
A
100
AcDbEntity
  8
0
  6
Continuous
 62
     9
370
     0
100
AcDbLine
 10
791.8003625265684
 20
-81.5416917259156
 30
0.0
 11
806.8267393353966
 21
-78.47444540302126
 31
0.0
  0
LINE
  5
6C28
330
A
100
AcDbEntity
  8
0
  6
Continuous
 62
     7
370
     0
100
AcDbLine
 10
806.8267393353963
 20
-78.47444540302126
 30
0.0
 11
806.8267393331598
 21
-66.7896975084293
 31
0.0
  0
ELLIPSE
  5
6C29
330
A
100
AcDbEntity
  8
0
  6
Continuous
 62
     7
370
     0
100
AcDbEllipse
 10
783.9294032432727
 20
-66.35151946539486
 30
0.0
 11
-8.000000000000007
 21
-0.0000000015312196
 31
0.0000000000000001
210
0.0
220
0.0000000000000001
230
1.0
 40
0.4082482902632329
 41
2.994375024310531
 42
3.1415926535898
  0
LINE
  5
6C2A
330
A
100
AcDbEntity
  8
0
  6
Continuous
 62
     7
370
     0
100
AcDbLine
 10
787.7386886959456
 20
-63.47954731161962
 30
0.0
 11
785.7941662885502
 21
-63.04968933069108
 31
0.0
  0
LINE
  5
6C2B
330
A
100
AcDbEntity
  8
0
  6
Continuous
 62
     9
370
     0
100
AcDbLine
 10
800.3868635577315
 20
-60.07096747315677
 30
0.0
 11
785.7941662885499
 21
-63.04968933069108
 31
0.0
  0
LINE
  5
6C2C
330
A
100
AcDbEntity
  8
0
  6
Continuous
 62
     7
370
     0
100
AcDbLine
 10
800.3868635577315
 20
-60.07096747315677
 30
0.0
 11
806.1111975800862
 21
-64.74486662733352
 31
0.0
  0
LINE
  5
6C2D
330
A
100
AcDbEntity
  8
0
  6
Continuous
 62
     7
370
     0
100
AcDbLine
 10
791.5185003109046
 20
-67.72358848486783
 30
0.0
 11
791.842867582227
 21
-66.83059533751566
 31
0.0
  0
ELLIPSE
  5
6C2E
330
A
100
AcDbEntity
  8
0
  6
Continuous
 62
     7
370
     0
100
AcDbEllipse
 10
783.9294032432727
 20
-66.35151946539486
 30
0.0
 11
-8.000000000000007
 21
-0.0000000015312196
 31
0.0
210
0.0
220
0.0000000000000001
230
1.0
 40
0.4082482902632329
 41
3.1415926535898
 42
3.605240262512896
  0
ELLIPSE
  5
6C2F
330
A
100
AcDbEntity
  8
0
  6
Continuous
 62
     7
370
     0
100
AcDbEllipse
 10
783.9294032432727
 20
-66.35151946539486
 30
0.0
 11
-8.000000000000007
 21
-0.0000000015312196
 31
0.0000000000000002
210
0.0
220
0.0000000000000001
230
1.0
 40
0.4082482902632329
 41
3.605240262512896
 42
4.216105500706561
  0
ELLIPSE
  5
6C30
330
A
100
AcDbEntity
  8
0
  6
Continuous
 62
     7
370
     0
100
AcDbEllipse
 10
806.1111975826019
 20
-77.89020800874936
 30
0.0
 11
-0.3200000000860292
 21
1.56767343536357
 31
0.0
210
0.0
220
0.0
230
0.9999999999999998
 40
0.4082482904370175
 41
3.141592653589933
 42
4.24874137163626
  0
LINE
  5
6C31
330
A
100
AcDbEntity
  8
0
  6
Continuous
 62
     7
370
     0
100
AcDbLine
 10
785.0508074638784
 20
-63.02923779020807
 30
0.0
 11
785.0508074638971
 21
-63.12749340124651
 31
0.0
  0
ELLIPSE
  5
6C32
330
A
100
AcDbEntity
  8
0
  6
Continuous
 62
     7
370
     0
100
AcDbEllipse
 10
785.7941662888298
 20
-64.51028281751542
 30
0.0
 11
-1.562360211306845
 21
0.9521687160773954
 31
0.0
210
0.0
220
0.0
230
1.0
 40
0.7494071203658498
 41
5.140817643799648
 42
5.588402943096015
  0
ELLIPSE
  5
6C33
330
A
100
AcDbEntity
  8
0
  6
Continuous
 62
     7
370
     0
100
AcDbEllipse
 10
800.386863558011
 20
-61.53156095998065
 30
0.0
 11
-0.3200000000860292
 21
1.56767343536357
 31
0.0
210
-0.0000000000000001
220
0.0
230
0.9999999999999998
 40
0.4082482904369942
 41
5.819537698430944
 42
6.28318530717955
  0
ELLIPSE
  5
6C34
330
A
100
AcDbEntity
  8
0
  6
Continuous
 62
     7
370
     0
100
AcDbEllipse
 10
785.360486749183
 20
-64.59880728287498
 30
0.0
 11
0.3200000000860292
 21
-1.56767343536357
 31
0.0
210
0.0
220
0.0
230
0.9999999999999998
 40
0.4082482904369938
 41
3.12553034413763
 42
3.426663284999929
  0
ELLIPSE
  5
6C35
330
A
100
AcDbEntity
  8
0
  6
Continuous
 62
     9
370
     0
100
AcDbEllipse
 10
783.9294032432318
 20
-66.35151946540145
 30
0.0
 11
-5.600000000000049
 21
-0.0000000018580693
 31
-0.0000000000000002
210
0.0
220
0.0000000000000001
230
1.0
 40
0.4082482900402739
 41
0.0
 42
6.283185307179586
  0
ELLIPSE
  5
6C36
330
A
100
AcDbEntity
  8
0
  6
Continuous
 62
     7
370
     0
100
AcDbEllipse
 10
768.9030264349179
 20
-67.95817230505599
 30
0.0
 11
0.3200000000975756
 21
-1.567673435361349
 31
0.0000000000000001
210
0.0
220
0.0000000000000001
230
1.0
 40
0.4082482904379372
 41
2.677945045113927
 42
3.141592653589753
  0
LINE
  5
6C37
330
A
100
AcDbEntity
  8
0
  6
Continuous
 62
     7
370
     0
100
AcDbLine
 10
774.6273604568326
 20
-71.17147796902009
 30
0.0
 11
771.7652314380492
 21
-68.83455941422448
 31
0.0
  0
LINE
  5
6C38
330
A
100
AcDbEntity
  8
0
  6
Continuous
 62
     7
370
     0
100
AcDbLine
 10
771.7652314380492
 20
-68.83455941422448
 30
0.0
 11
768.9030264344332
 21
-66.49757881807272
 31
0.0
  0
ELLIPSE
  5
6C39
330
A
100
AcDbEntity
  8
0
  6
Continuous
 62
     7
370
     0
100
AcDbEllipse
 10
774.6273604573174
 20
-72.63207145600336
 30
0.0
 11
0.3200000000975756
 21
-1.567673435361349
 31
0.0
210
-0.0000000000000001
220
0.0
230
1.0
 40
0.4082482904379469
 41
1.107148718318945
 42
2.677945045113957
  0
LINE
  5
6C3A
330
A
100
AcDbEntity
  8
0
  6
Continuous
 62
     7
370
     0
100
AcDbLine
 10
775.3429022101173
 20
-73.2163088498719
 30
0.0
 11
775.3429022120557
 21
-79.05889045095
 31
0.0
  0
LINE
  5
6C3B
330
A
100
AcDbEntity
  8
0
  6
Continuous
 62
     7
370
     0
100
AcDbLine
 10
775.3429022120557
 20
-79.05889045095
 30
0.0
 11
775.3429022139942
 21
-84.9010567457392
 31
0.0
  0
ARC
  5
6C3C
330
A
100
AcDbEntity
  8
0
  6
Continuous
 62
     7
370
     0
100
AcDbCircle
 10
768.844298729968
 20
-44.22463135925659
 30
0.0
 40
32.41928605621981
100
AcDbArc
 50
305.1465724284421
 51
313.3164685420595
  0
LINE
  5
6C3D
330
A
100
AcDbEntity
  8
0
  6
Continuous
 62
     9
370
     0
100
AcDbLine
 10
787.507112007716
 20
-70.73329992172694
 30
0.0
 11
775.3429022101173
 21
-73.2163088498719
 31
0.0
  0
LINE
  5
6C3E
330
A
100
AcDbEntity
  8
0
  6
Continuous
 62
     9
370
     0
100
AcDbLine
 10
774.6273604568326
 20
-71.17147796902009
 30
0.0
 11
786.7915702544316
 21
-68.68846904087513
 31
0.0
  0
LINE
  5
6C3F
330
A
100
AcDbEntity
  8
0
  6
Continuous
 62
     9
370
     0
100
AcDbLine
 10
786.7915702544316
 20
-68.68846904087513
 30
0.0
 11
791.0848207712311
 21
-67.81211294858872
 31
0.0
  0
LINE
  5
6C40
330
A
100
AcDbEntity
  8
0
  6
Continuous
 62
     9
370
     0
100
AcDbLine
 10
787.5071120115929
 20
-82.41804781759425
 30
0.0
 11
787.507112007716
 21
-70.73329992172694
 31
0.0
  0
LINE
  5
6C41
330
A
100
AcDbEntity
  8
0
  6
Continuous
 62
     9
370
     0
100
AcDbLine
 10
775.3429022139942
 20
-84.9010567457392
 30
0.0
 11
787.5071120115929
 21
-82.41804781759425
 31
0.0
  0
LINE
  5
6C42
330
A
100
AcDbEntity
  8
0
  6
Continuous
 62
     9
370
     0
100
AcDbLine
 10
781.0672362320323
 20
-64.01456988992777
 30
0.0
 11
768.9030264344333
 21
-66.49757881807272
 31
0.0
  0
ELLIPSE
  5
6C43
330
A
100
AcDbEntity
  8
0
  6
Continuous
 62
     7
370
     0
100
AcDbEllipse
 10
783.9294032432318
 20
-66.35151946540145
 30
0.0
 11
6.399999999999961
 21
0.0000000021234126
 31
0.0000000000000003
210
0.0
220
0.0000000000000001
230
1.0
 40
0.4082482900404695
 41
3.141592653589775
 42
5.176036589250044
  0
ELLIPSE
  5
6C44
330
A
100
AcDbEntity
  8
0
  6
Continuous
 62
     7
370
     0
100
AcDbEllipse
 10
783.9294032432318
 20
-66.35151946540145
 30
0.0
 11
6.399999999999961
 21
0.0000000021234126
 31
0.0000000000000005
210
-0.0000000000000001
220
0.0
230
1.0
 40
0.4082482900404693
 41
5.176036589250044
 42
6.283185307179589
  0
ELLIPSE
  5
6C45
330
A
100
AcDbEntity
  8
0
  6
Continuous
 62
     7
370
     0
100
AcDbEllipse
 10
783.9294032432318
 20
-66.35151946540145
 30
0.0
 11
6.399999999999961
 21
0.0000000021234126
 31
0.0000000000000005
210
-0.0000000000000001
220
0.0
230
1.0
 40
0.4082482900404693
 41
2.034443935660246
 42
3.141592653589778
  0
ELLIPSE
  5
6C46
330
A
100
AcDbEntity
  8
0
  6
Continuous
 62
     7
370
     0
100
AcDbEllipse
 10
783.9294032463939
 20
-75.88189196796839
 30
0.0
 11
6.399999999999961
 21
0.0000000021234126
 31
0.0000000000000006
210
-0.0000000000000001
220
0.0
230
1.0
 40
0.4082482900404693
 41
5.836569126304841
 42
6.283185307179583
  0
ELLIPSE
  5
6C47
330
A
100
AcDbEntity
  8
0
  6
Continuous
 62
     7
370
     0
100
AcDbEllipse
 10
783.9294032432318
 20
-66.35151946540145
 30
0.0
 11
6.399999999999961
 21
0.0000000021234126
 31
0.0000000000000003
210
0.0
220
0.0000000000000001
230
1.0
 40
0.4082482900404695
 41
0.000000000000004
 42
2.034443935660246
  0
ELLIPSE
  5
6C48
330
A
100
AcDbEntity
  8
0
  6
Continuous
 62
     7
370
     0
100
AcDbEllipse
 10
783.9294032463939
 20
-75.88189196796839
 30
0.0
 11
-8.000000000000007
 21
-0.0000000026543212
 31
-0.0000000000000002
210
0.0
220
0.0000000000000001
230
1.0
 40
0.4082482900404696
 41
3.509346876572949
 42
3.544382309817969
  0
ELLIPSE
  5
6C49
330
A
100
AcDbEntity
  8
0
  6
Continuous
 62
     7
370
     0
100
AcDbEllipse
 10
783.929403248078
 20
-80.95745433523552
 30
0.0
 11
8.000000000000007
 21
0.0000000026543212
 31
0.0000000000000005
210
-0.0000000000000001
220
0.0
230
1.0
 40
0.4082482900404698
 41
5.819537698043327
 42
5.91543108383406
  0
ELLIPSE
  5
6C4A
330
A
100
AcDbEntity
  8
0
  6
Continuous
 62
     7
370
     0
100
AcDbEllipse
 10
783.9294032432318
 20
-66.35151946540145
 30
0.0
 11
-8.000000000000007
 21
-0.0000000026543212
 31
-0.0000000000000006
210
-0.0000000000000001
220
0.0
230
1.0
 40
0.4082482900404694
 41
3.141592653589791
 42
3.605240262455154
  0
ELLIPSE
  5
6C4B
330
A
100
AcDbEntity
  8
0
  6
Continuous
 62
     7
370
     0
100
AcDbEllipse
 10
783.929403244916
 20
-71.42708183266882
 30
0.0
 11
8.000000000000007
 21
0.0000000026543212
 31
0.0000000000000007
210
-0.0000000000000001
220
0.0
230
1.0
 40
0.4082482900404693
 41
5.518400011165377
 42
5.915431084299253
  0
LINE
  5
6C4C
330
A
100
AcDbEntity
  8
0
  6
Continuous
 62
     7
370
     0
100
AcDbLine
 10
789.7016514957646
 20
-73.68839229431251
 30
0.0
 11
789.7016514972425
 21
-78.14320242961184
 31
0.0
  0
ELLIPSE
  5
6C4D
330
A
100
AcDbEntity
  8
0
  6
Continuous
 62
     7
370
     0
100
AcDbEllipse
 10
783.9294032463939
 20
-75.88189196796839
 30
0.0
 11
-8.000000000000007
 21
-0.0000000026543212
 31
0.0
210
0.0
220
0.0
230
1.0
 40
0.4082482900404696
 41
2.376807357575577
 42
2.773838430492013
  0
ARC
  5
6C4E
330
A
100
AcDbEntity
  8
0
  6
Continuous
 62
     7
370
     0
100
AcDbCircle
 10
789.7102094392733
 20
-75.6083831584408
 30
0.0
 40
7.157176192184846
100
AcDbArc
 50
252.072303968227
 51
275.3820869492461
  0
ELLIPSE
  5
6C4F
330
A
100
AcDbEntity
  8
0
  6
Continuous
 62
     7
370
     0
100
AcDbEllipse
 10
783.9294032432318
 20
-66.35151946540145
 30
0.0
 11
-8.000000000000007
 21
-0.0000000026543212
 31
-0.0000000000000005
210
-0.0000000000000001
220
0.0
230
1.0
 40
0.4082482900404694
 41
2.677945044453549
 42
2.99437502425602
  0
ELLIPSE
  5
6C50
330
A
100
AcDbEntity
  8
0
  6
Continuous
 62
     7
370
     0
100
AcDbEllipse
 10
783.9294032432318
 20
-66.35151946540145
 30
0.0
 11
-8.000000000000007
 21
-0.0000000026543212
 31
0.0
210
0.0
220
0.0
230
1.0
 40
0.4082482900404696
 41
2.994375024256018
 42
3.141592653589791
  0
ELLIPSE
  5
6C51
330
A
100
AcDbEntity
  8
0
  6
Continuous
 62
     7
370
     0
100
AcDbEllipse
 10
774.6273604611944
 20
-84.31681935187066
 30
0.0
 11
0.3200000000975756
 21
-1.567673435361349
 31
0.0000000000000002
210
-0.0000000000000001
220
0.0000000000000001
230
1.0
 40
0.4082482904379471
 41
0.0000000000000001
 42
1.107148718319014
  0
LINE
  5
6C52
330
A
100
AcDbEntity
  8
0
  6
Continuous
 62
     7
370
     0
100
AcDbLine
 10
790.381531484814
 20
-82.73400578086102
 30
0.0
 11
791.0848207760774
 21
-82.41804781842279
 31
0.0
  0
LINE
  5
6C53
330
A
100
AcDbEntity
  8
0
  6
Continuous
 62
     9
370
     0
100
AcDbLine
 10
785.3604867488319
 20
-63.13821379764135
 30
0.0
 11
781.0672362320323
 21
-64.01456988992777
 31
0.0
  0
ELLIPSE
  5
6C54
330
A
100
AcDbEntity
  8
0
  6
Continuous
 62
     7
370
     0
100
AcDbEllipse
 10
783.9294032432318
 20
-66.35151946540145
 30
0.0
 11
-8.000000000000007
 21
-0.0000000026543212
 31
-0.0000000000000001
210
0.0
220
0.0
230
1.0
 40
0.4082482900404696
 41
3.605240262455155
 42
4.216105500199189
  0
ELLIPSE
  5
6C55
330
A
100
AcDbEntity
  8
0
  6
Continuous
 62
     7
370
     0
100
AcDbEllipse
 10
783.9294032432318
 20
-66.35151946540145
 30
0.0
 11
-8.000000000000007
 21
-0.0000000026543212
 31
-0.0000000000000003
210
0.0
220
0.0000000000000001
230
1.0
 40
0.4082482900404696
 41
4.216105500199189
 42
4.532535480456756
  0
LINE
  5
6C56
330
A
100
AcDbEntity
  8
0
  6
Continuous
 62
     7
370
     0
100
AcDbLine
 10
784.0168342203143
 20
-63.24008609512748
 30
0.0
 11
785.3604867488317
 21
-63.13821379764135
 31
0.0
  0
ELLIPSE
  5
6C57
330
A
100
AcDbEntity
  8
0
  6
Continuous
 62
     7
370
     0
100
AcDbEllipse
 10
77.68969323175781
 20
-209.051503161244
 30
0.0
 11
0.3200000000974645
 21
-1.567673435361349
 31
0.0
210
0.0
220
0.0
230
0.9999999999999998
 40
0.4082482904379602
 41
2.677945044563628
 42
3.141592653589794
  0
LINE
  5
6C58
330
A
100
AcDbEntity
  8
0
  6
Continuous
 62
     7
370
     0
100
AcDbLine
 10
83.41402725406636
 20
-212.2648088319595
 30
0.0
 11
77.68969323166686
 21
-207.590909674582
 31
0.0
  0
ELLIPSE
  5
6C59
330
A
100
AcDbEntity
  8
0
  6
Continuous
 62
     7
370
     0
100
AcDbEllipse
 10
83.41402725415708
 20
-213.7254023186215
 30
0.0
 11
0.3200000000974645
 21
-1.567673435361349
 31
0.0000000000000001
210
-0.0000000000000001
220
0.0000000000000001
230
0.9999999999999998
 40
0.4082482904379458
 41
1.107148717768707
 42
2.677945044563592
  0
LINE
  5
6C5A
330
A
100
AcDbEntity
  8
0
  6
Continuous
 62
     7
370
     0
100
AcDbLine
 10
84.12956900768392
 20
-225.9943876065888
 30
0.0
 11
84.12956900754773
 21
-223.8031157019768
 31
0.0
  0
LINE
  5
6C5B
330
A
100
AcDbEntity
  8
0
  6
Continuous
 62
     7
370
     0
100
AcDbLine
 10
84.12956900754773
 20
-223.8031157019766
 30
0.0
 11
84.12956900695723
 21
-214.3096397132936
 31
0.0
  0
LINE
  5
6C5C
330
A
100
AcDbEntity
  8
0
  6
Continuous
 62
     9
370
     0
100
AcDbLine
 10
84.12956900695702
 20
-214.3096397132936
 30
0.0
 11
775.3429022116923
 21
-73.21630885517675
 31
0.0
  0
LINE
  5
6C5D
330
A
100
AcDbEntity
  8
0
  6
Continuous
 62
     9
370
     0
100
AcDbLine
 10
83.41402725406636
 20
-212.2648088319595
 30
0.0
 11
774.6273604588014
 21
-71.17147797384268
 31
0.0
  0
ELLIPSE
  5
6C5E
330
A
100
AcDbEntity
  8
0
  6
Continuous
 62
     7
370
     0
100
AcDbEllipse
 10
774.6273604588924
 20
-72.63207146050445
 30
0.0
 11
0.3200000000975756
 21
-1.567673435361349
 31
0.0000000000000001
210
-0.0000000000000001
220
0.0000000000000001
230
1.0
 40
0.4082482904379458
 41
1.107148717768678
 42
2.677945044563657
  0
LINE
  5
6C5F
330
A
100
AcDbEntity
  8
0
  6
Continuous
 62
     9
370
     0
100
AcDbLine
 10
84.12956900768392
 20
-225.9943876065888
 30
0.0
 11
775.3429022124191
 21
-84.90105674847177
 31
0.0
  0
LINE
  5
6C60
330
A
100
AcDbEntity
  8
0
  6
Continuous
 62
     7
370
     0
100
AcDbLine
 10
775.3429022124191
 20
-84.90105674847177
 30
0.0
 11
775.3429022116923
 21
-73.21630885517675
 31
0.0
  0
LINE
  5
6C61
330
A
100
AcDbEntity
  8
0
  6
Continuous
 62
     9
370
     0
100
AcDbLine
 10
77.68969323166686
 20
-207.590909674582
 30
0.0
 11
768.9030264364022
 21
-66.49757881646519
 31
0.0
  0
LINE
  5
6C62
330
A
100
AcDbEntity
  8
0
  6
Continuous
 62
     7
370
     0
100
AcDbLine
 10
774.6273604588014
 20
-71.17147797384268
 30
0.0
 11
768.9030264364022
 21
-66.49757881646519
 31
0.0
  0
ELLIPSE
  5
6C63
330
A
100
AcDbEntity
  8
0
  6
Continuous
 62
     7
370
     0
100
AcDbEllipse
 10
766.3986303016026
 20
-69.9299735105119
 30
0.0
 11
2.599999999999935
 21
0.0000000001616485
 31
0.0000000000000001
210
0.0
220
0.0
230
1.0
 40
0.4082482904897799
 41
6.283185307179559
 42
6.677976426013535
  0
ELLIPSE
  5
6C64
330
A
100
AcDbEntity
  8
0
  6
Continuous
 62
     7
370
     0
100
AcDbEllipse
 10
85.91842338886602
 20
-208.8324141379128
 30
0.0
 11
2.600000000000046
 21
0.0000000001616485
 31
0.0
210
0.0
220
0.0
230
1.0
 40
0.4082482904897799
 41
3.1415926535898
 42
5.176036589360104
  0
ELLIPSE
  5
6C65
330
A
100
AcDbEntity
  8
0
  6
Continuous
 62
     7
370
     0
100
AcDbEllipse
 10
85.91842338886602
 20
-208.8324141379128
 30
0.0
 11
2.600000000000046
 21
0.0000000001616485
 31
0.0000000000000002
210
-0.0000000000000001
220
0.0000000000000001
230
1.0
 40
0.4082482904897803
 41
5.176036589360104
 42
6.283185307179598
  0
ELLIPSE
  5
6C66
330
A
100
AcDbEntity
  8
0
  6
Continuous
 62
     7
370
     0
100
AcDbEllipse
 10
85.91842338886602
 20
-208.8324141379128
 30
0.0
 11
2.600000000000046
 21
0.0000000001616485
 31
0.0000000000000001
210
0.0
220
0.0
230
1.0
 40
0.4082482904897803
 41
2.746801533024334
 42
3.141592653589803
  0
ELLIPSE
  5
6C67
330
A
100
AcDbEntity
  8
0
  6
Continuous
 62
     7
370
     0
100
AcDbEllipse
 10
85.91842338886602
 20
-208.8324141379128
 30
0.0
 11
2.600000000000046
 21
0.0000000001616485
 31
0.0000000000000001
210
0.0
220
0.0000000000000001
230
1.0
 40
0.4082482904897803
 41
0.0000000000000139
 42
0.3947911188340801
  0
ELLIPSE
  5
6C68
330
A
100
AcDbEntity
  8
0
  6
Continuous
 62
     7
370
     0
100
AcDbEllipse
 10
83.41402725488398
 20
-225.4101502119167
 30
0.0
 11
0.3200000000975756
 21
-1.567673435361349
 31
0.0000000000000001
210
0.0
220
0.0000000000000001
230
1.0
 40
0.4082482904379459
 41
0.0000000000000001
 42
1.107148717768724
  0
ELLIPSE
  5
6C69
330
A
100
AcDbEntity
  8
0
  6
Continuous
 62
     7
370
     0
100
AcDbEllipse
 10
774.6273604596191
 20
-84.31681935379993
 30
0.0
 11
0.3200000000975756
 21
-1.567673435361349
 31
0.0000000000000001
210
-0.0000000000000001
220
0.0000000000000001
230
1.0
 40
0.4082482904379458
 41
0.0000000000000357
 42
1.107148717768693
  0
ELLIPSE
  5
6C6A
330
A
100
AcDbEntity
  8
0
  6
Continuous
 62
     7
370
     0
100
AcDbEllipse
 10
768.9030264364929
 20
-67.95817230312718
 30
0.0
 11
0.3200000000973535
 21
-1.567673435361349
 31
0.0
210
0.0
220
0.0
230
1.0
 40
0.4082482904379602
 41
2.677945044563632
 42
3.141592653589831
  0
ELLIPSE
  5
6C6B
330
A
100
AcDbEntity
  8
0
  6
Continuous
 62
     7
370
     0
100
AcDbEllipse
 10
766.3986303016026
 20
-69.9299735105119
 30
0.0
 11
2.599999999999935
 21
0.0000000001616485
 31
0.0000000000000002
210
-0.0000000000000001
220
0.0000000000000001
230
1.0
 40
0.4082482904897804
 41
2.74680153302427
 42
3.141592653589798
  0
ELLIPSE
  5
6C6C
330
A
100
AcDbEntity
  8
0
  6
Continuous
 62
     7
370
     0
100
AcDbEllipse
 10
766.3986303016026
 20
-69.9299735105119
 30
0.0
 11
2.599999999999935
 21
0.0000000001616485
 31
0.0000000000000001
210
0.0
220
0.0
230
1.0
 40
0.4082482904897804
 41
3.141592653589798
 42
6.283185307179564
  0
ELLIPSE
  5
6C6D
330
A
100
AcDbEntity
  8
0
  6
Continuous
 62
     7
370
     0
100
AcDbEllipse
 10
39.05043857018711
 20
-225.7022689154012
 30
0.0
 11
0.8799999998418961
 21
-4.311101947330753
 31
0.0
210
0.0000000000000001
220
0.0
230
1.0
 40
0.4082482904725461
 41
0.000000000000013
 42
1.469819887289768
  0
ELLIPSE
  5
6C6E
330
A
100
AcDbEntity
  8
0
  6
Continuous
 62
     7
370
     0
100
AcDbEllipse
 10
39.05043857018711
 20
-225.7022689154012
 30
0.0
 11
0.8799999998418961
 21
-4.311101947330753
 31
0.0000000000000003
210
-0.0000000000000001
220
0.0000000000000001
230
1.0
 40
0.4082482904725448
 41
1.469819887289768
 42
1.652197756744677
  0
ELLIPSE
  5
6C6F
330
A
100
AcDbEntity
  8
0
  6
Continuous
 62
     7
370
     0
100
AcDbEllipse
 10
39.4082094465881
 20
-225.6292392410805
 30
0.0
 11
-0.9599999998274322
 21
4.703020306178862
 31
-0.0000000000000003
210
-0.0000000000000001
220
0.0000000000000001
230
1.0
 40
0.4082482904725464
 41
3.14159265358977
 42
4.78699376717117
  0
ELLIPSE
  5
6C70
330
A
100
AcDbEntity
  8
0
  6
Continuous
 62
     7
370
     0
100
AcDbEllipse
 10
39.4082094465881
 20
-225.6292392410805
 30
0.0
 11
-0.9599999998274322
 21
4.703020306178862
 31
-0.0000000000000003
210
0.0
220
0.0000000000000001
230
1.0
 40
0.4082482904725462
 41
2.730454791267481
 42
3.14159265358978
  0
ELLIPSE
  5
6C71
330
A
100
AcDbEntity
  8
0
  6
Continuous
 62
     9
370
     0
100
AcDbEllipse
 10
68.38765044594913
 20
-212.4108681812768
 30
0.0
 11
-5.599999999999938
 21
0.0
 31
0.0
210
0.0
220
0.0
230
1.0
 40
0.4082482904638631
 41
0.0
 42
6.283185307179586
  0
ELLIPSE
  5
6C72
330
A
100
AcDbEntity
  8
0
  6
Continuous
 62
     7
370
     0
100
AcDbEllipse
 10
66.95656692969317
 20
-217.0847673450857
 30
0.0
 11
-0.3199999999424774
 21
1.567673435392879
 31
-0.0000000000000001
210
-0.0000000000000001
220
0.0000000000000001
230
0.9999999999999998
 40
0.4082482904725635
 41
4.248741371375471
 42
5.371952398874002
  0
LINE
  5
6C73
330
A
100
AcDbEntity
  8
0
  6
Continuous
 62
     9
370
     0
100
AcDbLine
 10
67.67210868248401
 20
-217.669004739794
 30
0.0
 11
29.74839578396507
 21
-225.4101502177761
 31
0.0
  0
ELLIPSE
  5
6C74
330
A
100
AcDbEntity
  8
0
  6
Continuous
 62
     7
370
     0
100
AcDbEllipse
 10
29.032854031174
 20
-224.8259128230679
 30
0.0
 11
0.3199999999424774
 21
-1.567673435392879
 31
0.0000000000000001
210
0.0
220
0.0000000000000001
230
0.9999999999999998
 40
0.4082482904725495
 41
1.107148717785661
 42
2.677945044580522
  0
LINE
  5
6C75
330
A
100
AcDbEntity
  8
0
  6
Continuous
 62
     9
370
     0
100
AcDbLine
 10
29.03285403123994
 20
-223.3653193363912
 30
0.0
 11
66.52288739011158
 21
-215.7126983237276
 31
0.0
  0
ELLIPSE
  5
6C76
330
A
100
AcDbEntity
  8
0
  6
Continuous
 62
     7
370
     0
100
AcDbEllipse
 10
66.52288739004609
 20
-217.1732918104044
 30
0.0
 11
1.562360211272428
 21
-0.9521687163172032
 31
0.0
210
0.0
220
0.0
230
1.0
 40
0.7494071202502314
 41
1.551639690757755
 42
1.999224990054107
  0
ELLIPSE
  5
6C77
330
A
100
AcDbEntity
  8
0
  6
Continuous
 62
     7
370
     0
100
AcDbEllipse
 10
29.03285403064831
 20
-236.5106607164819
 30
0.0
 11
0.3199999999424774
 21
-1.567673435392879
 31
0.0
210
0.0
220
0.0
230
0.9999999999999998
 40
0.4082482904725543
 41
5.819537698170315
 42
6.28318530717955
  0
LINE
  5
6C78
330
A
100
AcDbEntity
  8
0
  6
Continuous
 62
     7
370
     0
100
AcDbLine
 10
29.03285403058283
 20
-237.9712542031587
 30
0.0
 11
23.30852000825746
 21
-233.2973550454924
 31
0.0
  0
ELLIPSE
  5
6C79
330
A
100
AcDbEntity
  8
0
  6
Continuous
 62
     7
370
     0
100
AcDbEllipse
 10
23.30852000832294
 20
-231.8367615588158
 30
0.0
 11
0.3199999999424774
 21
-1.567673435392879
 31
0.0000000000000001
210
0.0
220
0.0000000000000001
230
0.9999999999999998
 40
0.4082482904725494
 41
4.248741371375429
 42
5.819537698170317
  0
LINE
  5
6C7A
330
A
100
AcDbEntity
  8
0
  6
Continuous
 62
     7
370
     0
100
AcDbLine
 10
22.59297825605802
 20
-219.5677762706935
 30
0.0
 11
22.59297825553233
 21
-231.2525241641076
 31
0.0
  0
ELLIPSE
  5
6C7B
330
A
100
AcDbEntity
  8
0
  6
Continuous
 62
     7
370
     0
100
AcDbEllipse
 10
23.30852000884863
 20
-220.1520136654017
 30
0.0
 11
0.3199999999424774
 21
-1.567673435392879
 31
0.0
210
0.0
220
0.0
230
0.9999999999999998
 40
0.4082482904725545
 41
2.677945044580588
 42
3.141592653589825
  0
LINE
  5
6C7C
330
A
100
AcDbEntity
  8
0
  6
Continuous
 62
     7
370
     0
100
AcDbLine
 10
29.03285403123994
 20
-223.3653193363912
 30
0.0
 11
23.30852000891457
 21
-218.6914201787249
 31
0.0
  0
LINE
  5
6C7D
330
A
100
AcDbEntity
  8
0
  6
Continuous
 62
     7
370
     0
100
AcDbLine
 10
29.74839578396507
 20
-225.4101502177761
 30
0.0
 11
29.74839578343915
 21
-237.0948981111903
 31
0.0
  0
LINE
  5
6C7E
330
A
100
AcDbEntity
  8
0
  6
Continuous
 62
     9
370
     0
100
AcDbLine
 10
42.9859182102806
 20
-234.3928001613285
 30
0.0
 11
67.67210868195809
 21
-229.3537526332082
 31
0.0
  0
LINE
  5
6C7F
330
A
100
AcDbEntity
  8
0
  6
Continuous
 62
     7
370
     0
100
AcDbLine
 10
42.98591821067486
 20
-225.6292392412681
 30
0.0
 11
42.9859182102806
 21
-234.3928001613285
 31
0.0
  0
ELLIPSE
  5
6C80
330
A
100
AcDbEntity
  8
0
  6
Continuous
 62
     7
370
     0
100
AcDbEllipse
 10
41.91260558147166
 20
-225.8483282642296
 30
0.0
 11
-0.7589466384744226
 21
-0.9295160030620142
 31
0.0
210
0.0
220
0.0
230
1.0
 40
0.8164965809208064
 41
3.141592653589792
 42
3.926990816982945
  0
LINE
  5
6C81
330
A
100
AcDbEntity
  8
0
  6
Continuous
 62
     7
370
     0
100
AcDbLine
 10
34.75718805349846
 20
-226.2134766356339
 30
0.0
 11
41.91260558152101
 21
-224.752883149222
 31
0.0
  0
ELLIPSE
  5
6C82
330
A
100
AcDbEntity
  8
0
  6
Continuous
 62
     7
370
     0
100
AcDbEllipse
 10
34.75718805344911
 20
-227.3089217506415
 30
0.0
 11
-0.7589466384744226
 21
-0.9295160030620142
 31
0.0
210
0.0
220
0.0
230
1.0
 40
0.8164965809208046
 41
3.9269908169829
 42
5.497787143777798
  0
LINE
  5
6C83
330
A
100
AcDbEntity
  8
0
  6
Continuous
 62
     7
370
     0
100
AcDbLine
 10
33.68387542385142
 20
-236.2915716936639
 30
0.0
 11
33.68387542424591
 21
-227.5280107736035
 31
0.0
  0
LINE
  5
6C84
330
A
100
AcDbEntity
  8
0
  6
Continuous
 62
     9
370
     0
100
AcDbLine
 10
29.74839578343915
 20
-237.0948981111903
 30
0.0
 11
33.68387542385142
 21
-236.2915716936639
 31
0.0
  0
LINE
  5
6C85
330
A
100
AcDbEntity
  8
0
  6
Continuous
 62
     7
370
     0
100
AcDbLine
 10
67.67210868195809
 20
-229.3537526332082
 30
0.0
 11
67.67210868248401
 21
-217.669004739794
 31
0.0
  0
LINE
  5
6C86
330
A
100
AcDbEntity
  8
0
  6
Continuous
 62
     9
370
     0
100
AcDbLine
 10
60.79855336778621
 20
-211.0387991660614
 30
0.0
 11
23.30852000891457
 21
-218.6914201787249
 31
0.0
  0
LINE
  5
6C87
330
A
100
AcDbEntity
  8
0
  6
Continuous
 62
     7
370
     0
100
AcDbLine
 10
60.79855336778621
 20
-211.0387991660614
 30
0.0
 11
60.47418609645831
 21
-211.9317923137994
 31
0.0
  0
ELLIPSE
  5
6C88
330
A
100
AcDbEntity
  8
0
  6
Continuous
 62
     7
370
     0
100
AcDbEllipse
 10
68.38765043540945
 20
-212.410868187729
 30
0.0
 11
-7.999999999999896
 21
0.0000000003599343
 31
-0.0000000000000007
210
-0.0000000000000001
220
0.0
230
1.0
 40
0.4082482904690198
 41
6.135967677994282
 42
6.283185307179589
  0
LINE
  5
6C89
330
A
100
AcDbEntity
  8
0
  6
Continuous
 62
     7
370
     0
100
AcDbLine
 10
64.57836498271911
 20
-215.2828403421972
 30
0.0
 11
66.52288739011158
 21
-215.7126983237274
 31
0.0
  0
ELLIPSE
  5
6C8A
330
A
100
AcDbEntity
  8
0
  6
Continuous
 62
     7
370
     0
100
AcDbEllipse
 10
29.03285403064831
 20
-236.5106607164819
 30
0.0
 11
0.3199999999424774
 21
-1.567673435392879
 31
0.0
210
-0.0000000000000001
220
0.0
230
0.9999999999999998
 40
0.4082482904725494
 41
6.28318530717955
 42
7.390334024965247
  0
ELLIPSE
  5
6C8B
330
A
100
AcDbEntity
  8
0
  6
Continuous
 62
     7
370
     0
100
AcDbEllipse
 10
32.9683336710608
 20
-235.7073342989556
 30
0.0
 11
-0.3199999999424774
 21
1.567673435392879
 31
-0.0000000000000001
210
0.0
220
0.0000000000000001
230
0.9999999999999998
 40
0.4082482904725493
 41
3.141592653589757
 42
4.248741371375445
  0
ELLIPSE
  5
6C8C
330
A
100
AcDbEntity
  8
0
  6
Continuous
 62
     7
370
     0
100
AcDbEllipse
 10
41.91260558147166
 20
-225.8483282642296
 30
0.0
 11
-0.7589466384744226
 21
-0.9295160030620142
 31
0.0
210
-0.0000000000000001
220
0.0000000000000001
230
1.0
 40
0.8164965809208045
 41
2.356194490188028
 42
3.141592653589793
  0
LINE
  5
6C8D
330
A
100
AcDbEntity
  8
0
  6
Continuous
 62
     9
370
     0
100
AcDbLine
 10
42.98591821067486
 20
-225.6292392412681
 30
0.0
 11
41.91260558151168
 21
-224.7528831492241
 31
0.0
  0
ELLIPSE
  5
6C8E
330
A
100
AcDbEntity
  8
0
  6
Continuous
 62
     7
370
     0
100
AcDbEllipse
 10
39.40820944658992
 20
-225.6292392410803
 30
0.0
 11
-0.9599999998274322
 21
4.703020306178862
 31
-0.0000000000000003
210
-0.0000000000000001
220
0.0000000000000001
230
1.0
 40
0.4082482904725496
 41
2.730454791267503
 42
3.14159265358978
  0
ELLIPSE
  5
6C8F
330
A
100
AcDbEntity
  8
0
  6
Continuous
 62
     7
370
     0
100
AcDbEllipse
 10
39.40820944658992
 20
-225.6292392410803
 30
0.0
 11
-0.9599999998274322
 21
4.703020306178862
 31
0.0
210
0.0
220
0.0
230
1.0
 40
0.4082482904725458
 41
3.141592653589791
 42
4.786993767171176
  0
ELLIPSE
  5
6C90
330
A
100
AcDbEntity
  8
0
  6
Continuous
 62
     7
370
     0
100
AcDbEllipse
 10
42.27037645748999
 20
-233.8085627666203
 30
0.0
 11
0.3199999999424774
 21
-1.567673435392879
 31
0.0
210
0.0
220
0.0
230
0.9999999999999998
 40
0.4082482904725432
 41
5.819537698170247
 42
6.283185307179621
  0
LINE
  5
6C91
330
A
100
AcDbEntity
  8
0
  6
Continuous
 62
     7
370
     0
100
AcDbLine
 10
42.27037645742427
 20
-235.2691562532971
 30
0.0
 11
36.54604243509869
 21
-230.5952570956308
 31
0.0
  0
ELLIPSE
  5
6C92
330
A
100
AcDbEntity
  8
0
  6
Continuous
 62
     7
370
     0
100
AcDbEllipse
 10
36.54604243516462
 20
-229.134663608954
 30
0.0
 11
0.3199999999424774
 21
-1.567673435392879
 31
0.0000000000000001
210
0.0
220
0.0000000000000001
230
0.9999999999999998
 40
0.4082482904725495
 41
4.248741371375445
 42
5.819537698170315
  0
LINE
  5
6C93
330
A
100
AcDbEntity
  8
0
  6
Continuous
 62
     7
370
     0
100
AcDbLine
 10
35.83050068237401
 20
-228.5504262142458
 30
0.0
 11
35.83050068248906
 21
-225.9943876127156
 31
0.0
  0
ELLIPSE
  5
6C94
330
A
100
AcDbEntity
  8
0
  6
Continuous
 62
     7
370
     0
100
AcDbEllipse
 10
23.30852000884863
 20
-220.1520136654017
 30
0.0
 11
0.3199999999424774
 21
-1.567673435392879
 31
0.0
210
-0.0000000000000001
220
0.0
230
0.9999999999999998
 40
0.4082482904725494
 41
3.141592653589825
 42
4.248741371375487
  0
ELLIPSE
  5
6C95
330
A
100
AcDbEntity
  8
0
  6
Continuous
 62
     7
370
     0
100
AcDbEllipse
 10
60.79855336772027
 20
-212.4993926527381
 30
0.0
 11
-0.1393253798507299
 21
-1.659839556169773
 31
0.0
210
0.0
220
0.0
230
1.0
 40
0.1508319454818718
 41
3.201832769829044
 42
3.649418069125476
  0
ELLIPSE
  5
6C96
330
A
100
AcDbEntity
  8
0
  6
Continuous
 62
     7
370
     0
100
AcDbEllipse
 10
42.27037645748999
 20
-233.8085627666203
 30
0.0
 11
0.3199999999424774
 21
-1.567673435392879
 31
0.0
210
0.0
220
0.0
230
0.9999999999999998
 40
0.4082482904725496
 41
0.0000000000000357
 42
1.107148717785607
  0
ELLIPSE
  5
6C97
330
A
100
AcDbEntity
  8
0
  6
Continuous
 62
     7
370
     0
100
AcDbEllipse
 10
66.95656692916748
 20
-228.7695152384999
 30
0.0
 11
-0.3199999999424774
 21
1.567673435392879
 31
-0.0000000000000001
210
0.0
220
0.0000000000000001
230
0.9999999999999998
 40
0.4082482904725493
 41
3.125530343876855
 42
4.24874137137542
  0
ELLIPSE
  5
6C98
330
A
100
AcDbEntity
  8
0
  6
Continuous
 62
     7
370
     0
100
AcDbEllipse
 10
68.38765043540945
 20
-212.410868187729
 30
0.0
 11
-8.000000000000007
 21
0.0000000003599343
 31
-0.0000000000000004
210
0.0
220
0.0
230
1.0
 40
0.4082482904690199
 41
0.0000000000000035
 42
0.463647612036792
  0
ELLIPSE
  5
6C99
330
A
100
AcDbEntity
  8
0
  6
Continuous
 62
     7
370
     0
100
AcDbEllipse
 10
68.38765043540945
 20
-212.410868187729
 30
0.0
 11
-7.999999999999896
 21
0.0000000003599343
 31
-0.0000000000000006
210
-0.0000000000000001
220
0.0
230
1.0
 40
0.4082482904690198
 41
0.463647612036792
 42
1.074512847210734
  0
LINE
  5
6C9A
330
A
100
AcDbEntity
  8
0
  6
Continuous
 62
     7
370
     0
100
AcDbLine
 10
60.92255362235812
 20
-211.2366783879934
 30
0.0
 11
60.92255362237586
 21
-210.8412986946967
 31
0.0
  0
ELLIPSE
  5
6C9B
330
A
100
AcDbEntity
  8
0
  6
Continuous
 62
     7
370
     0
100
AcDbEllipse
 10
68.38765044594913
 20
-212.4108681380203
 30
0.0
 11
-7.999999999999896
 21
0.0
 31
0.0
210
0.0
220
0.0
230
1.0
 40
0.4082482904638631
 41
0.4636476090008045
 42
1.074512844741056
  0
ELLIPSE
  5
6C9C
330
A
100
AcDbEntity
  8
0
  6
Continuous
 62
     7
370
     0
100
AcDbEllipse
 10
68.38765044594913
 20
-212.4108681380203
 30
0.0
 11
-7.999999999999896
 21
0.0
 31
0.0
210
0.0
220
0.0
230
1.0
 40
0.4082482904638631
 41
1.074512844741057
 42
1.390942827002415
  0
ARC
  5
6C9D
330
A
100
AcDbEntity
  8
0
  6
Continuous
 62
     7
370
     0
100
AcDbCircle
 10
61.77900946025158
 20
-249.1379277257883
 30
0.0
 40
33.9113373825586
100
AcDbArc
 50
72.51946154592957
 51
81.21777505146066
  0
LINE
  5
6C9E
330
A
100
AcDbEntity
  8
0
  6
Continuous
 62
     9
370
     0
100
AcDbLine
 10
71.96535920994882
 20
-216.7926485980617
 30
0.0
 11
71.96535920994882
 21
-228.4773964915055
 31
0.0
  0
LINE
  5
6C9F
330
A
100
AcDbEntity
  8
0
  6
Continuous
 62
     7
370
     0
100
AcDbLine
 10
67.44346080935009
 20
-230.236908930224
 30
0.0
 11
68.30025741116481
 21
-230.1282286286314
 31
0.0
  0
ELLIPSE
  5
6CA0
330
A
100
AcDbEntity
  8
0
  6
Continuous
 62
     7
370
     0
100
AcDbEllipse
 10
68.38765044594913
 20
-221.9412406386104
 30
0.0
 11
-7.999999999999896
 21
0.0
 31
0.0
210
0.0
220
0.0
230
1.0
 40
0.4082482904638631
 41
1.481233917974428
 42
1.692080513880374
  0
LINE
  5
6CA1
330
A
100
AcDbEntity
  8
0
  6
Continuous
 62
     7
370
     0
100
AcDbLine
 10
69.35554692799826
 20
-225.1832353023947
 30
0.0
 11
69.35554692799826
 21
-220.7284251680194
 31
0.0
  0
ELLIPSE
  5
6CA2
330
A
100
AcDbEntity
  8
0
  6
Continuous
 62
     7
370
     0
100
AcDbEllipse
 10
68.38765044594913
 20
-217.4864305042352
 30
0.0
 11
8.000000000000007
 21
0.0
 31
0.0
210
0.0
220
0.0
230
1.0
 40
0.408248290463863
 41
4.622826571589383
 42
4.833673167470167
  0
ELLIPSE
  5
6CA3
330
A
100
AcDbEntity
  8
0
  6
Continuous
 62
     7
370
     0
100
AcDbEllipse
 10
68.38765044594913
 20
-212.4108681380203
 30
0.0
 11
-7.999999999999896
 21
0.0
 31
0.0
210
0.0
220
0.0
230
1.0
 40
0.4082482904638631
 41
5.819537698178781
 42
6.135967686957198
  0
ELLIPSE
  5
6CA4
330
A
100
AcDbEntity
  8
0
  6
Continuous
 62
     7
370
     0
100
AcDbEllipse
 10
68.38765044594913
 20
-212.4108681380203
 30
0.0
 11
-7.999999999999896
 21
0.0
 31
-0.0000000000000006
210
-0.0000000000000001
220
0.0
230
1.0
 40
0.4082482904638635
 41
6.135967686957202
 42
6.283185307179586
  0
LINE
  5
6CA5
330
A
100
AcDbEntity
  8
0
  6
Continuous
 62
     9
370
     0
100
AcDbLine
 10
65.52548343474938
 20
-210.0739185593318
 30
0.0
 11
61.23223291794977
 21
-210.9502746513399
 31
0.0
  0
ELLIPSE
  5
6CA6
330
A
100
AcDbEntity
  8
0
  6
Continuous
 62
     7
370
     0
100
AcDbEllipse
 10
68.38765044594913
 20
-212.4108681380203
 30
0.0
 11
6.399999999999961
 21
0.0
 31
0.0
210
0.0
220
0.0
230
1.0
 40
0.408248290463863
 41
3.141592653589793
 42
5.176036589385494
  0
LINE
  5
6CA7
330
A
100
AcDbEntity
  8
0
  6
Continuous
 62
     9
370
     0
100
AcDbLine
 10
66.95656694034926
 20
-215.6241738087176
 30
0.0
 11
71.24981745714888
 21
-214.7478177167093
 31
0.0
  0
ELLIPSE
  5
6CA8
330
A
100
AcDbEntity
  8
0
  6
Continuous
 62
     7
370
     0
100
AcDbEllipse
 10
83.41402725474779
 20
-213.725402276033
 30
0.0
 11
-0.319999999999987
 21
1.567673435381333
 31
-0.0000000000000001
210
0.0
220
0.0000000000000001
230
1.0
 40
0.4082482904638633
 41
4.248741371383887
 42
5.819537698178782
  0
LINE
  5
6CA9
330
A
100
AcDbEntity
  8
0
  6
Continuous
 62
     9
370
     0
100
AcDbLine
 10
84.12956900754773
 20
-214.3096396707051
 30
0.0
 11
71.96535920994882
 21
-216.7926485980615
 31
0.0
  0
LINE
  5
6CAA
330
A
100
AcDbEntity
  8
0
  6
Continuous
 62
     9
370
     0
100
AcDbLine
 10
71.24981745714888
 20
-214.7478177167091
 30
0.0
 11
83.41402725474779
 21
-212.2648087893524
 31
0.0
  0
ELLIPSE
  5
6CAB
330
A
100
AcDbEntity
  8
0
  6
Continuous
 62
     7
370
     0
100
AcDbEllipse
 10
68.38765044594913
 20
-212.4108681380203
 30
0.0
 11
6.399999999999961
 21
0.0
 31
0.0000000000000004
210
-0.0000000000000001
220
0.0
230
1.0
 40
0.4082482904638628
 41
2.034443935795702
 42
3.141592653589793
  0
ELLIPSE
  5
6CAC
330
A
100
AcDbEntity
  8
0
  6
Continuous
 62
     7
370
     0
100
AcDbEllipse
 10
68.38765044594913
 20
-212.4108681380203
 30
0.0
 11
6.399999999999961
 21
0.0
 31
0.0
210
0.0
220
0.0
230
1.0
 40
0.4082482904638632
 41
5.176036589385494
 42
6.283185307179586
  0
ELLIPSE
  5
6CAD
330
A
100
AcDbEntity
  8
0
  6
Continuous
 62
     7
370
     0
100
AcDbEllipse
 10
68.38765044594913
 20
-212.4108681380203
 30
0.0
 11
6.399999999999961
 21
0.0
 31
0.0
210
0.0
220
0.0
230
1.0
 40
0.408248290463863
 41
0.0
 42
2.034443935795702
  0
ELLIPSE
  5
6CAE
330
A
100
AcDbEntity
  8
0
  6
Continuous
 62
     7
370
     0
100
AcDbEllipse
 10
68.38765044594913
 20
-221.9412406386104
 30
0.0
 11
6.399999999999961
 21
0.0
 31
0.0
210
0.0
220
0.0
230
1.0
 40
0.408248290463863
 41
4.600351336008224
 42
4.858212885457612
  0
LINE
  5
6CAF
330
A
100
AcDbEntity
  8
0
  6
Continuous
 62
     7
370
     0
100
AcDbLine
 10
69.3176193388241
 20
-220.7302748762286
 30
0.0
 11
69.3176193388241
 21
-224.5262989183623
 31
0.0
  0
LINE
  5
6CB0
330
A
100
AcDbEntity
  8
0
  6
Continuous
 62
     7
370
     0
100
AcDbLine
 10
84.12956900754773
 20
-214.3096396707051
 30
0.0
 11
84.12956900754773
 21
-225.9943875641486
 31
0.0
  0
LINE
  5
6CB1
330
A
100
AcDbEntity
  8
0
  6
Continuous
 62
     9
370
     0
100
AcDbLine
 10
71.96535920994882
 20
-228.4773964915053
 30
0.0
 11
84.12956900754773
 21
-225.9943875641486
 31
0.0
  0
LINE
  5
6CB2
330
A
100
AcDbEntity
  8
0
  6
Continuous
 62
     9
370
     0
100
AcDbLine
 10
77.68969323234808
 20
-207.5909096319751
 30
0.0
 11
65.52548343474938
 21
-210.0739185593318
 31
0.0
  0
LINE
  5
6CB3
330
A
100
AcDbEntity
  8
0
  6
Continuous
 62
     7
370
     0
100
AcDbLine
 10
77.68969323234808
 20
-207.5909096319751
 30
0.0
 11
83.41402725474756
 21
-212.2648087893524
 31
0.0
  0
ELLIPSE
  5
6CB4
330
A
100
AcDbEntity
  8
0
  6
Continuous
 62
     7
370
     0
100
AcDbEllipse
 10
53.3612736371507
 20
-225.0084869606394
 30
0.0
 11
-16.00000000000001
 21
0.0
 31
0.0
210
0.0
220
0.0
230
1.0
 40
0.4082482904638631
 41
3.168348612742888
 42
3.215479529793114
  0
ELLIPSE
  5
6CB5
330
A
100
AcDbEntity
  8
0
  6
Continuous
 62
     7
370
     0
100
AcDbEllipse
 10
68.38765044594913
 20
-212.4108681380203
 30
0.0
 11
-8.000000000000007
 21
0.0
 31
0.0
210
0.0
220
0.0
230
1.0
 40
0.4082482904638631
 41
0.0
 42
0.4636476090008045
  0
LINE
  5
6CB6
330
A
100
AcDbEntity
  8
0
  6
Continuous
 62
     7
370
     0
100
AcDbLine
 10
61.23223291794977
 20
-210.9502746513401
 30
0.0
 11
61.93554454526804
 21
-210.6343121335976
 31
0.0
  0
ARC
  5
6CB7
330
A
100
AcDbEntity
  8
0
  6
Continuous
 62
     7
370
     0
100
AcDbCircle
 10
65.72565825461277
 20
-219.5182601308468
 30
0.0
 40
10.91787490040504
100
AcDbArc
 50
283.6396717225972
 51
304.8557579160822
  0
ELLIPSE
  5
6CB8
330
A
100
AcDbEntity
  8
0
  6
Continuous
 62
     7
370
     0
100
AcDbEllipse
 10
83.41402725474779
 20
-225.4101501694763
 30
0.0
 11
-0.319999999999987
 21
1.567673435381333
 31
-0.0000000000000001
210
0.0
220
0.0000000000000001
230
1.0
 40
0.4082482904638633
 41
3.141592653589794
 42
4.248741371383887
  0
ELLIPSE
  5
6CB9
330
A
100
AcDbEntity
  8
0
  6
Continuous
 62
     7
370
     0
100
AcDbEllipse
 10
77.68969323234808
 20
-209.0515031186555
 30
0.0
 11
-0.319999999999987
 21
1.567673435381333
 31
-0.0000000000000001
210
0.0
220
0.0000000000000001
230
1.0
 40
0.4082482904638633
 41
5.819537698178782
 42
6.28318530717955
  0
LINE
  5
6CBA
330
A
100
AcDbEntity
  8
0
  6
Continuous
 62
     7
370
     0
100
AcDbLine
 10
86.9917360189064
 20
-207.2257612673427
 30
0.0
 11
86.63396514250655
 21
-207.1527315930086
 31
0.0
  0
LINE
  5
6CBB
330
A
100
AcDbEntity
  8
0
  6
Continuous
 62
     7
370
     0
100
AcDbLine
 10
85.20288163690645
 20
-207.1527315930086
 30
0.0
 11
84.8451107605066
 21
-207.2257612673427
 31
0.0
  0
LINE
  5
6CBC
330
A
100
AcDbEntity
  8
0
  6
Continuous
 62
     7
370
     0
100
AcDbLine
 10
88.31842338970648
 20
-209.2406624274549
 30
0.0
 11
88.31842338970648
 21
-208.102117359351
 31
0.0
  0
LINE
  5
6CBD
330
A
100
AcDbEntity
  8
0
  6
Continuous
 62
     7
370
     0
100
AcDbLine
 10
83.51842338970653
 20
-208.102117359351
 30
0.0
 11
83.51842338970653
 21
-209.2406624293501
 31
0.0
  0
LINE
  5
6CBE
330
A
100
AcDbEntity
  8
0
  6
Continuous
 62
     7
370
     0
100
AcDbLine
 10
767.4719429316427
 20
-68.32332067499192
 30
0.0
 11
767.1141720552427
 21
-68.25029100065785
 31
0.0
  0
LINE
  5
6CBF
330
A
100
AcDbEntity
  8
0
  6
Continuous
 62
     7
370
     0
100
AcDbLine
 10
765.683088549643
 20
-68.25029100065808
 30
0.0
 11
765.3253176732428
 21
-68.32332067499215
 31
0.0
  0
LINE
  5
6CC0
330
A
100
AcDbEntity
  8
0
  6
Continuous
 62
     7
370
     0
100
AcDbLine
 10
768.7986303024428
 20
-70.33822180005405
 30
0.0
 11
768.7986303024428
 21
-69.19967676700025
 31
0.0
  0
LINE
  5
6CC1
330
A
100
AcDbEntity
  8
0
  6
Continuous
 62
     7
370
     0
100
AcDbLine
 10
763.9986303024429
 20
-69.19967676700025
 30
0.0
 11
763.9986303024429
 21
-70.33822180194966
 31
0.0
  0
LINE
  5
6CC2
330
A
100
AcDbEntity
  8
0
  6
Continuous
 62
     7
370
     0
100
AcDbLine
 10
33.68387542386006
 20
-236.0988229971531
 30
0.0
 11
35.07718805304751
 21
-235.8144142477327
 31
0.0
  0
LINE
  5
6CC3
330
A
100
AcDbEntity
  8
0
  6
Continuous
 62
     7
370
     0
100
AcDbLine
 10
44.30071876500631
 20
-214.9364777575104
 30
0.0
 11
44.10895594854321
 21
-214.9118911004844
 31
0.0
  0
LINE
  5
6CC4
330
A
100
AcDbEntity
  8
0
  6
Continuous
 62
     7
370
     0
100
AcDbLine
 10
43.29396397857601
 20
-214.9118911004846
 30
0.0
 11
43.10220116211314
 21
-214.9364777575106
 31
0.0
  0
LINE
  5
6CC5
330
A
100
AcDbEntity
  8
0
  6
Continuous
 62
     7
370
     0
100
AcDbLine
 10
57.53824119183775
 20
-213.9140623173307
 30
0.0
 11
57.34647837537488
 21
-213.8894756603047
 31
0.0
  0
LINE
  5
6CC6
330
A
100
AcDbEntity
  8
0
  6
Continuous
 62
     7
370
     0
100
AcDbLine
 10
56.53148640540769
 20
-213.8894756603049
 30
0.0
 11
56.33972358894482
 21
-213.914062317331
 31
0.0
  0
LINE
  5
6CC7
330
A
100
AcDbEntity
  8
0
  6
Continuous
 62
     7
370
     0
100
AcDbLine
 10
795.9773300903165
 20
-63.18081443779829
 30
0.0
 11
795.7855672738534
 21
-63.1562277807725
 31
0.0
  0
LINE
  5
6CC8
330
A
100
AcDbEntity
  8
0
  6
Continuous
 62
     7
370
     0
100
AcDbLine
 10
794.9705753038862
 20
-63.1562277807725
 30
0.0
 11
794.7788124874233
 21
-63.18081443779829
 31
0.0
  0
LINE
  5
6CC9
330
A
100
AcDbEntity
  8
0
  6
Continuous
 62
     7
370
     0
100
AcDbLine
 10
790.4915081444715
 20
-74.76449258910952
 30
0.0
 11
791.3945000575576
 21
-74.58017013661287
 31
0.0
  0
LINE
  5
6CCA
330
A
100
AcDbEntity
  8
0
  6
Continuous
 62
     7
370
     0
100
AcDbLine
 10
38.85712594078189
 20
-230.2324598857024
 30
0.0
 11
39.93043856998531
 21
-230.0133708627407
 31
0.0
  0
LINE
  5
6CCB
330
A
100
AcDbEntity
  8
0
  6
Continuous
 62
     7
370
     0
100
AcDbLine
 10
791.40482077386
 20
-82.52512776700724
 30
0.0
 11
806.4311975826882
 21
-79.4578814441129
 31
0.0
  0
LINE
  5
6CCC
330
A
100
AcDbEntity
  8
0
  6
Continuous
 62
     7
370
     0
100
AcDbLine
 10
800.0668635579248
 20
-59.96388752461712
 30
0.0
 11
785.0404867490968
 21
-63.03113384751146
 31
0.0
  0
ARC
  5
6CD2
330
A
100
AcDbEntity
  8
0
  6
Continuous
 62
     7
370
     0
100
AcDbCircle
 10
781.437647842804
 20
-68.53570377700203
 30
0.0
 40
4.286033546137873
100
AcDbArc
 50
92.30848920828252
 51
154.2130891054364
  0
LINE
  5
6CD3
330
A
100
AcDbEntity
  8
0
  6
Continuous
 62
     7
370
     0
100
AcDbLine
 10
790.3294032463913
 20
-75.88189196584266
 30
0.0
 11
790.3294032455634
 21
-73.38667362274145
 31
0.0
  0
LINE
  5
6CD4
330
A
100
AcDbEntity
  8
0
  6
Continuous
 62
     7
370
     0
100
AcDbLine
 10
774.9473604612916
 20
-85.88449278723215
 30
0.0
 11
790.3812129950027
 21
-82.73407083015262
 31
0.0
  0
LINE
  5
6CD5
330
A
100
AcDbEntity
  8
0
  6
Continuous
 62
     7
370
     0
100
AcDbLine
 10
784.0167867436636
 20
-63.24009573793751
 30
0.0
 11
768.5830264348204
 21
-66.39049886969473
 31
0.0
  0
LINE
  5
6CD6
330
A
100
AcDbEntity
  8
0
  6
Continuous
 62
     7
370
     0
100
AcDbLine
 10
83.73402725498147
 20
-226.977823647278
 30
0.0
 11
774.9473604597166
 21
-85.88449278916096
 31
0.0
  0
LINE
  5
6CD7
330
A
100
AcDbEntity
  8
0
  6
Continuous
 62
     7
370
     0
100
AcDbLine
 10
768.5830264363954
 20
-66.3904988677657
 30
0.0
 11
77.36969323166033
 21
-207.4838297258825
 31
0.0
  0
LINE
  5
6CDE
330
A
100
AcDbEntity
  8
0
  6
Continuous
 62
     7
370
     0
100
AcDbLine
 10
29.35285403059072
 20
-238.078334151875
 30
0.0
 11
33.28833367100299
 21
-237.2750077343485
 31
0.0
  0
LINE
  5
6CDF
330
A
100
AcDbEntity
  8
0
  6
Continuous
 62
     7
370
     0
100
AcDbLine
 10
60.91223290742539
 20
-210.8431947520267
 30
0.0
 11
22.98852000890622
 21
-218.5843402300088
 31
0.0
  0
LINE
  5
6CE0
330
A
100
AcDbEntity
  8
0
  6
Continuous
 62
     7
370
     0
100
AcDbLine
 10
42.5903764574324
 20
-235.3762362020132
 30
0.0
 11
67.27656692910989
 21
-230.3371886738928
 31
0.0
  0
LINE
  5
6CE1
330
A
100
AcDbEntity
  8
0
  6
Continuous
 62
     7
370
     0
100
AcDbLine
 10
68.30030679454115
 20
-230.128218601546
 30
0.0
 11
83.73402725474774
 21
-226.9778236048578
 31
0.0
  0
LINE
  5
6CE2
330
A
100
AcDbEntity
  8
0
  6
Continuous
 62
     7
370
     0
100
AcDbLine
 10
77.36969323234837
 20
-207.4838296832743
 30
0.0
 11
61.93588045067224
 21
-210.6342435250035
 31
0.0
  0
LINE
  5
6CE3
330
A
100
AcDbEntity
  8
0
  6
Continuous
 62
     7
370
     0
100
AcDbLine
 10
27.5000000002222
 20
90.88287991831771
 30
0.0
 11
21.5000000002222
 21
90.88287991831771
 31
0.0
  0
LINE
  5
6CE4
330
A
100
AcDbEntity
  8
0
  6
Continuous
 62
     7
370
     0
100
AcDbLine
 10
26.5000000002222
 20
91.38287991831793
 30
0.0
 11
22.5000000002222
 21
91.38287991831793
 31
0.0
  0
LINE
  5
6CE5
330
A
100
AcDbEntity
  8
0
  6
Continuous
 62
     7
370
     0
100
AcDbLine
 10
978.5000000002225
 20
90.88287993069707
 30
0.0
 11
972.5000000002225
 21
90.88287993069707
 31
0.0
  0
LINE
  5
6CE6
330
A
100
AcDbEntity
  8
0
  6
Continuous
 62
     7
370
     0
100
AcDbLine
 10
977.5000000002224
 20
91.38287993069708
 30
0.0
 11
973.5000000002225
 21
91.38287993069708
 31
0.0
  0
LINE
  5
6CE7
330
A
100
AcDbEntity
  8
0
  6
Continuous
 62
     7
370
     0
100
AcDbLine
 10
-50.4999999998746
 20
84.38287984935437
 30
0.0
 11
-52.4999999998746
 21
84.38287984942281
 31
0.0
  0
LINE
  5
6CE8
330
A
100
AcDbEntity
  8
0
  6
Continuous
 62
     9
370
     0
100
AcDbLine
 10
-50.499999999956
 20
82.3828798493073
 30
0.0
 11
-52.499999999956
 21
82.38287984937597
 31
0.0
  0
LINE
  5
6CE9
330
A
100
AcDbEntity
  8
0
  6
Continuous
 62
     7
370
     0
100
AcDbLine
 10
-52.49999999994304
 20
82.38287984937597
 30
0.0
 11
-52.4999999998746
 21
84.38287984942281
 31
0.0
  0
LINE
  5
6CEA
330
A
100
AcDbEntity
  8
0
  6
Continuous
 62
     7
370
     0
100
AcDbLine
 10
-50.49999999994304
 20
82.3828798493073
 30
0.0
 11
-50.4999999998746
 21
84.38287984935437
 31
0.0
  0
LINE
  5
6CEB
330
A
100
AcDbEntity
  8
0
  6
Continuous
 62
     9
370
     0
100
AcDbLine
 10
-50.50000000028115
 20
72.88287984930753
 30
0.0
 11
-52.50000000028115
 21
72.88287984937596
 31
0.0
  0
LINE
  5
6CEC
330
A
100
AcDbEntity
  8
0
  6
Continuous
 62
     7
370
     0
100
AcDbLine
 10
-52.50000000028115
 20
72.88287984937596
 30
0.0
 11
-52.499999999956
 21
82.38287984937597
 31
0.0
  0
LINE
  5
6CED
330
A
100
AcDbEntity
  8
0
  6
Continuous
 62
     7
370
     0
100
AcDbLine
 10
-50.50000000028115
 20
72.88287984930753
 30
0.0
 11
-50.499999999956
 21
82.3828798493073
 31
0.0
  0
LINE
  5
6CEE
330
A
100
AcDbEntity
  8
0
  6
Continuous
 62
     7
370
     0
100
AcDbLine
 10
-50.50000000033657
 20
70.88287984935437
 30
0.0
 11
-52.50000000033657
 21
70.8828798494228
 31
0.0
  0
LINE
  5
6CEF
330
A
100
AcDbEntity
  8
0
  6
Continuous
 62
     7
370
     0
100
AcDbLine
 10
-52.50000000033657
 20
70.8828798494228
 30
0.0
 11
-52.50000000026813
 21
72.88287984937596
 31
0.0
  0
LINE
  5
6CF0
330
A
100
AcDbEntity
  8
0
  6
Continuous
 62
     7
370
     0
100
AcDbLine
 10
-50.50000000033657
 20
70.88287984935437
 30
0.0
 11
-50.50000000026813
 21
72.88287984930753
 31
0.0
  0
LINE
  5
6CF1
330
A
100
AcDbEntity
  8
0
  6
Continuous
 62
     9
370
     0
100
AcDbLine
 10
-53.499999999956
 20
82.38287984941008
 30
0.0
 11
-52.499999999956
 21
82.38287984937597
 31
0.0
  0
LINE
  5
6CF2
330
A
100
AcDbEntity
  8
0
  6
Continuous
 62
     7
370
     0
100
AcDbLine
 10
-53.41421356224237
 20
84.38287984945418
 30
0.0
 11
-52.4999999998746
 21
84.38287984942281
 31
0.0
  0
LINE
  5
6CF3
330
A
100
AcDbEntity
  8
0
  6
Continuous
 62
     7
370
     0
100
AcDbLine
 10
-52.4999999998746
 20
84.38287984942281
 30
0.0
 11
-52.49999999994304
 21
82.38287984937597
 31
0.0
  0
LINE
  5
6CF4
330
A
100
AcDbEntity
  8
0
  6
Continuous
 62
     9
370
     0
100
AcDbLine
 10
-53.50000000028109
 20
72.88287984941007
 30
0.0
 11
-52.50000000028109
 21
72.88287984937596
 31
0.0
  0
LINE
  5
6CF5
330
A
100
AcDbEntity
  8
0
  6
Continuous
 62
     7
370
     0
100
AcDbLine
 10
-52.499999999956
 20
82.38287984937597
 30
0.0
 11
-52.50000000028109
 21
72.88287984937596
 31
0.0
  0
LINE
  5
6CF6
330
A
100
AcDbEntity
  8
0
  6
Continuous
 62
     7
370
     0
100
AcDbLine
 10
-53.50000000033657
 20
70.88287984945691
 30
0.0
 11
-52.50000000033657
 21
70.8828798494228
 31
0.0
  0
LINE
  5
6CF7
330
A
100
AcDbEntity
  8
0
  6
Continuous
 62
     7
370
     0
100
AcDbLine
 10
-52.50000000026813
 20
72.88287984937596
 30
0.0
 11
-52.50000000033657
 21
70.8828798494228
 31
0.0
  0
LINE
  5
6CF8
330
A
100
AcDbEntity
  8
0
  6
Continuous
 62
     7
370
     0
100
AcDbLine
 10
-31.99999999982078
 20
92.25787984897124
 30
0.0
 11
-36.99999999982078
 21
92.25787984897124
 31
0.0
  0
LINE
  5
6CF9
330
A
100
AcDbEntity
  8
0
  6
Continuous
 62
     7
370
     0
100
AcDbLine
 10
-32.79999999982079
 20
92.63287984897102
 30
0.0
 11
-36.19999999982076
 21
92.63287984897102
 31
0.0
  0
LINE
  5
6CFA
330
A
100
AcDbEntity
  8
0
  6
Continuous
 62
     7
370
     0
100
AcDbLine
 10
-13.49999999983112
 20
89.95787984833828
 30
0.0
 11
-18.49999999983111
 21
89.95787984833828
 31
0.0
  0
LINE
  5
6CFB
330
A
100
AcDbEntity
  8
0
  6
Continuous
 62
     7
370
     0
100
AcDbLine
 10
-14.29999999983113
 20
90.33287984833828
 30
0.0
 11
-17.69999999983111
 21
90.33287984833828
 31
0.0
  0
LINE
  5
6CFC
330
A
100
AcDbEntity
  8
0
  6
Continuous
 62
     7
370
     0
100
AcDbLine
 10
1018.499999999424
 20
89.95787993318026
 30
0.0
 11
1013.499999999424
 21
89.95787993318026
 31
0.0
  0
LINE
  5
6CFD
330
A
100
AcDbEntity
  8
0
  6
Continuous
 62
     7
370
     0
100
AcDbLine
 10
1017.699999999424
 20
90.33287993318026
 30
0.0
 11
1014.299999999424
 21
90.33287993318026
 31
0.0
  0
LINE
  5
6CFE
330
A
100
AcDbEntity
  8
0
  6
Continuous
 62
     7
370
     0
100
AcDbLine
 10
-42.49999999985897
 20
85.38287984924455
 30
0.0
 11
-42.49999999998038
 21
81.8341308683871
 31
0.0
  0
LINE
  5
6CFF
330
A
100
AcDbEntity
  8
0
  6
Continuous
 62
     7
370
     0
100
AcDbLine
 10
-40.99999999987204
 20
85.00091383776634
 30
0.0
 11
-40.99999999998039
 21
81.83413086833571
 31
0.0
  0
LINE
  5
6D00
330
A
100
AcDbEntity
  8
0
  6
Continuous
 62
     7
370
     0
100
AcDbLine
 10
-42.49999999998038
 20
81.83413086838731
 30
0.0
 11
-42.50000000023521
 21
74.38287984924477
 31
0.0
  0
LINE
  5
6D01
330
A
100
AcDbEntity
  8
0
  6
Continuous
 62
     7
370
     0
100
AcDbLine
 10
-40.99999999998039
 20
81.83413086833571
 30
0.0
 11
-41.00000000023522
 21
74.38287984919338
 31
0.0
  0
LINE
  5
6D02
330
A
100
AcDbEntity
  8
0
  6
Continuous
 62
     7
370
     0
100
AcDbLine
 10
1027.000000000231
 20
69.8828799360158
 30
0.0
 11
1006.606085582168
 21
69.88287993483322
 31
0.0
  0
ELLIPSE
  5
6D03
330
A
100
AcDbEntity
  8
0
  6
Continuous
 62
     7
370
     0
100
AcDbEllipse
 10
1006.606085582052
 20
71.88287993483323
 30
0.0
 11
-0.0000000008707479
 21
2.000000000000001
 31
0.0
210
0.0
220
0.0
230
1.0
 40
0.700207538213625
 41
2.694007353754426
 42
3.141592653050844
  0
LINE
  5
6D04
330
A
100
AcDbEntity
  8
0
  6
Continuous
 62
     7
370
     0
100
AcDbLine
 10
1006.00000000022
 20
70.0798903595155
 30
0.0
 11
1006.000000000115
 21
71.88287993534754
 31
0.0
  0
LINE
  5
6D05
330
A
100
AcDbEntity
  8
0
  6
Continuous
 62
     9
370
     0
100
AcDbLine
 10
1006.000000000107
 20
71.88287993534754
 30
0.0
 11
1027.000000000107
 21
71.88287993656513
 31
0.0
  0
LINE
  5
6D06
330
A
100
AcDbEntity
  8
0
  6
Continuous
 62
     7
370
     0
100
AcDbLine
 10
1027.000000000115
 20
71.88287993656513
 30
0.0
 11
1027.000000000231
 21
69.8828799360158
 31
0.0
  0
LINE
  5
6D07
330
A
100
AcDbEntity
  8
0
  6
Continuous
 62
     9
370
     0
100
AcDbLine
 10
1026.999999999179
 20
87.88287993656513
 30
0.0
 11
1005.999999999179
 21
87.88287993534755
 31
0.0
  0
LINE
  5
6D08
330
A
100
AcDbEntity
  8
0
  6
Continuous
 62
     7
370
     0
100
AcDbLine
 10
1005.999999999179
 20
87.88287993534755
 30
0.0
 11
1006.000000000107
 21
71.88287993534754
 31
0.0
  0
LINE
  5
6D09
330
A
100
AcDbEntity
  8
0
  6
Continuous
 62
     7
370
     0
100
AcDbLine
 10
1027.000000000107
 20
71.88287993656513
 30
0.0
 11
1026.999999999179
 21
87.88287993656513
 31
0.0
  0
ELLIPSE
  5
6D0A
330
A
100
AcDbEntity
  8
0
  6
Continuous
 62
     7
370
     0
100
AcDbEllipse
 10
1006.606085581124
 20
87.88287993483322
 30
0.0
 11
0.0000000008707479
 21
-2.000000000000001
 31
0.0
210
0.0
220
0.0
230
1.0
 40
0.700207538213625
 41
3.141592653050839
 42
3.589177952347239
  0
LINE
  5
6D0B
330
A
100
AcDbEntity
  8
0
  6
Continuous
 62
     7
370
     0
100
AcDbLine
 10
1006.606085581008
 20
89.88287993483323
 30
0.0
 11
1026.999999999071
 21
89.88287993601579
 31
0.0
  0
LINE
  5
6D0C
330
A
100
AcDbEntity
  8
0
  6
Continuous
 62
     7
370
     0
100
AcDbLine
 10
1005.999999999187
 20
87.88287993534755
 30
0.0
 11
1005.999999999082
 21
89.68586951055659
 31
0.0
  0
LINE
  5
6D0D
330
A
100
AcDbEntity
  8
0
  6
Continuous
 62
     7
370
     0
100
AcDbLine
 10
1026.999999999071
 20
89.88287993601579
 30
0.0
 11
1026.999999999187
 21
87.88287993656513
 31
0.0
  0
LINE
  5
6D0E
330
A
100
AcDbEntity
  8
0
  6
Continuous
 62
     7
370
     0
100
AcDbLine
 10
1006.60608558222
 20
69.88287993154677
 30
0.0
 11
1006.000000000308
 21
69.88287993161248
 31
0.0
  0
LINE
  5
6D0F
330
A
100
AcDbEntity
  8
0
  6
Continuous
 62
     7
370
     0
100
AcDbLine
 10
1005.999999999038
 20
89.8828799311757
 30
0.0
 11
1006.032205500621
 21
89.88287993117001
 31
0.0
  0
LINE
  5
6D10
330
A
100
AcDbEntity
  8
0
  6
Continuous
 62
     7
370
     0
100
AcDbLine
 10
1006.032205500621
 20
89.88287993263543
 30
0.0
 11
1006.606085581061
 21
89.88287993267181
 31
0.0
  0
LINE
  5
6D11
330
A
100
AcDbEntity
  8
0
  6
Continuous
 62
     7
370
     0
100
AcDbLine
 10
1003.357142856631
 20
82.9328799376492
 30
0.0
 11
1003.357142857019
 21
76.83287993764929
 31
0.0
  0
LINE
  5
6D12
330
A
100
AcDbEntity
  8
0
  6
Continuous
 62
     7
370
     0
100
AcDbLine
 10
1003.357142857019
 20
76.83287993246563
 30
0.0
 11
1005.999999999894
 21
76.83287993263343
 31
0.0
  0
LINE
  5
6D13
330
A
100
AcDbEntity
  8
0
  6
Continuous
 62
     7
370
     0
100
AcDbLine
 10
1006.60608558223
 20
69.88287993086896
 30
0.0
 11
1006.000000000317
 21
69.88287993099584
 31
0.0
  0
ARC
  5
6D14
330
A
100
AcDbEntity
  8
0
  6
Continuous
 62
     7
370
     0
100
AcDbCircle
 10
1008.186190919064
 20
86.44145268855755
 30
0.0
 40
16.70226817832394
100
AcDbArc
 50
240.6512347623195
 51
262.4788675801939
  0
LINE
  5
6D15
330
A
100
AcDbEntity
  8
0
  6
Continuous
 62
     9
370
     0
100
AcDbLine
 10
1000.00000000019
 20
71.88287993775543
 30
0.0
 11
999.9999999991747
 21
87.88287993775544
 31
0.0
  0
ARC
  5
6D16
330
A
100
AcDbEntity
  8
0
  6
Continuous
 62
     7
370
     0
100
AcDbCircle
 10
1008.167063625305
 20
73.38168905356315
 30
0.0
 40
16.64288031961547
100
AcDbArc
 50
97.48170736828988
 51
119.3881902659148
  0
LINE
  5
6D17
330
A
100
AcDbEntity
  8
0
  6
Continuous
 62
     7
370
     0
100
AcDbLine
 10
1005.999999999048
 20
89.88287993263339
 30
0.0
 11
1006.585512089698
 21
89.88287993267045
 31
0.0
  0
LINE
  5
6D18
330
A
100
AcDbEntity
  8
0
  6
Continuous
 62
     7
370
     0
100
AcDbLine
 10
1005.99999999954
 20
82.93287993263334
 30
0.0
 11
1003.357142856631
 21
82.93287993246554
 31
0.0
  0
LINE
  5
6D19
330
A
100
AcDbEntity
  8
0
  6
Continuous
 62
     7
370
     0
100
AcDbLine
 10
1006.000000000317
 20
69.88287993703579
 30
0.0
 11
1000.000000000317
 21
69.88287993665494
 31
0.0
  0
LINE
  5
6D1A
330
A
100
AcDbEntity
  8
0
  6
Continuous
 62
     7
370
     0
100
AcDbLine
 10
1000.000000000317
 20
69.88287993665494
 30
0.0
 11
983.0000000003176
 21
69.8828799355756
 31
0.0
  0
LINE
  5
6D1B
330
A
100
AcDbEntity
  8
0
  6
Continuous
 62
     9
370
     0
100
AcDbLine
 10
983.0000000001902
 20
71.88287993667609
 30
0.0
 11
1000.00000000019
 21
71.88287993775543
 31
0.0
  0
LINE
  5
6D1C
330
A
100
AcDbEntity
  8
0
  6
Continuous
 62
     7
370
     0
100
AcDbLine
 10
983.0000000003176
 20
69.8828799355756
 30
0.0
 11
983.0000000001902
 21
71.88287993667609
 31
0.0
  0
LINE
  5
6D1D
330
A
100
AcDbEntity
  8
0
  6
Continuous
 62
     9
370
     0
100
AcDbLine
 10
999.9999999991747
 20
87.88287993775544
 30
0.0
 11
982.9999999991747
 21
87.88287993667632
 31
0.0
  0
LINE
  5
6D1E
330
A
100
AcDbEntity
  8
0
  6
Continuous
 62
     7
370
     0
100
AcDbLine
 10
982.9999999991747
 20
87.88287993667632
 30
0.0
 11
983.0000000001902
 21
71.88287993667609
 31
0.0
  0
LINE
  5
6D1F
330
A
100
AcDbEntity
  8
0
  6
Continuous
 62
     7
370
     0
100
AcDbLine
 10
982.9999999990478
 20
89.88287993557561
 30
0.0
 11
999.9999999990478
 21
89.88287993665494
 31
0.0
  0
LINE
  5
6D20
330
A
100
AcDbEntity
  8
0
  6
Continuous
 62
     7
370
     0
100
AcDbLine
 10
999.9999999990478
 20
89.88287993665494
 30
0.0
 11
1005.999999999048
 21
89.88287993703579
 31
0.0
  0
LINE
  5
6D21
330
A
100
AcDbEntity
  8
0
  6
Continuous
 62
     7
370
     0
100
AcDbLine
 10
982.9999999991747
 20
87.88287993667632
 30
0.0
 11
982.9999999990478
 21
89.88287993557561
 31
0.0
  0
LINE
  5
6D22
330
A
100
AcDbEntity
  8
0
  6
Continuous
 62
     7
370
     0
100
AcDbLine
 10
1006.608308791862
 20
89.88287993447602
 30
0.0
 11
1005.999999999048
 21
89.88287993427116
 31
0.0
  0
LINE
  5
6D23
330
A
100
AcDbEntity
  8
0
  6
Continuous
 62
     9
370
     0
100
AcDbLine
 10
17.00000000019048
 20
71.88287986984732
 30
0.0
 11
983.0000000001904
 21
71.88287993117319
 31
0.0
  0
LINE
  5
6D24
330
A
100
AcDbEntity
  8
0
  6
Continuous
 62
     7
370
     0
100
AcDbLine
 10
17.00000000019048
 20
71.88287986984732
 30
0.0
 11
17.0
 21
74.88340249934413
 31
0.0
  0
LINE
  5
6D25
330
A
100
AcDbEntity
  8
0
  6
Continuous
 62
     7
370
     0
100
AcDbLine
 10
17.0
 20
74.88340249934413
 30
0.0
 11
16.99999999917475
 21
87.88287986984755
 31
0.0
  0
LINE
  5
6D26
330
A
100
AcDbEntity
  8
0
  6
Continuous
 62
     9
370
     0
100
AcDbLine
 10
16.99999999917475
 20
87.88287986984755
 30
0.0
 11
982.9999999991747
 21
87.8828799311732
 31
0.0
  0
LINE
  5
6D27
330
A
100
AcDbEntity
  8
0
  6
Continuous
 62
     7
370
     0
100
AcDbLine
 10
983.0000000001904
 20
71.88287993117319
 30
0.0
 11
982.9999999991747
 21
87.8828799311732
 31
0.0
  0
LINE
  5
6D28
330
A
100
AcDbEntity
  8
0
  6
Continuous
 62
     7
370
     0
100
AcDbLine
 10
16.99999999917475
 20
87.88287986984755
 30
0.0
 11
16.99999999904776
 21
89.88287986984756
 31
0.0
  0
LINE
  5
6D29
330
A
100
AcDbEntity
  8
0
  6
Continuous
 62
     7
370
     0
100
AcDbLine
 10
16.99999999904787
 20
89.88287986984756
 30
0.0
 11
982.9999999990478
 21
89.88287993117319
 31
0.0
  0
LINE
  5
6D2A
330
A
100
AcDbEntity
  8
0
  6
Continuous
 62
     7
370
     0
100
AcDbLine
 10
982.9999999991747
 20
87.8828799311732
 30
0.0
 11
982.9999999990478
 21
89.88287993117319
 31
0.0
  0
LINE
  5
6D2B
330
A
100
AcDbEntity
  8
0
  6
Continuous
 62
     7
370
     0
100
AcDbLine
 10
17.00000000031753
 20
69.88287986984733
 30
0.0
 11
983.0000000003176
 21
69.88287993117319
 31
0.0
  0
LINE
  5
6D2C
330
A
100
AcDbEntity
  8
0
  6
Continuous
 62
     7
370
     0
100
AcDbLine
 10
983.0000000003176
 20
69.88287993117319
 30
0.0
 11
983.0000000001904
 21
71.88287993117319
 31
0.0
  0
LINE
  5
6D2D
330
A
100
AcDbEntity
  8
0
  6
Continuous
 62
     7
370
     0
100
AcDbLine
 10
17.00000000031753
 20
69.88287986984733
 30
0.0
 11
17.00000000019048
 21
71.88287986984732
 31
0.0
  0
LINE
  5
6D2E
330
A
100
AcDbEntity
  8
0
  6
Continuous
 62
     7
370
     0
100
AcDbLine
 10
-41.00000000017423
 20
74.38287984919338
 30
0.0
 11
-40.99999999991934
 21
81.83413086833571
 31
0.0
  0
LINE
  5
6D2F
330
A
100
AcDbEntity
  8
0
  6
Continuous
 62
     7
370
     0
100
AcDbLine
 10
-40.99999999991934
 20
81.83413086833571
 30
0.0
 11
-40.999999999811
 21
85.00091383771177
 31
0.0
  0
LINE
  5
6D30
330
A
100
AcDbEntity
  8
0
  6
Continuous
 62
     7
370
     0
100
AcDbLine
 10
-5.999999999699639
 20
89.68586942330921
 30
0.0
 11
-5.999999999761371
 21
87.88287984776207
 31
0.0
  0
LINE
  5
6D31
330
A
100
AcDbEntity
  8
0
  6
Continuous
 62
     9
370
     0
100
AcDbLine
 10
-5.999999999774331
 20
87.88287984776207
 30
0.0
 11
-58.99999999977433
 21
87.88287984957515
 31
0.0
  0
LINE
  5
6D32
330
A
100
AcDbEntity
  8
0
  6
Continuous
 62
     7
370
     0
100
AcDbLine
 10
-58.99999999976137
 20
87.88287984957515
 30
0.0
 11
-58.99999999969293
 21
89.88287984962198
 31
0.0
  0
LINE
  5
6D33
330
A
100
AcDbEntity
  8
0
  6
Continuous
 62
     7
370
     0
100
AcDbLine
 10
-58.99999999969293
 20
89.88287984962198
 30
0.0
 11
-6.606085581629827
 21
89.8828798478296
 31
0.0
  0
ELLIPSE
  5
6D34
330
A
100
AcDbEntity
  8
0
  6
Continuous
 62
     7
370
     0
100
AcDbEllipse
 10
-6.606085581698209
 20
87.88287984782959
 30
0.0
 11
-0.0000000000040523
 21
-2.000000000000001
 31
0.0
210
0.0
220
0.0
230
1.0
 40
0.7002075382032429
 41
2.694007354247501
 42
3.141592653543852
  0
LINE
  5
6D35
330
A
100
AcDbEntity
  8
0
  6
Continuous
 62
     9
370
     0
100
AcDbLine
 10
-40.50000000032167
 20
71.88287984894214
 30
0.0
 11
-6.000000000321676
 21
71.88287984776207
 31
0.0
  0
LINE
  5
6D36
330
A
100
AcDbEntity
  8
0
  6
Continuous
 62
     7
370
     0
100
AcDbLine
 10
-40.49999999991115
 20
83.88287984894214
 30
0.0
 11
-40.50000000032167
 21
71.88287984894214
 31
0.0
  0
ARC
  5
6D37
330
A
100
AcDbEntity
  8
0
  6
Continuous
 62
     7
370
     0
100
AcDbCircle
 10
-41.99999999991115
 20
83.88287984899353
 30
0.0
 40
1.500000000000056
100
AcDbArc
 50
359.9999999980393
 51
89.99999999803936
  0
LINE
  5
6D38
330
A
100
AcDbEntity
  8
0
  6
Continuous
 62
     7
370
     0
100
AcDbLine
 10
-51.99999999985988
 20
85.38287984933573
 30
0.0
 11
-41.99999999985982
 21
85.38287984899353
 31
0.0
  0
ARC
  5
6D39
330
A
100
AcDbEntity
  8
0
  6
Continuous
 62
     7
370
     0
100
AcDbCircle
 10
-51.99999999991115
 20
83.88287984933572
 30
0.0
 40
1.500000000000001
100
AcDbArc
 50
89.99999999803936
 51
179.9999999980393
  0
LINE
  5
6D3A
330
A
100
AcDbEntity
  8
0
  6
Continuous
 62
     7
370
     0
100
AcDbLine
 10
-53.50000000032173
 20
71.88287984938688
 30
0.0
 11
-53.49999999991116
 21
83.88287984938688
 31
0.0
  0
LINE
  5
6D3B
330
A
100
AcDbEntity
  8
0
  6
Continuous
 62
     9
370
     0
100
AcDbLine
 10
-59.00000000032168
 20
71.88287984957515
 30
0.0
 11
-53.50000000032173
 21
71.88287984938688
 31
0.0
  0
LINE
  5
6D3C
330
A
100
AcDbEntity
  8
0
  6
Continuous
 62
     7
370
     0
100
AcDbLine
 10
-58.99999999977433
 20
87.88287984957515
 30
0.0
 11
-59.00000000032168
 21
71.88287984957515
 31
0.0
  0
LINE
  5
6D3D
330
A
100
AcDbEntity
  8
0
  6
Continuous
 62
     7
370
     0
100
AcDbLine
 10
-6.000000000321676
 20
71.88287984776207
 30
0.0
 11
-5.999999999774331
 21
87.88287984776207
 31
0.0
  0
ELLIPSE
  5
6D3E
330
A
100
AcDbEntity
  8
0
  6
Continuous
 62
     7
370
     0
100
AcDbEllipse
 10
-6.606085582245611
 20
71.88287984782959
 30
0.0
 11
0.0000000000040523
 21
2.000000000000001
 31
0.0
210
0.0
220
0.0
230
1.0
 40
0.7002075382032429
 41
3.141592653543848
 42
3.589177952840195
  0
LINE
  5
6D3F
330
A
100
AcDbEntity
  8
0
  6
Continuous
 62
     7
370
     0
100
AcDbLine
 10
-6.606085582313994
 20
69.8828798478296
 30
0.0
 11
-40.50000000037715
 21
69.88287984898898
 31
0.0
  0
LINE
  5
6D40
330
A
100
AcDbEntity
  8
0
  6
Continuous
 62
     7
370
     0
100
AcDbLine
 10
-40.50000000037715
 20
69.88287984898898
 30
0.0
 11
-40.50000000030877
 21
71.88287984894214
 31
0.0
  0
LINE
  5
6D41
330
A
100
AcDbEntity
  8
0
  6
Continuous
 62
     7
370
     0
100
AcDbLine
 10
-6.000000000308716
 20
71.88287984776207
 30
0.0
 11
-6.000000000370391
 21
70.0798902722679
 31
0.0
  0
LINE
  5
6D42
330
A
100
AcDbEntity
  8
0
  6
Continuous
 62
     7
370
     0
100
AcDbLine
 10
-53.50000000037716
 20
69.88287984943372
 30
0.0
 11
-59.00000000037715
 21
69.88287984962198
 31
0.0
  0
LINE
  5
6D43
330
A
100
AcDbEntity
  8
0
  6
Continuous
 62
     7
370
     0
100
AcDbLine
 10
-53.50000000030878
 20
71.88287984938688
 30
0.0
 11
-53.50000000037721
 21
69.88287984943372
 31
0.0
  0
LINE
  5
6D44
330
A
100
AcDbEntity
  8
0
  6
Continuous
 62
     7
370
     0
100
AcDbLine
 10
-59.00000000037715
 20
69.88287984962198
 30
0.0
 11
-59.00000000030871
 21
71.88287984957515
 31
0.0
  0
LINE
  5
6D45
330
A
100
AcDbEntity
  8
0
  6
Continuous
 62
     7
370
     0
100
AcDbLine
 10
-6.606085581527111
 20
89.88287992799905
 30
0.0
 11
-6.0
 21
89.88287992799905
 31
0.0
  0
ARC
  5
6D46
330
A
100
AcDbEntity
  8
0
  6
Continuous
 62
     7
370
     0
100
AcDbCircle
 10
-8.548747067526903
 20
72.23663872541829
 30
0.0
 40
17.82935613514658
100
AcDbArc
 50
61.3488203996065
 51
81.78128195455114
  0
LINE
  5
6D47
330
A
100
AcDbEntity
  8
0
  6
Continuous
 62
     9
370
     0
100
AcDbLine
 10
0.0
 20
87.88287992799906
 30
0.0
 11
0.0
 21
71.88287992799906
 31
0.0
  0
ARC
  5
6D48
330
A
100
AcDbEntity
  8
0
  6
Continuous
 62
     7
370
     0
100
AcDbCircle
 10
-8.525492165264722
 20
87.45935642379322
 30
0.0
 40
17.75698839004011
100
AcDbArc
 50
278.176632571793
 51
298.6932650740486
  0
LINE
  5
6D49
330
A
100
AcDbEntity
  8
0
  6
Continuous
 62
     7
370
     0
100
AcDbLine
 10
-6.0
 20
69.88287992799905
 30
0.0
 11
-6.606085582209914
 21
69.88287992799905
 31
0.0
  0
LINE
  5
6D4A
330
A
100
AcDbEntity
  8
0
  6
Continuous
 62
     7
370
     0
100
AcDbLine
 10
-6.000000000030297
 20
76.8328799279991
 30
0.0
 11
-3.357142857142832
 21
76.8328799279991
 31
0.0
  0
LINE
  5
6D4B
330
A
100
AcDbEntity
  8
0
  6
Continuous
 62
     7
370
     0
100
AcDbLine
 10
-3.357142857142832
 20
76.8328799279991
 30
0.0
 11
-3.357142857142832
 21
82.93287992799923
 31
0.0
  0
LINE
  5
6D4C
330
A
100
AcDbEntity
  8
0
  6
Continuous
 62
     7
370
     0
100
AcDbLine
 10
-3.357142857142832
 20
82.93287992799923
 30
0.0
 11
-5.999999999821625
 21
82.93287992799923
 31
0.0
  0
LINE
  5
6D4D
330
A
100
AcDbEntity
  8
0
  6
Continuous
 62
     7
370
     0
100
AcDbLine
 10
17.0
 20
69.88287992799905
 30
0.0
 11
0.0
 21
69.88287992799905
 31
0.0
  0
LINE
  5
6D4E
330
A
100
AcDbEntity
  8
0
  6
Continuous
 62
     7
370
     0
100
AcDbLine
 10
0.0
 20
69.88287992799905
 30
0.0
 11
-6.0
 21
69.88287992799905
 31
0.0
  0
LINE
  5
6D4F
330
A
100
AcDbEntity
  8
0
  6
Continuous
 62
     9
370
     0
100
AcDbLine
 10
0.0
 20
71.88287992799906
 30
0.0
 11
17.0
 21
71.88287992799906
 31
0.0
  0
LINE
  5
6D50
330
A
100
AcDbEntity
  8
0
  6
Continuous
 62
     7
370
     0
100
AcDbLine
 10
17.0
 20
71.88287992799906
 30
0.0
 11
17.0
 21
69.88287992799905
 31
0.0
  0
LINE
  5
6D51
330
A
100
AcDbEntity
  8
0
  6
Continuous
 62
     9
370
     0
100
AcDbLine
 10
17.0
 20
87.88287992799906
 30
0.0
 11
0.0
 21
87.88287992799906
 31
0.0
  0
LINE
  5
6D52
330
A
100
AcDbEntity
  8
0
  6
Continuous
 62
     7
370
     0
100
AcDbLine
 10
-6.0
 20
89.88287992799905
 30
0.0
 11
0.0
 21
89.88287992799905
 31
0.0
  0
LINE
  5
6D53
330
A
100
AcDbEntity
  8
0
  6
Continuous
 62
     7
370
     0
100
AcDbLine
 10
0.0
 20
89.88287992799905
 30
0.0
 11
17.0
 21
89.88287992799905
 31
0.0
  0
LINE
  5
6D54
330
A
100
AcDbEntity
  8
0
  6
Continuous
 62
     7
370
     0
100
AcDbLine
 10
17.0
 20
89.88287992799905
 30
0.0
 11
17.0
 21
87.88287992799906
 31
0.0
  0
LINE
  5
6D55
330
A
100
AcDbEntity
  8
0
  6
Continuous
 62
     7
370
     0
100
AcDbLine
 10
17.0
 20
87.88287992799906
 30
0.0
 11
17.0
 21
74.88340249934413
 31
0.0
  0
LINE
  5
6D56
330
A
100
AcDbEntity
  8
0
  6
Continuous
 62
     7
370
     0
100
AcDbLine
 10
17.0
 20
74.88340249934413
 30
0.0
 11
17.0
 21
71.88287992799906
 31
0.0
  0
LINE
  5
6D57
330
A
100
AcDbEntity
  8
0
  6
Continuous
 62
     9
370
     0
100
AcDbLine
 10
27.00000000022214
 20
89.88287987048238
 30
0.0
 11
27.00000000022214
 21
91.13287991831771
 31
0.0
  0
LINE
  5
6D58
330
A
100
AcDbEntity
  8
0
  6
Continuous
 62
     9
370
     0
100
AcDbLine
 10
22.00000000022214
 20
91.13287991831771
 30
0.0
 11
22.00000000022214
 21
89.88287987016475
 31
0.0
  0
LINE
  5
6D59
330
A
100
AcDbEntity
  8
0
  6
Continuous
 62
     9
370
     0
100
AcDbLine
 10
978.0000000002225
 20
89.88287993085577
 30
0.0
 11
978.0000000002225
 21
91.13287993069731
 31
0.0
  0
LINE
  5
6D5A
330
A
100
AcDbEntity
  8
0
  6
Continuous
 62
     9
370
     0
100
AcDbLine
 10
973.0000000002224
 20
91.13287993069731
 30
0.0
 11
973.0000000002224
 21
89.88287993053836
 31
0.0
  0
LINE
  5
6D5B
330
A
100
AcDbEntity
  8
0
  6
Continuous
 62
     9
370
     0
100
AcDbLine
 10
-32.39999999982075
 20
89.88287984871181
 30
0.0
 11
-32.39999999982075
 21
92.44537984897101
 31
0.0
  0
LINE
  5
6D5C
330
A
100
AcDbEntity
  8
0
  6
Continuous
 62
     9
370
     0
100
AcDbLine
 10
-36.59999999982074
 20
92.44537984897124
 30
0.0
 11
-36.59999999982074
 21
89.8828798488555
 31
0.0
  0
LINE
  5
6D5D
330
A
100
AcDbEntity
  8
0
  6
Continuous
 62
     9
370
     0
100
AcDbLine
 10
-13.89999999983115
 20
89.88287984807902
 30
0.0
 11
-13.89999999983115
 21
90.14537984833827
 31
0.0
  0
LINE
  5
6D5E
330
A
100
AcDbEntity
  8
0
  6
Continuous
 62
     9
370
     0
100
AcDbLine
 10
-18.09999999983114
 20
90.14537984833827
 30
0.0
 11
-18.09999999983114
 21
89.88287984822273
 31
0.0
  0
LINE
  5
6D5F
330
A
100
AcDbEntity
  8
0
  6
Continuous
 62
     9
370
     0
100
AcDbLine
 10
1018.099999999424
 20
89.88287993549988
 30
0.0
 11
1018.099999999424
 21
90.14537993318027
 31
0.0
  0
LINE
  5
6D60
330
A
100
AcDbEntity
  8
0
  6
Continuous
 62
     9
370
     0
100
AcDbLine
 10
1013.899999999424
 20
90.14537993318027
 30
0.0
 11
1013.899999999424
 21
89.88287993525615
 31
0.0
  0
LINE
  5
6D61
330
A
100
AcDbEntity
  8
0
  6
Continuous
 62
     7
370
     0
100
AcDbLine
 10
27.5000000002222
 20
90.88287991831771
 30
0.0
 11
27.00000000022214
 21
91.13287991831771
 31
0.0
  0
LINE
  5
6D62
330
A
100
AcDbEntity
  8
0
  6
Continuous
 62
     7
370
     0
100
AcDbLine
 10
27.00000000022214
 20
91.13287991831771
 30
0.0
 11
26.5000000002222
 21
91.38287991831793
 31
0.0
  0
LINE
  5
6D63
330
A
100
AcDbEntity
  8
0
  6
Continuous
 62
     7
370
     0
100
AcDbLine
 10
22.5000000002222
 20
91.38287991831793
 30
0.0
 11
22.00000000022214
 21
91.13287991831771
 31
0.0
  0
LINE
  5
6D64
330
A
100
AcDbEntity
  8
0
  6
Continuous
 62
     7
370
     0
100
AcDbLine
 10
22.00000000022214
 20
91.13287991831771
 30
0.0
 11
21.5000000002222
 21
90.88287991831771
 31
0.0
  0
LINE
  5
6D65
330
A
100
AcDbEntity
  8
0
  6
Continuous
 62
     7
370
     0
100
AcDbLine
 10
27.5000000002222
 20
89.88287987051398
 30
0.0
 11
27.5000000002222
 21
90.88287991831771
 31
0.0
  0
LINE
  5
6D66
330
A
100
AcDbEntity
  8
0
  6
Continuous
 62
     7
370
     0
100
AcDbLine
 10
21.5000000002222
 20
90.88287991831771
 30
0.0
 11
21.50000000022215
 21
89.88287987013292
 31
0.0
  0
LINE
  5
6D67
330
A
100
AcDbEntity
  8
0
  6
Continuous
 62
     7
370
     0
100
AcDbLine
 10
978.5000000002225
 20
90.88287993069707
 30
0.0
 11
978.0000000002225
 21
91.13287993069731
 31
0.0
  0
LINE
  5
6D68
330
A
100
AcDbEntity
  8
0
  6
Continuous
 62
     7
370
     0
100
AcDbLine
 10
978.0000000002225
 20
91.13287993069731
 30
0.0
 11
977.5000000002224
 21
91.38287993069708
 31
0.0
  0
LINE
  5
6D69
330
A
100
AcDbEntity
  8
0
  6
Continuous
 62
     7
370
     0
100
AcDbLine
 10
973.5000000002225
 20
91.38287993069708
 30
0.0
 11
973.0000000002224
 21
91.13287993069731
 31
0.0
  0
LINE
  5
6D6A
330
A
100
AcDbEntity
  8
0
  6
Continuous
 62
     7
370
     0
100
AcDbLine
 10
973.0000000002224
 20
91.13287993069731
 30
0.0
 11
972.5000000002225
 21
90.88287993069707
 31
0.0
  0
LINE
  5
6D6B
330
A
100
AcDbEntity
  8
0
  6
Continuous
 62
     7
370
     0
100
AcDbLine
 10
978.5000000002225
 20
89.88287993088761
 30
0.0
 11
978.5000000002225
 21
90.88287993069707
 31
0.0
  0
LINE
  5
6D6C
330
A
100
AcDbEntity
  8
0
  6
Continuous
 62
     7
370
     0
100
AcDbLine
 10
972.5000000002225
 20
90.88287993069707
 30
0.0
 11
972.5000000002225
 21
89.88287993050676
 31
0.0
  0
LINE
  5
6D6D
330
A
100
AcDbEntity
  8
0
  6
Continuous
 62
     7
370
     0
100
AcDbLine
 10
-31.99999999982078
 20
89.8828798486984
 30
0.0
 11
-31.99999999982078
 21
92.25787984897124
 31
0.0
  0
LINE
  5
6D6E
330
A
100
AcDbEntity
  8
0
  6
Continuous
 62
     7
370
     0
100
AcDbLine
 10
-36.99999999982078
 20
92.25787984897124
 30
0.0
 11
-36.99999999982078
 21
89.88287984886937
 31
0.0
  0
LINE
  5
6D6F
330
A
100
AcDbEntity
  8
0
  6
Continuous
 62
     7
370
     0
100
AcDbLine
 10
-31.99999999982078
 20
92.25787984897124
 30
0.0
 11
-32.39999999982075
 21
92.44537984897124
 31
0.0
  0
LINE
  5
6D70
330
A
100
AcDbEntity
  8
0
  6
Continuous
 62
     7
370
     0
100
AcDbLine
 10
-32.39999999982075
 20
92.44537984897124
 30
0.0
 11
-32.79999999982079
 21
92.63287984897102
 31
0.0
  0
LINE
  5
6D71
330
A
100
AcDbEntity
  8
0
  6
Continuous
 62
     7
370
     0
100
AcDbLine
 10
-36.19999999982076
 20
92.63287984897102
 30
0.0
 11
-36.59999999982074
 21
92.44537984897124
 31
0.0
  0
LINE
  5
6D72
330
A
100
AcDbEntity
  8
0
  6
Continuous
 62
     7
370
     0
100
AcDbLine
 10
-36.59999999982074
 20
92.44537984897124
 30
0.0
 11
-36.99999999982078
 21
92.25787984897124
 31
0.0
  0
LINE
  5
6D73
330
A
100
AcDbEntity
  8
0
  6
Continuous
 62
     7
370
     0
100
AcDbLine
 10
-13.49999999983112
 20
89.95787984833828
 30
0.0
 11
-13.89999999983115
 21
90.14537984833827
 31
0.0
  0
LINE
  5
6D74
330
A
100
AcDbEntity
  8
0
  6
Continuous
 62
     7
370
     0
100
AcDbLine
 10
-13.89999999983115
 20
90.14537984833827
 30
0.0
 11
-14.29999999983113
 21
90.33287984833828
 31
0.0
  0
LINE
  5
6D75
330
A
100
AcDbEntity
  8
0
  6
Continuous
 62
     7
370
     0
100
AcDbLine
 10
-17.69999999983111
 20
90.33287984833828
 30
0.0
 11
-18.09999999983114
 21
90.14537984833827
 31
0.0
  0
LINE
  5
6D76
330
A
100
AcDbEntity
  8
0
  6
Continuous
 62
     7
370
     0
100
AcDbLine
 10
-18.09999999983114
 20
90.14537984833827
 30
0.0
 11
-18.49999999983111
 21
89.95787984833828
 31
0.0
  0
LINE
  5
6D77
330
A
100
AcDbEntity
  8
0
  6
Continuous
 62
     7
370
     0
100
AcDbLine
 10
-13.49999999983112
 20
89.88287984806538
 30
0.0
 11
-13.49999999983112
 21
89.95787984833828
 31
0.0
  0
LINE
  5
6D78
330
A
100
AcDbEntity
  8
0
  6
Continuous
 62
     7
370
     0
100
AcDbLine
 10
-18.49999999983111
 20
89.95787984833828
 30
0.0
 11
-18.49999999983111
 21
89.8828798482366
 31
0.0
  0
LINE
  5
6D79
330
A
100
AcDbEntity
  8
0
  6
Continuous
 62
     7
370
     0
100
AcDbLine
 10
1018.499999999424
 20
89.95787993318026
 30
0.0
 11
1018.099999999424
 21
90.14537993318027
 31
0.0
  0
LINE
  5
6D7A
330
A
100
AcDbEntity
  8
0
  6
Continuous
 62
     7
370
     0
100
AcDbLine
 10
1018.099999999424
 20
90.14537993318027
 30
0.0
 11
1017.699999999424
 21
90.33287993318026
 31
0.0
  0
LINE
  5
6D7B
330
A
100
AcDbEntity
  8
0
  6
Continuous
 62
     7
370
     0
100
AcDbLine
 10
1014.299999999424
 20
90.33287993318026
 30
0.0
 11
1013.899999999424
 21
90.14537993318027
 31
0.0
  0
LINE
  5
6D7C
330
A
100
AcDbEntity
  8
0
  6
Continuous
 62
     7
370
     0
100
AcDbLine
 10
1013.899999999424
 20
90.14537993318027
 30
0.0
 11
1013.499999999424
 21
89.95787993318026
 31
0.0
  0
LINE
  5
6D7D
330
A
100
AcDbEntity
  8
0
  6
Continuous
 62
     7
370
     0
100
AcDbLine
 10
1018.499999999424
 20
89.88287993552285
 30
0.0
 11
1018.499999999424
 21
89.95787993318026
 31
0.0
  0
LINE
  5
6D7E
330
A
100
AcDbEntity
  8
0
  6
Continuous
 62
     7
370
     0
100
AcDbLine
 10
1013.499999999424
 20
89.95787993318026
 30
0.0
 11
1013.499999999424
 21
89.88287993523295
 31
0.0
  0
LINE
  5
6D7F
330
A
100
AcDbEntity
  8
0
  6
Continuous
 62
     7
370
     0
100
AcDbLine
 10
-42.50000000023521
 20
74.38287984924477
 30
0.0
 11
-41.00000000023522
 21
74.38287984919338
 31
0.0
  0
LINE
  5
6D80
330
A
100
AcDbEntity
  8
0
  6
Continuous
 62
     7
370
     0
100
AcDbLine
 10
-41.00000000017423
 20
74.38287984919338
 30
0.0
 11
-40.50000000019127
 21
73.88287984917633
 31
0.0
  0
ARC
  5
6D81
330
A
100
AcDbEntity
  8
0
  6
Continuous
 62
     7
370
     0
100
AcDbCircle
 10
24.5000000002222
 20
0.0
 30
0.0
 40
2.499999999999946
100
AcDbArc
 50
90.0
 51
0.0
  0
ARC
  5
6D82
330
A
100
AcDbEntity
  8
0
  6
Continuous
 62
     7
370
     0
100
AcDbCircle
 10
975.5000000002224
 20
0.0
 30
0.0
 40
2.499999999999946
100
AcDbArc
 50
90.0
 51
0.0
  0
ARC
  5
6D83
330
A
100
AcDbEntity
  8
0
  6
Continuous
 62
     7
370
     0
100
AcDbCircle
 10
-34.49999999982078
 20
0.0000000305219601
 30
0.0
 40
2.09999999999999
100
AcDbArc
 50
90.0
 51
0.0
  0
ARC
  5
6D84
330
A
100
AcDbEntity
  8
0
  6
Continuous
 62
     7
370
     0
100
AcDbCircle
 10
-15.99999999983111
 20
0.0000000304094101
 30
0.0
 40
2.09999999999999
100
AcDbArc
 50
90.0
 51
0.0
  0
ARC
  5
6D85
330
A
100
AcDbEntity
  8
0
  6
Continuous
 62
     7
370
     0
100
AcDbCircle
 10
1015.999999999424
 20
0.000000003911282
 30
0.0
 40
2.09999999999999
100
AcDbArc
 50
180.0
 51
0.0
  0
ARC
  5
6D86
330
A
100
AcDbEntity
  8
0
  6
Continuous
 62
     7
370
     0
100
AcDbCircle
 10
1015.999999999424
 20
0.000000003911282
 30
0.0
 40
2.09999999999999
100
AcDbArc
 50
90.0
 51
180.0
  0
ARC
  5
6D87
330
A
100
AcDbEntity
  8
0
  6
Continuous
 62
     9
370
     0
100
AcDbCircle
 10
24.50000000000006
 20
0.0021731235735842
 30
0.0
 40
3.000000000000002
100
AcDbArc
 50
0.0
 51
180.0
  0
CIRCLE
  5
6D88
330
A
100
AcDbEntity
  8
0
  6
Continuous
 62
     7
370
     0
100
AcDbCircle
 10
24.5000000002222
 20
0.0
 30
0.0
 40
3.000000000000002
  0
CIRCLE
  5
6D89
330
A
100
AcDbEntity
  8
0
  6
Continuous
 62
     7
370
     0
100
AcDbCircle
 10
24.5000000002222
 20
0.0
 30
0.0
 40
2.000000000000001
  0
LINE
  5
6D8A
330
A
100
AcDbEntity
  8
0
  6
Continuous
 62
     7
370
     0
100
AcDbLine
 10
23.00000000022214
 20
0.8660254037845334
 30
0.0
 11
24.5000000002222
 21
1.732050807568839
 31
0.0
  0
LINE
  5
6D8B
330
A
100
AcDbEntity
  8
0
  6
Continuous
 62
     7
370
     0
100
AcDbLine
 10
23.00000000022214
 20
-0.8660254037845334
 30
0.0
 11
23.00000000022214
 21
0.8660254037845334
 31
0.0
  0
LINE
  5
6D8C
330
A
100
AcDbEntity
  8
0
  6
Continuous
 62
     7
370
     0
100
AcDbLine
 10
24.5000000002222
 20
-1.732050807568839
 30
0.0
 11
23.00000000022214
 21
-0.8660254037845334
 31
0.0
  0
LINE
  5
6D8D
330
A
100
AcDbEntity
  8
0
  6
Continuous
 62
     7
370
     0
100
AcDbLine
 10
26.00000000022215
 20
-0.8660254037845334
 30
0.0
 11
24.5000000002222
 21
-1.732050807568839
 31
0.0
  0
LINE
  5
6D8E
330
A
100
AcDbEntity
  8
0
  6
Continuous
 62
     7
370
     0
100
AcDbLine
 10
26.00000000022215
 20
0.8660254037845334
 30
0.0
 11
26.00000000022215
 21
-0.8660254037845334
 31
0.0
  0
LINE
  5
6D8F
330
A
100
AcDbEntity
  8
0
  6
Continuous
 62
     7
370
     0
100
AcDbLine
 10
24.5000000002222
 20
1.732050807568839
 30
0.0
 11
26.00000000022215
 21
0.8660254037845334
 31
0.0
  0
CIRCLE
  5
6D90
330
A
100
AcDbEntity
  8
0
  6
Continuous
 62
     7
370
     0
100
AcDbCircle
 10
975.5000000002224
 20
0.0
 30
0.0
 40
3.000000000000002
  0
CIRCLE
  5
6D91
330
A
100
AcDbEntity
  8
0
  6
Continuous
 62
     7
370
     0
100
AcDbCircle
 10
975.5000000002224
 20
0.0
 30
0.0
 40
2.000000000000001
  0
LINE
  5
6D92
330
A
100
AcDbEntity
  8
0
  6
Continuous
 62
     7
370
     0
100
AcDbLine
 10
977.0000000002225
 20
0.8660254037845334
 30
0.0
 11
977.0000000002225
 21
-0.8660254037845334
 31
0.0
  0
LINE
  5
6D93
330
A
100
AcDbEntity
  8
0
  6
Continuous
 62
     7
370
     0
100
AcDbLine
 10
975.5000000002224
 20
1.732050807568839
 30
0.0
 11
977.0000000002225
 21
0.8660254037845334
 31
0.0
  0
LINE
  5
6D94
330
A
100
AcDbEntity
  8
0
  6
Continuous
 62
     7
370
     0
100
AcDbLine
 10
974.0000000002224
 20
0.8660254037845334
 30
0.0
 11
975.5000000002224
 21
1.732050807568839
 31
0.0
  0
LINE
  5
6D95
330
A
100
AcDbEntity
  8
0
  6
Continuous
 62
     7
370
     0
100
AcDbLine
 10
974.0000000002224
 20
-0.8660254037845334
 30
0.0
 11
974.0000000002224
 21
0.8660254037845334
 31
0.0
  0
LINE
  5
6D96
330
A
100
AcDbEntity
  8
0
  6
Continuous
 62
     7
370
     0
100
AcDbLine
 10
975.5000000002224
 20
-1.732050807568839
 30
0.0
 11
974.0000000002224
 21
-0.8660254037845334
 31
0.0
  0
LINE
  5
6D97
330
A
100
AcDbEntity
  8
0
  6
Continuous
 62
     7
370
     0
100
AcDbLine
 10
977.0000000002225
 20
-0.8660254037845334
 30
0.0
 11
975.5000000002224
 21
-1.732050807568839
 31
0.0
  0
LINE
  5
6D98
330
A
100
AcDbEntity
  8
0
  6
Continuous
 62
     7
370
     0
100
AcDbLine
 10
-33.24999999982078
 20
-0.721687805964848
 30
0.0
 11
-34.49999999982078
 21
-1.443375642451883
 31
0.0
  0
LINE
  5
6D99
330
A
100
AcDbEntity
  8
0
  6
Continuous
 62
     7
370
     0
100
AcDbLine
 10
-33.24999999982078
 20
0.7216878670092229
 30
0.0
 11
-33.24999999982078
 21
-0.721687805964848
 31
0.0
  0
LINE
  5
6D9A
330
A
100
AcDbEntity
  8
0
  6
Continuous
 62
     7
370
     0
100
AcDbLine
 10
-34.49999999982078
 20
1.443375703496258
 30
0.0
 11
-33.24999999982078
 21
0.7216878670092229
 31
0.0
  0
LINE
  5
6D9B
330
A
100
AcDbEntity
  8
0
  6
Continuous
 62
     7
370
     0
100
AcDbLine
 10
-35.74999999982072
 20
0.7216878670092229
 30
0.0
 11
-34.49999999982078
 21
1.443375703496258
 31
0.0
  0
LINE
  5
6D9C
330
A
100
AcDbEntity
  8
0
  6
Continuous
 62
     7
370
     0
100
AcDbLine
 10
-35.74999999982072
 20
-0.721687805964848
 30
0.0
 11
-35.74999999982072
 21
0.7216878670092229
 31
0.0
  0
LINE
  5
6D9D
330
A
100
AcDbEntity
  8
0
  6
Continuous
 62
     7
370
     0
100
AcDbLine
 10
-34.49999999982078
 20
-1.443375642451883
 30
0.0
 11
-35.74999999982072
 21
-0.721687805964848
 31
0.0
  0
CIRCLE
  5
6D9E
330
A
100
AcDbEntity
  8
0
  6
Continuous
 62
     7
370
     0
100
AcDbCircle
 10
-34.49999999982078
 20
0.0000000305219601
 30
0.0
 40
1.699999999999979
  0
CIRCLE
  5
6D9F
330
A
100
AcDbEntity
  8
0
  6
Continuous
 62
     7
370
     0
100
AcDbCircle
 10
-34.49999999982078
 20
0.0000000305219601
 30
0.0
 40
2.500000000000002
  0
CIRCLE
  5
6DA0
330
A
100
AcDbEntity
  8
0
  6
Continuous
 62
     7
370
     0
100
AcDbCircle
 10
-15.99999999983111
 20
0.0000000304094101
 30
0.0
 40
2.500000000000002
  0
CIRCLE
  5
6DA1
330
A
100
AcDbEntity
  8
0
  6
Continuous
 62
     7
370
     0
100
AcDbCircle
 10
-15.99999999983111
 20
0.0000000304094101
 30
0.0
 40
1.699999999999979
  0
LINE
  5
6DA2
330
A
100
AcDbEntity
  8
0
  6
Continuous
 62
     7
370
     0
100
AcDbLine
 10
-14.74999999983117
 20
-0.7216878060776253
 30
0.0
 11
-15.99999999983111
 21
-1.443375642564433
 31
0.0
  0
LINE
  5
6DA3
330
A
100
AcDbEntity
  8
0
  6
Continuous
 62
     7
370
     0
100
AcDbLine
 10
-14.74999999983117
 20
0.7216878668964455
 30
0.0
 11
-14.74999999983117
 21
-0.7216878060776253
 31
0.0
  0
LINE
  5
6DA4
330
A
100
AcDbEntity
  8
0
  6
Continuous
 62
     7
370
     0
100
AcDbLine
 10
-15.99999999983111
 20
1.443375703383708
 30
0.0
 11
-14.74999999983117
 21
0.7216878668964455
 31
0.0
  0
LINE
  5
6DA5
330
A
100
AcDbEntity
  8
0
  6
Continuous
 62
     7
370
     0
100
AcDbLine
 10
-17.24999999983111
 20
0.7216878668964455
 30
0.0
 11
-15.99999999983111
 21
1.443375703383708
 31
0.0
  0
LINE
  5
6DA6
330
A
100
AcDbEntity
  8
0
  6
Continuous
 62
     7
370
     0
100
AcDbLine
 10
-15.99999999983111
 20
-1.443375642564433
 30
0.0
 11
-17.24999999983111
 21
-0.7216878060776253
 31
0.0
  0
LINE
  5
6DA7
330
A
100
AcDbEntity
  8
0
  6
Continuous
 62
     7
370
     0
100
AcDbLine
 10
-17.24999999983111
 20
-0.7216878060776253
 30
0.0
 11
-17.24999999983111
 21
0.7216878668964455
 31
0.0
  0
CIRCLE
  5
6DA8
330
A
100
AcDbEntity
  8
0
  6
Continuous
 62
     7
370
     0
100
AcDbCircle
 10
1015.999999999424
 20
0.000000003911282
 30
0.0
 40
2.499999999999946
  0
CIRCLE
  5
6DA9
330
A
100
AcDbEntity
  8
0
  6
Continuous
 62
     7
370
     0
100
AcDbCircle
 10
1015.999999999424
 20
0.000000003911282
 30
0.0
 40
1.700000000000034
  0
LINE
  5
6DAA
330
A
100
AcDbEntity
  8
0
  6
Continuous
 62
     7
370
     0
100
AcDbLine
 10
1014.749999999424
 20
-0.7216878325757535
 30
0.0
 11
1014.749999999424
 21
0.7216878403983174
 31
0.0
  0
LINE
  5
6DAB
330
A
100
AcDbEntity
  8
0
  6
Continuous
 62
     7
370
     0
100
AcDbLine
 10
1015.999999999424
 20
-1.443375669062788
 30
0.0
 11
1014.749999999424
 21
-0.7216878325757535
 31
0.0
  0
LINE
  5
6DAC
330
A
100
AcDbEntity
  8
0
  6
Continuous
 62
     7
370
     0
100
AcDbLine
 10
1017.249999999424
 20
0.7216878403983174
 30
0.0
 11
1017.249999999424
 21
-0.7216878325757535
 31
0.0
  0
LINE
  5
6DAD
330
A
100
AcDbEntity
  8
0
  6
Continuous
 62
     7
370
     0
100
AcDbLine
 10
1017.249999999424
 20
-0.7216878325757535
 30
0.0
 11
1015.999999999424
 21
-1.443375669062788
 31
0.0
  0
LINE
  5
6DAE
330
A
100
AcDbEntity
  8
0
  6
Continuous
 62
     7
370
     0
100
AcDbLine
 10
1014.749999999424
 20
0.7216878403983174
 30
0.0
 11
1015.999999999424
 21
1.443375676885352
 31
0.0
  0
LINE
  5
6DAF
330
A
100
AcDbEntity
  8
0
  6
Continuous
 62
     7
370
     0
100
AcDbLine
 10
1015.999999999424
 20
1.443375676885352
 30
0.0
 11
1017.249999999424
 21
0.7216878403983174
 31
0.0
  0
LINE
  5
6DB0
330
A
100
AcDbEntity
  8
0
  6
Continuous
 62
     7
370
     0
100
AcDbLine
 10
1026.999999999179
 20
-9.999999995156485
 30
0.0
 11
1005.999999999179
 21
-9.999999995074404
 31
0.0
  0
LINE
  5
6DB1
330
A
100
AcDbEntity
  8
0
  6
Continuous
 62
     7
370
     0
100
AcDbLine
 10
1005.999999999179
 20
-9.999999995074404
 30
0.0
 11
1005.999999999183
 21
-8.865579910337373
 31
0.0
  0
LINE
  5
6DB2
330
A
100
AcDbEntity
  8
0
  6
Continuous
 62
     7
370
     0
100
AcDbLine
 10
1005.999999999382
 20
-8.865579910549513
 30
0.0
 11
1006.606085581344
 21
-7.999999994762674
 31
0.0
  0
LINE
  5
6DB3
330
A
100
AcDbEntity
  8
0
  6
Continuous
 62
     9
370
     0
100
AcDbLine
 10
1006.606085581008
 20
-7.999999994527343
 30
0.0
 11
1026.999999999071
 21
-7.999999994607151
 31
0.0
  0
LINE
  5
6DB4
330
A
100
AcDbEntity
  8
0
  6
Continuous
 62
     7
370
     0
100
AcDbLine
 10
1026.999999999187
 20
-7.999999994607151
 30
0.0
 11
1026.999999999179
 21
-9.999999995156485
 31
0.0
  0
ARC
  5
6DB5
330
A
100
AcDbEntity
  8
0
  6
Continuous
 62
     7
370
     0
100
AcDbCircle
 10
999.9999999991027
 20
0.0000000054985776
 30
0.0
 40
9.999999999999948
100
AcDbArc
 50
324.9999999997732
 51
0.0000000000260551
  0
ARC
  5
6DB6
330
A
100
AcDbEntity
  8
0
  6
Continuous
 62
     7
370
     0
100
AcDbCircle
 10
999.9999999991027
 20
0.0000000054985776
 30
0.0
 40
10.00000000000001
100
AcDbArc
 50
0.0000000000260551
 51
34.99999999977325
  0
LINE
  5
6DB7
330
A
100
AcDbEntity
  8
0
  6
Continuous
 62
     7
370
     0
100
AcDbLine
 10
1008.191520442015
 20
5.735764368977015
 30
0.0
 11
1006.606085581071
 21
8.000000005472656
 31
0.0
  0
LINE
  5
6DB8
330
A
100
AcDbEntity
  8
0
  6
Continuous
 62
     9
370
     0
100
AcDbLine
 10
1026.999999999134
 20
8.000000005392848
 30
0.0
 11
1006.606085581071
 21
8.000000005472656
 31
0.0
  0
LINE
  5
6DB9
330
A
100
AcDbEntity
  8
0
  6
Continuous
 62
     7
370
     0
100
AcDbLine
 10
1006.606085581008
 20
-7.999999994527343
 30
0.0
 11
1008.19152044197
 21
-5.735764358043979
 31
0.0
  0
LINE
  5
6DBA
330
A
100
AcDbEntity
  8
0
  6
Continuous
 62
     7
370
     0
100
AcDbLine
 10
1026.999999999134
 20
8.000000005392848
 30
0.0
 11
1026.999999999071
 21
-7.999999994607151
 31
0.0
  0
LINE
  5
6DBB
330
A
100
AcDbEntity
  8
0
  6
Continuous
 62
     7
370
     0
100
AcDbLine
 10
1005.999999999253
 20
8.865579921179232
 30
0.0
 11
1005.999999999258
 21
10.00000000492559
 31
0.0
  0
LINE
  5
6DBC
330
A
100
AcDbEntity
  8
0
  6
Continuous
 62
     7
370
     0
100
AcDbLine
 10
1005.999999999257
 20
10.00000000492559
 30
0.0
 11
1026.999999999258
 21
10.00000000484351
 31
0.0
  0
LINE
  5
6DBD
330
A
100
AcDbEntity
  8
0
  6
Continuous
 62
     7
370
     0
100
AcDbLine
 10
1006.60608558089
 20
8.000000005346464
 30
0.0
 11
1005.999999998986
 21
8.865579921065545
 31
0.0
  0
LINE
  5
6DBE
330
A
100
AcDbEntity
  8
0
  6
Continuous
 62
     7
370
     0
100
AcDbLine
 10
1026.999999999258
 20
10.00000000484351
 30
0.0
 11
1026.99999999925
 21
8.000000005392848
 31
0.0
  0
CIRCLE
  5
6DBF
330
A
100
AcDbEntity
  8
0
  6
Continuous
 62
     9
370
     0
100
AcDbCircle
 10
999.9999999990478
 20
0.0000000055028977
 30
0.0
 40
7.000000000000006
  0
LINE
  5
6DC0
330
A
100
AcDbEntity
  8
0
  6
Continuous
 62
     7
370
     0
100
AcDbLine
 10
999.9999999991747
 20
-9.999999995597818
 30
0.0
 11
982.9999999991747
 21
-9.999999995597818
 31
0.0
  0
LINE
  5
6DC1
330
A
100
AcDbEntity
  8
0
  6
Continuous
 62
     7
370
     0
100
AcDbLine
 10
982.9999999991747
 20
-9.999999995597818
 30
0.0
 11
982.9999999991747
 21
-7.999999994497102
 31
0.0
  0
LINE
  5
6DC2
330
A
100
AcDbEntity
  8
0
  6
Continuous
 62
     9
370
     0
100
AcDbLine
 10
982.9999999990478
 20
-7.999999994497102
 30
0.0
 11
999.9999999990478
 21
-7.999999994497102
 31
0.0
  0
LINE
  5
6DC3
330
A
100
AcDbEntity
  8
0
  6
Continuous
 62
     9
370
     0
100
AcDbLine
 10
999.9999999990478
 20
-7.999999994497102
 30
0.0
 11
1005.999999999048
 21
-7.999999994497102
 31
0.0
  0
ARC
  5
6DC4
330
A
100
AcDbEntity
  8
0
  6
Continuous
 62
     7
370
     0
100
AcDbCircle
 10
999.9999894069553
 20
0.0000317762765008
 30
0.0
 40
10.00003177187985
100
AcDbArc
 50
270.0000606887532
 51
306.8698369767377
  0
ARC
  5
6DC5
330
A
100
AcDbEntity
  8
0
  6
Continuous
 62
     7
370
     0
100
AcDbCircle
 10
999.9999999990478
 20
0.0000000055028977
 30
0.0
 40
8.000000000000007
100
AcDbArc
 50
270.0
 51
90.0
  0
LINE
  5
6DC6
330
A
100
AcDbEntity
  8
0
  6
Continuous
 62
     9
370
     0
100
AcDbLine
 10
1005.999999999048
 20
8.000000005502897
 30
0.0
 11
999.9999999990478
 21
8.000000005502897
 31
0.0
  0
ARC
  5
6DC7
330
A
100
AcDbEntity
  8
0
  6
Continuous
 62
     7
370
     0
100
AcDbCircle
 10
999.9999999990478
 20
0.0000000055028977
 30
0.0
 40
10.00000000000001
100
AcDbArc
 50
0.0
 51
34.99999999957633
  0
ARC
  5
6DC8
330
A
100
AcDbEntity
  8
0
  6
Continuous
 62
     7
370
     0
100
AcDbCircle
 10
999.9999999990478
 20
0.0000000055028977
 30
0.0
 40
10.0
100
AcDbArc
 50
34.99999999957633
 51
53.13010235415338
  0
ARC
  5
6DC9
330
A
100
AcDbEntity
  8
0
  6
Continuous
 62
     7
370
     0
100
AcDbCircle
 10
999.9999999990478
 20
0.0000000055028977
 30
0.0
 40
10.00000000000001
100
AcDbArc
 50
306.8698976458466
 51
324.9999999999394
  0
ARC
  5
6DCA
330
A
100
AcDbEntity
  8
0
  6
Continuous
 62
     7
370
     0
100
AcDbCircle
 10
999.9999999990478
 20
0.0000000055028977
 30
0.0
 40
10.00000000000001
100
AcDbArc
 50
324.9999999999394
 51
0.0
  0
LINE
  5
6DCB
330
A
100
AcDbEntity
  8
0
  6
Continuous
 62
     9
370
     0
100
AcDbLine
 10
999.9999999990478
 20
8.000000005502897
 30
0.0
 11
982.9999999990478
 21
8.000000005502897
 31
0.0
  0
LINE
  5
6DCC
330
A
100
AcDbEntity
  8
0
  6
Continuous
 62
     7
370
     0
100
AcDbLine
 10
982.9999999990478
 20
-7.999999994497102
 30
0.0
 11
982.9999999990478
 21
8.000000005502897
 31
0.0
  0
ARC
  5
6DCD
330
A
100
AcDbEntity
  8
0
  6
Continuous
 62
     7
370
     0
100
AcDbCircle
 10
999.9999999990478
 20
0.0000000055028977
 30
0.0
 40
8.000000000000007
100
AcDbArc
 50
90.0
 51
270.0
  0
LINE
  5
6DCE
330
A
100
AcDbEntity
  8
0
  6
Continuous
 62
     7
370
     0
100
AcDbLine
 10
982.9999999991747
 20
10.00000000440218
 30
0.0
 11
999.9999999991747
 21
10.00000000440218
 31
0.0
  0
ARC
  5
6DCF
330
A
100
AcDbEntity
  8
0
  6
Continuous
 62
     7
370
     0
100
AcDbCircle
 10
999.9999926209488
 20
-0.000022134297069
 30
0.0
 40
10.00002213870205
100
AcDbArc
 50
53.1301446463721
 51
89.99995772597165
  0
LINE
  5
6DD0
330
A
100
AcDbEntity
  8
0
  6
Continuous
 62
     7
370
     0
100
AcDbLine
 10
982.9999999991747
 20
8.000000005502897
 30
0.0
 11
982.9999999991747
 21
10.00000000440218
 31
0.0
  0
ARC
  5
6DD1
330
A
100
AcDbEntity
  8
0
  6
Continuous
 62
     7
370
     0
100
AcDbCircle
 10
975.4999999991429
 20
-0.002173118896053
 30
0.0
 40
2.999999999999945
100
AcDbArc
 50
180.0
 51
0.4792314216441601
  0
LINE
  5
6DD2
330
A
100
AcDbEntity
  8
0
  6
Continuous
 62
     9
370
     0
100
AcDbLine
 10
16.99999999904787
 20
-8.0
 30
0.0
 11
982.9999999990478
 21
-8.0
 31
0.0
  0
LINE
  5
6DD3
330
A
100
AcDbEntity
  8
0
  6
Continuous
 62
     7
370
     0
100
AcDbLine
 10
16.99999999904787
 20
-8.0
 30
0.0
 11
16.99999999904787
 21
8.0
 31
0.0
  0
LINE
  5
6DD4
330
A
100
AcDbEntity
  8
0
  6
Continuous
 62
     9
370
     0
100
AcDbLine
 10
16.99999999904787
 20
8.0
 30
0.0
 11
982.9999999990478
 21
8.0
 31
0.0
  0
LINE
  5
6DD5
330
A
100
AcDbEntity
  8
0
  6
Continuous
 62
     7
370
     0
100
AcDbLine
 10
982.9999999990478
 20
-8.0
 30
0.0
 11
982.9999999990478
 21
8.0
 31
0.0
  0
CIRCLE
  5
6DD6
330
A
100
AcDbEntity
  8
0
  6
Continuous
 62
     7
370
     0
100
AcDbCircle
 10
975.4999999990479
 20
0.0
 30
0.0
 40
3.249999999999975
  0
CIRCLE
  5
6DD7
330
A
100
AcDbEntity
  8
0
  6
Continuous
 62
     7
370
     0
100
AcDbCircle
 10
24.49999999904782
 20
0.0
 30
0.0
 40
3.249999999999975
  0
LINE
  5
6DD8
330
A
100
AcDbEntity
  8
0
  6
Continuous
 62
     7
370
     0
100
AcDbLine
 10
16.99999999917475
 20
-10.0
 30
0.0
 11
982.9999999991747
 21
-10.0
 31
0.0
  0
LINE
  5
6DD9
330
A
100
AcDbEntity
  8
0
  6
Continuous
 62
     7
370
     0
100
AcDbLine
 10
16.99999999917475
 20
-10.0
 30
0.0
 11
16.99999999917475
 21
-8.0
 31
0.0
  0
LINE
  5
6DDA
330
A
100
AcDbEntity
  8
0
  6
Continuous
 62
     7
370
     0
100
AcDbLine
 10
982.9999999991747
 20
-10.0
 30
0.0
 11
982.9999999991747
 21
-8.0
 31
0.0
  0
LINE
  5
6DDB
330
A
100
AcDbEntity
  8
0
  6
Continuous
 62
     7
370
     0
100
AcDbLine
 10
16.99999999917475
 20
8.0
 30
0.0
 11
16.99999999917475
 21
10.0
 31
0.0
  0
LINE
  5
6DDC
330
A
100
AcDbEntity
  8
0
  6
Continuous
 62
     7
370
     0
100
AcDbLine
 10
16.99999999917475
 20
10.0
 30
0.0
 11
982.9999999991747
 21
10.0
 31
0.0
  0
LINE
  5
6DDD
330
A
100
AcDbEntity
  8
0
  6
Continuous
 62
     7
370
     0
100
AcDbLine
 10
982.9999999991747
 20
8.0
 30
0.0
 11
982.9999999991747
 21
10.0
 31
0.0
  0
CIRCLE
  5
6DDE
330
A
100
AcDbEntity
  8
0
  6
Continuous
 62
     9
370
     0
100
AcDbCircle
 10
0.0
 20
0.0
 30
0.0
 40
7.000000000000006
  0
LINE
  5
6DDF
330
A
100
AcDbEntity
  8
0
  6
Continuous
 62
     7
370
     0
100
AcDbLine
 10
-58.99999999964496
 20
10.00000003060449
 30
0.0
 11
-5.999999999645012
 21
10.00000003026161
 31
0.0
  0
LINE
  5
6DE0
330
A
100
AcDbEntity
  8
0
  6
Continuous
 62
     7
370
     0
100
AcDbLine
 10
-5.999999999645012
 20
10.00000003026161
 30
0.0
 11
-5.999999999652288
 21
8.865579945977742
 31
0.0
  0
LINE
  5
6DE1
330
A
100
AcDbEntity
  8
0
  6
Continuous
 62
     7
370
     0
100
AcDbLine
 10
-5.99999999965189
 20
8.865579946020716
 30
0.0
 11
-6.606085581594356
 21
8.000000030266164
 31
0.0
  0
LINE
  5
6DE2
330
A
100
AcDbEntity
  8
0
  6
Continuous
 62
     9
370
     0
100
AcDbLine
 10
-6.606085581526428
 20
8.000000030218643
 30
0.0
 11
-58.99999999958947
 21
8.000000030557657
 31
0.0
  0
LINE
  5
6DE3
330
A
100
AcDbEntity
  8
0
  6
Continuous
 62
     7
370
     0
100
AcDbLine
 10
-58.99999999965792
 20
8.000000030557657
 30
0.0
 11
-58.99999999964496
 21
10.00000003060449
 31
0.0
  0
LINE
  5
6DE4
330
A
100
AcDbEntity
  8
0
  6
Continuous
 62
     7
370
     0
100
AcDbLine
 10
-6.606085581526428
 20
8.000000030218643
 30
0.0
 11
-8.191520442494038
 21
5.735764393739373
 31
0.0
  0
ARC
  5
6DE5
330
A
100
AcDbEntity
  8
0
  6
Continuous
 62
     7
370
     0
100
AcDbCircle
 10
0.0000000003587957
 20
0.0000000301761247
 30
0.0
 40
9.999999999999962
100
AcDbArc
 50
144.9999999996285
 51
180.0000001728951
  0
ARC
  5
6DE6
330
A
100
AcDbEntity
  8
0
  6
Continuous
 62
     7
370
     0
100
AcDbCircle
 10
0.0000000003587957
 20
0.0000000301761247
 30
0.0
 40
10.00000000000001
100
AcDbArc
 50
180.0000001728951
 51
214.9999999996324
  0
LINE
  5
6DE7
330
A
100
AcDbEntity
  8
0
  6
Continuous
 62
     7
370
     0
100
AcDbLine
 10
-8.191520442568162
 20
-5.735764333281395
 30
0.0
 11
-6.606085581629827
 21
-7.999999969781356
 31
0.0
  0
LINE
  5
6DE8
330
A
100
AcDbEntity
  8
0
  6
Continuous
 62
     9
370
     0
100
AcDbLine
 10
-58.99999999969293
 20
-7.999999969442342
 30
0.0
 11
-6.606085581629827
 21
-7.999999969781356
 31
0.0
  0
LINE
  5
6DE9
330
A
100
AcDbEntity
  8
0
  6
Continuous
 62
     7
370
     0
100
AcDbLine
 10
-58.99999999969293
 20
-7.999999969442342
 30
0.0
 11
-58.99999999958947
 21
8.000000030557657
 31
0.0
  0
LINE
  5
6DEA
330
A
100
AcDbEntity
  8
0
  6
Continuous
 62
     7
370
     0
100
AcDbLine
 10
-5.999999999766998
 20
-8.865579885538863
 30
0.0
 11
-5.999999999774331
 21
-9.999999969738155
 31
0.0
  0
LINE
  5
6DEB
330
A
100
AcDbEntity
  8
0
  6
Continuous
 62
     7
370
     0
100
AcDbLine
 10
-5.999999999774331
 20
-9.999999969738155
 30
0.0
 11
-58.99999999977433
 21
-9.999999969395503
 31
0.0
  0
LINE
  5
6DEC
330
A
100
AcDbEntity
  8
0
  6
Continuous
 62
     7
370
     0
100
AcDbLine
 10
-6.606085581653701
 20
-7.999999969797954
 30
0.0
 11
-5.99999999972681
 21
-8.86557988555387
 31
0.0
  0
LINE
  5
6DED
330
A
100
AcDbEntity
  8
0
  6
Continuous
 62
     7
370
     0
100
AcDbLine
 10
-58.99999999977433
 20
-9.999999969395503
 30
0.0
 11
-58.99999999976137
 21
-7.999999969442342
 31
0.0
  0
ARC
  5
6DEE
330
A
100
AcDbEntity
  8
0
  6
Continuous
 62
     7
370
     0
100
AcDbCircle
 10
0.0
 20
0.0
 30
0.0
 40
10.00000000000001
100
AcDbArc
 50
126.8698976458466
 51
145.221495519524
  0
ARC
  5
6DEF
330
A
100
AcDbEntity
  8
0
  6
Continuous
 62
     7
370
     0
100
AcDbCircle
 10
0.0
 20
0.0
 30
0.0
 40
9.999999999999975
100
AcDbArc
 50
145.221495519524
 51
180.0
  0
LINE
  5
6DF0
330
A
100
AcDbEntity
  8
0
  6
Continuous
 62
     9
370
     0
100
AcDbLine
 10
0.0
 20
8.0
 30
0.0
 11
-6.0
 21
8.0
 31
0.0
  0
ARC
  5
6DF1
330
A
100
AcDbEntity
  8
0
  6
Continuous
 62
     7
370
     0
100
AcDbCircle
 10
0.0
 20
0.0
 30
0.0
 40
8.000000000000007
100
AcDbArc
 50
90.0
 51
270.0
  0
LINE
  5
6DF2
330
A
100
AcDbEntity
  8
0
  6
Continuous
 62
     9
370
     0
100
AcDbLine
 10
-6.0
 20
-8.0
 30
0.0
 11
0.0
 21
-8.0
 31
0.0
  0
ARC
  5
6DF3
330
A
100
AcDbEntity
  8
0
  6
Continuous
 62
     7
370
     0
100
AcDbCircle
 10
0.0
 20
0.0
 30
0.0
 40
10.00000000000001
100
AcDbArc
 50
180.0
 51
214.9999998591779
  0
ARC
  5
6DF4
330
A
100
AcDbEntity
  8
0
  6
Continuous
 62
     7
370
     0
100
AcDbCircle
 10
0.0
 20
0.0
 30
0.0
 40
10.0000000000001
100
AcDbArc
 50
214.9999998591779
 51
233.1301023541534
  0
LINE
  5
6DF5
330
A
100
AcDbEntity
  8
0
  6
Continuous
 62
     7
370
     0
100
AcDbLine
 10
17.0
 20
-8.0
 30
0.0
 11
17.0
 21
-10.0
 31
0.0
  0
LINE
  5
6DF6
330
A
100
AcDbEntity
  8
0
  6
Continuous
 62
     7
370
     0
100
AcDbLine
 10
17.0
 20
-10.0
 30
0.0
 11
0.0
 21
-10.0
 31
0.0
  0
LINE
  5
6DF7
330
A
100
AcDbEntity
  8
0
  6
Continuous
 62
     9
370
     0
100
AcDbLine
 10
0.0
 20
-8.0
 30
0.0
 11
17.0
 21
-8.0
 31
0.0
  0
ARC
  5
6DF8
330
A
100
AcDbEntity
  8
0
  6
Continuous
 62
     7
370
     0
100
AcDbCircle
 10
0.0000073811186212
 20
0.0000221433558636
 30
0.0
 40
10.00002214335855
100
AcDbArc
 50
233.130144644758
 51
269.9999577094006
  0
LINE
  5
6DF9
330
A
100
AcDbEntity
  8
0
  6
Continuous
 62
     9
370
     0
100
AcDbLine
 10
17.0
 20
8.0
 30
0.0
 11
0.0
 21
8.0
 31
0.0
  0
LINE
  5
6DFA
330
A
100
AcDbEntity
  8
0
  6
Continuous
 62
     7
370
     0
100
AcDbLine
 10
17.0
 20
8.0
 30
0.0
 11
17.0
 21
-8.0
 31
0.0
  0
ARC
  5
6DFB
330
A
100
AcDbEntity
  8
0
  6
Continuous
 62
     7
370
     0
100
AcDbCircle
 10
0.0
 20
0.0
 30
0.0
 40
8.000000000000007
100
AcDbArc
 50
270.0
 51
90.0
  0
LINE
  5
6DFC
330
A
100
AcDbEntity
  8
0
  6
Continuous
 62
     7
370
     0
100
AcDbLine
 10
0.0
 20
10.0
 30
0.0
 11
17.0
 21
10.0
 31
0.0
  0
LINE
  5
6DFD
330
A
100
AcDbEntity
  8
0
  6
Continuous
 62
     7
370
     0
100
AcDbLine
 10
17.0
 20
10.0
 30
0.0
 11
17.0
 21
8.0
 31
0.0
  0
ARC
  5
6DFE
330
A
100
AcDbEntity
  8
0
  6
Continuous
 62
     7
370
     0
100
AcDbCircle
 10
0.0000105891718363
 20
-0.0000317675155657
 30
0.0
 40
10.00003176752111
100
AcDbArc
 50
90.00006067128973
 51
126.8698369745503
  0
ARC
  5
6DFF
330
A
100
AcDbEntity
  8
0
  6
Continuous
 62
     7
370
     0
100
AcDbCircle
 10
24.50000000000006
 20
0.0021731235735842
 30
0.0
 40
3.000000000000002
100
AcDbArc
 50
0.0
 51
180.0
  0
ARC
  5
6E00
330
A
100
AcDbEntity
  8
0
  6
Continuous
 62
     7
370
     0
100
AcDbCircle
 10
70.96635443330194
 20
-214.4934285483905
 30
0.0
 40
4.163658161204977
100
AcDbArc
 50
25.03325736879838
 51
87.40093472060998
  0
ARC
  5
6E01
330
A
100
AcDbEntity
  8
0
  6
Continuous
 62
     7
370
     0
100
AcDbCircle
 10
68.47696533364694
 20
-221.2391734057508
 30
0.0
 40
11.22917541335598
100
AcDbArc
 50
76.20176965464638
 51
120.1571006376887
  0
ARC
  5
6E02
330
A
100
AcDbEntity
  8
0
  6
Continuous
 62
     7
370
     0
100
AcDbCircle
 10
64.24309154135755
 20
-213.3327009305691
 30
0.0
 40
2.287118990537273
100
AcDbArc
 50
127.9766770680593
 51
164.7334879521404
  0
ARC
  5
6E03
330
A
100
AcDbEntity
  8
0
  6
Continuous
 62
     7
370
     0
100
AcDbCircle
 10
786.5134635606315
 20
-68.42823747274883
 30
0.0
 40
4.156341259663801
100
AcDbArc
 50
24.99202552555897
 51
87.3690431831231
  0
ARC
  5
6E04
330
A
100
AcDbEntity
  8
0
  6
Continuous
 62
     7
370
     0
100
AcDbCircle
 10
783.9267380834197
 20
-77.87907157803227
 30
0.0
 40
13.88346456905066
100
AcDbArc
 50
78.45958731991706
 51
101.0531496611202
  0
LINE
  5
6E16
330
A
100
AcDbEntity
  8
0
  6
CENTER
 62
     1
100
AcDbLine
 10
-9.300000000000181
 20
0.0
 30
0.0
 11
9.299999999999727
 21
0.0
 31
0.0
  0
LINE
  5
6E17
330
A
100
AcDbEntity
  8
0
  6
CENTER
 62
     1
100
AcDbLine
 10
0.0
 20
-9.299999999999954
 30
0.0
 11
0.0
 21
9.300000000000181
 31
0.0
  0
LINE
  5
6E18
330
A
100
AcDbEntity
  8
0
  6
CENTER
 62
     1
100
AcDbLine
 10
990.6999999991022
 20
0.0000000054985776
 30
0.0
 11
1009.299999999102
 21
0.0000000054985776
 31
0.0
  0
LINE
  5
6E19
330
A
100
AcDbEntity
  8
0
  6
CENTER
 62
     1
100
AcDbLine
 10
999.9999999991024
 20
-9.299999994501376
 30
0.0
 11
999.9999999991024
 21
9.300000005498759
 31
0.0
  0
LINE
  5
6E1A
330
A
100
AcDbEntity
  8
0
  6
CENTER
 62
     1
100
AcDbLine
 10
-43.79999999982078
 20
0.0000000305219601
 30
0.0
 11
-25.19999999982088
 21
0.0000000305219601
 31
0.0
  0
LINE
  5
6E1B
330
A
100
AcDbEntity
  8
0
  6
CENTER
 62
     1
100
AcDbLine
 10
-34.4999999998206
 20
-9.299999969477994
 30
0.0
 11
-34.4999999998206
 21
9.300000030522141
 31
0.0
  0
LINE
  5
6E1C
330
A
100
AcDbEntity
  8
0
  6
CENTER
 62
     1
100
AcDbLine
 10
-25.29999999983102
 20
0.0000000304094101
 30
0.0
 11
-6.699999999831106
 21
0.0000000304094101
 31
0.0
  0
LINE
  5
6E1D
330
A
100
AcDbEntity
  8
0
  6
CENTER
 62
     1
100
AcDbLine
 10
-15.99999999983083
 20
-9.299999969590544
 30
0.0
 11
-15.99999999983083
 21
9.300000030409592
 31
0.0
  0
LINE
  5
6E1E
330
A
100
AcDbEntity
  8
0
  6
CENTER
 62
     1
100
AcDbLine
 10
15.20000000000004
 20
0.0021731235735842
 30
0.0
 11
33.79999999999995
 21
0.0021731235735842
 31
0.0
  0
LINE
  5
6E1F
330
A
100
AcDbEntity
  8
0
  6
CENTER
 62
     1
100
AcDbLine
 10
24.50000000000023
 20
-9.29782687642637
 30
0.0
 11
24.50000000000023
 21
9.302173123573766
 31
0.0
  0
LINE
  5
6E20
330
A
100
AcDbEntity
  8
0
  6
CENTER
 62
     1
100
AcDbLine
 10
966.1999999990477
 20
0.0
 30
0.0
 11
984.7999999990475
 21
0.0
 31
0.0
  0
LINE
  5
6E21
330
A
100
AcDbEntity
  8
0
  6
CENTER
 62
     1
100
AcDbLine
 10
975.4999999990479
 20
-9.299999999999954
 30
0.0
 11
975.4999999990479
 21
9.300000000000181
 31
0.0
  0
LINE
  5
6E22
330
A
100
AcDbEntity
  8
0
  6
CENTER
 62
     1
100
AcDbLine
 10
1006.699999999424
 20
0.000000003911282
 30
0.0
 11
1025.299999999424
 21
0.000000003911282
 31
0.0
  0
LINE
  5
6E23
330
A
100
AcDbEntity
  8
0
  6
CENTER
 62
     1
100
AcDbLine
 10
1015.999999999424
 20
-9.299999996088672
 30
0.0
 11
1015.999999999424
 21
9.300000003911463
 31
0.0
  0
ENDSEC
  0
SECTION
  2
OBJECTS
  0
DICTIONARY
  5
19
330
0
100
AcDbDictionary
281
     1
  3
ACAD_COLOR
350
3176
  3
ACAD_GROUP
350
1A
  3
ACAD_LAYOUT
350
1E
  3
ACAD_MATERIAL
350
314C
  3
ACAD_MLEADERSTYLE
350
319B
  3
ACAD_MLINESTYLE
350
1B
  3
ACAD_PLOTSETTINGS
350
22
  3
ACAD_PLOTSTYLENAME
350
1F
  3
ACAD_SCALELIST
350
3179
  3
ACAD_TABLESTYLE
350
3177
  3
ACAD_VISUALSTYLE
350
3165
  3
ACAD_WIPEOUT_VARS
350
23
  3
ACDB_RECOMPOSE_DATA
350
630A
  3
AcDbVariableDictionary
350
630B
  3
ASE_INDEX_DICTIONARY
350
5E44
  3
DWGPROPS
350
6E35
  0
DICTIONARY
  5
5E41
330
14
100
AcDbDictionary
280
     1
281
     1
  3
ADSK_XREC_LAYER_RECONCILED
360
5E42
  0
DICTIONARY
  5
31A7
330
A
100
AcDbDictionary
280
     1
281
     1
  3
ACAD_SORTENTS
360
31A8
  0
DICTIONARY
  5
3176
102
{ACAD_REACTORS
330
19
102
}
330
19
100
AcDbDictionary
281
     1
  0
DICTIONARY
  5
1A
102
{ACAD_REACTORS
330
19
102
}
330
19
100
AcDbDictionary
281
     1
  0
DICTIONARY
  5
1E
102
{ACAD_REACTORS
330
19
102
}
330
19
100
AcDbDictionary
281
     1
  3
Layout1
350
21
  3
Model
350
20
  0
DICTIONARY
  5
314C
102
{ACAD_REACTORS
330
19
102
}
330
19
100
AcDbDictionary
281
     1
  3
ByBlock
350
3155
  3
ByLayer
350
314D
  3
Global
350
315D
  0
DICTIONARY
  5
319B
102
{ACAD_REACTORS
330
19
102
}
330
19
100
AcDbDictionary
281
     1
  3
Standard
350
319C
  0
DICTIONARY
  5
1B
102
{ACAD_REACTORS
330
19
102
}
330
19
100
AcDbDictionary
281
     1
  3
Standard
350
1C
  0
DICTIONARY
  5
22
102
{ACAD_REACTORS
330
19
102
}
330
19
100
AcDbDictionary
281
     1
  0
ACDBDICTIONARYWDFLT
  5
1F
102
{ACAD_REACTORS
330
19
102
}
330
19
100
AcDbDictionary
281
     1
  3
Normal
350
1D
100
AcDbDictionaryWithDefault
340
1D
  0
DICTIONARY
  5
3179
102
{ACAD_REACTORS
330
19
102
}
330
19
100
AcDbDictionary
281
     1
  3
A0
350
317A
  3
A1
350
317B
  3
A2
350
317C
  3
A3
350
317D
  3
A4
350
317E
  3
A5
350
317F
  3
A6
350
3180
  3
A7
350
3181
  3
A8
350
3182
  3
A9
350
3183
  3
B0
350
3184
  3
B1
350
3185
  3
B2
350
3186
  3
B3
350
3187
  3
B4
350
3188
  3
B5
350
3189
  3
B6
350
318A
  3
B7
350
318B
  3
B8
350
318C
  3
B9
350
318D
  3
C0
350
318E
  3
C1
350
318F
  3
C2
350
3190
  3
C3
350
3191
  3
C4
350
3192
  3
C5
350
3193
  3
C6
350
3194
  3
C7
350
3195
  3
C8
350
3196
  3
C9
350
3197
  3
D0
350
3198
  3
D1
350
3199
  3
D2
350
319A
  0
DICTIONARY
  5
3177
102
{ACAD_REACTORS
330
19
102
}
330
19
100
AcDbDictionary
281
     1
  3
Standard
350
3178
  0
DICTIONARY
  5
3165
102
{ACAD_REACTORS
330
19
102
}
330
19
100
AcDbDictionary
281
     1
  3
2dWireframe
350
316B
  3
3D Hidden
350
316D
  3
3dWireframe
350
316C
  3
Basic
350
316A
  3
Brighten
350
3171
  3
ColorChange
350
3175
  3
Conceptual
350
316E
  3
Dim
350
3170
  3
Facepattern
350
3174
  3
Flat
350
3166
  3
FlatWithEdges
350
3167
  3
Gouraud
350
3168
  3
GouraudWithEdges
350
3169
  3
Linepattern
350
3173
  3
Realistic
350
316F
  3
Thicken
350
3172
  0
WIPEOUTVARIABLES
  5
23
330
19
100
AcDbWipeoutVariables
 70
     1
  0
XRECORD
  5
630A
102
{ACAD_REACTORS
330
19
102
}
330
19
100
AcDbXrecord
280
     1
 90
        1
330
3178
  0
DICTIONARY
  5
630B
102
{ACAD_REACTORS
330
19
102
}
330
19
100
AcDbDictionary
281
     1
  3
CANNOSCALE
350
630F
  3
CMLEADERSTYLE
350
630D
  3
CTABLESTYLE
350
630C
  3
DIMASSOC
350
6318
  3
INDEXCTL
350
6317
  3
LIGHTINGUNITS
350
6310
  3
MSLTSCALE
350
630E
  3
SORTENTS
350
6316
  0
DICTIONARY
  5
5E44
102
{ACAD_REACTORS
330
19
102
}
330
19
100
AcDbDictionary
281
     1
  3
ASEBlockHierarchyIndexRecord
350
5E46
1001
DCO15
1040
1705040577.843
  0
XRECORD
  5
6E35
102
{ACAD_REACTORS
330
19
102
}
330
19
100
AcDbXrecord
280
     1
  1
DWGPROPS COOKIE
  2

  3

  4

  6

  7

  8
renzo.ceresoli
  9

300
=
301
=
302
=
303
=
304
=
305
=
306
=
307
=
308
=
309
=
 40
0.0072724305555556
 41
2455303.68625
 42
2455537.482570798
  1

 90
        0
  0
XRECORD
  5
5E42
102
{ACAD_REACTORS
330
5E41
102
}
330
5E41
100
AcDbXrecord
280
     1
290
     1
  0
SORTENTSTABLE
  5
31A8
102
{ACAD_REACTORS
330
31A7
102
}
330
31A7
100
AcDbSortentsTable
330
A
331
6C69
  5
6C36
331
6C4A
  5
6C17
331
6C2B
  5
6BF8
331
6C80
  5
6C4D
331
6BD6
  5
6BA3
331
6BB7
  5
6CBB
331
6BF5
  5
6BC2
331
6B81
  5
6CDE
331
6B98
  5
6CF5
331
6C0C
  5
6BD9
331
6CA0
  5
6C6D
331
6C6A
  5
6C37
331
6C4B
  5
6C18
331
6C2C
  5
6BF9
331
6BF6
  5
6BC3
331
6BD7
  5
6BA4
331
6BB8
  5
6CBC
331
6C0D
  5
6BDA
331
6B82
  5
6CDF
331
6B99
  5
6CF6
331
6C81
  5
6C4E
331
6CC0
  5
6C8D
331
6CA1
  5
6C6E
331
6C4C
  5
6C19
331
6C2D
  5
6BFA
331
6C6B
  5
6C38
331
6BF7
  5
6BC4
331
6BD8
  5
6BA5
331
6BB9
  5
6CBD
331
6C0E
  5
6BDB
331
6B83
  5
6CE0
331
6B9A
  5
6CF7
331
6C82
  5
6C4F
331
6CE0
  5
6CA9
331
6CC1
  5
6C8E
331
6CA2
  5
6C6F
331
6C6C
  5
6C39
331
6C4D
  5
6C1A
331
6C2E
  5
6BFB
331
6BF8
  5
6BC5
331
6BD9
  5
6BA6
331
6BBA
  5
6CBE
331
6C0F
  5
6BDC
331
6B84
  5
6CE1
331
6B9B
  5
6CF8
331
6C83
  5
6C50
331
6CE1
  5
6CAA
331
6CC2
  5
6C8F
331
6CA3
  5
6C70
331
6CF8
  5
6B01
331
6C6D
  5
6C3A
331
6C4E
  5
6C1B
331
6C2F
  5
6BFC
331
6BF9
  5
6BC6
331
6BDA
  5
6BA7
331
6BBB
  5
6CBF
331
6C10
  5
6BDD
331
6B85
  5
6CE2
331
6B9C
  5
6CF9
331
6C84
  5
6C51
331
6D18
  5
6B21
331
6CE2
  5
6CAB
331
6CC3
  5
6C90
331
6CA4
  5
6C71
331
6CF9
  5
6B02
331
6C6E
  5
6C3B
331
6C4F
  5
6C1C
331
6C30
  5
6BFD
331
6BFA
  5
6BC7
331
6BDB
  5
6BA8
331
6BBC
  5
6CC0
331
6C11
  5
6BDE
331
6B86
  5
6CE3
331
6B9D
  5
6CFA
331
6C85
  5
6C52
331
6D38
  5
6B42
331
6D19
  5
6B22
331
6CE3
  5
6AEC
331
6CC4
  5
6C91
331
6CA5
  5
6C72
331
6CFA
  5
6B03
331
6C6F
  5
6C3C
331
6C50
  5
6C1D
331
6C31
  5
6BFE
331
6BFB
  5
6BC8
331
6BDC
  5
6BA9
331
6BBD
  5
6CC1
331
6C12
  5
6BDF
331
6B87
  5
6CE4
331
6B9E
  5
6CFB
331
6C86
  5
6C53
331
6D58
  5
6B64
331
6D39
  5
6B43
331
6D1A
  5
6B23
331
6CE4
  5
6AED
331
6CC5
  5
6C92
331
6CA6
  5
6C73
331
6C70
  5
6C3D
331
6C51
  5
6C1E
331
6C32
  5
6BFF
331
6C87
  5
6C54
331
6BFC
  5
6BC9
331
6BBE
  5
6CC2
331
6BDD
  5
6BAA
331
6B88
  5
6CE5
331
6B9F
  5
6CFC
331
6C13
  5
6BE0
331
6CFB
  5
6B04
331
6D59
  5
6B65
331
6D3A
  5
6B44
331
6D1B
  5
6B24
331
6D70
  5
6B7C
331
6CC6
  5
6C93
331
6CA7
  5
6C74
331
6CE5
  5
6AEE
331
6C71
  5
6C3E
331
6C52
  5
6C1F
331
6C33
  5
6C00
331
6C88
  5
6C55
331
6BFD
  5
6BCA
331
6BDE
  5
6BAB
331
6BBF
  5
6CC3
331
6B89
  5
6CE6
331
6BA0
  5
6CFD
331
6C14
  5
6BE1
331
6CFC
  5
6B05
331
6D90
  5
6A7C
331
6D5A
  5
6B66
331
6D3B
  5
6B45
331
6D1C
  5
6B25
331
6CE6
  5
6AEF
331
6CC7
  5
6C94
331
6CA8
  5
6C75
331
6CFD
  5
6B06
331
6C72
  5
6C3F
331
6C34
  5
6C01
331
6C53
  5
6C20
331
6BFE
  5
6BCB
331
6BDF
  5
6BAC
331
6BC0
  5
6B8D
331
6C15
  5
6BE2
331
6B8A
  5
6CE7
331
6BA1
  5
6CFE
331
6C89
  5
6C56
331
6D71
  5
6B7D
331
6DB0
  5
6A9C
331
6D91
  5
6A7D
331
6D3C
  5
6B46
331
6D1D
  5
6B26
331
6D5B
  5
6B67
331
6CE7
  5
6AF0
331
6CC8
  5
6C95
331
6CA9
  5
6C76
331
6CFE
  5
6B07
331
6C73
  5
6C40
331
6C54
  5
6C21
331
6C35
  5
6C02
331
6BFF
  5
6BCC
331
6BE0
  5
6BAD
331
6BC1
  5
6B8E
331
6C16
  5
6BE3
331
6B8B
  5
6CE8
331
6BA2
  5
6CFF
331
6C8A
  5
6C57
331
6D72
  5
6B7E
331
6DD0
  5
6ABC
331
6DB1
  5
6A9D
331
6D92
  5
6A7E
331
6D5C
  5
6B68
331
6D3D
  5
6B47
331
6D1E
  5
6B27
331
6D73
  5
6B7F
331
6CE8
  5
6AF1
331
6CC9
  5
6C96
331
6CAA
  5
6C77
331
6CFF
  5
6B08
331
6C74
  5
6C41
331
6C55
  5
6C22
331
6C36
  5
6C03
331
6C00
  5
6BCD
331
6BE1
  5
6BAE
331
6BC2
  5
6B8F
331
6C17
  5
6BE4
331
6B8C
  5
6CE9
331
6BA3
  5
6D00
331
6C8B
  5
6C58
331
6DB2
  5
6A9E
331
6D93
  5
6A7F
331
6DD1
  5
6ABD
331
6D5D
  5
6B69
331
6D3E
  5
6B48
331
6D1F
  5
6B28
331
6D74
  5
6B80
331
6CE9
  5
6AF2
331
6CCA
  5
6C97
331
6CAB
  5
6C78
331
6D00
  5
6B09
331
6C75
  5
6C42
331
6C56
  5
6C23
331
6C37
  5
6C04
331
6C01
  5
6BCE
331
6BE2
  5
6BAF
331
6BC3
  5
6B90
331
6C18
  5
6BE5
331
6B8D
  5
6CEA
331
6BA4
  5
6D01
331
6C8C
  5
6C59
331
6DE8
  5
6AD4
331
6DD2
  5
6ABE
331
6DB3
  5
6A9F
331
6D94
  5
6A80
331
6DE9
  5
6AD5
331
6D5E
  5
6B6A
331
6D3F
  5
6B49
331
6D20
  5
6B29
331
6D75
  5
6B81
331
6CEA
  5
6AF3
331
6CCB
  5
6C98
331
6CAC
  5
6C79
331
6D01
  5
6B0A
331
6C76
  5
6C43
331
6C57
  5
6C24
331
6C38
  5
6C05
331
6C02
  5
6BCF
331
6BE3
  5
6BB0
331
6BC4
  5
6B91
331
6C19
  5
6BE6
331
6B8E
  5
6CEB
331
6BA5
  5
6D02
331
6C8D
  5
6C5A
331
6DD3
  5
6ABF
331
6DB4
  5
6AA0
331
6D95
  5
6A81
331
6DEA
  5
6AD6
331
6D5F
  5
6B6B
331
6D40
  5
6B4A
331
6D21
  5
6B2A
331
6D76
  5
6B82
331
6CEB
  5
6AF4
331
6CCC
  5
6C99
331
6CAD
  5
6C7A
331
6D02
  5
6B0B
331
6C77
  5
6C44
331
6C58
  5
6C25
331
6C39
  5
6C06
331
6C03
  5
6BD0
331
6BE4
  5
6BB1
331
6BC5
  5
6B92
331
6C1A
  5
6BE7
331
6B8F
  5
6CEC
331
6BA6
  5
6D03
331
6C8E
  5
6C5B
331
6B70
  5
6CC4
331
6DD4
  5
6AC0
331
6DB5
  5
6AA1
331
6D96
  5
6A82
331
6DEB
  5
6AD7
331
6D60
  5
6B6C
331
6D41
  5
6B4B
331
6D22
  5
6B2B
331
6D77
  5
6B83
331
6CEC
  5
6AF5
331
6CAE
  5
6C7B
331
6C78
  5
6C45
331
6C59
  5
6C26
331
6C3A
  5
6C07
331
6C8F
  5
6C5C
331
6C04
  5
6BD1
331
6BC6
  5
6B93
331
6BE5
  5
6BB2
331
6BA7
  5
6D04
331
6C1B
  5
6BE8
331
6D03
  5
6B0C
331
6B71
  5
6CC5
331
6DD5
  5
6AC1
331
6DB6
  5
6AA2
331
6D97
  5
6A83
331
6DEC
  5
6AD8
331
6D61
  5
6B6D
331
6D42
  5
6B4C
331
6D23
  5
6B2C
331
6D78
  5
6B84
331
6CAF
  5
6C7C
331
6CED
  5
6AF6
331
6C79
  5
6C46
331
6C5A
  5
6C27
331
6C3B
  5
6C08
331
6C90
  5
6C5D
331
6C05
  5
6BD2
331
6BE6
  5
6BB3
331
6BC7
  5
6B94
331
6C1C
  5
6BE9
331
6D04
  5
6B0D
331
6BA8
  5
6CAC
331
6B72
  5
6CC6
331
6DD6
  5
6AC2
331
6DB7
  5
6AA3
331
6D98
  5
6A84
331
6DED
  5
6AD9
331
6D62
  5
6B6E
331
6D43
  5
6B4D
331
6D24
  5
6B2D
331
6CEE
  5
6AF7
331
6CB0
  5
6C7D
331
6D05
  5
6B0E
331
6C7A
  5
6C47
331
6C3C
  5
6C09
331
6C5B
  5
6C28
331
6C06
  5
6BD3
331
6BE7
  5
6BB4
331
6C1D
  5
6BEA
331
6C91
  5
6C5E
331
6D79
  5
6B85
331
6BC8
  5
6B95
331
6BA9
  5
6CAD
331
6B73
  5
6CC7
331
6DD7
  5
6AC3
331
6DB8
  5
6AA4
331
6D99
  5
6A85
331
6DEE
  5
6ADA
331
6D44
  5
6B4F
331
6D25
  5
6B2E
331
6D63
  5
6B6F
331
6CEF
  5
6AF8
331
6CB1
  5
6C7E
331
6D06
  5
6B0F
331
6C5C
  5
6C29
331
6C3D
  5
6C0A
331
6C7B
  5
6C48
331
6C07
  5
6BD4
331
6C1E
  5
6BEB
331
6C92
  5
6C5F
331
6D7A
  5
6B86
331
6BE8
  5
6BB5
331
6BC9
  5
6B96
331
6BAA
  5
6CAE
331
6B74
  5
6CC8
331
6DD8
  5
6AC4
331
6DB9
  5
6AA5
331
6D9A
  5
6A86
331
6D64
  5
6B70
331
6D45
  5
6B50
331
6D26
  5
6B2F
331
6D7B
  5
6B87
331
6CF0
  5
6AF9
331
6CB2
  5
6C7F
331
6D07
  5
6B10
331
6C5D
  5
6C2A
331
6C3E
  5
6C0B
331
6C7C
  5
6C49
331
6C1F
  5
6BEC
331
6C93
  5
6C60
331
6DEF
  5
6ADB
331
6BE9
  5
6BB6
331
6BCA
  5
6B97
331
6BAB
  5
6CAF
331
6B75
  5
6CC9
331
6DF0
  5
6ADC
331
6DBA
  5
6AA6
331
6D7C
  5
6B88
331
6D9B
  5
6A87
331
6D65
  5
6B71
331
6D46
  5
6B51
331
6D08
  5
6B11
331
6D27
  5
6B31
331
6CF1
  5
6AFA
331
6CD2
  5
6C9D
331
6C94
  5
6C61
331
6CB3
  5
6C80
331
6C5E
  5
6C2B
331
6C20
  5
6BED
331
6BEA
  5
6BB7
331
6BCB
  5
6B98
331
6BAC
  5
6CB0
331
6B76
  5
6CCA
331
6C3F
  5
6C0C
331
6C7D
  5
6C4A
331
6DD9
  5
6AC5
331
6DF1
  5
6ADD
331
6DDA
  5
6AC6
331
6DBB
  5
6AA7
331
6D7D
  5
6B89
331
6D9C
  5
6A88
331
6D66
  5
6B72
331
6D47
  5
6B52
331
6D09
  5
6B12
331
6D28
  5
6B32
331
6CF2
  5
6AFB
331
6CD3
  5
6C9E
331
6C95
  5
6C62
331
6CB4
  5
6C81
331
6C40
  5
6C0D
331
6C21
  5
6BEE
331
6BEB
  5
6BB8
331
6BCC
  5
6B99
331
6BAD
  5
6CB1
331
6B77
  5
6CCB
331
6C5F
  5
6C2C
331
6C7E
  5
6C4B
331
6DF2
  5
6ADE
331
6DDB
  5
6AC7
331
6DBC
  5
6AA8
331
6D7E
  5
6B8A
331
6D9D
  5
6A89
331
6D67
  5
6B73
331
6D48
  5
6B54
331
6D0A
  5
6B13
331
6D29
  5
6B33
331
6CF3
  5
6AFC
331
6CD4
  5
6C9F
331
6C96
  5
6C63
331
6C60
  5
6C2D
331
6C41
  5
6C0E
331
6C22
  5
6BEF
331
6BEC
  5
6BB9
331
6BCD
  5
6B9A
331
6BAE
  5
6CB2
331
6C7F
  5
6C4C
331
6CB5
  5
6C82
331
6DF3
  5
6ADF
331
6DDC
  5
6AC8
331
6DBD
  5
6AA9
331
6D7F
  5
6B8B
331
6D9E
  5
6A8A
331
6D68
  5
6B74
331
6D49
  5
6B55
331
6D0B
  5
6B14
331
6D2A
  5
6B34
331
6CF4
  5
6AFD
331
6CD5
  5
6CA0
331
6C97
  5
6C64
331
6C61
  5
6C2E
331
6C42
  5
6C0F
331
6C23
  5
6BF0
331
6BCE
  5
6B9B
331
6BAF
  5
6CB3
331
6BED
  5
6BBA
331
6CB6
  5
6C83
331
6DF4
  5
6AE0
331
6DDD
  5
6AC9
331
6DBE
  5
6AAA
331
6D80
  5
6B8C
331
6D9F
  5
6A8B
331
6D69
  5
6B75
331
6D4A
  5
6B56
331
6D0C
  5
6B15
331
6CF5
  5
6AFE
331
6CD6
  5
6CA2
331
6C98
  5
6C65
331
6C62
  5
6C2F
331
6C43
  5
6C10
331
6BEE
  5
6BBB
331
6BCF
  5
6B9C
331
6C24
  5
6BF1
331
6CB7
  5
6C84
331
6D2B
  5
6B35
331
6DF5
  5
6AE1
331
6DDE
  5
6ACA
331
6DBF
  5
6AAB
331
6D81
  5
6A6D
331
6DA0
  5
6A8C
331
6D6A
  5
6B76
331
6D4B
  5
6B57
331
6D0D
  5
6B16
331
6CF6
  5
6AFF
331
6CB8
  5
6C85
331
6C99
  5
6C66
331
6C44
  5
6C11
331
6C25
  5
6BF2
331
6BEF
  5
6BBC
331
6C63
  5
6C30
331
6CD7
  5
6CA3
331
6D2C
  5
6B36
331
6DF6
  5
6AE2
331
6DDF
  5
6ACB
331
6DC0
  5
6AAC
331
6D82
  5
6A6E
331
6D6B
  5
6B77
331
6D4C
  5
6B58
331
6D0E
  5
6B17
331
6D2D
  5
6B37
331
6CB9
  5
6C86
331
6C64
  5
6C31
331
6C45
  5
6C12
331
6C26
  5
6BF3
331
6C9A
  5
6C67
331
6CF7
  5
6B00
331
6DA1
  5
6A8D
331
6DF7
  5
6AE3
331
6DE0
  5
6ACC
331
6DC1
  5
6AAD
331
6D83
  5
6A6F
331
6D6C
  5
6B78
331
6D4D
  5
6B59
331
6D0F
  5
6B18
331
6CBA
  5
6C87
331
6C65
  5
6C32
331
6C46
  5
6C13
331
6C27
  5
6BF4
331
6C9B
  5
6C68
331
6D2E
  5
6B38
331
6DA2
  5
6A8E
331
6DE1
  5
6ACD
331
6DC2
  5
6AAE
331
6DA3
  5
6A8F
331
6D6D
  5
6B79
331
6D4E
  5
6B5A
331
6D10
  5
6B19
331
6CBB
  5
6C88
331
6C66
  5
6C33
331
6C47
  5
6C14
331
6C9C
  5
6C69
331
6D2F
  5
6B39
331
6D84
  5
6A70
331
6DF8
  5
6AE4
331
6DE2
  5
6ACE
331
6DC3
  5
6AAF
331
6DA4
  5
6A90
331
6DF9
  5
6AE5
331
6D6E
  5
6B7A
331
6D30
  5
6B3A
331
6D11
  5
6B1A
331
6CBC
  5
6C89
331
6C67
  5
6C34
331
6C9D
  5
6C6A
331
6D4F
  5
6B5B
331
6D85
  5
6A71
331
6DE3
  5
6ACF
331
6DC4
  5
6AB0
331
6DA5
  5
6A91
331
6DFA
  5
6AE6
331
6D50
  5
6B5C
331
6D31
  5
6B3B
331
6D12
  5
6B1B
331
6CBD
  5
6C8A
331
6C9E
  5
6C6B
331
6D6F
  5
6B7B
331
6D86
  5
6A72
331
6DE4
  5
6AD0
331
6DC5
  5
6AB1
331
6DA6
  5
6A92
331
6DFB
  5
6AE7
331
6D51
  5
6B5D
331
6D32
  5
6B3C
331
6CBE
  5
6C8B
331
6C9F
  5
6C6C
331
6D13
  5
6B1C
331
6D87
  5
6A73
331
6DE5
  5
6AD1
331
6DC6
  5
6AB2
331
6D88
  5
6A74
331
6D52
  5
6B5E
331
6D33
  5
6B3D
331
6CDE
  5
6CA7
331
6CBF
  5
6C8C
331
6D14
  5
6B1D
331
6DA7
  5
6A93
331
6DFC
  5
6AE8
331
6DE6
  5
6AD2
331
6DA8
  5
6A94
331
6D89
  5
6A75
331
6D34
  5
6B3E
331
6D15
  5
6B1E
331
6CDF
  5
6CA8
331
6D53
  5
6B5F
331
6DC7
  5
6AB3
331
6DFD
  5
6AE9
331
6DC8
  5
6AB4
331
6DA9
  5
6A95
331
6D54
  5
6B60
331
6D35
  5
6B3F
331
6D16
  5
6B1F
331
6D8A
  5
6A76
331
6DE7
  5
6AD3
331
6DFE
  5
6AEA
331
6DAA
  5
6A96
331
6D8B
  5
6A77
331
6D55
  5
6B61
331
6D36
  5
6B40
331
6D17
  5
6B20
331
6DC9
  5
6AB5
331
6DFF
  5
6AEB
331
6DCA
  5
6AB6
331
6DAB
  5
6A97
331
6D8C
  5
6A78
331
6D56
  5
6B62
331
6D37
  5
6B41
331
6E00
  5
6CA4
331
6E01
  5
6CA5
331
6DCB
  5
6AB7
331
6DAC
  5
6A98
331
6D8D
  5
6A79
331
6D57
  5
6B63
331
6E02
  5
6CA6
331
6DCC
  5
6AB8
331
6DAD
  5
6A99
331
6D8E
  5
6A7A
331
6E03
  5
6C9B
331
6DCD
  5
6AB9
331
6DAE
  5
6A9A
331
6D8F
  5
6A7B
331
6E04
  5
6C9C
331
6DCE
  5
6ABA
331
6DAF
  5
6A9B
331
6DCF
  5
6ABB
331
6B78
  5
6CCC
331
6B79
  5
6CCD
331
6B90
  5
6CED
331
6BB0
  5
6CB4
331
6B7A
  5
6CD2
331
6B91
  5
6CEE
331
6BD0
  5
6B9D
331
6BB1
  5
6CB5
331
6B7B
  5
6CD3
331
6B92
  5
6CEF
331
6BF0
  5
6BBD
331
6BD1
  5
6B9E
331
6BB2
  5
6CB6
331
6B7C
  5
6CD4
331
6B93
  5
6CF0
331
6BF1
  5
6BBE
331
6BD2
  5
6B9F
331
6BB3
  5
6CB7
331
6C08
  5
6BD5
331
6B7D
  5
6CD5
331
6B94
  5
6CF1
331
6C28
  5
6BF5
331
6BF2
  5
6BBF
331
6BD3
  5
6BA0
331
6BB4
  5
6CB8
331
6C09
  5
6BD6
331
6B7E
  5
6CD6
331
6248
  5
6248
331
6B95
  5
6CF2
331
6C48
  5
6C15
331
6C29
  5
6BF6
331
6BF3
  5
6BC0
331
6BD4
  5
6BA1
331
6BB5
  5
6CB9
331
6C0A
  5
6BD7
331
6B7F
  5
6CD7
331
6B96
  5
6CF3
331
6C68
  5
6C35
331
6C49
  5
6C16
331
6C2A
  5
6BF7
331
6BF4
  5
6BC1
331
6BD5
  5
6BA2
331
6BB6
  5
6CBA
331
6B80
  5
6CD8
331
6B97
  5
6CF4
331
6C0B
  5
6BD8
  0
LAYOUT
  5
21
102
{ACAD_XDICTIONARY
360
6E38
102
}
102
{ACAD_REACTORS
330
1E
102
}
330
1E
100
AcDbPlotSettings
  1

  2

  4

  6

 40
0.0
 41
0.0
 42
0.0
 43
0.0
 44
0.0
 45
0.0
 46
0.0
 47
0.0
 48
0.0
 49
0.0
140
0.0
141
0.0
142
1.0
143
1.0
 70
     0
 72
     0
 73
     0
 74
     0
  7

 75
     0
147
1.0
148
0.0
149
0.0
100
AcDbLayout
  1
Layout1
 70
     0
 71
     1
 10
0.0
 20
0.0
 11
12.0
 21
9.0
 12
0.0
 22
0.0
 32
0.0
 14
1.000000000000000E+20
 24
1.000000000000000E+20
 34
1.000000000000000E+20
 15
-1.000000000000000E+20
 25
-1.000000000000000E+20
 35
-1.000000000000000E+20
146
0.0
 13
0.0
 23
0.0
 33
0.0
 16
1.0
 26
0.0
 36
0.0
 17
0.0
 27
1.0
 37
0.0
 76
     0
330
B
  0
LAYOUT
  5
20
102
{ACAD_XDICTIONARY
360
6E36
102
}
102
{ACAD_REACTORS
330
1E
102
}
330
1E
100
AcDbPlotSettings
  1

  2

  4

  6

 40
0.0
 41
0.0
 42
0.0
 43
0.0
 44
0.0
 45
0.0
 46
0.0
 47
0.0
 48
0.0
 49
0.0
140
0.0
141
0.0
142
1.0
143
1.0
 70
  1024
 72
     0
 73
     0
 74
     0
  7

 75
     0
147
1.0
148
0.0
149
0.0
100
AcDbLayout
  1
Model
 70
     0
 71
     0
 10
0.0
 20
0.0
 11
0.0
 21
0.0
 12
0.0
 22
0.0
 32
0.0
 14
0.0
 24
0.0
 34
0.0
 15
0.0
 25
0.0
 35
0.0
146
0.0
 13
0.0
 23
0.0
 33
0.0
 16
0.0
 26
0.0
 36
0.0
 17
0.0
 27
0.0
 37
0.0
 76
     0
330
A
331
15
  0
MATERIAL
  5
3155
102
{ACAD_XDICTIONARY
360
3156
102
}
102
{ACAD_REACTORS
330
314C
102
}
330
314C
100
AcDbMaterial
  1
ByBlock
 72
     0
 43
0.0208333333333333
 43
0.0
 43
0.0
 43
0.0
 43
0.0
 43
0.0208333333333333
 43
0.0
 43
0.0
 43
0.0
 43
0.0
 43
1.0
 43
0.0
 43
0.0
 43
0.0
 43
0.0
 43
1.0
 77
     0
 47
0.0208333333333333
 47
0.0
 47
0.0
 47
0.0
 47
0.0
 47
0.0208333333333333
 47
0.0
 47
0.0
 47
0.0
 47
0.0
 47
1.0
 47
0.0
 47
0.0
 47
0.0
 47
0.0
 47
1.0
171
     0
 49
0.0208333333333333
 49
0.0
 49
0.0
 49
0.0
 49
0.0
 49
0.0208333333333333
 49
0.0
 49
0.0
 49
0.0
 49
0.0
 49
1.0
 49
0.0
 49
0.0
 49
0.0
 49
0.0
 49
1.0
175
     0
142
0.0208333333333333
142
0.0
142
0.0
142
0.0
142
0.0
142
0.0208333333333333
142
0.0
142
0.0
142
0.0
142
0.0
142
1.0
142
0.0
142
0.0
142
0.0
142
0.0
142
1.0
179
     0
144
0.0208333333333333
144
0.0
144
0.0
144
0.0
144
0.0
144
0.0208333333333333
144
0.0
144
0.0
144
0.0
144
0.0
144
1.0
144
0.0
144
0.0
144
0.0
144
0.0
144
1.0
147
0.0208333333333333
147
0.0
147
0.0
147
0.0
147
0.0
147
0.0208333333333333
147
0.0
147
0.0
147
0.0
147
0.0
147
1.0
147
0.0
147
0.0
147
0.0
147
0.0
147
1.0
  0
MATERIAL
  5
314D
102
{ACAD_XDICTIONARY
360
314E
102
}
102
{ACAD_REACTORS
330
314C
102
}
330
314C
100
AcDbMaterial
  1
ByLayer
 72
     0
 43
0.0208333333333333
 43
0.0
 43
0.0
 43
0.0
 43
0.0
 43
0.0208333333333333
 43
0.0
 43
0.0
 43
0.0
 43
0.0
 43
1.0
 43
0.0
 43
0.0
 43
0.0
 43
0.0
 43
1.0
 77
     0
 47
0.0208333333333333
 47
0.0
 47
0.0
 47
0.0
 47
0.0
 47
0.0208333333333333
 47
0.0
 47
0.0
 47
0.0
 47
0.0
 47
1.0
 47
0.0
 47
0.0
 47
0.0
 47
0.0
 47
1.0
171
     0
 49
0.0208333333333333
 49
0.0
 49
0.0
 49
0.0
 49
0.0
 49
0.0208333333333333
 49
0.0
 49
0.0
 49
0.0
 49
0.0
 49
1.0
 49
0.0
 49
0.0
 49
0.0
 49
0.0
 49
1.0
175
     0
142
0.0208333333333333
142
0.0
142
0.0
142
0.0
142
0.0
142
0.0208333333333333
142
0.0
142
0.0
142
0.0
142
0.0
142
1.0
142
0.0
142
0.0
142
0.0
142
0.0
142
1.0
179
     0
144
0.0208333333333333
144
0.0
144
0.0
144
0.0
144
0.0
144
0.0208333333333333
144
0.0
144
0.0
144
0.0
144
0.0
144
1.0
144
0.0
144
0.0
144
0.0
144
0.0
144
1.0
147
0.0208333333333333
147
0.0
147
0.0
147
0.0
147
0.0
147
0.0208333333333333
147
0.0
147
0.0
147
0.0
147
0.0
147
1.0
147
0.0
147
0.0
147
0.0
147
0.0
147
1.0
  0
MATERIAL
  5
315D
102
{ACAD_XDICTIONARY
360
315E
102
}
102
{ACAD_REACTORS
330
314C
102
}
330
314C
100
AcDbMaterial
  1
Global
 72
     0
 43
0.0208333333333333
 43
0.0
 43
0.0
 43
0.0
 43
0.0
 43
0.0208333333333333
 43
0.0
 43
0.0
 43
0.0
 43
0.0
 43
1.0
 43
0.0
 43
0.0
 43
0.0
 43
0.0
 43
1.0
 77
     0
 47
0.0208333333333333
 47
0.0
 47
0.0
 47
0.0
 47
0.0
 47
0.0208333333333333
 47
0.0
 47
0.0
 47
0.0
 47
0.0
 47
1.0
 47
0.0
 47
0.0
 47
0.0
 47
0.0
 47
1.0
171
     0
 49
0.0208333333333333
 49
0.0
 49
0.0
 49
0.0
 49
0.0
 49
0.0208333333333333
 49
0.0
 49
0.0
 49
0.0
 49
0.0
 49
1.0
 49
0.0
 49
0.0
 49
0.0
 49
0.0
 49
1.0
175
     0
142
0.0208333333333333
142
0.0
142
0.0
142
0.0
142
0.0
142
0.0208333333333333
142
0.0
142
0.0
142
0.0
142
0.0
142
1.0
142
0.0
142
0.0
142
0.0
142
0.0
142
1.0
179
     0
144
0.0208333333333333
144
0.0
144
0.0
144
0.0
144
0.0
144
0.0208333333333333
144
0.0
144
0.0
144
0.0
144
0.0
144
1.0
144
0.0
144
0.0
144
0.0
144
0.0
144
1.0
147
0.0208333333333333
147
0.0
147
0.0
147
0.0
147
0.0
147
0.0208333333333333
147
0.0
147
0.0
147
0.0
147
0.0
147
1.0
147
0.0
147
0.0
147
0.0
147
0.0
147
1.0
  0
MLEADERSTYLE
  5
319C
102
{ACAD_REACTORS
330
319B
102
}
330
319B
100
AcDbMLeaderStyle
170
     2
171
     1
172
     0
 90
        2
 40
0.0
 41
0.0
173
     1
 91
-1056964608
340
11
 92
       -2
290
     1
 42
2.0
291
     1
 43
0.36
  3
Standard
 44
4.0
300

342
17
174
     1
178
     6
175
     1
176
     0
 93
-1056964608
 45
4.0
292
     0
297
     0
 46
4.0
 94
-1056964608
 47
1.0
 49
1.0
140
1.0
293
     1
141
0.0
294
     1
177
     0
142
1.0
295
     0
296
     0
143
0.125
1001
ACAD_MLEADERVER
1070
     2
  0
MLINESTYLE
  5
1C
102
{ACAD_REACTORS
330
1B
102
}
330
1B
100
AcDbMlineStyle
  2
STANDARD
 70
     0
  3

 62
     0
 51
90.0
 52
90.0
 71
     2
 49
0.5
 62
   256
  6
BYLAYER
 49
-0.5
 62
   256
  6
BYLAYER
  0
ACDBPLACEHOLDER
  5
1D
102
{ACAD_REACTORS
330
1F
102
}
330
1F
  0
SCALE
  5
317A
102
{ACAD_REACTORS
330
3179
102
}
330
3179
100
AcDbScale
 70
     0
300
1:1
140
1.0
141
1.0
290
     1
  0
SCALE
  5
317B
102
{ACAD_REACTORS
330
3179
102
}
330
3179
100
AcDbScale
 70
     0
300
1:2
140
1.0
141
2.0
290
     0
  0
SCALE
  5
317C
102
{ACAD_REACTORS
330
3179
102
}
330
3179
100
AcDbScale
 70
     0
300
1:4
140
1.0
141
4.0
290
     0
  0
SCALE
  5
317D
102
{ACAD_REACTORS
330
3179
102
}
330
3179
100
AcDbScale
 70
     0
300
1:5
140
1.0
141
5.0
290
     0
  0
SCALE
  5
317E
102
{ACAD_REACTORS
330
3179
102
}
330
3179
100
AcDbScale
 70
     0
300
1:8
140
1.0
141
8.0
290
     0
  0
SCALE
  5
317F
102
{ACAD_REACTORS
330
3179
102
}
330
3179
100
AcDbScale
 70
     0
300
1:10
140
1.0
141
10.0
290
     0
  0
SCALE
  5
3180
102
{ACAD_REACTORS
330
3179
102
}
330
3179
100
AcDbScale
 70
     0
300
1:16
140
1.0
141
16.0
290
     0
  0
SCALE
  5
3181
102
{ACAD_REACTORS
330
3179
102
}
330
3179
100
AcDbScale
 70
     0
300
1:20
140
1.0
141
20.0
290
     0
  0
SCALE
  5
3182
102
{ACAD_REACTORS
330
3179
102
}
330
3179
100
AcDbScale
 70
     0
300
1:30
140
1.0
141
30.0
290
     0
  0
SCALE
  5
3183
102
{ACAD_REACTORS
330
3179
102
}
330
3179
100
AcDbScale
 70
     0
300
1:40
140
1.0
141
40.0
290
     0
  0
SCALE
  5
3184
102
{ACAD_REACTORS
330
3179
102
}
330
3179
100
AcDbScale
 70
     0
300
1:50
140
1.0
141
50.0
290
     0
  0
SCALE
  5
3185
102
{ACAD_REACTORS
330
3179
102
}
330
3179
100
AcDbScale
 70
     0
300
1:100
140
1.0
141
100.0
290
     0
  0
SCALE
  5
3186
102
{ACAD_REACTORS
330
3179
102
}
330
3179
100
AcDbScale
 70
     0
300
2:1
140
2.0
141
1.0
290
     0
  0
SCALE
  5
3187
102
{ACAD_REACTORS
330
3179
102
}
330
3179
100
AcDbScale
 70
     0
300
4:1
140
4.0
141
1.0
290
     0
  0
SCALE
  5
3188
102
{ACAD_REACTORS
330
3179
102
}
330
3179
100
AcDbScale
 70
     0
300
8:1
140
8.0
141
1.0
290
     0
  0
SCALE
  5
3189
102
{ACAD_REACTORS
330
3179
102
}
330
3179
100
AcDbScale
 70
     0
300
10:1
140
10.0
141
1.0
290
     0
  0
SCALE
  5
318A
102
{ACAD_REACTORS
330
3179
102
}
330
3179
100
AcDbScale
 70
     0
300
100:1
140
100.0
141
1.0
290
     0
  0
SCALE
  5
318B
102
{ACAD_REACTORS
330
3179
102
}
330
3179
100
AcDbScale
 70
     0
300
1/128" = 1'-0"
140
0.0078125
141
12.0
290
     0
  0
SCALE
  5
318C
102
{ACAD_REACTORS
330
3179
102
}
330
3179
100
AcDbScale
 70
     0
300
1/64" = 1'-0"
140
0.015625
141
12.0
290
     0
  0
SCALE
  5
318D
102
{ACAD_REACTORS
330
3179
102
}
330
3179
100
AcDbScale
 70
     0
300
1/32" = 1'-0"
140
0.03125
141
12.0
290
     0
  0
SCALE
  5
318E
102
{ACAD_REACTORS
330
3179
102
}
330
3179
100
AcDbScale
 70
     0
300
1/16" = 1'-0"
140
0.0625
141
12.0
290
     0
  0
SCALE
  5
318F
102
{ACAD_REACTORS
330
3179
102
}
330
3179
100
AcDbScale
 70
     0
300
3/32" = 1'-0"
140
0.09375
141
12.0
290
     0
  0
SCALE
  5
3190
102
{ACAD_REACTORS
330
3179
102
}
330
3179
100
AcDbScale
 70
     0
300
1/8" = 1'-0"
140
0.125
141
12.0
290
     0
  0
SCALE
  5
3191
102
{ACAD_REACTORS
330
3179
102
}
330
3179
100
AcDbScale
 70
     0
300
3/16" = 1'-0"
140
0.1875
141
12.0
290
     0
  0
SCALE
  5
3192
102
{ACAD_REACTORS
330
3179
102
}
330
3179
100
AcDbScale
 70
     0
300
1/4" = 1'-0"
140
0.25
141
12.0
290
     0
  0
SCALE
  5
3193
102
{ACAD_REACTORS
330
3179
102
}
330
3179
100
AcDbScale
 70
     0
300
3/8" = 1'-0"
140
0.375
141
12.0
290
     0
  0
SCALE
  5
3194
102
{ACAD_REACTORS
330
3179
102
}
330
3179
100
AcDbScale
 70
     0
300
1/2" = 1'-0"
140
0.5
141
12.0
290
     0
  0
SCALE
  5
3195
102
{ACAD_REACTORS
330
3179
102
}
330
3179
100
AcDbScale
 70
     0
300
3/4" = 1'-0"
140
0.75
141
12.0
290
     0
  0
SCALE
  5
3196
102
{ACAD_REACTORS
330
3179
102
}
330
3179
100
AcDbScale
 70
     0
300
1" = 1'-0"
140
1.0
141
12.0
290
     0
  0
SCALE
  5
3197
102
{ACAD_REACTORS
330
3179
102
}
330
3179
100
AcDbScale
 70
     0
300
1-1/2" = 1'-0"
140
1.5
141
12.0
290
     0
  0
SCALE
  5
3198
102
{ACAD_REACTORS
330
3179
102
}
330
3179
100
AcDbScale
 70
     0
300
3" = 1'-0"
140
3.0
141
12.0
290
     0
  0
SCALE
  5
3199
102
{ACAD_REACTORS
330
3179
102
}
330
3179
100
AcDbScale
 70
     0
300
6" = 1'-0"
140
6.0
141
12.0
290
     0
  0
SCALE
  5
319A
102
{ACAD_REACTORS
330
3179
102
}
330
3179
100
AcDbScale
 70
     0
300
1'-0" = 1'-0"
140
12.0
141
12.0
290
     0
  0
TABLESTYLE
  5
3178
102
{ACAD_XDICTIONARY
360
6308
102
}
102
{ACAD_REACTORS
330
3177
102
}
330
3177
100
AcDbTableStyle
  3
Standard
 70
     0
 71
     0
 40
1.5
 41
1.5
280
     0
281
     0
  7
Standard
140
4.5
170
     2
 62
     0
 63
     7
283
     0
274
    -2
284
     1
 64
     0
275
    -2
285
     1
 65
     0
276
    -2
286
     1
 66
     0
277
    -2
287
     1
 67
     0
278
    -2
288
     1
 68
     0
279
    -2
289
     1
 69
     0
  7
Standard
140
6.0
170
     5
 62
     0
 63
     7
283
     0
274
    -2
284
     1
 64
     0
275
    -2
285
     1
 65
     0
276
    -2
286
     1
 66
     0
277
    -2
287
     1
 67
     0
278
    -2
288
     1
 68
     0
279
    -2
289
     1
 69
     0
  7
Standard
140
4.5
170
     5
 62
     0
 63
     7
283
     0
274
    -2
284
     1
 64
     0
275
    -2
285
     1
 65
     0
276
    -2
286
     1
 66
     0
277
    -2
287
     1
 67
     0
278
    -2
288
     1
 68
     0
279
    -2
289
     1
 69
     0
  0
VISUALSTYLE
  5
316B
102
{ACAD_REACTORS
330
3165
102
}
330
3165
100
AcDbVisualStyle
  2
2dWireframe
 70
     4
 71
     0
 72
     2
 73
     0
 90
        0
 40
-0.6
 41
-30.0
 62
     5
 63
     7
 74
     1
 91
        4
 64
     7
 65
   257
 75
     1
175
     1
 42
1.0
 92
        0
 66
   257
 43
1.0
 76
     1
 77
     6
 78
     2
 67
     7
 79
     5
170
     0
171
     0
290
     0
174
     0
 93
        1
 44
0.0
173
     0
291
     0
 45
0.0
1001
ACAD
1000
AcDbSavedByObjectVersion
1070
     0
  0
VISUALSTYLE
  5
316D
102
{ACAD_REACTORS
330
3165
102
}
330
3165
100
AcDbVisualStyle
  2
3D Hidden
 70
     6
 71
     1
 72
     2
 73
     2
 90
        0
 40
-0.6
 41
-30.0
 62
     5
 63
     7
 74
     2
 91
        2
 64
     7
 65
   257
 75
     2
175
     1
 42
40.0
 92
        0
 66
   257
 43
1.0
 76
     1
 77
     6
 78
     2
 67
     7
 79
     3
170
     0
171
     0
290
     0
174
     0
 93
        1
 44
0.0
173
     0
291
     0
 45
0.0
1001
ACAD
1000
AcDbSavedByObjectVersion
1070
     0
  0
VISUALSTYLE
  5
316C
102
{ACAD_REACTORS
330
3165
102
}
330
3165
100
AcDbVisualStyle
  2
3dWireframe
 70
     5
 71
     0
 72
     2
 73
     0
 90
        0
 40
-0.6
 41
-30.0
 62
     5
 63
     7
 74
     1
 91
        4
 64
     7
 65
   257
 75
     1
175
     1
 42
1.0
 92
        0
 66
   257
 43
1.0
 76
     1
 77
     6
 78
     2
 67
     7
 79
     5
170
     0
171
     0
290
     0
174
     0
 93
        1
 44
0.0
173
     0
291
     0
 45
0.0
1001
ACAD
1000
AcDbSavedByObjectVersion
1070
     0
  0
VISUALSTYLE
  5
316A
102
{ACAD_REACTORS
330
3165
102
}
330
3165
100
AcDbVisualStyle
  2
Basic
 70
     7
 71
     1
 72
     0
 73
     1
 90
        0
 40
-0.6
 41
-30.0
 62
     5
 63
     7
 74
     0
 91
        4
 64
     7
 65
   257
 75
     1
175
     1
 42
1.0
 92
        8
 66
     7
 43
1.0
 76
     1
 77
     6
 78
     2
 67
     7
 79
     5
170
     0
171
     0
290
     0
174
     0
 93
        1
 44
0.0
173
     0
291
     1
 45
0.0
1001
ACAD
1000
AcDbSavedByObjectVersion
1070
     0
  0
VISUALSTYLE
  5
3171
102
{ACAD_REACTORS
330
3165
102
}
330
3165
100
AcDbVisualStyle
  2
Brighten
 70
    12
 71
     2
 72
     2
 73
     0
 90
        0
 40
-0.6
 41
-30.0
 62
     5
 63
     7
 74
     1
 91
        4
 64
     7
 65
   257
 75
     1
175
     1
 42
1.0
 92
        8
 66
     7
 43
1.0
 76
     1
 77
     6
 78
     2
 67
     7
 79
     5
170
     0
171
     0
290
     0
174
     0
 93
        1
 44
50.0
173
     0
291
     1
 45
0.0
1001
ACAD
1000
AcDbSavedByObjectVersion
1070
     0
  0
VISUALSTYLE
  5
3175
102
{ACAD_REACTORS
330
3165
102
}
330
3165
100
AcDbVisualStyle
  2
ColorChange
 70
    16
 71
     2
 72
     2
 73
     3
 90
        0
 40
-0.6
 41
-30.0
 62
     5
 63
     8
 74
     1
 91
        4
 64
     7
 65
   257
 75
     1
175
     1
 42
1.0
 92
        8
 66
     8
 43
1.0
 76
     1
 77
     6
 78
     2
 67
     7
 79
     5
170
     0
171
     0
290
     0
174
     0
 93
        1
 44
0.0
173
     0
291
     1
 45
0.0
1001
ACAD
1000
AcDbSavedByObjectVersion
1070
     0
  0
VISUALSTYLE
  5
316E
102
{ACAD_REACTORS
330
3165
102
}
330
3165
100
AcDbVisualStyle
  2
Conceptual
 70
     9
 71
     3
 72
     2
 73
     0
 90
        0
 40
-0.6
 41
-30.0
 62
     5
 63
     7
 74
     2
 91
        2
 64
     7
 65
   257
 75
     1
175
     1
 42
40.0
 92
        8
 66
     7
 43
1.0
 76
     1
 77
     6
 78
     2
 67
     7
 79
     3
170
     0
171
     0
290
     0
174
     0
 93
        1
 44
0.0
173
     0
291
     0
 45
0.0
1001
ACAD
1000
AcDbSavedByObjectVersion
1070
     0
  0
VISUALSTYLE
  5
3170
102
{ACAD_REACTORS
330
3165
102
}
330
3165
100
AcDbVisualStyle
  2
Dim
 70
    11
 71
     2
 72
     2
 73
     0
 90
        0
 40
-0.6
 41
-30.0
 62
     5
 63
     7
 74
     1
 91
        4
 64
     7
 65
   257
 75
     1
175
     1
 42
1.0
 92
        8
 66
     7
 43
1.0
 76
     1
 77
     6
 78
     2
 67
     7
 79
     5
170
     0
171
     0
290
     0
174
     0
 93
        1
 44
-50.0
173
     0
291
     1
 45
0.0
1001
ACAD
1000
AcDbSavedByObjectVersion
1070
     0
  0
VISUALSTYLE
  5
3174
102
{ACAD_REACTORS
330
3165
102
}
330
3165
100
AcDbVisualStyle
  2
Facepattern
 70
    15
 71
     2
 72
     2
 73
     0
 90
        0
 40
-0.6
 41
-30.0
 62
     5
 63
     7
 74
     1
 91
        4
 64
     7
 65
   257
 75
     1
175
     1
 42
1.0
 92
        8
 66
     7
 43
1.0
 76
     1
 77
     6
 78
     2
 67
     7
 79
     5
170
     0
171
     0
290
     0
174
     0
 93
        1
 44
0.0
173
     0
291
     1
 45
0.0
1001
ACAD
1000
AcDbSavedByObjectVersion
1070
     0
  0
VISUALSTYLE
  5
3166
102
{ACAD_REACTORS
330
3165
102
}
330
3165
100
AcDbVisualStyle
  2
Flat
 70
     0
 71
     2
 72
     1
 73
     1
 90
        2
 40
-0.6
 41
30.0
 62
     5
 63
     7
 74
     0
 91
        4
 64
     7
 65
   257
 75
     1
175
     1
 42
1.0
 92
        8
 66
     7
 43
1.0
 76
     1
 77
     6
 78
     2
 67
     7
 79
     5
170
     0
171
     0
290
     0
174
     0
 93
       13
 44
0.0
173
     0
291
     1
 45
0.0
1001
ACAD
1000
AcDbSavedByObjectVersion
1070
     0
  0
VISUALSTYLE
  5
3167
102
{ACAD_REACTORS
330
3165
102
}
330
3165
100
AcDbVisualStyle
  2
FlatWithEdges
 70
     1
 71
     2
 72
     1
 73
     1
 90
        2
 40
-0.6
 41
30.0
 62
     5
 63
     7
 74
     1
 91
        4
 64
     7
 65
   257
 75
     1
175
     1
 42
1.0
 92
        0
 66
   257
 43
1.0
 76
     1
 77
     6
 78
     2
 67
     7
 79
     5
170
     0
171
     0
290
     0
174
     0
 93
       13
 44
0.0
173
     0
291
     1
 45
0.0
1001
ACAD
1000
AcDbSavedByObjectVersion
1070
     0
  0
VISUALSTYLE
  5
3168
102
{ACAD_REACTORS
330
3165
102
}
330
3165
100
AcDbVisualStyle
  2
Gouraud
 70
     2
 71
     2
 72
     2
 73
     1
 90
        2
 40
-0.6
 41
30.0
 62
     5
 63
     7
 74
     0
 91
        4
 64
     7
 65
   257
 75
     1
175
     1
 42
1.0
 92
        0
 66
     7
 43
1.0
 76
     1
 77
     6
 78
     2
 67
     7
 79
     5
170
     0
171
     0
290
     0
174
     0
 93
       13
 44
0.0
173
     0
291
     1
 45
0.0
1001
ACAD
1000
AcDbSavedByObjectVersion
1070
     0
  0
VISUALSTYLE
  5
3169
102
{ACAD_REACTORS
330
3165
102
}
330
3165
100
AcDbVisualStyle
  2
GouraudWithEdges
 70
     3
 71
     2
 72
     2
 73
     1
 90
        2
 40
-0.6
 41
30.0
 62
     5
 63
     7
 74
     1
 91
        4
 64
     7
 65
   257
 75
     1
175
     1
 42
1.0
 92
        0
 66
   257
 43
1.0
 76
     1
 77
     6
 78
     2
 67
     7
 79
     5
170
     0
171
     0
290
     0
174
     0
 93
       13
 44
0.0
173
     0
291
     1
 45
0.0
1001
ACAD
1000
AcDbSavedByObjectVersion
1070
     0
  0
VISUALSTYLE
  5
3173
102
{ACAD_REACTORS
330
3165
102
}
330
3165
100
AcDbVisualStyle
  2
Linepattern
 70
    14
 71
     2
 72
     2
 73
     0
 90
        0
 40
-0.6
 41
-30.0
 62
     5
 63
     7
 74
     1
 91
        4
 64
     7
 65
   257
 75
     7
175
     7
 42
1.0
 92
        8
 66
     7
 43
1.0
 76
     1
 77
     6
 78
     2
 67
     7
 79
     5
170
     0
171
     0
290
     0
174
     0
 93
        1
 44
0.0
173
     0
291
     1
 45
0.0
1001
ACAD
1000
AcDbSavedByObjectVersion
1070
     0
  0
VISUALSTYLE
  5
316F
102
{ACAD_REACTORS
330
3165
102
}
330
3165
100
AcDbVisualStyle
  2
Realistic
 70
     8
 71
     2
 72
     2
 73
     0
 90
        0
 40
-0.6
 41
-30.0
 62
     5
 63
     7
 74
     1
 91
        0
 64
     7
 65
   257
 75
     1
175
     1
 42
1.0
 92
        8
 66
     8
 43
1.0
 76
     1
 77
     6
 78
     2
 67
     7
 79
     5
170
     0
171
     0
290
     0
174
     0
 93
       13
 44
0.0
173
     0
291
     0
 45
0.0
1001
ACAD
1000
AcDbSavedByObjectVersion
1070
     0
  0
VISUALSTYLE
  5
3172
102
{ACAD_REACTORS
330
3165
102
}
330
3165
100
AcDbVisualStyle
  2
Thicken
 70
    13
 71
     2
 72
     2
 73
     0
 90
        0
 40
-0.6
 41
-30.0
 62
     5
 63
     7
 74
     1
 91
        4
 64
     7
 65
   257
 75
     1
175
     1
 42
1.0
 92
       12
 66
     7
 43
1.0
 76
     1
 77
     6
 78
     2
 67
     7
 79
     5
170
     0
171
     0
290
     0
174
     0
 93
        1
 44
0.0
173
     0
291
     1
 45
0.0
1001
ACAD
1000
AcDbSavedByObjectVersion
1070
     0
  0
DICTIONARYVAR
  5
630F
102
{ACAD_REACTORS
330
630B
102
}
330
630B
100
DictionaryVariables
280
     0
  1
1:1
  0
DICTIONARYVAR
  5
630D
102
{ACAD_REACTORS
330
630B
102
}
330
630B
100
DictionaryVariables
280
     0
  1
STANDARD
  0
DICTIONARYVAR
  5
630C
102
{ACAD_REACTORS
330
630B
102
}
330
630B
100
DictionaryVariables
280
     0
  1
STANDARD
  0
DICTIONARYVAR
  5
6318
102
{ACAD_REACTORS
330
630B
102
}
330
630B
100
DictionaryVariables
280
     0
  1
1
  0
DICTIONARYVAR
  5
6317
102
{ACAD_REACTORS
330
630B
102
}
330
630B
100
DictionaryVariables
280
     0
  1
0
  0
DICTIONARYVAR
  5
6310
102
{ACAD_REACTORS
330
630B
102
}
330
630B
100
DictionaryVariables
280
     0
  1
0
  0
DICTIONARYVAR
  5
630E
102
{ACAD_REACTORS
330
630B
102
}
330
630B
100
DictionaryVariables
280
     0
  1
0
  0
DICTIONARYVAR
  5
6316
102
{ACAD_REACTORS
330
630B
102
}
330
630B
100
DictionaryVariables
280
     0
  1
127
  0
XRECORD
  5
5E46
102
{ACAD_REACTORS
330
5E44
102
}
330
5E44
100
AcDbXrecord
280
     1
  0
DICTIONARY
  5
6E38
330
21
100
AcDbDictionary
280
     1
281
     1
  3
ACAD_XREC_ROUNDTRIP
360
6E39
  0
DICTIONARY
  5
6E36
330
20
100
AcDbDictionary
280
     1
281
     1
  3
ACAD_XREC_ROUNDTRIP
360
6E37
  0
DICTIONARY
  5
3156
330
3155
100
AcDbDictionary
280
     1
281
     1
  3
ACAD_XREC_ROUNDTRIP
360
6320
  3
BUMPTILE
360
3158
  3
DIFFUSETILE
360
3157
  3
OPACITYTILE
360
315B
  3
REFLECTIONTILE
360
315A
  3
REFRACTIONTILE
360
315C
  3
SPECULARTILE
360
3159
  0
DICTIONARY
  5
314E
330
314D
100
AcDbDictionary
280
     1
281
     1
  3
ACAD_XREC_ROUNDTRIP
360
631F
  3
BUMPTILE
360
3150
  3
DIFFUSETILE
360
314F
  3
OPACITYTILE
360
3153
  3
REFLECTIONTILE
360
3152
  3
REFRACTIONTILE
360
3154
  3
SPECULARTILE
360
3151
  0
DICTIONARY
  5
315E
330
315D
100
AcDbDictionary
280
     1
281
     1
  3
ACAD_XREC_ROUNDTRIP
360
6321
  3
BUMPTILE
360
3160
  3
DIFFUSETILE
360
315F
  3
OPACITYTILE
360
3163
  3
REFLECTIONTILE
360
3162
  3
REFRACTIONTILE
360
3164
  3
SPECULARTILE
360
3161
  0
DICTIONARY
  5
6308
330
3178
100
AcDbDictionary
280
     1
281
     1
  3
ACAD_ROUNDTRIP_2008_TABLESTYLE_CELLSTYLEMAP
360
6E34
  3
ACAD_XREC_ROUNDTRIP
360
6E3A
  0
XRECORD
  5
6E39
102
{ACAD_REACTORS
330
6E38
102
}
330
6E38
100
AcDbXrecord
280
     1
102
SHADEPLOT
 70
     0
102
SHADEPLOTRESLEVEL
 70
     2
102
SHADEPLOTCUSTOMDPI
 70
   300
  0
XRECORD
  5
6E37
102
{ACAD_REACTORS
330
6E36
102
}
330
6E36
100
AcDbXrecord
280
     1
102
SHADEPLOT
 70
     0
102
SHADEPLOTRESLEVEL
 70
     2
102
SHADEPLOTCUSTOMDPI
 70
   300
  0
XRECORD
  5
6320
102
{ACAD_REACTORS
330
3156
102
}
330
3156
100
AcDbXrecord
280
     1
102
MATERIAL
148
0.0
149
0.0
149
0.0
 93
        0
 94
      127
282
     0
 72
     0
 77
     0
171
     0
175
     0
179
     0
273
     0
  0
XRECORD
  5
3158
102
{ACAD_REACTORS
330
3156
102
}
330
3156
100
AcDbXrecord
280
     1
270
     1
271
     1
  0
XRECORD
  5
3157
102
{ACAD_REACTORS
330
3156
102
}
330
3156
100
AcDbXrecord
280
     1
270
     1
271
     1
  0
XRECORD
  5
315B
102
{ACAD_REACTORS
330
3156
102
}
330
3156
100
AcDbXrecord
280
     1
270
     1
271
     1
  0
XRECORD
  5
315A
102
{ACAD_REACTORS
330
3156
102
}
330
3156
100
AcDbXrecord
280
     1
270
     1
271
     1
  0
XRECORD
  5
315C
102
{ACAD_REACTORS
330
3156
102
}
330
3156
100
AcDbXrecord
280
     1
270
     1
271
     1
  0
XRECORD
  5
3159
102
{ACAD_REACTORS
330
3156
102
}
330
3156
100
AcDbXrecord
280
     1
270
     1
271
     1
  0
XRECORD
  5
631F
102
{ACAD_REACTORS
330
314E
102
}
330
314E
100
AcDbXrecord
280
     1
102
MATERIAL
148
0.0
149
0.0
149
0.0
 93
        0
 94
      127
282
     0
 72
     0
 77
     0
171
     0
175
     0
179
     0
273
     0
  0
XRECORD
  5
3150
102
{ACAD_REACTORS
330
314E
102
}
330
314E
100
AcDbXrecord
280
     1
270
     1
271
     1
  0
XRECORD
  5
314F
102
{ACAD_REACTORS
330
314E
102
}
330
314E
100
AcDbXrecord
280
     1
270
     1
271
     1
  0
XRECORD
  5
3153
102
{ACAD_REACTORS
330
314E
102
}
330
314E
100
AcDbXrecord
280
     1
270
     1
271
     1
  0
XRECORD
  5
3152
102
{ACAD_REACTORS
330
314E
102
}
330
314E
100
AcDbXrecord
280
     1
270
     1
271
     1
  0
XRECORD
  5
3154
102
{ACAD_REACTORS
330
314E
102
}
330
314E
100
AcDbXrecord
280
     1
270
     1
271
     1
  0
XRECORD
  5
3151
102
{ACAD_REACTORS
330
314E
102
}
330
314E
100
AcDbXrecord
280
     1
270
     1
271
     1
  0
XRECORD
  5
6321
102
{ACAD_REACTORS
330
315E
102
}
330
315E
100
AcDbXrecord
280
     1
102
MATERIAL
148
0.0
149
0.0
149
0.0
 93
        0
 94
      127
282
     0
 72
     0
 77
     0
171
     0
175
     0
179
     0
273
     0
  0
XRECORD
  5
3160
102
{ACAD_REACTORS
330
315E
102
}
330
315E
100
AcDbXrecord
280
     1
270
     1
271
     1
  0
XRECORD
  5
315F
102
{ACAD_REACTORS
330
315E
102
}
330
315E
100
AcDbXrecord
280
     1
270
     1
271
     1
  0
XRECORD
  5
3163
102
{ACAD_REACTORS
330
315E
102
}
330
315E
100
AcDbXrecord
280
     1
270
     1
271
     1
  0
XRECORD
  5
3162
102
{ACAD_REACTORS
330
315E
102
}
330
315E
100
AcDbXrecord
280
     1
270
     1
271
     1
  0
XRECORD
  5
3164
102
{ACAD_REACTORS
330
315E
102
}
330
315E
100
AcDbXrecord
280
     1
270
     1
271
     1
  0
XRECORD
  5
3161
102
{ACAD_REACTORS
330
315E
102
}
330
315E
100
AcDbXrecord
280
     1
270
     1
271
     1
  0
CELLSTYLEMAP
  5
6E34
102
{ACAD_REACTORS
330
6308
102
}
330
6308
100
AcDbCellStyleMap
 90
        3
300
CELLSTYLE
  1
TABLEFORMAT_BEGIN
 90
        5
170
     1
 91
        0
 92
    32768
 62
   257
 93
        1
300
CONTENTFORMAT
  1
CONTENTFORMAT_BEGIN
 90
        0
 91
        0
 92
      512
 93
        0
300

 40
0.0
140
1.0
 94
        5
 62
     0
340
17
144
6.0
309
CONTENTFORMAT_END
171
     1
301
MARGIN
  1
CELLMARGIN_BEGIN
 40
1.5
 40
1.5
 40
1.5
 40
1.5
 40
0.18
 40
0.18
309
CELLMARGIN_END
 94
        6
 95
        1
302
GRIDFORMAT
  1
GRIDFORMAT_BEGIN
 90
        0
 91
        1
 62
     0
 92
       -2
340
0
 93
        0
 40
1.125
309
GRIDFORMAT_END
 95
        2
302
GRIDFORMAT
  1
GRIDFORMAT_BEGIN
 90
        0
 91
        1
 62
     0
 92
       -2
340
0
 93
        0
 40
1.125
309
GRIDFORMAT_END
 95
        4
302
GRIDFORMAT
  1
GRIDFORMAT_BEGIN
 90
        0
 91
        1
 62
     0
 92
       -2
340
0
 93
        0
 40
1.125
309
GRIDFORMAT_END
 95
        8
302
GRIDFORMAT
  1
GRIDFORMAT_BEGIN
 90
        0
 91
        1
 62
     0
 92
       -2
340
0
 93
        0
 40
1.125
309
GRIDFORMAT_END
 95
       16
302
GRIDFORMAT
  1
GRIDFORMAT_BEGIN
 90
        0
 91
        1
 62
     0
 92
       -2
340
0
 93
        0
 40
1.125
309
GRIDFORMAT_END
 95
       32
302
GRIDFORMAT
  1
GRIDFORMAT_BEGIN
 90
        0
 91
        1
 62
     0
 92
       -2
340
0
 93
        0
 40
1.125
309
GRIDFORMAT_END
309
TABLEFORMAT_END
  1
CELLSTYLE_BEGIN
 90
        1
 91
        1
300
_TITLE
309
CELLSTYLE_END
300
CELLSTYLE
  1
TABLEFORMAT_BEGIN
 90
        5
170
     1
 91
        0
 92
        0
 62
   257
 93
        1
300
CONTENTFORMAT
  1
CONTENTFORMAT_BEGIN
 90
        0
 91
        0
 92
      512
 93
        0
300

 40
0.0
140
1.0
 94
        5
 62
     0
340
17
144
4.5
309
CONTENTFORMAT_END
171
     1
301
MARGIN
  1
CELLMARGIN_BEGIN
 40
1.5
 40
1.5
 40
1.5
 40
1.5
 40
0.18
 40
0.18
309
CELLMARGIN_END
 94
        6
 95
        1
302
GRIDFORMAT
  1
GRIDFORMAT_BEGIN
 90
        0
 91
        1
 62
     0
 92
       -2
340
0
 93
        0
 40
1.125
309
GRIDFORMAT_END
 95
        2
302
GRIDFORMAT
  1
GRIDFORMAT_BEGIN
 90
        0
 91
        1
 62
     0
 92
       -2
340
0
 93
        0
 40
1.125
309
GRIDFORMAT_END
 95
        4
302
GRIDFORMAT
  1
GRIDFORMAT_BEGIN
 90
        0
 91
        1
 62
     0
 92
       -2
340
0
 93
        0
 40
1.125
309
GRIDFORMAT_END
 95
        8
302
GRIDFORMAT
  1
GRIDFORMAT_BEGIN
 90
        0
 91
        1
 62
     0
 92
       -2
340
0
 93
        0
 40
1.125
309
GRIDFORMAT_END
 95
       16
302
GRIDFORMAT
  1
GRIDFORMAT_BEGIN
 90
        0
 91
        1
 62
     0
 92
       -2
340
0
 93
        0
 40
1.125
309
GRIDFORMAT_END
 95
       32
302
GRIDFORMAT
  1
GRIDFORMAT_BEGIN
 90
        0
 91
        1
 62
     0
 92
       -2
340
0
 93
        0
 40
1.125
309
GRIDFORMAT_END
309
TABLEFORMAT_END
  1
CELLSTYLE_BEGIN
 90
        2
 91
        1
300
_HEADER
309
CELLSTYLE_END
300
CELLSTYLE
  1
TABLEFORMAT_BEGIN
 90
        5
170
     1
 91
        0
 92
        0
 62
   257
 93
        1
300
CONTENTFORMAT
  1
CONTENTFORMAT_BEGIN
 90
        0
 91
        0
 92
      512
 93
        0
300

 40
0.0
140
1.0
 94
        2
 62
     0
340
17
144
4.5
309
CONTENTFORMAT_END
171
     1
301
MARGIN
  1
CELLMARGIN_BEGIN
 40
1.5
 40
1.5
 40
1.5
 40
1.5
 40
0.18
 40
0.18
309
CELLMARGIN_END
 94
        6
 95
        1
302
GRIDFORMAT
  1
GRIDFORMAT_BEGIN
 90
        0
 91
        1
 62
     0
 92
       -2
340
0
 93
        0
 40
1.125
309
GRIDFORMAT_END
 95
        2
302
GRIDFORMAT
  1
GRIDFORMAT_BEGIN
 90
        0
 91
        1
 62
     0
 92
       -2
340
0
 93
        0
 40
1.125
309
GRIDFORMAT_END
 95
        4
302
GRIDFORMAT
  1
GRIDFORMAT_BEGIN
 90
        0
 91
        1
 62
     0
 92
       -2
340
0
 93
        0
 40
1.125
309
GRIDFORMAT_END
 95
        8
302
GRIDFORMAT
  1
GRIDFORMAT_BEGIN
 90
        0
 91
        1
 62
     0
 92
       -2
340
0
 93
        0
 40
1.125
309
GRIDFORMAT_END
 95
       16
302
GRIDFORMAT
  1
GRIDFORMAT_BEGIN
 90
        0
 91
        1
 62
     0
 92
       -2
340
0
 93
        0
 40
1.125
309
GRIDFORMAT_END
 95
       32
302
GRIDFORMAT
  1
GRIDFORMAT_BEGIN
 90
        0
 91
        1
 62
     0
 92
       -2
340
0
 93
        0
 40
1.125
309
GRIDFORMAT_END
309
TABLEFORMAT_END
  1
CELLSTYLE_BEGIN
 90
        3
 91
        2
300
_DATA
309
CELLSTYLE_END
  0
XRECORD
  5
6E3A
102
{ACAD_REACTORS
330
6308
102
}
330
6308
100
AcDbXrecord
280
     1
102
ACAD_ROUNDTRIP_PRE2007_TABLESTYLE
 90
      512
 91
        0
  1

 92
      512
 93
        0
  2

 94
      512
 95
        0
  3

  0
ENDSEC
  0
EOF
