  0
SECTION
  2
HEADER
  9
$ACADVER
  1
AC1015
  9
$ACADMAINTVER
 70
     6
  9
$DWGCODEPAGE
  3
ANSI_1252
  9
$INSBASE
 10
0.0
 20
0.0
 30
0.0
  9
$EXTMIN
 10
-127.6497333486313
 20
-132.4064025480256
 30
-0.0000000000000082
  9
$EXTMAX
 10
114.1855743979531
 20
105.9098028727576
 30
0.0000000000000071
  9
$LIMMIN
 10
-66.34999999999982
 20
-2008.85
  9
$LIMMAX
 10
3734.350000000001
 20
346.85
  9
$ORTHOMODE
 70
     1
  9
$REGENMODE
 70
     1
  9
$FILLMODE
 70
     1
  9
$QTEXTMODE
 70
     0
  9
$MIRRTEXT
 70
     1
  9
$LTSCALE
 40
10.0
  9
$ATTMODE
 70
     1
  9
$TEXTSIZE
 40
0.2
  9
$TRACEWID
 40
0.05
  9
$TEXTSTYLE
  7
STANDARD
  9
$CLAYER
  8
0
  9
$CELTYPE
  6
CONTINUOUS
  9
$CECOLOR
 62
   256
  9
$CELTSCALE
 40
1.0
  9
$DISPSILH
 70
     0
  9
$DIMSCALE
 40
1.0
  9
$DIMASZ
 40
1.25
  9
$DIMEXO
 40
0.0
  9
$DIMDLI
 40
0.38
  9
$DIMRND
 40
0.0
  9
$DIMDLE
 40
0.0
  9
$DIMEXE
 40
0.75
  9
$DIMTP
 40
0.0
  9
$DIMTM
 40
0.0
  9
$DIMTXT
 40
2.5
  9
$DIMCEN
 40
0.09
  9
$DIMTSZ
 40
0.0
  9
$DIMTOL
 70
     0
  9
$DIMLIM
 70
     0
  9
$DIMTIH
 70
     0
  9
$DIMTOH
 70
     0
  9
$DIMSE1
 70
     0
  9
$DIMSE2
 70
     0
  9
$DIMTAD
 70
     1
  9
$DIMZIN
 70
     0
  9
$DIMBLK
  1

  9
$DIMASO
 70
     1
  9
$DIMSHO
 70
     1
  9
$DIMPOST
  1

  9
$DIMAPOST
  1

  9
$DIMALT
 70
     0
  9
$DIMALTD
 70
     2
  9
$DIMALTF
 40
25.4
  9
$DIMLFAC
 40
1.0
  9
$DIMTOFL
 70
     0
  9
$DIMTVP
 40
0.0
  9
$DIMTIX
 70
     0
  9
$DIMSOXD
 70
     0
  9
$DIMSAH
 70
     0
  9
$DIMBLK1
  1

  9
$DIMBLK2
  1

  9
$DIMSTYLE
  2
STANDARD
  9
$DIMCLRD
 70
     7
  9
$DIMCLRE
 70
     7
  9
$DIMCLRT
 70
     7
  9
$DIMTFAC
 40
0.8
  9
$DIMGAP
 40
1.25
  9
$DIMJUST
 70
     0
  9
$DIMSD1
 70
     0
  9
$DIMSD2
 70
     0
  9
$DIMTOLJ
 70
     1
  9
$DIMTZIN
 70
     0
  9
$DIMALTZ
 70
     0
  9
$DIMALTTZ
 70
     0
  9
$DIMUPT
 70
     0
  9
$DIMDEC
 70
     2
  9
$DIMTDEC
 70
     4
  9
$DIMALTU
 70
     2
  9
$DIMALTTD
 70
     2
  9
$DIMTXSTY
  7
STANDARD
  9
$DIMAUNIT
 70
     0
  9
$DIMADEC
 70
     0
  9
$DIMALTRND
 40
0.0
  9
$DIMAZIN
 70
     0
  9
$DIMDSEP
 70
    46
  9
$DIMATFIT
 70
     3
  9
$DIMFRAC
 70
     0
  9
$DIMLDRBLK
  1

  9
$DIMLUNIT
 70
     2
  9
$DIMLWD
 70
    -2
  9
$DIMLWE
 70
    -2
  9
$DIMTMOVE
 70
     0
  9
$LUNITS
 70
     2
  9
$LUPREC
 70
     4
  9
$SKETCHINC
 40
0.1
  9
$FILLETRAD
 40
0.0
  9
$AUNITS
 70
     0
  9
$AUPREC
 70
     0
  9
$MENU
  1
acad
  9
$ELEVATION
 40
0.0
  9
$PELEVATION
 40
0.0
  9
$THICKNESS
 40
0.0
  9
$LIMCHECK
 70
     0
  9
$CHAMFERA
 40
0.0
  9
$CHAMFERB
 40
0.0
  9
$CHAMFERC
 40
0.0
  9
$CHAMFERD
 40
0.0
  9
$SKPOLY
 70
     0
  9
$TDCREATE
 40
2455303.727916655
  9
$TDUCREATE
 40
2455303.644583322
  9
$TDUPDATE
 40
2455306.421153229
  9
$TDUUPDATE
 40
2455306.337819896
  9
$TDINDWG
 40
0.0026100116
  9
$TDUSRTIMER
 40
2455826.506291158
  9
$USRTIMER
 70
     1
  9
$ANGBASE
 50
0.0
  9
$ANGDIR
 70
     0
  9
$PDMODE
 70
     0
  9
$PDSIZE
 40
0.0
  9
$PLINEWID
 40
0.0
  9
$SPLFRAME
 70
     0
  9
$SPLINETYPE
 70
     6
  9
$SPLINESEGS
 70
     8
  9
$HANDSEED
  5
6611
  9
$SURFTAB1
 70
     6
  9
$SURFTAB2
 70
     6
  9
$SURFTYPE
 70
     6
  9
$SURFU
 70
     6
  9
$SURFV
 70
     6
  9
$UCSBASE
  2

  9
$UCSNAME
  2

  9
$UCSORG
 10
0.0
 20
0.0
 30
0.0
  9
$UCSXDIR
 10
1.0
 20
0.0
 30
0.0
  9
$UCSYDIR
 10
0.0
 20
1.0
 30
0.0
  9
$UCSORTHOREF
  2

  9
$UCSORTHOVIEW
 70
     0
  9
$UCSORGTOP
 10
0.0
 20
0.0
 30
0.0
  9
$UCSORGBOTTOM
 10
0.0
 20
0.0
 30
0.0
  9
$UCSORGLEFT
 10
0.0
 20
0.0
 30
0.0
  9
$UCSORGRIGHT
 10
0.0
 20
0.0
 30
0.0
  9
$UCSORGFRONT
 10
0.0
 20
0.0
 30
0.0
  9
$UCSORGBACK
 10
0.0
 20
0.0
 30
0.0
  9
$PUCSBASE
  2

  9
$PUCSNAME
  2

  9
$PUCSORG
 10
0.0
 20
0.0
 30
0.0
  9
$PUCSXDIR
 10
1.0
 20
0.0
 30
0.0
  9
$PUCSYDIR
 10
0.0
 20
1.0
 30
0.0
  9
$PUCSORTHOREF
  2

  9
$PUCSORTHOVIEW
 70
     0
  9
$PUCSORGTOP
 10
0.0
 20
0.0
 30
0.0
  9
$PUCSORGBOTTOM
 10
0.0
 20
0.0
 30
0.0
  9
$PUCSORGLEFT
 10
0.0
 20
0.0
 30
0.0
  9
$PUCSORGRIGHT
 10
0.0
 20
0.0
 30
0.0
  9
$PUCSORGFRONT
 10
0.0
 20
0.0
 30
0.0
  9
$PUCSORGBACK
 10
0.0
 20
0.0
 30
0.0
  9
$USERI1
 70
     0
  9
$USERI2
 70
     0
  9
$USERI3
 70
     0
  9
$USERI4
 70
     0
  9
$USERI5
 70
     0
  9
$USERR1
 40
0.0
  9
$USERR2
 40
0.0
  9
$USERR3
 40
0.0
  9
$USERR4
 40
0.0
  9
$USERR5
 40
0.0
  9
$WORLDVIEW
 70
     1
  9
$SHADEDGE
 70
     3
  9
$SHADEDIF
 70
    70
  9
$TILEMODE
 70
     1
  9
$MAXACTVP
 70
    16
  9
$PINSBASE
 10
0.0
 20
0.0
 30
0.0
  9
$PLIMCHECK
 70
     0
  9
$PEXTMIN
 10
1.000000000000000E+20
 20
1.000000000000000E+20
 30
1.000000000000000E+20
  9
$PEXTMAX
 10
-1.000000000000000E+20
 20
-1.000000000000000E+20
 30
-1.000000000000000E+20
  9
$PLIMMIN
 10
0.0
 20
0.0
  9
$PLIMMAX
 10
12.0
 20
9.0
  9
$UNITMODE
 70
     0
  9
$VISRETAIN
 70
     0
  9
$PLINEGEN
 70
     1
  9
$PSLTSCALE
 70
     0
  9
$TREEDEPTH
 70
  3020
  9
$CMLSTYLE
  2
STANDARD
  9
$CMLJUST
 70
     0
  9
$CMLSCALE
 40
1.0
  9
$PROXYGRAPHICS
 70
     0
  9
$MEASUREMENT
 70
     1
  9
$CELWEIGHT
370
    -1
  9
$ENDCAPS
280
     0
  9
$JOINSTYLE
280
     0
  9
$LWDISPLAY
290
     0
  9
$INSUNITS
 70
     0
  9
$HYPERLINKBASE
  1

  9
$STYLESHEET
  1

  9
$XEDIT
290
     1
  9
$CEPSNTYPE
380
     0
  9
$PSTYLEMODE
290
     1
  9
$FINGERPRINTGUID
  2
{AAAA7F79-7AD8-4CDA-B726-323DE0B6BCCB}
  9
$VERSIONGUID
  2
{FAEB1C32-E019-11D5-929B-00C0DF256EC4}
  9
$EXTNAMES
290
     1
  9
$PSVPSCALE
 40
0.0
  9
$OLESTARTUP
290
     0
  0
ENDSEC
  0
SECTION
  2
CLASSES
  0
CLASS
  1
IMAGE
  2
AcDbRasterImage
  3
ISM
 90
      127
280
     0
281
     1
  0
CLASS
  1
DICTIONARYVAR
  2
AcDbDictionaryVar
  3
ObjectDBX Classes
 90
        0
280
     0
281
     0
  0
CLASS
  1
RASTERVARIABLES
  2
AcDbRasterVariables
  3
ISM
 90
        0
280
     0
281
     0
  0
CLASS
  1
IMAGEDEF
  2
AcDbRasterImageDef
  3
ISM
 90
        0
280
     0
281
     0
  0
CLASS
  1
IMAGEDEF_REACTOR
  2
AcDbRasterImageDefReactor
  3
ISM
 90
        1
280
     0
281
     0
  0
CLASS
  1
IDBUFFER
  2
AcDbIdBuffer
  3
ObjectDBX Classes
 90
        0
280
     0
281
     0
  0
CLASS
  1
SPATIAL_FILTER
  2
AcDbSpatialFilter
  3
ObjectDBX Classes
 90
        0
280
     0
281
     0
  0
CLASS
  1
SORTENTSTABLE
  2
AcDbSortentsTable
  3
ObjectDBX Classes
 90
        0
280
     0
281
     0
  0
CLASS
  1
LAYER_INDEX
  2
AcDbLayerIndex
  3
ObjectDBX Classes
 90
        0
280
     0
281
     0
  0
CLASS
  1
SPATIAL_INDEX
  2
AcDbSpatialIndex
  3
AutoCAD 2000
 90
        0
280
     0
281
     0
  0
CLASS
  1
OBJECT_PTR
  2
CAseDLPNTableRecord
  3
ASE-LPNTableRecord
 90
        1
280
     0
281
     0
  0
CLASS
  1
LAYOUT
  2
AcDbLayout
  3
ObjectDBX Classes
 90
        0
280
     0
281
     0
  0
CLASS
  1
PLOTSETTINGS
  2
AcDbPlotSettings
  3
ObjectDBX Classes
 90
        0
280
     0
281
     0
  0
CLASS
  1
ACDBDICTIONARYWDFLT
  2
AcDbDictionaryWithDefault
  3
ObjectDBX Classes
 90
        0
280
     0
281
     0
  0
CLASS
  1
ACDBPLACEHOLDER
  2
AcDbPlaceHolder
  3
ObjectDBX Classes
 90
        0
280
     0
281
     0
  0
CLASS
  1
VBA_PROJECT
  2
AcDbVbaProject
  3
ObjectDBX Classes
 90
        0
280
     0
281
     0
  0
CLASS
  1
WIPEOUT
  2
AcDbWipeout
  3
WipeOut|AutoCAD Express Tool|expresstools@autodesk.com
 90
      127
280
     0
281
     1
  0
CLASS
  1
WIPEOUTVARIABLES
  2
AcDbWipeoutVariables
  3
WipeOut|AutoCAD Express Tool|expresstools@autodesk.com
 90
        0
280
     0
281
     0
  0
CLASS
  1
RTEXT
  2
RText
  3
RText|AutoCAD Express Tool|expresstools@autodesk.com
 90
        0
280
     0
281
     1
  0
CLASS
  1
ARCALIGNEDTEXT
  2
AcDbArcAlignedText
  3
ATEXT|AutoCAD Express Tool|expresstools@autodesk.com
 90
        0
280
     0
281
     1
  0
CLASS
  1
MATERIAL
  2
AcDbMaterial
  3
ObjectDBX Classes
 90
     1153
280
     0
281
     0
  0
CLASS
  1
VISUALSTYLE
  2
AcDbVisualStyle
  3
ObjectDBX Classes
 90
     4095
280
     0
281
     0
  0
CLASS
  1
TABLESTYLE
  2
AcDbTableStyle
  3
ObjectDBX Classes
 90
     4095
280
     0
281
     0
  0
CLASS
  1
SCALE
  2
AcDbScale
  3
ObjectDBX Classes
 90
     1153
280
     0
281
     0
  0
CLASS
  1
MLEADERSTYLE
  2
AcDbMLeaderStyle
  3
ACDB_MLEADERSTYLE_CLASS
 90
     4095
280
     0
281
     0
  0
CLASS
  1
CELLSTYLEMAP
  2
AcDbCellStyleMap
  3
ObjectDBX Classes
 90
     1152
280
     0
281
     0
  0
CLASS
  1
XRECORD
  2
AcDbXrecord
  3
AutoCAD 2000
 90
        0
280
     0
281
     0
  0
CLASS
  1
LWPOLYLINE
  2
AcDbPolyline
  3
AutoCAD 2000
 90
        0
280
     0
281
     1
  0
CLASS
  1
HATCH
  2
AcDbHatch
  3
AutoCAD 2000
 90
        0
280
     0
281
     1
  0
ENDSEC
  0
SECTION
  2
TABLES
  0
TABLE
  2
VPORT
  5
7
330
0
100
AcDbSymbolTable
 70
     1
  0
VPORT
  5
15
330
7
100
AcDbSymbolTableRecord
100
AcDbViewportTableRecord
  2
*ACTIVE
 70
     0
 10
0.0
 20
0.0
 11
1.0
 21
1.0
 12
-97.72522944400464
 22
68.44029252557422
 13
0.0
 23
0.0
 14
1.0
 24
1.0
 15
0.0
 25
0.0
 16
0.0
 26
0.0
 36
1.0
 17
0.0
 27
0.0
 37
0.0
 40
599.249985830894
 41
1.626168224299065
 42
50.0
 43
0.0
 44
0.0
 50
0.0
 51
0.0
 71
    16
 72
   100
 73
     1
 74
     1
 75
     0
 76
     0
 77
     0
 78
     0
281
     0
 65
     1
110
0.0
120
0.0
130
0.0
111
1.0
121
0.0
131
0.0
112
0.0
122
1.0
132
0.0
 79
     0
146
0.0
  0
ENDTAB
  0
TABLE
  2
LTYPE
  5
4
330
0
100
AcDbSymbolTable
 70
     5
  0
LTYPE
  5
11
330
4
100
AcDbSymbolTableRecord
100
AcDbLinetypeTableRecord
  2
BYBLOCK
 70
     0
  3

 72
    65
 73
     0
 40
0.0
  0
LTYPE
  5
12
330
4
100
AcDbSymbolTableRecord
100
AcDbLinetypeTableRecord
  2
BYLAYER
 70
     0
  3

 72
    65
 73
     0
 40
0.0
  0
LTYPE
  5
13
330
4
100
AcDbSymbolTableRecord
100
AcDbLinetypeTableRecord
  2
CONTINUOUS
 70
     0
  3
Solid line
 72
    65
 73
     0
 40
0.0
  0
LTYPE
  5
1E4
330
4
100
AcDbSymbolTableRecord
100
AcDbLinetypeTableRecord
  2
CENTER
 70
     0
  3
____ _ ____ _ ____ _ ____ _ ____ _ ____ _ ____
 72
    65
 73
     4
 40
2.0
 49
1.25
 74
     0
 49
-0.25
 74
     0
 49
0.25
 74
     0
 49
-0.25
 74
     0
  0
LTYPE
  5
63BB
330
4
100
AcDbSymbolTableRecord
100
AcDbLinetypeTableRecord
  2
________________
 70
     0
  3

 72
    65
 73
     0
 40
0.0
  0
LTYPE
  5
63D8
330
4
100
AcDbSymbolTableRecord
100
AcDbLinetypeTableRecord
  2
_..__..__..__.._
 70
     0
  3

 72
    65
 73
     2
 40
1.8
 49
0.8999999999999999
 74
     0
 49
-0.8999999999999999
 74
     0
  0
LTYPE
  5
640C
330
4
100
AcDbSymbolTableRecord
100
AcDbLinetypeTableRecord
  2
______....__....
 70
     0
  3

 72
    65
 73
     4
 40
7.2
 49
2.7
 74
     0
 49
-1.8
 74
     0
 49
0.8999999999999999
 74
     0
 49
-1.8
 74
     0
  0
ENDTAB
  0
TABLE
  2
LAYER
  5
2
330
0
100
AcDbSymbolTable
 70
     2
  0
LAYER
  5
14
102
{ACAD_XDICTIONARY
360
5E41
102
}
330
2
100
AcDbSymbolTableRecord
100
AcDbLayerTableRecord
  2
0
 70
     0
 62
     7
  6
CONTINUOUS
370
    -3
390
63B9
  0
LAYER
  5
63F8
330
2
100
AcDbSymbolTableRecord
100
AcDbLayerTableRecord
  2
Defpoints
 70
     0
 62
     7
  6
CONTINUOUS
290
     0
370
    -3
390
63B9
  0
ENDTAB
  0
TABLE
  2
STYLE
  5
3
330
0
100
AcDbSymbolTable
 70
     1
  0
STYLE
  5
17
330
3
100
AcDbSymbolTableRecord
100
AcDbTextStyleTableRecord
  2
STANDARD
 70
     0
 40
0.0
 41
1.0
 50
0.0
 71
     0
 42
0.0
  3
I011000D.TTF
  4

1001
ACAD
1000
IsonormD
1071
        0
  0
ENDTAB
  0
TABLE
  2
VIEW
  5
5
330
0
100
AcDbSymbolTable
 70
     0
  0
ENDTAB
  0
TABLE
  2
UCS
  5
6
330
0
100
AcDbSymbolTable
 70
     0
  0
ENDTAB
  0
TABLE
  2
APPID
  5
8
330
0
100
AcDbSymbolTable
 70
     6
  0
APPID
  5
16
330
8
100
AcDbSymbolTableRecord
100
AcDbRegAppTableRecord
  2
ACAD
 70
     0
  0
APPID
  5
26
330
8
100
AcDbSymbolTableRecord
100
AcDbRegAppTableRecord
  2
TOPSOLID_DRAFT
 70
     0
  0
APPID
  5
319D
330
8
100
AcDbSymbolTableRecord
100
AcDbRegAppTableRecord
  2
ACAD_MLEADERVER
 70
     0
  0
APPID
  5
5E45
330
8
100
AcDbSymbolTableRecord
100
AcDbRegAppTableRecord
  2
DCO15
 70
     0
  0
APPID
  5
6374
330
8
100
AcDbSymbolTableRecord
100
AcDbRegAppTableRecord
  2
ACAD_EXEMPT_FROM_CAD_STAND
 70
     0
  0
APPID
  5
63F7
330
8
100
AcDbSymbolTableRecord
100
AcDbRegAppTableRecord
  2
ACAD_DSTYLE_DIMRADIAL_EXTENSION
 70
     0
  0
ENDTAB
  0
TABLE
  2
DIMSTYLE
  5
9
330
0
100
AcDbSymbolTable
 70
     1
100
AcDbDimStyleTable
  0
DIMSTYLE
105
18
330
9
100
AcDbSymbolTableRecord
100
AcDbDimStyleTableRecord
  2
STANDARD
 70
     0
 41
1.25
 42
0.0
 44
0.75
 73
     0
 74
     0
 77
     1
140
2.5
146
0.8
147
1.25
176
     7
177
     7
178
     7
271
     2
340
17
  0
ENDTAB
  0
TABLE
  2
BLOCK_RECORD
  5
1
330
0
100
AcDbSymbolTable
 70
     0
  0
BLOCK_RECORD
  5
A
102
{ACAD_XDICTIONARY
360
31A7
102
}
330
1
100
AcDbSymbolTableRecord
100
AcDbBlockTableRecord
  2
*MODEL_SPACE
340
63B3
  0
BLOCK_RECORD
  5
B
330
1
100
AcDbSymbolTableRecord
100
AcDbBlockTableRecord
  2
*PAPER_SPACE
340
63B4
  0
ENDTAB
  0
ENDSEC
  0
SECTION
  2
BLOCKS
  0
BLOCK
  5
D
330
A
100
AcDbEntity
  8
0
100
AcDbBlockBegin
  2
*MODEL_SPACE
 70
     0
 10
0.0
 20
0.0
 30
0.0
  3
*MODEL_SPACE
  1

  0
ENDBLK
  5
E
330
A
100
AcDbEntity
  8
0
100
AcDbBlockEnd
  0
BLOCK
  5
F
330
B
100
AcDbEntity
 67
     1
  8
0
100
AcDbBlockBegin
  2
*PAPER_SPACE
 70
     0
 10
0.0
 20
0.0
 30
0.0
  3
*PAPER_SPACE
  1

  0
ENDBLK
  5
10
330
B
100
AcDbEntity
 67
     1
  8
0
100
AcDbBlockEnd
  0
ENDSEC
  0
SECTION
  2
ENTITIES
  0
TEXT
  5
61B5
330
A
100
AcDbEntity
  8
0
  6
Continuous
 62
     7
100
AcDbText
 10
-31.71664714194196
 20
-167.4117990667069
 30
0.0
 40
20.0
  1
5BN0
100
AcDbText
  0
LINE
  5
640B
330
A
100
AcDbEntity
  8
0
  6
CENTER
 62
     1
100
AcDbLine
 10
-0.0000000000127338
 20
-11.200000000492
 30
0.0
 11
-0.0000000000127338
 21
11.19999999950795
 31
0.0
  0
LINE
  5
640D
330
A
100
AcDbEntity
  8
0
  6
CENTER
 62
     1
100
AcDbLine
 10
-11.20000000001278
 20
-0.0000000004920082
 30
0.0
 11
12.00000000001364
 21
-0.0000000004920082
 31
0.0
  0
ARC
  5
640F
330
A
100
AcDbEntity
  8
0
  6
________________
 62
     7
370
     9
100
AcDbCircle
 10
93.35534713122001
 20
24.97720712750959
 30
0.0
 40
4.977205829811794
210
0.0
220
0.0
230
-1.0
100
AcDbArc
 50
179.737615791998
 51
0.2623842153440373
  0
LINE
  5
6417
330
A
100
AcDbEntity
  8
0
  6
________________
 62
     7
370
     9
100
AcDbLine
 10
-98.35551089150408
 20
175.0000000006027
 30
0.0
 11
-98.35551090111346
 21
25.00000000060271
 31
0.0
  0
LINE
  5
6418
330
A
100
AcDbEntity
  8
0
  6
________________
 62
     7
370
     9
100
AcDbLine
 10
-88.35551090111653
 20
24.99999999996209
 30
0.0
 11
-88.35551090111545
 21
25.01692731281554
 31
0.0
  0
ARC
  5
6419
330
A
100
AcDbEntity
  8
0
  6
________________
 62
     7
370
     9
100
AcDbCircle
 10
1142.076901051442
 20
99.99883137765279
 30
0.0
 40
1056.385845227739
210
0.0
220
0.0
230
-1.0
100
AcDbArc
 50
175.9297426516798
 51
184.070257355661
  0
LINE
  5
641A
330
A
100
AcDbEntity
  8
0
  6
________________
 62
     7
370
     9
100
AcDbLine
 10
-88.3555108915084
 20
174.9807353074823
 30
0.0
 11
-88.35551089150721
 21
174.9999999999621
 31
0.0
  0
ARC
  5
641B
330
A
100
AcDbEntity
  8
0
  6
________________
 62
     7
370
     9
100
AcDbCircle
 10
93.35551089150567
 20
175.0000000002824
 30
0.0
 40
5.000000000000004
210
0.0
220
0.0
230
-1.0
100
AcDbArc
 50
0.0000000036705128
 51
180.0000000036699
  0
LINE
  5
641C
330
A
100
AcDbEntity
  8
0
  6
________________
 62
     7
370
     9
100
AcDbLine
 10
-98.35551090111346
 20
25.00000000060271
 30
0.0
 11
-98.33250077130879
 21
25.00000000497403
 31
0.0
  0
LINE
  5
641D
330
A
100
AcDbEntity
  8
0
  6
________________
 62
     7
370
     9
100
AcDbLine
 10
-104.6764088094137
 20
290.0000000010076
 30
0.0
 11
-104.6764088337575
 21
-89.99999999899242
 31
0.0
  0
LINE
  5
641E
330
A
100
AcDbEntity
  8
0
  6
________________
 62
   253
370
     9
100
AcDbLine
 10
-97.82512015821317
 20
290.0000000005685
 30
0.0
 11
-104.6764088094137
 21
290.0000000010076
 31
0.0
  0
ARC
  5
641F
330
A
100
AcDbEntity
  8
0
  6
________________
 62
   253
370
     9
100
AcDbCircle
 10
-1141.807987768648
 20
100.0000000674484
 30
0.0
 40
1061.131578947368
100
AcDbArc
 50
349.6853291312402
 51
10.31467086141884
  0
LINE
  5
6420
330
A
100
AcDbEntity
  8
0
  6
________________
 62
   253
370
     9
100
AcDbLine
 10
-104.6764088337575
 20
-89.99999999899242
 30
0.0
 11
-97.82512018255659
 21
-89.99999999943131
 31
0.0
  0
LINE
  5
6421
330
A
100
AcDbEntity
  8
0
  6
________________
 62
     7
370
     9
100
AcDbLine
 10
-88.37819349112829
 20
25.00000000433624
 30
0.0
 11
-88.35551090111653
 21
24.99999999996209
 31
0.0
  0
ARC
  5
6424
330
A
100
AcDbEntity
  8
0
  6
________________
 62
     7
370
     9
100
AcDbCircle
 10
1141.807987768648
 20
100.0000000674484
 30
0.0
 40
1062.131578947368
210
0.0
220
0.0
230
-1.0
100
AcDbArc
 50
180.0000000036704
 51
190.3146708687597
  0
LINE
  5
6425
330
A
100
AcDbEntity
  8
0
  6
________________
 62
   253
370
     9
100
AcDbLine
 10
-97.82512015821317
 20
290.0000000005685
 30
0.0
 11
-96.84128093570473
 21
290.1790541383426
 31
0.0
  0
ARC
  5
6426
330
A
100
AcDbEntity
  8
0
  6
________________
 62
     7
370
     9
100
AcDbCircle
 10
1141.807987768648
 20
100.0000000674484
 30
0.0
 40
1062.131578947368
210
0.0
220
0.0
230
-1.0
100
AcDbArc
 50
169.6853291385812
 51
180.0000000036704
  0
LINE
  5
6427
330
A
100
AcDbEntity
  8
0
  6
________________
 62
   253
370
     9
100
AcDbLine
 10
-96.84128096007123
 20
-90.17905413733138
 30
0.0
 11
-97.82512018255659
 21
-89.99999999943134
 31
0.0
  0
LINE
  5
6428
330
A
100
AcDbEntity
  8
0
  6
________________
 62
     7
370
     9
100
AcDbLine
 10
-96.84128096007151
 20
-90.17905413733132
 30
0.0
 11
-98.52096273105548
 21
-99.18753564901601
 31
0.0
  0
ARC
  5
6429
330
A
100
AcDbEntity
  8
0
  6
________________
 62
     7
370
     9
100
AcDbCircle
 10
99.50322052822162
 20
-98.99999999932382
 30
0.0
 40
1.000000000000004
210
0.0
220
0.0
230
-1.0
100
AcDbArc
 50
190.8090023389632
 51
270.000000003677
  0
LINE
  5
642A
330
A
100
AcDbEntity
  8
0
  6
________________
 62
   253
370
     9
100
AcDbLine
 10
-99.5032205282858
 20
-99.99999999932382
 30
0.0
 11
-97.82512018255682
 21
-89.99999999943128
 31
0.0
  0
LINE
  5
642B
330
A
100
AcDbEntity
  8
0
  6
________________
 62
   253
370
     9
100
AcDbLine
 10
-97.82512015821334
 20
290.0000000005685
 30
0.0
 11
-99.50322050266107
 21
300.0000000006761
 31
0.0
  0
ARC
  5
642C
330
A
100
AcDbEntity
  8
0
  6
________________
 62
     7
370
     9
100
AcDbCircle
 10
99.50322050272501
 20
299.0000000006762
 30
0.0
 40
0.9999999999998899
210
0.0
220
0.0
230
-1.0
100
AcDbArc
 50
90.00000000367051
 51
169.1909976683766
  0
LINE
  5
642D
330
A
100
AcDbEntity
  8
0
  6
________________
 62
     7
370
     9
100
AcDbLine
 10
-98.52096270553483
 20
299.1875356502425
 30
0.0
 11
-96.84128093570507
 21
290.1790541383426
 31
0.0
  0
LINE
  5
642E
330
A
100
AcDbEntity
  8
0
  6
________________
 62
     7
370
     9
100
AcDbLine
 10
-104.6764088343981
 20
-99.99999999898654
 30
0.0
 11
-104.6764088337575
 21
-89.99999999899242
 31
0.0
  0
LINE
  5
642F
330
A
100
AcDbEntity
  8
0
  6
________________
 62
     7
370
     9
100
AcDbLine
 10
-104.6764088343981
 20
-99.99999999899242
 30
0.0
 11
-99.5032205282858
 21
-99.99999999932382
 31
0.0
  0
LINE
  5
6430
330
A
100
AcDbEntity
  8
0
  6
________________
 62
     7
370
     9
100
AcDbLine
 10
-104.6764088094137
 20
290.0000000010076
 30
0.0
 11
-104.6764088087731
 21
300.0000000009987
 31
0.0
  0
LINE
  5
6431
330
A
100
AcDbEntity
  8
0
  6
________________
 62
     7
370
     9
100
AcDbLine
 10
-99.50322050266095
 20
300.0000000006761
 30
0.0
 11
-104.6764088087731
 21
300.0000000010076
 31
0.0
  0
ARC
  5
6433
330
A
100
AcDbEntity
  8
0
  6
________________
 62
     7
370
     9
100
AcDbCircle
 10
125.9974705346081
 20
175.0227928721499
 30
0.0
 40
4.977205829813238
210
0.0
220
0.0
230
-1.0
100
AcDbArc
 50
359.7376157845984
 51
180.262384207909
  0
LINE
  5
643A
330
A
100
AcDbEntity
  8
0
  6
________________
 62
     7
370
     9
100
AcDbLine
 10
-120.9973067549023
 20
24.99999999970555
 30
0.0
 11
-120.9973067647101
 21
174.9999999997056
 31
0.0
  0
LINE
  5
643B
330
A
100
AcDbEntity
  8
0
  6
________________
 62
     7
370
     9
100
AcDbLine
 10
-130.9973067647099
 20
174.9999999990517
 30
0.0
 11
-130.9973067647089
 21
174.9830726861982
 31
0.0
  0
ARC
  5
643C
330
A
100
AcDbEntity
  8
0
  6
________________
 62
     7
370
     9
100
AcDbCircle
 10
-922.7240833950038
 20
100.0011687577632
 30
0.0
 40
1056.38584522742
210
0.0
220
0.0
230
-1.0
100
AcDbArc
 50
355.9297426442618
 51
4.070257348245607
  0
LINE
  5
643D
330
A
100
AcDbEntity
  8
0
  6
________________
 62
     7
370
     9
100
AcDbLine
 10
-130.9973067549034
 20
25.01926469153159
 30
0.0
 11
-130.9973067549021
 21
24.99999999905174
 31
0.0
  0
ARC
  5
643E
330
A
100
AcDbEntity
  8
0
  6
________________
 62
     7
370
     9
100
AcDbCircle
 10
125.9973067549022
 20
24.99999999937864
 30
0.0
 40
5.000000000000004
210
0.0
220
0.0
230
-1.0
100
AcDbArc
 50
179.9999999962539
 51
359.9999999962532
  0
LINE
  5
643F
330
A
100
AcDbEntity
  8
0
  6
________________
 62
     7
370
     9
100
AcDbLine
 10
-120.9973067647101
 20
174.9999999997056
 30
0.0
 11
-121.0203168945148
 21
174.9999999953313
 31
0.0
  0
LINE
  5
6440
330
A
100
AcDbEntity
  8
0
  6
________________
 62
     7
370
     9
100
AcDbLine
 10
-114.6764088221042
 20
-89.99999999988111
 30
0.0
 11
-114.6764088469507
 21
290.0000000001188
 31
0.0
  0
LINE
  5
6441
330
A
100
AcDbEntity
  8
0
  6
________________
 62
   253
370
     9
100
AcDbLine
 10
-121.5276974733068
 20
-90.0000000003291
 30
0.0
 11
-114.6764088221042
 21
-89.99999999988111
 31
0.0
  0
ARC
  5
6442
330
A
100
AcDbEntity
  8
0
  6
________________
 62
   253
370
     9
100
AcDbCircle
 10
922.45517011284
 20
100.0000000679327
 30
0.0
 40
1061.131578947368
100
AcDbArc
 50
169.68532913866
 51
190.3146708688325
  0
LINE
  5
6443
330
A
100
AcDbEntity
  8
0
  6
________________
 62
   253
370
     9
100
AcDbLine
 10
-114.6764088469507
 20
290.0000000001188
 30
0.0
 11
-121.5276974981537
 21
289.9999999996709
 31
0.0
  0
LINE
  5
6444
330
A
100
AcDbEntity
  8
0
  6
________________
 62
     7
370
     9
100
AcDbLine
 10
-130.9746241746983
 20
174.9999999946805
 30
0.0
 11
-130.9973067647099
 21
174.9999999990517
 31
0.0
  0
LINE
  5
6445
330
A
100
AcDbEntity
  8
0
  6
________________
 62
   253
370
     9
100
AcDbLine
 10
-119.8495971537185
 20
299.9999999997809
 30
0.0
 11
-121.5276974981534
 21
289.9999999996709
 31
0.0
  0
LINE
  5
6446
330
A
100
AcDbEntity
  8
0
  6
________________
 62
   253
370
     9
100
AcDbLine
 10
-121.5276974981537
 20
289.9999999996709
 30
0.0
 11
-122.5115367206623
 21
290.1790541374435
 31
0.0
  0
LINE
  5
6447
330
A
100
AcDbEntity
  8
0
  6
________________
 62
     7
370
     9
100
AcDbLine
 10
-122.5115367206622
 20
290.1790541374435
 30
0.0
 11
-120.8318549508439
 21
299.1875356493459
 31
0.0
  0
ARC
  5
6448
330
A
100
AcDbEntity
  8
0
  6
________________
 62
     7
370
     9
100
AcDbCircle
 10
-119.8495971536531
 20
298.9999999997809
 30
0.0
 40
1.000000000000001
100
AcDbArc
 50
90.00000000374543
 51
169.1909976684574
  0
LINE
  5
6449
330
A
100
AcDbEntity
  8
0
  6
________________
 62
     7
370
     9
100
AcDbLine
 10
-114.6764088476046
 20
300.0000000001191
 30
0.0
 11
-119.8495971537185
 21
299.9999999997809
 31
0.0
  0
LINE
  5
644A
330
A
100
AcDbEntity
  8
0
  6
________________
 62
     7
370
     9
100
AcDbLine
 10
-114.6764088476046
 20
300.0000000001191
 30
0.0
 11
-114.6764088469507
 21
290.0000000001188
 31
0.0
  0
LINE
  5
644B
330
A
100
AcDbEntity
  8
0
  6
________________
 62
   253
370
     9
100
AcDbLine
 10
-122.511536695792
 20
-90.17905413823036
 30
0.0
 11
-121.5276974733068
 21
-90.0000000003291
 31
0.0
  0
ARC
  5
644C
330
A
100
AcDbEntity
  8
0
  6
________________
 62
     7
370
     9
100
AcDbCircle
 10
-922.45517011284
 20
100.0000000679328
 30
0.0
 40
1062.131578947368
210
0.0
220
0.0
230
-1.0
100
AcDbArc
 50
349.6853291311674
 51
10.31467086134005
  0
LINE
  5
6450
330
A
100
AcDbEntity
  8
0
  6
________________
 62
     7
370
     9
100
AcDbLine
 10
-120.8318549247957
 20
-99.18753564991255
 30
0.0
 11
-122.5115366957921
 21
-90.17905413823038
 31
0.0
  0
LINE
  5
6451
330
A
100
AcDbEntity
  8
0
  6
________________
 62
   253
370
     9
100
AcDbLine
 10
-121.5276974733068
 20
-90.00000000032912
 30
0.0
 11
-119.8495971275639
 21
-100.0000000002191
 31
0.0
  0
ARC
  5
6452
330
A
100
AcDbEntity
  8
0
  6
________________
 62
     7
370
     9
100
AcDbCircle
 10
-119.8495971276294
 20
-99.00000000021907
 30
0.0
 40
0.9999999999999932
100
AcDbArc
 50
190.8090023390362
 51
270.0000000037422
  0
LINE
  5
6453
330
A
100
AcDbEntity
  8
0
  6
________________
 62
     7
370
     9
100
AcDbLine
 10
-119.849597127564
 20
-100.0000000002191
 30
0.0
 11
-114.6764088214504
 21
-99.99999999988083
 31
0.0
  0
LINE
  5
6454
330
A
100
AcDbEntity
  8
0
  6
________________
 62
     7
370
     9
100
AcDbLine
 10
-114.6764088221042
 20
-89.99999999988111
 30
0.0
 11
-114.6764088214504
 21
-99.99999999988083
 31
0.0
  0
LINE
  5
6455
330
A
100
AcDbEntity
  8
0
  6
________________
 62
   253
370
     9
100
AcDbLine
 10
-114.6764088408454
 20
196.6250000006219
 30
0.0
 11
-104.6764088153956
 21
196.6250000009516
 31
0.0
  0
LINE
  5
6456
330
A
100
AcDbEntity
  8
0
  6
________________
 62
   253
370
     9
100
AcDbLine
 10
-104.6764088149632
 20
203.3750000009516
 30
0.0
 11
-114.6764088412867
 21
203.3750000006218
 31
0.0
  0
LINE
  5
6457
330
A
100
AcDbEntity
  8
0
  6
________________
 62
   253
370
     9
100
AcDbLine
 10
-114.6764088277682
 20
-3.374999997665753
 30
0.0
 11
-104.6764088282081
 21
-3.374999997333731
 31
0.0
  0
LINE
  5
6458
330
A
100
AcDbEntity
  8
0
  6
________________
 62
   253
370
     9
100
AcDbLine
 10
-104.6764088277756
 20
3.375000002666241
 30
0.0
 11
-114.6764088282096
 21
3.375000002334275
 31
0.0
  0
LINE
  5
6459
330
A
100
AcDbEntity
  8
0
  6
________________
 62
     7
370
     9
100
AcDbLine
 10
-114.6764088408045
 20
196.0000000006202
 30
0.0
 11
-104.6764088154357
 21
196.00000000095
 31
0.0
  0
LINE
  5
645A
330
A
100
AcDbEntity
  8
0
  6
________________
 62
     7
370
     9
100
AcDbLine
 10
-104.6764088149231
 20
204.0000000009533
 30
0.0
 11
-114.6764088413276
 21
204.0000000006234
 31
0.0
  0
LINE
  5
645B
330
A
100
AcDbEntity
  8
0
  6
________________
 62
     7
370
     9
100
AcDbLine
 10
-114.6764088277274
 20
-3.999999997667345
 30
0.0
 11
-104.6764088282481
 21
-3.999999997335379
 31
0.0
  0
LINE
  5
645C
330
A
100
AcDbEntity
  8
0
  6
________________
 62
     7
370
     9
100
AcDbLine
 10
-104.6764088277356
 20
4.000000002667832
 30
0.0
 11
-114.6764088282505
 21
4.000000002335867
 31
0.0
  0
LINE
  5
645D
330
A
100
AcDbEntity
  8
0
  6
________________
 62
     7
370
     9
100
AcDbLine
 10
-114.6764088410663
 20
-151.2499888859654
 30
0.0
 11
-114.6764088410663
 21
-168.7499888859654
 31
0.0
  0
LINE
  5
645E
330
A
100
AcDbEntity
  8
0
  6
________________
 62
     7
370
     9
100
AcDbLine
 10
-104.6764088151871
 20
-168.7499888859365
 30
0.0
 11
-104.6764088151871
 21
-151.2499888859365
 31
0.0
  0
LINE
  5
645F
330
A
100
AcDbEntity
  8
0
  6
________________
 62
     7
370
     9
100
AcDbLine
 10
-94.27640882799443
 20
-149.9203467957843
 30
0.0
 11
-96.12269535322446
 21
-149.9203467957843
 31
0.0
  0
LINE
  5
6460
330
A
100
AcDbEntity
  8
0
  6
________________
 62
     7
370
     9
100
AcDbLine
 10
-96.12269535322446
 20
-149.9203467957843
 30
0.0
 11
-97.67640882799446
 21
-149.9203467957843
 31
0.0
  0
LINE
  5
6461
330
A
100
AcDbEntity
  8
0
  6
________________
 62
     7
370
     9
100
AcDbLine
 10
-104.6764088094137
 20
-149.9999888859415
 30
0.0
 11
-97.82512015821317
 21
-149.9999888859415
 31
0.0
  0
LWPOLYLINE
  5
6462
330
A
100
AcDbEntity
  8
0
  6
________________
 62
   253
370
     9
100
AcDbPolyline
 90
        6
 70
     0
 43
0.0
 10
99.50322050266095
 20
-159.9999888859385
 42
0.0917454760160732
 10
98.21329099884338
 20
-150.2815499103762
 10
98.06933848869608
 20
-150.1109545294947
 10
97.87420332590739
 20
-150.0044731468422
 10
97.82512015821328
 20
-149.9999888859415
 10
97.82512015821328
 20
-149.9999888859415
210
0.0
220
0.0
230
-1.0
  0
LINE
  5
6464
330
A
100
AcDbEntity
  8
0
  6
________________
 62
     7
370
     9
100
AcDbLine
 10
-104.6764088094137
 20
-159.9999888859385
 30
0.0
 11
-104.6764088094137
 21
-149.9999888859474
 31
0.0
  0
LWPOLYLINE
  5
6465
330
A
100
AcDbEntity
  8
0
  6
________________
 62
   253
370
     9
100
AcDbPolyline
 90
        6
 70
     0
 43
0.0
 10
97.82512015821334
 20
-169.9999888859356
 10
98.01499164556321
 20
-169.9329559278191
 10
98.1713722987439
 20
-169.7763364699598
 10
98.31020271886507
 20
-169.5579373879234
 10
98.31020271886507
 20
-169.5579373879234
 42
0.0882099631684782
 10
99.50322050266107
 20
-159.9999888859385
210
0.0
220
0.0
230
-1.0
  0
LINE
  5
6466
330
A
100
AcDbEntity
  8
0
  6
________________
 62
     7
370
     9
100
AcDbLine
 10
-97.82512015821317
 20
-169.9999888859356
 30
0.0
 11
-104.6764088094137
 21
-169.9999888859356
 31
0.0
  0
LINE
  5
6467
330
A
100
AcDbEntity
  8
0
  6
________________
 62
     7
370
     9
100
AcDbLine
 10
-104.6764088094137
 20
-169.9999888859327
 30
0.0
 11
-104.6764088094137
 21
-159.9999888859385
 31
0.0
  0
LWPOLYLINE
  5
6469
330
A
100
AcDbEntity
  8
0
  6
________________
 62
   253
370
     9
100
AcDbPolyline
 90
        6
 70
     0
 43
0.0
 10
-98.52096270553483
 20
-159.9999888859385
 42
0.099365865441682
 10
-97.2618449445207
 20
-168.7026143782391
 10
-97.12461394530283
 20
-168.8657137836587
 10
-96.91271504122017
 20
-168.9914602158285
 10
-96.84128093570507
 20
-168.9999888859359
 10
-96.84128093570507
 20
-168.9999888859359
  0
ELLIPSE
  5
646A
330
A
100
AcDbEntity
  8
0
  6
________________
 62
   253
370
     9
100
AcDbEllipse
 10
-97.82512015821317
 20
-168.9999888859359
 30
0.0
 11
0.0
 21
-1.000000000000001
 31
0.0
210
0.0
220
0.0
230
1.0
 40
0.9838392225084496
 41
0.0
 42
1.57079632679473
  0
ELLIPSE
  5
646B
330
A
100
AcDbEntity
  8
0
  6
________________
 62
   253
370
     9
100
AcDbEllipse
 10
-97.82512015821317
 20
-150.9999888859412
 30
0.0
 11
0.0
 21
1.000000000000001
 31
0.0
210
0.0
220
0.0
230
-1.0
 40
0.9838392225084496
 41
0.0
 42
1.570796326794897
  0
LWPOLYLINE
  5
646C
330
A
100
AcDbEntity
  8
0
  6
________________
 62
   253
370
     9
100
AcDbPolyline
 90
        6
 70
     0
 43
0.0
 10
-96.84128093570507
 20
-150.9999888859412
 10
-97.07529571780947
 20
-151.0916914939068
 10
-97.22981758474634
 20
-151.2533938079325
 10
-97.36204151444508
 20
-151.4588162714682
 10
-97.36204151444508
 20
-151.4588162714682
 42
0.0914747687570448
 10
-98.52096270553483
 20
-159.9999888859386
  0
LINE
  5
646D
330
A
100
AcDbEntity
  8
0
  6
________________
 62
   253
370
     9
100
AcDbLine
 10
-79.67640882190511
 20
-150.9999888859412
 30
0.0
 11
-96.84128093602203
 21
-150.9999888859412
 31
0.0
  0
LINE
  5
646E
330
A
100
AcDbEntity
  8
0
  6
________________
 62
   253
370
     9
100
AcDbLine
 10
-96.84128093602158
 20
-168.9999888859359
 30
0.0
 11
-79.67640882191466
 21
-168.9999888859359
 31
0.0
  0
LINE
  5
646F
330
A
100
AcDbEntity
  8
0
  6
________________
 62
     7
370
     9
100
AcDbLine
 10
-80.67640882190415
 20
-169.9999888859356
 30
0.0
 11
-97.8251201585299
 21
-169.9999888859356
 31
0.0
  0
LINE
  5
6470
330
A
100
AcDbEntity
  8
0
  6
________________
 62
     7
370
     9
100
AcDbLine
 10
-97.82512015852944
 20
-149.9999888859415
 30
0.0
 11
-80.6764088219137
 21
-149.9999888859415
 31
0.0
  0
LINE
  5
6471
330
A
100
AcDbEntity
  8
0
  6
________________
 62
     7
370
     9
100
AcDbLine
 10
-114.6764088469507
 20
-149.9999888859681
 30
0.0
 11
-114.6764088469507
 21
-159.9999888859684
 31
0.0
  0
LWPOLYLINE
  5
6473
330
A
100
AcDbEntity
  8
0
  6
________________
 62
   253
370
     9
100
AcDbPolyline
 90
        5
 70
     0
 43
0.0
 10
121.5276974981537
 20
-149.9999888859681
 10
121.3205478248165
 20
-150.0797871236653
 10
121.1119993373852
 20
-150.3233239685181
 10
121.1119993373852
 20
-150.3233239685181
 42
0.0909631840325346
 10
119.8495971537183
 20
-159.9999888859684
210
0.0
220
0.0
230
-1.0
  0
LINE
  5
6474
330
A
100
AcDbEntity
  8
0
  6
________________
 62
     7
370
     9
100
AcDbLine
 10
-121.5276974981537
 20
-149.9999888859681
 30
0.0
 11
-114.6764088469507
 21
-149.9999888859681
 31
0.0
  0
LINE
  5
6475
330
A
100
AcDbEntity
  8
0
  6
________________
 62
     7
370
     9
100
AcDbLine
 10
-114.6764088469507
 20
-169.9999888859681
 30
0.0
 11
-121.5276974981537
 21
-169.9999888859681
 31
0.0
  0
LWPOLYLINE
  5
6476
330
A
100
AcDbEntity
  8
0
  6
________________
 62
   253
370
     9
100
AcDbPolyline
 90
        6
 70
     0
 43
0.0
 10
119.8495971537185
 20
-159.9999888859684
 42
0.0921198743463231
 10
121.1395266575261
 20
-169.7184278615333
 10
121.2834791676726
 20
-169.8890232424149
 10
121.4786143304594
 20
-169.9955046250674
 10
121.5276974981534
 20
-169.9999888859681
 10
121.5276974981534
 20
-169.9999888859681
210
0.0
220
0.0
230
-1.0
  0
LINE
  5
6477
330
A
100
AcDbEntity
  8
0
  6
________________
 62
     7
370
     9
100
AcDbLine
 10
-114.6764088469507
 20
-159.9999888859684
 30
0.0
 11
-114.6764088469507
 21
-169.9999888859681
 31
0.0
  0
LWPOLYLINE
  5
6479
330
A
100
AcDbEntity
  8
0
  6
________________
 62
   253
370
     9
100
AcDbPolyline
 90
        6
 70
     0
 43
0.0
 10
-120.8318549508441
 20
-159.9999888859684
 42
0.0993848588943916
 10
-122.0911589360693
 20
-151.2971375996515
 10
-122.2275199920093
 20
-151.1349115007245
 10
-122.4404587307192
 20
-151.0084659192468
 10
-122.5115367206622
 20
-150.9999888859681
 10
-122.5115367206622
 20
-150.9999888859681
  0
ELLIPSE
  5
647A
330
A
100
AcDbEntity
  8
0
  6
________________
 62
   253
370
     9
100
AcDbEllipse
 10
-121.5276974981537
 20
-150.9999888859681
 30
0.0
 11
0.0
 21
1.000000000000001
 31
0.0
210
0.0
220
0.0
230
1.0
 40
0.9838392225086864
 41
0.0
 42
1.570796326795035
  0
ELLIPSE
  5
647B
330
A
100
AcDbEntity
  8
0
  6
________________
 62
   253
370
     9
100
AcDbEllipse
 10
-121.5276974981537
 20
-168.9999888859681
 30
0.0
 11
0.0
 21
-1.000000000000001
 31
0.0
210
0.0
220
0.0
230
-1.0
 40
0.9838392225086864
 41
0.0
 42
1.570796326794618
  0
LWPOLYLINE
  5
647C
330
A
100
AcDbEntity
  8
0
  6
________________
 62
   253
370
     9
100
AcDbPolyline
 90
        6
 70
     0
 43
0.0
 10
-122.5115367206622
 20
-168.9999888859681
 10
-122.3178075555547
 20
-168.9372996372599
 10
-122.1230000716236
 20
-168.7465839639768
 10
-121.9912109262892
 20
-168.5419928140808
 10
-121.9912109262892
 20
-168.5419928140808
 42
0.0915269591904386
 10
-120.8318549508439
 20
-159.9999888859684
  0
LINE
  5
647D
330
A
100
AcDbEntity
  8
0
  6
________________
 62
   253
370
     9
100
AcDbLine
 10
-139.6764088345277
 20
-168.9999888859624
 30
0.0
 11
-122.5115367206622
 21
-168.9999888859624
 31
0.0
  0
LINE
  5
647E
330
A
100
AcDbEntity
  8
0
  6
________________
 62
   253
370
     9
100
AcDbLine
 10
-122.5115367206618
 20
-150.9999888859624
 30
0.0
 11
-139.6764088345271
 21
-150.9999888859624
 31
0.0
  0
LINE
  5
647F
330
A
100
AcDbEntity
  8
0
  6
________________
 62
     7
370
     9
100
AcDbLine
 10
-138.6764088345278
 20
-149.9999888859624
 30
0.0
 11
-121.5276974981537
 21
-149.9999888859624
 31
0.0
  0
LINE
  5
6480
330
A
100
AcDbEntity
  8
0
  6
________________
 62
     7
370
     9
100
AcDbLine
 10
-121.5276974981546
 20
-169.9999888859624
 30
0.0
 11
-138.6764088345287
 21
-169.9999888859624
 31
0.0
  0
LINE
  5
6481
330
A
100
AcDbEntity
  8
0
  6
________________
 62
   253
370
     9
100
AcDbLine
 10
-114.6764088475662
 20
-163.3749888853626
 30
0.0
 11
-104.6764088088107
 21
-163.3749888847268
 31
0.0
  0
LINE
  5
6482
330
A
100
AcDbEntity
  8
0
  6
________________
 62
   253
370
     9
100
AcDbLine
 10
-104.6764088088107
 20
-156.6249888847268
 30
0.0
 11
-114.6764088475662
 21
-156.6249888853626
 31
0.0
  0
LINE
  5
6483
330
A
100
AcDbEntity
  8
0
  6
________________
 62
     7
370
     9
100
AcDbLine
 10
-94.10650570232565
 20
-149.9999888859415
 30
0.0
 11
-94.27640882799449
 21
-149.9203467957843
 31
0.0
  0
LINE
  5
6484
330
A
100
AcDbEntity
  8
0
  6
________________
 62
     7
370
     9
100
AcDbLine
 10
-97.67640882799446
 20
-149.9203467957843
 30
0.0
 11
-97.84631195366308
 21
-149.9999888859415
 31
0.0
  0
LINE
  5
6485
330
A
100
AcDbEntity
  8
0
  6
________________
 62
     7
370
     9
100
AcDbLine
 10
-79.67640882159282
 20
-168.9999888859359
 30
0.0
 11
-79.67640882159282
 21
-150.9999888859412
 31
0.0
  0
ARC
  5
6486
330
A
100
AcDbEntity
  8
0
  6
________________
 62
     7
370
     9
100
AcDbCircle
 10
-80.67640882159242
 20
-168.9999888859359
 30
0.0
 40
1.000000000000001
100
AcDbArc
 50
270.0
 51
0.0
  0
ARC
  5
6487
330
A
100
AcDbEntity
  8
0
  6
________________
 62
     7
370
     9
100
AcDbCircle
 10
-80.67640882159242
 20
-150.9999888859412
 30
0.0
 40
1.000000000000001
100
AcDbArc
 50
0.0
 51
90.0
  0
LINE
  5
6488
330
A
100
AcDbEntity
  8
0
  6
________________
 62
     7
370
     9
100
AcDbLine
 10
-114.6764088475439
 20
-163.999988885363
 30
0.0
 11
-104.676408808814
 21
-163.9999888847271
 31
0.0
  0
LINE
  5
6489
330
A
100
AcDbEntity
  8
0
  6
________________
 62
     7
370
     9
100
AcDbLine
 10
-104.676408808814
 20
-155.9999888847265
 30
0.0
 11
-114.6764088475439
 21
-155.9999888853623
 31
0.0
  0
LINE
  5
648A
330
A
100
AcDbEntity
  8
0
  6
________________
 62
     7
370
     9
100
AcDbLine
 10
-139.6764088345277
 20
-150.9999888859624
 30
0.0
 11
-139.6764088345277
 21
-168.9999888859624
 31
0.0
  0
ARC
  5
648B
330
A
100
AcDbEntity
  8
0
  6
________________
 62
     7
370
     9
100
AcDbCircle
 10
-138.6764088345278
 20
-150.9999888859624
 30
0.0
 40
1.000000000000001
100
AcDbArc
 50
90.0
 51
180.0
  0
ARC
  5
648C
330
A
100
AcDbEntity
  8
0
  6
________________
 62
     7
370
     9
100
AcDbCircle
 10
-138.6764088345278
 20
-168.9999888859624
 30
0.0
 40
1.000000000000001
100
AcDbArc
 50
180.0
 51
270.0
  0
LINE
  5
648D
330
A
100
AcDbEntity
  8
0
  6
________________
 62
     7
370
     9
100
AcDbLine
 10
-10.07964209080046
 20
1.700000000450189
 30
0.0
 11
-10.07964209080046
 21
1.693694262274391
 31
0.0
  0
LINE
  5
648E
330
A
100
AcDbEntity
  8
0
  6
________________
 62
     7
370
     9
100
AcDbLine
 10
-10.07964209080046
 20
1.693694262274391
 30
0.0
 11
-10.07964209080046
 21
-1.69999999954976
 31
0.0
  0
ARC
  5
648F
330
A
100
AcDbEntity
  8
0
  6
________________
 62
   253
370
     9
100
AcDbCircle
 10
0.0063264672221512
 20
-90.1812111457663
 30
0.0
 40
9.006326726150958
100
AcDbArc
 50
179.9862777097523
 51
269.9597527440553
  0
LINE
  5
6490
330
A
100
AcDbEntity
  8
0
  6
________________
 62
   253
370
     9
100
AcDbLine
 10
-9.000000000616637
 20
290.1790541374439
 30
0.0
 11
-9.00000000062812
 21
-90.17905413822982
 31
0.0
  0
ARC
  5
6491
330
A
100
AcDbEntity
  8
0
  6
________________
 62
   253
370
     9
100
AcDbCircle
 10
0.0058170945735574
 20
290.1817200382837
 30
0.0
 40
9.00581748977002
100
AcDbArc
 50
90.03700885865823
 51
180.0169606889228
  0
ARC
  5
6492
330
A
100
AcDbEntity
  8
0
  6
________________
 62
   253
370
     9
100
AcDbCircle
 10
-0.006326468582075
 20
290.1812111450845
 30
0.0
 40
9.006326726266211
100
AcDbArc
 50
359.9862777090884
 51
89.95975274332322
  0
LINE
  5
6493
330
A
100
AcDbEntity
  8
0
  6
________________
 62
   253
370
     9
100
AcDbLine
 10
8.99999999937188
 20
-90.17905413823024
 30
0.0
 11
8.999999999383363
 21
290.1790541374435
 31
0.0
  0
ARC
  5
6494
330
A
100
AcDbEntity
  8
0
  6
________________
 62
   253
370
     9
100
AcDbCircle
 10
-0.0058170957059938
 20
-90.18172003896262
 30
0.0
 40
9.005817489657703
100
AcDbArc
 50
270.0370088579448
 51
0.0169606882400566
  0
LINE
  5
6495
330
A
100
AcDbEntity
  8
0
  6
________________
 62
     7
370
     9
100
AcDbLine
 10
-10.00000000062812
 20
-90.00000000032867
 30
0.0
 11
-10.00000000061664
 21
289.9999999996713
 31
0.0
  0
ELLIPSE
  5
6496
330
A
100
AcDbEntity
  8
0
  6
________________
 62
   253
370
     9
100
AcDbEllipse
 10
-9.000000000616637
 20
289.9999999996714
 30
0.0
 11
-1.000000000000001
 21
0.0
 31
0.0
210
0.0
220
0.0
230
-1.0
 40
0.1790541377726389
 41
0.0
 42
1.570796326794924
  0
ELLIPSE
  5
6497
330
A
100
AcDbEntity
  8
0
  6
________________
 62
   253
370
     9
100
AcDbEllipse
 10
-9.00000000062812
 20
-90.00000000032847
 30
0.0
 11
1.000000000000001
 21
0.0
 31
0.0
210
0.0
220
0.0
230
-1.0
 40
0.1790541379013122
 41
1.570796326794897
 42
3.141592653589681
  0
LINE
  5
6498
330
A
100
AcDbEntity
  8
0
  6
________________
 62
     7
370
     9
100
AcDbLine
 10
9.999999999383363
 20
289.9999999996711
 30
0.0
 11
9.99999999937188
 21
-90.00000000032884
 31
0.0
  0
ELLIPSE
  5
6499
330
A
100
AcDbEntity
  8
0
  6
________________
 62
   253
370
     9
100
AcDbEllipse
 10
8.99999999937188
 20
-90.00000000032907
 30
0.0
 11
-1.000000000000001
 21
0.0
 31
0.0
210
0.0
220
0.0
230
1.0
 40
0.1790541379012854
 41
1.570796326794869
 42
3.141592653589708
  0
ELLIPSE
  5
649A
330
A
100
AcDbEntity
  8
0
  6
________________
 62
   253
370
     9
100
AcDbEllipse
 10
8.999999999383363
 20
289.9999999996709
 30
0.0
 11
1.000000000000001
 21
0.0
 31
0.0
210
0.0
220
0.0
230
1.0
 40
0.179054137772639
 41
0.0
 42
1.570796326794841
  0
ARC
  5
649B
330
A
100
AcDbEntity
  8
0
  6
________________
 62
     7
370
     9
100
AcDbCircle
 10
-0.0001510435852188
 20
289.9998489555791
 30
0.0
 40
10.00015104534252
210
0.0
220
0.0
230
-1.0
100
AcDbArc
 50
0.0008654058298375
 51
89.99913459354487
  0
LINE
  5
649C
330
A
100
AcDbEntity
  8
0
  6
________________
 62
   253
370
     9
100
AcDbLine
 10
-0.0000000006162972
 20
299.9999999997809
 30
0.0
 11
-0.0000000006164109
 21
299.1875356493459
 31
0.0
  0
ARC
  5
649D
330
A
100
AcDbEntity
  8
0
  6
________________
 62
     7
370
     9
100
AcDbCircle
 10
0.0001510447158362
 20
-89.99984895613136
 30
0.0
 40
10.00015104522842
210
0.0
220
0.0
230
-1.0
100
AcDbArc
 50
180.0008654064336
 51
269.9991345941982
  0
LINE
  5
649E
330
A
100
AcDbEntity
  8
0
  6
________________
 62
   253
370
     9
100
AcDbLine
 10
-0.000000000628348
 20
-99.18753564991255
 30
0.0
 11
-0.000000000628348
 21
-100.0000000002191
 31
0.0
  0
ARC
  5
649F
330
A
100
AcDbEntity
  8
0
  6
________________
 62
     7
370
     9
100
AcDbCircle
 10
0.0000767405977067
 20
289.9999232597999
 30
0.0
 40
10.00007674027549
210
0.0
220
0.0
230
-1.0
100
AcDbArc
 50
90.00043968433133
 51
179.9995603163012
  0
ARC
  5
64A0
330
A
100
AcDbEntity
  8
0
  6
________________
 62
     7
370
     9
100
AcDbCircle
 10
-0.0000767392410799
 20
-89.9999232603499
 30
0.0
 40
10.00007674016361
210
0.0
220
0.0
230
-1.0
100
AcDbArc
 50
270.0004396836898
 51
359.999560315685
  0
LINE
  5
64A1
330
A
100
AcDbEntity
  8
0
  6
________________
 62
     7
370
     9
100
AcDbLine
 10
-10.00000000062528
 20
1.869903126157226
 30
0.0
 11
-10.07964209080046
 21
1.700000000450189
 31
0.0
  0
LINE
  5
64A2
330
A
100
AcDbEntity
  8
0
  6
________________
 62
     7
370
     9
100
AcDbLine
 10
-10.07964209080046
 20
-1.69999999954976
 30
0.0
 11
-10.00000000062539
 21
-1.86990312525657
 31
0.0
  0
LWPOLYLINE
  5
6511
330
A
100
AcDbEntity
  8
0
  6
_..__..__..__.._
 62
   253
370
     9
100
AcDbPolyline
 90
        9
 70
     0
 43
0.0
 10
9.041761374165844
 20
26.54747605277868
 42
0.0603801568779126
 10
9.168791788159865
 20
25.50045380368027
 10
9.221336098725487
 20
25.36363432206377
 10
9.309534948032365
 20
25.21736303102722
 10
9.41928335519765
 20
25.10979074535345
 10
9.549727968828847
 20
25.03937258937736
 10
9.701090683737903
 20
25.00434528430793
 10
9.711942100360375
 20
25.00325681164833
 10
9.711942100360375
 20
25.00325681164833
  0
LINE
  5
6512
330
A
100
AcDbEntity
  8
0
  6
_..__..__..__.._
 62
   253
370
     9
100
AcDbLine
 10
9.711942100360375
 20
25.00325681164833
 30
0.0
 11
9.783965756265843
 21
24.99999999956441
 31
0.0
  0
LINE
  5
6514
330
A
100
AcDbEntity
  8
0
  6
_..__..__..__.._
 62
   253
370
     9
100
AcDbLine
 10
9.020893447826438
 20
27.50502544087141
 30
0.0
 11
9.041761374165844
 21
26.54747605277868
 31
0.0
  0
LINE
  5
6515
330
A
100
AcDbEntity
  8
0
  6
_..__..__..__.._
 62
   253
370
     9
100
AcDbLine
 10
9.783995929792013
 20
24.99999999956441
 30
0.0
 11
9.976325091733997
 21
25.01585790156349
 31
0.0
  0
LINE
  5
6516
330
A
100
AcDbEntity
  8
0
  6
_..__..__..__.._
 62
   253
370
     9
100
AcDbLine
 10
9.976325091733997
 20
25.01585790156349
 30
0.0
 11
10.00000000000944
 21
25.01926469207928
 31
0.0
  0
LWPOLYLINE
  5
6518
330
A
100
AcDbEntity
  8
0
  6
_..__..__..__.._
 62
   253
370
     9
100
AcDbPolyline
 90
        9
 70
     0
 43
0.0
 10
9.041810571806764
 20
26.54622728542432
 42
0.0603505574747818
 10
9.168791788131898
 20
25.50045380368027
 10
9.221336098697407
 20
25.36363432206377
 10
9.309534948004284
 20
25.21736303102722
 10
9.419283355169568
 20
25.10979074535345
 10
9.54972796880088
 20
25.03937258937736
 10
9.701090683709822
 20
25.00434528430793
 10
9.783965756237762
 20
24.99999999956441
 10
9.783965756237762
 20
24.99999999956441
210
0.0
220
0.0
230
-1.0
  0
LINE
  5
651A
330
A
100
AcDbEntity
  8
0
  6
_..__..__..__.._
 62
   253
370
     9
100
AcDbLine
 10
-9.020893448943639
 20
27.50502534024832
 30
0.0
 11
-9.041810571806764
 21
26.54622728542432
 31
0.0
  0
LINE
  5
651B
330
A
100
AcDbEntity
  8
0
  6
_..__..__..__.._
 62
   253
370
     9
100
AcDbLine
 10
-9.783995929764046
 20
24.99999999956441
 30
0.0
 11
-9.976325091759009
 21
25.015857901571
 31
0.0
  0
LINE
  5
651C
330
A
100
AcDbEntity
  8
0
  6
_..__..__..__.._
 62
   253
370
     9
100
AcDbLine
 10
-9.976325091759009
 20
25.015857901571
 30
0.0
 11
-9.999999999981355
 21
25.01926469207928
 31
0.0
  0
LINE
  5
6532
330
A
100
AcDbEntity
  8
0
  6
_..__..__..__.._
 62
   253
370
     9
100
AcDbLine
 10
9.041707708539661
 20
26.54485431116717
 30
0.0
 11
9.042307721375778
 21
61.82206188540825
 31
0.0
  0
LINE
  5
6533
330
A
100
AcDbEntity
  8
0
  6
_..__..__..__.._
 62
   253
370
     9
100
AcDbLine
 10
9.04258407501402
 20
137.9339860352636
 30
0.0
 11
9.041810571815745
 21
173.4537727141727
 31
0.0
  0
LWPOLYLINE
  5
6535
330
A
100
AcDbEntity
  8
0
  6
_..__..__..__.._
 62
   253
370
     9
100
AcDbPolyline
 90
        8
 70
     0
 43
0.0
 10
-9.723004265403006
 20
25.00000000046128
 10
-9.620864705258327
 20
25.01559478751307
 10
-9.481782488195108
 20
25.06777652802924
 10
-9.360372811420916
 20
25.15770815175205
 10
-9.268288691093971
 20
25.27390920678789
 10
-9.215112060322099
 20
25.37454709291154
 10
-9.215112060322099
 20
25.37454709291154
 42
0.0865241428812526
 10
-9.041707708539661
 20
26.54485431116717
210
0.0
220
0.0
230
-1.0
  0
LINE
  5
6536
330
A
100
AcDbEntity
  8
0
  6
_..__..__..__.._
 62
   253
370
     9
100
AcDbLine
 10
9.723004265402892
 20
25.00000000046208
 30
0.0
 11
9.850144610870188
 21
25.00000000048493
 31
0.0
  0
LINE
  5
6537
330
A
100
AcDbEntity
  8
0
  6
_..__..__..__.._
 62
   253
370
     9
100
AcDbLine
 10
9.99999999998795
 20
25.01692731336306
 30
0.0
 11
9.850144610870302
 21
25.00000000048516
 31
0.0
  0
LINE
  5
6539
330
A
100
AcDbEntity
  8
0
  6
_..__..__..__.._
 62
   253
370
     9
100
AcDbLine
 10
-9.041771397798584
 20
26.54323653777971
 30
0.0
 11
-9.042301744886913
 21
61.81771701668863
 31
0.0
  0
LINE
  5
653A
330
A
100
AcDbEntity
  8
0
  6
_..__..__..__.._
 62
   253
370
     9
100
AcDbLine
 10
-9.042590518037287
 20
137.9292896126021
 30
0.0
 11
-9.041761374162093
 21
173.4525239468188
 31
0.0
  0
LINE
  5
653B
330
A
100
AcDbEntity
  8
0
  6
_..__..__..__.._
 62
   253
370
     9
100
AcDbLine
 10
-10.00000000001216
 20
25.01692731336362
 30
0.0
 11
-9.850144610894517
 21
25.00000000048584
 31
0.0
  0
LINE
  5
653C
330
A
100
AcDbEntity
  8
0
  6
_..__..__..__.._
 62
   253
370
     9
100
AcDbLine
 10
-9.723004265427107
 20
25.00000000046265
 30
0.0
 11
-9.850144610894404
 21
25.0000000004855
 31
0.0
  0
LWPOLYLINE
  5
653D
330
A
100
AcDbEntity
  8
0
  6
_..__..__..__.._
 62
   253
370
     9
100
AcDbPolyline
 90
        8
 70
     0
 43
0.0
 10
-9.723004265427221
 20
25.00000000046197
 10
-9.620864705282543
 20
25.01559478751363
 10
-9.48178248821921
 20
25.06777652802981
 10
-9.360372811445131
 20
25.15770815175262
 10
-9.268288691118187
 20
25.27390920678846
 10
-9.215112060346314
 20
25.37454709291211
 10
-9.215112060346314
 20
25.37454709291211
 42
0.0864814966630664
 10
-9.041771397798584
 20
26.54323653777971
  0
POLYLINE
  5
653F
330
A
100
AcDbEntity
  8
0
  6
_..__..__..__.._
 62
   253
370
     9
100
AcDb3dPolyline
 66
     1
 10
0.0
 20
0.0
 30
0.0
 70
     8
  0
VERTEX
  5
6540
330
653F
100
AcDbEntity
  8
0
  6
_..__..__..__.._
 62
   253
370
     9
100
AcDbVertex
100
AcDb3dPolylineVertex
 10
9.000001414207873
 20
25.00000000018309
 30
0.0
 70
    32
  0
VERTEX
  5
6541
330
653F
100
AcDbEntity
  8
0
  6
_..__..__..__.._
 62
   253
370
     9
100
AcDbVertex
100
AcDb3dPolylineVertex
 10
9.000000000249656
 20
25.00000000018264
 30
0.0
 70
    32
  0
SEQEND
  5
6542
330
653F
100
AcDbEntity
  8
0
  6
_..__..__..__.._
 62
   253
370
     9
  0
LINE
  5
6543
330
A
100
AcDbEntity
  8
0
  6
_..__..__..__.._
 62
   253
370
     9
100
AcDbLine
 10
9.723004265402892
 20
25.00000000018264
 30
0.0
 11
9.000001423132403
 21
25.00000000018264
 31
0.0
  0
LINE
  5
6544
330
A
100
AcDbEntity
  8
0
  6
_..__..__..__.._
 62
   253
370
     9
100
AcDbLine
 10
-9.723004265427107
 20
25.00000000018321
 30
0.0
 11
-9.000001423156618
 21
25.00000000018321
 31
0.0
  0
POLYLINE
  5
6545
330
A
100
AcDbEntity
  8
0
  6
_..__..__..__.._
 62
   253
370
     9
100
AcDb3dPolyline
 66
     1
 10
0.0
 20
0.0
 30
0.0
 70
     8
  0
VERTEX
  5
6546
330
6545
100
AcDbEntity
  8
0
  6
_..__..__..__.._
 62
   253
370
     9
100
AcDbVertex
100
AcDb3dPolylineVertex
 10
-9.000001414232088
 20
25.00000000018355
 30
0.0
 70
    32
  0
VERTEX
  5
6547
330
6545
100
AcDbEntity
  8
0
  6
_..__..__..__.._
 62
   253
370
     9
100
AcDbVertex
100
AcDb3dPolylineVertex
 10
-9.000000000273758
 20
25.00000000018321
 30
0.0
 70
    32
  0
SEQEND
  5
6548
330
6545
100
AcDbEntity
  8
0
  6
_..__..__..__.._
 62
   253
370
     9
  0
LINE
  5
6549
330
A
100
AcDbEntity
  8
0
  6
_..__..__..__.._
 62
   253
370
     9
100
AcDbLine
 10
9.000000000249656
 20
25.00000000018264
 30
0.0
 11
9.720248424979673
 21
25.00000000438018
 31
0.0
  0
LINE
  5
654A
330
A
100
AcDbEntity
  8
0
  6
_..__..__..__.._
 62
   253
370
     9
100
AcDbLine
 10
9.720248424979559
 20
25.00000000438018
 30
0.0
 11
9.8484537357225
 21
25.00000000431027
 31
0.0
  0
LINE
  5
654B
330
A
100
AcDbEntity
  8
0
  6
_..__..__..__.._
 62
   253
370
     9
100
AcDbLine
 10
9.8484537357225
 20
25.00000000431027
 30
0.0
 11
9.999999993449592
 21
25.00000000422989
 31
0.0
  0
LINE
  5
654C
330
A
100
AcDbEntity
  8
0
  6
_..__..__..__.._
 62
   253
370
     9
100
AcDbLine
 10
-9.000000000273758
 20
25.00000000018321
 30
0.0
 11
-9.848047899733388
 21
25.00000000431106
 31
0.0
  0
LINE
  5
654D
330
A
100
AcDbEntity
  8
0
  6
_..__..__..__.._
 62
   253
370
     9
100
AcDbLine
 10
-9.848047899733388
 20
25.00000000431106
 30
0.0
 11
-9.999999993473693
 21
25.00000000423057
 31
0.0
  0
LINE
  5
654E
330
A
100
AcDbEntity
  8
0
  6
_..__..__..__.._
 62
   253
370
     9
100
AcDbLine
 10
9.99999999998795
 20
25.00000000018264
 30
0.0
 11
9.850144610870302
 21
25.00000000018264
 31
0.0
  0
LINE
  5
654F
330
A
100
AcDbEntity
  8
0
  6
_..__..__..__.._
 62
   253
370
     9
100
AcDbLine
 10
-10.00000000001216
 20
25.00000000018321
 30
0.0
 11
-9.850144610894517
 21
25.00000000018321
 31
0.0
  0
LINE
  5
65C6
330
A
100
AcDbEntity
  8
0
  6
_..__..__..__.._
 62
   253
370
     9
100
AcDbLine
 10
9.042080987225404
 20
173.4254143874299
 30
0.0
 11
9.04204798090484
 21
138.155049445059
 31
0.0
  0
LINE
  5
65C7
330
A
100
AcDbEntity
  8
0
  6
_..__..__..__.._
 62
   253
370
     9
100
AcDbLine
 10
9.042054760673864
 20
61.85894759178048
 30
0.0
 11
9.042081783672302
 21
26.57174733038966
 31
0.0
  0
LINE
  5
65C8
330
A
100
AcDbEntity
  8
0
  6
_..__..__..__.._
 62
   253
370
     9
100
AcDbLine
 10
-9.042081495761977
 20
26.57286786482683
 30
0.0
 11
-9.042048846863736
 21
61.85083883612806
 31
0.0
  0
LINE
  5
65C9
330
A
100
AcDbEntity
  8
0
  6
_..__..__..__.._
 62
   253
370
     9
100
AcDbLine
 10
-9.042053814472297
 20
138.1425531322686
 30
0.0
 11
-9.042081362073873
 21
173.4260851623968
 31
0.0
  0
LINE
  5
65CA
330
A
100
AcDbEntity
  8
0
  6
_..__..__..__.._
 62
   253
370
     9
100
AcDbLine
 10
9.042081495770958
 20
173.4271321347707
 30
0.0
 11
9.042081362078534
 21
26.57391483720056
 31
0.0
  0
LINE
  5
65CB
330
A
100
AcDbEntity
  8
0
  6
_..__..__..__.._
 62
   253
370
     9
100
AcDbLine
 10
-9.0420809872262
 20
26.57458561216816
 30
0.0
 11
-9.04208178366855
 21
173.4282526692085
 31
0.0
  0
LINE
  5
65CC
330
A
100
AcDbEntity
  8
0
  6
_..__..__..__.._
 62
   253
370
     9
100
AcDbLine
 10
8.999999999992383
 20
175.0000000001827
 30
0.0
 11
8.99999999998795
 21
25.00000000018264
 31
0.0
  0
LINE
  5
65CD
330
A
100
AcDbEntity
  8
0
  6
_..__..__..__.._
 62
   253
370
     9
100
AcDbLine
 10
-9.000000000012164
 20
25.00000000018321
 30
0.0
 11
-9.000000000007617
 21
175.0000000001831
 31
0.0
  0
ARC
  5
65CE
330
A
100
AcDbEntity
  8
0
  6
_..__..__..__.._
 62
   253
370
     9
100
AcDbCircle
 10
21.99999999998795
 20
25.00000000018218
 30
0.0
 40
13.00000000000001
100
AcDbArc
 50
180.0000000000245
 51
202.6180837771019
  0
ARC
  5
65CF
330
A
100
AcDbEntity
  8
0
  6
_..__..__..__.._
 62
   253
370
     9
100
AcDbCircle
 10
-22.00000000001205
 20
25.00000000018355
 30
0.0
 40
13.0
100
AcDbArc
 50
337.381957315579
 51
359.9999999999985
  0
CIRCLE
  5
65F7
330
A
100
AcDbEntity
  8
0
  6
CENTER
 62
     1
100
AcDbCircle
 10
-0.0000000000127311
 20
-0.0000000004920082
 30
0.0
 40
7.0
  0
LINE
  5
6604
330
A
100
AcDbEntity
  8
0
  6
CENTER
 62
     1
100
AcDbLine
 10
-0.0000000000127338
 20
188.799999999508
 30
0.0
 11
-0.0000000000127338
 21
211.199999999508
 31
0.0
  0
LINE
  5
6605
330
A
100
AcDbEntity
  8
0
  6
CENTER
 62
     1
100
AcDbLine
 10
-11.20000000001278
 20
199.999999999508
 30
0.0
 11
12.00000000001364
 21
199.999999999508
 31
0.0
  0
LINE
  5
6606
330
A
100
AcDbEntity
  8
0
  6
________________
 62
     7
370
     9
100
AcDbLine
 10
-10.07964209080046
 20
201.7000000004502
 30
0.0
 11
-10.07964209080046
 21
201.6936942622744
 31
0.0
  0
LINE
  5
6607
330
A
100
AcDbEntity
  8
0
  6
________________
 62
     7
370
     9
100
AcDbLine
 10
-10.07964209080046
 20
201.6936942622744
 30
0.0
 11
-10.07964209080046
 21
198.3000000004502
 31
0.0
  0
LINE
  5
6608
330
A
100
AcDbEntity
  8
0
  6
________________
 62
     7
370
     9
100
AcDbLine
 10
-10.00000000062528
 20
201.8699031261572
 30
0.0
 11
-10.07964209080046
 21
201.7000000004502
 31
0.0
  0
LINE
  5
6609
330
A
100
AcDbEntity
  8
0
  6
________________
 62
     7
370
     9
100
AcDbLine
 10
-10.07964209080046
 20
198.3000000004502
 30
0.0
 11
-10.00000000062539
 21
198.1300968747434
 31
0.0
  0
CIRCLE
  5
660A
330
A
100
AcDbEntity
  8
0
  6
CENTER
 62
     1
100
AcDbCircle
 10
-0.0000000000127311
 20
199.999999999508
 30
0.0
 40
7.0
  0
LINE
  5
660B
330
A
100
AcDbEntity
  8
0
  6
CENTER
 62
     1
100
AcDbLine
 10
-120.890199296938
 20
199.999999999508
 30
0.0
 11
-97.69019929691156
 21
199.999999999508
 31
0.0
  0
LINE
  5
660C
330
A
100
AcDbEntity
  8
0
  6
CENTER
 62
     1
100
AcDbLine
 10
-120.890199296938
 20
-0.0000000004920082
 30
0.0
 11
-97.69019929691156
 21
-0.0000000004920082
 31
0.0
  0
LINE
  5
660E
330
A
100
AcDbEntity
  8
0
  6
CENTER
 62
     1
100
AcDbLine
 10
-141.4860703306085
 20
-159.9999888859684
 30
0.0
 11
-78.09393719871443
 21
-159.9999888859684
 31
0.0
  0
ENDSEC
  0
SECTION
  2
OBJECTS
  0
DICTIONARY
  5
19
330
0
100
AcDbDictionary
281
     1
  3
ACAD_GROUP
350
1A
  3
ACAD_IMAGE_VARS
350
63A6
  3
ACAD_LAYOUT
350
63B2
  3
ACAD_MLINESTYLE
350
1B
  3
ACAD_PLOTSETTINGS
350
63B7
  3
ACAD_PLOTSTYLENAME
350
63B8
  3
ACAD_SCALELIST
350
3179
  3
ACAD_WIPEOUT_VARS
350
23
  3
ACDB_RECOMPOSE_DATA
350
630A
  3
ACDBVARIABLEDICTIONARY
350
630B
  3
APPDATA
350
63A5
  3
ASE_INDEX_DICTIONARY
350
5E44
  3
DWGPROPS
350
6610
  0
DICTIONARY
  5
5E41
330
14
100
AcDbDictionary
280
     1
281
     1
  3
ADSK_XREC_LAYER_RECONCILED
360
5E42
  0
DICTIONARY
  5
31A7
330
A
100
AcDbDictionary
280
     1
281
     1
  3
ACAD_SORTENTS
360
31A8
  0
DICTIONARY
  5
1A
102
{ACAD_REACTORS
330
19
102
}
330
19
100
AcDbDictionary
281
     1
  0
RASTERVARIABLES
  5
63A6
102
{ACAD_REACTORS
330
19
102
}
330
19
100
AcDbRasterVariables
 90
        0
 70
     1
 71
     1
 72
     0
  0
DICTIONARY
  5
63B2
102
{ACAD_REACTORS
330
19
102
}
330
19
100
AcDbDictionary
281
     1
  3
Model
350
63B3
  3
Sheet1
350
63B4
  0
DICTIONARY
  5
1B
102
{ACAD_REACTORS
330
19
102
}
330
19
100
AcDbDictionary
281
     1
  3
STANDARD
350
1C
  0
DICTIONARY
  5
63B7
102
{ACAD_REACTORS
330
19
102
}
330
19
100
AcDbDictionary
281
     1
  0
ACDBDICTIONARYWDFLT
  5
63B8
102
{ACAD_REACTORS
330
19
102
}
330
19
100
AcDbDictionary
281
     1
  3
Normal
350
63B9
100
AcDbDictionaryWithDefault
340
63B9
  0
DICTIONARY
  5
3179
102
{ACAD_REACTORS
330
19
102
}
330
19
100
AcDbDictionary
281
     1
  0
WIPEOUTVARIABLES
  5
23
330
19
100
AcDbWipeoutVariables
 70
     1
  0
XRECORD
  5
630A
102
{ACAD_REACTORS
330
19
102
}
330
19
100
AcDbXrecord
280
     1
 90
        1
330
0
  0
DICTIONARY
  5
630B
102
{ACAD_REACTORS
330
19
102
}
330
19
100
AcDbDictionary
281
     1
  3
DIMASSOC
350
6318
  3
INDEXCTL
350
6317
  3
SORTENTS
350
6316
  0
DICTIONARY
  5
63A5
102
{ACAD_REACTORS
330
19
102
}
330
19
100
AcDbDictionary
281
     1
  0
DICTIONARY
  5
5E44
102
{ACAD_REACTORS
330
19
102
}
330
19
100
AcDbDictionary
281
     1
  3
ASEBLOCKHIERARCHYINDEXRECORD
350
5E46
1001
DCO15
1040
1685075681.336
  0
XRECORD
  5
6610
102
{ACAD_REACTORS
330
19
102
}
330
19
100
AcDbXrecord
280
     1
  1
DWGPROPS COOKIE
  2

  3

  4

  6

  7

  8
renzo.ceresoli
  9

300
=
301
=
302
=
303
=
304
=
305
=
306
=
307
=
308
=
309
=
 40
0.0
 41
2455303.644583322
 42
2455306.337819896
  1

 90
        0
  0
XRECORD
  5
5E42
102
{ACAD_REACTORS
330
5E41
102
}
330
5E41
100
AcDbXrecord
280
     1
290
     1
  0
SORTENTSTABLE
  5
31A8
102
{ACAD_REACTORS
330
31A7
102
}
330
31A7
100
AcDbSortentsTable
330
A
331
0
  5
3F1D
  0
LAYOUT
  5
63B3
102
{ACAD_REACTORS
330
63B2
102
}
330
63B2
100
AcDbPlotSettings
  1

  2
none_device
  4

  6

 40
0.0
 41
0.0
 42
0.0
 43
0.0
 44
0.0
 45
0.0
 46
0.0
 47
0.0
 48
0.0
 49
0.0
140
0.0
141
0.0
142
1.0
143
1.0
 70
   688
 72
     0
 73
     0
 74
     5
  7

 75
    16
147
1.0
148
0.0
149
0.0
100
AcDbLayout
  1
Model
 70
     1
 71
     0
 10
0.0
 20
0.0
 11
0.0
 21
0.0
 12
0.0
 22
0.0
 32
0.0
 14
0.0
 24
0.0
 34
0.0
 15
0.0
 25
0.0
 35
0.0
146
0.0
 13
0.0
 23
0.0
 33
0.0
 16
1.0
 26
0.0
 36
0.0
 17
0.0
 27
1.0
 37
0.0
 76
     0
330
A
331
15
  0
LAYOUT
  5
63B4
102
{ACAD_REACTORS
330
63B2
102
}
330
63B2
100
AcDbPlotSettings
  1

  2
none_device
  4

  6

 40
0.0
 41
0.0
 42
0.0
 43
0.0
 44
0.0
 45
0.0
 46
0.0
 47
0.0
 48
0.0
 49
0.0
140
0.0
141
0.0
142
1.0
143
1.0
 70
   688
 72
     0
 73
     0
 74
     5
  7

 75
    16
147
1.0
148
0.0
149
0.0
100
AcDbLayout
  1
Sheet1
 70
     1
 71
     1
 10
0.0
 20
0.0
 11
0.0
 21
0.0
 12
0.0
 22
0.0
 32
0.0
 14
0.0
 24
0.0
 34
0.0
 15
0.0
 25
0.0
 35
0.0
146
0.0
 13
0.0
 23
0.0
 33
0.0
 16
1.0
 26
0.0
 36
0.0
 17
0.0
 27
1.0
 37
0.0
 76
     0
330
B
  0
MLINESTYLE
  5
1C
102
{ACAD_REACTORS
330
1B
102
}
330
1B
100
AcDbMlineStyle
  2
STANDARD
 70
     0
  3

 62
     0
 51
90.0
 52
90.0
 71
     2
 49
0.5
 62
   256
  6
BYLAYER
 49
-0.5
 62
   256
  6
BYLAYER
  0
ACDBPLACEHOLDER
  5
63B9
102
{ACAD_REACTORS
330
63B8
102
}
330
63B8
  0
DICTIONARYVAR
  5
6318
102
{ACAD_REACTORS
330
630B
102
}
330
630B
100
DictionaryVariables
280
     0
  1
1
  0
DICTIONARYVAR
  5
6317
102
{ACAD_REACTORS
330
630B
102
}
330
630B
100
DictionaryVariables
280
     0
  1
0
  0
DICTIONARYVAR
  5
6316
102
{ACAD_REACTORS
330
630B
102
}
330
630B
100
DictionaryVariables
280
     0
  1
127
  0
XRECORD
  5
5E46
102
{ACAD_REACTORS
330
5E44
102
}
330
5E44
100
AcDbXrecord
280
     1
  0
ENDSEC
  0
EOF
