  0
SECTION
  2
HEADER
  9
$ACADVER
  1
AC1015
  9
$ACADMAINTVER
 70
     6
  9
$DWGCODEPAGE
  3
ANSI_1252
  9
$INSBASE
 10
0.0
 20
0.0
 30
0.0
  9
$EXTMIN
 10
-127.6497333486313
 20
-132.4064025480256
 30
-0.0000000000000082
  9
$EXTMAX
 10
114.1855743979531
 20
105.9098028727576
 30
0.0000000000000071
  9
$LIMMIN
 10
-66.34999999999982
 20
-2008.85
  9
$LIMMAX
 10
3734.350000000001
 20
346.85
  9
$ORTHOMODE
 70
     0
  9
$REGENMODE
 70
     1
  9
$FILLMODE
 70
     1
  9
$QTEXTMODE
 70
     0
  9
$MIRRTEXT
 70
     1
  9
$LTSCALE
 40
10.0
  9
$ATTMODE
 70
     1
  9
$TEXTSIZE
 40
0.2
  9
$TRACEWID
 40
0.05
  9
$TEXTSTYLE
  7
STANDARD
  9
$CLAYER
  8
0
  9
$CELTYPE
  6
CONTINUOUS
  9
$CECOLOR
 62
   256
  9
$CELTSCALE
 40
1.0
  9
$DISPSILH
 70
     0
  9
$DIMSCALE
 40
1.0
  9
$DIMASZ
 40
1.25
  9
$DIMEXO
 40
0.0
  9
$DIMDLI
 40
0.38
  9
$DIMRND
 40
0.0
  9
$DIMDLE
 40
0.0
  9
$DIMEXE
 40
0.75
  9
$DIMTP
 40
0.0
  9
$DIMTM
 40
0.0
  9
$DIMTXT
 40
2.5
  9
$DIMCEN
 40
0.09
  9
$DIMTSZ
 40
0.0
  9
$DIMTOL
 70
     0
  9
$DIMLIM
 70
     0
  9
$DIMTIH
 70
     0
  9
$DIMTOH
 70
     0
  9
$DIMSE1
 70
     0
  9
$DIMSE2
 70
     0
  9
$DIMTAD
 70
     1
  9
$DIMZIN
 70
     0
  9
$DIMBLK
  1

  9
$DIMASO
 70
     1
  9
$DIMSHO
 70
     1
  9
$DIMPOST
  1

  9
$DIMAPOST
  1

  9
$DIMALT
 70
     0
  9
$DIMALTD
 70
     2
  9
$DIMALTF
 40
25.4
  9
$DIMLFAC
 40
1.0
  9
$DIMTOFL
 70
     0
  9
$DIMTVP
 40
0.0
  9
$DIMTIX
 70
     0
  9
$DIMSOXD
 70
     0
  9
$DIMSAH
 70
     0
  9
$DIMBLK1
  1

  9
$DIMBLK2
  1

  9
$DIMSTYLE
  2
STANDARD
  9
$DIMCLRD
 70
     7
  9
$DIMCLRE
 70
     7
  9
$DIMCLRT
 70
     7
  9
$DIMTFAC
 40
0.8
  9
$DIMGAP
 40
1.25
  9
$DIMJUST
 70
     0
  9
$DIMSD1
 70
     0
  9
$DIMSD2
 70
     0
  9
$DIMTOLJ
 70
     1
  9
$DIMTZIN
 70
     0
  9
$DIMALTZ
 70
     0
  9
$DIMALTTZ
 70
     0
  9
$DIMUPT
 70
     0
  9
$DIMDEC
 70
     2
  9
$DIMTDEC
 70
     4
  9
$DIMALTU
 70
     2
  9
$DIMALTTD
 70
     2
  9
$DIMTXSTY
  7
STANDARD
  9
$DIMAUNIT
 70
     0
  9
$DIMADEC
 70
     0
  9
$DIMALTRND
 40
0.0
  9
$DIMAZIN
 70
     0
  9
$DIMDSEP
 70
    46
  9
$DIMATFIT
 70
     3
  9
$DIMFRAC
 70
     0
  9
$DIMLDRBLK
  1

  9
$DIMLUNIT
 70
     2
  9
$DIMLWD
 70
    -2
  9
$DIMLWE
 70
    -2
  9
$DIMTMOVE
 70
     0
  9
$LUNITS
 70
     2
  9
$LUPREC
 70
     4
  9
$SKETCHINC
 40
0.1
  9
$FILLETRAD
 40
0.0
  9
$AUNITS
 70
     0
  9
$AUPREC
 70
     0
  9
$MENU
  1
acad
  9
$ELEVATION
 40
0.0
  9
$PELEVATION
 40
0.0
  9
$THICKNESS
 40
0.0
  9
$LIMCHECK
 70
     0
  9
$CHAMFERA
 40
0.0
  9
$CHAMFERB
 40
0.0
  9
$CHAMFERC
 40
0.0
  9
$CHAMFERD
 40
0.0
  9
$SKPOLY
 70
     0
  9
$TDCREATE
 40
2455303.727916655
  9
$TDUCREATE
 40
2455303.644583322
  9
$TDUPDATE
 40
2455306.421153229
  9
$TDUUPDATE
 40
2455306.337819896
  9
$TDINDWG
 40
0.0026100116
  9
$TDUSRTIMER
 40
2455826.506415313
  9
$USRTIMER
 70
     1
  9
$ANGBASE
 50
0.0
  9
$ANGDIR
 70
     0
  9
$PDMODE
 70
     0
  9
$PDSIZE
 40
0.0
  9
$PLINEWID
 40
0.0
  9
$SPLFRAME
 70
     0
  9
$SPLINETYPE
 70
     6
  9
$SPLINESEGS
 70
     8
  9
$HANDSEED
  5
660F
  9
$SURFTAB1
 70
     6
  9
$SURFTAB2
 70
     6
  9
$SURFTYPE
 70
     6
  9
$SURFU
 70
     6
  9
$SURFV
 70
     6
  9
$UCSBASE
  2

  9
$UCSNAME
  2

  9
$UCSORG
 10
0.0
 20
0.0
 30
0.0
  9
$UCSXDIR
 10
1.0
 20
0.0
 30
0.0
  9
$UCSYDIR
 10
0.0
 20
1.0
 30
0.0
  9
$UCSORTHOREF
  2

  9
$UCSORTHOVIEW
 70
     0
  9
$UCSORGTOP
 10
0.0
 20
0.0
 30
0.0
  9
$UCSORGBOTTOM
 10
0.0
 20
0.0
 30
0.0
  9
$UCSORGLEFT
 10
0.0
 20
0.0
 30
0.0
  9
$UCSORGRIGHT
 10
0.0
 20
0.0
 30
0.0
  9
$UCSORGFRONT
 10
0.0
 20
0.0
 30
0.0
  9
$UCSORGBACK
 10
0.0
 20
0.0
 30
0.0
  9
$PUCSBASE
  2

  9
$PUCSNAME
  2

  9
$PUCSORG
 10
0.0
 20
0.0
 30
0.0
  9
$PUCSXDIR
 10
1.0
 20
0.0
 30
0.0
  9
$PUCSYDIR
 10
0.0
 20
1.0
 30
0.0
  9
$PUCSORTHOREF
  2

  9
$PUCSORTHOVIEW
 70
     0
  9
$PUCSORGTOP
 10
0.0
 20
0.0
 30
0.0
  9
$PUCSORGBOTTOM
 10
0.0
 20
0.0
 30
0.0
  9
$PUCSORGLEFT
 10
0.0
 20
0.0
 30
0.0
  9
$PUCSORGRIGHT
 10
0.0
 20
0.0
 30
0.0
  9
$PUCSORGFRONT
 10
0.0
 20
0.0
 30
0.0
  9
$PUCSORGBACK
 10
0.0
 20
0.0
 30
0.0
  9
$USERI1
 70
     0
  9
$USERI2
 70
     0
  9
$USERI3
 70
     0
  9
$USERI4
 70
     0
  9
$USERI5
 70
     0
  9
$USERR1
 40
0.0
  9
$USERR2
 40
0.0
  9
$USERR3
 40
0.0
  9
$USERR4
 40
0.0
  9
$USERR5
 40
0.0
  9
$WORLDVIEW
 70
     1
  9
$SHADEDGE
 70
     3
  9
$SHADEDIF
 70
    70
  9
$TILEMODE
 70
     1
  9
$MAXACTVP
 70
    16
  9
$PINSBASE
 10
0.0
 20
0.0
 30
0.0
  9
$PLIMCHECK
 70
     0
  9
$PEXTMIN
 10
1.000000000000000E+20
 20
1.000000000000000E+20
 30
1.000000000000000E+20
  9
$PEXTMAX
 10
-1.000000000000000E+20
 20
-1.000000000000000E+20
 30
-1.000000000000000E+20
  9
$PLIMMIN
 10
0.0
 20
0.0
  9
$PLIMMAX
 10
12.0
 20
9.0
  9
$UNITMODE
 70
     0
  9
$VISRETAIN
 70
     0
  9
$PLINEGEN
 70
     1
  9
$PSLTSCALE
 70
     0
  9
$TREEDEPTH
 70
  3020
  9
$CMLSTYLE
  2
STANDARD
  9
$CMLJUST
 70
     0
  9
$CMLSCALE
 40
1.0
  9
$PROXYGRAPHICS
 70
     0
  9
$MEASUREMENT
 70
     1
  9
$CELWEIGHT
370
    -1
  9
$ENDCAPS
280
     0
  9
$JOINSTYLE
280
     0
  9
$LWDISPLAY
290
     0
  9
$INSUNITS
 70
     0
  9
$HYPERLINKBASE
  1

  9
$STYLESHEET
  1

  9
$XEDIT
290
     1
  9
$CEPSNTYPE
380
     0
  9
$PSTYLEMODE
290
     1
  9
$FINGERPRINTGUID
  2
{AAAA7F79-7AD8-4CDA-B726-323DE0B6BCCB}
  9
$VERSIONGUID
  2
{FAEB1C32-E019-11D5-929B-00C0DF256EC4}
  9
$EXTNAMES
290
     1
  9
$PSVPSCALE
 40
0.0
  9
$OLESTARTUP
290
     0
  0
ENDSEC
  0
SECTION
  2
CLASSES
  0
CLASS
  1
IMAGE
  2
AcDbRasterImage
  3
ISM
 90
      127
280
     0
281
     1
  0
CLASS
  1
DICTIONARYVAR
  2
AcDbDictionaryVar
  3
ObjectDBX Classes
 90
        0
280
     0
281
     0
  0
CLASS
  1
RASTERVARIABLES
  2
AcDbRasterVariables
  3
ISM
 90
        0
280
     0
281
     0
  0
CLASS
  1
IMAGEDEF
  2
AcDbRasterImageDef
  3
ISM
 90
        0
280
     0
281
     0
  0
CLASS
  1
IMAGEDEF_REACTOR
  2
AcDbRasterImageDefReactor
  3
ISM
 90
        1
280
     0
281
     0
  0
CLASS
  1
IDBUFFER
  2
AcDbIdBuffer
  3
ObjectDBX Classes
 90
        0
280
     0
281
     0
  0
CLASS
  1
SPATIAL_FILTER
  2
AcDbSpatialFilter
  3
ObjectDBX Classes
 90
        0
280
     0
281
     0
  0
CLASS
  1
SORTENTSTABLE
  2
AcDbSortentsTable
  3
ObjectDBX Classes
 90
        0
280
     0
281
     0
  0
CLASS
  1
LAYER_INDEX
  2
AcDbLayerIndex
  3
ObjectDBX Classes
 90
        0
280
     0
281
     0
  0
CLASS
  1
SPATIAL_INDEX
  2
AcDbSpatialIndex
  3
AutoCAD 2000
 90
        0
280
     0
281
     0
  0
CLASS
  1
OBJECT_PTR
  2
CAseDLPNTableRecord
  3
ASE-LPNTableRecord
 90
        1
280
     0
281
     0
  0
CLASS
  1
LAYOUT
  2
AcDbLayout
  3
ObjectDBX Classes
 90
        0
280
     0
281
     0
  0
CLASS
  1
PLOTSETTINGS
  2
AcDbPlotSettings
  3
ObjectDBX Classes
 90
        0
280
     0
281
     0
  0
CLASS
  1
ACDBDICTIONARYWDFLT
  2
AcDbDictionaryWithDefault
  3
ObjectDBX Classes
 90
        0
280
     0
281
     0
  0
CLASS
  1
ACDBPLACEHOLDER
  2
AcDbPlaceHolder
  3
ObjectDBX Classes
 90
        0
280
     0
281
     0
  0
CLASS
  1
VBA_PROJECT
  2
AcDbVbaProject
  3
ObjectDBX Classes
 90
        0
280
     0
281
     0
  0
CLASS
  1
WIPEOUT
  2
AcDbWipeout
  3
WipeOut|AutoCAD Express Tool|expresstools@autodesk.com
 90
      127
280
     0
281
     1
  0
CLASS
  1
WIPEOUTVARIABLES
  2
AcDbWipeoutVariables
  3
WipeOut|AutoCAD Express Tool|expresstools@autodesk.com
 90
        0
280
     0
281
     0
  0
CLASS
  1
RTEXT
  2
RText
  3
RText|AutoCAD Express Tool|expresstools@autodesk.com
 90
        0
280
     0
281
     1
  0
CLASS
  1
ARCALIGNEDTEXT
  2
AcDbArcAlignedText
  3
ATEXT|AutoCAD Express Tool|expresstools@autodesk.com
 90
        0
280
     0
281
     1
  0
CLASS
  1
MATERIAL
  2
AcDbMaterial
  3
ObjectDBX Classes
 90
     1153
280
     0
281
     0
  0
CLASS
  1
VISUALSTYLE
  2
AcDbVisualStyle
  3
ObjectDBX Classes
 90
     4095
280
     0
281
     0
  0
CLASS
  1
TABLESTYLE
  2
AcDbTableStyle
  3
ObjectDBX Classes
 90
     4095
280
     0
281
     0
  0
CLASS
  1
SCALE
  2
AcDbScale
  3
ObjectDBX Classes
 90
     1153
280
     0
281
     0
  0
CLASS
  1
MLEADERSTYLE
  2
AcDbMLeaderStyle
  3
ACDB_MLEADERSTYLE_CLASS
 90
     4095
280
     0
281
     0
  0
CLASS
  1
CELLSTYLEMAP
  2
AcDbCellStyleMap
  3
ObjectDBX Classes
 90
     1152
280
     0
281
     0
  0
CLASS
  1
XRECORD
  2
AcDbXrecord
  3
AutoCAD 2000
 90
        0
280
     0
281
     0
  0
CLASS
  1
LWPOLYLINE
  2
AcDbPolyline
  3
AutoCAD 2000
 90
        0
280
     0
281
     1
  0
CLASS
  1
HATCH
  2
AcDbHatch
  3
AutoCAD 2000
 90
        0
280
     0
281
     1
  0
ENDSEC
  0
SECTION
  2
TABLES
  0
TABLE
  2
VPORT
  5
7
330
0
100
AcDbSymbolTable
 70
     1
  0
VPORT
  5
15
330
7
100
AcDbSymbolTableRecord
100
AcDbViewportTableRecord
  2
*ACTIVE
 70
     0
 10
0.0
 20
0.0
 11
1.0
 21
1.0
 12
37.2716659758137
 22
4.304254207319858
 13
0.0
 23
0.0
 14
1.0
 24
1.0
 15
0.0
 25
0.0
 16
0.0
 26
0.0
 36
1.0
 17
0.0
 27
0.0
 37
0.0
 40
243.5881927904611
 41
1.626168224299065
 42
50.0
 43
0.0
 44
0.0
 50
0.0
 51
0.0
 71
    16
 72
   100
 73
     1
 74
     1
 75
     0
 76
     0
 77
     0
 78
     0
281
     0
 65
     1
110
0.0
120
0.0
130
0.0
111
1.0
121
0.0
131
0.0
112
0.0
122
1.0
132
0.0
 79
     0
146
0.0
  0
ENDTAB
  0
TABLE
  2
LTYPE
  5
4
330
0
100
AcDbSymbolTable
 70
     4
  0
LTYPE
  5
11
330
4
100
AcDbSymbolTableRecord
100
AcDbLinetypeTableRecord
  2
BYBLOCK
 70
     0
  3

 72
    65
 73
     0
 40
0.0
  0
LTYPE
  5
12
330
4
100
AcDbSymbolTableRecord
100
AcDbLinetypeTableRecord
  2
BYLAYER
 70
     0
  3

 72
    65
 73
     0
 40
0.0
  0
LTYPE
  5
13
330
4
100
AcDbSymbolTableRecord
100
AcDbLinetypeTableRecord
  2
CONTINUOUS
 70
     0
  3
Solid line
 72
    65
 73
     0
 40
0.0
  0
LTYPE
  5
1E4
330
4
100
AcDbSymbolTableRecord
100
AcDbLinetypeTableRecord
  2
CENTER
 70
     0
  3
____ _ ____ _ ____ _ ____ _ ____ _ ____ _ ____
 72
    65
 73
     4
 40
2.0
 49
1.25
 74
     0
 49
-0.25
 74
     0
 49
0.25
 74
     0
 49
-0.25
 74
     0
  0
LTYPE
  5
63BB
330
4
100
AcDbSymbolTableRecord
100
AcDbLinetypeTableRecord
  2
________________
 70
     0
  3

 72
    65
 73
     0
 40
0.0
  0
LTYPE
  5
63D8
330
4
100
AcDbSymbolTableRecord
100
AcDbLinetypeTableRecord
  2
_..__..__..__.._
 70
     0
  3

 72
    65
 73
     2
 40
1.8
 49
0.8999999999999999
 74
     0
 49
-0.8999999999999999
 74
     0
  0
ENDTAB
  0
TABLE
  2
LAYER
  5
2
330
0
100
AcDbSymbolTable
 70
     2
  0
LAYER
  5
14
102
{ACAD_XDICTIONARY
360
5E41
102
}
330
2
100
AcDbSymbolTableRecord
100
AcDbLayerTableRecord
  2
0
 70
     0
 62
     7
  6
CONTINUOUS
370
    -3
390
63B9
  0
LAYER
  5
63F8
330
2
100
AcDbSymbolTableRecord
100
AcDbLayerTableRecord
  2
Defpoints
 70
     0
 62
     7
  6
CONTINUOUS
290
     0
370
    -3
390
63B9
  0
ENDTAB
  0
TABLE
  2
STYLE
  5
3
330
0
100
AcDbSymbolTable
 70
     1
  0
STYLE
  5
17
330
3
100
AcDbSymbolTableRecord
100
AcDbTextStyleTableRecord
  2
STANDARD
 70
     0
 40
0.0
 41
1.0
 50
0.0
 71
     0
 42
0.0
  3
I011000D.TTF
  4

1001
ACAD
1000
IsonormD
1071
        0
  0
ENDTAB
  0
TABLE
  2
VIEW
  5
5
330
0
100
AcDbSymbolTable
 70
     0
  0
ENDTAB
  0
TABLE
  2
UCS
  5
6
330
0
100
AcDbSymbolTable
 70
     0
  0
ENDTAB
  0
TABLE
  2
APPID
  5
8
330
0
100
AcDbSymbolTable
 70
     6
  0
APPID
  5
16
330
8
100
AcDbSymbolTableRecord
100
AcDbRegAppTableRecord
  2
ACAD
 70
     0
  0
APPID
  5
26
330
8
100
AcDbSymbolTableRecord
100
AcDbRegAppTableRecord
  2
TOPSOLID_DRAFT
 70
     0
  0
APPID
  5
319D
330
8
100
AcDbSymbolTableRecord
100
AcDbRegAppTableRecord
  2
ACAD_MLEADERVER
 70
     0
  0
APPID
  5
5E45
330
8
100
AcDbSymbolTableRecord
100
AcDbRegAppTableRecord
  2
DCO15
 70
     0
  0
APPID
  5
6374
330
8
100
AcDbSymbolTableRecord
100
AcDbRegAppTableRecord
  2
ACAD_EXEMPT_FROM_CAD_STAND
 70
     0
  0
APPID
  5
63F7
330
8
100
AcDbSymbolTableRecord
100
AcDbRegAppTableRecord
  2
ACAD_DSTYLE_DIMRADIAL_EXTENSION
 70
     0
  0
ENDTAB
  0
TABLE
  2
DIMSTYLE
  5
9
330
0
100
AcDbSymbolTable
 70
     1
100
AcDbDimStyleTable
  0
DIMSTYLE
105
18
330
9
100
AcDbSymbolTableRecord
100
AcDbDimStyleTableRecord
  2
STANDARD
 70
     0
 41
1.25
 42
0.0
 44
0.75
 73
     0
 74
     0
 77
     1
140
2.5
146
0.8
147
1.25
176
     7
177
     7
178
     7
271
     2
340
17
  0
ENDTAB
  0
TABLE
  2
BLOCK_RECORD
  5
1
330
0
100
AcDbSymbolTable
 70
     4
  0
BLOCK_RECORD
  5
A
102
{ACAD_XDICTIONARY
360
31A7
102
}
330
1
100
AcDbSymbolTableRecord
100
AcDbBlockTableRecord
  2
*MODEL_SPACE
340
63B3
  0
BLOCK_RECORD
  5
B
330
1
100
AcDbSymbolTableRecord
100
AcDbBlockTableRecord
  2
*PAPER_SPACE
340
63B4
  0
BLOCK_RECORD
  5
640D
330
1
100
AcDbSymbolTableRecord
100
AcDbBlockTableRecord
  2
D_FRAME_VIEW@474
340
0
  0
BLOCK_RECORD
  5
646E
330
1
100
AcDbSymbolTableRecord
100
AcDbBlockTableRecord
  2
D_FRAME_VIEW@468
340
0
  0
BLOCK_RECORD
  5
64EA
330
1
100
AcDbSymbolTableRecord
100
AcDbBlockTableRecord
  2
D_FRAME_VIEW@391
340
0
  0
ENDTAB
  0
ENDSEC
  0
SECTION
  2
BLOCKS
  0
BLOCK
  5
D
330
A
100
AcDbEntity
  8
0
100
AcDbBlockBegin
  2
*MODEL_SPACE
 70
     0
 10
0.0
 20
0.0
 30
0.0
  3
*MODEL_SPACE
  1

  0
ENDBLK
  5
E
330
A
100
AcDbEntity
  8
0
100
AcDbBlockEnd
  0
BLOCK
  5
F
330
B
100
AcDbEntity
 67
     1
  8
0
100
AcDbBlockBegin
  2
*PAPER_SPACE
 70
     0
 10
0.0
 20
0.0
 30
0.0
  3
*PAPER_SPACE
  1

  0
ENDBLK
  5
10
330
B
100
AcDbEntity
 67
     1
  8
0
100
AcDbBlockEnd
  0
BLOCK
  5
640E
330
640D
100
AcDbEntity
  8
0
100
AcDbBlockBegin
  2
D_FRAME_VIEW@474
 70
     0
 10
0.0
 20
0.0
 30
0.0
  3
D_FRAME_VIEW@474
  1

  0
LINE
  5
640F
330
640D
100
AcDbEntity
  8
0
  6
________________
 62
     7
370
     9
100
AcDbLine
 10
62.49999999999996
 20
92.40000000015881
 30
0.0
 11
76.49999999999997
 21
92.40000000015881
 31
0.0
  0
LINE
  5
6410
330
640D
100
AcDbEntity
  8
0
  6
________________
 62
     7
370
     9
100
AcDbLine
 10
62.49999999999996
 20
87.40000000015881
 30
0.0
 11
76.49999999999997
 21
87.40000000015881
 31
0.0
  0
LINE
  5
6411
330
640D
100
AcDbEntity
  8
0
  6
________________
 62
     7
370
     9
100
AcDbLine
 10
74.4798294077828
 20
75.70000000016125
 30
0.0
 11
73.31477064551302
 21
75.70000000016125
 31
0.0
  0
LINE
  5
6412
330
640D
100
AcDbEntity
  8
0
  6
________________
 62
     7
370
     9
100
AcDbLine
 10
73.31477064551301
 20
75.70000000016125
 30
0.0
 11
69.50006604037254
 21
75.70000000016125
 31
0.0
  0
LINE
  5
6413
330
640D
100
AcDbEntity
  8
0
  6
________________
 62
     7
370
     9
100
AcDbLine
 10
69.50006604037254
 20
75.70000000016125
 30
0.0
 11
64.52017059221716
 21
75.70000000016125
 31
0.0
  0
LINE
  5
6414
330
640D
100
AcDbEntity
  8
0
  6
________________
 62
     7
370
     9
100
AcDbLine
 10
75.74999999999997
 20
77.40000000016127
 30
0.0
 11
63.24999999999996
 21
77.40000000016127
 31
0.0
  0
LINE
  5
6415
330
640D
100
AcDbEntity
  8
0
  6
________________
 62
   253
370
     9
100
AcDbLine
 10
64.08715789032493
 20
75.95000000016127
 30
0.0
 11
74.91284210967501
 21
75.95000000016127
 31
0.0
  0
LINE
  5
6416
330
640D
100
AcDbEntity
  8
0
  6
________________
 62
     7
370
     9
100
AcDbLine
 10
74.47982940778279
 20
75.70000000016127
 30
0.0
 11
64.52017059221714
 21
75.70000000016127
 31
0.0
  0
LINE
  5
6417
330
640D
100
AcDbEntity
  8
0
  6
________________
 62
     7
370
     9
100
AcDbLine
 10
85.99999999999997
 20
77.50000000016139
 30
0.0
 11
81.99999999999997
 21
77.50000000016139
 31
0.0
  0
LINE
  5
6418
330
640D
100
AcDbEntity
  8
0
  6
________________
 62
   253
370
     9
100
AcDbLine
 10
81.99999999999997
 20
77.50000000016139
 30
0.0
 11
81.99999999999997
 21
78.50000000016139
 31
0.0
  0
LINE
  5
6419
330
640D
100
AcDbEntity
  8
0
  6
________________
 62
   253
370
     9
100
AcDbLine
 10
86.99999999999997
 20
78.50000000016139
 30
0.0
 11
81.99999999999997
 21
78.50000000016139
 31
0.0
  0
ARC
  5
641A
330
640D
100
AcDbEntity
  8
0
  6
________________
 62
     7
370
     9
100
AcDbCircle
 10
85.99999999999997
 20
78.50000000016139
 30
0.0
 40
1.000000000000001
100
AcDbArc
 50
270.0
 51
0.0
  0
LINE
  5
641B
330
640D
100
AcDbEntity
  8
0
  6
________________
 62
   253
370
     9
100
AcDbLine
 10
81.99999999999997
 20
78.50000000016139
 30
0.0
 11
81.99999999999997
 21
85.5000000001614
 31
0.0
  0
LINE
  5
641C
330
640D
100
AcDbEntity
  8
0
  6
________________
 62
     7
370
     9
100
AcDbLine
 10
81.99999999999997
 20
85.5000000001614
 30
0.0
 11
86.99999999999997
 21
85.5000000001614
 31
0.0
  0
LINE
  5
641D
330
640D
100
AcDbEntity
  8
0
  6
________________
 62
     7
370
     9
100
AcDbLine
 10
86.99999999999997
 20
85.5000000001614
 30
0.0
 11
86.99999999999997
 21
85.31662479051684
 31
0.0
  0
ARC
  5
641E
330
640D
100
AcDbEntity
  8
0
  6
________________
 62
   253
370
     9
100
AcDbCircle
 10
-90.77503390582841
 20
82.00000000016259
 30
0.0
 40
5.02502547159339
210
0.0
220
0.0
230
-1.0
100
AcDbArc
 50
318.6984883702304
 51
41.30151162976966
  0
LINE
  5
641F
330
640D
100
AcDbEntity
  8
0
  6
________________
 62
     7
370
     9
100
AcDbLine
 10
86.99999999999997
 20
78.68337520980596
 30
0.0
 11
86.99999999999997
 21
78.50000000016139
 31
0.0
  0
LINE
  5
6420
330
640D
100
AcDbEntity
  8
0
  6
________________
 62
     7
370
     9
100
AcDbLine
 10
56.99999999999997
 20
85.5000000001614
 30
0.0
 11
81.99999999999997
 21
85.5000000001614
 31
0.0
  0
LINE
  5
6421
330
640D
100
AcDbEntity
  8
0
  6
________________
 62
   253
370
     9
100
AcDbLine
 10
56.99999999999997
 20
78.50000000016139
 30
0.0
 11
81.99999999999997
 21
78.50000000016139
 31
0.0
  0
LINE
  5
6422
330
640D
100
AcDbEntity
  8
0
  6
________________
 62
   253
370
     9
100
AcDbLine
 10
56.99999999999997
 20
85.5000000001614
 30
0.0
 11
56.99999999999997
 21
78.50000000016139
 31
0.0
  0
LINE
  5
6423
330
640D
100
AcDbEntity
  8
0
  6
________________
 62
     7
370
     9
100
AcDbLine
 10
81.99999999999997
 20
77.50000000016139
 30
0.0
 11
56.99999999999997
 21
77.50000000016139
 31
0.0
  0
LINE
  5
6424
330
640D
100
AcDbEntity
  8
0
  6
________________
 62
   253
370
     9
100
AcDbLine
 10
56.99999999999997
 20
77.50000000016139
 30
0.0
 11
56.99999999999997
 21
78.50000000016139
 31
0.0
  0
LINE
  5
6425
330
640D
100
AcDbEntity
  8
0
  6
________________
 62
     7
370
     9
100
AcDbLine
 10
56.99999999999997
 20
77.50000000016139
 30
0.0
 11
52.99999999999998
 21
77.50000000016139
 31
0.0
  0
ARC
  5
6426
330
640D
100
AcDbEntity
  8
0
  6
________________
 62
     7
370
     9
100
AcDbCircle
 10
52.99999999999998
 20
78.50000000016139
 30
0.0
 40
1.000000000000001
100
AcDbArc
 50
180.0
 51
270.0
  0
LINE
  5
6427
330
640D
100
AcDbEntity
  8
0
  6
________________
 62
   253
370
     9
100
AcDbLine
 10
56.99999999999997
 20
78.50000000016139
 30
0.0
 11
51.99999999999998
 21
78.50000000016139
 31
0.0
  0
LINE
  5
6428
330
640D
100
AcDbEntity
  8
0
  6
________________
 62
     7
370
     9
100
AcDbLine
 10
51.99999999999998
 20
78.50000000016139
 30
0.0
 11
51.99999999999998
 21
78.683375209806
 31
0.0
  0
ARC
  5
6429
330
640D
100
AcDbEntity
  8
0
  6
________________
 62
   253
370
     9
100
AcDbCircle
 10
-48.22496609417149
 20
82.00000000016023
 30
0.0
 40
5.025025471593399
210
0.0
220
0.0
230
-1.0
100
AcDbArc
 50
138.6984883702311
 51
221.301511629769
  0
LINE
  5
642A
330
640D
100
AcDbEntity
  8
0
  6
________________
 62
     7
370
     9
100
AcDbLine
 10
51.99999999999998
 20
85.3166247905168
 30
0.0
 11
51.99999999999998
 21
85.5000000001614
 31
0.0
  0
LINE
  5
642B
330
640D
100
AcDbEntity
  8
0
  6
________________
 62
     7
370
     9
100
AcDbLine
 10
51.99999999999998
 20
85.5000000001614
 30
0.0
 11
56.99999999999997
 21
85.5000000001614
 31
0.0
  0
ARC
  5
642C
330
640D
100
AcDbEntity
  8
0
  6
________________
 62
     7
370
     9
100
AcDbCircle
 10
-85.99999999999997
 20
85.31662479051684
 30
0.0
 40
1.000000000000001
210
0.0
220
0.0
230
-1.0
100
AcDbArc
 50
180.0
 51
213.5573097619215
  0
ARC
  5
642D
330
640D
100
AcDbEntity
  8
0
  6
________________
 62
     7
370
     9
100
AcDbCircle
 10
91.0000000000001
 20
82.00000000016136
 30
0.0
 40
5.000000000000147
100
AcDbArc
 50
146.4426902380793
 51
213.5573097619207
  0
ARC
  5
642E
330
640D
100
AcDbEntity
  8
0
  6
________________
 62
     7
370
     9
100
AcDbCircle
 10
85.99999999999997
 20
78.68337520980596
 30
0.0
 40
1.000000000000001
100
AcDbArc
 50
0.0
 51
33.55730976192125
  0
ARC
  5
642F
330
640D
100
AcDbEntity
  8
0
  6
________________
 62
     7
370
     9
100
AcDbCircle
 10
47.99999999999979
 20
82.00000000016144
 30
0.0
 40
5.000000000000189
100
AcDbArc
 50
326.44269023808
 51
33.55730976191995
  0
ARC
  5
6430
330
640D
100
AcDbEntity
  8
0
  6
________________
 62
     7
370
     9
100
AcDbCircle
 10
-52.99999999999998
 20
85.3166247905168
 30
0.0
 40
0.9999999999999996
210
0.0
220
0.0
230
-1.0
100
AcDbArc
 50
326.4426902380793
 51
0.0000000000001137
  0
ARC
  5
6431
330
640D
100
AcDbEntity
  8
0
  6
________________
 62
     7
370
     9
100
AcDbCircle
 10
52.99999999999998
 20
78.683375209806
 30
0.0
 40
0.999999999999992
100
AcDbArc
 50
146.4426902380792
 51
180.0
  0
LINE
  5
6432
330
640D
100
AcDbEntity
  8
0
  6
________________
 62
     7
370
     9
100
AcDbLine
 10
52.5000000000017
 20
85.9000000001614
 30
0.0
 11
52.5000000000017
 21
85.5000000001614
 31
0.0
  0
LINE
  5
6433
330
640D
100
AcDbEntity
  8
0
  6
________________
 62
     7
370
     9
100
AcDbLine
 10
57.50000000000124
 20
85.9000000001614
 30
0.0
 11
52.50000000000125
 21
85.9000000001614
 31
0.0
  0
LINE
  5
6434
330
640D
100
AcDbEntity
  8
0
  6
________________
 62
   253
370
     9
100
AcDbLine
 10
57.50000000000124
 20
85.9000000001614
 30
0.0
 11
57.50000000000124
 21
85.5000000001614
 31
0.0
  0
LINE
  5
6435
330
640D
100
AcDbEntity
  8
0
  6
________________
 62
   253
370
     9
100
AcDbLine
 10
81.49999999999908
 20
85.9000000001614
 30
0.0
 11
81.49999999999908
 21
85.5000000001614
 31
0.0
  0
LINE
  5
6436
330
640D
100
AcDbEntity
  8
0
  6
________________
 62
     7
370
     9
100
AcDbLine
 10
86.49999999999864
 20
85.9000000001614
 30
0.0
 11
86.49999999999864
 21
85.5000000001614
 31
0.0
  0
LINE
  5
6437
330
640D
100
AcDbEntity
  8
0
  6
________________
 62
     7
370
     9
100
AcDbLine
 10
86.49999999999908
 20
85.9000000001614
 30
0.0
 11
81.49999999999908
 21
85.9000000001614
 31
0.0
  0
LINE
  5
6438
330
640D
100
AcDbEntity
  8
0
  6
________________
 62
     7
370
     9
100
AcDbLine
 10
81.49999999999908
 20
85.9000000001614
 30
0.0
 11
57.50000000000124
 21
85.9000000001614
 31
0.0
  0
LINE
  5
6439
330
640D
100
AcDbEntity
  8
0
  6
________________
 62
     7
370
     9
100
AcDbLine
 10
52.50000000000657
 20
94.30000000015824
 30
0.0
 11
52.50000000000657
 21
93.90000000015824
 31
0.0
  0
LINE
  5
643A
330
640D
100
AcDbEntity
  8
0
  6
________________
 62
   253
370
     9
100
AcDbLine
 10
57.50000000000468
 20
94.30000000015825
 30
0.0
 11
57.50000000000468
 21
93.90000000015824
 31
0.0
  0
LINE
  5
643B
330
640D
100
AcDbEntity
  8
0
  6
________________
 62
     7
370
     9
100
AcDbLine
 10
57.50000000000468
 20
93.90000000015824
 30
0.0
 11
52.50000000000469
 21
93.90000000015824
 31
0.0
  0
LINE
  5
643C
330
640D
100
AcDbEntity
  8
0
  6
________________
 62
     7
370
     9
100
AcDbLine
 10
81.49999999999562
 20
93.90000000015824
 30
0.0
 11
57.50000000000468
 21
93.90000000015824
 31
0.0
  0
LINE
  5
643D
330
640D
100
AcDbEntity
  8
0
  6
________________
 62
   253
370
     9
100
AcDbLine
 10
81.49999999999562
 20
94.30000000015825
 30
0.0
 11
81.49999999999562
 21
93.90000000015824
 31
0.0
  0
LINE
  5
643E
330
640D
100
AcDbEntity
  8
0
  6
________________
 62
     7
370
     9
100
AcDbLine
 10
86.49999999999375
 20
94.30000000015824
 30
0.0
 11
86.49999999999375
 21
93.90000000015824
 31
0.0
  0
LINE
  5
643F
330
640D
100
AcDbEntity
  8
0
  6
________________
 62
     7
370
     9
100
AcDbLine
 10
86.49999999999564
 20
93.90000000015824
 30
0.0
 11
81.49999999999562
 21
93.90000000015824
 31
0.0
  0
LINE
  5
6440
330
640D
100
AcDbEntity
  8
0
  6
________________
 62
   253
370
     9
100
AcDbLine
 10
81.99999999999999
 20
94.30000000015824
 30
0.0
 11
81.99999999999999
 21
101.3000000001582
 31
0.0
  0
LINE
  5
6441
330
640D
100
AcDbEntity
  8
0
  6
________________
 62
   253
370
     9
100
AcDbLine
 10
81.99999999999999
 20
101.3000000001582
 30
0.0
 11
86.99999999999999
 21
101.3000000001582
 31
0.0
  0
LINE
  5
6442
330
640D
100
AcDbEntity
  8
0
  6
________________
 62
     7
370
     9
100
AcDbLine
 10
86.99999999999999
 20
101.3000000001582
 30
0.0
 11
86.99999999999999
 21
101.1166247905136
 31
0.0
  0
ARC
  5
6443
330
640D
100
AcDbEntity
  8
0
  6
________________
 62
   253
370
     9
100
AcDbCircle
 10
-90.77503390582848
 20
97.80000000015943
 30
0.0
 40
5.025025471593406
210
0.0
220
0.0
230
-1.0
100
AcDbArc
 50
318.6984883702311
 51
41.30151162976887
  0
LINE
  5
6444
330
640D
100
AcDbEntity
  8
0
  6
________________
 62
     7
370
     9
100
AcDbLine
 10
86.99999999999999
 20
94.48337520980284
 30
0.0
 11
86.99999999999999
 21
94.30000000015824
 31
0.0
  0
LINE
  5
6445
330
640D
100
AcDbEntity
  8
0
  6
________________
 62
     7
370
     9
100
AcDbLine
 10
86.99999999999999
 20
94.30000000015824
 30
0.0
 11
81.99999999999999
 21
94.30000000015824
 31
0.0
  0
LINE
  5
6446
330
640D
100
AcDbEntity
  8
0
  6
________________
 62
   253
370
     9
100
AcDbLine
 10
81.99999999999999
 20
101.3000000001582
 30
0.0
 11
56.99999999999999
 21
101.3000000001582
 31
0.0
  0
LINE
  5
6447
330
640D
100
AcDbEntity
  8
0
  6
________________
 62
   253
370
     9
100
AcDbLine
 10
56.99999999999999
 20
101.3000000001582
 30
0.0
 11
56.99999999999999
 21
102.3000000001582
 31
0.0
  0
LINE
  5
6448
330
640D
100
AcDbEntity
  8
0
  6
________________
 62
     7
370
     9
100
AcDbLine
 10
56.99999999999999
 20
102.3000000001582
 30
0.0
 11
81.99999999999999
 21
102.3000000001582
 31
0.0
  0
LINE
  5
6449
330
640D
100
AcDbEntity
  8
0
  6
________________
 62
   253
370
     9
100
AcDbLine
 10
81.99999999999999
 20
101.3000000001582
 30
0.0
 11
81.99999999999999
 21
102.3000000001582
 31
0.0
  0
LINE
  5
644A
330
640D
100
AcDbEntity
  8
0
  6
________________
 62
   253
370
     9
100
AcDbLine
 10
56.99999999999999
 20
101.3000000001582
 30
0.0
 11
56.99999999999999
 21
94.30000000015824
 31
0.0
  0
LINE
  5
644B
330
640D
100
AcDbEntity
  8
0
  6
________________
 62
     7
370
     9
100
AcDbLine
 10
56.99999999999999
 20
94.30000000015824
 30
0.0
 11
81.99999999999999
 21
94.30000000015824
 31
0.0
  0
LINE
  5
644C
330
640D
100
AcDbEntity
  8
0
  6
________________
 62
     7
370
     9
100
AcDbLine
 10
81.99999999999999
 20
102.3000000001582
 30
0.0
 11
85.99999999999999
 21
102.3000000001582
 31
0.0
  0
ARC
  5
644D
330
640D
100
AcDbEntity
  8
0
  6
________________
 62
     7
370
     9
100
AcDbCircle
 10
-85.99999999999999
 20
101.3000000001582
 30
0.0
 40
1.000000000000001
210
0.0
220
0.0
230
-1.0
100
AcDbArc
 50
90.0
 51
180.0
  0
LINE
  5
644E
330
640D
100
AcDbEntity
  8
0
  6
________________
 62
   253
370
     9
100
AcDbLine
 10
51.99999999999999
 20
101.3000000001582
 30
0.0
 11
56.99999999999999
 21
101.3000000001582
 31
0.0
  0
LINE
  5
644F
330
640D
100
AcDbEntity
  8
0
  6
________________
 62
     7
370
     9
100
AcDbLine
 10
51.99999999999999
 20
94.30000000015824
 30
0.0
 11
51.99999999999999
 21
94.48337520980284
 31
0.0
  0
ARC
  5
6450
330
640D
100
AcDbEntity
  8
0
  6
________________
 62
   253
370
     9
100
AcDbCircle
 10
-48.22496609417151
 20
97.80000000015707
 30
0.0
 40
5.025025471593399
210
0.0
220
0.0
230
-1.0
100
AcDbArc
 50
138.6984883702311
 51
221.301511629769
  0
LINE
  5
6451
330
640D
100
AcDbEntity
  8
0
  6
________________
 62
     7
370
     9
100
AcDbLine
 10
51.99999999999999
 20
101.1166247905136
 30
0.0
 11
51.99999999999999
 21
101.3000000001582
 31
0.0
  0
LINE
  5
6452
330
640D
100
AcDbEntity
  8
0
  6
________________
 62
     7
370
     9
100
AcDbLine
 10
56.99999999999999
 20
94.30000000015824
 30
0.0
 11
51.99999999999999
 21
94.30000000015824
 31
0.0
  0
ARC
  5
6453
330
640D
100
AcDbEntity
  8
0
  6
________________
 62
     7
370
     9
100
AcDbCircle
 10
-52.99999999999999
 20
101.3000000001582
 30
0.0
 40
1.000000000000001
210
0.0
220
0.0
230
-1.0
100
AcDbArc
 50
0.0
 51
90.0
  0
LINE
  5
6454
330
640D
100
AcDbEntity
  8
0
  6
________________
 62
     7
370
     9
100
AcDbLine
 10
52.99999999999999
 20
102.3000000001582
 30
0.0
 11
56.99999999999999
 21
102.3000000001582
 31
0.0
  0
ARC
  5
6455
330
640D
100
AcDbEntity
  8
0
  6
________________
 62
     7
370
     9
100
AcDbCircle
 10
91.00000000000017
 20
97.8000000001582
 30
0.0
 40
5.000000000000189
100
AcDbArc
 50
146.44269023808
 51
213.55730976192
  0
ARC
  5
6456
330
640D
100
AcDbEntity
  8
0
  6
________________
 62
     7
370
     9
100
AcDbCircle
 10
-85.99999999999999
 20
94.48337520980284
 30
0.0
 40
0.9999999999999939
210
0.0
220
0.0
230
-1.0
100
AcDbArc
 50
146.4426902380795
 51
180.0
  0
ARC
  5
6457
330
640D
100
AcDbEntity
  8
0
  6
________________
 62
     7
370
     9
100
AcDbCircle
 10
85.99999999999999
 20
101.1166247905136
 30
0.0
 40
0.9999999999999861
100
AcDbArc
 50
326.4426902380794
 51
0.0
  0
ARC
  5
6458
330
640D
100
AcDbEntity
  8
0
  6
________________
 62
     7
370
     9
100
AcDbCircle
 10
-52.99999999999999
 20
94.48337520980284
 30
0.0
 40
1.000000000000001
210
0.0
220
0.0
230
-1.0
100
AcDbArc
 50
0.0
 51
33.55730976192081
  0
ARC
  5
6459
330
640D
100
AcDbEntity
  8
0
  6
________________
 62
     7
370
     9
100
AcDbCircle
 10
47.99999999999982
 20
97.8000000001583
 30
0.0
 40
5.000000000000177
100
AcDbArc
 50
326.4426902380799
 51
33.55730976192012
  0
ARC
  5
645A
330
640D
100
AcDbEntity
  8
0
  6
________________
 62
     7
370
     9
100
AcDbCircle
 10
52.99999999999999
 20
101.1166247905136
 30
0.0
 40
1.000000000000001
100
AcDbArc
 50
180.0
 51
213.5573097619208
  0
LINE
  5
645B
330
640D
100
AcDbEntity
  8
0
  6
________________
 62
     7
370
     9
100
AcDbLine
 10
64.49999999999997
 20
87.30000000015825
 30
0.0
 11
74.49999999999997
 21
87.30000000015825
 31
0.0
  0
LINE
  5
645C
330
640D
100
AcDbEntity
  8
0
  6
________________
 62
   253
370
     9
100
AcDbLine
 10
66.99999999999996
 20
87.30000000015825
 30
0.0
 11
66.99999999999996
 21
85.9000000001614
 31
0.0
  0
LINE
  5
645D
330
640D
100
AcDbEntity
  8
0
  6
________________
 62
   253
370
     9
100
AcDbLine
 10
71.99999999999997
 20
85.9000000001614
 30
0.0
 11
71.99999999999997
 21
87.30000000015825
 31
0.0
  0
LINE
  5
645E
330
640D
100
AcDbEntity
  8
0
  6
________________
 62
     7
370
     9
100
AcDbLine
 10
62.49999999999996
 20
92.40000000015881
 30
0.0
 11
62.49999999999996
 21
87.40000000015881
 31
0.0
  0
LINE
  5
645F
330
640D
100
AcDbEntity
  8
0
  6
________________
 62
     7
370
     9
100
AcDbLine
 10
76.49999999999997
 20
87.40000000015881
 30
0.0
 11
76.49999999999997
 21
92.40000000015881
 31
0.0
  0
LINE
  5
6460
330
640D
100
AcDbEntity
  8
0
  6
________________
 62
     7
370
     9
100
AcDbLine
 10
75.74999999999997
 20
77.40000000016127
 30
0.0
 11
75.74999999999997
 21
77.50000000016139
 31
0.0
  0
LINE
  5
6461
330
640D
100
AcDbEntity
  8
0
  6
________________
 62
     7
370
     9
100
AcDbLine
 10
63.24999999999997
 20
77.50000000016139
 30
0.0
 11
63.24999999999997
 21
77.40000000016127
 31
0.0
  0
LINE
  5
6462
330
640D
100
AcDbEntity
  8
0
  6
________________
 62
     7
370
     9
100
AcDbLine
 10
63.24999999999996
 20
77.40000000016127
 30
0.0
 11
64.08715789032492
 21
75.95000000016127
 31
0.0
  0
LINE
  5
6463
330
640D
100
AcDbEntity
  8
0
  6
________________
 62
     7
370
     9
100
AcDbLine
 10
74.91284210967501
 20
75.95000000016127
 30
0.0
 11
75.74999999999997
 21
77.40000000016127
 31
0.0
  0
ARC
  5
6464
330
640D
100
AcDbEntity
  8
0
  6
________________
 62
     7
370
     9
100
AcDbCircle
 10
74.47982940778279
 20
76.20000000016127
 30
0.0
 40
0.5000000000000004
100
AcDbArc
 50
270.0
 51
330.0
  0
ARC
  5
6465
330
640D
100
AcDbEntity
  8
0
  6
________________
 62
     7
370
     9
100
AcDbCircle
 10
64.52017059221714
 20
76.20000000016127
 30
0.0
 40
0.500000000000002
100
AcDbArc
 50
210.0
 51
270.0
  0
LINE
  5
6466
330
640D
100
AcDbEntity
  8
0
  6
________________
 62
     7
370
     9
100
AcDbLine
 10
66.49999999999996
 20
87.29998501015824
 30
0.0
 11
66.49999999999996
 21
85.9000000001614
 31
0.0
  0
LINE
  5
6467
330
640D
100
AcDbEntity
  8
0
  6
________________
 62
     7
370
     9
100
AcDbLine
 10
72.49999999999997
 20
85.9000000001614
 30
0.0
 11
72.49999999999997
 21
87.29998501015824
 31
0.0
  0
LINE
  5
6468
330
640D
100
AcDbEntity
  8
0
  6
________________
 62
     7
370
     9
100
AcDbLine
 10
74.49999999999997
 20
87.30000000015825
 30
0.0
 11
74.49999999999997
 21
87.40000000015881
 31
0.0
  0
LINE
  5
6469
330
640D
100
AcDbEntity
  8
0
  6
________________
 62
     7
370
     9
100
AcDbLine
 10
74.49999999999997
 20
92.4000000004809
 30
0.0
 11
74.49999999999997
 21
93.90000000015824
 31
0.0
  0
LINE
  5
646A
330
640D
100
AcDbEntity
  8
0
  6
________________
 62
     7
370
     9
100
AcDbLine
 10
64.49999999999997
 20
93.90000000015824
 30
0.0
 11
64.49999999999997
 21
92.4000000004809
 31
0.0
  0
LINE
  5
646B
330
640D
100
AcDbEntity
  8
0
  6
________________
 62
     7
370
     9
100
AcDbLine
 10
64.49999999999997
 20
87.40000000015881
 30
0.0
 11
64.49999999999997
 21
87.30000000015825
 31
0.0
  0
ENDBLK
  5
646C
330
640D
100
AcDbEntity
  8
0
100
AcDbBlockEnd
  0
BLOCK
  5
646F
330
646E
100
AcDbEntity
  8
0
100
AcDbBlockBegin
  2
D_FRAME_VIEW@468
 70
     0
 10
0.0
 20
0.0
 30
0.0
  3
D_FRAME_VIEW@468
  1

  0
LINE
  5
6470
330
646E
100
AcDbEntity
  8
0
  6
________________
 62
     7
370
     9
100
AcDbLine
 10
268.6000000003015
 20
152.0000000000181
 30
0.0
 11
268.599999999381
 21
166.0000000000181
 31
0.0
  0
LINE
  5
6471
330
646E
100
AcDbEntity
  8
0
  6
________________
 62
     7
370
     9
100
AcDbLine
 10
273.6000000003015
 20
152.0000000003469
 30
0.0
 11
273.599999999381
 21
166.0000000003469
 31
0.0
  0
LINE
  5
6472
330
646E
100
AcDbEntity
  8
0
  6
________________
 62
     7
370
     9
100
AcDbLine
 10
268.6000000003014
 20
241.9999999999842
 30
0.0
 11
268.5999999993809
 21
255.9999999999841
 31
0.0
  0
LINE
  5
6473
330
646E
100
AcDbEntity
  8
0
  6
________________
 62
     7
370
     9
100
AcDbLine
 10
273.6000000003014
 20
242.0000000003129
 30
0.0
 11
273.5999999993809
 21
256.0000000003129
 31
0.0
  0
LINE
  5
6474
330
646E
100
AcDbEntity
  8
0
  6
________________
 62
     7
370
     9
100
AcDbLine
 10
283.5999999998388
 20
165.2500000000264
 30
0.0
 11
283.5999999998388
 21
152.7500000000264
 31
0.0
  0
LINE
  5
6475
330
646E
100
AcDbEntity
  8
0
  6
________________
 62
   253
370
     9
100
AcDbLine
 10
285.0499999998387
 20
153.5871578903513
 30
0.0
 11
285.0499999998387
 21
164.4128421097014
 31
0.0
  0
LINE
  5
6476
330
646E
100
AcDbEntity
  8
0
  6
________________
 62
     7
370
     9
100
AcDbLine
 10
285.2999999998388
 20
163.9798294078092
 30
0.0
 11
285.2999999998388
 21
154.0201705922435
 31
0.0
  0
LINE
  5
6477
330
646E
100
AcDbEntity
  8
0
  6
________________
 62
     7
370
     9
100
AcDbLine
 10
283.6000000002398
 20
255.250000000135
 30
0.0
 11
283.5999999994377
 21
242.750000000135
 31
0.0
  0
LINE
  5
6478
330
646E
100
AcDbEntity
  8
0
  6
________________
 62
   253
370
     9
100
AcDbLine
 10
285.0499999994914
 20
243.5871578903669
 30
0.0
 11
285.0500000001861
 21
254.412842109717
 31
0.0
  0
LINE
  5
6479
330
646E
100
AcDbEntity
  8
0
  6
________________
 62
     7
370
     9
100
AcDbLine
 10
285.3000000001583
 20
253.9798294078088
 30
0.0
 11
285.2999999995192
 21
244.0201705922431
 31
0.0
  0
ARC
  5
647A
330
646E
100
AcDbEntity
  8
0
  6
________________
 62
   253
370
     9
100
AcDbCircle
 10
278.9999999998386
 20
258.8799089081409
 30
0.0
 40
2.766461776209593
100
AcDbArc
 50
2.487970595357782
 51
177.5120294046423
  0
LINE
  5
647B
330
646E
100
AcDbEntity
  8
0
  6
________________
 62
   253
370
     9
100
AcDbLine
 10
276.2361460078758
 20
258.999999999982
 30
0.0
 11
275.6833752094832
 21
258.999999999982
 31
0.0
  0
ARC
  5
647C
330
646E
100
AcDbEntity
  8
0
  6
________________
 62
   253
370
     9
100
AcDbCircle
 10
-278.9999999998398
 20
258.9910170831337
 30
0.0
 40
3.316636955230841
210
0.0
220
0.0
230
-1.0
100
AcDbArc
 50
0.1551824511790139
 51
179.8448175488191
  0
LINE
  5
647D
330
646E
100
AcDbEntity
  8
0
  6
________________
 62
   253
370
     9
100
AcDbLine
 10
281.7638539918014
 20
258.999999999982
 30
0.0
 11
282.3166247901941
 21
258.999999999982
 31
0.0
  0
LINE
  5
647E
330
646E
100
AcDbEntity
  8
0
  6
________________
 62
   253
370
     9
100
AcDbLine
 10
281.7638539918015
 20
148.999999999982
 30
0.0
 11
281.7638539918015
 21
258.9999999999819
 31
0.0
  0
ARC
  5
647F
330
646E
100
AcDbEntity
  8
0
  6
________________
 62
   253
370
     9
100
AcDbCircle
 10
278.9999999998386
 20
149.120091091823
 30
0.0
 40
2.766461776209593
100
AcDbArc
 50
182.4879705953578
 51
357.5120294046417
  0
LINE
  5
6480
330
646E
100
AcDbEntity
  8
0
  6
________________
 62
   253
370
     9
100
AcDbLine
 10
276.2361460078758
 20
258.999999999982
 30
0.0
 11
276.2361460078758
 21
148.999999999982
 31
0.0
  0
ARC
  5
6481
330
646E
100
AcDbEntity
  8
0
  6
________________
 62
   253
370
     9
100
AcDbCircle
 10
-278.9999999998374
 20
149.0082655669027
 30
0.0
 40
3.316635089907288
210
0.0
220
0.0
230
-1.0
100
AcDbArc
 50
180.1427900800756
 51
359.8572099199225
  0
LINE
  5
6482
330
646E
100
AcDbEntity
  8
0
  6
________________
 62
   253
370
     9
100
AcDbLine
 10
275.6833752094832
 20
148.999999999982
 30
0.0
 11
276.2361460078758
 21
148.999999999982
 31
0.0
  0
LINE
  5
6483
330
646E
100
AcDbEntity
  8
0
  6
________________
 62
   253
370
     9
100
AcDbLine
 10
282.3166247901941
 20
148.999999999982
 30
0.0
 11
281.7638539918015
 21
148.999999999982
 31
0.0
  0
LINE
  5
6484
330
646E
100
AcDbEntity
  8
0
  6
________________
 62
     7
370
     9
100
AcDbLine
 10
283.4999999998386
 20
262.9999999999819
 30
0.0
 11
283.4999999998386
 21
258.999999999982
 31
0.0
  0
LINE
  5
6485
330
646E
100
AcDbEntity
  8
0
  6
________________
 62
   253
370
     9
100
AcDbLine
 10
282.4999999998386
 20
258.999999999982
 30
0.0
 11
283.4999999998386
 21
258.999999999982
 31
0.0
  0
LINE
  5
6486
330
646E
100
AcDbEntity
  8
0
  6
________________
 62
   253
370
     9
100
AcDbLine
 10
282.4999999998386
 20
263.9999999999819
 30
0.0
 11
282.4999999998386
 21
258.999999999982
 31
0.0
  0
ARC
  5
6487
330
646E
100
AcDbEntity
  8
0
  6
________________
 62
     7
370
     9
100
AcDbCircle
 10
282.4999999998386
 20
262.9999999999819
 30
0.0
 40
1.000000000000001
100
AcDbArc
 50
0.0000000000000035
 51
90.0
  0
LINE
  5
6488
330
646E
100
AcDbEntity
  8
0
  6
________________
 62
     7
370
     9
100
AcDbLine
 10
275.4999999998386
 20
258.999999999982
 30
0.0
 11
275.4999999998386
 21
148.999999999982
 31
0.0
  0
LINE
  5
6489
330
646E
100
AcDbEntity
  8
0
  6
________________
 62
   253
370
     9
100
AcDbLine
 10
275.6833752094832
 20
258.999999999982
 30
0.0
 11
275.4999999998386
 21
258.999999999982
 31
0.0
  0
LINE
  5
648A
330
646E
100
AcDbEntity
  8
0
  6
________________
 62
   253
370
     9
100
AcDbLine
 10
275.6833752094832
 20
148.999999999982
 30
0.0
 11
275.6833752094832
 21
258.9999999999819
 31
0.0
  0
LINE
  5
648B
330
646E
100
AcDbEntity
  8
0
  6
________________
 62
   253
370
     9
100
AcDbLine
 10
275.4999999998386
 20
148.999999999982
 30
0.0
 11
275.6833752094832
 21
148.999999999982
 31
0.0
  0
LINE
  5
648C
330
646E
100
AcDbEntity
  8
0
  6
________________
 62
   253
370
     9
100
AcDbLine
 10
282.4999999998386
 20
258.999999999982
 30
0.0
 11
282.4999999998386
 21
148.999999999982
 31
0.0
  0
LINE
  5
648D
330
646E
100
AcDbEntity
  8
0
  6
________________
 62
   253
370
     9
100
AcDbLine
 10
282.3166247901941
 20
148.999999999982
 30
0.0
 11
282.4999999998387
 21
148.999999999982
 31
0.0
  0
LINE
  5
648E
330
646E
100
AcDbEntity
  8
0
  6
________________
 62
   253
370
     9
100
AcDbLine
 10
282.3166247901941
 20
258.999999999982
 30
0.0
 11
282.3166247901941
 21
148.999999999982
 31
0.0
  0
LINE
  5
648F
330
646E
100
AcDbEntity
  8
0
  6
________________
 62
   253
370
     9
100
AcDbLine
 10
282.4999999998386
 20
258.999999999982
 30
0.0
 11
282.3166247901941
 21
258.999999999982
 31
0.0
  0
LINE
  5
6490
330
646E
100
AcDbEntity
  8
0
  6
________________
 62
     7
370
     9
100
AcDbLine
 10
275.4999999998386
 20
258.999999999982
 30
0.0
 11
275.4999999998386
 21
263.9999999999819
 31
0.0
  0
LINE
  5
6491
330
646E
100
AcDbEntity
  8
0
  6
________________
 62
     7
370
     9
100
AcDbLine
 10
275.4999999998386
 20
263.9999999999819
 30
0.0
 11
282.4999999998386
 21
263.9999999999819
 31
0.0
  0
LINE
  5
6492
330
646E
100
AcDbEntity
  8
0
  6
________________
 62
     7
370
     9
100
AcDbLine
 10
283.4999999998386
 20
258.999999999982
 30
0.0
 11
283.4999999998386
 21
148.999999999982
 31
0.0
  0
LINE
  5
6493
330
646E
100
AcDbEntity
  8
0
  6
________________
 62
   253
370
     9
100
AcDbLine
 10
282.4999999998386
 20
148.999999999982
 30
0.0
 11
283.4999999998386
 21
148.999999999982
 31
0.0
  0
LINE
  5
6494
330
646E
100
AcDbEntity
  8
0
  6
________________
 62
   253
370
     9
100
AcDbLine
 10
282.4999999998386
 20
148.999999999982
 30
0.0
 11
282.4999999998386
 21
143.999999999982
 31
0.0
  0
LINE
  5
6495
330
646E
100
AcDbEntity
  8
0
  6
________________
 62
     7
370
     9
100
AcDbLine
 10
283.4999999998386
 20
148.999999999982
 30
0.0
 11
283.4999999998386
 21
144.999999999982
 31
0.0
  0
ARC
  5
6496
330
646E
100
AcDbEntity
  8
0
  6
________________
 62
     7
370
     9
100
AcDbCircle
 10
282.4999999998386
 20
144.999999999982
 30
0.0
 40
1.000000000000001
100
AcDbArc
 50
270.0
 51
0.0
  0
LINE
  5
6497
330
646E
100
AcDbEntity
  8
0
  6
________________
 62
     7
370
     9
100
AcDbLine
 10
282.4999999998386
 20
143.999999999982
 30
0.0
 11
275.4999999998386
 21
143.999999999982
 31
0.0
  0
LINE
  5
6498
330
646E
100
AcDbEntity
  8
0
  6
________________
 62
     7
370
     9
100
AcDbLine
 10
275.4999999998386
 20
143.999999999982
 30
0.0
 11
275.4999999998386
 21
148.999999999982
 31
0.0
  0
LINE
  5
6499
330
646E
100
AcDbEntity
  8
0
  6
________________
 62
   253
370
     9
100
AcDbLine
 10
275.0999999998386
 20
149.4999999999945
 30
0.0
 11
275.4999999998385
 21
149.4999999999945
 31
0.0
  0
LINE
  5
649A
330
646E
100
AcDbEntity
  8
0
  6
________________
 62
   253
370
     9
100
AcDbLine
 10
275.0999999998386
 20
258.4999999999847
 30
0.0
 11
275.4999999998385
 21
258.4999999999847
 31
0.0
  0
LINE
  5
649B
330
646E
100
AcDbEntity
  8
0
  6
________________
 62
     7
370
     9
100
AcDbLine
 10
275.0999999998386
 20
258.4999999999847
 30
0.0
 11
275.0999999998386
 21
149.4999999999946
 31
0.0
  0
LINE
  5
649C
330
646E
100
AcDbEntity
  8
0
  6
________________
 62
     7
370
     9
100
AcDbLine
 10
275.0999999998386
 20
144.499999999995
 30
0.0
 11
275.4999999998385
 21
144.499999999995
 31
0.0
  0
LINE
  5
649D
330
646E
100
AcDbEntity
  8
0
  6
________________
 62
     7
370
     9
100
AcDbLine
 10
275.0999999998386
 20
149.4999999999945
 30
0.0
 11
275.0999999998386
 21
144.4999999999945
 31
0.0
  0
LINE
  5
649E
330
646E
100
AcDbEntity
  8
0
  6
________________
 62
     7
370
     9
100
AcDbLine
 10
275.0999999998386
 20
263.4999999999842
 30
0.0
 11
275.4999999998385
 21
263.4999999999842
 31
0.0
  0
LINE
  5
649F
330
646E
100
AcDbEntity
  8
0
  6
________________
 62
     7
370
     9
100
AcDbLine
 10
275.0999999998386
 20
263.4999999999847
 30
0.0
 11
275.0999999998386
 21
258.4999999999847
 31
0.0
  0
LINE
  5
64A0
330
646E
100
AcDbEntity
  8
0
  6
________________
 62
   253
370
     9
100
AcDbLine
 10
266.6999999998417
 20
149.5000000000217
 30
0.0
 11
267.0999999998417
 21
149.5000000000217
 31
0.0
  0
LINE
  5
64A1
330
646E
100
AcDbEntity
  8
0
  6
________________
 62
   253
370
     9
100
AcDbLine
 10
266.6999999998417
 20
258.4999999999806
 30
0.0
 11
267.0999999998417
 21
258.4999999999806
 31
0.0
  0
LINE
  5
64A2
330
646E
100
AcDbEntity
  8
0
  6
________________
 62
     7
370
     9
100
AcDbLine
 10
267.0999999998417
 20
258.4999999999806
 30
0.0
 11
267.0999999998418
 21
149.5000000000217
 31
0.0
  0
LINE
  5
64A3
330
646E
100
AcDbEntity
  8
0
  6
________________
 62
     7
370
     9
100
AcDbLine
 10
266.6999999998417
 20
144.5000000000236
 30
0.0
 11
267.0999999998417
 21
144.5000000000236
 31
0.0
  0
LINE
  5
64A4
330
646E
100
AcDbEntity
  8
0
  6
________________
 62
     7
370
     9
100
AcDbLine
 10
267.0999999998418
 20
149.5000000000217
 30
0.0
 11
267.0999999998418
 21
144.5000000000217
 31
0.0
  0
LINE
  5
64A5
330
646E
100
AcDbEntity
  8
0
  6
________________
 62
     7
370
     9
100
AcDbLine
 10
266.6999999998417
 20
263.4999999999787
 30
0.0
 11
267.0999999998417
 21
263.4999999999787
 31
0.0
  0
LINE
  5
64A6
330
646E
100
AcDbEntity
  8
0
  6
________________
 62
     7
370
     9
100
AcDbLine
 10
267.0999999998417
 20
263.4999999999806
 30
0.0
 11
267.0999999998417
 21
258.4999999999806
 31
0.0
  0
ARC
  5
64A7
330
646E
100
AcDbEntity
  8
0
  6
________________
 62
   253
370
     9
100
AcDbCircle
 10
263.1999999998418
 20
149.120091091859
 30
0.0
 40
2.766461776209591
100
AcDbArc
 50
182.4879705953572
 51
357.5120294046424
  0
LINE
  5
64A8
330
646E
100
AcDbEntity
  8
0
  6
________________
 62
   253
370
     9
100
AcDbLine
 10
265.9638539918046
 20
149.000000000018
 30
0.0
 11
266.5166247901971
 21
149.000000000018
 31
0.0
  0
ARC
  5
64A9
330
646E
100
AcDbEntity
  8
0
  6
________________
 62
   253
370
     9
100
AcDbCircle
 10
-263.1999999998405
 20
149.0094086110701
 30
0.0
 40
3.31663813551761
210
0.0
220
0.0
230
-1.0
100
AcDbArc
 50
180.1625364014287
 51
359.8374635985695
  0
LINE
  5
64AA
330
646E
100
AcDbEntity
  8
0
  6
________________
 62
   253
370
     9
100
AcDbLine
 10
260.4361460078789
 20
149.000000000018
 30
0.0
 11
259.8833752094864
 21
149.000000000018
 31
0.0
  0
LINE
  5
64AB
330
646E
100
AcDbEntity
  8
0
  6
________________
 62
   253
370
     9
100
AcDbLine
 10
260.4361460078789
 20
259.000000000018
 30
0.0
 11
260.4361460078789
 21
149.000000000018
 31
0.0
  0
ARC
  5
64AC
330
646E
100
AcDbEntity
  8
0
  6
________________
 62
   253
370
     9
100
AcDbCircle
 10
263.1999999998417
 20
258.879908908177
 30
0.0
 40
2.76646177620959
100
AcDbArc
 50
2.487970595356632
 51
177.5120294046433
  0
LINE
  5
64AD
330
646E
100
AcDbEntity
  8
0
  6
________________
 62
   253
370
     9
100
AcDbLine
 10
265.9638539918046
 20
149.000000000018
 30
0.0
 11
265.9638539918046
 21
259.000000000018
 31
0.0
  0
ARC
  5
64AE
330
646E
100
AcDbEntity
  8
0
  6
________________
 62
   253
370
     9
100
AcDbCircle
 10
-263.1999999998429
 20
258.9910170831696
 30
0.0
 40
3.316636955230869
210
0.0
220
0.0
230
-1.0
100
AcDbArc
 50
0.1551824511799715
 51
179.8448175488181
  0
LINE
  5
64AF
330
646E
100
AcDbEntity
  8
0
  6
________________
 62
   253
370
     9
100
AcDbLine
 10
266.5166247901972
 20
259.000000000018
 30
0.0
 11
265.9638539918046
 21
259.000000000018
 31
0.0
  0
LINE
  5
64B0
330
646E
100
AcDbEntity
  8
0
  6
________________
 62
   253
370
     9
100
AcDbLine
 10
259.8833752094864
 20
259.000000000018
 30
0.0
 11
260.4361460078789
 21
259.000000000018
 31
0.0
  0
LINE
  5
64B1
330
646E
100
AcDbEntity
  8
0
  6
________________
 62
   253
370
     9
100
AcDbLine
 10
266.5166247901972
 20
259.000000000018
 30
0.0
 11
266.5166247901972
 21
149.000000000018
 31
0.0
  0
LINE
  5
64B2
330
646E
100
AcDbEntity
  8
0
  6
________________
 62
   253
370
     9
100
AcDbLine
 10
259.6999999998417
 20
149.000000000018
 30
0.0
 11
259.6999999998417
 21
259.000000000018
 31
0.0
  0
LINE
  5
64B3
330
646E
100
AcDbEntity
  8
0
  6
________________
 62
   253
370
     9
100
AcDbLine
 10
259.8833752094864
 20
259.000000000018
 30
0.0
 11
259.6999999998417
 21
259.000000000018
 31
0.0
  0
LINE
  5
64B4
330
646E
100
AcDbEntity
  8
0
  6
________________
 62
   253
370
     9
100
AcDbLine
 10
259.8833752094864
 20
149.000000000018
 30
0.0
 11
259.8833752094864
 21
259.000000000018
 31
0.0
  0
LINE
  5
64B5
330
646E
100
AcDbEntity
  8
0
  6
________________
 62
   253
370
     9
100
AcDbLine
 10
259.6999999998417
 20
149.000000000018
 30
0.0
 11
259.8833752094864
 21
149.000000000018
 31
0.0
  0
LINE
  5
64B6
330
646E
100
AcDbEntity
  8
0
  6
________________
 62
   253
370
     9
100
AcDbLine
 10
259.6999999998417
 20
259.000000000018
 30
0.0
 11
259.6999999998417
 21
264.000000000018
 31
0.0
  0
LINE
  5
64B7
330
646E
100
AcDbEntity
  8
0
  6
________________
 62
     7
370
     9
100
AcDbLine
 10
259.6999999998417
 20
264.000000000018
 30
0.0
 11
266.6999999998417
 21
264.000000000018
 31
0.0
  0
LINE
  5
64B8
330
646E
100
AcDbEntity
  8
0
  6
________________
 62
   253
370
     9
100
AcDbLine
 10
266.6999999998417
 20
259.000000000018
 30
0.0
 11
266.5166247901971
 21
259.000000000018
 31
0.0
  0
LINE
  5
64B9
330
646E
100
AcDbEntity
  8
0
  6
________________
 62
     7
370
     9
100
AcDbLine
 10
266.6999999998417
 20
264.000000000018
 30
0.0
 11
266.6999999998417
 21
259.000000000018
 31
0.0
  0
LINE
  5
64BA
330
646E
100
AcDbEntity
  8
0
  6
________________
 62
     7
370
     9
100
AcDbLine
 10
258.6999999998418
 20
145.000000000018
 30
0.0
 11
258.6999999998418
 21
149.000000000018
 31
0.0
  0
LINE
  5
64BB
330
646E
100
AcDbEntity
  8
0
  6
________________
 62
   253
370
     9
100
AcDbLine
 10
259.6999999998417
 20
149.000000000018
 30
0.0
 11
258.6999999998417
 21
149.000000000018
 31
0.0
  0
LINE
  5
64BC
330
646E
100
AcDbEntity
  8
0
  6
________________
 62
   253
370
     9
100
AcDbLine
 10
259.6999999998418
 20
144.000000000018
 30
0.0
 11
259.6999999998418
 21
149.000000000018
 31
0.0
  0
ARC
  5
64BD
330
646E
100
AcDbEntity
  8
0
  6
________________
 62
     7
370
     9
100
AcDbCircle
 10
259.6999999998418
 20
145.000000000018
 30
0.0
 40
1.000000000000001
100
AcDbArc
 50
180.0
 51
270.0
  0
LINE
  5
64BE
330
646E
100
AcDbEntity
  8
0
  6
________________
 62
     7
370
     9
100
AcDbLine
 10
266.6999999998417
 20
144.000000000018
 30
0.0
 11
259.6999999998418
 21
144.000000000018
 31
0.0
  0
LINE
  5
64BF
330
646E
100
AcDbEntity
  8
0
  6
________________
 62
   253
370
     9
100
AcDbLine
 10
266.5166247901972
 20
149.000000000018
 30
0.0
 11
266.6999999998417
 21
149.000000000018
 31
0.0
  0
LINE
  5
64C0
330
646E
100
AcDbEntity
  8
0
  6
________________
 62
     7
370
     9
100
AcDbLine
 10
266.6999999998417
 20
149.000000000018
 30
0.0
 11
266.6999999998417
 21
144.000000000018
 31
0.0
  0
LINE
  5
64C1
330
646E
100
AcDbEntity
  8
0
  6
________________
 62
     7
370
     9
100
AcDbLine
 10
266.6999999998417
 20
149.000000000018
 30
0.0
 11
266.6999999998417
 21
259.000000000018
 31
0.0
  0
LINE
  5
64C2
330
646E
100
AcDbEntity
  8
0
  6
________________
 62
     7
370
     9
100
AcDbLine
 10
258.6999999998417
 20
149.000000000018
 30
0.0
 11
258.6999999998417
 21
259.000000000018
 31
0.0
  0
LINE
  5
64C3
330
646E
100
AcDbEntity
  8
0
  6
________________
 62
   253
370
     9
100
AcDbLine
 10
259.6999999998417
 20
259.000000000018
 30
0.0
 11
258.6999999998417
 21
259.000000000018
 31
0.0
  0
LINE
  5
64C4
330
646E
100
AcDbEntity
  8
0
  6
________________
 62
     7
370
     9
100
AcDbLine
 10
258.6999999998417
 20
259.000000000018
 30
0.0
 11
258.6999999998417
 21
263.000000000018
 31
0.0
  0
ARC
  5
64C5
330
646E
100
AcDbEntity
  8
0
  6
________________
 62
     7
370
     9
100
AcDbCircle
 10
259.6999999998417
 20
263.000000000018
 30
0.0
 40
1.000000000000001
100
AcDbArc
 50
90.00000000000001
 51
180.0
  0
LINE
  5
64C6
330
646E
100
AcDbEntity
  8
0
  6
________________
 62
     7
370
     9
100
AcDbLine
 10
273.6999999998417
 20
244.000000000018
 30
0.0
 11
273.6999999998417
 21
254.000000000018
 31
0.0
  0
LINE
  5
64C7
330
646E
100
AcDbEntity
  8
0
  6
________________
 62
     7
370
     9
100
AcDbLine
 10
273.6999999998417
 20
154.0000000000181
 30
0.0
 11
273.6999999998417
 21
164.0000000000181
 31
0.0
  0
LINE
  5
64C8
330
646E
100
AcDbEntity
  8
0
  6
________________
 62
   253
370
     9
100
AcDbLine
 10
273.6999999998417
 20
156.5000000000264
 30
0.0
 11
275.0999999998386
 21
156.5000000000264
 31
0.0
  0
LINE
  5
64C9
330
646E
100
AcDbEntity
  8
0
  6
________________
 62
   253
370
     9
100
AcDbLine
 10
275.0999999998386
 20
161.5000000000264
 30
0.0
 11
273.6999999998417
 21
161.5000000000264
 31
0.0
  0
LINE
  5
64CA
330
646E
100
AcDbEntity
  8
0
  6
________________
 62
   253
370
     9
100
AcDbLine
 10
273.6999999998417
 20
246.5000000000259
 30
0.0
 11
275.0999999998386
 21
246.5000000000259
 31
0.0
  0
LINE
  5
64CB
330
646E
100
AcDbEntity
  8
0
  6
________________
 62
   253
370
     9
100
AcDbLine
 10
275.0999999998386
 20
251.5000000000259
 30
0.0
 11
273.6999999998417
 21
251.5000000000259
 31
0.0
  0
LINE
  5
64CC
330
646E
100
AcDbEntity
  8
0
  6
________________
 62
     7
370
     9
100
AcDbLine
 10
268.6000000003015
 20
152.0000000000181
 30
0.0
 11
273.6000000003015
 21
152.0000000003469
 31
0.0
  0
LINE
  5
64CD
330
646E
100
AcDbEntity
  8
0
  6
________________
 62
     7
370
     9
100
AcDbLine
 10
273.5999999993809
 20
166.0000000003469
 30
0.0
 11
268.599999999381
 21
166.0000000000181
 31
0.0
  0
LINE
  5
64CE
330
646E
100
AcDbEntity
  8
0
  6
________________
 62
     7
370
     9
100
AcDbLine
 10
268.6000000003014
 20
241.9999999999842
 30
0.0
 11
273.6000000003014
 21
242.0000000003129
 31
0.0
  0
LINE
  5
64CF
330
646E
100
AcDbEntity
  8
0
  6
________________
 62
     7
370
     9
100
AcDbLine
 10
273.5999999993809
 20
256.0000000003129
 30
0.0
 11
268.5999999993809
 21
255.9999999999842
 31
0.0
  0
LINE
  5
64D0
330
646E
100
AcDbEntity
  8
0
  6
________________
 62
     7
370
     9
100
AcDbLine
 10
283.5999999998388
 20
152.7500000000264
 30
0.0
 11
285.0499999998387
 21
153.5871578903513
 31
0.0
  0
LINE
  5
64D1
330
646E
100
AcDbEntity
  8
0
  6
________________
 62
     7
370
     9
100
AcDbLine
 10
285.0499999998387
 20
164.4128421097014
 30
0.0
 11
283.5999999998388
 21
165.2500000000264
 31
0.0
  0
LINE
  5
64D2
330
646E
100
AcDbEntity
  8
0
  6
________________
 62
     7
370
     9
100
AcDbLine
 10
283.5999999998388
 20
165.2500000000264
 30
0.0
 11
283.4999999998386
 21
165.2500000000264
 31
0.0
  0
LINE
  5
64D3
330
646E
100
AcDbEntity
  8
0
  6
________________
 62
     7
370
     9
100
AcDbLine
 10
283.4999999998386
 20
152.7500000000264
 30
0.0
 11
283.5999999998388
 21
152.7500000000264
 31
0.0
  0
ARC
  5
64D4
330
646E
100
AcDbEntity
  8
0
  6
________________
 62
     7
370
     9
100
AcDbCircle
 10
284.7999999998387
 20
163.9798294078092
 30
0.0
 40
0.5000000000000004
100
AcDbArc
 50
359.9999999999993
 51
59.99999999999937
  0
ARC
  5
64D5
330
646E
100
AcDbEntity
  8
0
  6
________________
 62
     7
370
     9
100
AcDbCircle
 10
284.7999999998387
 20
154.0201705922435
 30
0.0
 40
0.500000000000002
100
AcDbArc
 50
299.9999999999995
 51
0.0
  0
LINE
  5
64D6
330
646E
100
AcDbEntity
  8
0
  6
________________
 62
     7
370
     9
100
AcDbLine
 10
283.6000000002398
 20
255.250000000135
 30
0.0
 11
283.4999999998386
 21
255.2500000001414
 31
0.0
  0
LINE
  5
64D7
330
646E
100
AcDbEntity
  8
0
  6
________________
 62
     7
370
     9
100
AcDbLine
 10
283.4999999998386
 20
242.7500000001414
 30
0.0
 11
283.5999999994377
 21
242.750000000135
 31
0.0
  0
LINE
  5
64D8
330
646E
100
AcDbEntity
  8
0
  6
________________
 62
     7
370
     9
100
AcDbLine
 10
283.5999999994377
 20
242.750000000135
 30
0.0
 11
285.0499999994914
 21
243.5871578903669
 31
0.0
  0
LINE
  5
64D9
330
646E
100
AcDbEntity
  8
0
  6
________________
 62
     7
370
     9
100
AcDbLine
 10
285.0500000001861
 20
254.412842109717
 30
0.0
 11
283.6000000002398
 21
255.250000000135
 31
0.0
  0
ARC
  5
64DA
330
646E
100
AcDbEntity
  8
0
  6
________________
 62
     7
370
     9
100
AcDbCircle
 10
284.8000000001583
 20
253.9798294078409
 30
0.0
 40
0.5000000000000004
100
AcDbArc
 50
359.9999999963233
 51
59.99999999632371
  0
ARC
  5
64DB
330
646E
100
AcDbEntity
  8
0
  6
________________
 62
     7
370
     9
100
AcDbCircle
 10
284.7999999995192
 20
244.0201705922752
 30
0.0
 40
0.5000000000000036
100
AcDbArc
 50
299.9999999963236
 51
359.9999999963242
  0
LINE
  5
64DC
330
646E
100
AcDbEntity
  8
0
  6
________________
 62
     7
370
     9
100
AcDbLine
 10
273.7000149898417
 20
156.0000000000264
 30
0.0
 11
275.0999999998386
 21
156.0000000000264
 31
0.0
  0
LINE
  5
64DD
330
646E
100
AcDbEntity
  8
0
  6
________________
 62
     7
370
     9
100
AcDbLine
 10
275.0999999998386
 20
162.0000000000264
 30
0.0
 11
273.7000149898417
 21
162.0000000000264
 31
0.0
  0
LINE
  5
64DE
330
646E
100
AcDbEntity
  8
0
  6
________________
 62
     7
370
     9
100
AcDbLine
 10
273.7000149898417
 20
246.0000000000259
 30
0.0
 11
275.0999999998386
 21
246.0000000000259
 31
0.0
  0
LINE
  5
64DF
330
646E
100
AcDbEntity
  8
0
  6
________________
 62
     7
370
     9
100
AcDbLine
 10
275.0999999998386
 20
252.0000000000259
 30
0.0
 11
273.7000149898417
 21
252.0000000000259
 31
0.0
  0
LINE
  5
64E0
330
646E
100
AcDbEntity
  8
0
  6
________________
 62
     7
370
     9
100
AcDbLine
 10
273.6999999998417
 20
254.000000000018
 30
0.0
 11
273.5999999995125
 21
254.000000000018
 31
0.0
  0
LINE
  5
64E1
330
646E
100
AcDbEntity
  8
0
  6
________________
 62
     7
370
     9
100
AcDbLine
 10
268.5999999995124
 20
254.000000000018
 30
0.0
 11
267.0999999998417
 21
254.000000000018
 31
0.0
  0
LINE
  5
64E2
330
646E
100
AcDbEntity
  8
0
  6
________________
 62
     7
370
     9
100
AcDbLine
 10
267.0999999998417
 20
244.000000000018
 30
0.0
 11
268.6000000001699
 21
244.000000000018
 31
0.0
  0
LINE
  5
64E3
330
646E
100
AcDbEntity
  8
0
  6
________________
 62
     7
370
     9
100
AcDbLine
 10
273.6000000001699
 20
244.000000000018
 30
0.0
 11
273.6999999998417
 21
244.000000000018
 31
0.0
  0
LINE
  5
64E4
330
646E
100
AcDbEntity
  8
0
  6
________________
 62
     7
370
     9
100
AcDbLine
 10
273.6999999998417
 20
164.0000000000181
 30
0.0
 11
273.5999999995125
 21
164.0000000000181
 31
0.0
  0
LINE
  5
64E5
330
646E
100
AcDbEntity
  8
0
  6
________________
 62
     7
370
     9
100
AcDbLine
 10
268.5999999995124
 20
164.0000000000181
 30
0.0
 11
267.0999999998417
 21
164.0000000000181
 31
0.0
  0
LINE
  5
64E6
330
646E
100
AcDbEntity
  8
0
  6
________________
 62
     7
370
     9
100
AcDbLine
 10
267.0999999998418
 20
154.0000000000181
 30
0.0
 11
268.60000000017
 21
154.0000000000181
 31
0.0
  0
LINE
  5
64E7
330
646E
100
AcDbEntity
  8
0
  6
________________
 62
     7
370
     9
100
AcDbLine
 10
273.6000000001699
 20
154.0000000000181
 30
0.0
 11
273.6999999998417
 21
154.0000000000181
 31
0.0
  0
ENDBLK
  5
64E8
330
646E
100
AcDbEntity
  8
0
100
AcDbBlockEnd
  0
BLOCK
  5
64EB
330
64EA
100
AcDbEntity
  8
0
100
AcDbBlockBegin
  2
D_FRAME_VIEW@391
 70
     0
 10
0.0
 20
0.0
 30
0.0
  3
D_FRAME_VIEW@391
  1

  0
CIRCLE
  5
64EC
330
64EA
100
AcDbEntity
  8
0
  6
________________
 62
   253
370
     9
100
AcDbCircle
 10
69.49999999999997
 20
159.0000000000101
 30
0.0
 40
4.979829407782827
  0
CIRCLE
  5
64ED
330
64EA
100
AcDbEntity
  8
0
  6
________________
 62
   253
370
     9
100
AcDbCircle
 10
-69.49999999999997
 20
159.0000000000101
 30
0.0
 40
5.412842109675048
210
0.0
220
0.0
230
-1.0
  0
CIRCLE
  5
64EE
330
64EA
100
AcDbEntity
  8
0
  6
________________
 62
     7
370
     9
100
AcDbCircle
 10
69.49999999999997
 20
159.0000000000101
 30
0.0
 40
6.250000000000005
  0
CIRCLE
  5
64EF
330
64EA
100
AcDbEntity
  8
0
  6
________________
 62
   253
370
     9
100
AcDbCircle
 10
69.49999999999996
 20
249.0000000000096
 30
0.0
 40
4.979829407782827
  0
CIRCLE
  5
64F0
330
64EA
100
AcDbEntity
  8
0
  6
________________
 62
   253
370
     9
100
AcDbCircle
 10
-69.49999999999996
 20
249.0000000000257
 30
0.0
 40
5.412842109675048
210
0.0
220
0.0
230
-1.0
  0
CIRCLE
  5
64F1
330
64EA
100
AcDbEntity
  8
0
  6
________________
 62
     7
370
     9
100
AcDbCircle
 10
69.49999999999996
 20
249.0000000001187
 30
0.0
 40
6.250000000000005
  0
ARC
  5
64F2
330
64EA
100
AcDbEntity
  8
0
  6
________________
 62
   253
370
     9
100
AcDbCircle
 10
81.99999999999997
 20
258.9999999999657
 30
0.0
 40
4.000000000000004
100
AcDbArc
 50
0.0
 51
90.00000000000001
  0
LINE
  5
64F3
330
64EA
100
AcDbEntity
  8
0
  6
________________
 62
   253
370
     9
100
AcDbLine
 10
86.00000000000001
 20
148.9999999999657
 30
0.0
 11
85.99999999999997
 21
258.9999999999657
 31
0.0
  0
ARC
  5
64F4
330
64EA
100
AcDbEntity
  8
0
  6
________________
 62
   253
370
     9
100
AcDbCircle
 10
82.00000000000001
 20
148.9999999999657
 30
0.0
 40
4.000000000000004
100
AcDbArc
 50
270.0
 51
0.0000000000000568
  0
LINE
  5
64F5
330
64EA
100
AcDbEntity
  8
0
  6
________________
 62
   253
370
     9
100
AcDbLine
 10
57.00000000000002
 20
144.9999999999657
 30
0.0
 11
82.00000000000003
 21
144.9999999999657
 31
0.0
  0
ARC
  5
64F6
330
64EA
100
AcDbEntity
  8
0
  6
________________
 62
   253
370
     9
100
AcDbCircle
 10
57.00000000000002
 20
148.9999999999657
 30
0.0
 40
4.000000000000004
100
AcDbArc
 50
179.9999999999999
 51
270.0000000000001
  0
LINE
  5
64F7
330
64EA
100
AcDbEntity
  8
0
  6
________________
 62
   253
370
     9
100
AcDbLine
 10
52.99999999999998
 20
258.9999999999657
 30
0.0
 11
53.00000000000003
 21
148.9999999999657
 31
0.0
  0
ARC
  5
64F8
330
64EA
100
AcDbEntity
  8
0
  6
________________
 62
   253
370
     9
100
AcDbCircle
 10
56.99999999999998
 20
258.9999999999657
 30
0.0
 40
4.000000000000004
100
AcDbArc
 50
90.00000000000001
 51
180.0
  0
LINE
  5
64F9
330
64EA
100
AcDbEntity
  8
0
  6
________________
 62
   253
370
     9
100
AcDbLine
 10
81.99999999999997
 20
262.9999999999657
 30
0.0
 11
56.99999999999997
 21
262.9999999999657
 31
0.0
  0
LINE
  5
64FA
330
64EA
100
AcDbEntity
  8
0
  6
________________
 62
     7
370
     9
100
AcDbLine
 10
82.00000000000003
 20
143.9999999999657
 30
0.0
 11
57.00000000000002
 21
143.9999999999657
 31
0.0
  0
LINE
  5
64FB
330
64EA
100
AcDbEntity
  8
0
  6
________________
 62
   253
370
     9
100
AcDbLine
 10
57.00000000000002
 20
143.9999999999657
 30
0.0
 11
57.00000000000002
 21
144.9999999999657
 31
0.0
  0
LINE
  5
64FC
330
64EA
100
AcDbEntity
  8
0
  6
________________
 62
   253
370
     9
100
AcDbLine
 10
82.00000000000003
 20
143.9999999999657
 30
0.0
 11
82.00000000000003
 21
144.9999999999657
 31
0.0
  0
LINE
  5
64FD
330
64EA
100
AcDbEntity
  8
0
  6
________________
 62
     7
370
     9
100
AcDbLine
 10
51.99999999999998
 20
258.9999999999657
 30
0.0
 11
52.00000000000002
 21
148.9999999999657
 31
0.0
  0
LINE
  5
64FE
330
64EA
100
AcDbEntity
  8
0
  6
________________
 62
   253
370
     9
100
AcDbLine
 10
51.99999999999998
 20
258.9999999999657
 30
0.0
 11
52.99999999999998
 21
258.9999999999657
 31
0.0
  0
LINE
  5
64FF
330
64EA
100
AcDbEntity
  8
0
  6
________________
 62
   253
370
     9
100
AcDbLine
 10
52.00000000000002
 20
148.9999999999657
 30
0.0
 11
53.00000000000003
 21
148.9999999999657
 31
0.0
  0
LINE
  5
6500
330
64EA
100
AcDbEntity
  8
0
  6
________________
 62
   253
370
     9
100
AcDbLine
 10
86.00000000000001
 20
148.9999999999657
 30
0.0
 11
87.00000000000001
 21
148.9999999999657
 31
0.0
  0
ARC
  5
6501
330
64EA
100
AcDbEntity
  8
0
  6
________________
 62
     7
370
     9
100
AcDbCircle
 10
82.00000000000001
 20
148.9999999999657
 30
0.0
 40
5.000000000000004
100
AcDbArc
 50
270.0000000000001
 51
0.0000000000001137
  0
LINE
  5
6502
330
64EA
100
AcDbEntity
  8
0
  6
________________
 62
   253
370
     9
100
AcDbLine
 10
85.99999999999997
 20
258.9999999999657
 30
0.0
 11
86.99999999999997
 21
258.9999999999657
 31
0.0
  0
LINE
  5
6503
330
64EA
100
AcDbEntity
  8
0
  6
________________
 62
     7
370
     9
100
AcDbLine
 10
86.99999999999997
 20
258.9999999999657
 30
0.0
 11
87.00000000000001
 21
148.9999999999657
 31
0.0
  0
ARC
  5
6504
330
64EA
100
AcDbEntity
  8
0
  6
________________
 62
     7
370
     9
100
AcDbCircle
 10
57.00000000000002
 20
148.9999999999657
 30
0.0
 40
5.000000000000004
100
AcDbArc
 50
179.9999999999999
 51
270.0000000000001
  0
ARC
  5
6505
330
64EA
100
AcDbEntity
  8
0
  6
________________
 62
     7
370
     9
100
AcDbCircle
 10
56.99999999999998
 20
258.9999999999657
 30
0.0
 40
5.000000000000004
100
AcDbArc
 50
90.00000000000004
 51
180.0
  0
LINE
  5
6506
330
64EA
100
AcDbEntity
  8
0
  6
________________
 62
   253
370
     9
100
AcDbLine
 10
56.99999999999997
 20
262.9999999999657
 30
0.0
 11
56.99999999999997
 21
263.9999999999657
 31
0.0
  0
LINE
  5
6507
330
64EA
100
AcDbEntity
  8
0
  6
________________
 62
   253
370
     9
100
AcDbLine
 10
81.99999999999997
 20
262.9999999999657
 30
0.0
 11
81.99999999999997
 21
263.9999999999657
 31
0.0
  0
ARC
  5
6508
330
64EA
100
AcDbEntity
  8
0
  6
________________
 62
     7
370
     9
100
AcDbCircle
 10
81.99999999999997
 20
258.9999999999657
 30
0.0
 40
5.000000000000004
100
AcDbArc
 50
0.0
 51
90.00000000000004
  0
LINE
  5
6509
330
64EA
100
AcDbEntity
  8
0
  6
________________
 62
     7
370
     9
100
AcDbLine
 10
56.99999999999997
 20
263.9999999999657
 30
0.0
 11
81.99999999999997
 21
263.9999999999657
 31
0.0
  0
ENDBLK
  5
650A
330
64EA
100
AcDbEntity
  8
0
100
AcDbBlockEnd
  0
ENDSEC
  0
SECTION
  2
ENTITIES
  0
TEXT
  5
61B5
330
A
100
AcDbEntity
  8
0
  6
Continuous
 62
     7
100
AcDbText
 10
61.93570338913199
 20
-43.45338179205464
 30
0.0
 40
10.0
  1
5B05
100
AcDbText
  0
LINE
  5
650B
330
A
100
AcDbEntity
  8
0
  6
CENTER
 62
     1
100
AcDbLine
 10
-12.461918202199
 20
0.0000000000000355
 30
0.0
 11
12.46191820219891
 21
0.0000000000000355
 31
0.0
  0
LINE
  5
650C
330
A
100
AcDbEntity
  8
0
  6
CENTER
 62
     1
100
AcDbLine
 10
0.0
 20
-12.46191820219892
 30
0.0
 11
0.0
 21
12.46191820219899
 31
0.0
  0
LINE
  5
650D
330
A
100
AcDbEntity
  8
0
  6
________________
 62
     7
370
     9
100
AcDbLine
 10
-7.0
 20
-66.59999999985125
 30
0.0
 11
7.0
 21
-66.59999999985125
 31
0.0
  0
LINE
  5
650E
330
A
100
AcDbEntity
  8
0
  6
________________
 62
     7
370
     9
100
AcDbLine
 10
-7.0
 20
-71.59999999985125
 30
0.0
 11
7.0
 21
-71.59999999985125
 31
0.0
  0
LINE
  5
650F
330
A
100
AcDbEntity
  8
0
  6
________________
 62
     7
370
     9
100
AcDbLine
 10
4.97982940778283
 20
-83.29999999984881
 30
0.0
 11
3.81477064551305
 21
-83.29999999984881
 31
0.0
  0
LINE
  5
6510
330
A
100
AcDbEntity
  8
0
  6
________________
 62
     7
370
     9
100
AcDbLine
 10
3.81477064551305
 20
-83.29999999984881
 30
0.0
 11
0.000066040372559
 21
-83.29999999984881
 31
0.0
  0
LINE
  5
6511
330
A
100
AcDbEntity
  8
0
  6
________________
 62
     7
370
     9
100
AcDbLine
 10
0.000066040372559
 20
-83.29999999984881
 30
0.0
 11
-4.979829407782816
 21
-83.29999999984881
 31
0.0
  0
LINE
  5
6512
330
A
100
AcDbEntity
  8
0
  6
________________
 62
     7
370
     9
100
AcDbLine
 10
6.25
 20
-81.59999999984879
 30
0.0
 11
-6.250000000000014
 21
-81.59999999984879
 31
0.0
  0
LINE
  5
6513
330
A
100
AcDbEntity
  8
0
  6
________________
 62
   253
370
     9
100
AcDbLine
 10
-5.41284210967504
 20
-83.0499999998488
 30
0.0
 11
5.41284210967504
 21
-83.0499999998488
 31
0.0
  0
LINE
  5
6514
330
A
100
AcDbEntity
  8
0
  6
________________
 62
     7
370
     9
100
AcDbLine
 10
4.97982940778283
 20
-83.2999999998488
 30
0.0
 11
-4.97982940778283
 21
-83.2999999998488
 31
0.0
  0
LINE
  5
6515
330
A
100
AcDbEntity
  8
0
  6
________________
 62
     7
370
     9
100
AcDbLine
 10
16.5
 20
-81.49999999984867
 30
0.0
 11
12.5
 21
-81.49999999984867
 31
0.0
  0
LINE
  5
6516
330
A
100
AcDbEntity
  8
0
  6
________________
 62
   253
370
     9
100
AcDbLine
 10
12.5
 20
-81.49999999984867
 30
0.0
 11
12.5
 21
-80.49999999984867
 31
0.0
  0
LINE
  5
6517
330
A
100
AcDbEntity
  8
0
  6
________________
 62
   253
370
     9
100
AcDbLine
 10
17.5
 20
-80.49999999984867
 30
0.0
 11
12.5
 21
-80.49999999984867
 31
0.0
  0
ARC
  5
6518
330
A
100
AcDbEntity
  8
0
  6
________________
 62
     7
370
     9
100
AcDbCircle
 10
16.5
 20
-80.49999999984867
 30
0.0
 40
1.000000000000001
100
AcDbArc
 50
270.0
 51
0.0
  0
LINE
  5
6519
330
A
100
AcDbEntity
  8
0
  6
________________
 62
   253
370
     9
100
AcDbLine
 10
12.5
 20
-80.49999999984867
 30
0.0
 11
12.5
 21
-73.49999999984865
 31
0.0
  0
LINE
  5
651A
330
A
100
AcDbEntity
  8
0
  6
________________
 62
     7
370
     9
100
AcDbLine
 10
12.5
 20
-73.49999999984865
 30
0.0
 11
17.5
 21
-73.49999999984865
 31
0.0
  0
LINE
  5
651B
330
A
100
AcDbEntity
  8
0
  6
________________
 62
     7
370
     9
100
AcDbLine
 10
17.5
 20
-73.49999999984865
 30
0.0
 11
17.5
 21
-73.68337520949322
 31
0.0
  0
ARC
  5
651C
330
A
100
AcDbEntity
  8
0
  6
________________
 62
   253
370
     9
100
AcDbCircle
 10
-21.27503390582845
 20
-76.99999999984747
 30
0.0
 40
5.02502547159339
210
0.0
220
0.0
230
-1.0
100
AcDbArc
 50
318.6984883702305
 51
41.3015116297695
  0
LINE
  5
651D
330
A
100
AcDbEntity
  8
0
  6
________________
 62
     7
370
     9
100
AcDbLine
 10
17.5
 20
-80.3166247902041
 30
0.0
 11
17.5
 21
-80.49999999984867
 31
0.0
  0
LINE
  5
651E
330
A
100
AcDbEntity
  8
0
  6
________________
 62
     7
370
     9
100
AcDbLine
 10
-12.5
 20
-73.49999999984865
 30
0.0
 11
12.5
 21
-73.49999999984865
 31
0.0
  0
LINE
  5
651F
330
A
100
AcDbEntity
  8
0
  6
________________
 62
   253
370
     9
100
AcDbLine
 10
-12.5
 20
-80.49999999984867
 30
0.0
 11
12.5
 21
-80.49999999984867
 31
0.0
  0
LINE
  5
6520
330
A
100
AcDbEntity
  8
0
  6
________________
 62
   253
370
     9
100
AcDbLine
 10
-12.5
 20
-73.49999999984865
 30
0.0
 11
-12.5
 21
-80.49999999984867
 31
0.0
  0
LINE
  5
6521
330
A
100
AcDbEntity
  8
0
  6
________________
 62
     7
370
     9
100
AcDbLine
 10
12.5
 20
-81.49999999984867
 30
0.0
 11
-12.5
 21
-81.49999999984867
 31
0.0
  0
LINE
  5
6522
330
A
100
AcDbEntity
  8
0
  6
________________
 62
   253
370
     9
100
AcDbLine
 10
-12.5
 20
-81.49999999984867
 30
0.0
 11
-12.5
 21
-80.49999999984867
 31
0.0
  0
LINE
  5
6523
330
A
100
AcDbEntity
  8
0
  6
________________
 62
     7
370
     9
100
AcDbLine
 10
-12.5
 20
-81.49999999984867
 30
0.0
 11
-16.5
 21
-81.49999999984867
 31
0.0
  0
ARC
  5
6524
330
A
100
AcDbEntity
  8
0
  6
________________
 62
     7
370
     9
100
AcDbCircle
 10
-16.5
 20
-80.49999999984867
 30
0.0
 40
1.000000000000001
100
AcDbArc
 50
180.0
 51
270.0
  0
LINE
  5
6525
330
A
100
AcDbEntity
  8
0
  6
________________
 62
   253
370
     9
100
AcDbLine
 10
-12.5
 20
-80.49999999984867
 30
0.0
 11
-17.5
 21
-80.49999999984867
 31
0.0
  0
LINE
  5
6526
330
A
100
AcDbEntity
  8
0
  6
________________
 62
     7
370
     9
100
AcDbLine
 10
-17.5
 20
-80.49999999984867
 30
0.0
 11
-17.5
 21
-80.31662479020406
 31
0.0
  0
ARC
  5
6527
330
A
100
AcDbEntity
  8
0
  6
________________
 62
   253
370
     9
100
AcDbCircle
 10
21.27503390582848
 20
-76.99999999984983
 30
0.0
 40
5.025025471593399
210
0.0
220
0.0
230
-1.0
100
AcDbArc
 50
138.6984883702311
 51
221.301511629769
  0
LINE
  5
6528
330
A
100
AcDbEntity
  8
0
  6
________________
 62
     7
370
     9
100
AcDbLine
 10
-17.5
 20
-73.68337520949326
 30
0.0
 11
-17.5
 21
-73.49999999984865
 31
0.0
  0
LINE
  5
6529
330
A
100
AcDbEntity
  8
0
  6
________________
 62
     7
370
     9
100
AcDbLine
 10
-17.5
 20
-73.49999999984865
 30
0.0
 11
-12.5
 21
-73.49999999984865
 31
0.0
  0
ARC
  5
652A
330
A
100
AcDbEntity
  8
0
  6
________________
 62
     7
370
     9
100
AcDbCircle
 10
-16.5
 20
-73.68337520949322
 30
0.0
 40
1.000000000000001
210
0.0
220
0.0
230
-1.0
100
AcDbArc
 50
180.0
 51
213.5573097619207
  0
ARC
  5
652B
330
A
100
AcDbEntity
  8
0
  6
________________
 62
     7
370
     9
100
AcDbCircle
 10
21.50000000000014
 20
-76.9999999998487
 30
0.0
 40
5.000000000000147
100
AcDbArc
 50
146.4426902380795
 51
213.5573097619205
  0
ARC
  5
652C
330
A
100
AcDbEntity
  8
0
  6
________________
 62
     7
370
     9
100
AcDbCircle
 10
16.5
 20
-80.3166247902041
 30
0.0
 40
1.000000000000001
100
AcDbArc
 50
0.0
 51
33.55730976192068
  0
ARC
  5
652D
330
A
100
AcDbEntity
  8
0
  6
________________
 62
     7
370
     9
100
AcDbCircle
 10
-21.50000000000018
 20
-76.99999999984863
 30
0.0
 40
5.000000000000189
100
AcDbArc
 50
326.4426902380799
 51
33.55730976191983
  0
ARC
  5
652E
330
A
100
AcDbEntity
  8
0
  6
________________
 62
     7
370
     9
100
AcDbCircle
 10
16.5
 20
-73.68337520949326
 30
0.0
 40
0.9999999999999996
210
0.0
220
0.0
230
-1.0
100
AcDbArc
 50
326.4426902380789
 51
0.0
  0
ARC
  5
652F
330
A
100
AcDbEntity
  8
0
  6
________________
 62
     7
370
     9
100
AcDbCircle
 10
-16.5
 20
-80.31662479020406
 30
0.0
 40
0.999999999999992
100
AcDbArc
 50
146.4426902380796
 51
180.0
  0
LINE
  5
6530
330
A
100
AcDbEntity
  8
0
  6
________________
 62
     7
370
     9
100
AcDbLine
 10
-16.99999999999827
 20
-73.09999999984866
 30
0.0
 11
-16.99999999999827
 21
-73.49999999984865
 31
0.0
  0
LINE
  5
6531
330
A
100
AcDbEntity
  8
0
  6
________________
 62
     7
370
     9
100
AcDbLine
 10
-11.99999999999872
 20
-73.09999999984866
 30
0.0
 11
-16.99999999999872
 21
-73.09999999984866
 31
0.0
  0
LINE
  5
6532
330
A
100
AcDbEntity
  8
0
  6
________________
 62
   253
370
     9
100
AcDbLine
 10
-11.99999999999872
 20
-73.09999999984866
 30
0.0
 11
-11.99999999999872
 21
-73.49999999984865
 31
0.0
  0
LINE
  5
6533
330
A
100
AcDbEntity
  8
0
  6
________________
 62
   253
370
     9
100
AcDbLine
 10
11.99999999999912
 20
-73.09999999984866
 30
0.0
 11
11.99999999999912
 21
-73.49999999984865
 31
0.0
  0
LINE
  5
6534
330
A
100
AcDbEntity
  8
0
  6
________________
 62
     7
370
     9
100
AcDbLine
 10
16.99999999999866
 20
-73.09999999984866
 30
0.0
 11
16.99999999999866
 21
-73.49999999984865
 31
0.0
  0
LINE
  5
6535
330
A
100
AcDbEntity
  8
0
  6
________________
 62
     7
370
     9
100
AcDbLine
 10
16.99999999999912
 20
-73.09999999984866
 30
0.0
 11
11.99999999999912
 21
-73.09999999984866
 31
0.0
  0
LINE
  5
6536
330
A
100
AcDbEntity
  8
0
  6
________________
 62
     7
370
     9
100
AcDbLine
 10
11.99999999999912
 20
-73.09999999984866
 30
0.0
 11
-11.99999999999872
 21
-73.09999999984866
 31
0.0
  0
LINE
  5
6537
330
A
100
AcDbEntity
  8
0
  6
________________
 62
     7
370
     9
100
AcDbLine
 10
-16.99999999999341
 20
-64.69999999985183
 30
0.0
 11
-16.99999999999341
 21
-65.09999999985182
 31
0.0
  0
LINE
  5
6538
330
A
100
AcDbEntity
  8
0
  6
________________
 62
   253
370
     9
100
AcDbLine
 10
-11.99999999999528
 20
-64.69999999985181
 30
0.0
 11
-11.99999999999528
 21
-65.09999999985182
 31
0.0
  0
LINE
  5
6539
330
A
100
AcDbEntity
  8
0
  6
________________
 62
     7
370
     9
100
AcDbLine
 10
-11.99999999999528
 20
-65.09999999985182
 30
0.0
 11
-16.99999999999528
 21
-65.09999999985182
 31
0.0
  0
LINE
  5
653A
330
A
100
AcDbEntity
  8
0
  6
________________
 62
     7
370
     9
100
AcDbLine
 10
11.99999999999565
 20
-65.09999999985182
 30
0.0
 11
-11.99999999999528
 21
-65.09999999985182
 31
0.0
  0
LINE
  5
653B
330
A
100
AcDbEntity
  8
0
  6
________________
 62
   253
370
     9
100
AcDbLine
 10
11.99999999999565
 20
-64.69999999985181
 30
0.0
 11
11.99999999999565
 21
-65.09999999985182
 31
0.0
  0
LINE
  5
653C
330
A
100
AcDbEntity
  8
0
  6
________________
 62
     7
370
     9
100
AcDbLine
 10
16.99999999999378
 20
-64.69999999985183
 30
0.0
 11
16.99999999999378
 21
-65.09999999985182
 31
0.0
  0
LINE
  5
653D
330
A
100
AcDbEntity
  8
0
  6
________________
 62
     7
370
     9
100
AcDbLine
 10
16.99999999999565
 20
-65.09999999985182
 30
0.0
 11
11.99999999999565
 21
-65.09999999985182
 31
0.0
  0
LINE
  5
653E
330
A
100
AcDbEntity
  8
0
  6
________________
 62
   253
370
     9
100
AcDbLine
 10
12.50000000000003
 20
-64.69999999985183
 30
0.0
 11
12.50000000000003
 21
-57.69999999985181
 31
0.0
  0
LINE
  5
653F
330
A
100
AcDbEntity
  8
0
  6
________________
 62
   253
370
     9
100
AcDbLine
 10
12.50000000000003
 20
-57.69999999985181
 30
0.0
 11
17.50000000000003
 21
-57.69999999985181
 31
0.0
  0
LINE
  5
6540
330
A
100
AcDbEntity
  8
0
  6
________________
 62
     7
370
     9
100
AcDbLine
 10
17.50000000000003
 20
-57.69999999985181
 30
0.0
 11
17.50000000000003
 21
-57.88337520949642
 31
0.0
  0
ARC
  5
6541
330
A
100
AcDbEntity
  8
0
  6
________________
 62
   253
370
     9
100
AcDbCircle
 10
-21.27503390582851
 20
-61.19999999985063
 30
0.0
 40
5.025025471593406
210
0.0
220
0.0
230
-1.0
100
AcDbArc
 50
318.698488370231
 51
41.30151162976898
  0
LINE
  5
6542
330
A
100
AcDbEntity
  8
0
  6
________________
 62
     7
370
     9
100
AcDbLine
 10
17.50000000000003
 20
-64.51662479020722
 30
0.0
 11
17.50000000000003
 21
-64.69999999985183
 31
0.0
  0
LINE
  5
6543
330
A
100
AcDbEntity
  8
0
  6
________________
 62
     7
370
     9
100
AcDbLine
 10
17.50000000000003
 20
-64.69999999985183
 30
0.0
 11
12.50000000000003
 21
-64.69999999985183
 31
0.0
  0
LINE
  5
6544
330
A
100
AcDbEntity
  8
0
  6
________________
 62
   253
370
     9
100
AcDbLine
 10
12.50000000000003
 20
-57.69999999985181
 30
0.0
 11
-12.49999999999999
 21
-57.69999999985181
 31
0.0
  0
LINE
  5
6545
330
A
100
AcDbEntity
  8
0
  6
________________
 62
   253
370
     9
100
AcDbLine
 10
-12.49999999999999
 20
-57.69999999985181
 30
0.0
 11
-12.49999999999999
 21
-56.69999999985181
 31
0.0
  0
LINE
  5
6546
330
A
100
AcDbEntity
  8
0
  6
________________
 62
     7
370
     9
100
AcDbLine
 10
-12.49999999999999
 20
-56.69999999985181
 30
0.0
 11
12.50000000000003
 21
-56.69999999985181
 31
0.0
  0
LINE
  5
6547
330
A
100
AcDbEntity
  8
0
  6
________________
 62
   253
370
     9
100
AcDbLine
 10
12.50000000000003
 20
-57.69999999985181
 30
0.0
 11
12.50000000000003
 21
-56.69999999985181
 31
0.0
  0
LINE
  5
6548
330
A
100
AcDbEntity
  8
0
  6
________________
 62
   253
370
     9
100
AcDbLine
 10
-12.49999999999999
 20
-57.69999999985181
 30
0.0
 11
-12.49999999999999
 21
-64.69999999985183
 31
0.0
  0
LINE
  5
6549
330
A
100
AcDbEntity
  8
0
  6
________________
 62
     7
370
     9
100
AcDbLine
 10
-12.49999999999999
 20
-64.69999999985183
 30
0.0
 11
12.50000000000003
 21
-64.69999999985183
 31
0.0
  0
LINE
  5
654A
330
A
100
AcDbEntity
  8
0
  6
________________
 62
     7
370
     9
100
AcDbLine
 10
12.50000000000003
 20
-56.69999999985181
 30
0.0
 11
16.50000000000003
 21
-56.69999999985181
 31
0.0
  0
ARC
  5
654B
330
A
100
AcDbEntity
  8
0
  6
________________
 62
     7
370
     9
100
AcDbCircle
 10
-16.50000000000003
 20
-57.69999999985181
 30
0.0
 40
1.000000000000001
210
0.0
220
0.0
230
-1.0
100
AcDbArc
 50
90.0
 51
180.0
  0
LINE
  5
654C
330
A
100
AcDbEntity
  8
0
  6
________________
 62
   253
370
     9
100
AcDbLine
 10
-17.49999999999997
 20
-57.69999999985181
 30
0.0
 11
-12.49999999999999
 21
-57.69999999985181
 31
0.0
  0
LINE
  5
654D
330
A
100
AcDbEntity
  8
0
  6
________________
 62
     7
370
     9
100
AcDbLine
 10
-17.49999999999997
 20
-64.69999999985183
 30
0.0
 11
-17.49999999999997
 21
-64.51662479020722
 31
0.0
  0
ARC
  5
654E
330
A
100
AcDbEntity
  8
0
  6
________________
 62
   253
370
     9
100
AcDbCircle
 10
21.27503390582847
 20
-61.19999999985299
 30
0.0
 40
5.025025471593399
210
0.0
220
0.0
230
-1.0
100
AcDbArc
 50
138.6984883702312
 51
221.301511629769
  0
LINE
  5
654F
330
A
100
AcDbEntity
  8
0
  6
________________
 62
     7
370
     9
100
AcDbLine
 10
-17.49999999999997
 20
-57.88337520949642
 30
0.0
 11
-17.49999999999997
 21
-57.69999999985181
 31
0.0
  0
LINE
  5
6550
330
A
100
AcDbEntity
  8
0
  6
________________
 62
     7
370
     9
100
AcDbLine
 10
-12.49999999999999
 20
-64.69999999985183
 30
0.0
 11
-17.49999999999997
 21
-64.69999999985183
 31
0.0
  0
ARC
  5
6551
330
A
100
AcDbEntity
  8
0
  6
________________
 62
     7
370
     9
100
AcDbCircle
 10
16.49999999999997
 20
-57.69999999985181
 30
0.0
 40
1.000000000000001
210
0.0
220
0.0
230
-1.0
100
AcDbArc
 50
0.0
 51
90.0
  0
LINE
  5
6552
330
A
100
AcDbEntity
  8
0
  6
________________
 62
     7
370
     9
100
AcDbLine
 10
-16.49999999999997
 20
-56.69999999985181
 30
0.0
 11
-12.49999999999999
 21
-56.69999999985181
 31
0.0
  0
ARC
  5
6553
330
A
100
AcDbEntity
  8
0
  6
________________
 62
     7
370
     9
100
AcDbCircle
 10
21.5000000000002
 20
-61.19999999985185
 30
0.0
 40
5.000000000000189
100
AcDbArc
 50
146.4426902380799
 51
213.55730976192
  0
ARC
  5
6554
330
A
100
AcDbEntity
  8
0
  6
________________
 62
     7
370
     9
100
AcDbCircle
 10
-16.50000000000003
 20
-64.51662479020722
 30
0.0
 40
0.9999999999999939
210
0.0
220
0.0
230
-1.0
100
AcDbArc
 50
146.4426902380784
 51
180.0
  0
ARC
  5
6555
330
A
100
AcDbEntity
  8
0
  6
________________
 62
     7
370
     9
100
AcDbCircle
 10
16.50000000000003
 20
-57.88337520949642
 30
0.0
 40
0.9999999999999861
100
AcDbArc
 50
326.4426902380787
 51
0.0
  0
ARC
  5
6556
330
A
100
AcDbEntity
  8
0
  6
________________
 62
     7
370
     9
100
AcDbCircle
 10
16.49999999999997
 20
-64.51662479020722
 30
0.0
 40
1.000000000000001
210
0.0
220
0.0
230
-1.0
100
AcDbArc
 50
0.0
 51
33.55730976192114
  0
ARC
  5
6557
330
A
100
AcDbEntity
  8
0
  6
________________
 62
     7
370
     9
100
AcDbCircle
 10
-21.50000000000016
 20
-61.19999999985176
 30
0.0
 40
5.000000000000177
100
AcDbArc
 50
326.4426902380798
 51
33.55730976192014
  0
ARC
  5
6558
330
A
100
AcDbEntity
  8
0
  6
________________
 62
     7
370
     9
100
AcDbCircle
 10
-16.49999999999997
 20
-57.88337520949642
 30
0.0
 40
1.000000000000001
100
AcDbArc
 50
180.0
 51
213.5573097619208
  0
LINE
  5
6559
330
A
100
AcDbEntity
  8
0
  6
________________
 62
     7
370
     9
100
AcDbLine
 10
-5.0
 20
-71.69999999985181
 30
0.0
 11
5.0
 21
-71.69999999985181
 31
0.0
  0
LINE
  5
655A
330
A
100
AcDbEntity
  8
0
  6
________________
 62
   253
370
     9
100
AcDbLine
 10
-2.500000000000014
 20
-71.69999999985181
 30
0.0
 11
-2.500000000000014
 21
-73.09999999984866
 31
0.0
  0
LINE
  5
655B
330
A
100
AcDbEntity
  8
0
  6
________________
 62
   253
370
     9
100
AcDbLine
 10
2.5
 20
-73.09999999984866
 30
0.0
 11
2.5
 21
-71.69999999985181
 31
0.0
  0
LINE
  5
655C
330
A
100
AcDbEntity
  8
0
  6
________________
 62
     7
370
     9
100
AcDbLine
 10
-7.0
 20
-66.59999999985125
 30
0.0
 11
-7.0
 21
-71.59999999985125
 31
0.0
  0
LINE
  5
655D
330
A
100
AcDbEntity
  8
0
  6
________________
 62
     7
370
     9
100
AcDbLine
 10
7.0
 20
-71.59999999985125
 30
0.0
 11
7.0
 21
-66.59999999985125
 31
0.0
  0
LINE
  5
655E
330
A
100
AcDbEntity
  8
0
  6
________________
 62
     7
370
     9
100
AcDbLine
 10
6.25
 20
-81.59999999984879
 30
0.0
 11
6.25
 21
-81.49999999984867
 31
0.0
  0
LINE
  5
655F
330
A
100
AcDbEntity
  8
0
  6
________________
 62
     7
370
     9
100
AcDbLine
 10
-6.25
 20
-81.49999999984867
 30
0.0
 11
-6.25
 21
-81.59999999984879
 31
0.0
  0
LINE
  5
6560
330
A
100
AcDbEntity
  8
0
  6
________________
 62
     7
370
     9
100
AcDbLine
 10
-6.250000000000014
 20
-81.59999999984879
 30
0.0
 11
-5.412842109675054
 21
-83.0499999998488
 31
0.0
  0
LINE
  5
6561
330
A
100
AcDbEntity
  8
0
  6
________________
 62
     7
370
     9
100
AcDbLine
 10
5.41284210967504
 20
-83.0499999998488
 30
0.0
 11
6.25
 21
-81.59999999984879
 31
0.0
  0
ARC
  5
6562
330
A
100
AcDbEntity
  8
0
  6
________________
 62
     7
370
     9
100
AcDbCircle
 10
4.97982940778283
 20
-82.7999999998488
 30
0.0
 40
0.5000000000000004
100
AcDbArc
 50
270.0
 51
329.9999999999995
  0
ARC
  5
6563
330
A
100
AcDbEntity
  8
0
  6
________________
 62
     7
370
     9
100
AcDbCircle
 10
-4.97982940778283
 20
-82.7999999998488
 30
0.0
 40
0.500000000000002
100
AcDbArc
 50
209.9999999999997
 51
270.0
  0
LINE
  5
6564
330
A
100
AcDbEntity
  8
0
  6
________________
 62
     7
370
     9
100
AcDbLine
 10
-3.000000000000014
 20
-71.70001498985182
 30
0.0
 11
-3.000000000000014
 21
-73.09999999984866
 31
0.0
  0
LINE
  5
6565
330
A
100
AcDbEntity
  8
0
  6
________________
 62
     7
370
     9
100
AcDbLine
 10
3.0
 20
-73.09999999984866
 30
0.0
 11
3.0
 21
-71.70001498985182
 31
0.0
  0
LINE
  5
6566
330
A
100
AcDbEntity
  8
0
  6
________________
 62
     7
370
     9
100
AcDbLine
 10
5.0
 20
-71.69999999985181
 30
0.0
 11
5.0
 21
-71.59999999985125
 31
0.0
  0
LINE
  5
6567
330
A
100
AcDbEntity
  8
0
  6
________________
 62
     7
370
     9
100
AcDbLine
 10
5.0
 20
-66.59999999952916
 30
0.0
 11
5.0
 21
-65.09999999985182
 31
0.0
  0
LINE
  5
6568
330
A
100
AcDbEntity
  8
0
  6
________________
 62
     7
370
     9
100
AcDbLine
 10
-5.0
 20
-65.09999999985182
 30
0.0
 11
-5.0
 21
-66.59999999952916
 31
0.0
  0
LINE
  5
6569
330
A
100
AcDbEntity
  8
0
  6
________________
 62
     7
370
     9
100
AcDbLine
 10
-5.0
 20
-71.59999999985125
 30
0.0
 11
-5.0
 21
-71.69999999985181
 31
0.0
  0
LINE
  5
656A
330
A
100
AcDbEntity
  8
0
  6
________________
 62
     7
370
     9
100
AcDbLine
 10
73.94067584649349
 20
-6.999999999991928
 30
0.0
 11
73.94067584557303
 21
7.000000000008072
 31
0.0
  0
LINE
  5
656B
330
A
100
AcDbEntity
  8
0
  6
________________
 62
     7
370
     9
100
AcDbLine
 10
78.94067584649349
 20
-6.999999999663174
 30
0.0
 11
78.94067584557303
 21
7.000000000336797
 31
0.0
  0
LINE
  5
656C
330
A
100
AcDbEntity
  8
0
  6
________________
 62
     7
370
     9
100
AcDbLine
 10
73.94067584649343
 20
82.99999999997411
 30
0.0
 11
73.94067584557297
 21
96.99999999997405
 31
0.0
  0
LINE
  5
656D
330
A
100
AcDbEntity
  8
0
  6
________________
 62
     7
370
     9
100
AcDbLine
 10
78.94067584649343
 20
83.00000000030283
 30
0.0
 11
78.94067584557297
 21
97.00000000030286
 31
0.0
  0
LINE
  5
656E
330
A
100
AcDbEntity
  8
0
  6
________________
 62
     7
370
     9
100
AcDbLine
 10
88.94067584603079
 20
6.250000000016314
 30
0.0
 11
88.94067584603079
 21
-6.249999999983686
 31
0.0
  0
LINE
  5
656F
330
A
100
AcDbEntity
  8
0
  6
________________
 62
   253
370
     9
100
AcDbLine
 10
90.39067584603072
 20
-5.412842109658754
 30
0.0
 11
90.39067584603072
 21
5.412842109691354
 31
0.0
  0
LINE
  5
6570
330
A
100
AcDbEntity
  8
0
  6
________________
 62
     7
370
     9
100
AcDbLine
 10
90.64067584603083
 20
4.979829407799144
 30
0.0
 11
90.64067584603083
 21
-4.979829407766516
 31
0.0
  0
LINE
  5
6571
330
A
100
AcDbEntity
  8
0
  6
________________
 62
     7
370
     9
100
AcDbLine
 10
88.94067584643182
 20
96.25000000012497
 30
0.0
 11
88.9406758456297
 21
83.75000000012494
 31
0.0
  0
LINE
  5
6572
330
A
100
AcDbEntity
  8
0
  6
________________
 62
   253
370
     9
100
AcDbLine
 10
90.39067584568346
 20
84.58715789035688
 30
0.0
 11
90.39067584637809
 21
95.41284210970699
 31
0.0
  0
LINE
  5
6573
330
A
100
AcDbEntity
  8
0
  6
________________
 62
     7
370
     9
100
AcDbLine
 10
90.64067584635029
 20
94.97982940779872
 30
0.0
 11
90.64067584571126
 21
85.02017059223303
 31
0.0
  0
ARC
  5
6574
330
A
100
AcDbEntity
  8
0
  6
________________
 62
   253
370
     9
100
AcDbCircle
 10
84.34067584603059
 20
99.87990890813086
 30
0.0
 40
2.766461776209593
100
AcDbArc
 50
2.48797059535738
 51
177.5120294046426
  0
LINE
  5
6575
330
A
100
AcDbEntity
  8
0
  6
________________
 62
   253
370
     9
100
AcDbLine
 10
81.57682185406782
 20
99.99999999997192
 30
0.0
 11
81.02405105567522
 21
99.99999999997192
 31
0.0
  0
ARC
  5
6576
330
A
100
AcDbEntity
  8
0
  6
________________
 62
   253
370
     9
100
AcDbCircle
 10
-84.34067584603184
 20
99.99101708312361
 30
0.0
 40
3.316636955230841
210
0.0
220
0.0
230
-1.0
100
AcDbArc
 50
0.1551824511790219
 51
179.844817548819
  0
LINE
  5
6577
330
A
100
AcDbEntity
  8
0
  6
________________
 62
   253
370
     9
100
AcDbLine
 10
87.10452983799343
 20
99.99999999997192
 30
0.0
 11
87.65730063638608
 21
99.99999999997192
 31
0.0
  0
LINE
  5
6578
330
A
100
AcDbEntity
  8
0
  6
________________
 62
   253
370
     9
100
AcDbLine
 10
87.10452983799348
 20
-10.00000000002811
 30
0.0
 11
87.10452983799348
 21
99.99999999997186
 31
0.0
  0
ARC
  5
6579
330
A
100
AcDbEntity
  8
0
  6
________________
 62
   253
370
     9
100
AcDbCircle
 10
84.34067584603065
 20
-9.879908908187076
 30
0.0
 40
2.766461776209593
100
AcDbArc
 50
182.487970595358
 51
357.5120294046414
  0
LINE
  5
657A
330
A
100
AcDbEntity
  8
0
  6
________________
 62
   253
370
     9
100
AcDbLine
 10
81.57682185406782
 20
99.99999999997192
 30
0.0
 11
81.57682185406782
 21
-10.00000000002811
 31
0.0
  0
ARC
  5
657B
330
A
100
AcDbEntity
  8
0
  6
________________
 62
   253
370
     9
100
AcDbCircle
 10
-84.34067584602946
 20
-9.991734433107325
 30
0.0
 40
3.316635089907288
210
0.0
220
0.0
230
-1.0
100
AcDbArc
 50
180.1427900800753
 51
359.8572099199227
  0
LINE
  5
657C
330
A
100
AcDbEntity
  8
0
  6
________________
 62
   253
370
     9
100
AcDbLine
 10
81.02405105567522
 20
-10.00000000002811
 30
0.0
 11
81.57682185406782
 21
-10.00000000002811
 31
0.0
  0
LINE
  5
657D
330
A
100
AcDbEntity
  8
0
  6
________________
 62
   253
370
     9
100
AcDbLine
 10
87.65730063638608
 20
-10.00000000002811
 30
0.0
 11
87.10452983799348
 21
-10.00000000002811
 31
0.0
  0
LINE
  5
657E
330
A
100
AcDbEntity
  8
0
  6
________________
 62
     7
370
     9
100
AcDbLine
 10
88.84067584603065
 20
103.9999999999719
 30
0.0
 11
88.84067584603065
 21
99.99999999997192
 31
0.0
  0
LINE
  5
657F
330
A
100
AcDbEntity
  8
0
  6
________________
 62
   253
370
     9
100
AcDbLine
 10
87.84067584603065
 20
99.99999999997192
 30
0.0
 11
88.84067584603065
 21
99.99999999997192
 31
0.0
  0
LINE
  5
6580
330
A
100
AcDbEntity
  8
0
  6
________________
 62
   253
370
     9
100
AcDbLine
 10
87.84067584603065
 20
104.9999999999719
 30
0.0
 11
87.84067584603065
 21
99.99999999997192
 31
0.0
  0
ARC
  5
6581
330
A
100
AcDbEntity
  8
0
  6
________________
 62
     7
370
     9
100
AcDbCircle
 10
87.84067584603065
 20
103.9999999999719
 30
0.0
 40
1.000000000000001
100
AcDbArc
 50
0.0
 51
90.0
  0
LINE
  5
6582
330
A
100
AcDbEntity
  8
0
  6
________________
 62
     7
370
     9
100
AcDbLine
 10
80.84067584603059
 20
99.99999999997192
 30
0.0
 11
80.84067584603059
 21
-10.00000000002811
 31
0.0
  0
LINE
  5
6583
330
A
100
AcDbEntity
  8
0
  6
________________
 62
   253
370
     9
100
AcDbLine
 10
81.02405105567522
 20
99.99999999997192
 30
0.0
 11
80.84067584603059
 21
99.99999999997192
 31
0.0
  0
LINE
  5
6584
330
A
100
AcDbEntity
  8
0
  6
________________
 62
   253
370
     9
100
AcDbLine
 10
81.02405105567522
 20
-10.00000000002811
 30
0.0
 11
81.02405105567522
 21
99.99999999997186
 31
0.0
  0
LINE
  5
6585
330
A
100
AcDbEntity
  8
0
  6
________________
 62
   253
370
     9
100
AcDbLine
 10
80.84067584603059
 20
-10.00000000002811
 30
0.0
 11
81.02405105567522
 21
-10.00000000002811
 31
0.0
  0
LINE
  5
6586
330
A
100
AcDbEntity
  8
0
  6
________________
 62
   253
370
     9
100
AcDbLine
 10
87.84067584603065
 20
99.99999999997192
 30
0.0
 11
87.84067584603065
 21
-10.00000000002811
 31
0.0
  0
LINE
  5
6587
330
A
100
AcDbEntity
  8
0
  6
________________
 62
   253
370
     9
100
AcDbLine
 10
87.65730063638608
 20
-10.00000000002811
 30
0.0
 11
87.8406758460307
 21
-10.00000000002811
 31
0.0
  0
LINE
  5
6588
330
A
100
AcDbEntity
  8
0
  6
________________
 62
   253
370
     9
100
AcDbLine
 10
87.65730063638608
 20
99.99999999997192
 30
0.0
 11
87.65730063638608
 21
-10.00000000002811
 31
0.0
  0
LINE
  5
6589
330
A
100
AcDbEntity
  8
0
  6
________________
 62
   253
370
     9
100
AcDbLine
 10
87.84067584603065
 20
99.99999999997192
 30
0.0
 11
87.65730063638608
 21
99.99999999997192
 31
0.0
  0
LINE
  5
658A
330
A
100
AcDbEntity
  8
0
  6
________________
 62
     7
370
     9
100
AcDbLine
 10
80.84067584603059
 20
99.99999999997192
 30
0.0
 11
80.84067584603059
 21
104.9999999999719
 31
0.0
  0
LINE
  5
658B
330
A
100
AcDbEntity
  8
0
  6
________________
 62
     7
370
     9
100
AcDbLine
 10
80.84067584603059
 20
104.9999999999719
 30
0.0
 11
87.84067584603065
 21
104.9999999999719
 31
0.0
  0
LINE
  5
658C
330
A
100
AcDbEntity
  8
0
  6
________________
 62
     7
370
     9
100
AcDbLine
 10
88.84067584603065
 20
99.99999999997192
 30
0.0
 11
88.84067584603065
 21
-10.00000000002811
 31
0.0
  0
LINE
  5
658D
330
A
100
AcDbEntity
  8
0
  6
________________
 62
   253
370
     9
100
AcDbLine
 10
87.84067584603065
 20
-10.00000000002811
 30
0.0
 11
88.84067584603065
 21
-10.00000000002811
 31
0.0
  0
LINE
  5
658E
330
A
100
AcDbEntity
  8
0
  6
________________
 62
   253
370
     9
100
AcDbLine
 10
87.84067584603065
 20
-10.00000000002811
 30
0.0
 11
87.84067584603065
 21
-15.00000000002811
 31
0.0
  0
LINE
  5
658F
330
A
100
AcDbEntity
  8
0
  6
________________
 62
     7
370
     9
100
AcDbLine
 10
88.84067584603065
 20
-10.00000000002811
 30
0.0
 11
88.84067584603065
 21
-14.00000000002811
 31
0.0
  0
ARC
  5
6590
330
A
100
AcDbEntity
  8
0
  6
________________
 62
     7
370
     9
100
AcDbCircle
 10
87.84067584603065
 20
-14.00000000002811
 30
0.0
 40
1.000000000000001
100
AcDbArc
 50
270.0
 51
0.0
  0
LINE
  5
6591
330
A
100
AcDbEntity
  8
0
  6
________________
 62
     7
370
     9
100
AcDbLine
 10
87.84067584603065
 20
-15.00000000002811
 30
0.0
 11
80.84067584603059
 21
-15.00000000002811
 31
0.0
  0
LINE
  5
6592
330
A
100
AcDbEntity
  8
0
  6
________________
 62
     7
370
     9
100
AcDbLine
 10
80.84067584603059
 20
-15.00000000002811
 30
0.0
 11
80.84067584603059
 21
-10.00000000002811
 31
0.0
  0
LINE
  5
6593
330
A
100
AcDbEntity
  8
0
  6
________________
 62
   253
370
     9
100
AcDbLine
 10
80.44067584603062
 20
-9.500000000015518
 30
0.0
 11
80.84067584603054
 21
-9.500000000015518
 31
0.0
  0
LINE
  5
6594
330
A
100
AcDbEntity
  8
0
  6
________________
 62
   253
370
     9
100
AcDbLine
 10
80.44067584603062
 20
99.49999999997459
 30
0.0
 11
80.84067584603054
 21
99.49999999997459
 31
0.0
  0
LINE
  5
6595
330
A
100
AcDbEntity
  8
0
  6
________________
 62
     7
370
     9
100
AcDbLine
 10
80.44067584603062
 20
99.49999999997459
 30
0.0
 11
80.44067584603062
 21
-9.50000000001549
 31
0.0
  0
LINE
  5
6596
330
A
100
AcDbEntity
  8
0
  6
________________
 62
     7
370
     9
100
AcDbLine
 10
80.44067584603062
 20
-14.50000000001509
 30
0.0
 11
80.84067584603054
 21
-14.50000000001509
 31
0.0
  0
LINE
  5
6597
330
A
100
AcDbEntity
  8
0
  6
________________
 62
     7
370
     9
100
AcDbLine
 10
80.44067584603062
 20
-9.500000000015518
 30
0.0
 11
80.44067584603062
 21
-14.50000000001555
 31
0.0
  0
LINE
  5
6598
330
A
100
AcDbEntity
  8
0
  6
________________
 62
     7
370
     9
100
AcDbLine
 10
80.44067584603062
 20
104.4999999999741
 30
0.0
 11
80.84067584603054
 21
104.4999999999741
 31
0.0
  0
LINE
  5
6599
330
A
100
AcDbEntity
  8
0
  6
________________
 62
     7
370
     9
100
AcDbLine
 10
80.44067584603062
 20
104.4999999999746
 30
0.0
 11
80.44067584603062
 21
99.49999999997459
 31
0.0
  0
LINE
  5
659A
330
A
100
AcDbEntity
  8
0
  6
________________
 62
   253
370
     9
100
AcDbLine
 10
72.04067584603376
 20
-9.499999999988347
 30
0.0
 11
72.44067584603374
 21
-9.499999999988347
 31
0.0
  0
LINE
  5
659B
330
A
100
AcDbEntity
  8
0
  6
________________
 62
   253
370
     9
100
AcDbLine
 10
72.04067584603376
 20
99.4999999999705
 30
0.0
 11
72.44067584603368
 21
99.4999999999705
 31
0.0
  0
LINE
  5
659C
330
A
100
AcDbEntity
  8
0
  6
________________
 62
     7
370
     9
100
AcDbLine
 10
72.44067584603374
 20
99.4999999999705
 30
0.0
 11
72.4406758460338
 21
-9.499999999988347
 31
0.0
  0
LINE
  5
659D
330
A
100
AcDbEntity
  8
0
  6
________________
 62
     7
370
     9
100
AcDbLine
 10
72.04067584603376
 20
-14.49999999998644
 30
0.0
 11
72.44067584603374
 21
-14.49999999998644
 31
0.0
  0
LINE
  5
659E
330
A
100
AcDbEntity
  8
0
  6
________________
 62
     7
370
     9
100
AcDbLine
 10
72.4406758460338
 20
-9.499999999988347
 30
0.0
 11
72.4406758460338
 21
-14.49999999998835
 31
0.0
  0
LINE
  5
659F
330
A
100
AcDbEntity
  8
0
  6
________________
 62
     7
370
     9
100
AcDbLine
 10
72.04067584603376
 20
104.4999999999686
 30
0.0
 11
72.44067584603368
 21
104.4999999999686
 31
0.0
  0
LINE
  5
65A0
330
A
100
AcDbEntity
  8
0
  6
________________
 62
     7
370
     9
100
AcDbLine
 10
72.44067584603374
 20
104.4999999999705
 30
0.0
 11
72.44067584603374
 21
99.4999999999705
 31
0.0
  0
ARC
  5
65A1
330
A
100
AcDbEntity
  8
0
  6
________________
 62
   253
370
     9
100
AcDbCircle
 10
68.54067584603382
 20
-9.879908908151066
 30
0.0
 40
2.766461776209591
100
AcDbArc
 50
182.4879705953574
 51
357.5120294046426
  0
LINE
  5
65A2
330
A
100
AcDbEntity
  8
0
  6
________________
 62
   253
370
     9
100
AcDbLine
 10
71.3045298379966
 20
-9.99999999999207
 30
0.0
 11
71.85730063638914
 21
-9.99999999999207
 31
0.0
  0
ARC
  5
65A3
330
A
100
AcDbEntity
  8
0
  6
________________
 62
   253
370
     9
100
AcDbCircle
 10
-68.54067584603257
 20
-9.990591388940004
 30
0.0
 40
3.31663813551761
210
0.0
220
0.0
230
-1.0
100
AcDbArc
 50
180.1625364014288
 51
359.8374635985692
  0
LINE
  5
65A4
330
A
100
AcDbEntity
  8
0
  6
________________
 62
   253
370
     9
100
AcDbLine
 10
65.77682185407093
 20
-9.99999999999207
 30
0.0
 11
65.22405105567839
 21
-9.99999999999207
 31
0.0
  0
LINE
  5
65A5
330
A
100
AcDbEntity
  8
0
  6
________________
 62
   253
370
     9
100
AcDbLine
 10
65.77682185407093
 20
100.0000000000079
 30
0.0
 11
65.77682185407093
 21
-9.99999999999207
 31
0.0
  0
ARC
  5
65A6
330
A
100
AcDbEntity
  8
0
  6
________________
 62
   253
370
     9
100
AcDbCircle
 10
68.54067584603371
 20
99.87990890816695
 30
0.0
 40
2.76646177620959
100
AcDbArc
 50
2.487970595356204
 51
177.5120294046438
  0
LINE
  5
65A7
330
A
100
AcDbEntity
  8
0
  6
________________
 62
   253
370
     9
100
AcDbLine
 10
71.3045298379966
 20
-9.99999999999207
 30
0.0
 11
71.3045298379966
 21
100.0000000000079
 31
0.0
  0
ARC
  5
65A8
330
A
100
AcDbEntity
  8
0
  6
________________
 62
   253
370
     9
100
AcDbCircle
 10
-68.54067584603496
 20
99.99101708315953
 30
0.0
 40
3.316636955230869
210
0.0
220
0.0
230
-1.0
100
AcDbArc
 50
0.1551824511800025
 51
179.844817548818
  0
LINE
  5
65A9
330
A
100
AcDbEntity
  8
0
  6
________________
 62
   253
370
     9
100
AcDbLine
 10
71.8573006363892
 20
100.0000000000079
 30
0.0
 11
71.3045298379966
 21
100.0000000000079
 31
0.0
  0
LINE
  5
65AA
330
A
100
AcDbEntity
  8
0
  6
________________
 62
   253
370
     9
100
AcDbLine
 10
65.22405105567839
 20
100.0000000000079
 30
0.0
 11
65.77682185407093
 21
100.0000000000079
 31
0.0
  0
LINE
  5
65AB
330
A
100
AcDbEntity
  8
0
  6
________________
 62
   253
370
     9
100
AcDbLine
 10
71.8573006363892
 20
100.0000000000079
 30
0.0
 11
71.8573006363892
 21
-9.99999999999207
 31
0.0
  0
LINE
  5
65AC
330
A
100
AcDbEntity
  8
0
  6
________________
 62
   253
370
     9
100
AcDbLine
 10
65.04067584603376
 20
-9.99999999999207
 30
0.0
 11
65.04067584603376
 21
100.0000000000079
 31
0.0
  0
LINE
  5
65AD
330
A
100
AcDbEntity
  8
0
  6
________________
 62
   253
370
     9
100
AcDbLine
 10
65.22405105567839
 20
100.0000000000079
 30
0.0
 11
65.04067584603376
 21
100.0000000000079
 31
0.0
  0
LINE
  5
65AE
330
A
100
AcDbEntity
  8
0
  6
________________
 62
   253
370
     9
100
AcDbLine
 10
65.22405105567839
 20
-9.99999999999207
 30
0.0
 11
65.22405105567839
 21
100.0000000000079
 31
0.0
  0
LINE
  5
65AF
330
A
100
AcDbEntity
  8
0
  6
________________
 62
   253
370
     9
100
AcDbLine
 10
65.04067584603376
 20
-9.99999999999207
 30
0.0
 11
65.22405105567839
 21
-9.99999999999207
 31
0.0
  0
LINE
  5
65B0
330
A
100
AcDbEntity
  8
0
  6
________________
 62
   253
370
     9
100
AcDbLine
 10
65.04067584603376
 20
100.0000000000079
 30
0.0
 11
65.04067584603376
 21
105.000000000008
 31
0.0
  0
LINE
  5
65B1
330
A
100
AcDbEntity
  8
0
  6
________________
 62
     7
370
     9
100
AcDbLine
 10
65.04067584603376
 20
105.000000000008
 30
0.0
 11
72.04067584603376
 21
105.000000000008
 31
0.0
  0
LINE
  5
65B2
330
A
100
AcDbEntity
  8
0
  6
________________
 62
   253
370
     9
100
AcDbLine
 10
72.04067584603376
 20
100.0000000000079
 30
0.0
 11
71.85730063638914
 21
100.0000000000079
 31
0.0
  0
LINE
  5
65B3
330
A
100
AcDbEntity
  8
0
  6
________________
 62
     7
370
     9
100
AcDbLine
 10
72.04067584603376
 20
105.000000000008
 30
0.0
 11
72.04067584603376
 21
100.0000000000079
 31
0.0
  0
LINE
  5
65B4
330
A
100
AcDbEntity
  8
0
  6
________________
 62
     7
370
     9
100
AcDbLine
 10
64.04067584603382
 20
-13.99999999999207
 30
0.0
 11
64.04067584603382
 21
-9.99999999999207
 31
0.0
  0
LINE
  5
65B5
330
A
100
AcDbEntity
  8
0
  6
________________
 62
   253
370
     9
100
AcDbLine
 10
65.04067584603376
 20
-9.99999999999207
 30
0.0
 11
64.04067584603376
 21
-9.99999999999207
 31
0.0
  0
LINE
  5
65B6
330
A
100
AcDbEntity
  8
0
  6
________________
 62
   253
370
     9
100
AcDbLine
 10
65.04067584603382
 20
-14.99999999999207
 30
0.0
 11
65.04067584603382
 21
-9.99999999999207
 31
0.0
  0
ARC
  5
65B7
330
A
100
AcDbEntity
  8
0
  6
________________
 62
     7
370
     9
100
AcDbCircle
 10
65.04067584603382
 20
-13.99999999999207
 30
0.0
 40
1.000000000000001
100
AcDbArc
 50
180.0
 51
270.0
  0
LINE
  5
65B8
330
A
100
AcDbEntity
  8
0
  6
________________
 62
     7
370
     9
100
AcDbLine
 10
72.04067584603376
 20
-14.99999999999207
 30
0.0
 11
65.04067584603382
 21
-14.99999999999207
 31
0.0
  0
LINE
  5
65B9
330
A
100
AcDbEntity
  8
0
  6
________________
 62
   253
370
     9
100
AcDbLine
 10
71.8573006363892
 20
-9.99999999999207
 30
0.0
 11
72.04067584603376
 21
-9.99999999999207
 31
0.0
  0
LINE
  5
65BA
330
A
100
AcDbEntity
  8
0
  6
________________
 62
     7
370
     9
100
AcDbLine
 10
72.04067584603376
 20
-9.99999999999207
 30
0.0
 11
72.04067584603376
 21
-14.99999999999207
 31
0.0
  0
LINE
  5
65BB
330
A
100
AcDbEntity
  8
0
  6
________________
 62
     7
370
     9
100
AcDbLine
 10
72.04067584603376
 20
-9.99999999999207
 30
0.0
 11
72.04067584603376
 21
100.0000000000079
 31
0.0
  0
LINE
  5
65BC
330
A
100
AcDbEntity
  8
0
  6
________________
 62
     7
370
     9
100
AcDbLine
 10
64.04067584603376
 20
-9.99999999999207
 30
0.0
 11
64.04067584603376
 21
100.0000000000079
 31
0.0
  0
LINE
  5
65BD
330
A
100
AcDbEntity
  8
0
  6
________________
 62
   253
370
     9
100
AcDbLine
 10
65.04067584603376
 20
100.0000000000079
 30
0.0
 11
64.04067584603376
 21
100.0000000000079
 31
0.0
  0
LINE
  5
65BE
330
A
100
AcDbEntity
  8
0
  6
________________
 62
     7
370
     9
100
AcDbLine
 10
64.04067584603376
 20
100.0000000000079
 30
0.0
 11
64.04067584603376
 21
104.000000000008
 31
0.0
  0
ARC
  5
65BF
330
A
100
AcDbEntity
  8
0
  6
________________
 62
     7
370
     9
100
AcDbCircle
 10
65.04067584603376
 20
104.000000000008
 30
0.0
 40
1.000000000000001
100
AcDbArc
 50
90.0
 51
180.0
  0
LINE
  5
65C0
330
A
100
AcDbEntity
  8
0
  6
________________
 62
     7
370
     9
100
AcDbLine
 10
79.04067584603376
 20
85.00000000000793
 30
0.0
 11
79.04067584603376
 21
95.00000000000793
 31
0.0
  0
LINE
  5
65C1
330
A
100
AcDbEntity
  8
0
  6
________________
 62
     7
370
     9
100
AcDbLine
 10
79.04067584603376
 20
-4.999999999991928
 30
0.0
 11
79.04067584603376
 21
5.000000000008072
 31
0.0
  0
LINE
  5
65C2
330
A
100
AcDbEntity
  8
0
  6
________________
 62
   253
370
     9
100
AcDbLine
 10
79.04067584603376
 20
-2.499999999983686
 30
0.0
 11
80.44067584603062
 21
-2.499999999983658
 31
0.0
  0
LINE
  5
65C3
330
A
100
AcDbEntity
  8
0
  6
________________
 62
   253
370
     9
100
AcDbLine
 10
80.44067584603062
 20
2.500000000016314
 30
0.0
 11
79.04067584603376
 21
2.500000000016314
 31
0.0
  0
LINE
  5
65C4
330
A
100
AcDbEntity
  8
0
  6
________________
 62
   253
370
     9
100
AcDbLine
 10
79.04067584603376
 20
87.50000000001586
 30
0.0
 11
80.44067584603062
 21
87.50000000001586
 31
0.0
  0
LINE
  5
65C5
330
A
100
AcDbEntity
  8
0
  6
________________
 62
   253
370
     9
100
AcDbLine
 10
80.44067584603062
 20
92.50000000001586
 30
0.0
 11
79.04067584603376
 21
92.50000000001586
 31
0.0
  0
LINE
  5
65C6
330
A
100
AcDbEntity
  8
0
  6
________________
 62
     7
370
     9
100
AcDbLine
 10
73.94067584649349
 20
-6.999999999991928
 30
0.0
 11
78.94067584649349
 21
-6.999999999663174
 31
0.0
  0
LINE
  5
65C7
330
A
100
AcDbEntity
  8
0
  6
________________
 62
     7
370
     9
100
AcDbLine
 10
78.94067584557297
 20
7.000000000336826
 30
0.0
 11
73.94067584557303
 21
7.000000000008072
 31
0.0
  0
LINE
  5
65C8
330
A
100
AcDbEntity
  8
0
  6
________________
 62
     7
370
     9
100
AcDbLine
 10
73.94067584649343
 20
82.99999999997411
 30
0.0
 11
78.94067584649343
 21
83.00000000030283
 31
0.0
  0
LINE
  5
65C9
330
A
100
AcDbEntity
  8
0
  6
________________
 62
     7
370
     9
100
AcDbLine
 10
78.94067584557297
 20
97.00000000030286
 30
0.0
 11
73.94067584557297
 21
96.99999999997411
 31
0.0
  0
LINE
  5
65CA
330
A
100
AcDbEntity
  8
0
  6
________________
 62
     7
370
     9
100
AcDbLine
 10
88.94067584603079
 20
-6.249999999983686
 30
0.0
 11
90.39067584603077
 21
-5.412842109658754
 31
0.0
  0
LINE
  5
65CB
330
A
100
AcDbEntity
  8
0
  6
________________
 62
     7
370
     9
100
AcDbLine
 10
90.39067584603077
 20
5.412842109691354
 30
0.0
 11
88.94067584603079
 21
6.250000000016314
 31
0.0
  0
LINE
  5
65CC
330
A
100
AcDbEntity
  8
0
  6
________________
 62
     7
370
     9
100
AcDbLine
 10
88.94067584603079
 20
6.250000000016314
 30
0.0
 11
88.84067584603065
 21
6.250000000016314
 31
0.0
  0
LINE
  5
65CD
330
A
100
AcDbEntity
  8
0
  6
________________
 62
     7
370
     9
100
AcDbLine
 10
88.84067584603065
 20
-6.249999999983686
 30
0.0
 11
88.94067584603079
 21
-6.249999999983686
 31
0.0
  0
ARC
  5
65CE
330
A
100
AcDbEntity
  8
0
  6
________________
 62
     7
370
     9
100
AcDbCircle
 10
90.14067584603077
 20
4.979829407799144
 30
0.0
 40
0.5000000000000004
100
AcDbArc
 50
0.0
 51
59.99999999999986
  0
ARC
  5
65CF
330
A
100
AcDbEntity
  8
0
  6
________________
 62
     7
370
     9
100
AcDbCircle
 10
90.14067584603077
 20
-4.979829407766516
 30
0.0
 40
0.500000000000002
100
AcDbArc
 50
300.0
 51
0.0
  0
LINE
  5
65D0
330
A
100
AcDbEntity
  8
0
  6
________________
 62
     7
370
     9
100
AcDbLine
 10
88.94067584643182
 20
96.25000000012491
 30
0.0
 11
88.84067584603065
 21
96.25000000013137
 31
0.0
  0
LINE
  5
65D1
330
A
100
AcDbEntity
  8
0
  6
________________
 62
     7
370
     9
100
AcDbLine
 10
88.84067584603065
 20
83.75000000013134
 30
0.0
 11
88.94067584562976
 21
83.75000000012497
 31
0.0
  0
LINE
  5
65D2
330
A
100
AcDbEntity
  8
0
  6
________________
 62
     7
370
     9
100
AcDbLine
 10
88.94067584562976
 20
83.75000000012494
 30
0.0
 11
90.39067584568346
 21
84.58715789035685
 31
0.0
  0
LINE
  5
65D3
330
A
100
AcDbEntity
  8
0
  6
________________
 62
     7
370
     9
100
AcDbLine
 10
90.39067584637809
 20
95.41284210970699
 30
0.0
 11
88.94067584643182
 21
96.25000000012497
 31
0.0
  0
ARC
  5
65D4
330
A
100
AcDbEntity
  8
0
  6
________________
 62
     7
370
     9
100
AcDbCircle
 10
90.14067584635029
 20
94.9798294078308
 30
0.0
 40
0.5000000000000004
100
AcDbArc
 50
359.999999996323
 51
59.99999999632253
  0
ARC
  5
65D5
330
A
100
AcDbEntity
  8
0
  6
________________
 62
     7
370
     9
100
AcDbCircle
 10
90.14067584571126
 20
85.02017059226512
 30
0.0
 40
0.5000000000000036
100
AcDbArc
 50
299.9999999963219
 51
359.999999996323
  0
LINE
  5
65D6
330
A
100
AcDbEntity
  8
0
  6
________________
 62
     7
370
     9
100
AcDbLine
 10
79.04069083603378
 20
-2.999999999983686
 30
0.0
 11
80.44067584603062
 21
-2.999999999983658
 31
0.0
  0
LINE
  5
65D7
330
A
100
AcDbEntity
  8
0
  6
________________
 62
     7
370
     9
100
AcDbLine
 10
80.44067584603062
 20
3.000000000016314
 30
0.0
 11
79.04069083603378
 21
3.000000000016314
 31
0.0
  0
LINE
  5
65D8
330
A
100
AcDbEntity
  8
0
  6
________________
 62
     7
370
     9
100
AcDbLine
 10
79.04069083603378
 20
87.00000000001586
 30
0.0
 11
80.44067584603062
 21
87.00000000001586
 31
0.0
  0
LINE
  5
65D9
330
A
100
AcDbEntity
  8
0
  6
________________
 62
     7
370
     9
100
AcDbLine
 10
80.44067584603062
 20
93.00000000001586
 30
0.0
 11
79.04069083603378
 21
93.00000000001586
 31
0.0
  0
LINE
  5
65DA
330
A
100
AcDbEntity
  8
0
  6
________________
 62
     7
370
     9
100
AcDbLine
 10
79.04067584603376
 20
95.00000000000793
 30
0.0
 11
78.9406758457045
 21
95.00000000000793
 31
0.0
  0
LINE
  5
65DB
330
A
100
AcDbEntity
  8
0
  6
________________
 62
     7
370
     9
100
AcDbLine
 10
73.94067584570445
 20
95.00000000000793
 30
0.0
 11
72.44067584603374
 21
95.00000000000793
 31
0.0
  0
LINE
  5
65DC
330
A
100
AcDbEntity
  8
0
  6
________________
 62
     7
370
     9
100
AcDbLine
 10
72.44067584603374
 20
85.00000000000793
 30
0.0
 11
73.94067584636196
 21
85.00000000000793
 31
0.0
  0
LINE
  5
65DD
330
A
100
AcDbEntity
  8
0
  6
________________
 62
     7
370
     9
100
AcDbLine
 10
78.94067584636196
 20
85.00000000000793
 30
0.0
 11
79.04067584603376
 21
85.00000000000793
 31
0.0
  0
LINE
  5
65DE
330
A
100
AcDbEntity
  8
0
  6
________________
 62
     7
370
     9
100
AcDbLine
 10
79.04067584603376
 20
5.000000000008072
 30
0.0
 11
78.9406758457045
 21
5.000000000008072
 31
0.0
  0
LINE
  5
65DF
330
A
100
AcDbEntity
  8
0
  6
________________
 62
     7
370
     9
100
AcDbLine
 10
73.94067584570445
 20
5.000000000008072
 30
0.0
 11
72.44067584603374
 21
5.000000000008072
 31
0.0
  0
LINE
  5
65E0
330
A
100
AcDbEntity
  8
0
  6
________________
 62
     7
370
     9
100
AcDbLine
 10
72.4406758460338
 20
-4.999999999991928
 30
0.0
 11
73.94067584636201
 21
-4.999999999991928
 31
0.0
  0
LINE
  5
65E1
330
A
100
AcDbEntity
  8
0
  6
________________
 62
     7
370
     9
100
AcDbLine
 10
78.94067584636196
 20
-4.999999999991928
 30
0.0
 11
79.04067584603376
 21
-4.999999999991928
 31
0.0
  0
CIRCLE
  5
65E2
330
A
100
AcDbEntity
  8
0
  6
________________
 62
   253
370
     9
100
AcDbCircle
 10
0.0
 20
0.0
 30
0.0
 40
4.979829407782827
  0
CIRCLE
  5
65E3
330
A
100
AcDbEntity
  8
0
  6
________________
 62
   253
370
     9
100
AcDbCircle
 10
0.0
 20
0.0
 30
0.0
 40
5.412842109675048
210
0.0
220
0.0
230
-1.0
  0
CIRCLE
  5
65E4
330
A
100
AcDbEntity
  8
0
  6
________________
 62
     7
370
     9
100
AcDbCircle
 10
0.0
 20
0.0
 30
0.0
 40
6.250000000000005
  0
CIRCLE
  5
65E5
330
A
100
AcDbEntity
  8
0
  6
________________
 62
   253
370
     9
100
AcDbCircle
 10
-0.0000000000000284
 20
89.99999999999957
 30
0.0
 40
4.979829407782827
  0
CIRCLE
  5
65E6
330
A
100
AcDbEntity
  8
0
  6
________________
 62
   253
370
     9
100
AcDbCircle
 10
0.0000000000000284
 20
90.0000000000156
 30
0.0
 40
5.412842109675048
210
0.0
220
0.0
230
-1.0
  0
CIRCLE
  5
65E7
330
A
100
AcDbEntity
  8
0
  6
________________
 62
     7
370
     9
100
AcDbCircle
 10
-0.0000000000000284
 20
90.00000000010866
 30
0.0
 40
6.250000000000005
  0
ARC
  5
65E8
330
A
100
AcDbEntity
  8
0
  6
________________
 62
   253
370
     9
100
AcDbCircle
 10
12.5
 20
99.9999999999556
 30
0.0
 40
4.000000000000004
100
AcDbArc
 50
0.0
 51
90.0
  0
LINE
  5
65E9
330
A
100
AcDbEntity
  8
0
  6
________________
 62
   253
370
     9
100
AcDbLine
 10
16.50000000000003
 20
-10.00000000004439
 30
0.0
 11
16.5
 21
99.9999999999556
 31
0.0
  0
ARC
  5
65EA
330
A
100
AcDbEntity
  8
0
  6
________________
 62
   253
370
     9
100
AcDbCircle
 10
12.50000000000003
 20
-10.00000000004439
 30
0.0
 40
4.000000000000004
100
AcDbArc
 50
270.0
 51
0.0
  0
LINE
  5
65EB
330
A
100
AcDbEntity
  8
0
  6
________________
 62
   253
370
     9
100
AcDbLine
 10
-12.49999999999994
 20
-14.00000000004439
 30
0.0
 11
12.50000000000006
 21
-14.00000000004439
 31
0.0
  0
ARC
  5
65EC
330
A
100
AcDbEntity
  8
0
  6
________________
 62
   253
370
     9
100
AcDbCircle
 10
-12.49999999999994
 20
-10.00000000004439
 30
0.0
 40
4.000000000000004
100
AcDbArc
 50
180.0
 51
270.0
  0
LINE
  5
65ED
330
A
100
AcDbEntity
  8
0
  6
________________
 62
   253
370
     9
100
AcDbLine
 10
-16.5
 20
99.9999999999556
 30
0.0
 11
-16.49999999999994
 21
-10.00000000004439
 31
0.0
  0
ARC
  5
65EE
330
A
100
AcDbEntity
  8
0
  6
________________
 62
   253
370
     9
100
AcDbCircle
 10
-12.5
 20
99.9999999999556
 30
0.0
 40
4.000000000000004
100
AcDbArc
 50
90.0
 51
180.0
  0
LINE
  5
65EF
330
A
100
AcDbEntity
  8
0
  6
________________
 62
   253
370
     9
100
AcDbLine
 10
12.5
 20
103.9999999999556
 30
0.0
 11
-12.5
 21
103.9999999999556
 31
0.0
  0
LINE
  5
65F0
330
A
100
AcDbEntity
  8
0
  6
________________
 62
     7
370
     9
100
AcDbLine
 10
12.50000000000006
 20
-15.00000000004439
 30
0.0
 11
-12.49999999999994
 21
-15.00000000004439
 31
0.0
  0
LINE
  5
65F1
330
A
100
AcDbEntity
  8
0
  6
________________
 62
   253
370
     9
100
AcDbLine
 10
-12.49999999999994
 20
-15.00000000004439
 30
0.0
 11
-12.49999999999994
 21
-14.00000000004439
 31
0.0
  0
LINE
  5
65F2
330
A
100
AcDbEntity
  8
0
  6
________________
 62
   253
370
     9
100
AcDbLine
 10
12.50000000000006
 20
-15.00000000004439
 30
0.0
 11
12.50000000000006
 21
-14.00000000004439
 31
0.0
  0
LINE
  5
65F3
330
A
100
AcDbEntity
  8
0
  6
________________
 62
     7
370
     9
100
AcDbLine
 10
-17.5
 20
99.9999999999556
 30
0.0
 11
-17.49999999999994
 21
-10.00000000004439
 31
0.0
  0
LINE
  5
65F4
330
A
100
AcDbEntity
  8
0
  6
________________
 62
   253
370
     9
100
AcDbLine
 10
-17.5
 20
99.9999999999556
 30
0.0
 11
-16.5
 21
99.9999999999556
 31
0.0
  0
LINE
  5
65F5
330
A
100
AcDbEntity
  8
0
  6
________________
 62
   253
370
     9
100
AcDbLine
 10
-17.49999999999994
 20
-10.00000000004439
 30
0.0
 11
-16.49999999999994
 21
-10.00000000004439
 31
0.0
  0
LINE
  5
65F6
330
A
100
AcDbEntity
  8
0
  6
________________
 62
   253
370
     9
100
AcDbLine
 10
16.50000000000003
 20
-10.00000000004439
 30
0.0
 11
17.50000000000003
 21
-10.00000000004439
 31
0.0
  0
ARC
  5
65F7
330
A
100
AcDbEntity
  8
0
  6
________________
 62
     7
370
     9
100
AcDbCircle
 10
12.50000000000003
 20
-10.00000000004439
 30
0.0
 40
5.000000000000004
100
AcDbArc
 50
270.0
 51
0.0
  0
LINE
  5
65F8
330
A
100
AcDbEntity
  8
0
  6
________________
 62
   253
370
     9
100
AcDbLine
 10
16.5
 20
99.9999999999556
 30
0.0
 11
17.5
 21
99.9999999999556
 31
0.0
  0
LINE
  5
65F9
330
A
100
AcDbEntity
  8
0
  6
________________
 62
     7
370
     9
100
AcDbLine
 10
17.5
 20
99.9999999999556
 30
0.0
 11
17.50000000000003
 21
-10.00000000004434
 31
0.0
  0
ARC
  5
65FA
330
A
100
AcDbEntity
  8
0
  6
________________
 62
     7
370
     9
100
AcDbCircle
 10
-12.49999999999994
 20
-10.00000000004439
 30
0.0
 40
5.000000000000004
100
AcDbArc
 50
180.0
 51
270.0
  0
ARC
  5
65FB
330
A
100
AcDbEntity
  8
0
  6
________________
 62
     7
370
     9
100
AcDbCircle
 10
-12.5
 20
99.9999999999556
 30
0.0
 40
5.000000000000004
100
AcDbArc
 50
90.0
 51
180.0
  0
LINE
  5
65FC
330
A
100
AcDbEntity
  8
0
  6
________________
 62
   253
370
     9
100
AcDbLine
 10
-12.5
 20
103.9999999999556
 30
0.0
 11
-12.5
 21
104.9999999999556
 31
0.0
  0
LINE
  5
65FD
330
A
100
AcDbEntity
  8
0
  6
________________
 62
   253
370
     9
100
AcDbLine
 10
12.5
 20
103.9999999999556
 30
0.0
 11
12.5
 21
104.9999999999556
 31
0.0
  0
ARC
  5
65FE
330
A
100
AcDbEntity
  8
0
  6
________________
 62
     7
370
     9
100
AcDbCircle
 10
12.5
 20
99.9999999999556
 30
0.0
 40
5.000000000000004
100
AcDbArc
 50
0.0
 51
90.0
  0
LINE
  5
65FF
330
A
100
AcDbEntity
  8
0
  6
________________
 62
     7
370
     9
100
AcDbLine
 10
-12.5
 20
104.9999999999556
 30
0.0
 11
12.5
 21
104.9999999999556
 31
0.0
  0
LINE
  5
6602
330
A
100
AcDbEntity
  8
0
  6
CENTER
 62
     1
100
AcDbLine
 10
-12.46191820219898
 20
89.99999999999957
 30
0.0
 11
12.46191820219892
 21
89.99999999999957
 31
0.0
  0
LINE
  5
6603
330
A
100
AcDbEntity
  8
0
  6
CENTER
 62
     1
100
AcDbLine
 10
0.0000000000000142
 20
77.53808179780063
 30
0.0
 11
0.0000000000000142
 21
102.4619182021985
 31
0.0
  0
LINE
  5
6604
330
A
100
AcDbEntity
  8
0
  6
CENTER
 62
     1
100
AcDbLine
 10
0.0
 20
-86.04956297290272
 30
0.0
 11
0.0
 21
-54.45552176230874
 31
0.0
  0
LINE
  5
6605
330
A
100
AcDbEntity
  8
0
  6
CENTER
 62
     1
100
AcDbLine
 10
61.80951354519198
 20
89.99999999999957
 30
0.0
 11
93.60437777992401
 21
89.99999999999957
 31
0.0
  0
LINE
  5
6606
330
A
100
AcDbEntity
  8
0
  6
CENTER
 62
     1
100
AcDbLine
 10
61.80951354519203
 20
0.0000000000080718
 30
0.0
 11
93.60437777992406
 21
0.0000000000080718
 31
0.0
  0
CIRCLE
  5
6607
330
A
100
AcDbEntity
  8
0
  6
CENTER
 62
     1
100
AcDbCircle
 10
-0.0000000000000284
 20
89.99999999999957
 30
0.0
 40
8.0
  0
CIRCLE
  5
660A
330
A
100
AcDbEntity
  8
0
  6
CENTER
 62
     1
100
AcDbCircle
 10
0.0
 20
0.0
 30
0.0
 40
8.0
  0
ENDSEC
  0
SECTION
  2
OBJECTS
  0
DICTIONARY
  5
19
330
0
100
AcDbDictionary
281
     1
  3
ACAD_GROUP
350
1A
  3
ACAD_IMAGE_VARS
350
63A6
  3
ACAD_LAYOUT
350
63B2
  3
ACAD_MLINESTYLE
350
1B
  3
ACAD_PLOTSETTINGS
350
63B7
  3
ACAD_PLOTSTYLENAME
350
63B8
  3
ACAD_SCALELIST
350
3179
  3
ACAD_WIPEOUT_VARS
350
23
  3
ACDB_RECOMPOSE_DATA
350
630A
  3
ACDBVARIABLEDICTIONARY
350
630B
  3
APPDATA
350
63A5
  3
ASE_INDEX_DICTIONARY
350
5E44
  3
DWGPROPS
350
660E
  0
DICTIONARY
  5
5E41
330
14
100
AcDbDictionary
280
     1
281
     1
  3
ADSK_XREC_LAYER_RECONCILED
360
5E42
  0
DICTIONARY
  5
31A7
330
A
100
AcDbDictionary
280
     1
281
     1
  3
ACAD_SORTENTS
360
31A8
  0
DICTIONARY
  5
1A
102
{ACAD_REACTORS
330
19
102
}
330
19
100
AcDbDictionary
281
     1
  0
RASTERVARIABLES
  5
63A6
102
{ACAD_REACTORS
330
19
102
}
330
19
100
AcDbRasterVariables
 90
        0
 70
     1
 71
     1
 72
     0
  0
DICTIONARY
  5
63B2
102
{ACAD_REACTORS
330
19
102
}
330
19
100
AcDbDictionary
281
     1
  3
Model
350
63B3
  3
Sheet1
350
63B4
  0
DICTIONARY
  5
1B
102
{ACAD_REACTORS
330
19
102
}
330
19
100
AcDbDictionary
281
     1
  3
STANDARD
350
1C
  0
DICTIONARY
  5
63B7
102
{ACAD_REACTORS
330
19
102
}
330
19
100
AcDbDictionary
281
     1
  0
ACDBDICTIONARYWDFLT
  5
63B8
102
{ACAD_REACTORS
330
19
102
}
330
19
100
AcDbDictionary
281
     1
  3
Normal
350
63B9
100
AcDbDictionaryWithDefault
340
63B9
  0
DICTIONARY
  5
3179
102
{ACAD_REACTORS
330
19
102
}
330
19
100
AcDbDictionary
281
     1
  0
WIPEOUTVARIABLES
  5
23
330
19
100
AcDbWipeoutVariables
 70
     1
  0
XRECORD
  5
630A
102
{ACAD_REACTORS
330
19
102
}
330
19
100
AcDbXrecord
280
     1
 90
        1
330
0
  0
DICTIONARY
  5
630B
102
{ACAD_REACTORS
330
19
102
}
330
19
100
AcDbDictionary
281
     1
  3
DIMASSOC
350
6318
  3
INDEXCTL
350
6317
  3
SORTENTS
350
6316
  0
DICTIONARY
  5
63A5
102
{ACAD_REACTORS
330
19
102
}
330
19
100
AcDbDictionary
281
     1
  0
DICTIONARY
  5
5E44
102
{ACAD_REACTORS
330
19
102
}
330
19
100
AcDbDictionary
281
     1
  3
ASEBLOCKHIERARCHYINDEXRECORD
350
5E46
1001
DCO15
1040
1685075681.336
  0
XRECORD
  5
660E
102
{ACAD_REACTORS
330
19
102
}
330
19
100
AcDbXrecord
280
     1
  1
DWGPROPS COOKIE
  2

  3

  4

  6

  7

  8
renzo.ceresoli
  9

300
=
301
=
302
=
303
=
304
=
305
=
306
=
307
=
308
=
309
=
 40
0.0
 41
2455303.644583322
 42
2455306.337819896
  1

 90
        0
  0
XRECORD
  5
5E42
102
{ACAD_REACTORS
330
5E41
102
}
330
5E41
100
AcDbXrecord
280
     1
290
     1
  0
SORTENTSTABLE
  5
31A8
102
{ACAD_REACTORS
330
31A7
102
}
330
31A7
100
AcDbSortentsTable
330
A
331
0
  5
3F1D
  0
LAYOUT
  5
63B3
102
{ACAD_REACTORS
330
63B2
102
}
330
63B2
100
AcDbPlotSettings
  1

  2
none_device
  4

  6

 40
0.0
 41
0.0
 42
0.0
 43
0.0
 44
0.0
 45
0.0
 46
0.0
 47
0.0
 48
0.0
 49
0.0
140
0.0
141
0.0
142
1.0
143
1.0
 70
   688
 72
     0
 73
     0
 74
     5
  7

 75
    16
147
1.0
148
0.0
149
0.0
100
AcDbLayout
  1
Model
 70
     1
 71
     0
 10
0.0
 20
0.0
 11
0.0
 21
0.0
 12
0.0
 22
0.0
 32
0.0
 14
0.0
 24
0.0
 34
0.0
 15
0.0
 25
0.0
 35
0.0
146
0.0
 13
0.0
 23
0.0
 33
0.0
 16
1.0
 26
0.0
 36
0.0
 17
0.0
 27
1.0
 37
0.0
 76
     0
330
A
331
15
  0
LAYOUT
  5
63B4
102
{ACAD_REACTORS
330
63B2
102
}
330
63B2
100
AcDbPlotSettings
  1

  2
none_device
  4

  6

 40
0.0
 41
0.0
 42
0.0
 43
0.0
 44
0.0
 45
0.0
 46
0.0
 47
0.0
 48
0.0
 49
0.0
140
0.0
141
0.0
142
1.0
143
1.0
 70
   688
 72
     0
 73
     0
 74
     5
  7

 75
    16
147
1.0
148
0.0
149
0.0
100
AcDbLayout
  1
Sheet1
 70
     1
 71
     1
 10
0.0
 20
0.0
 11
0.0
 21
0.0
 12
0.0
 22
0.0
 32
0.0
 14
0.0
 24
0.0
 34
0.0
 15
0.0
 25
0.0
 35
0.0
146
0.0
 13
0.0
 23
0.0
 33
0.0
 16
1.0
 26
0.0
 36
0.0
 17
0.0
 27
1.0
 37
0.0
 76
     0
330
B
  0
MLINESTYLE
  5
1C
102
{ACAD_REACTORS
330
1B
102
}
330
1B
100
AcDbMlineStyle
  2
STANDARD
 70
     0
  3

 62
     0
 51
90.0
 52
90.0
 71
     2
 49
0.5
 62
   256
  6
BYLAYER
 49
-0.5
 62
   256
  6
BYLAYER
  0
ACDBPLACEHOLDER
  5
63B9
102
{ACAD_REACTORS
330
63B8
102
}
330
63B8
  0
DICTIONARYVAR
  5
6318
102
{ACAD_REACTORS
330
630B
102
}
330
630B
100
DictionaryVariables
280
     0
  1
1
  0
DICTIONARYVAR
  5
6317
102
{ACAD_REACTORS
330
630B
102
}
330
630B
100
DictionaryVariables
280
     0
  1
0
  0
DICTIONARYVAR
  5
6316
102
{ACAD_REACTORS
330
630B
102
}
330
630B
100
DictionaryVariables
280
     0
  1
127
  0
XRECORD
  5
5E46
102
{ACAD_REACTORS
330
5E44
102
}
330
5E44
100
AcDbXrecord
280
     1
  0
ENDSEC
  0
EOF
