  0
SECTION
  2
HEADER
  9
$ACADVER
  1
AC1015
  9
$ACADMAINTVER
 70
    20
  9
$DWGCODEPAGE
  3
ANSI_1252
  9
$INSBASE
 10
0.0
 20
0.0
 30
0.0
  9
$EXTMIN
 10
-18.03797397419294
 20
-127.9781842075536
 30
-0.0000000000001846
  9
$EXTMAX
 10
106.9468919664104
 20
38.45792110414004
 30
0.0000000000041672
  9
$LIMMIN
 10
-66.34999999999982
 20
-2008.85
  9
$LIMMAX
 10
3734.350000000001
 20
346.85
  9
$ORTHOMODE
 70
     0
  9
$REGENMODE
 70
     1
  9
$FILLMODE
 70
     1
  9
$QTEXTMODE
 70
     0
  9
$MIRRTEXT
 70
     1
  9
$LTSCALE
 40
10.0
  9
$ATTMODE
 70
     1
  9
$TEXTSIZE
 40
0.0
  9
$TRACEWID
 40
0.05
  9
$TEXTSTYLE
  7
Standard
  9
$CLAYER
  8
0
  9
$CELTYPE
  6
Continuous
  9
$CECOLOR
 62
   256
  9
$CELTSCALE
 40
1.0
  9
$DISPSILH
 70
     0
  9
$DIMSCALE
 40
1.0
  9
$DIMASZ
 40
1.25
  9
$DIMEXO
 40
0.0
  9
$DIMDLI
 40
0.38
  9
$DIMRND
 40
0.0
  9
$DIMDLE
 40
0.0
  9
$DIMEXE
 40
0.75
  9
$DIMTP
 40
0.0
  9
$DIMTM
 40
0.0
  9
$DIMTXT
 40
2.5
  9
$DIMCEN
 40
0.09
  9
$DIMTSZ
 40
0.0
  9
$DIMTOL
 70
     0
  9
$DIMLIM
 70
     0
  9
$DIMTIH
 70
     0
  9
$DIMTOH
 70
     0
  9
$DIMSE1
 70
     0
  9
$DIMSE2
 70
     0
  9
$DIMTAD
 70
     1
  9
$DIMZIN
 70
     0
  9
$DIMBLK
  1

  9
$DIMASO
 70
     1
  9
$DIMSHO
 70
     1
  9
$DIMPOST
  1

  9
$DIMAPOST
  1

  9
$DIMALT
 70
     0
  9
$DIMALTD
 70
     2
  9
$DIMALTF
 40
25.4
  9
$DIMLFAC
 40
1.0
  9
$DIMTOFL
 70
     0
  9
$DIMTVP
 40
0.0
  9
$DIMTIX
 70
     0
  9
$DIMSOXD
 70
     0
  9
$DIMSAH
 70
     0
  9
$DIMBLK1
  1

  9
$DIMBLK2
  1

  9
$DIMSTYLE
  2
Standard
  9
$DIMCLRD
 70
     7
  9
$DIMCLRE
 70
     7
  9
$DIMCLRT
 70
     7
  9
$DIMTFAC
 40
0.8
  9
$DIMGAP
 40
1.25
  9
$DIMJUST
 70
     0
  9
$DIMSD1
 70
     0
  9
$DIMSD2
 70
     0
  9
$DIMTOLJ
 70
     1
  9
$DIMTZIN
 70
     0
  9
$DIMALTZ
 70
     0
  9
$DIMALTTZ
 70
     0
  9
$DIMUPT
 70
     0
  9
$DIMDEC
 70
     2
  9
$DIMTDEC
 70
     4
  9
$DIMALTU
 70
     2
  9
$DIMALTTD
 70
     2
  9
$DIMTXSTY
  7
Standard
  9
$DIMAUNIT
 70
     0
  9
$DIMADEC
 70
     0
  9
$DIMALTRND
 40
0.0
  9
$DIMAZIN
 70
     0
  9
$DIMDSEP
 70
     0
  9
$DIMATFIT
 70
     3
  9
$DIMFRAC
 70
     0
  9
$DIMLDRBLK
  1

  9
$DIMLUNIT
 70
     2
  9
$DIMLWD
 70
     0
  9
$DIMLWE
 70
     0
  9
$DIMTMOVE
 70
     0
  9
$LUNITS
 70
     2
  9
$LUPREC
 70
     4
  9
$SKETCHINC
 40
0.1
  9
$FILLETRAD
 40
0.0
  9
$AUNITS
 70
     0
  9
$AUPREC
 70
     0
  9
$MENU
  1
acad
  9
$ELEVATION
 40
0.0
  9
$PELEVATION
 40
0.0
  9
$THICKNESS
 40
0.0
  9
$LIMCHECK
 70
     0
  9
$CHAMFERA
 40
0.0
  9
$CHAMFERB
 40
0.0
  9
$CHAMFERC
 40
0.0
  9
$CHAMFERD
 40
0.0
  9
$SKPOLY
 70
     0
  9
$TDCREATE
 40
2455303.727916667
  9
$TDUCREATE
 40
2455303.644583334
  9
$TDUPDATE
 40
2455306.457405741
  9
$TDUUPDATE
 40
2455306.374072407
  9
$TDINDWG
 40
0.0060735648
  9
$TDUSRTIMER
 40
0.0060733912
  9
$USRTIMER
 70
     1
  9
$ANGBASE
 50
0.0
  9
$ANGDIR
 70
     0
  9
$PDMODE
 70
     0
  9
$PDSIZE
 40
0.0
  9
$PLINEWID
 40
0.0
  9
$SPLFRAME
 70
     0
  9
$SPLINETYPE
 70
     6
  9
$SPLINESEGS
 70
     8
  9
$HANDSEED
  5
638F
  9
$SURFTAB1
 70
     6
  9
$SURFTAB2
 70
     6
  9
$SURFTYPE
 70
     6
  9
$SURFU
 70
     6
  9
$SURFV
 70
     6
  9
$UCSBASE
  2

  9
$UCSNAME
  2

  9
$UCSORG
 10
0.0
 20
0.0
 30
0.0
  9
$UCSXDIR
 10
1.0
 20
0.0
 30
0.0
  9
$UCSYDIR
 10
0.0
 20
1.0
 30
0.0
  9
$UCSORTHOREF
  2

  9
$UCSORTHOVIEW
 70
     0
  9
$UCSORGTOP
 10
0.0
 20
0.0
 30
0.0
  9
$UCSORGBOTTOM
 10
0.0
 20
0.0
 30
0.0
  9
$UCSORGLEFT
 10
0.0
 20
0.0
 30
0.0
  9
$UCSORGRIGHT
 10
0.0
 20
0.0
 30
0.0
  9
$UCSORGFRONT
 10
0.0
 20
0.0
 30
0.0
  9
$UCSORGBACK
 10
0.0
 20
0.0
 30
0.0
  9
$PUCSBASE
  2

  9
$PUCSNAME
  2

  9
$PUCSORG
 10
0.0
 20
0.0
 30
0.0
  9
$PUCSXDIR
 10
1.0
 20
0.0
 30
0.0
  9
$PUCSYDIR
 10
0.0
 20
1.0
 30
0.0
  9
$PUCSORTHOREF
  2

  9
$PUCSORTHOVIEW
 70
     0
  9
$PUCSORGTOP
 10
0.0
 20
0.0
 30
0.0
  9
$PUCSORGBOTTOM
 10
0.0
 20
0.0
 30
0.0
  9
$PUCSORGLEFT
 10
0.0
 20
0.0
 30
0.0
  9
$PUCSORGRIGHT
 10
0.0
 20
0.0
 30
0.0
  9
$PUCSORGFRONT
 10
0.0
 20
0.0
 30
0.0
  9
$PUCSORGBACK
 10
0.0
 20
0.0
 30
0.0
  9
$USERI1
 70
     0
  9
$USERI2
 70
     0
  9
$USERI3
 70
     0
  9
$USERI4
 70
     0
  9
$USERI5
 70
     0
  9
$USERR1
 40
0.0
  9
$USERR2
 40
0.0
  9
$USERR3
 40
0.0
  9
$USERR4
 40
0.0
  9
$USERR5
 40
0.0
  9
$WORLDVIEW
 70
     1
  9
$SHADEDGE
 70
     3
  9
$SHADEDIF
 70
    70
  9
$TILEMODE
 70
     1
  9
$MAXACTVP
 70
    16
  9
$PINSBASE
 10
0.0
 20
0.0
 30
0.0
  9
$PLIMCHECK
 70
     0
  9
$PEXTMIN
 10
1.000000000000000E+20
 20
1.000000000000000E+20
 30
1.000000000000000E+20
  9
$PEXTMAX
 10
-1.000000000000000E+20
 20
-1.000000000000000E+20
 30
-1.000000000000000E+20
  9
$PLIMMIN
 10
0.0
 20
0.0
  9
$PLIMMAX
 10
12.0
 20
9.0
  9
$UNITMODE
 70
     0
  9
$VISRETAIN
 70
     0
  9
$PLINEGEN
 70
     1
  9
$PSLTSCALE
 70
     0
  9
$TREEDEPTH
 70
  3020
  9
$CMLSTYLE
  2
Standard
  9
$CMLJUST
 70
     0
  9
$CMLSCALE
 40
1.0
  9
$PROXYGRAPHICS
 70
     0
  9
$MEASUREMENT
 70
     1
  9
$CELWEIGHT
370
     0
  9
$ENDCAPS
280
     0
  9
$JOINSTYLE
280
     0
  9
$LWDISPLAY
290
     0
  9
$INSUNITS
 70
     0
  9
$HYPERLINKBASE
  1

  9
$STYLESHEET
  1

  9
$XEDIT
290
     1
  9
$CEPSNTYPE
380
     0
  9
$PSTYLEMODE
290
     1
  9
$FINGERPRINTGUID
  2

  9
$VERSIONGUID
  2
{7C420704-BF4F-48BA-8216-6A6AD41CC944}
  9
$EXTNAMES
290
     1
  9
$PSVPSCALE
 40
0.0
  9
$OLESTARTUP
290
     0
  0
ENDSEC
  0
SECTION
  2
CLASSES
  0
CLASS
  1
IMAGE
  2
AcDbRasterImage
  3
ISM
 90
    34943
280
     0
281
     1
  0
CLASS
  1
DICTIONARYVAR
  2
AcDbDictionaryVar
  3
ObjectDBX Classes
 90
        0
280
     0
281
     0
  0
CLASS
  1
RASTERVARIABLES
  2
AcDbRasterVariables
  3
ISM
 90
    32768
280
     0
281
     0
  0
CLASS
  1
IMAGEDEF
  2
AcDbRasterImageDef
  3
ISM
 90
    32768
280
     0
281
     0
  0
CLASS
  1
IMAGEDEF_REACTOR
  2
AcDbRasterImageDefReactor
  3
ISM
 90
    32769
280
     0
281
     0
  0
CLASS
  1
IDBUFFER
  2
AcDbIdBuffer
  3
ObjectDBX Classes
 90
    32768
280
     0
281
     0
  0
CLASS
  1
SPATIAL_FILTER
  2
AcDbSpatialFilter
  3
ObjectDBX Classes
 90
    32768
280
     0
281
     0
  0
CLASS
  1
SORTENTSTABLE
  2
AcDbSortentsTable
  3
ObjectDBX Classes
 90
        0
280
     0
281
     0
  0
CLASS
  1
LAYER_INDEX
  2
AcDbLayerIndex
  3
ObjectDBX Classes
 90
    32768
280
     0
281
     0
  0
CLASS
  1
SPATIAL_INDEX
  2
AcDbSpatialIndex
  3
ObjectDBX Classes
 90
    32768
280
     0
281
     0
  0
CLASS
  1
OBJECT_PTR
  2
CAseDLPNTableRecord
  3
ASE-LPNTableRecord
 90
    32769
280
     0
281
     0
  0
CLASS
  1
LAYOUT
  2
AcDbLayout
  3
ObjectDBX Classes
 90
        0
280
     0
281
     0
  0
CLASS
  1
PLOTSETTINGS
  2
AcDbPlotSettings
  3
ObjectDBX Classes
 90
    32768
280
     0
281
     0
  0
CLASS
  1
ACDBDICTIONARYWDFLT
  2
AcDbDictionaryWithDefault
  3
ObjectDBX Classes
 90
        0
280
     0
281
     0
  0
CLASS
  1
ACDBPLACEHOLDER
  2
AcDbPlaceHolder
  3
ObjectDBX Classes
 90
        0
280
     0
281
     0
  0
CLASS
  1
VBA_PROJECT
  2
AcDbVbaProject
  3
acad
 90
    32768
280
     0
281
     0
  0
CLASS
  1
WIPEOUT
  2
AcDbWipeout
  3
"WipeOut|Product Desc: Object Enabler for WipeOut entity                        |Company: Autodesk, Inc.                        |WEB Address: www.autodesk.com"
 90
    34943
280
     0
281
     1
  0
CLASS
  1
WIPEOUTVARIABLES
  2
AcDbWipeoutVariables
  3
"WipeOut|Product Desc:     WipeOut Dbx Application|Company:          Autodesk, Inc.|WEB Address:      www.autodesk.com"
 90
        0
280
     0
281
     0
  0
CLASS
  1
RTEXT
  2
RText
  3
RText|AutoCAD Express Tool|expresstools@autodesk.com
 90
    35839
280
     0
281
     1
  0
CLASS
  1
ARCALIGNEDTEXT
  2
AcDbArcAlignedText
  3
ATEXT|AutoCAD Express Tool|expresstools@autodesk.com
 90
    32768
280
     0
281
     1
  0
CLASS
  1
MATERIAL
  2
AcDbMaterial
  3
ObjectDBX Classes
 90
     1153
280
     0
281
     0
  0
CLASS
  1
VISUALSTYLE
  2
AcDbVisualStyle
  3
ObjectDBX Classes
 90
     4095
280
     0
281
     0
  0
CLASS
  1
TABLESTYLE
  2
AcDbTableStyle
  3
ObjectDBX Classes
 90
     4095
280
     0
281
     0
  0
CLASS
  1
SCALE
  2
AcDbScale
  3
ObjectDBX Classes
 90
     1153
280
     0
281
     0
  0
CLASS
  1
MLEADERSTYLE
  2
AcDbMLeaderStyle
  3
ACDB_MLEADERSTYLE_CLASS
 90
     4095
280
     0
281
     0
  0
CLASS
  1
CELLSTYLEMAP
  2
AcDbCellStyleMap
  3
ObjectDBX Classes
 90
     1152
280
     0
281
     0
  0
ENDSEC
  0
SECTION
  2
TABLES
  0
TABLE
  2
VPORT
  5
7
330
0
100
AcDbSymbolTable
 70
     1
  0
VPORT
  5
15
330
7
100
AcDbSymbolTableRecord
100
AcDbViewportTableRecord
  2
*ACTIVE
 70
     0
 10
0.0
 20
0.0
 11
1.0
 21
1.0
 12
43.89205347595011
 22
-46.10338153768725
 13
0.0
 23
0.0
 14
1.0
 24
1.0
 15
0.0
 25
0.0
 16
0.0
 26
0.0
 36
1.0
 17
0.0
 27
0.0
 37
0.0
 40
188.3078624723521
 41
1.611330698287219
 42
50.0
 43
0.0
 44
0.0
 50
0.0
 51
0.0
 71
     0
 72
   100
 73
     1
 74
     1
 75
     0
 76
     0
 77
     0
 78
     0
281
     0
 65
     0
110
0.0
120
0.0
130
0.0
111
1.0
121
0.0
131
0.0
112
0.0
122
1.0
132
0.0
 79
     0
146
0.0
  0
ENDTAB
  0
TABLE
  2
LTYPE
  5
4
330
0
100
AcDbSymbolTable
 70
     4
  0
LTYPE
  5
11
330
4
100
AcDbSymbolTableRecord
100
AcDbLinetypeTableRecord
  2
ByBlock
 70
     0
  3

 72
    65
 73
     0
 40
0.0
  0
LTYPE
  5
12
330
4
100
AcDbSymbolTableRecord
100
AcDbLinetypeTableRecord
  2
ByLayer
 70
     0
  3

 72
    65
 73
     0
 40
0.0
  0
LTYPE
  5
13
330
4
100
AcDbSymbolTableRecord
100
AcDbLinetypeTableRecord
  2
Continuous
 70
     0
  3
Solid line
 72
    65
 73
     0
 40
0.0
  0
LTYPE
  5
1E4
330
4
100
AcDbSymbolTableRecord
100
AcDbLinetypeTableRecord
  2
CENTER
 70
     0
  3
____ _ ____ _ ____ _ ____ _ ____ _ ____ _ ____
 72
    65
 73
     4
 40
2.0
 49
1.25
 74
     0
 49
-0.25
 74
     0
 49
0.25
 74
     0
 49
-0.25
 74
     0
  0
ENDTAB
  0
TABLE
  2
LAYER
  5
2
330
0
100
AcDbSymbolTable
 70
     1
  0
LAYER
  5
14
102
{ACAD_XDICTIONARY
360
5E41
102
}
330
2
100
AcDbSymbolTableRecord
100
AcDbLayerTableRecord
  2
0
 70
     0
 62
     7
  6
Continuous
370
    -3
390
1D
  0
ENDTAB
  0
TABLE
  2
STYLE
  5
3
330
0
100
AcDbSymbolTable
 70
     1
  0
STYLE
  5
17
330
3
100
AcDbSymbolTableRecord
100
AcDbTextStyleTableRecord
  2
Standard
 70
     0
 40
0.0
 41
1.0
 50
0.0
 71
     0
 42
0.0
  3
I011000D.TTF
  4

1001
ACAD
1000
IsonormD
1071
        0
  0
ENDTAB
  0
TABLE
  2
VIEW
  5
5
330
0
100
AcDbSymbolTable
 70
     0
  0
ENDTAB
  0
TABLE
  2
UCS
  5
6
330
0
100
AcDbSymbolTable
 70
     0
  0
ENDTAB
  0
TABLE
  2
APPID
  5
8
330
0
100
AcDbSymbolTable
 70
     5
  0
APPID
  5
16
330
8
100
AcDbSymbolTableRecord
100
AcDbRegAppTableRecord
  2
ACAD
 70
     0
  0
APPID
  5
26
330
8
100
AcDbSymbolTableRecord
100
AcDbRegAppTableRecord
  2
TopSolid'Draft
 70
     0
  0
APPID
  5
319D
330
8
100
AcDbSymbolTableRecord
100
AcDbRegAppTableRecord
  2
ACAD_MLEADERVER
 70
     0
  0
APPID
  5
5E45
330
8
100
AcDbSymbolTableRecord
100
AcDbRegAppTableRecord
  2
DCO15
 70
     0
  0
APPID
  5
6330
330
8
100
AcDbSymbolTableRecord
100
AcDbRegAppTableRecord
  2
ACAD_EXEMPT_FROM_CAD_STANDARDS
 70
     0
  0
ENDTAB
  0
TABLE
  2
DIMSTYLE
  5
9
330
0
100
AcDbSymbolTable
 70
     2
100
AcDbDimStyleTable
 71
     1
340
18
  0
DIMSTYLE
105
18
330
9
100
AcDbSymbolTableRecord
100
AcDbDimStyleTableRecord
  2
Standard
 70
     0
 41
1.25
 42
0.0
 44
0.75
 73
     0
 74
     0
 77
     1
140
2.5
146
0.8
147
1.25
176
     7
177
     7
178
     7
271
     2
340
17
  0
ENDTAB
  0
TABLE
  2
BLOCK_RECORD
  5
1
330
0
100
AcDbSymbolTable
 70
     2
  0
BLOCK_RECORD
  5
A
102
{ACAD_XDICTIONARY
360
31A7
102
}
330
1
100
AcDbSymbolTableRecord
100
AcDbBlockTableRecord
  2
*MODEL_SPACE
340
20
  0
BLOCK_RECORD
  5
B
330
1
100
AcDbSymbolTableRecord
100
AcDbBlockTableRecord
  2
*PAPER_SPACE
340
21
  0
ENDTAB
  0
ENDSEC
  0
SECTION
  2
BLOCKS
  0
BLOCK
  5
D
330
A
100
AcDbEntity
  8
0
100
AcDbBlockBegin
  2
*MODEL_SPACE
 70
     0
 10
0.0
 20
0.0
 30
0.0
  3
*MODEL_SPACE
  1

  0
ENDBLK
  5
E
330
A
100
AcDbEntity
  8
0
100
AcDbBlockEnd
  0
BLOCK
  5
F
330
B
100
AcDbEntity
 67
     1
  8
0
100
AcDbBlockBegin
  2
*PAPER_SPACE
 70
     0
 10
0.0
 20
0.0
 30
0.0
  3
*PAPER_SPACE
  1

  0
ENDBLK
  5
10
330
B
100
AcDbEntity
 67
     1
  8
0
100
AcDbBlockEnd
  0
ENDSEC
  0
SECTION
  2
ENTITIES
  0
LINE
  5
1C23
330
A
100
AcDbEntity
  8
0
  6
CENTER
 62
     1
100
AcDbLine
 10
-6.200000000001068
 20
-24.99999999974387
 30
0.0
 11
6.199999999998794
 21
-24.99999999974387
 31
0.0
  0
LINE
  5
1C24
330
A
100
AcDbEntity
  8
0
  6
CENTER
 62
     1
100
AcDbLine
 10
-0.0000000000011369
 20
-31.19999999974385
 30
0.0
 11
-0.0000000000011369
 21
-18.79999999974399
 31
0.0
  0
LINE
  5
1C25
330
A
100
AcDbEntity
  8
0
  6
CENTER
 62
     1
100
AcDbLine
 10
-6.000000000001818
 20
0.0
 30
0.0
 11
6.000000000001818
 21
0.0
 31
0.0
  0
LINE
  5
1C26
330
A
100
AcDbEntity
  8
0
  6
CENTER
 62
     1
100
AcDbLine
 10
0.0
 20
-6.000000000001875
 30
0.0
 11
0.0
 21
6.000000000001932
 31
0.0
  0
LINE
  5
1E16
330
A
100
AcDbEntity
  8
0
  6
CENTER
 62
     1
100
AcDbLine
 10
71.2000000028836
 20
-24.99999999998716
 30
0.0
 11
91.95000000287961
 21
-24.99999999865878
 31
0.0
  0
LINE
  5
1E17
330
A
100
AcDbEntity
  8
0
  6
CENTER
 62
     1
100
AcDbLine
 10
71.2000000028836
 20
0.0000000000128466
 30
0.0
 11
91.95000000287961
 21
0.0000000013412773
 31
0.0
  0
LINE
  5
43FB
330
A
100
AcDbEntity
  8
0
  6
Continuous
 62
     9
370
     0
100
AcDbLine
 10
82.61172739680024
 20
-87.6994177060285
 30
0.0
 11
84.57946721700011
 21
-86.09276487042183
 31
0.0
  0
LINE
  5
4417
330
A
100
AcDbEntity
  8
0
  6
Continuous
 62
     9
370
     0
100
AcDbLine
 10
83.6850400260231
 20
-88.28365510063497
 30
0.0
 11
84.93723809342316
 21
-87.26123965979439
 31
0.0
  0
ARC
  5
4418
330
A
100
AcDbEntity
  8
0
  6
Continuous
 62
     7
370
     0
100
AcDbCircle
 10
82.16539145051866
 20
-89.79740849879318
 30
0.0
 40
2.144943156232509
100
AcDbArc
 50
44.8886503143619
 51
77.98969925645659
  0
LINE
  5
4419
330
A
100
AcDbEntity
  8
0
  6
Continuous
 62
     9
370
     0
100
AcDbLine
 10
83.6850400260231
 20
-88.28365510063497
 30
0.0
 11
83.68504002724149
 21
-126.9893824966719
 31
0.0
  0
LINE
  5
442D
330
A
100
AcDbEntity
  8
0
  6
Continuous
 62
     9
370
     0
100
AcDbLine
 10
82.61172739806454
 20
-127.8657385887083
 30
0.0
 11
82.61172739680024
 21
-87.6994177060285
 31
0.0
  0
LINE
  5
442E
330
A
100
AcDbEntity
  8
0
  6
Continuous
 62
     9
370
     0
100
AcDbLine
 10
58.2833078016024
 20
-82.73339985131372
 30
0.0
 11
58.28330780286683
 21
-122.8997207339948
 31
0.0
  0
LINE
  5
442F
330
A
100
AcDbEntity
  8
0
  6
Continuous
 62
     7
370
     0
100
AcDbLine
 10
82.61172739680024
 20
-87.6994177060285
 30
0.0
 11
58.2833078016024
 21
-82.73339985131372
 31
0.0
  0
LINE
  5
4430
330
A
100
AcDbEntity
  8
0
  6
Continuous
 62
     7
370
     0
100
AcDbLine
 10
82.61172739806454
 20
-127.8657385887083
 30
0.0
 11
58.28330780286683
 21
-122.8997207339948
 31
0.0
  0
ELLIPSE
  5
4431
330
A
100
AcDbEntity
  8
0
  6
Continuous
 62
     7
370
     0
100
AcDbEllipse
 10
66.69092339700182
 20
-81.7109844102867
 30
0.0
 11
-1.599999999999934
 21
-0.0000000000503486
 31
0.0
210
0.0
220
0.0000000000000001
230
1.0
 40
0.4082482905163208
 41
1.107148717781302
 42
2.677945044576168
  0
LINE
  5
4432
330
A
100
AcDbEntity
  8
0
  6
Continuous
 62
     7
370
     0
100
AcDbLine
 10
68.12200690260169
 20
-82.00310310762285
 30
0.0
 11
73.48857004860121
 21
-77.62132264687767
 31
0.0
  0
LINE
  5
4433
330
A
100
AcDbEntity
  8
0
  6
Continuous
 62
     7
370
     0
100
AcDbLine
 10
73.48857004860121
 20
-77.62132264687767
 30
0.0
 11
83.50615458779998
 21
-79.66615352823038
 31
0.0
  0
LINE
  5
4434
330
A
100
AcDbEntity
  8
0
  6
Continuous
 62
     7
370
     0
100
AcDbLine
 10
83.50615458779998
 20
-79.66615352823038
 30
0.0
 11
78.1395914418008
 21
-84.04793398897551
 31
0.0
  0
ELLIPSE
  5
4435
330
A
100
AcDbEntity
  8
0
  6
Continuous
 62
     7
370
     0
100
AcDbEllipse
 10
79.57067494740067
 20
-84.34005268631159
 30
0.0
 11
-1.600000000000044
 21
-0.0000000000503486
 31
-0.0000000000000001
210
-0.0000000000000001
220
0.0
230
1.0
 40
0.4082482905163202
 41
5.819537698165961
 42
6.283185307179585
  0
LINE
  5
4436
330
A
100
AcDbEntity
  8
0
  6
Continuous
 62
     7
370
     0
100
AcDbLine
 10
78.85513319460085
 20
-84.92429008107757
 30
0.0
 11
84.57946721700011
 21
-86.09276487042183
 31
0.0
  0
LINE
  5
4437
330
A
100
AcDbEntity
  8
0
  6
Continuous
 62
     9
370
     0
100
AcDbLine
 10
60.25104762180252
 20
-81.12674701570837
 30
0.0
 11
58.2833078016024
 21
-82.73339985131372
 31
0.0
  0
LINE
  5
4438
330
A
100
AcDbEntity
  8
0
  6
Continuous
 62
     7
370
     0
100
AcDbLine
 10
60.25104762180252
 20
-81.12674701570837
 30
0.0
 11
65.97538164420189
 21
-82.29522180505279
 31
0.0
  0
LINE
  5
4439
330
A
100
AcDbEntity
  8
0
  6
Continuous
 62
     9
370
     0
100
AcDbLine
 10
84.93723809464142
 20
-125.9669670558314
 30
0.0
 11
84.93723809342316
 21
-87.26123965979439
 31
0.0
  0
LINE
  5
443A
330
A
100
AcDbEntity
  8
0
  6
Continuous
 62
     9
370
     0
100
AcDbLine
 10
84.93723809464142
 20
-125.9669670558314
 30
0.0
 11
83.68504002724149
 21
-126.9893824966719
 31
0.0
  0
LINE
  5
443B
330
A
100
AcDbEntity
  8
0
  6
Continuous
 62
     7
370
     0
100
AcDbLine
 10
85.02169634061294
 20
-86.78858167873011
 30
0.0
 11
84.93723809342316
 21
-87.26123965979439
 31
0.0
  0
LINE
  5
443C
330
A
100
AcDbEntity
  8
0
  6
Continuous
 62
     7
370
     0
100
AcDbLine
 10
85.02169634185168
 20
-126.1475063395093
 30
0.0
 11
84.98064298031431
 21
-126.2340259306991
 31
0.0
  0
LINE
  5
443D
330
A
100
AcDbEntity
  8
0
  6
Continuous
 62
     7
370
     0
100
AcDbLine
 10
84.93723809464142
 20
-125.9669670558314
 30
0.0
 11
85.02169634185168
 21
-126.1475063395093
 31
0.0
  0
ELLIPSE
  5
443E
330
A
100
AcDbEntity
  8
0
  6
Continuous
 62
     7
370
     0
100
AcDbEllipse
 10
79.57067494740067
 20
-84.34005268631159
 30
0.0
 11
-1.600000000000044
 21
-0.0000000000503486
 31
0.0
210
0.0
220
0.0000000000000001
230
1.0
 40
0.4082482905163203
 41
6.283185307179585
 42
7.390334024960781
  0
LINE
  5
443F
330
A
100
AcDbEntity
  8
0
  6
Continuous
 62
     9
370
     0
100
AcDbLine
 10
78.13959144181911
 20
-84.63217138373762
 30
0.0
 11
78.1395914418008
 21
-84.04793398897551
 31
0.0
  0
LINE
  5
4440
330
A
100
AcDbEntity
  8
0
  6
Continuous
 62
     7
370
     0
100
AcDbLine
 10
83.50615458799552
 20
-85.87367584745965
 30
0.0
 11
83.50615458779998
 21
-79.66615352823038
 31
0.0
  0
LINE
  5
4454
330
A
100
AcDbEntity
  8
0
  6
Continuous
 62
     7
370
     0
100
AcDbLine
 10
57.8821320395524
 20
-82.75845967371651
 30
0.0
 11
57.84107867801527
 21
-82.84497926490615
 31
0.0
  0
LINE
  5
4455
330
A
100
AcDbEntity
  8
0
  6
Continuous
 62
     7
370
     0
100
AcDbLine
 10
58.2833078016024
 20
-82.73339985131372
 30
0.0
 11
57.8821320395524
 21
-82.75845967371651
 31
0.0
  0
ARC
  5
4471
330
A
100
AcDbEntity
  8
0
  6
Continuous
 62
     7
370
     0
100
AcDbCircle
 10
82.20987962167157
 20
-126.4835606855323
 30
0.0
 40
1.55947232318669
100
AcDbArc
 50
310.4905599650117
 51
341.0735299558266
  0
ELLIPSE
  5
4472
330
A
100
AcDbEntity
  8
0
  6
Continuous
 62
     7
370
     0
100
AcDbEllipse
 10
82.57595031099686
 20
-75.31358493607553
 30
0.0
 11
1.600000000000044
 21
-0.0000000000502931
 31
-0.0000000000000001
210
0.0000000000000001
220
0.0
230
1.0
 40
0.4082482904115022
 41
5.819537698255798
 42
8.961130351781449
  0
LINE
  5
4473
330
A
100
AcDbEntity
  8
0
  6
Continuous
 62
     7
370
     0
100
AcDbLine
 10
101.7166921983951
 20
-72.10027926629186
 30
0.0
 11
77.38827260319749
 21
-67.13426141157839
 31
0.0
  0
LINE
  5
4474
330
A
100
AcDbEntity
  8
0
  6
Continuous
 62
     9
370
     0
100
AcDbLine
 10
99.74895237819533
 20
-73.70693210138279
 30
0.0
 11
101.7166921983951
 21
-72.10027926629186
 31
0.0
  0
LINE
  5
4475
330
A
100
AcDbEntity
  8
0
  6
Continuous
 62
     7
370
     0
100
AcDbLine
 10
94.02461835579572
 20
-72.53845731203847
 30
0.0
 11
99.74895237819533
 21
-73.70693210138279
 31
0.0
  0
ELLIPSE
  5
4476
330
A
100
AcDbEntity
  8
0
  6
Continuous
 62
     7
370
     0
100
AcDbEllipse
 10
93.3090766029959
 20
-73.12269470661687
 30
0.0
 11
1.600000000000044
 21
-0.0000000000502931
 31
0.0
210
0.0
220
0.0
230
1.0
 40
0.4082482904115014
 41
1.107148717806857
 42
2.677945044601863
  0
LINE
  5
4477
330
A
100
AcDbEntity
  8
0
  6
Continuous
 62
     7
370
     0
100
AcDbLine
 10
86.5114299513965
 20
-77.21235646861976
 30
0.0
 11
91.87799309739602
 21
-72.83057600928083
 31
0.0
  0
LINE
  5
4478
330
A
100
AcDbEntity
  8
0
  6
Continuous
 62
     7
370
     0
100
AcDbLine
 10
76.4938454121974
 20
-75.16752558726705
 30
0.0
 11
86.5114299513965
 21
-77.21235646861976
 31
0.0
  0
LINE
  5
4479
330
A
100
AcDbEntity
  8
0
  6
Continuous
 62
     7
370
     0
100
AcDbLine
 10
81.86040855819703
 20
-70.7857451279283
 30
0.0
 11
76.4938454121974
 21
-75.16752558726705
 31
0.0
  0
ELLIPSE
  5
447A
330
A
100
AcDbEntity
  8
0
  6
Continuous
 62
     7
370
     0
100
AcDbEllipse
 10
80.42932505259704
 20
-70.4936264305922
 30
0.0
 11
1.600000000000044
 21
-0.0000000000502931
 31
-0.0000000000000001
210
0.0000000000000001
220
0.0
230
1.0
 40
0.4082482904115019
 41
0.0
 42
1.107148717806853
  0
LINE
  5
447B
330
A
100
AcDbEntity
  8
0
  6
Continuous
 62
     7
370
     0
100
AcDbLine
 10
75.42053278299761
 20
-68.74091424666932
 30
0.0
 11
81.14486680539688
 21
-69.90938903601369
 31
0.0
  0
LINE
  5
447C
330
A
100
AcDbEntity
  8
0
  6
Continuous
 62
     9
370
     0
100
AcDbLine
 10
75.42053278299761
 20
-68.74091424666932
 30
0.0
 11
77.38827260319749
 21
-67.13426141157839
 31
0.0
  0
LINE
  5
447D
330
A
100
AcDbEntity
  8
0
  6
Continuous
 62
     9
370
     0
100
AcDbLine
 10
91.87799309739602
 20
-72.83057600928083
 30
0.0
 11
91.8779930961341
 21
-112.9968968940233
 31
0.0
  0
LINE
  5
447E
330
A
100
AcDbEntity
  8
0
  6
Continuous
 62
     7
370
     0
100
AcDbLine
 10
86.5114299501347
 20
-117.3786773533622
 30
0.0
 11
91.8779930961341
 21
-112.9968968940233
 31
0.0
  0
LINE
  5
447F
330
A
100
AcDbEntity
  8
0
  6
Continuous
 62
     7
370
     0
100
AcDbLine
 10
86.5114299513965
 20
-77.21235646861976
 30
0.0
 11
86.5114299501347
 21
-117.3786773533622
 31
0.0
  0
LINE
  5
4480
330
A
100
AcDbEntity
  8
0
  6
Continuous
 62
     7
370
     0
100
AcDbLine
 10
85.02169634156599
 20
-117.0745867538898
 30
0.0
 11
86.5114299501347
 21
-117.3786773533622
 31
0.0
  0
LINE
  5
4481
330
A
100
AcDbEntity
  8
0
  6
Continuous
 62
     7
370
     0
100
AcDbLine
 10
76.4938454121974
 20
-75.16752558726705
 30
0.0
 11
76.493845412101
 21
-78.23477191163863
 31
0.0
  0
ELLIPSE
  5
4482
330
A
100
AcDbEntity
  8
0
  6
Continuous
 62
     7
370
     0
100
AcDbEllipse
 10
81.50263768145714
 20
-86.99833282965585
 30
0.0
 11
-3.035786553469586
 21
3.718064012597555
 31
0.0000000000000001
210
0.0
220
0.0
230
1.0
 40
0.8164965809539074
 41
3.926990817051371
 42
5.012269021944963
  0
ELLIPSE
  5
4483
330
A
100
AcDbEntity
  8
0
  6
Continuous
 62
     7
370
     0
100
AcDbEllipse
 10
81.50263768084938
 20
-106.3511965286682
 30
0.0
 11
-3.035786553469698
 21
3.718064012597609
 31
-0.0000000000000001
210
0.0
220
0.0
230
1.0
 40
0.8164965809539065
 41
3.317033260258818
 42
3.926990817051353
  0
LINE
  5
4484
330
A
100
AcDbEntity
  8
0
  6
Continuous
 62
     7
370
     0
100
AcDbLine
 10
85.79588819825699
 20
-87.87468892166419
 30
0.0
 11
85.79588819764888
 21
-107.2275526206764
 31
0.0
  0
ELLIPSE
  5
4485
330
A
100
AcDbEntity
  8
0
  6
Continuous
 62
     7
370
     0
100
AcDbEllipse
 10
82.57595031099686
 20
-75.31358493607553
 30
0.0
 11
1.600000000000044
 21
-0.0000000000502931
 31
0.0
210
0.0
220
0.0
230
1.0
 40
0.4082482904115022
 41
2.677945044601863
 42
3.605240262513669
  0
ELLIPSE
  5
4486
330
A
100
AcDbEntity
  8
0
  6
Continuous
 62
     7
370
     0
100
AcDbEllipse
 10
82.57595031099686
 20
-75.31358493607553
 30
0.0
 11
1.600000000000044
 21
-0.0000000000502931
 31
-0.0000000000000001
210
0.0000000000000001
220
0.0
230
1.0
 40
0.4082482904115022
 41
3.605240262513667
 42
5.819537698255797
  0
ELLIPSE
  5
4487
330
A
100
AcDbEntity
  8
0
  6
Continuous
 62
     7
370
     0
100
AcDbEllipse
 10
82.5759503109889
 20
-75.56918879625129
 30
0.0
 11
1.319999999999986
 21
-0.0000000000414668
 31
0.0
210
0.0
220
0.0
230
1.0
 40
0.4082482904115021
 41
3.141592653589792
 42
3.402012863128548
  0
ELLIPSE
  5
4488
330
A
100
AcDbEntity
  8
0
  6
Continuous
 62
     7
370
     0
100
AcDbEllipse
 10
82.5759503109889
 20
-75.56918879625129
 30
0.0
 11
1.319999999999986
 21
-0.0000000000414668
 31
0.0
210
0.0
220
0.0
230
1.0
 40
0.4082482904115027
 41
0.0
 42
1.107148717806922
  0
ELLIPSE
  5
4489
330
A
100
AcDbEntity
  8
0
  6
Continuous
 62
     7
370
     0
100
AcDbEllipse
 10
82.5759503109889
 20
-75.56918879625129
 30
0.0
 11
1.319999999999986
 21
-0.0000000000414668
 31
-0.0000000000000001
210
0.0000000000000001
220
0.0000000000000001
230
1.0
 40
0.4082482904115023
 41
1.107148717806922
 42
3.141592653589792
  0
ELLIPSE
  5
448A
330
A
100
AcDbEntity
  8
0
  6
Continuous
 62
     7
370
     0
100
AcDbEllipse
 10
82.5759503109889
 20
-75.56918879625129
 30
0.0
 11
1.319999999999986
 21
-0.0000000000414668
 31
-0.0000000000000001
210
0.0000000000000001
220
0.0000000000000001
230
1.0
 40
0.4082482904115023
 41
6.022765097634248
 42
6.283185307179585
  0
LINE
  5
448B
330
A
100
AcDbEntity
  8
0
  6
Continuous
 62
     9
370
     0
100
AcDbLine
 10
100.8222650073721
 20
-74.29116949612046
 30
0.0
 11
102.074463074772
 21
-73.26875405560816
 31
0.0
  0
ARC
  5
448C
330
A
100
AcDbEntity
  8
0
  6
Continuous
 62
     7
370
     0
100
AcDbCircle
 10
99.30261643202346
 20
-75.80492289348632
 30
0.0
 40
2.144943155562878
100
AcDbArc
 50
44.88865030229892
 51
77.98969925565748
  0
LINE
  5
44A8
330
A
100
AcDbEntity
  8
0
  6
Continuous
 62
     9
370
     0
100
AcDbLine
 10
100.8222650073721
 20
-74.29116949612046
 30
0.0
 11
100.8222650061562
 21
-112.9968968941452
 31
0.0
  0
LINE
  5
44BC
330
A
100
AcDbEntity
  8
0
  6
Continuous
 62
     9
370
     0
100
AcDbLine
 10
99.74895237693353
 20
-113.8732529861253
 30
0.0
 11
99.74895237819533
 21
-73.70693210138279
 31
0.0
  0
LINE
  5
44BD
330
A
100
AcDbEntity
  8
0
  6
Continuous
 62
     9
370
     0
100
AcDbLine
 10
94.02461835579572
 20
-72.53845731203847
 30
0.0
 11
94.02461835453379
 21
-112.7047781967809
 31
0.0
  0
LINE
  5
44BE
330
A
100
AcDbEntity
  8
0
  6
Continuous
 62
     7
370
     0
100
AcDbLine
 10
94.02461835453379
 20
-112.7047781967809
 30
0.0
 11
99.74895237693353
 21
-113.8732529861253
 31
0.0
  0
LINE
  5
44BF
330
A
100
AcDbEntity
  8
0
  6
Continuous
 62
     9
370
     0
100
AcDbLine
 10
102.0744630735562
 20
-111.9744814536328
 30
0.0
 11
102.074463074772
 21
-73.26875405560816
 31
0.0
  0
LINE
  5
44C0
330
A
100
AcDbEntity
  8
0
  6
Continuous
 62
     9
370
     0
100
AcDbLine
 10
102.0744630735562
 20
-111.9744814536328
 30
0.0
 11
100.8222650061562
 21
-112.9968968941452
 31
0.0
  0
ELLIPSE
  5
44C1
330
A
100
AcDbEntity
  8
0
  6
Continuous
 62
     7
370
     0
100
AcDbEllipse
 10
93.30907660173398
 20
-113.2890155913595
 30
0.0
 11
1.600000000000044
 21
-0.0000000000502931
 31
0.0
210
0.0
220
0.0
230
1.0
 40
0.4082482904115014
 41
1.107148717806857
 42
2.677945044601863
  0
LINE
  5
44C2
330
A
100
AcDbEntity
  8
0
  6
Continuous
 62
     7
370
     0
100
AcDbLine
 10
102.1589213219823
 20
-72.79609607459417
 30
0.0
 11
102.074463074772
 21
-73.26875405560816
 31
0.0
  0
LINE
  5
44C3
330
A
100
AcDbEntity
  8
0
  6
Continuous
 62
     7
370
     0
100
AcDbLine
 10
102.1589213207457
 20
-112.155020737361
 30
0.0
 11
102.117867959164
 21
-112.2415403286197
 31
0.0
  0
LINE
  5
44C4
330
A
100
AcDbEntity
  8
0
  6
Continuous
 62
     7
370
     0
100
AcDbLine
 10
102.0744630735562
 20
-111.9744814536328
 30
0.0
 11
102.1589213207457
 21
-112.155020737361
 31
0.0
  0
ELLIPSE
  5
44C5
330
A
100
AcDbEntity
  8
0
  6
Continuous
 62
     7
370
     0
100
AcDbEllipse
 10
80.42932505259704
 20
-70.4936264305922
 30
0.0
 11
1.600000000000044
 21
-0.0000000000502931
 31
-0.0000000000000001
210
0.0000000000000001
220
0.0000000000000001
230
1.0
 40
0.4082482904115019
 41
5.81953769819159
 42
6.283185307179585
  0
LINE
  5
44C6
330
A
100
AcDbEntity
  8
0
  6
Continuous
 62
     9
370
     0
100
AcDbLine
 10
81.14486680539688
 20
-69.90938903601369
 30
0.0
 11
81.14486680535106
 21
-71.36998252254426
 31
0.0
  0
LINE
  5
44C7
330
A
100
AcDbEntity
  8
0
  6
Continuous
 62
     9
370
     0
100
AcDbLine
 10
75.42053278299761
 20
-68.74091424666932
 30
0.0
 11
75.42053278270612
 21
-78.01568288859681
 31
0.0
  0
LINE
  5
44C8
330
A
100
AcDbEntity
  8
0
  6
Continuous
 62
     7
370
     0
100
AcDbLine
 10
75.42053278299761
 20
-68.74091424666932
 30
0.0
 11
75.01935702096659
 21
-68.76597406908399
 31
0.0
  0
LINE
  5
44C9
330
A
100
AcDbEntity
  8
0
  6
Continuous
 62
     7
370
     0
100
AcDbLine
 10
75.01935702096659
 20
-68.76597406908399
 30
0.0
 11
74.97830365938501
 21
-68.85249366034276
 31
0.0
  0
ARC
  5
44DD
330
A
100
AcDbEntity
  8
0
  6
Continuous
 62
     7
370
     0
100
AcDbCircle
 10
99.34710460067595
 20
-112.4910750829422
 30
0.0
 40
1.559472323122597
100
AcDbArc
 50
310.4905599564276
 51
341.0735299525638
  0
LINE
  5
44DE
330
A
100
AcDbEntity
  8
0
  6
Continuous
 62
     9
370
     0
100
AcDbLine
 10
85.79588819824095
 20
-88.38589664250349
 30
0.0
 11
85.68855693384012
 21
-88.47353225291334
 31
0.0
  0
ELLIPSE
  5
44DF
330
A
100
AcDbEntity
  8
0
  6
Continuous
 62
     7
370
     0
100
AcDbEllipse
 10
81.50263767996046
 20
-87.61908506320532
 30
0.0
 11
2.95989188991763
 21
-3.6251124120501
 31
-0.0000000000000002
210
0.0000000000000001
220
0.0
230
1.0
 40
0.816496580927726
 41
0.7853981633974692
 42
1.857097954338536
  0
LINE
  5
44E0
330
A
100
AcDbEntity
  8
0
  6
Continuous
 62
     7
370
     0
100
AcDbLine
 10
85.68855693384012
 20
-88.47353225291334
 30
0.0
 11
85.68855693384012
 21
-107.1836718556542
 31
0.0
  0
LINE
  5
44E1
330
A
100
AcDbEntity
  8
0
  6
Continuous
 62
     9
370
     0
100
AcDbLine
 10
85.68855693384012
 20
-107.1836718556542
 30
0.0
 11
85.79588819765115
 21
-107.1547409729972
 31
0.0
  0
ELLIPSE
  5
44E2
330
A
100
AcDbEntity
  8
0
  6
Continuous
 62
     7
370
     0
100
AcDbEllipse
 10
81.50263767996046
 20
-106.3292246659462
 30
0.0
 11
2.695245396139744
 21
-3.93426240180994
 31
0.0
210
0.0
220
0.0
230
1.0
 40
0.8140647879504674
 41
0.2989918975210015
 42
0.8712328528444269
  0
LINE
  5
44E3
330
A
100
AcDbEntity
  8
0
  6
Continuous
 62
     7
370
     0
100
AcDbLine
 10
85.02169634185168
 20
-126.1475063395093
 30
0.0
 11
85.02169634061294
 21
-86.78858167873011
 31
0.0
  0
LINE
  5
44E4
330
A
100
AcDbEntity
  8
0
  6
Continuous
 62
     7
370
     0
100
AcDbLine
 10
59.64029453254693
 20
-81.32292600924058
 30
0.0
 11
57.8821320395524
 21
-82.75845967371651
 31
0.0
  0
LINE
  5
44E5
330
A
100
AcDbEntity
  8
0
  6
Continuous
 62
     7
370
     0
100
AcDbLine
 10
57.84107867801527
 20
-82.84497926490615
 30
0.0
 11
57.84107867925411
 21
-122.2039039256866
 31
0.0
  0
LINE
  5
44E6
330
A
100
AcDbEntity
  8
0
  6
Continuous
 62
     7
370
     0
100
AcDbLine
 10
83.22248048732001
 20
-127.669559595175
 30
0.0
 11
84.98064298031431
 21
-126.2340259306991
 31
0.0
  0
LINE
  5
44E7
330
A
100
AcDbEntity
  8
0
  6
Continuous
 62
     7
370
     0
100
AcDbLine
 10
102.1589213207457
 20
-112.155020737361
 30
0.0
 11
102.1589213219823
 21
-72.79609607459417
 31
0.0
  0
LINE
  5
44E8
330
A
100
AcDbEntity
  8
0
  6
Continuous
 62
     7
370
     0
100
AcDbLine
 10
74.97830365938501
 20
-68.85249366034276
 30
0.0
 11
74.97830365909954
 21
-77.92541324674402
 31
0.0
  0
LINE
  5
44E9
330
A
100
AcDbEntity
  8
0
  6
Continuous
 62
     7
370
     0
100
AcDbLine
 10
76.77751951402581
 20
-67.33044040501579
 30
0.0
 11
75.01935702096659
 21
-68.76597406908399
 31
0.0
  0
LINE
  5
44EA
330
A
100
AcDbEntity
  8
0
  6
Continuous
 62
     7
370
     0
100
AcDbLine
 10
100.3597054661048
 20
-113.6770739926878
 30
0.0
 11
102.117867959164
 21
-112.2415403286197
 31
0.0
  0
ARC
  5
44EB
330
A
100
AcDbEntity
  8
0
  6
Continuous
 62
     9
370
     0
100
AcDbCircle
 10
-0.0000000000011369
 20
-87.7999999975661
 30
0.0
 40
2.0
100
AcDbArc
 50
180.0
 51
90.0
  0
CIRCLE
  5
44EC
330
A
100
AcDbEntity
  8
0
  6
Continuous
 62
     7
370
     0
100
AcDbCircle
 10
-0.0000000000011369
 20
-87.799999998239
 30
0.0
 40
1.299999999999966
  0
LINE
  5
44ED
330
A
100
AcDbEntity
  8
0
  6
Continuous
 62
     7
370
     0
100
AcDbLine
 10
0.9999999999988631
 20
-88.37735026742848
 30
0.0
 11
-0.0000000000011369
 21
-88.95470053661819
 31
0.0
  0
LINE
  5
44EE
330
A
100
AcDbEntity
  8
0
  6
Continuous
 62
     7
370
     0
100
AcDbLine
 10
0.9999999999988631
 20
-87.22264972904936
 30
0.0
 11
0.9999999999988631
 21
-88.37735026742848
 31
0.0
  0
LINE
  5
44EF
330
A
100
AcDbEntity
  8
0
  6
Continuous
 62
     7
370
     0
100
AcDbLine
 10
-0.0000000000011369
 20
-86.64529945985975
 30
0.0
 11
0.9999999999988631
 21
-87.22264972904936
 31
0.0
  0
LINE
  5
44F0
330
A
100
AcDbEntity
  8
0
  6
Continuous
 62
     7
370
     0
100
AcDbLine
 10
-1.000000000001136
 20
-87.22264972904936
 30
0.0
 11
-0.0000000000011369
 21
-86.64529945985975
 31
0.0
  0
LINE
  5
44F1
330
A
100
AcDbEntity
  8
0
  6
Continuous
 62
     7
370
     0
100
AcDbLine
 10
-1.000000000001136
 20
-88.37735026742848
 30
0.0
 11
-1.000000000001136
 21
-87.22264972904936
 31
0.0
  0
LINE
  5
44F2
330
A
100
AcDbEntity
  8
0
  6
Continuous
 62
     7
370
     0
100
AcDbLine
 10
-0.0000000000011369
 20
-88.95470053661819
 30
0.0
 11
-1.000000000001136
 21
-88.37735026742848
 31
0.0
  0
ARC
  5
44F3
330
A
100
AcDbEntity
  8
0
  6
Continuous
 62
     7
370
     0
100
AcDbCircle
 10
-9.00000000000125
 20
-114.2000000026992
 30
0.0
 40
2.0
100
AcDbArc
 50
270.0
 51
0.0
  0
LINE
  5
44F4
330
A
100
AcDbEntity
  8
0
  6
Continuous
 62
     7
370
     0
100
AcDbLine
 10
-7.00000000000125
 20
-114.2000000026992
 30
0.0
 11
-7.00000000000125
 21
-99.2000000026992
 31
0.0
  0
LINE
  5
44F5
330
A
100
AcDbEntity
  8
0
  6
Continuous
 62
     7
370
     0
100
AcDbLine
 10
-7.00000000000125
 20
-99.2000000026992
 30
0.0
 11
6.999999999998863
 21
-99.2000000026992
 31
0.0
  0
LINE
  5
44F6
330
A
100
AcDbEntity
  8
0
  6
Continuous
 62
     7
370
     0
100
AcDbLine
 10
6.999999999998863
 20
-99.2000000026992
 30
0.0
 11
6.999999999998863
 21
-114.2000000026992
 31
0.0
  0
ARC
  5
44F7
330
A
100
AcDbEntity
  8
0
  6
Continuous
 62
     7
370
     0
100
AcDbCircle
 10
8.999999999998863
 20
-114.2000000026992
 30
0.0
 40
2.0
100
AcDbArc
 50
180.0
 51
270.0
  0
LINE
  5
44F8
330
A
100
AcDbEntity
  8
0
  6
Continuous
 62
     7
370
     0
100
AcDbLine
 10
8.999999999998863
 20
-116.2000000026992
 30
0.0
 11
16.99999999999886
 21
-116.2000000026992
 31
0.0
  0
LINE
  5
44F9
330
A
100
AcDbEntity
  8
0
  6
Continuous
 62
     9
370
     0
100
AcDbLine
 10
16.99999999999886
 20
-121.7000000026992
 30
0.0
 11
16.99999999999886
 21
-116.2000000026992
 31
0.0
  0
LINE
  5
44FA
330
A
100
AcDbEntity
  8
0
  6
Continuous
 62
     7
370
     0
100
AcDbLine
 10
16.99999999999886
 20
-121.7000000026992
 30
0.0
 11
-17.00000000000125
 21
-121.7000000026992
 31
0.0
  0
LINE
  5
44FB
330
A
100
AcDbEntity
  8
0
  6
Continuous
 62
     9
370
     0
100
AcDbLine
 10
-17.00000000000125
 20
-116.2000000026992
 30
0.0
 11
-17.00000000000125
 21
-121.7000000026992
 31
0.0
  0
LINE
  5
44FC
330
A
100
AcDbEntity
  8
0
  6
Continuous
 62
     7
370
     0
100
AcDbLine
 10
-17.00000000000125
 20
-116.2000000026992
 30
0.0
 11
-9.00000000000125
 21
-116.2000000026992
 31
0.0
  0
LINE
  5
44FD
330
A
100
AcDbEntity
  8
0
  6
Continuous
 62
     7
370
     0
100
AcDbLine
 10
-18.00000000000136
 20
-117.2000000026349
 30
0.0
 11
-18.00000000000136
 21
-120.7000000026349
 31
0.0
  0
ARC
  5
4521
330
A
100
AcDbEntity
  8
0
  6
Continuous
 62
     7
370
     0
100
AcDbCircle
 10
-17.00000000000125
 20
-120.7000000026349
 30
0.0
 40
1.000000000064227
100
AcDbArc
 50
180.0
 51
270.0
  0
LINE
  5
4522
330
A
100
AcDbEntity
  8
0
  6
Continuous
 62
     7
370
     0
100
AcDbLine
 10
17.99999999999875
 20
-120.7000000026349
 30
0.0
 11
17.99999999999875
 21
-117.2000000026349
 31
0.0
  0
ARC
  5
4523
330
A
100
AcDbEntity
  8
0
  6
Continuous
 62
     7
370
     0
100
AcDbCircle
 10
16.99999999999886
 20
-120.7000000026349
 30
0.0
 40
1.000000000064281
100
AcDbArc
 50
270.0
 51
0.0
  0
ARC
  5
4547
330
A
100
AcDbEntity
  8
0
  6
Continuous
 62
     7
370
     0
100
AcDbCircle
 10
-0.0000000000011369
 20
-87.79999999756597
 30
0.0
 40
2.0
100
AcDbArc
 50
90.0
 51
180.0
  0
ARC
  5
4548
330
A
100
AcDbEntity
  8
0
  6
Continuous
 62
     7
370
     0
100
AcDbCircle
 10
-0.0000000000011369
 20
-87.79999999756597
 30
0.0
 40
2.0
100
AcDbArc
 50
180.0
 51
90.0
  0
LINE
  5
4549
330
A
100
AcDbEntity
  8
0
  6
Continuous
 62
     7
370
     0
100
AcDbLine
 10
16.99999999999886
 20
-68.29999999756586
 30
0.0
 11
-17.00000000000125
 21
-68.29999999756598
 31
0.0
  0
LINE
  5
454A
330
A
100
AcDbEntity
  8
0
  6
Continuous
 62
     9
370
     0
100
AcDbLine
 10
16.99999999999886
 20
-73.79999999756598
 30
0.0
 11
16.99999999999886
 21
-68.29999999756586
 31
0.0
  0
LINE
  5
454B
330
A
100
AcDbEntity
  8
0
  6
Continuous
 62
     7
370
     0
100
AcDbLine
 10
8.999999999998863
 20
-73.79999999756598
 30
0.0
 11
16.99999999999886
 21
-73.79999999756598
 31
0.0
  0
ARC
  5
454C
330
A
100
AcDbEntity
  8
0
  6
Continuous
 62
     7
370
     0
100
AcDbCircle
 10
8.999999999998863
 20
-75.79999999756598
 30
0.0
 40
2.0
100
AcDbArc
 50
90.0
 51
180.0
  0
LINE
  5
454D
330
A
100
AcDbEntity
  8
0
  6
Continuous
 62
     7
370
     0
100
AcDbLine
 10
6.999999999998863
 20
-90.79999999756598
 30
0.0
 11
6.999999999998863
 21
-75.79999999756598
 31
0.0
  0
LINE
  5
454E
330
A
100
AcDbEntity
  8
0
  6
Continuous
 62
     7
370
     0
100
AcDbLine
 10
-7.00000000000125
 20
-90.79999999756598
 30
0.0
 11
6.999999999998863
 21
-90.79999999756598
 31
0.0
  0
LINE
  5
454F
330
A
100
AcDbEntity
  8
0
  6
Continuous
 62
     7
370
     0
100
AcDbLine
 10
-7.00000000000125
 20
-75.79999999756598
 30
0.0
 11
-7.00000000000125
 21
-90.79999999756598
 31
0.0
  0
ARC
  5
4550
330
A
100
AcDbEntity
  8
0
  6
Continuous
 62
     7
370
     0
100
AcDbCircle
 10
-9.00000000000125
 20
-75.79999999756598
 30
0.0
 40
2.0
100
AcDbArc
 50
0.0
 51
90.0
  0
LINE
  5
4551
330
A
100
AcDbEntity
  8
0
  6
Continuous
 62
     7
370
     0
100
AcDbLine
 10
-17.00000000000125
 20
-73.79999999756598
 30
0.0
 11
-9.00000000000125
 21
-73.79999999756598
 31
0.0
  0
LINE
  5
4552
330
A
100
AcDbEntity
  8
0
  6
Continuous
 62
     9
370
     0
100
AcDbLine
 10
-17.00000000000125
 20
-73.79999999756598
 30
0.0
 11
-17.00000000000125
 21
-68.29999999756598
 31
0.0
  0
CIRCLE
  5
4553
330
A
100
AcDbEntity
  8
0
  6
Continuous
 62
     7
370
     0
100
AcDbCircle
 10
-0.0000000000011369
 20
-87.79999999758848
 30
0.0
 40
1.650000000000039
  0
LINE
  5
4554
330
A
100
AcDbEntity
  8
0
  6
Continuous
 62
     7
370
     0
100
AcDbLine
 10
17.99999999999875
 20
-72.79999999763004
 30
0.0
 11
17.99999999999875
 21
-69.29999999763004
 31
0.0
  0
ARC
  5
4578
330
A
100
AcDbEntity
  8
0
  6
Continuous
 62
     7
370
     0
100
AcDbCircle
 10
16.99999999999886
 20
-69.29999999763004
 30
0.0
 40
1.000000000064116
100
AcDbArc
 50
0.0
 51
90.0
  0
LINE
  5
4579
330
A
100
AcDbEntity
  8
0
  6
Continuous
 62
     7
370
     0
100
AcDbLine
 10
-18.00000000000136
 20
-72.79999999763004
 30
0.0
 11
-18.00000000000136
 21
-69.29999999763004
 31
0.0
  0
ARC
  5
457A
330
A
100
AcDbEntity
  8
0
  6
Continuous
 62
     7
370
     0
100
AcDbCircle
 10
-17.00000000000125
 20
-69.29999999763004
 30
0.0
 40
1.00000000006417
100
AcDbArc
 50
90.0
 51
180.0
  0
LINE
  5
459E
330
A
100
AcDbEntity
  8
0
  6
Continuous
 62
     7
370
     0
100
AcDbLine
 10
5.499999999996589
 20
-99.2000000026992
 30
0.0
 11
5.499999999996589
 21
-98.80000000269928
 31
0.0
  0
LINE
  5
459F
330
A
100
AcDbEntity
  8
0
  6
Continuous
 62
     9
370
     0
100
AcDbLine
 10
-0.0000000000011369
 20
-99.2000000026992
 30
0.0
 11
-0.0000000000011369
 21
-98.80000000269928
 31
0.0
  0
LINE
  5
45A0
330
A
100
AcDbEntity
  8
0
  6
Continuous
 62
     7
370
     0
100
AcDbLine
 10
-0.0000000000011369
 20
-98.80000000269928
 30
0.0
 11
5.499999999998749
 21
-98.80000000269928
 31
0.0
  0
LINE
  5
45A1
330
A
100
AcDbEntity
  8
0
  6
Continuous
 62
     7
370
     0
100
AcDbLine
 10
-5.499999999998976
 20
-99.2000000026992
 30
0.0
 11
-5.499999999998976
 21
-98.80000000269928
 31
0.0
  0
LINE
  5
45A2
330
A
100
AcDbEntity
  8
0
  6
Continuous
 62
     7
370
     0
100
AcDbLine
 10
-5.500000000001136
 20
-98.80000000269928
 30
0.0
 11
-0.0000000000011369
 21
-98.80000000269928
 31
0.0
  0
LINE
  5
45A3
330
A
100
AcDbEntity
  8
0
  6
Continuous
 62
     7
370
     0
100
AcDbLine
 10
3.499999999998863
 20
-95.80000000269922
 30
0.0
 11
-3.500000000001136
 21
-95.80000000269922
 31
0.0
  0
LINE
  5
45A4
330
A
100
AcDbEntity
  8
0
  6
Continuous
 62
     9
370
     0
100
AcDbLine
 10
1.649999999999977
 20
-98.80000000269928
 30
0.0
 11
1.649999999999977
 21
-95.80000000269922
 31
0.0
  0
LINE
  5
45A5
330
A
100
AcDbEntity
  8
0
  6
Continuous
 62
     9
370
     0
100
AcDbLine
 10
-1.649999999999977
 20
-95.80000000269922
 30
0.0
 11
-1.649999999999977
 21
-98.80000000269928
 31
0.0
  0
LINE
  5
45A6
330
A
100
AcDbEntity
  8
0
  6
Continuous
 62
     7
370
     0
100
AcDbLine
 10
2.000000000000454
 20
-98.80000000269587
 30
0.0
 11
2.000000000000454
 21
-95.80000000269439
 31
0.0
  0
LINE
  5
45A7
330
A
100
AcDbEntity
  8
0
  6
Continuous
 62
     7
370
     0
100
AcDbLine
 10
-2.000000000000454
 20
-95.80000000269439
 30
0.0
 11
-2.000000000000454
 21
-98.80000000269587
 31
0.0
  0
LINE
  5
45A8
330
A
100
AcDbEntity
  8
0
  6
Continuous
 62
     7
370
     0
100
AcDbLine
 10
3.499999999998863
 20
-95.80000000269922
 30
0.0
 11
3.499999999998863
 21
-90.80000000269928
 31
0.0
  0
LINE
  5
45A9
330
A
100
AcDbEntity
  8
0
  6
Continuous
 62
     7
370
     0
100
AcDbLine
 10
-3.500000000001136
 20
-90.80000000269928
 30
0.0
 11
-3.500000000001136
 21
-95.80000000269922
 31
0.0
  0
LINE
  5
45AA
330
A
100
AcDbEntity
  8
0
  6
Continuous
 62
     9
370
     0
100
AcDbLine
 10
102.2000000025011
 20
13.99999999910133
 30
0.0
 11
105.700000002501
 21
13.99999999887649
 31
0.0
  0
LINE
  5
45AB
330
A
100
AcDbEntity
  8
0
  6
Continuous
 62
     7
370
     0
100
AcDbLine
 10
102.2000000025011
 20
13.99999999910133
 30
0.0
 11
101.2000000025654
 21
14.99999999916565
 31
0.0
  0
LINE
  5
45AC
330
A
100
AcDbEntity
  8
0
  6
Continuous
 62
     7
370
     0
100
AcDbLine
 10
101.2000000025654
 20
14.99999999916395
 30
0.0
 11
106.7000000025654
 21
14.99999999881234
 31
0.0
  0
LINE
  5
45AD
330
A
100
AcDbEntity
  8
0
  6
Continuous
 62
     7
370
     0
100
AcDbLine
 10
106.7000000025654
 20
14.99999999881234
 30
0.0
 11
105.700000002501
 21
13.99999999887649
 31
0.0
  0
LINE
  5
45AE
330
A
100
AcDbEntity
  8
0
  6
Continuous
 62
     9
370
     0
100
AcDbLine
 10
102.2000000025011
 20
13.99999999910133
 30
0.0
 11
102.1999999990962
 21
-39.00000000090035
 31
0.0
  0
LINE
  5
45AF
330
A
100
AcDbEntity
  8
0
  6
Continuous
 62
     7
370
     0
100
AcDbLine
 10
101.1999999990317
 20
-40.00000000083605
 30
0.0
 11
102.1999999990962
 21
-39.00000000090035
 31
0.0
  0
LINE
  5
45B0
330
A
100
AcDbEntity
  8
0
  6
Continuous
 62
     7
370
     0
100
AcDbLine
 10
101.1999999990317
 20
-40.00000000083605
 30
0.0
 11
101.2000000025654
 21
14.99999999916395
 31
0.0
  0
LINE
  5
45B1
330
A
100
AcDbEntity
  8
0
  6
Continuous
 62
     9
370
     0
100
AcDbLine
 10
105.6999999990962
 20
-39.00000000112527
 30
0.0
 11
105.700000002501
 21
13.99999999887649
 31
0.0
  0
LINE
  5
45B2
330
A
100
AcDbEntity
  8
0
  6
Continuous
 62
     9
370
     0
100
AcDbLine
 10
102.1999999990962
 20
-39.00000000090035
 30
0.0
 11
105.6999999990962
 21
-39.00000000112527
 31
0.0
  0
LINE
  5
45B3
330
A
100
AcDbEntity
  8
0
  6
Continuous
 62
     7
370
     0
100
AcDbLine
 10
106.7000000025654
 20
14.99999999881234
 30
0.0
 11
106.6999999990317
 21
-40.00000000118951
 31
0.0
  0
LINE
  5
45B4
330
A
100
AcDbEntity
  8
0
  6
Continuous
 62
     7
370
     0
100
AcDbLine
 10
105.6999999990962
 20
-39.00000000112527
 30
0.0
 11
106.6999999990317
 21
-40.00000000118951
 31
0.0
  0
LINE
  5
45B5
330
A
100
AcDbEntity
  8
0
  6
Continuous
 62
     7
370
     0
100
AcDbLine
 10
101.1999999990317
 20
-40.00000000083605
 30
0.0
 11
106.6999999990317
 21
-40.00000000118951
 31
0.0
  0
LINE
  5
45B6
330
A
100
AcDbEntity
  8
0
  6
Continuous
 62
     9
370
     0
100
AcDbLine
 10
99.19999999903177
 20
-40.00000000070753
 30
0.0
 11
99.20000000256539
 21
14.99999999929241
 31
0.0
  0
LINE
  5
45B7
330
A
100
AcDbEntity
  8
0
  6
Continuous
 62
     7
370
     0
100
AcDbLine
 10
99.20000000256539
 20
14.99999999929241
 30
0.0
 11
101.2000000025654
 21
14.99999999916395
 31
0.0
  0
LINE
  5
45B8
330
A
100
AcDbEntity
  8
0
  6
Continuous
 62
     7
370
     0
100
AcDbLine
 10
99.19999999903177
 20
-40.00000000070753
 30
0.0
 11
101.1999999990317
 21
-40.00000000083605
 31
0.0
  0
LINE
  5
45B9
330
A
100
AcDbEntity
  8
0
  6
Continuous
 62
     7
370
     0
100
AcDbLine
 10
84.19999999903177
 20
-39.99999999974387
 30
0.0
 11
84.20000000256539
 21
15.00000000025599
 31
0.0
  0
LINE
  5
45BA
330
A
100
AcDbEntity
  8
0
  6
Continuous
 62
     7
370
     0
100
AcDbLine
 10
99.20000000256539
 20
14.99999999929241
 30
0.0
 11
84.20000000256539
 21
15.00000000025599
 31
0.0
  0
LINE
  5
45BB
330
A
100
AcDbEntity
  8
0
  6
Continuous
 62
     7
370
     0
100
AcDbLine
 10
99.19999999903177
 20
-40.00000000070753
 30
0.0
 11
84.19999999903177
 21
-39.99999999974387
 31
0.0
  0
LINE
  5
45BC
330
A
100
AcDbEntity
  8
0
  6
Continuous
 62
     9
370
     0
100
AcDbLine
 10
57.80000000089501
 20
-39.00000000023005
 30
0.0
 11
54.30000000089524
 21
-39.00000000045447
 31
0.0
  0
LINE
  5
45BD
330
A
100
AcDbEntity
  8
0
  6
Continuous
 62
     7
370
     0
100
AcDbLine
 10
57.80000000089501
 20
-39.00000000023005
 30
0.0
 11
58.80000000095947
 21
-40.00000000016598
 31
0.0
  0
LINE
  5
45BE
330
A
100
AcDbEntity
  8
0
  6
Continuous
 62
     7
370
     0
100
AcDbLine
 10
58.80000000095947
 20
-40.00000000016598
 30
0.0
 11
53.30000000095925
 21
-40.00000000051852
 31
0.0
  0
LINE
  5
45BF
330
A
100
AcDbEntity
  8
0
  6
Continuous
 62
     7
370
     0
100
AcDbLine
 10
53.30000000095925
 20
-40.00000000051852
 30
0.0
 11
54.30000000089524
 21
-39.00000000045447
 31
0.0
  0
LINE
  5
45C0
330
A
100
AcDbEntity
  8
0
  6
Continuous
 62
     9
370
     0
100
AcDbLine
 10
54.29999999749634
 20
13.99999999954539
 30
0.0
 11
54.30000000089524
 21
-39.00000000045447
 31
0.0
  0
LINE
  5
45C1
330
A
100
AcDbEntity
  8
0
  6
Continuous
 62
     9
370
     0
100
AcDbLine
 10
57.79999999749634
 20
13.99999999976992
 30
0.0
 11
54.29999999749634
 21
13.99999999954539
 31
0.0
  0
LINE
  5
45C2
330
A
100
AcDbEntity
  8
0
  6
Continuous
 62
     9
370
     0
100
AcDbLine
 10
57.80000000089501
 20
-39.00000000023005
 30
0.0
 11
57.79999999749634
 21
13.99999999976992
 31
0.0
  0
LINE
  5
45C3
330
A
100
AcDbEntity
  8
0
  6
Continuous
 62
     7
370
     0
100
AcDbLine
 10
58.79999999743211
 20
14.99999999983401
 30
0.0
 11
57.79999999749634
 21
13.99999999976992
 31
0.0
  0
LINE
  5
45C4
330
A
100
AcDbEntity
  8
0
  6
Continuous
 62
     7
370
     0
100
AcDbLine
 10
58.79999999743211
 20
14.99999999983401
 30
0.0
 11
58.80000000095947
 21
-40.00000000016598
 31
0.0
  0
LINE
  5
45C5
330
A
100
AcDbEntity
  8
0
  6
Continuous
 62
     7
370
     0
100
AcDbLine
 10
54.29999999749634
 20
13.99999999954539
 30
0.0
 11
53.29999999743211
 21
14.99999999948133
 31
0.0
  0
LINE
  5
45C6
330
A
100
AcDbEntity
  8
0
  6
Continuous
 62
     7
370
     0
100
AcDbLine
 10
53.30000000095925
 20
-40.00000000051852
 30
0.0
 11
53.29999999743211
 21
14.99999999948133
 31
0.0
  0
LINE
  5
45C7
330
A
100
AcDbEntity
  8
0
  6
Continuous
 62
     7
370
     0
100
AcDbLine
 10
58.79999999743211
 20
14.99999999983401
 30
0.0
 11
53.29999999743211
 21
14.99999999948133
 31
0.0
  0
LINE
  5
45C8
330
A
100
AcDbEntity
  8
0
  6
Continuous
 62
     9
370
     0
100
AcDbLine
 10
60.79999999743211
 20
14.99999999996231
 30
0.0
 11
60.80000000095947
 21
-40.00000000003768
 31
0.0
  0
LINE
  5
45C9
330
A
100
AcDbEntity
  8
0
  6
Continuous
 62
     7
370
     0
100
AcDbLine
 10
60.79999999743211
 20
14.99999999996231
 30
0.0
 11
58.79999999743211
 21
14.99999999983401
 31
0.0
  0
LINE
  5
45CA
330
A
100
AcDbEntity
  8
0
  6
Continuous
 62
     7
370
     0
100
AcDbLine
 10
60.80000000095947
 20
-40.00000000003768
 30
0.0
 11
58.80000000095947
 21
-40.00000000016598
 31
0.0
  0
LINE
  5
45CB
330
A
100
AcDbEntity
  8
0
  6
Continuous
 62
     7
370
     0
100
AcDbLine
 10
75.79999999743222
 20
15.00000000092422
 30
0.0
 11
75.80000000095947
 21
-39.99999999907578
 31
0.0
  0
LINE
  5
45CC
330
A
100
AcDbEntity
  8
0
  6
Continuous
 62
     7
370
     0
100
AcDbLine
 10
60.79999999743211
 20
14.99999999996231
 30
0.0
 11
75.79999999743222
 21
15.00000000092422
 31
0.0
  0
LINE
  5
45CD
330
A
100
AcDbEntity
  8
0
  6
Continuous
 62
     7
370
     0
100
AcDbLine
 10
60.80000000095947
 20
-40.00000000003768
 30
0.0
 11
75.80000000095947
 21
-39.99999999907578
 31
0.0
  0
LINE
  5
45CE
330
A
100
AcDbEntity
  8
0
  6
Continuous
 62
     9
370
     0
100
AcDbLine
 10
84.20000000177855
 20
2.750000000244995
 30
0.0
 11
83.80000000256542
 21
2.750000000244995
 31
0.0
  0
LINE
  5
45CF
330
A
100
AcDbEntity
  8
0
  6
Continuous
 62
     9
370
     0
100
AcDbLine
 10
84.19999999981905
 20
-27.74999999974284
 30
0.0
 11
83.80000000256542
 21
-27.74999999974284
 31
0.0
  0
LINE
  5
45D0
330
A
100
AcDbEntity
  8
0
  6
Continuous
 62
     7
370
     0
100
AcDbLine
 10
83.80000000256542
 20
-27.74999999974284
 30
0.0
 11
83.80000000256542
 21
2.750000000244995
 31
0.0
  0
LINE
  5
45D1
330
A
100
AcDbEntity
  8
0
  6
Continuous
 62
     7
370
     0
100
AcDbLine
 10
84.19999999946549
 20
-33.24999999974068
 30
0.0
 11
83.80000000256542
 21
-33.24999999974068
 31
0.0
  0
LINE
  5
45D2
330
A
100
AcDbEntity
  8
0
  6
Continuous
 62
     7
370
     0
100
AcDbLine
 10
83.80000000256542
 20
-33.24999999974284
 30
0.0
 11
83.80000000256542
 21
-27.74999999974284
 31
0.0
  0
LINE
  5
45D3
330
A
100
AcDbEntity
  8
0
  6
Continuous
 62
     7
370
     0
100
AcDbLine
 10
84.20000000213178
 20
8.250000000242721
 30
0.0
 11
83.80000000256542
 21
8.250000000242721
 31
0.0
  0
LINE
  5
45D4
330
A
100
AcDbEntity
  8
0
  6
Continuous
 62
     7
370
     0
100
AcDbLine
 10
83.80000000256542
 20
2.750000000244995
 30
0.0
 11
83.80000000256542
 21
8.250000000244995
 31
0.0
  0
LINE
  5
45D5
330
A
100
AcDbEntity
  8
0
  6
Continuous
 62
     7
370
     0
100
AcDbLine
 10
80.8000000025653
 20
-21.49999999974387
 30
0.0
 11
80.8000000025653
 21
-24.99999999974387
 31
0.0
  0
LINE
  5
45D6
330
A
100
AcDbEntity
  8
0
  6
Continuous
 62
     7
370
     0
100
AcDbLine
 10
80.8000000025653
 20
-24.99999999974387
 30
0.0
 11
80.8000000025653
 21
-28.49999999974398
 31
0.0
  0
LINE
  5
45D7
330
A
100
AcDbEntity
  8
0
  6
Continuous
 62
     7
370
     0
100
AcDbLine
 10
80.8000000025653
 20
3.500000000256136
 30
0.0
 11
80.8000000025653
 21
0.0000000002561364
 31
0.0
  0
LINE
  5
45D8
330
A
100
AcDbEntity
  8
0
  6
Continuous
 62
     7
370
     0
100
AcDbLine
 10
80.8000000025653
 20
0.0000000002561364
 30
0.0
 11
80.8000000025653
 21
-3.499999999743863
 31
0.0
  0
LINE
  5
45D9
330
A
100
AcDbEntity
  8
0
  6
Continuous
 62
     9
370
     0
100
AcDbLine
 10
83.80000000256542
 20
1.650000000819431
 30
0.0
 11
80.8000000025653
 21
1.650000000627414
 31
0.0
  0
LINE
  5
45DA
330
A
100
AcDbEntity
  8
0
  6
Continuous
 62
     9
370
     0
100
AcDbLine
 10
80.8000000025653
 20
-1.649999999372596
 30
0.0
 11
83.80000000256542
 21
-1.649999999180465
 31
0.0
  0
LINE
  5
45DB
330
A
100
AcDbEntity
  8
0
  6
Continuous
 62
     9
370
     0
100
AcDbLine
 10
83.80000000256542
 20
-23.34999999918057
 30
0.0
 11
80.8000000025653
 21
-23.34999999937253
 31
0.0
  0
LINE
  5
45DC
330
A
100
AcDbEntity
  8
0
  6
Continuous
 62
     9
370
     0
100
AcDbLine
 10
80.8000000025653
 20
-26.64999999937265
 30
0.0
 11
83.80000000256542
 21
-26.64999999918058
 31
0.0
  0
LINE
  5
45DD
330
A
100
AcDbEntity
  8
0
  6
Continuous
 62
     7
370
     0
100
AcDbLine
 10
83.80000000256542
 20
2.000000000819511
 30
0.0
 11
80.80000000256076
 21
2.00000000062738
 31
0.0
  0
LINE
  5
45DE
330
A
100
AcDbEntity
  8
0
  6
Continuous
 62
     7
370
     0
100
AcDbLine
 10
80.80000000256076
 20
-1.999999999372619
 30
0.0
 11
83.80000000256542
 21
-1.999999999180488
 31
0.0
  0
LINE
  5
45DF
330
A
100
AcDbEntity
  8
0
  6
Continuous
 62
     7
370
     0
100
AcDbLine
 10
83.80000000256542
 20
-22.99999999918055
 30
0.0
 11
80.80000000256076
 21
-22.99999999937256
 31
0.0
  0
LINE
  5
45E0
330
A
100
AcDbEntity
  8
0
  6
Continuous
 62
     7
370
     0
100
AcDbLine
 10
80.80000000256076
 20
-26.99999999937257
 30
0.0
 11
83.80000000256542
 21
-26.99999999918055
 31
0.0
  0
LINE
  5
45E1
330
A
100
AcDbEntity
  8
0
  6
Continuous
 62
     7
370
     0
100
AcDbLine
 10
80.8000000025653
 20
-21.49999999974387
 30
0.0
 11
75.80000000256541
 21
-21.49999999974387
 31
0.0
  0
LINE
  5
45E2
330
A
100
AcDbEntity
  8
0
  6
Continuous
 62
     7
370
     0
100
AcDbLine
 10
75.80000000256541
 20
-28.49999999974398
 30
0.0
 11
80.8000000025653
 21
-28.49999999974398
 31
0.0
  0
LINE
  5
45E3
330
A
100
AcDbEntity
  8
0
  6
Continuous
 62
     7
370
     0
100
AcDbLine
 10
80.8000000025653
 20
3.500000000256136
 30
0.0
 11
75.80000000256541
 21
3.500000000256136
 31
0.0
  0
LINE
  5
45E4
330
A
100
AcDbEntity
  8
0
  6
Continuous
 62
     7
370
     0
100
AcDbLine
 10
75.80000000256541
 20
-3.499999999743863
 30
0.0
 11
80.8000000025653
 21
-3.499999999743863
 31
0.0
  0
LINE
  5
4608
330
A
100
AcDbEntity
  8
0
  6
Continuous
 62
     7
370
     0
100
AcDbLine
 10
17.99999999999875
 20
13.99999999887481
 30
0.0
 11
17.99999999999875
 21
-39.00000000112527
 31
0.0
  0
ARC
  5
4609
330
A
100
AcDbEntity
  8
0
  6
Continuous
 62
     7
370
     0
100
AcDbCircle
 10
16.99999999999886
 20
-39.00000000112527
 30
0.0
 40
1.000000000064227
100
AcDbArc
 50
270.0
 51
0.0
  0
LINE
  5
460A
330
A
100
AcDbEntity
  8
0
  6
Continuous
 62
     9
370
     0
100
AcDbLine
 10
16.99999999999886
 20
-40.00000000118951
 30
0.0
 11
16.99999999999886
 21
14.99999999881049
 31
0.0
  0
LINE
  5
460B
330
A
100
AcDbEntity
  8
0
  6
Continuous
 62
     9
370
     0
100
AcDbLine
 10
-17.00000000000125
 20
14.99999999881234
 30
0.0
 11
-17.00000000000125
 21
-40.00000000118951
 31
0.0
  0
ARC
  5
460C
330
A
100
AcDbEntity
  8
0
  6
Continuous
 62
     7
370
     0
100
AcDbCircle
 10
-17.00000000000125
 20
-39.00000000112527
 30
0.0
 40
1.000000000064281
100
AcDbArc
 50
180.0
 51
270.0
  0
LINE
  5
460D
330
A
100
AcDbEntity
  8
0
  6
Continuous
 62
     7
370
     0
100
AcDbLine
 10
-18.00000000000136
 20
-39.00000000112527
 30
0.0
 11
-18.00000000000136
 21
13.99999999887649
 31
0.0
  0
LINE
  5
4631
330
A
100
AcDbEntity
  8
0
  6
Continuous
 62
     7
370
     0
100
AcDbLine
 10
16.99999999999886
 20
-40.00000000118951
 30
0.0
 11
-17.00000000000125
 21
-40.00000000118951
 31
0.0
  0
LINE
  5
4632
330
A
100
AcDbEntity
  8
0
  6
Continuous
 62
     7
370
     0
100
AcDbLine
 10
16.99999999999886
 20
14.99999999881049
 30
0.0
 11
-17.00000000000125
 21
14.99999999881234
 31
0.0
  0
TEXT
  5
5F7F
330
A
100
AcDbEntity
  8
0
  6
Continuous
 62
     7
370
     0
100
AcDbText
 10
-15.31778031631734
 20
25.01830429196374
 30
0.0
 40
10.0
  1
5A00
100
AcDbText
  0
LINE
  5
6032
330
A
100
AcDbEntity
  8
0
  6
Continuous
 62
     7
370
     0
100
AcDbLine
 10
76.77751951402581
 20
-67.33044040501579
 30
0.0
 11
76.81506398866554
 21
-67.30102951732618
 31
0.0
  0
LINE
  5
6033
330
A
100
AcDbEntity
  8
0
  6
Continuous
 62
     7
370
     0
100
AcDbLine
 10
76.81506398866554
 20
-67.30102951732618
 30
0.0
 11
76.853127471687
 21
-67.2736799590117
 31
0.0
  0
LINE
  5
6034
330
A
100
AcDbEntity
  8
0
  6
Continuous
 62
     7
370
     0
100
AcDbLine
 10
76.853127471687
 20
-67.2736799590117
 30
0.0
 11
76.89161826482461
 21
-67.24845761755403
 31
0.0
  0
LINE
  5
6035
330
A
100
AcDbEntity
  8
0
  6
Continuous
 62
     7
370
     0
100
AcDbLine
 10
76.89161826482461
 20
-67.24845761755403
 30
0.0
 11
76.9304436403869
 21
-67.22542325578302
 31
0.0
  0
LINE
  5
6036
330
A
100
AcDbEntity
  8
0
  6
Continuous
 62
     7
370
     0
100
AcDbLine
 10
76.9304436403869
 20
-67.22542325578302
 30
0.0
 11
76.96951006464303
 21
-67.20463236549363
 31
0.0
  0
LINE
  5
6037
330
A
100
AcDbEntity
  8
0
  6
Continuous
 62
     7
370
     0
100
AcDbLine
 10
76.96951006464303
 20
-67.20463236549363
 30
0.0
 11
77.00872342315574
 21
-67.18613503376167
 31
0.0
  0
LINE
  5
6038
330
A
100
AcDbEntity
  8
0
  6
Continuous
 62
     7
370
     0
100
AcDbLine
 10
77.00872342315574
 20
-67.18613503376167
 30
0.0
 11
77.04798924750946
 21
-67.16997582227936
 31
0.0
  0
LINE
  5
6039
330
A
100
AcDbEntity
  8
0
  6
Continuous
 62
     7
370
     0
100
AcDbLine
 10
77.04798924750946
 20
-67.16997582227936
 30
0.0
 11
77.08721294289365
 21
-67.15619366000272
 31
0.0
  0
LINE
  5
603A
330
A
100
AcDbEntity
  8
0
  6
Continuous
 62
     7
370
     0
100
AcDbLine
 10
77.08721294289365
 20
-67.15619366000272
 30
0.0
 11
77.12630001599132
 21
-67.14482174936768
 31
0.0
  0
LINE
  5
603B
330
A
100
AcDbEntity
  8
0
  6
Continuous
 62
     7
370
     0
100
AcDbLine
 10
77.12630001599132
 20
-67.14482174936768
 30
0.0
 11
77.16515630261927
 21
-67.13588748630304
 31
0.0
  0
LINE
  5
603C
330
A
100
AcDbEntity
  8
0
  6
Continuous
 62
     7
370
     0
100
AcDbLine
 10
77.16515630261927
 20
-67.13588748630304
 30
0.0
 11
77.2036881945794
 21
-67.12941239423106
 31
0.0
  0
LINE
  5
603D
330
A
100
AcDbEntity
  8
0
  6
Continuous
 62
     7
370
     0
100
AcDbLine
 10
77.2036881945794
 20
-67.12941239423106
 30
0.0
 11
77.24180286516968
 21
-67.12541207221585
 31
0.0
  0
LINE
  5
603E
330
A
100
AcDbEntity
  8
0
  6
Continuous
 62
     7
370
     0
100
AcDbLine
 10
77.24180286516968
 20
-67.12541207221585
 30
0.0
 11
77.27940849280958
 21
-67.12389615738328
 31
0.0
  0
LINE
  5
603F
330
A
100
AcDbEntity
  8
0
  6
Continuous
 62
     7
370
     0
100
AcDbLine
 10
77.27940849280958
 20
-67.12389615738328
 30
0.0
 11
77.31641448224866
 21
-67.12486830170519
 31
0.0
  0
LINE
  5
6040
330
A
100
AcDbEntity
  8
0
  6
Continuous
 62
     7
370
     0
100
AcDbLine
 10
77.31641448224866
 20
-67.12486830170519
 30
0.0
 11
77.35273168281719
 21
-67.12832616320065
 31
0.0
  0
LINE
  5
6041
330
A
100
AcDbEntity
  8
0
  6
Continuous
 62
     7
370
     0
100
AcDbLine
 10
77.35273168281719
 20
-67.12832616320065
 30
0.0
 11
77.38827260319749
 21
-67.13426141157839
 31
0.0
  0
LINE
  5
6042
330
A
100
AcDbEntity
  8
0
  6
Continuous
 62
     7
370
     0
100
AcDbLine
 10
99.74895237693353
 20
-113.8732529861253
 30
0.0
 11
99.7844932973137
 21
-113.8791882345031
 31
0.0
  0
LINE
  5
6043
330
A
100
AcDbEntity
  8
0
  6
Continuous
 62
     7
370
     0
100
AcDbLine
 10
99.7844932973137
 20
-113.8791882345031
 30
0.0
 11
99.82081049788201
 21
-113.8826460959985
 31
0.0
  0
LINE
  5
6044
330
A
100
AcDbEntity
  8
0
  6
Continuous
 62
     7
370
     0
100
AcDbLine
 10
99.82081049788201
 20
-113.8826460959985
 30
0.0
 11
99.85781648732098
 21
-113.8836182403203
 31
0.0
  0
LINE
  5
6045
330
A
100
AcDbEntity
  8
0
  6
Continuous
 62
     7
370
     0
100
AcDbLine
 10
99.85781648732098
 20
-113.8836182403203
 30
0.0
 11
99.89542211496109
 21
-113.8821023254879
 31
0.0
  0
LINE
  5
6046
330
A
100
AcDbEntity
  8
0
  6
Continuous
 62
     7
370
     0
100
AcDbLine
 10
99.89542211496109
 20
-113.8821023254879
 30
0.0
 11
99.93353678555093
 21
-113.8781020034727
 31
0.0
  0
LINE
  5
6047
330
A
100
AcDbEntity
  8
0
  6
Continuous
 62
     7
370
     0
100
AcDbLine
 10
99.93353678555093
 20
-113.8781020034727
 30
0.0
 11
99.97206867751152
 21
-113.8716269114006
 31
0.0
  0
LINE
  5
6048
330
A
100
AcDbEntity
  8
0
  6
Continuous
 62
     7
370
     0
100
AcDbLine
 10
99.97206867751152
 20
-113.8716269114006
 30
0.0
 11
100.0109249641395
 21
-113.862692648336
 31
0.0
  0
LINE
  5
6049
330
A
100
AcDbEntity
  8
0
  6
Continuous
 62
     7
370
     0
100
AcDbLine
 10
100.0109249641395
 20
-113.862692648336
 30
0.0
 11
100.050012037237
 21
-113.8513207377009
 31
0.0
  0
LINE
  5
604A
330
A
100
AcDbEntity
  8
0
  6
Continuous
 62
     7
370
     0
100
AcDbLine
 10
100.050012037237
 20
-113.8513207377009
 30
0.0
 11
100.0892357326213
 21
-113.8375385754243
 31
0.0
  0
LINE
  5
604B
330
A
100
AcDbEntity
  8
0
  6
Continuous
 62
     7
370
     0
100
AcDbLine
 10
100.0892357326213
 20
-113.8375385754243
 30
0.0
 11
100.1285015569749
 21
-113.821379363942
 31
0.0
  0
LINE
  5
604C
330
A
100
AcDbEntity
  8
0
  6
Continuous
 62
     7
370
     0
100
AcDbLine
 10
100.1285015569749
 20
-113.821379363942
 30
0.0
 11
100.1677149154876
 21
-113.8028820322101
 31
0.0
  0
LINE
  5
604D
330
A
100
AcDbEntity
  8
0
  6
Continuous
 62
     7
370
     0
100
AcDbLine
 10
100.1677149154876
 20
-113.8028820322101
 30
0.0
 11
100.2067813397439
 21
-113.7820911419207
 31
0.0
  0
LINE
  5
604E
330
A
100
AcDbEntity
  8
0
  6
Continuous
 62
     7
370
     0
100
AcDbLine
 10
100.2067813397439
 20
-113.7820911419207
 30
0.0
 11
100.245606715306
 21
-113.7590567801497
 31
0.0
  0
LINE
  5
604F
330
A
100
AcDbEntity
  8
0
  6
Continuous
 62
     7
370
     0
100
AcDbLine
 10
100.245606715306
 20
-113.7590567801497
 30
0.0
 11
100.2840975084438
 21
-113.733834438692
 31
0.0
  0
LINE
  5
6050
330
A
100
AcDbEntity
  8
0
  6
Continuous
 62
     7
370
     0
100
AcDbLine
 10
100.2840975084438
 20
-113.733834438692
 30
0.0
 11
100.322160991465
 21
-113.7064848803775
 31
0.0
  0
LINE
  5
6051
330
A
100
AcDbEntity
  8
0
  6
Continuous
 62
     7
370
     0
100
AcDbLine
 10
100.322160991465
 20
-113.7064848803775
 30
0.0
 11
100.3597054661048
 21
-113.6770739926878
 31
0.0
  0
LINE
  5
6052
330
A
100
AcDbEntity
  8
0
  6
Continuous
 62
     7
370
     0
100
AcDbLine
 10
101.7166921983951
 20
-72.10027926629186
 30
0.0
 11
101.7493086729736
 21
-72.10810247100903
 31
0.0
  0
LINE
  5
6053
330
A
100
AcDbEntity
  8
0
  6
Continuous
 62
     7
370
     0
100
AcDbLine
 10
101.7493086729736
 20
-72.10810247100903
 30
0.0
 11
101.7810945165099
 21
-72.1180844336995
 31
0.0
  0
LINE
  5
6054
330
A
100
AcDbEntity
  8
0
  6
Continuous
 62
     7
370
     0
100
AcDbLine
 10
101.7810945165099
 20
-72.1180844336995
 30
0.0
 11
101.811982097949
 21
-72.13020391564197
 31
0.0
  0
LINE
  5
6055
330
A
100
AcDbEntity
  8
0
  6
Continuous
 62
     7
370
     0
100
AcDbLine
 10
101.811982097949
 20
-72.13020391564197
 30
0.0
 11
101.8419056974769
 21
-72.14443513009451
 31
0.0
  0
LINE
  5
6056
330
A
100
AcDbEntity
  8
0
  6
Continuous
 62
     7
370
     0
100
AcDbLine
 10
101.8419056974769
 20
-72.14443513009451
 30
0.0
 11
101.870801646354
 21
-72.1607477971608
 31
0.0
  0
LINE
  5
6057
330
A
100
AcDbEntity
  8
0
  6
Continuous
 62
     7
370
     0
100
AcDbLine
 10
101.870801646354
 20
-72.1607477971608
 30
0.0
 11
101.898608462383
 21
-72.17910720821715
 31
0.0
  0
LINE
  5
6058
330
A
100
AcDbEntity
  8
0
  6
Continuous
 62
     7
370
     0
100
AcDbLine
 10
101.898608462383
 20
-72.17910720821715
 30
0.0
 11
101.9252669807254
 21
-72.19947429976236
 31
0.0
  0
LINE
  5
6059
330
A
100
AcDbEntity
  8
0
  6
Continuous
 62
     7
370
     0
100
AcDbLine
 10
101.9252669807254
 20
-72.19947429976236
 30
0.0
 11
101.9507204797869
 21
-72.22180573653384
 31
0.0
  0
LINE
  5
605A
330
A
100
AcDbEntity
  8
0
  6
Continuous
 62
     7
370
     0
100
AcDbLine
 10
101.9507204797869
 20
-72.22180573653384
 30
0.0
 11
101.974914801905
 21
-72.24605400371138
 31
0.0
  0
LINE
  5
605B
330
A
100
AcDbEntity
  8
0
  6
Continuous
 62
     7
370
     0
100
AcDbLine
 10
101.974914801905
 20
-72.24605400371138
 30
0.0
 11
101.9977984685804
 21
-72.27216750801654
 31
0.0
  0
LINE
  5
605C
330
A
100
AcDbEntity
  8
0
  6
Continuous
 62
     7
370
     0
100
AcDbLine
 10
101.9977984685804
 20
-72.27216750801654
 30
0.0
 11
102.019322790008
 21
-72.30009068748677
 31
0.0
  0
LINE
  5
605D
330
A
100
AcDbEntity
  8
0
  6
Continuous
 62
     7
370
     0
100
AcDbLine
 10
102.019322790008
 20
-72.30009068748677
 30
0.0
 11
102.039441968676
 21
-72.32976412969595
 31
0.0
  0
LINE
  5
605E
330
A
100
AcDbEntity
  8
0
  6
Continuous
 62
     7
370
     0
100
AcDbLine
 10
102.039441968676
 20
-72.32976412969595
 30
0.0
 11
102.0581131968079
 21
-72.36112469816652
 31
0.0
  0
LINE
  5
605F
330
A
100
AcDbEntity
  8
0
  6
Continuous
 62
     7
370
     0
100
AcDbLine
 10
102.0581131968079
 20
-72.36112469816652
 30
0.0
 11
102.0752967474457
 21
-72.39410566670557
 31
0.0
  0
LINE
  5
6060
330
A
100
AcDbEntity
  8
0
  6
Continuous
 62
     7
370
     0
100
AcDbLine
 10
102.0752967474457
 20
-72.39410566670557
 30
0.0
 11
102.0909560589788
 21
-72.42863686137894
 31
0.0
  0
LINE
  5
6061
330
A
100
AcDbEntity
  8
0
  6
Continuous
 62
     7
370
     0
100
AcDbLine
 10
102.0909560589788
 20
-72.42863686137894
 30
0.0
 11
102.1050578129344
 21
-72.46464480982098
 31
0.0
  0
LINE
  5
6062
330
A
100
AcDbEntity
  8
0
  6
Continuous
 62
     7
370
     0
100
AcDbLine
 10
102.1050578129344
 20
-72.46464480982098
 30
0.0
 11
102.1175720048707
 21
-72.50205289756206
 31
0.0
  0
LINE
  5
6063
330
A
100
AcDbEntity
  8
0
  6
Continuous
 62
     7
370
     0
100
AcDbLine
 10
102.1175720048707
 20
-72.50205289756206
 30
0.0
 11
102.1284720082168
 21
-72.5407815310428
 31
0.0
  0
LINE
  5
6064
330
A
100
AcDbEntity
  8
0
  6
Continuous
 62
     7
370
     0
100
AcDbLine
 10
102.1284720082168
 20
-72.5407815310428
 30
0.0
 11
102.137734630928
 21
-72.580748306965
 31
0.0
  0
LINE
  5
6065
330
A
100
AcDbEntity
  8
0
  6
Continuous
 62
     7
370
     0
100
AcDbLine
 10
102.137734630928
 20
-72.580748306965
 30
0.0
 11
102.1453401648297
 21
-72.6218681876228
 31
0.0
  0
LINE
  5
6066
330
A
100
AcDbEntity
  8
0
  6
Continuous
 62
     7
370
     0
100
AcDbLine
 10
102.1453401648297
 20
-72.6218681876228
 30
0.0
 11
102.151272427552
 21
-72.66405368183786
 31
0.0
  0
LINE
  5
6067
330
A
100
AcDbEntity
  8
0
  6
Continuous
 62
     7
370
     0
100
AcDbLine
 10
102.151272427552
 20
-72.66405368183786
 30
0.0
 11
102.1555187969602
 21
-72.70721503111554
 31
0.0
  0
LINE
  5
6068
330
A
100
AcDbEntity
  8
0
  6
Continuous
 62
     7
370
     0
100
AcDbLine
 10
102.1555187969602
 20
-72.70721503111554
 30
0.0
 11
102.1580702380126
 21
-72.75126040062429
 31
0.0
  0
LINE
  5
6069
330
A
100
AcDbEntity
  8
0
  6
Continuous
 62
     7
370
     0
100
AcDbLine
 10
102.1580702380126
 20
-72.75126040062429
 30
0.0
 11
102.1589213219823
 21
-72.79609607459417
 31
0.0
  0
LINE
  5
606A
330
A
100
AcDbEntity
  8
0
  6
Continuous
 62
     7
370
     0
100
AcDbLine
 10
57.84107867925411
 20
-122.2039039256866
 30
0.0
 11
57.84192976322663
 21
-122.2487395996573
 31
0.0
  0
LINE
  5
606B
330
A
100
AcDbEntity
  8
0
  6
Continuous
 62
     7
370
     0
100
AcDbLine
 10
57.84192976322663
 20
-122.2487395996573
 30
0.0
 11
57.84448120428146
 21
-122.2927849691668
 31
0.0
  0
LINE
  5
606C
330
A
100
AcDbEntity
  8
0
  6
Continuous
 62
     7
370
     0
100
AcDbLine
 10
57.84448120428146
 20
-122.2927849691668
 30
0.0
 11
57.8487275736926
 21
-122.3359463184453
 31
0.0
  0
LINE
  5
606D
330
A
100
AcDbEntity
  8
0
  6
Continuous
 62
     7
370
     0
100
AcDbLine
 10
57.8487275736926
 20
-122.3359463184453
 30
0.0
 11
57.85465983641699
 21
-122.3781318126611
 31
0.0
  0
LINE
  5
606E
330
A
100
AcDbEntity
  8
0
  6
Continuous
 62
     7
370
     0
100
AcDbLine
 10
57.85465983641699
 20
-122.3781318126611
 30
0.0
 11
57.86226537032098
 21
-122.4192516933195
 31
0.0
  0
LINE
  5
606F
330
A
100
AcDbEntity
  8
0
  6
Continuous
 62
     7
370
     0
100
AcDbLine
 10
57.86226537032098
 20
-122.4192516933195
 30
0.0
 11
57.87152799303431
 21
-122.4592184692423
 31
0.0
  0
LINE
  5
6070
330
A
100
AcDbEntity
  8
0
  6
Continuous
 62
     7
370
     0
100
AcDbLine
 10
57.87152799303431
 20
-122.4592184692423
 30
0.0
 11
57.8824279963826
 21
-122.4979471027233
 31
0.0
  0
LINE
  5
6071
330
A
100
AcDbEntity
  8
0
  6
Continuous
 62
     7
370
     0
100
AcDbLine
 10
57.8824279963826
 20
-122.4979471027233
 30
0.0
 11
57.89494218832044
 21
-122.5353551904647
 31
0.0
  0
LINE
  5
6072
330
A
100
AcDbEntity
  8
0
  6
Continuous
 62
     7
370
     0
100
AcDbLine
 10
57.89494218832044
 20
-122.5353551904647
 30
0.0
 11
57.90904394227766
 21
-122.571363138907
 31
0.0
  0
LINE
  5
6073
330
A
100
AcDbEntity
  8
0
  6
Continuous
 62
     7
370
     0
100
AcDbLine
 10
57.90904394227766
 20
-122.571363138907
 30
0.0
 11
57.92470325381225
 21
-122.6058943335807
 31
0.0
  0
LINE
  5
6074
330
A
100
AcDbEntity
  8
0
  6
Continuous
 62
     7
370
     0
100
AcDbLine
 10
57.92470325381225
 20
-122.6058943335807
 30
0.0
 11
57.94188680445154
 21
-122.63887530212
 31
0.0
  0
LINE
  5
6075
330
A
100
AcDbEntity
  8
0
  6
Continuous
 62
     7
370
     0
100
AcDbLine
 10
57.94188680445154
 20
-122.63887530212
 30
0.0
 11
57.96055803258446
 21
-122.6702358705909
 31
0.0
  0
LINE
  5
6076
330
A
100
AcDbEntity
  8
0
  6
Continuous
 62
     7
370
     0
100
AcDbLine
 10
57.96055803258446
 20
-122.6702358705909
 30
0.0
 11
57.98067721125312
 21
-122.6999093128001
 31
0.0
  0
LINE
  5
6077
330
A
100
AcDbEntity
  8
0
  6
Continuous
 62
     7
370
     0
100
AcDbLine
 10
57.98067721125312
 20
-122.6999093128001
 30
0.0
 11
58.00220153268174
 21
-122.7278324922706
 31
0.0
  0
LINE
  5
6078
330
A
100
AcDbEntity
  8
0
  6
Continuous
 62
     7
370
     0
100
AcDbLine
 10
58.00220153268174
 20
-122.7278324922706
 30
0.0
 11
58.02508519935793
 21
-122.7539459965758
 31
0.0
  0
LINE
  5
6079
330
A
100
AcDbEntity
  8
0
  6
Continuous
 62
     7
370
     0
100
AcDbLine
 10
58.02508519935793
 20
-122.7539459965758
 30
0.0
 11
58.04927952147636
 21
-122.7781942637535
 31
0.0
  0
LINE
  5
607A
330
A
100
AcDbEntity
  8
0
  6
Continuous
 62
     7
370
     0
100
AcDbLine
 10
58.04927952147636
 20
-122.7781942637535
 30
0.0
 11
58.07473302053847
 21
-122.8005257005248
 31
0.0
  0
LINE
  5
607B
330
A
100
AcDbEntity
  8
0
  6
Continuous
 62
     7
370
     0
100
AcDbLine
 10
58.07473302053847
 20
-122.8005257005248
 30
0.0
 11
58.10139153888099
 21
-122.8208927920701
 31
0.0
  0
LINE
  5
607C
330
A
100
AcDbEntity
  8
0
  6
Continuous
 62
     7
370
     0
100
AcDbLine
 10
58.10139153888099
 20
-122.8208927920701
 30
0.0
 11
58.12919835490993
 21
-122.8392522031264
 31
0.0
  0
LINE
  5
607D
330
A
100
AcDbEntity
  8
0
  6
Continuous
 62
     7
370
     0
100
AcDbLine
 10
58.12919835490993
 20
-122.8392522031264
 30
0.0
 11
58.15809430378704
 21
-122.8555648701927
 31
0.0
  0
LINE
  5
607E
330
A
100
AcDbEntity
  8
0
  6
Continuous
 62
     7
370
     0
100
AcDbLine
 10
58.15809430378704
 20
-122.8555648701927
 30
0.0
 11
58.18801790331463
 21
-122.8697960846451
 31
0.0
  0
LINE
  5
607F
330
A
100
AcDbEntity
  8
0
  6
Continuous
 62
     7
370
     0
100
AcDbLine
 10
58.18801790331463
 20
-122.8697960846451
 30
0.0
 11
58.21890548475312
 21
-122.8819155665875
 31
0.0
  0
LINE
  5
6080
330
A
100
AcDbEntity
  8
0
  6
Continuous
 62
     7
370
     0
100
AcDbLine
 10
58.21890548475312
 20
-122.8819155665875
 30
0.0
 11
58.25069132828867
 21
-122.8918975292778
 31
0.0
  0
LINE
  5
6081
330
A
100
AcDbEntity
  8
0
  6
Continuous
 62
     7
370
     0
100
AcDbLine
 10
58.25069132828867
 20
-122.8918975292778
 30
0.0
 11
58.28330780286683
 21
-122.8997207339948
 31
0.0
  0
LINE
  5
6082
330
A
100
AcDbEntity
  8
0
  6
Continuous
 62
     7
370
     0
100
AcDbLine
 10
59.64029453254693
 20
-81.32292600924058
 30
0.0
 11
59.67783900719007
 21
-81.29351512153897
 31
0.0
  0
LINE
  5
6083
330
A
100
AcDbEntity
  8
0
  6
Continuous
 62
     7
370
     0
100
AcDbLine
 10
59.67783900719007
 20
-81.29351512153897
 30
0.0
 11
59.71590249021483
 21
-81.26616556321335
 31
0.0
  0
LINE
  5
6084
330
A
100
AcDbEntity
  8
0
  6
Continuous
 62
     7
370
     0
100
AcDbLine
 10
59.71590249021483
 20
-81.26616556321335
 30
0.0
 11
59.75439328335642
 21
-81.24094322174517
 31
0.0
  0
LINE
  5
6085
330
A
100
AcDbEntity
  8
0
  6
Continuous
 62
     7
370
     0
100
AcDbLine
 10
59.75439328335642
 20
-81.24094322174517
 30
0.0
 11
59.79321865892337
 21
-81.21790885996416
 31
0.0
  0
LINE
  5
6086
330
A
100
AcDbEntity
  8
0
  6
Continuous
 62
     7
370
     0
100
AcDbLine
 10
59.79321865892337
 20
-81.21790885996416
 30
0.0
 11
59.8322850831845
 21
-81.19711796966567
 31
0.0
  0
LINE
  5
6087
330
A
100
AcDbEntity
  8
0
  6
Continuous
 62
     7
370
     0
100
AcDbLine
 10
59.8322850831845
 20
-81.19711796966567
 30
0.0
 11
59.87149844170222
 21
-81.17862063792534
 31
0.0
  0
LINE
  5
6088
330
A
100
AcDbEntity
  8
0
  6
Continuous
 62
     7
370
     0
100
AcDbLine
 10
59.87149844170222
 20
-81.17862063792534
 30
0.0
 11
59.91076426606105
 21
-81.16246142643552
 31
0.0
  0
LINE
  5
6089
330
A
100
AcDbEntity
  8
0
  6
Continuous
 62
     7
370
     0
100
AcDbLine
 10
59.91076426606105
 20
-81.16246142643552
 30
0.0
 11
59.94998796145103
 21
-81.14867926415213
 31
0.0
  0
LINE
  5
608A
330
A
100
AcDbEntity
  8
0
  6
Continuous
 62
     7
370
     0
100
AcDbLine
 10
59.94998796145103
 20
-81.14867926415213
 30
0.0
 11
59.98907503455462
 21
-81.13730735351129
 31
0.0
  0
LINE
  5
608B
330
A
100
AcDbEntity
  8
0
  6
Continuous
 62
     7
370
     0
100
AcDbLine
 10
59.98907503455462
 20
-81.13730735351129
 30
0.0
 11
60.02793132118836
 21
-81.12837309044181
 31
0.0
  0
LINE
  5
608C
330
A
100
AcDbEntity
  8
0
  6
Continuous
 62
     7
370
     0
100
AcDbLine
 10
60.02793132118836
 20
-81.12837309044181
 30
0.0
 11
60.06646321315452
 21
-81.12189799836579
 31
0.0
  0
LINE
  5
608D
330
A
100
AcDbEntity
  8
0
  6
Continuous
 62
     7
370
     0
100
AcDbLine
 10
60.06646321315452
 20
-81.12189799836579
 30
0.0
 11
60.10457788375084
 21
-81.11789767634752
 31
0.0
  0
LINE
  5
608E
330
A
100
AcDbEntity
  8
0
  6
Continuous
 62
     7
370
     0
100
AcDbLine
 10
60.10457788375084
 20
-81.11789767634752
 30
0.0
 11
60.14218351139709
 21
-81.11638176151286
 31
0.0
  0
LINE
  5
608F
330
A
100
AcDbEntity
  8
0
  6
Continuous
 62
     7
370
     0
100
AcDbLine
 10
60.14218351139709
 20
-81.11638176151286
 30
0.0
 11
60.1791895008422
 21
-81.11735390583357
 31
0.0
  0
LINE
  5
6090
330
A
100
AcDbEntity
  8
0
  6
Continuous
 62
     7
370
     0
100
AcDbLine
 10
60.1791895008422
 20
-81.11735390583357
 30
0.0
 11
60.21550670141619
 21
-81.12081176732862
 31
0.0
  0
LINE
  5
6091
330
A
100
AcDbEntity
  8
0
  6
Continuous
 62
     7
370
     0
100
AcDbLine
 10
60.21550670141619
 20
-81.12081176732862
 30
0.0
 11
60.25104762180252
 21
-81.12674701570716
 31
0.0
  0
LINE
  5
6092
330
A
100
AcDbEntity
  8
0
  6
Continuous
 62
     7
370
     0
100
AcDbLine
 10
82.61172739806454
 20
-127.8657385887083
 30
0.0
 11
82.64726831845042
 21
-127.8716738370868
 31
0.0
  0
LINE
  5
6093
330
A
100
AcDbEntity
  8
0
  6
Continuous
 62
     7
370
     0
100
AcDbLine
 10
82.64726831845042
 20
-127.8716738370868
 30
0.0
 11
82.68358551902498
 21
-127.8751316985821
 31
0.0
  0
LINE
  5
6094
330
A
100
AcDbEntity
  8
0
  6
Continuous
 62
     7
370
     0
100
AcDbLine
 10
82.68358551902498
 20
-127.8751316985821
 30
0.0
 11
82.72059150846997
 21
-127.8761038429028
 31
0.0
  0
LINE
  5
6095
330
A
100
AcDbEntity
  8
0
  6
Continuous
 62
     7
370
     0
100
AcDbLine
 10
82.72059150846997
 20
-127.8761038429028
 30
0.0
 11
82.7581971361161
 21
-127.874587928068
 31
0.0
  0
LINE
  5
6096
330
A
100
AcDbEntity
  8
0
  6
Continuous
 62
     7
370
     0
100
AcDbLine
 10
82.7581971361161
 20
-127.874587928068
 30
0.0
 11
82.79631180671231
 21
-127.8705876060496
 31
0.0
  0
LINE
  5
6097
330
A
100
AcDbEntity
  8
0
  6
Continuous
 62
     7
370
     0
100
AcDbLine
 10
82.79631180671231
 20
-127.8705876060496
 30
0.0
 11
82.83484369867869
 21
-127.8641125139738
 31
0.0
  0
LINE
  5
6098
330
A
100
AcDbEntity
  8
0
  6
Continuous
 62
     7
370
     0
100
AcDbLine
 10
82.83484369867869
 20
-127.8641125139738
 30
0.0
 11
82.87369998531245
 21
-127.8551782509041
 31
0.0
  0
LINE
  5
6099
330
A
100
AcDbEntity
  8
0
  6
Continuous
 62
     7
370
     0
100
AcDbLine
 10
82.87369998531245
 20
-127.8551782509041
 30
0.0
 11
82.9127870584158
 21
-127.8438063402633
 31
0.0
  0
LINE
  5
609A
330
A
100
AcDbEntity
  8
0
  6
Continuous
 62
     7
370
     0
100
AcDbLine
 10
82.9127870584158
 20
-127.8438063402633
 30
0.0
 11
82.95201075380578
 21
-127.8300241779799
 31
0.0
  0
LINE
  5
609B
330
A
100
AcDbEntity
  8
0
  6
Continuous
 62
     7
370
     0
100
AcDbLine
 10
82.95201075380578
 20
-127.8300241779799
 30
0.0
 11
82.99127657816496
 21
-127.8138649664901
 31
0.0
  0
LINE
  5
609C
330
A
100
AcDbEntity
  8
0
  6
Continuous
 62
     7
370
     0
100
AcDbLine
 10
82.99127657816496
 20
-127.8138649664901
 30
0.0
 11
83.03048993668255
 21
-127.7953676347498
 31
0.0
  0
LINE
  5
609D
330
A
100
AcDbEntity
  8
0
  6
Continuous
 62
     7
370
     0
100
AcDbLine
 10
83.03048993668255
 20
-127.7953676347498
 30
0.0
 11
83.06955636094357
 21
-127.7745767444514
 31
0.0
  0
LINE
  5
609E
330
A
100
AcDbEntity
  8
0
  6
Continuous
 62
     7
370
     0
100
AcDbLine
 10
83.06955636094357
 20
-127.7745767444514
 30
0.0
 11
83.1083817365104
 21
-127.7515423826704
 31
0.0
  0
LINE
  5
609F
330
A
100
AcDbEntity
  8
0
  6
Continuous
 62
     7
370
     0
100
AcDbLine
 10
83.1083817365104
 20
-127.7515423826704
 30
0.0
 11
83.14687252965212
 21
-127.7263200412021
 31
0.0
  0
LINE
  5
60A0
330
A
100
AcDbEntity
  8
0
  6
Continuous
 62
     7
370
     0
100
AcDbLine
 10
83.14687252965212
 20
-127.7263200412021
 30
0.0
 11
83.18493601267688
 21
-127.6989704828765
 31
0.0
  0
LINE
  5
60A1
330
A
100
AcDbEntity
  8
0
  6
Continuous
 62
     7
370
     0
100
AcDbLine
 10
83.18493601267688
 20
-127.6989704828765
 30
0.0
 11
83.22248048732001
 21
-127.669559595175
 31
0.0
  0
LINE
  5
60A2
330
A
100
AcDbEntity
  8
0
  6
Continuous
 62
     7
370
     0
100
AcDbLine
 10
84.57946721700011
 20
-86.09276487042183
 30
0.0
 11
84.61208369157805
 21
-86.10058807513899
 31
0.0
  0
LINE
  5
60A3
330
A
100
AcDbEntity
  8
0
  6
Continuous
 62
     7
370
     0
100
AcDbLine
 10
84.61208369157805
 20
-86.10058807513899
 30
0.0
 11
84.64386953511382
 21
-86.11057003782923
 31
0.0
  0
LINE
  5
60A4
330
A
100
AcDbEntity
  8
0
  6
Continuous
 62
     7
370
     0
100
AcDbLine
 10
84.64386953511382
 20
-86.11057003782923
 30
0.0
 11
84.67475711655243
 21
-86.1226895197716
 31
0.0
  0
LINE
  5
60A5
330
A
100
AcDbEntity
  8
0
  6
Continuous
 62
     7
370
     0
100
AcDbLine
 10
84.67475711655243
 20
-86.1226895197716
 30
0.0
 11
84.70468071608001
 21
-86.13692073422402
 31
0.0
  0
LINE
  5
60A6
330
A
100
AcDbEntity
  8
0
  6
Continuous
 62
     7
370
     0
100
AcDbLine
 10
84.70468071608001
 20
-86.13692073422402
 30
0.0
 11
84.7335766649569
 21
-86.15323340129021
 31
0.0
  0
LINE
  5
60A7
330
A
100
AcDbEntity
  8
0
  6
Continuous
 62
     7
370
     0
100
AcDbLine
 10
84.7335766649569
 20
-86.15323340129021
 30
0.0
 11
84.76138348098585
 21
-86.17159281234654
 31
0.0
  0
LINE
  5
60A8
330
A
100
AcDbEntity
  8
0
  6
Continuous
 62
     7
370
     0
100
AcDbLine
 10
84.76138348098585
 20
-86.17159281234654
 30
0.0
 11
84.78804199932847
 21
-86.19195990389181
 31
0.0
  0
LINE
  5
60A9
330
A
100
AcDbEntity
  8
0
  6
Continuous
 62
     7
370
     0
100
AcDbLine
 10
84.78804199932847
 20
-86.19195990389181
 30
0.0
 11
84.81349549839046
 21
-86.2142913406633
 31
0.0
  0
LINE
  5
60AA
330
A
100
AcDbEntity
  8
0
  6
Continuous
 62
     7
370
     0
100
AcDbLine
 10
84.81349549839046
 20
-86.2142913406633
 30
0.0
 11
84.83768982050913
 21
-86.23853960784089
 31
0.0
  0
LINE
  5
60AB
330
A
100
AcDbEntity
  8
0
  6
Continuous
 62
     7
370
     0
100
AcDbLine
 10
84.83768982050913
 20
-86.23853960784089
 30
0.0
 11
84.86057348718521
 21
-86.26465311214605
 31
0.0
  0
LINE
  5
60AC
330
A
100
AcDbEntity
  8
0
  6
Continuous
 62
     7
370
     0
100
AcDbLine
 10
84.86057348718521
 20
-86.26465311214605
 30
0.0
 11
84.88209780861371
 21
-86.29257629161651
 31
0.0
  0
LINE
  5
60AD
330
A
100
AcDbEntity
  8
0
  6
Continuous
 62
     7
370
     0
100
AcDbLine
 10
84.88209780861371
 20
-86.29257629161651
 30
0.0
 11
84.90221698728237
 21
-86.32224973382585
 31
0.0
  0
LINE
  5
60AE
330
A
100
AcDbEntity
  8
0
  6
Continuous
 62
     7
370
     0
100
AcDbLine
 10
84.90221698728237
 20
-86.32224973382585
 30
0.0
 11
84.92088821541528
 21
-86.35361030229665
 31
0.0
  0
LINE
  5
60AF
330
A
100
AcDbEntity
  8
0
  6
Continuous
 62
     7
370
     0
100
AcDbLine
 10
84.92088821541528
 20
-86.35361030229665
 30
0.0
 11
84.9380717660547
 21
-86.38659127083593
 31
0.0
  0
LINE
  5
60B0
330
A
100
AcDbEntity
  8
0
  6
Continuous
 62
     7
370
     0
100
AcDbLine
 10
84.9380717660547
 20
-86.38659127083593
 30
0.0
 11
84.95373107758927
 21
-86.42112246550965
 31
0.0
  0
LINE
  5
60B1
330
A
100
AcDbEntity
  8
0
  6
Continuous
 62
     7
370
     0
100
AcDbLine
 10
84.95373107758927
 20
-86.42112246550965
 30
0.0
 11
84.9678328315465
 21
-86.45713041395197
 31
0.0
  0
LINE
  5
60B2
330
A
100
AcDbEntity
  8
0
  6
Continuous
 62
     7
370
     0
100
AcDbLine
 10
84.9678328315465
 20
-86.45713041395197
 30
0.0
 11
84.98034702348434
 21
-86.49453850169351
 31
0.0
  0
LINE
  5
60B3
330
A
100
AcDbEntity
  8
0
  6
Continuous
 62
     7
370
     0
100
AcDbLine
 10
84.98034702348434
 20
-86.49453850169351
 30
0.0
 11
84.99124702683275
 21
-86.53326713517458
 31
0.0
  0
LINE
  5
60B4
330
A
100
AcDbEntity
  8
0
  6
Continuous
 62
     7
370
     0
100
AcDbLine
 10
84.99124702683275
 20
-86.53326713517458
 30
0.0
 11
85.00050964954585
 21
-86.57323391109736
 31
0.0
  0
LINE
  5
60B5
330
A
100
AcDbEntity
  8
0
  6
Continuous
 62
     7
370
     0
100
AcDbLine
 10
85.00050964954585
 20
-86.57323391109736
 30
0.0
 11
85.00811518344983
 21
-86.61435379175566
 31
0.0
  0
LINE
  5
60B6
330
A
100
AcDbEntity
  8
0
  6
Continuous
 62
     7
370
     0
100
AcDbLine
 10
85.00811518344983
 20
-86.61435379175566
 30
0.0
 11
85.01404744617445
 21
-86.65653928597151
 31
0.0
  0
LINE
  5
60B7
330
A
100
AcDbEntity
  8
0
  6
Continuous
 62
     7
370
     0
100
AcDbLine
 10
85.01404744617445
 20
-86.65653928597151
 30
0.0
 11
85.01829381558525
 21
-86.69970063524989
 31
0.0
  0
LINE
  5
60B8
330
A
100
AcDbEntity
  8
0
  6
Continuous
 62
     7
370
     0
100
AcDbLine
 10
85.01829381558525
 20
-86.69970063524989
 30
0.0
 11
85.02084525664043
 21
-86.74374600475937
 31
0.0
  0
LINE
  5
60B9
330
A
100
AcDbEntity
  8
0
  6
Continuous
 62
     7
370
     0
100
AcDbLine
 10
85.02084525664043
 20
-86.74374600475937
 30
0.0
 11
85.02169634061294
 21
-86.78858167873011
 31
0.0
  0
LINE
  5
60BA
330
A
100
AcDbEntity
  8
0
  6
Continuous
 62
     7
370
     0
100
AcDbLine
 10
-17.00000000000125
 20
-73.79999999756598
 30
0.0
 11
-17.04906767432862
 21
-73.79879545377116
 31
0.0
  0
LINE
  5
60BB
330
A
100
AcDbEntity
  8
0
  6
Continuous
 62
     7
370
     0
100
AcDbLine
 10
-17.04906767432862
 20
-73.79879545377116
 30
0.0
 11
-17.09801714033074
 21
-73.79518472423848
 31
0.0
  0
LINE
  5
60BC
330
A
100
AcDbEntity
  8
0
  6
Continuous
 62
     7
370
     0
100
AcDbLine
 10
-17.09801714033074
 20
-73.79518472423848
 30
0.0
 11
-17.14673047445671
 21
-73.78917650753146
 31
0.0
  0
LINE
  5
60BD
330
A
100
AcDbEntity
  8
0
  6
Continuous
 62
     7
370
     0
100
AcDbLine
 10
-17.14673047445671
 20
-73.78917650753146
 30
0.0
 11
-17.19509032201745
 21
-73.78078527797049
 31
0.0
  0
LINE
  5
60BE
330
A
100
AcDbEntity
  8
0
  6
Continuous
 62
     7
370
     0
100
AcDbLine
 10
-17.19509032201745
 20
-73.78078527797049
 30
0.0
 11
-17.24298017990452
 21
-73.77003125076249
 31
0.0
  0
LINE
  5
60BF
330
A
100
AcDbEntity
  8
0
  6
Continuous
 62
     7
370
     0
100
AcDbLine
 10
-17.24298017990452
 20
-73.77003125076249
 30
0.0
 11
-17.29028467725561
 21
-73.75694033330097
 31
0.0
  0
LINE
  5
60C0
330
A
100
AcDbEntity
  8
0
  6
Continuous
 62
     7
370
     0
100
AcDbLine
 10
-17.29028467725561
 20
-73.75694033330097
 30
0.0
 11
-17.33688985339347
 21
-73.74154406275278
 31
0.0
  0
LINE
  5
60C1
330
A
100
AcDbEntity
  8
0
  6
Continuous
 62
     7
370
     0
100
AcDbLine
 10
-17.33688985339347
 20
-73.74154406275278
 30
0.0
 11
-17.38268343236621
 21
-73.72387953008217
 31
0.0
  0
LINE
  5
60C2
330
A
100
AcDbEntity
  8
0
  6
Continuous
 62
     7
370
     0
100
AcDbLine
 10
-17.38268343236621
 20
-73.72387953008217
 30
0.0
 11
-17.42755509343146
 21
-73.70398929069551
 31
0.0
  0
LINE
  5
60C3
330
A
100
AcDbEntity
  8
0
  6
Continuous
 62
     7
370
     0
100
AcDbLine
 10
-17.42755509343146
 20
-73.70398929069551
 30
0.0
 11
-17.47139673682716
 21
-73.68192126192184
 31
0.0
  0
LINE
  5
60C4
330
A
100
AcDbEntity
  8
0
  6
Continuous
 62
     7
370
     0
100
AcDbLine
 10
-17.47139673682716
 20
-73.68192126192184
 30
0.0
 11
-17.51410274419436
 21
-73.65772860757539
 31
0.0
  0
LINE
  5
60C5
330
A
100
AcDbEntity
  8
0
  6
Continuous
 62
     7
370
     0
100
AcDbLine
 10
-17.51410274419436
 20
-73.65772860757539
 30
0.0
 11
-17.55557023302083
 21
-73.63146960987927
 31
0.0
  0
LINE
  5
60C6
330
A
100
AcDbEntity
  8
0
  6
Continuous
 62
     7
370
     0
100
AcDbLine
 10
-17.55557023302083
 20
-73.63146960987927
 30
0.0
 11
-17.59569930449379
 21
-73.6032075290592
 31
0.0
  0
LINE
  5
60C7
330
A
100
AcDbEntity
  8
0
  6
Continuous
 62
     7
370
     0
100
AcDbLine
 10
-17.59569930449379
 20
-73.6032075290592
 30
0.0
 11
-17.63439328416495
 21
-73.57301045094317
 31
0.0
  0
LINE
  5
60C8
330
A
100
AcDbEntity
  8
0
  6
Continuous
 62
     7
370
     0
100
AcDbLine
 10
-17.63439328416495
 20
-73.57301045094317
 30
0.0
 11
-17.67155895484802
 21
-73.54095112293754
 31
0.0
  0
LINE
  5
60C9
330
A
100
AcDbEntity
  8
0
  6
Continuous
 62
     7
370
     0
100
AcDbLine
 10
-17.67155895484802
 20
-73.54095112293754
 30
0.0
 11
-17.70710678118792
 21
-73.50710677877128
 31
0.0
  0
LINE
  5
60CA
330
A
100
AcDbEntity
  8
0
  6
Continuous
 62
     7
370
     0
100
AcDbLine
 10
-17.70710678118792
 20
-73.50710677877128
 30
0.0
 11
-17.74095112535622
 21
-73.47155895243407
 31
0.0
  0
LINE
  5
60CB
330
A
100
AcDbEntity
  8
0
  6
Continuous
 62
     7
370
     0
100
AcDbLine
 10
-17.74095112535622
 20
-73.47155895243407
 30
0.0
 11
-17.77301045336401
 21
-73.43439328175304
 31
0.0
  0
LINE
  5
60CC
330
A
100
AcDbEntity
  8
0
  6
Continuous
 62
     7
370
     0
100
AcDbLine
 10
-17.77301045336401
 20
-73.43439328175304
 30
0.0
 11
-17.80320753148191
 21
-73.39569930208432
 31
0.0
  0
LINE
  5
60CD
330
A
100
AcDbEntity
  8
0
  6
Continuous
 62
     7
370
     0
100
AcDbLine
 10
-17.80320753148191
 20
-73.39569930208432
 30
0.0
 11
-17.83146961230375
 21
-73.35557023061404
 31
0.0
  0
LINE
  5
60CE
330
A
100
AcDbEntity
  8
0
  6
Continuous
 62
     7
370
     0
100
AcDbLine
 10
-17.83146961230375
 20
-73.35557023061404
 30
0.0
 11
-17.85772861000157
 21
-73.31410274179035
 31
0.0
  0
LINE
  5
60CF
330
A
100
AcDbEntity
  8
0
  6
Continuous
 62
     7
370
     0
100
AcDbLine
 10
-17.85772861000157
 20
-73.31410274179035
 30
0.0
 11
-17.88192126434956
 21
-73.27139673442582
 31
0.0
  0
LINE
  5
60D0
330
A
100
AcDbEntity
  8
0
  6
Continuous
 62
     7
370
     0
100
AcDbLine
 10
-17.88192126434956
 20
-73.27139673442582
 30
0.0
 11
-17.90398929312459
 21
-73.22755509103297
 31
0.0
  0
LINE
  5
60D1
330
A
100
AcDbEntity
  8
0
  6
Continuous
 62
     7
370
     0
100
AcDbLine
 10
-17.90398929312459
 20
-73.22755509103297
 30
0.0
 11
-17.9238795325125
 21
-73.18268342997066
 31
0.0
  0
LINE
  5
60D2
330
A
100
AcDbEntity
  8
0
  6
Continuous
 62
     7
370
     0
100
AcDbLine
 10
-17.9238795325125
 20
-73.18268342997066
 30
0.0
 11
-17.94154406518407
 21
-73.13688985100077
 31
0.0
  0
LINE
  5
60D3
330
A
100
AcDbEntity
  8
0
  6
Continuous
 62
     7
370
     0
100
AcDbLine
 10
-17.94154406518407
 20
-73.13688985100077
 30
0.0
 11
-17.95694033573352
 21
-73.09028467486598
 31
0.0
  0
LINE
  5
60D4
330
A
100
AcDbEntity
  8
0
  6
Continuous
 62
     7
370
     0
100
AcDbLine
 10
-17.95694033573352
 20
-73.09028467486598
 30
0.0
 11
-17.97003125319565
 21
-73.04298017751779
 31
0.0
  0
LINE
  5
60D5
330
A
100
AcDbEntity
  8
0
  6
Continuous
 62
     7
370
     0
100
AcDbLine
 10
-17.97003125319565
 20
-73.04298017751779
 30
0.0
 11
-17.98078528040457
 21
-72.99509031963367
 31
0.0
  0
LINE
  5
60D6
330
A
100
AcDbEntity
  8
0
  6
Continuous
 62
     7
370
     0
100
AcDbLine
 10
-17.98078528040457
 20
-72.99509031963367
 30
0.0
 11
-17.989176509966
 21
-72.94673047207601
 31
0.0
  0
LINE
  5
60D7
330
A
100
AcDbEntity
  8
0
  6
Continuous
 62
     7
370
     0
100
AcDbLine
 10
-17.989176509966
 20
-72.94673047207601
 30
0.0
 11
-17.9951847266733
 21
-72.89801713795339
 31
0.0
  0
LINE
  5
60D8
330
A
100
AcDbEntity
  8
0
  6
Continuous
 62
     7
370
     0
100
AcDbLine
 10
-17.9951847266733
 20
-72.89801713795339
 30
0.0
 11
-17.99879545620638
 21
-72.84906767195434
 31
0.0
  0
LINE
  5
60D9
330
A
100
AcDbEntity
  8
0
  6
Continuous
 62
     7
370
     0
100
AcDbLine
 10
-17.99879545620638
 20
-72.84906767195434
 30
0.0
 11
-18.00000000000136
 21
-72.79999999763004
 31
0.0
  0
LINE
  5
60DA
330
A
100
AcDbEntity
  8
0
  6
Continuous
 62
     7
370
     0
100
AcDbLine
 10
17.99999999999875
 20
-72.79999999763004
 30
0.0
 11
17.99879545620399
 21
-72.84906767195434
 31
0.0
  0
LINE
  5
60DB
330
A
100
AcDbEntity
  8
0
  6
Continuous
 62
     7
370
     0
100
AcDbLine
 10
17.99879545620399
 20
-72.84906767195434
 30
0.0
 11
17.99518472667091
 21
-72.89801713795339
 31
0.0
  0
LINE
  5
60DC
330
A
100
AcDbEntity
  8
0
  6
Continuous
 62
     7
370
     0
100
AcDbLine
 10
17.99518472667091
 20
-72.89801713795339
 30
0.0
 11
17.9891765099635
 21
-72.94673047207601
 31
0.0
  0
LINE
  5
60DD
330
A
100
AcDbEntity
  8
0
  6
Continuous
 62
     7
370
     0
100
AcDbLine
 10
17.9891765099635
 20
-72.94673047207601
 30
0.0
 11
17.98078528040207
 21
-72.99509031963367
 31
0.0
  0
LINE
  5
60DE
330
A
100
AcDbEntity
  8
0
  6
Continuous
 62
     7
370
     0
100
AcDbLine
 10
17.98078528040207
 20
-72.99509031963367
 30
0.0
 11
17.97003125319338
 21
-73.04298017751779
 31
0.0
  0
LINE
  5
60DF
330
A
100
AcDbEntity
  8
0
  6
Continuous
 62
     7
370
     0
100
AcDbLine
 10
17.97003125319338
 20
-73.04298017751779
 30
0.0
 11
17.95694033573102
 21
-73.09028467486598
 31
0.0
  0
LINE
  5
60E0
330
A
100
AcDbEntity
  8
0
  6
Continuous
 62
     7
370
     0
100
AcDbLine
 10
17.95694033573102
 20
-73.09028467486598
 30
0.0
 11
17.94154406518169
 21
-73.13688985100077
 31
0.0
  0
LINE
  5
60E1
330
A
100
AcDbEntity
  8
0
  6
Continuous
 62
     7
370
     0
100
AcDbLine
 10
17.94154406518169
 20
-73.13688985100077
 30
0.0
 11
17.92387953251
 21
-73.18268342997066
 31
0.0
  0
LINE
  5
60E2
330
A
100
AcDbEntity
  8
0
  6
Continuous
 62
     7
370
     0
100
AcDbLine
 10
17.92387953251
 20
-73.18268342997066
 30
0.0
 11
17.90398929312209
 21
-73.22755509103297
 31
0.0
  0
LINE
  5
60E3
330
A
100
AcDbEntity
  8
0
  6
Continuous
 62
     7
370
     0
100
AcDbLine
 10
17.90398929312209
 20
-73.22755509103297
 30
0.0
 11
17.88192126434717
 21
-73.27139673442582
 31
0.0
  0
LINE
  5
60E4
330
A
100
AcDbEntity
  8
0
  6
Continuous
 62
     7
370
     0
100
AcDbLine
 10
17.88192126434717
 20
-73.27139673442582
 30
0.0
 11
17.85772860999907
 21
-73.31410274179035
 31
0.0
  0
LINE
  5
60E5
330
A
100
AcDbEntity
  8
0
  6
Continuous
 62
     7
370
     0
100
AcDbLine
 10
17.85772860999907
 20
-73.31410274179035
 30
0.0
 11
17.83146961230125
 21
-73.35557023061404
 31
0.0
  0
LINE
  5
60E6
330
A
100
AcDbEntity
  8
0
  6
Continuous
 62
     7
370
     0
100
AcDbLine
 10
17.83146961230125
 20
-73.35557023061404
 30
0.0
 11
17.80320753147941
 21
-73.39569930208432
 31
0.0
  0
LINE
  5
60E7
330
A
100
AcDbEntity
  8
0
  6
Continuous
 62
     7
370
     0
100
AcDbLine
 10
17.80320753147941
 20
-73.39569930208432
 30
0.0
 11
17.77301045336151
 21
-73.43439328175304
 31
0.0
  0
LINE
  5
60E8
330
A
100
AcDbEntity
  8
0
  6
Continuous
 62
     7
370
     0
100
AcDbLine
 10
17.77301045336151
 20
-73.43439328175304
 30
0.0
 11
17.74095112535383
 21
-73.47155895243407
 31
0.0
  0
LINE
  5
60E9
330
A
100
AcDbEntity
  8
0
  6
Continuous
 62
     7
370
     0
100
AcDbLine
 10
17.74095112535383
 20
-73.47155895243407
 30
0.0
 11
17.70710678118541
 21
-73.50710677877135
 31
0.0
  0
LINE
  5
60EA
330
A
100
AcDbEntity
  8
0
  6
Continuous
 62
     7
370
     0
100
AcDbLine
 10
17.70710678118541
 20
-73.50710677877135
 30
0.0
 11
17.67155895484586
 21
-73.54095112293754
 31
0.0
  0
LINE
  5
60EB
330
A
100
AcDbEntity
  8
0
  6
Continuous
 62
     7
370
     0
100
AcDbLine
 10
17.67155895484586
 20
-73.54095112293754
 30
0.0
 11
17.63439328416257
 21
-73.57301045094317
 31
0.0
  0
LINE
  5
60EC
330
A
100
AcDbEntity
  8
0
  6
Continuous
 62
     7
370
     0
100
AcDbLine
 10
17.63439328416257
 20
-73.57301045094317
 30
0.0
 11
17.5956993044914
 21
-73.60320752905932
 31
0.0
  0
LINE
  5
60ED
330
A
100
AcDbEntity
  8
0
  6
Continuous
 62
     7
370
     0
100
AcDbLine
 10
17.5956993044914
 20
-73.60320752905932
 30
0.0
 11
17.55557023301833
 21
-73.63146960987927
 31
0.0
  0
LINE
  5
60EE
330
A
100
AcDbEntity
  8
0
  6
Continuous
 62
     7
370
     0
100
AcDbLine
 10
17.55557023301833
 20
-73.63146960987927
 30
0.0
 11
17.51410274419197
 21
-73.65772860757539
 31
0.0
  0
LINE
  5
60EF
330
A
100
AcDbEntity
  8
0
  6
Continuous
 62
     7
370
     0
100
AcDbLine
 10
17.51410274419197
 20
-73.65772860757539
 30
0.0
 11
17.47139673682477
 21
-73.68192126192184
 31
0.0
  0
LINE
  5
60F0
330
A
100
AcDbEntity
  8
0
  6
Continuous
 62
     7
370
     0
100
AcDbLine
 10
17.47139673682477
 20
-73.68192126192184
 30
0.0
 11
17.42755509342896
 21
-73.70398929069551
 31
0.0
  0
LINE
  5
60F1
330
A
100
AcDbEntity
  8
0
  6
Continuous
 62
     7
370
     0
100
AcDbLine
 10
17.42755509342896
 20
-73.70398929069551
 30
0.0
 11
17.38268343236405
 21
-73.72387953008217
 31
0.0
  0
LINE
  5
60F2
330
A
100
AcDbEntity
  8
0
  6
Continuous
 62
     7
370
     0
100
AcDbLine
 10
17.38268343236405
 20
-73.72387953008217
 30
0.0
 11
17.33688985339097
 21
-73.74154406275278
 31
0.0
  0
LINE
  5
60F3
330
A
100
AcDbEntity
  8
0
  6
Continuous
 62
     7
370
     0
100
AcDbLine
 10
17.33688985339097
 20
-73.74154406275278
 30
0.0
 11
17.29028467725311
 21
-73.75694033330097
 31
0.0
  0
LINE
  5
60F4
330
A
100
AcDbEntity
  8
0
  6
Continuous
 62
     7
370
     0
100
AcDbLine
 10
17.29028467725311
 20
-73.75694033330097
 30
0.0
 11
17.24298017990202
 21
-73.77003125076249
 31
0.0
  0
LINE
  5
60F5
330
A
100
AcDbEntity
  8
0
  6
Continuous
 62
     7
370
     0
100
AcDbLine
 10
17.24298017990202
 20
-73.77003125076249
 30
0.0
 11
17.19509032201495
 21
-73.78078527797049
 31
0.0
  0
LINE
  5
60F6
330
A
100
AcDbEntity
  8
0
  6
Continuous
 62
     7
370
     0
100
AcDbLine
 10
17.19509032201495
 20
-73.78078527797049
 30
0.0
 11
17.14673047445433
 21
-73.78917650753146
 31
0.0
  0
LINE
  5
60F7
330
A
100
AcDbEntity
  8
0
  6
Continuous
 62
     7
370
     0
100
AcDbLine
 10
17.14673047445433
 20
-73.78917650753146
 30
0.0
 11
17.09801714032835
 21
-73.79518472423848
 31
0.0
  0
LINE
  5
60F8
330
A
100
AcDbEntity
  8
0
  6
Continuous
 62
     7
370
     0
100
AcDbLine
 10
17.09801714032835
 20
-73.79518472423848
 30
0.0
 11
17.04906767432624
 21
-73.79879545377116
 31
0.0
  0
LINE
  5
60F9
330
A
100
AcDbEntity
  8
0
  6
Continuous
 62
     7
370
     0
100
AcDbLine
 10
17.04906767432624
 20
-73.79879545377116
 30
0.0
 11
16.99999999999886
 21
-73.79999999756598
 31
0.0
  0
LINE
  5
60FA
330
A
100
AcDbEntity
  8
0
  6
Continuous
 62
     7
370
     0
100
AcDbLine
 10
16.99999999999886
 20
-116.2000000026992
 30
0.0
 11
17.04906767432624
 21
-116.201204546494
 31
0.0
  0
LINE
  5
60FB
330
A
100
AcDbEntity
  8
0
  6
Continuous
 62
     7
370
     0
100
AcDbLine
 10
17.04906767432624
 20
-116.201204546494
 30
0.0
 11
17.09801714032835
 21
-116.2048152760267
 31
0.0
  0
LINE
  5
60FC
330
A
100
AcDbEntity
  8
0
  6
Continuous
 62
     7
370
     0
100
AcDbLine
 10
17.09801714032835
 20
-116.2048152760267
 30
0.0
 11
17.14673047445433
 21
-116.2108234927337
 31
0.0
  0
LINE
  5
60FD
330
A
100
AcDbEntity
  8
0
  6
Continuous
 62
     7
370
     0
100
AcDbLine
 10
17.14673047445433
 20
-116.2108234927337
 30
0.0
 11
17.19509032201495
 21
-116.2192147222948
 31
0.0
  0
LINE
  5
60FE
330
A
100
AcDbEntity
  8
0
  6
Continuous
 62
     7
370
     0
100
AcDbLine
 10
17.19509032201495
 20
-116.2192147222948
 30
0.0
 11
17.24298017990202
 21
-116.2299687495027
 31
0.0
  0
LINE
  5
60FF
330
A
100
AcDbEntity
  8
0
  6
Continuous
 62
     7
370
     0
100
AcDbLine
 10
17.24298017990202
 20
-116.2299687495027
 30
0.0
 11
17.29028467725311
 21
-116.2430596669642
 31
0.0
  0
LINE
  5
6100
330
A
100
AcDbEntity
  8
0
  6
Continuous
 62
     7
370
     0
100
AcDbLine
 10
17.29028467725311
 20
-116.2430596669642
 30
0.0
 11
17.33688985339097
 21
-116.2584559375125
 31
0.0
  0
LINE
  5
6101
330
A
100
AcDbEntity
  8
0
  6
Continuous
 62
     7
370
     0
100
AcDbLine
 10
17.33688985339097
 20
-116.2584559375125
 30
0.0
 11
17.38268343236405
 21
-116.2761204701829
 31
0.0
  0
LINE
  5
6102
330
A
100
AcDbEntity
  8
0
  6
Continuous
 62
     7
370
     0
100
AcDbLine
 10
17.38268343236405
 20
-116.2761204701829
 30
0.0
 11
17.42755509342896
 21
-116.2960107095695
 31
0.0
  0
LINE
  5
6103
330
A
100
AcDbEntity
  8
0
  6
Continuous
 62
     7
370
     0
100
AcDbLine
 10
17.42755509342896
 20
-116.2960107095695
 30
0.0
 11
17.47139673682477
 21
-116.3180787383433
 31
0.0
  0
LINE
  5
6104
330
A
100
AcDbEntity
  8
0
  6
Continuous
 62
     7
370
     0
100
AcDbLine
 10
17.47139673682477
 20
-116.3180787383433
 30
0.0
 11
17.51410274419197
 21
-116.3422713926898
 31
0.0
  0
LINE
  5
6105
330
A
100
AcDbEntity
  8
0
  6
Continuous
 62
     7
370
     0
100
AcDbLine
 10
17.51410274419197
 20
-116.3422713926898
 30
0.0
 11
17.55557023301833
 21
-116.3685303903859
 31
0.0
  0
LINE
  5
6106
330
A
100
AcDbEntity
  8
0
  6
Continuous
 62
     7
370
     0
100
AcDbLine
 10
17.55557023301833
 20
-116.3685303903859
 30
0.0
 11
17.5956993044914
 21
-116.3967924712058
 31
0.0
  0
LINE
  5
6107
330
A
100
AcDbEntity
  8
0
  6
Continuous
 62
     7
370
     0
100
AcDbLine
 10
17.5956993044914
 20
-116.3967924712058
 30
0.0
 11
17.63439328416257
 21
-116.4269895493219
 31
0.0
  0
LINE
  5
6108
330
A
100
AcDbEntity
  8
0
  6
Continuous
 62
     7
370
     0
100
AcDbLine
 10
17.63439328416257
 20
-116.4269895493219
 30
0.0
 11
17.67155895484586
 21
-116.4590488773276
 31
0.0
  0
LINE
  5
6109
330
A
100
AcDbEntity
  8
0
  6
Continuous
 62
     7
370
     0
100
AcDbLine
 10
17.67155895484586
 20
-116.4590488773276
 30
0.0
 11
17.70710678118541
 21
-116.4928932214938
 31
0.0
  0
LINE
  5
610A
330
A
100
AcDbEntity
  8
0
  6
Continuous
 62
     7
370
     0
100
AcDbLine
 10
17.70710678118541
 20
-116.4928932214938
 30
0.0
 11
17.74095112535383
 21
-116.528441047831
 31
0.0
  0
LINE
  5
610B
330
A
100
AcDbEntity
  8
0
  6
Continuous
 62
     7
370
     0
100
AcDbLine
 10
17.74095112535383
 20
-116.528441047831
 30
0.0
 11
17.77301045336151
 21
-116.565606718512
 31
0.0
  0
LINE
  5
610C
330
A
100
AcDbEntity
  8
0
  6
Continuous
 62
     7
370
     0
100
AcDbLine
 10
17.77301045336151
 20
-116.565606718512
 30
0.0
 11
17.80320753147941
 21
-116.6043006981808
 31
0.0
  0
LINE
  5
610D
330
A
100
AcDbEntity
  8
0
  6
Continuous
 62
     7
370
     0
100
AcDbLine
 10
17.80320753147941
 20
-116.6043006981808
 30
0.0
 11
17.83146961230125
 21
-116.644429769651
 31
0.0
  0
LINE
  5
610E
330
A
100
AcDbEntity
  8
0
  6
Continuous
 62
     7
370
     0
100
AcDbLine
 10
17.83146961230125
 20
-116.644429769651
 30
0.0
 11
17.85772860999907
 21
-116.6858972584748
 31
0.0
  0
LINE
  5
610F
330
A
100
AcDbEntity
  8
0
  6
Continuous
 62
     7
370
     0
100
AcDbLine
 10
17.85772860999907
 20
-116.6858972584748
 30
0.0
 11
17.88192126434717
 21
-116.7286032658393
 31
0.0
  0
LINE
  5
6110
330
A
100
AcDbEntity
  8
0
  6
Continuous
 62
     7
370
     0
100
AcDbLine
 10
17.88192126434717
 20
-116.7286032658393
 30
0.0
 11
17.90398929312209
 21
-116.7724449092321
 31
0.0
  0
LINE
  5
6111
330
A
100
AcDbEntity
  8
0
  6
Continuous
 62
     7
370
     0
100
AcDbLine
 10
17.90398929312209
 20
-116.7724449092321
 30
0.0
 11
17.92387953251
 21
-116.8173165702945
 31
0.0
  0
LINE
  5
6112
330
A
100
AcDbEntity
  8
0
  6
Continuous
 62
     7
370
     0
100
AcDbLine
 10
17.92387953251
 20
-116.8173165702945
 30
0.0
 11
17.94154406518169
 21
-116.8631101492643
 31
0.0
  0
LINE
  5
6113
330
A
100
AcDbEntity
  8
0
  6
Continuous
 62
     7
370
     0
100
AcDbLine
 10
17.94154406518169
 20
-116.8631101492643
 30
0.0
 11
17.95694033573102
 21
-116.9097153253992
 31
0.0
  0
LINE
  5
6114
330
A
100
AcDbEntity
  8
0
  6
Continuous
 62
     7
370
     0
100
AcDbLine
 10
17.95694033573102
 20
-116.9097153253992
 30
0.0
 11
17.97003125319338
 21
-116.9570198227472
 31
0.0
  0
LINE
  5
6115
330
A
100
AcDbEntity
  8
0
  6
Continuous
 62
     7
370
     0
100
AcDbLine
 10
17.97003125319338
 20
-116.9570198227472
 30
0.0
 11
17.98078528040207
 21
-117.0049096806313
 31
0.0
  0
LINE
  5
6116
330
A
100
AcDbEntity
  8
0
  6
Continuous
 62
     7
370
     0
100
AcDbLine
 10
17.98078528040207
 20
-117.0049096806313
 30
0.0
 11
17.9891765099635
 21
-117.0532695281891
 31
0.0
  0
LINE
  5
6117
330
A
100
AcDbEntity
  8
0
  6
Continuous
 62
     7
370
     0
100
AcDbLine
 10
17.9891765099635
 20
-117.0532695281891
 30
0.0
 11
17.99518472667091
 21
-117.1019828623117
 31
0.0
  0
LINE
  5
6118
330
A
100
AcDbEntity
  8
0
  6
Continuous
 62
     7
370
     0
100
AcDbLine
 10
17.99518472667091
 20
-117.1019828623117
 30
0.0
 11
17.99879545620399
 21
-117.1509323283107
 31
0.0
  0
LINE
  5
6119
330
A
100
AcDbEntity
  8
0
  6
Continuous
 62
     7
370
     0
100
AcDbLine
 10
17.99879545620399
 20
-117.1509323283107
 30
0.0
 11
17.99999999999875
 21
-117.2000000026349
 31
0.0
  0
LINE
  5
611A
330
A
100
AcDbEntity
  8
0
  6
Continuous
 62
     7
370
     0
100
AcDbLine
 10
-18.00000000000136
 20
-117.2000000026349
 30
0.0
 11
-17.99879545620638
 21
-117.1509323283107
 31
0.0
  0
LINE
  5
611B
330
A
100
AcDbEntity
  8
0
  6
Continuous
 62
     7
370
     0
100
AcDbLine
 10
-17.99879545620638
 20
-117.1509323283107
 30
0.0
 11
-17.9951847266733
 21
-117.1019828623117
 31
0.0
  0
LINE
  5
611C
330
A
100
AcDbEntity
  8
0
  6
Continuous
 62
     7
370
     0
100
AcDbLine
 10
-17.9951847266733
 20
-117.1019828623117
 30
0.0
 11
-17.989176509966
 21
-117.0532695281891
 31
0.0
  0
LINE
  5
611D
330
A
100
AcDbEntity
  8
0
  6
Continuous
 62
     7
370
     0
100
AcDbLine
 10
-17.989176509966
 20
-117.0532695281891
 30
0.0
 11
-17.98078528040457
 21
-117.0049096806313
 31
0.0
  0
LINE
  5
611E
330
A
100
AcDbEntity
  8
0
  6
Continuous
 62
     7
370
     0
100
AcDbLine
 10
-17.98078528040457
 20
-117.0049096806313
 30
0.0
 11
-17.97003125319565
 21
-116.9570198227472
 31
0.0
  0
LINE
  5
611F
330
A
100
AcDbEntity
  8
0
  6
Continuous
 62
     7
370
     0
100
AcDbLine
 10
-17.97003125319565
 20
-116.9570198227472
 30
0.0
 11
-17.95694033573352
 21
-116.9097153253992
 31
0.0
  0
LINE
  5
6120
330
A
100
AcDbEntity
  8
0
  6
Continuous
 62
     7
370
     0
100
AcDbLine
 10
-17.95694033573352
 20
-116.9097153253992
 30
0.0
 11
-17.94154406518407
 21
-116.8631101492643
 31
0.0
  0
LINE
  5
6121
330
A
100
AcDbEntity
  8
0
  6
Continuous
 62
     7
370
     0
100
AcDbLine
 10
-17.94154406518407
 20
-116.8631101492643
 30
0.0
 11
-17.9238795325125
 21
-116.8173165702945
 31
0.0
  0
LINE
  5
6122
330
A
100
AcDbEntity
  8
0
  6
Continuous
 62
     7
370
     0
100
AcDbLine
 10
-17.9238795325125
 20
-116.8173165702945
 30
0.0
 11
-17.90398929312459
 21
-116.7724449092321
 31
0.0
  0
LINE
  5
6123
330
A
100
AcDbEntity
  8
0
  6
Continuous
 62
     7
370
     0
100
AcDbLine
 10
-17.90398929312459
 20
-116.7724449092321
 30
0.0
 11
-17.88192126434956
 21
-116.7286032658393
 31
0.0
  0
LINE
  5
6124
330
A
100
AcDbEntity
  8
0
  6
Continuous
 62
     7
370
     0
100
AcDbLine
 10
-17.88192126434956
 20
-116.7286032658393
 30
0.0
 11
-17.85772861000157
 21
-116.6858972584748
 31
0.0
  0
LINE
  5
6125
330
A
100
AcDbEntity
  8
0
  6
Continuous
 62
     7
370
     0
100
AcDbLine
 10
-17.85772861000157
 20
-116.6858972584748
 30
0.0
 11
-17.83146961230375
 21
-116.6444297696509
 31
0.0
  0
LINE
  5
6126
330
A
100
AcDbEntity
  8
0
  6
Continuous
 62
     7
370
     0
100
AcDbLine
 10
-17.83146961230375
 20
-116.6444297696509
 30
0.0
 11
-17.80320753148191
 21
-116.6043006981808
 31
0.0
  0
LINE
  5
6127
330
A
100
AcDbEntity
  8
0
  6
Continuous
 62
     7
370
     0
100
AcDbLine
 10
-17.80320753148191
 20
-116.6043006981808
 30
0.0
 11
-17.77301045336401
 21
-116.565606718512
 31
0.0
  0
LINE
  5
6128
330
A
100
AcDbEntity
  8
0
  6
Continuous
 62
     7
370
     0
100
AcDbLine
 10
-17.77301045336401
 20
-116.565606718512
 30
0.0
 11
-17.74095112535622
 21
-116.528441047831
 31
0.0
  0
LINE
  5
6129
330
A
100
AcDbEntity
  8
0
  6
Continuous
 62
     7
370
     0
100
AcDbLine
 10
-17.74095112535622
 20
-116.528441047831
 30
0.0
 11
-17.70710678118792
 21
-116.4928932214938
 31
0.0
  0
LINE
  5
612A
330
A
100
AcDbEntity
  8
0
  6
Continuous
 62
     7
370
     0
100
AcDbLine
 10
-17.70710678118792
 20
-116.4928932214938
 30
0.0
 11
-17.67155895484802
 21
-116.4590488773276
 31
0.0
  0
LINE
  5
612B
330
A
100
AcDbEntity
  8
0
  6
Continuous
 62
     7
370
     0
100
AcDbLine
 10
-17.67155895484802
 20
-116.4590488773276
 30
0.0
 11
-17.63439328416495
 21
-116.4269895493219
 31
0.0
  0
LINE
  5
612C
330
A
100
AcDbEntity
  8
0
  6
Continuous
 62
     7
370
     0
100
AcDbLine
 10
-17.63439328416495
 20
-116.4269895493219
 30
0.0
 11
-17.59569930449379
 21
-116.3967924712058
 31
0.0
  0
LINE
  5
612D
330
A
100
AcDbEntity
  8
0
  6
Continuous
 62
     7
370
     0
100
AcDbLine
 10
-17.59569930449379
 20
-116.3967924712058
 30
0.0
 11
-17.55557023302083
 21
-116.3685303903859
 31
0.0
  0
LINE
  5
612E
330
A
100
AcDbEntity
  8
0
  6
Continuous
 62
     7
370
     0
100
AcDbLine
 10
-17.55557023302083
 20
-116.3685303903859
 30
0.0
 11
-17.51410274419436
 21
-116.3422713926898
 31
0.0
  0
LINE
  5
612F
330
A
100
AcDbEntity
  8
0
  6
Continuous
 62
     7
370
     0
100
AcDbLine
 10
-17.51410274419436
 20
-116.3422713926898
 30
0.0
 11
-17.47139673682716
 21
-116.3180787383433
 31
0.0
  0
LINE
  5
6130
330
A
100
AcDbEntity
  8
0
  6
Continuous
 62
     7
370
     0
100
AcDbLine
 10
-17.47139673682716
 20
-116.3180787383433
 30
0.0
 11
-17.42755509343146
 21
-116.2960107095695
 31
0.0
  0
LINE
  5
6131
330
A
100
AcDbEntity
  8
0
  6
Continuous
 62
     7
370
     0
100
AcDbLine
 10
-17.42755509343146
 20
-116.2960107095695
 30
0.0
 11
-17.38268343236621
 21
-116.2761204701829
 31
0.0
  0
LINE
  5
6132
330
A
100
AcDbEntity
  8
0
  6
Continuous
 62
     7
370
     0
100
AcDbLine
 10
-17.38268343236621
 20
-116.2761204701829
 30
0.0
 11
-17.33688985339347
 21
-116.2584559375125
 31
0.0
  0
LINE
  5
6133
330
A
100
AcDbEntity
  8
0
  6
Continuous
 62
     7
370
     0
100
AcDbLine
 10
-17.33688985339347
 20
-116.2584559375125
 30
0.0
 11
-17.29028467725561
 21
-116.2430596669642
 31
0.0
  0
LINE
  5
6134
330
A
100
AcDbEntity
  8
0
  6
Continuous
 62
     7
370
     0
100
AcDbLine
 10
-17.29028467725561
 20
-116.2430596669642
 30
0.0
 11
-17.24298017990452
 21
-116.2299687495027
 31
0.0
  0
LINE
  5
6135
330
A
100
AcDbEntity
  8
0
  6
Continuous
 62
     7
370
     0
100
AcDbLine
 10
-17.24298017990452
 20
-116.2299687495027
 30
0.0
 11
-17.19509032201745
 21
-116.2192147222948
 31
0.0
  0
LINE
  5
6136
330
A
100
AcDbEntity
  8
0
  6
Continuous
 62
     7
370
     0
100
AcDbLine
 10
-17.19509032201745
 20
-116.2192147222948
 30
0.0
 11
-17.14673047445671
 21
-116.2108234927337
 31
0.0
  0
LINE
  5
6137
330
A
100
AcDbEntity
  8
0
  6
Continuous
 62
     7
370
     0
100
AcDbLine
 10
-17.14673047445671
 20
-116.2108234927337
 30
0.0
 11
-17.09801714033074
 21
-116.2048152760267
 31
0.0
  0
LINE
  5
6138
330
A
100
AcDbEntity
  8
0
  6
Continuous
 62
     7
370
     0
100
AcDbLine
 10
-17.09801714033074
 20
-116.2048152760267
 30
0.0
 11
-17.04906767432862
 21
-116.201204546494
 31
0.0
  0
LINE
  5
6139
330
A
100
AcDbEntity
  8
0
  6
Continuous
 62
     7
370
     0
100
AcDbLine
 10
-17.04906767432862
 20
-116.201204546494
 30
0.0
 11
-17.00000000000125
 21
-116.2000000026992
 31
0.0
  0
LINE
  5
613A
330
A
100
AcDbEntity
  8
0
  6
Continuous
 62
     7
370
     0
100
AcDbLine
 10
-17.00000000000125
 20
14.99999999881234
 30
0.0
 11
-17.04906767432862
 21
14.9987954550175
 31
0.0
  0
LINE
  5
613B
330
A
100
AcDbEntity
  8
0
  6
Continuous
 62
     7
370
     0
100
AcDbLine
 10
-17.04906767432862
 20
14.9987954550175
 30
0.0
 11
-17.09801714033074
 21
14.99518472548473
 31
0.0
  0
LINE
  5
613C
330
A
100
AcDbEntity
  8
0
  6
Continuous
 62
     7
370
     0
100
AcDbLine
 10
-17.09801714033074
 20
14.99518472548473
 30
0.0
 11
-17.14673047445671
 21
14.98917650877774
 31
0.0
  0
LINE
  5
613D
330
A
100
AcDbEntity
  8
0
  6
Continuous
 62
     7
370
     0
100
AcDbLine
 10
-17.14673047445671
 20
14.98917650877774
 30
0.0
 11
-17.19509032201745
 21
14.98078527921672
 31
0.0
  0
LINE
  5
613E
330
A
100
AcDbEntity
  8
0
  6
Continuous
 62
     7
370
     0
100
AcDbLine
 10
-17.19509032201745
 20
14.98078527921672
 30
0.0
 11
-17.24298017990452
 21
14.97003125200874
 31
0.0
  0
LINE
  5
613F
330
A
100
AcDbEntity
  8
0
  6
Continuous
 62
     7
370
     0
100
AcDbLine
 10
-17.24298017990452
 20
14.97003125200874
 30
0.0
 11
-17.29028467725561
 21
14.95694033454723
 31
0.0
  0
LINE
  5
6140
330
A
100
AcDbEntity
  8
0
  6
Continuous
 62
     7
370
     0
100
AcDbLine
 10
-17.29028467725561
 20
14.95694033454723
 30
0.0
 11
-17.33688985339347
 21
14.94154406399903
 31
0.0
  0
LINE
  5
6141
330
A
100
AcDbEntity
  8
0
  6
Continuous
 62
     7
370
     0
100
AcDbLine
 10
-17.33688985339347
 20
14.94154406399903
 30
0.0
 11
-17.38268343236621
 21
14.92387953132842
 31
0.0
  0
LINE
  5
6142
330
A
100
AcDbEntity
  8
0
  6
Continuous
 62
     7
370
     0
100
AcDbLine
 10
-17.38268343236621
 20
14.92387953132842
 30
0.0
 11
-17.42755509343146
 21
14.90398929194191
 31
0.0
  0
LINE
  5
6143
330
A
100
AcDbEntity
  8
0
  6
Continuous
 62
     7
370
     0
100
AcDbLine
 10
-17.42755509343146
 20
14.90398929194191
 30
0.0
 11
-17.47139673682716
 21
14.88192126316821
 31
0.0
  0
LINE
  5
6144
330
A
100
AcDbEntity
  8
0
  6
Continuous
 62
     7
370
     0
100
AcDbLine
 10
-17.47139673682716
 20
14.88192126316821
 30
0.0
 11
-17.51410274419436
 21
14.85772860882164
 31
0.0
  0
LINE
  5
6145
330
A
100
AcDbEntity
  8
0
  6
Continuous
 62
     7
370
     0
100
AcDbLine
 10
-17.51410274419436
 20
14.85772860882164
 30
0.0
 11
-17.55557023302083
 21
14.83146961112564
 31
0.0
  0
LINE
  5
6146
330
A
100
AcDbEntity
  8
0
  6
Continuous
 62
     7
370
     0
100
AcDbLine
 10
-17.55557023302083
 20
14.83146961112564
 30
0.0
 11
-17.59569930449379
 21
14.80320753030551
 31
0.0
  0
LINE
  5
6147
330
A
100
AcDbEntity
  8
0
  6
Continuous
 62
     7
370
     0
100
AcDbLine
 10
-17.59569930449379
 20
14.80320753030551
 30
0.0
 11
-17.63439328416495
 21
14.77301045218954
 31
0.0
  0
LINE
  5
6148
330
A
100
AcDbEntity
  8
0
  6
Continuous
 62
     7
370
     0
100
AcDbLine
 10
-17.63439328416495
 20
14.77301045218954
 30
0.0
 11
-17.67155895484802
 21
14.74095112418394
 31
0.0
  0
LINE
  5
6149
330
A
100
AcDbEntity
  8
0
  6
Continuous
 62
     7
370
     0
100
AcDbLine
 10
-17.67155895484802
 20
14.74095112418394
 30
0.0
 11
-17.70710678118792
 21
14.70710678001762
 31
0.0
  0
LINE
  5
614A
330
A
100
AcDbEntity
  8
0
  6
Continuous
 62
     7
370
     0
100
AcDbLine
 10
-17.70710678118792
 20
14.70710678001762
 30
0.0
 11
-17.74095112535622
 21
14.67155895368043
 31
0.0
  0
LINE
  5
614B
330
A
100
AcDbEntity
  8
0
  6
Continuous
 62
     7
370
     0
100
AcDbLine
 10
-17.74095112535622
 20
14.67155895368043
 30
0.0
 11
-17.77301045336401
 21
14.63439328299941
 31
0.0
  0
LINE
  5
614C
330
A
100
AcDbEntity
  8
0
  6
Continuous
 62
     7
370
     0
100
AcDbLine
 10
-17.77301045336401
 20
14.63439328299941
 30
0.0
 11
-17.80320753148191
 21
14.59569930333072
 31
0.0
  0
LINE
  5
614D
330
A
100
AcDbEntity
  8
0
  6
Continuous
 62
     7
370
     0
100
AcDbLine
 10
-17.80320753148191
 20
14.59569930333072
 30
0.0
 11
-17.83146961230375
 21
14.55557023186043
 31
0.0
  0
LINE
  5
614E
330
A
100
AcDbEntity
  8
0
  6
Continuous
 62
     7
370
     0
100
AcDbLine
 10
-17.83146961230375
 20
14.55557023186043
 30
0.0
 11
-17.85772861000157
 21
14.51410274303674
 31
0.0
  0
LINE
  5
614F
330
A
100
AcDbEntity
  8
0
  6
Continuous
 62
     7
370
     0
100
AcDbLine
 10
-17.85772861000157
 20
14.51410274303674
 30
0.0
 11
-17.88192126434956
 21
14.47139673567221
 31
0.0
  0
LINE
  5
6150
330
A
100
AcDbEntity
  8
0
  6
Continuous
 62
     7
370
     0
100
AcDbLine
 10
-17.88192126434956
 20
14.47139673567221
 30
0.0
 11
-17.90398929312459
 21
14.42755509227933
 31
0.0
  0
LINE
  5
6151
330
A
100
AcDbEntity
  8
0
  6
Continuous
 62
     7
370
     0
100
AcDbLine
 10
-17.90398929312459
 20
14.42755509227933
 30
0.0
 11
-17.9238795325125
 21
14.382683431217
 31
0.0
  0
LINE
  5
6152
330
A
100
AcDbEntity
  8
0
  6
Continuous
 62
     7
370
     0
100
AcDbLine
 10
-17.9238795325125
 20
14.382683431217
 30
0.0
 11
-17.94154406518407
 21
14.33688985224714
 31
0.0
  0
LINE
  5
6153
330
A
100
AcDbEntity
  8
0
  6
Continuous
 62
     7
370
     0
100
AcDbLine
 10
-17.94154406518407
 20
14.33688985224714
 30
0.0
 11
-17.95694033573352
 21
14.29028467611232
 31
0.0
  0
LINE
  5
6154
330
A
100
AcDbEntity
  8
0
  6
Continuous
 62
     7
370
     0
100
AcDbLine
 10
-17.95694033573352
 20
14.29028467611232
 30
0.0
 11
-17.97003125319565
 21
14.24298017876416
 31
0.0
  0
LINE
  5
6155
330
A
100
AcDbEntity
  8
0
  6
Continuous
 62
     7
370
     0
100
AcDbLine
 10
-17.97003125319565
 20
14.24298017876416
 30
0.0
 11
-17.98078528040457
 21
14.19509032088013
 31
0.0
  0
LINE
  5
6156
330
A
100
AcDbEntity
  8
0
  6
Continuous
 62
     7
370
     0
100
AcDbLine
 10
-17.98078528040457
 20
14.19509032088013
 30
0.0
 11
-17.989176509966
 21
14.14673047332241
 31
0.0
  0
LINE
  5
6157
330
A
100
AcDbEntity
  8
0
  6
Continuous
 62
     7
370
     0
100
AcDbLine
 10
-17.989176509966
 20
14.14673047332241
 30
0.0
 11
-17.9951847266733
 21
14.09801713919972
 31
0.0
  0
LINE
  5
6158
330
A
100
AcDbEntity
  8
0
  6
Continuous
 62
     7
370
     0
100
AcDbLine
 10
-17.9951847266733
 20
14.09801713919972
 30
0.0
 11
-17.99879545620638
 21
14.04906767320071
 31
0.0
  0
LINE
  5
6159
330
A
100
AcDbEntity
  8
0
  6
Continuous
 62
     7
370
     0
100
AcDbLine
 10
-17.99879545620638
 20
14.04906767320071
 30
0.0
 11
-18.00000000000136
 21
13.99999999887649
 31
0.0
  0
LINE
  5
615A
330
A
100
AcDbEntity
  8
0
  6
Continuous
 62
     7
370
     0
100
AcDbLine
 10
17.99999999999875
 20
13.99999999887481
 30
0.0
 11
17.99879545620399
 21
14.049067673199
 31
0.0
  0
LINE
  5
615B
330
A
100
AcDbEntity
  8
0
  6
Continuous
 62
     7
370
     0
100
AcDbLine
 10
17.99879545620399
 20
14.049067673199
 30
0.0
 11
17.99518472667091
 21
14.09801713919799
 31
0.0
  0
LINE
  5
615C
330
A
100
AcDbEntity
  8
0
  6
Continuous
 62
     7
370
     0
100
AcDbLine
 10
17.99518472667091
 20
14.09801713919799
 30
0.0
 11
17.9891765099635
 21
14.14673047332081
 31
0.0
  0
LINE
  5
615D
330
A
100
AcDbEntity
  8
0
  6
Continuous
 62
     7
370
     0
100
AcDbLine
 10
17.9891765099635
 20
14.14673047332081
 30
0.0
 11
17.98078528040207
 21
14.19509032087842
 31
0.0
  0
LINE
  5
615E
330
A
100
AcDbEntity
  8
0
  6
Continuous
 62
     7
370
     0
100
AcDbLine
 10
17.98078528040207
 20
14.19509032087842
 30
0.0
 11
17.97003125319338
 21
14.24298017876245
 31
0.0
  0
LINE
  5
615F
330
A
100
AcDbEntity
  8
0
  6
Continuous
 62
     7
370
     0
100
AcDbLine
 10
17.97003125319338
 20
14.24298017876245
 30
0.0
 11
17.95694033573102
 21
14.2902846761105
 31
0.0
  0
LINE
  5
6160
330
A
100
AcDbEntity
  8
0
  6
Continuous
 62
     7
370
     0
100
AcDbLine
 10
17.95694033573102
 20
14.2902846761105
 30
0.0
 11
17.94154406518169
 21
14.33688985224532
 31
0.0
  0
LINE
  5
6161
330
A
100
AcDbEntity
  8
0
  6
Continuous
 62
     7
370
     0
100
AcDbLine
 10
17.94154406518169
 20
14.33688985224532
 30
0.0
 11
17.92387953251
 21
14.38268343121524
 31
0.0
  0
LINE
  5
6162
330
A
100
AcDbEntity
  8
0
  6
Continuous
 62
     7
370
     0
100
AcDbLine
 10
17.92387953251
 20
14.38268343121524
 30
0.0
 11
17.90398929312209
 21
14.42755509227765
 31
0.0
  0
LINE
  5
6163
330
A
100
AcDbEntity
  8
0
  6
Continuous
 62
     7
370
     0
100
AcDbLine
 10
17.90398929312209
 20
14.42755509227765
 30
0.0
 11
17.88192126434717
 21
14.47139673567051
 31
0.0
  0
LINE
  5
6164
330
A
100
AcDbEntity
  8
0
  6
Continuous
 62
     7
370
     0
100
AcDbLine
 10
17.88192126434717
 20
14.47139673567051
 30
0.0
 11
17.85772860999907
 21
14.51410274303501
 31
0.0
  0
LINE
  5
6165
330
A
100
AcDbEntity
  8
0
  6
Continuous
 62
     7
370
     0
100
AcDbLine
 10
17.85772860999907
 20
14.51410274303501
 30
0.0
 11
17.83146961230125
 21
14.55557023185875
 31
0.0
  0
LINE
  5
6166
330
A
100
AcDbEntity
  8
0
  6
Continuous
 62
     7
370
     0
100
AcDbLine
 10
17.83146961230125
 20
14.55557023185875
 30
0.0
 11
17.80320753147941
 21
14.59569930332901
 31
0.0
  0
LINE
  5
6167
330
A
100
AcDbEntity
  8
0
  6
Continuous
 62
     7
370
     0
100
AcDbLine
 10
17.80320753147941
 20
14.59569930332901
 30
0.0
 11
17.77301045336151
 21
14.63439328299773
 31
0.0
  0
LINE
  5
6168
330
A
100
AcDbEntity
  8
0
  6
Continuous
 62
     7
370
     0
100
AcDbLine
 10
17.77301045336151
 20
14.63439328299773
 30
0.0
 11
17.74095112535383
 21
14.67155895367864
 31
0.0
  0
LINE
  5
6169
330
A
100
AcDbEntity
  8
0
  6
Continuous
 62
     7
370
     0
100
AcDbLine
 10
17.74095112535383
 20
14.67155895367864
 30
0.0
 11
17.70710678118541
 21
14.70710678001592
 31
0.0
  0
LINE
  5
616A
330
A
100
AcDbEntity
  8
0
  6
Continuous
 62
     7
370
     0
100
AcDbLine
 10
17.70710678118541
 20
14.70710678001592
 30
0.0
 11
17.67155895484586
 21
14.74095112418211
 31
0.0
  0
LINE
  5
616B
330
A
100
AcDbEntity
  8
0
  6
Continuous
 62
     7
370
     0
100
AcDbLine
 10
17.67155895484586
 20
14.74095112418211
 30
0.0
 11
17.63439328416257
 21
14.77301045218783
 31
0.0
  0
LINE
  5
616C
330
A
100
AcDbEntity
  8
0
  6
Continuous
 62
     7
370
     0
100
AcDbLine
 10
17.63439328416257
 20
14.77301045218783
 30
0.0
 11
17.5956993044914
 21
14.80320753030383
 31
0.0
  0
LINE
  5
616D
330
A
100
AcDbEntity
  8
0
  6
Continuous
 62
     7
370
     0
100
AcDbLine
 10
17.5956993044914
 20
14.80320753030383
 30
0.0
 11
17.55557023301833
 21
14.83146961112393
 31
0.0
  0
LINE
  5
616E
330
A
100
AcDbEntity
  8
0
  6
Continuous
 62
     7
370
     0
100
AcDbLine
 10
17.55557023301833
 20
14.83146961112393
 30
0.0
 11
17.51410274419197
 21
14.85772860881994
 31
0.0
  0
LINE
  5
616F
330
A
100
AcDbEntity
  8
0
  6
Continuous
 62
     7
370
     0
100
AcDbLine
 10
17.51410274419197
 20
14.85772860881994
 30
0.0
 11
17.47139673682477
 21
14.8819212631665
 31
0.0
  0
LINE
  5
6170
330
A
100
AcDbEntity
  8
0
  6
Continuous
 62
     7
370
     0
100
AcDbLine
 10
17.47139673682477
 20
14.8819212631665
 30
0.0
 11
17.42755509342896
 21
14.90398929194023
 31
0.0
  0
LINE
  5
6171
330
A
100
AcDbEntity
  8
0
  6
Continuous
 62
     7
370
     0
100
AcDbLine
 10
17.42755509342896
 20
14.90398929194023
 30
0.0
 11
17.38268343236405
 21
14.92387953132672
 31
0.0
  0
LINE
  5
6172
330
A
100
AcDbEntity
  8
0
  6
Continuous
 62
     7
370
     0
100
AcDbLine
 10
17.38268343236405
 20
14.92387953132672
 30
0.0
 11
17.33688985339097
 21
14.9415440639973
 31
0.0
  0
LINE
  5
6173
330
A
100
AcDbEntity
  8
0
  6
Continuous
 62
     7
370
     0
100
AcDbLine
 10
17.33688985339097
 20
14.9415440639973
 30
0.0
 11
17.29028467725311
 21
14.95694033454552
 31
0.0
  0
LINE
  5
6174
330
A
100
AcDbEntity
  8
0
  6
Continuous
 62
     7
370
     0
100
AcDbLine
 10
17.29028467725311
 20
14.95694033454552
 30
0.0
 11
17.24298017990202
 21
14.97003125200703
 31
0.0
  0
LINE
  5
6175
330
A
100
AcDbEntity
  8
0
  6
Continuous
 62
     7
370
     0
100
AcDbLine
 10
17.24298017990202
 20
14.97003125200703
 30
0.0
 11
17.19509032201495
 21
14.98078527921501
 31
0.0
  0
LINE
  5
6176
330
A
100
AcDbEntity
  8
0
  6
Continuous
 62
     7
370
     0
100
AcDbLine
 10
17.19509032201495
 20
14.98078527921501
 30
0.0
 11
17.14673047445433
 21
14.98917650877601
 31
0.0
  0
LINE
  5
6177
330
A
100
AcDbEntity
  8
0
  6
Continuous
 62
     7
370
     0
100
AcDbLine
 10
17.14673047445433
 20
14.98917650877601
 30
0.0
 11
17.09801714032835
 21
14.99518472548303
 31
0.0
  0
LINE
  5
6178
330
A
100
AcDbEntity
  8
0
  6
Continuous
 62
     7
370
     0
100
AcDbLine
 10
17.09801714032835
 20
14.99518472548303
 30
0.0
 11
17.04906767432624
 21
14.99879545501582
 31
0.0
  0
LINE
  5
6179
330
A
100
AcDbEntity
  8
0
  6
Continuous
 62
     7
370
     0
100
AcDbLine
 10
17.04906767432624
 20
14.99879545501582
 30
0.0
 11
16.99999999999886
 21
14.99999999881049
 31
0.0
  0
CIRCLE
  5
6378
330
A
100
AcDbEntity
  8
0
  6
CENTER
 62
     1
100
AcDbCircle
 10
0.0
 20
0.0
 30
0.0
 40
4.0
  0
CIRCLE
  5
6379
330
A
100
AcDbEntity
  8
0
  6
CENTER
 62
     1
100
AcDbCircle
 10
-0.0000000000011369
 20
-24.99999999974387
 30
0.0
 40
4.0
  0
ENDSEC
  0
SECTION
  2
OBJECTS
  0
DICTIONARY
  5
19
330
0
100
AcDbDictionary
281
     1
  3
ACAD_COLOR
350
3176
  3
ACAD_GROUP
350
1A
  3
ACAD_LAYOUT
350
1E
  3
ACAD_MATERIAL
350
314C
  3
ACAD_MLEADERSTYLE
350
319B
  3
ACAD_MLINESTYLE
350
1B
  3
ACAD_PLOTSETTINGS
350
22
  3
ACAD_PLOTSTYLENAME
350
1F
  3
ACAD_SCALELIST
350
3179
  3
ACAD_TABLESTYLE
350
3177
  3
ACAD_VISUALSTYLE
350
3165
  3
ACAD_WIPEOUT_VARS
350
23
  3
ACDB_RECOMPOSE_DATA
350
630A
  3
AcDbVariableDictionary
350
630B
  3
ASE_INDEX_DICTIONARY
350
5E44
  3
DWGPROPS
350
6389
  0
DICTIONARY
  5
5E41
330
14
100
AcDbDictionary
280
     1
281
     1
  3
ADSK_XREC_LAYER_RECONCILED
360
5E42
  0
DICTIONARY
  5
31A7
330
A
100
AcDbDictionary
280
     1
281
     1
  3
ACAD_SORTENTS
360
31A8
  0
DICTIONARY
  5
3176
102
{ACAD_REACTORS
330
19
102
}
330
19
100
AcDbDictionary
281
     1
  0
DICTIONARY
  5
1A
102
{ACAD_REACTORS
330
19
102
}
330
19
100
AcDbDictionary
281
     1
  0
DICTIONARY
  5
1E
102
{ACAD_REACTORS
330
19
102
}
330
19
100
AcDbDictionary
281
     1
  3
Layout1
350
21
  3
Model
350
20
  0
DICTIONARY
  5
314C
102
{ACAD_REACTORS
330
19
102
}
330
19
100
AcDbDictionary
281
     1
  3
ByBlock
350
3155
  3
ByLayer
350
314D
  3
Global
350
315D
  0
DICTIONARY
  5
319B
102
{ACAD_REACTORS
330
19
102
}
330
19
100
AcDbDictionary
281
     1
  3
Standard
350
319C
  0
DICTIONARY
  5
1B
102
{ACAD_REACTORS
330
19
102
}
330
19
100
AcDbDictionary
281
     1
  3
Standard
350
1C
  0
DICTIONARY
  5
22
102
{ACAD_REACTORS
330
19
102
}
330
19
100
AcDbDictionary
281
     1
  0
ACDBDICTIONARYWDFLT
  5
1F
102
{ACAD_REACTORS
330
19
102
}
330
19
100
AcDbDictionary
281
     1
  3
Normal
350
1D
100
AcDbDictionaryWithDefault
340
1D
  0
DICTIONARY
  5
3179
102
{ACAD_REACTORS
330
19
102
}
330
19
100
AcDbDictionary
281
     1
  3
A0
350
317A
  3
A1
350
317B
  3
A2
350
317C
  3
A3
350
317D
  3
A4
350
317E
  3
A5
350
317F
  3
A6
350
3180
  3
A7
350
3181
  3
A8
350
3182
  3
A9
350
3183
  3
B0
350
3184
  3
B1
350
3185
  3
B2
350
3186
  3
B3
350
3187
  3
B4
350
3188
  3
B5
350
3189
  3
B6
350
318A
  3
B7
350
318B
  3
B8
350
318C
  3
B9
350
318D
  3
C0
350
318E
  3
C1
350
318F
  3
C2
350
3190
  3
C3
350
3191
  3
C4
350
3192
  3
C5
350
3193
  3
C6
350
3194
  3
C7
350
3195
  3
C8
350
3196
  3
C9
350
3197
  3
D0
350
3198
  3
D1
350
3199
  3
D2
350
319A
  0
DICTIONARY
  5
3177
102
{ACAD_REACTORS
330
19
102
}
330
19
100
AcDbDictionary
281
     1
  3
Standard
350
3178
  0
DICTIONARY
  5
3165
102
{ACAD_REACTORS
330
19
102
}
330
19
100
AcDbDictionary
281
     1
  3
2dWireframe
350
316B
  3
3D Hidden
350
316D
  3
3dWireframe
350
316C
  3
Basic
350
316A
  3
Brighten
350
3171
  3
ColorChange
350
3175
  3
Conceptual
350
316E
  3
Dim
350
3170
  3
Facepattern
350
3174
  3
Flat
350
3166
  3
FlatWithEdges
350
3167
  3
Gouraud
350
3168
  3
GouraudWithEdges
350
3169
  3
Linepattern
350
3173
  3
Realistic
350
316F
  3
Thicken
350
3172
  0
WIPEOUTVARIABLES
  5
23
330
19
100
AcDbWipeoutVariables
 70
     1
  0
XRECORD
  5
630A
102
{ACAD_REACTORS
330
19
102
}
330
19
100
AcDbXrecord
280
     1
 90
        1
330
3178
  0
DICTIONARY
  5
630B
102
{ACAD_REACTORS
330
19
102
}
330
19
100
AcDbDictionary
281
     1
  3
CANNOSCALE
350
630F
  3
CMLEADERSTYLE
350
630D
  3
CTABLESTYLE
350
630C
  3
DIMASSOC
350
6318
  3
INDEXCTL
350
6317
  3
LIGHTINGUNITS
350
6310
  3
MSLTSCALE
350
630E
  3
SORTENTS
350
6316
  0
DICTIONARY
  5
5E44
102
{ACAD_REACTORS
330
19
102
}
330
19
100
AcDbDictionary
281
     1
  3
ASEBlockHierarchyIndexRecord
350
5E46
1001
DCO15
1040
1685075681.336
  0
XRECORD
  5
6389
102
{ACAD_REACTORS
330
19
102
}
330
19
100
AcDbXrecord
280
     1
  1
DWGPROPS COOKIE
  2

  3

  4

  6

  7

  8
renzo.ceresoli
  9

300
=
301
=
302
=
303
=
304
=
305
=
306
=
307
=
308
=
309
=
 40
0.0060735648148148
 41
2455303.727916667
 42
2455306.457405741
  1

 90
        0
  0
XRECORD
  5
5E42
102
{ACAD_REACTORS
330
5E41
102
}
330
5E41
100
AcDbXrecord
280
     1
290
     1
  0
SORTENTSTABLE
  5
31A8
102
{ACAD_REACTORS
330
31A7
102
}
330
31A7
100
AcDbSortentsTable
330
A
331
442F
  5
4BD5
331
457A
  5
4BBB
331
44F4
  5
4B9B
331
447B
  5
4BF5
331
45E1
  5
4B8E
331
45C6
  5
4B73
331
45AB
  5
4B58
331
442D
  5
4BD3
331
4440
  5
4BE6
331
4578
  5
4BB9
331
4479
  5
4BF3
331
44F2
  5
4B99
331
45DF
  5
4B8C
331
45C4
  5
4B71
331
45A9
  5
4BC8
331
1E16
  5
4CB0
331
4523
  5
4BA8
331
4477
  5
4BF1
331
44F0
  5
4B97
331
45DD
  5
4B8A
331
45C2
  5
4B6F
331
4554
  5
4BB7
331
45A7
  5
4BC6
331
4521
  5
4BA6
331
44EE
  5
4B95
331
44A8
  5
4C08
331
4475
  5
4BEF
331
45DB
  5
4B88
331
45A5
  5
4BC4
331
4552
  5
4BB5
331
45C0
  5
4B6D
331
4631
  5
4B55
331
44C9
  5
4C17
331
44EC
  5
4B93
331
4473
  5
4BED
331
45D9
  5
4B86
331
45A3
  5
4BC2
331
4550
  5
4BB3
331
45BE
  5
4B6B
331
44C7
  5
4C15
331
44EA
  5
4C26
331
448C
  5
4C06
331
443E
  5
4BE4
331
4471
  5
4BEB
331
45D7
  5
4B84
331
45A1
  5
4BC0
331
45BC
  5
4B69
331
454E
  5
4BB1
331
1C26
  5
4BCC
331
460D
  5
4B53
331
44E8
  5
4C24
331
44C5
  5
4C13
331
448A
  5
4C04
331
443C
  5
4BE2
331
4419
  5
4BD1
331
45D5
  5
4B82
331
459F
  5
4BBE
331
45BA
  5
4B67
331
454C
  5
4BAF
331
44E6
  5
4C22
331
1C24
  5
4BCA
331
460B
  5
4B51
331
44C3
  5
4C11
331
4488
  5
4C02
331
443A
  5
4BE0
331
4455
  5
4BE9
331
4417
  5
4BCF
331
45D3
  5
4B80
331
45B8
  5
4B65
331
454A
  5
4BAD
331
44E4
  5
4C20
331
4609
  5
4B4F
331
44C1
  5
4C0F
331
4438
  5
4BDE
331
4486
  5
4C00
331
45B6
  5
4B63
331
4548
  5
4BAB
331
44E2
  5
4C1E
331
44FD
  5
4BA4
331
44BF
  5
4C0D
331
45D1
  5
4B7E
331
45CF
  5
4B7C
331
4436
  5
4BDC
331
4484
  5
4BFE
331
45B4
  5
4B61
331
44E0
  5
4C1C
331
44FB
  5
4BA2
331
44BD
  5
4C0B
331
45CD
  5
4B7A
331
4482
  5
4BFC
331
4434
  5
4BDA
331
45B2
  5
4B5F
331
44F9
  5
4BA0
331
44DE
  5
4C1A
331
45CB
  5
4B78
331
4480
  5
4BFA
331
4432
  5
4BD8
331
45B0
  5
4B5D
331
44F7
  5
4B9E
331
447E
  5
4BF8
331
45E4
  5
4B91
331
45AE
  5
4B5B
331
45C9
  5
4B76
331
4430
  5
4BD6
331
44F5
  5
4B9C
331
447C
  5
4BF6
331
45C7
  5
4B74
331
45AC
  5
4B59
331
45E2
  5
4B8F
331
442E
  5
4BD4
331
43FB
  5
4BCD
331
4579
  5
4BBA
331
44F3
  5
4B9A
331
447A
  5
4BF4
331
45C5
  5
4B72
331
45AA
  5
4B57
331
45E0
  5
4B8D
331
1E17
  5
4CB1
331
44F1
  5
4B98
331
4478
  5
4BF2
331
45C3
  5
4B70
331
45DE
  5
4B8B
331
45A8
  5
4BC7
331
4522
  5
4BA7
331
44EF
  5
4B96
331
4476
  5
4BF0
331
45C1
  5
4B6E
331
45DC
  5
4B89
331
45A6
  5
4BC5
331
4553
  5
4BB6
331
4632
  5
4B56
331
44ED
  5
4B94
331
4474
  5
4BEE
331
45BF
  5
4B6C
331
45DA
  5
4B87
331
45A4
  5
4BC3
331
4551
  5
4BB4
331
44EB
  5
4B92
331
4472
  5
4BEC
331
443F
  5
4BE5
331
44C8
  5
4C16
331
45D8
  5
4B85
331
45BD
  5
4B6A
331
45A2
  5
4BC1
331
454F
  5
4BB2
331
44E9
  5
4C25
331
448B
  5
4C05
331
443D
  5
4BE3
331
44C6
  5
4C14
331
45D6
  5
4B83
331
45BB
  5
4B68
331
45A0
  5
4BBF
331
44E7
  5
4C23
331
454D
  5
4BB0
331
1C25
  5
4BCB
331
460C
  5
4B52
331
4489
  5
4C03
331
44C4
  5
4C12
331
4418
  5
4BD0
331
443B
  5
4BE1
331
45D4
  5
4B81
331
45B9
  5
4B66
331
44E5
  5
4C21
331
454B
  5
4BAE
331
459E
  5
4BBD
331
1C23
  5
4BC9
331
460A
  5
4B50
331
4487
  5
4C01
331
44C2
  5
4C10
331
4454
  5
4BE8
331
4439
  5
4BDF
331
45D2
  5
4B7F
331
45B7
  5
4B64
331
4549
  5
4BAC
331
44E3
  5
4C1F
331
4608
  5
4B4E
331
4485
  5
4BFF
331
44C0
  5
4C0E
331
4437
  5
4BDD
331
45D0
  5
4B7D
331
45B5
  5
4B62
331
4547
  5
4BAA
331
44FC
  5
4BA3
331
44BE
  5
4C0C
331
44E1
  5
4C1D
331
45CE
  5
4B7B
331
4483
  5
4BFD
331
4435
  5
4BDB
331
45B3
  5
4B60
331
44FA
  5
4BA1
331
44BC
  5
4C0A
331
44DF
  5
4C1B
331
45CC
  5
4B79
331
4481
  5
4BFB
331
4433
  5
4BD9
331
45B1
  5
4B5E
331
44F8
  5
4B9F
331
44DD
  5
4C19
331
447F
  5
4BF9
331
45CA
  5
4B77
331
45AF
  5
4B5C
331
4431
  5
4BD7
331
44F6
  5
4B9D
331
447D
  5
4BF7
331
45E3
  5
4B90
331
45C8
  5
4B75
331
45AD
  5
4B5A
  0
LAYOUT
  5
21
102
{ACAD_XDICTIONARY
360
638C
102
}
102
{ACAD_REACTORS
330
1E
102
}
330
1E
100
AcDbPlotSettings
  1

  2

  4

  6

 40
0.0
 41
0.0
 42
0.0
 43
0.0
 44
0.0
 45
0.0
 46
0.0
 47
0.0
 48
0.0
 49
0.0
140
0.0
141
0.0
142
1.0
143
1.0
 70
     0
 72
     0
 73
     0
 74
     0
  7

 75
     0
147
1.0
148
0.0
149
0.0
100
AcDbLayout
  1
Layout1
 70
     0
 71
     1
 10
0.0
 20
0.0
 11
12.0
 21
9.0
 12
0.0
 22
0.0
 32
0.0
 14
1.000000000000000E+20
 24
1.000000000000000E+20
 34
1.000000000000000E+20
 15
-1.000000000000000E+20
 25
-1.000000000000000E+20
 35
-1.000000000000000E+20
146
0.0
 13
0.0
 23
0.0
 33
0.0
 16
1.0
 26
0.0
 36
0.0
 17
0.0
 27
1.0
 37
0.0
 76
     0
330
B
  0
LAYOUT
  5
20
102
{ACAD_XDICTIONARY
360
638A
102
}
102
{ACAD_REACTORS
330
1E
102
}
330
1E
100
AcDbPlotSettings
  1

  2

  4

  6

 40
0.0
 41
0.0
 42
0.0
 43
0.0
 44
0.0
 45
0.0
 46
0.0
 47
0.0
 48
0.0
 49
0.0
140
0.0
141
0.0
142
1.0
143
1.0
 70
  1024
 72
     0
 73
     0
 74
     0
  7

 75
     0
147
1.0
148
0.0
149
0.0
100
AcDbLayout
  1
Model
 70
     0
 71
     0
 10
0.0
 20
0.0
 11
0.0
 21
0.0
 12
0.0
 22
0.0
 32
0.0
 14
0.0
 24
0.0
 34
0.0
 15
0.0
 25
0.0
 35
0.0
146
0.0
 13
0.0
 23
0.0
 33
0.0
 16
0.0
 26
0.0
 36
0.0
 17
0.0
 27
0.0
 37
0.0
 76
     0
330
A
331
15
  0
MATERIAL
  5
3155
102
{ACAD_XDICTIONARY
360
3156
102
}
102
{ACAD_REACTORS
330
314C
102
}
330
314C
100
AcDbMaterial
  1
ByBlock
 72
     0
 43
0.0208333333333333
 43
0.0
 43
0.0
 43
0.0
 43
0.0
 43
0.0208333333333333
 43
0.0
 43
0.0
 43
0.0
 43
0.0
 43
1.0
 43
0.0
 43
0.0
 43
0.0
 43
0.0
 43
1.0
 77
     0
 47
0.0208333333333333
 47
0.0
 47
0.0
 47
0.0
 47
0.0
 47
0.0208333333333333
 47
0.0
 47
0.0
 47
0.0
 47
0.0
 47
1.0
 47
0.0
 47
0.0
 47
0.0
 47
0.0
 47
1.0
171
     0
 49
0.0208333333333333
 49
0.0
 49
0.0
 49
0.0
 49
0.0
 49
0.0208333333333333
 49
0.0
 49
0.0
 49
0.0
 49
0.0
 49
1.0
 49
0.0
 49
0.0
 49
0.0
 49
0.0
 49
1.0
175
     0
142
0.0208333333333333
142
0.0
142
0.0
142
0.0
142
0.0
142
0.0208333333333333
142
0.0
142
0.0
142
0.0
142
0.0
142
1.0
142
0.0
142
0.0
142
0.0
142
0.0
142
1.0
179
     0
144
0.0208333333333333
144
0.0
144
0.0
144
0.0
144
0.0
144
0.0208333333333333
144
0.0
144
0.0
144
0.0
144
0.0
144
1.0
144
0.0
144
0.0
144
0.0
144
0.0
144
1.0
147
0.0208333333333333
147
0.0
147
0.0
147
0.0
147
0.0
147
0.0208333333333333
147
0.0
147
0.0
147
0.0
147
0.0
147
1.0
147
0.0
147
0.0
147
0.0
147
0.0
147
1.0
  0
MATERIAL
  5
314D
102
{ACAD_XDICTIONARY
360
314E
102
}
102
{ACAD_REACTORS
330
314C
102
}
330
314C
100
AcDbMaterial
  1
ByLayer
 72
     0
 43
0.0208333333333333
 43
0.0
 43
0.0
 43
0.0
 43
0.0
 43
0.0208333333333333
 43
0.0
 43
0.0
 43
0.0
 43
0.0
 43
1.0
 43
0.0
 43
0.0
 43
0.0
 43
0.0
 43
1.0
 77
     0
 47
0.0208333333333333
 47
0.0
 47
0.0
 47
0.0
 47
0.0
 47
0.0208333333333333
 47
0.0
 47
0.0
 47
0.0
 47
0.0
 47
1.0
 47
0.0
 47
0.0
 47
0.0
 47
0.0
 47
1.0
171
     0
 49
0.0208333333333333
 49
0.0
 49
0.0
 49
0.0
 49
0.0
 49
0.0208333333333333
 49
0.0
 49
0.0
 49
0.0
 49
0.0
 49
1.0
 49
0.0
 49
0.0
 49
0.0
 49
0.0
 49
1.0
175
     0
142
0.0208333333333333
142
0.0
142
0.0
142
0.0
142
0.0
142
0.0208333333333333
142
0.0
142
0.0
142
0.0
142
0.0
142
1.0
142
0.0
142
0.0
142
0.0
142
0.0
142
1.0
179
     0
144
0.0208333333333333
144
0.0
144
0.0
144
0.0
144
0.0
144
0.0208333333333333
144
0.0
144
0.0
144
0.0
144
0.0
144
1.0
144
0.0
144
0.0
144
0.0
144
0.0
144
1.0
147
0.0208333333333333
147
0.0
147
0.0
147
0.0
147
0.0
147
0.0208333333333333
147
0.0
147
0.0
147
0.0
147
0.0
147
1.0
147
0.0
147
0.0
147
0.0
147
0.0
147
1.0
  0
MATERIAL
  5
315D
102
{ACAD_XDICTIONARY
360
315E
102
}
102
{ACAD_REACTORS
330
314C
102
}
330
314C
100
AcDbMaterial
  1
Global
 72
     0
 43
0.0208333333333333
 43
0.0
 43
0.0
 43
0.0
 43
0.0
 43
0.0208333333333333
 43
0.0
 43
0.0
 43
0.0
 43
0.0
 43
1.0
 43
0.0
 43
0.0
 43
0.0
 43
0.0
 43
1.0
 77
     0
 47
0.0208333333333333
 47
0.0
 47
0.0
 47
0.0
 47
0.0
 47
0.0208333333333333
 47
0.0
 47
0.0
 47
0.0
 47
0.0
 47
1.0
 47
0.0
 47
0.0
 47
0.0
 47
0.0
 47
1.0
171
     0
 49
0.0208333333333333
 49
0.0
 49
0.0
 49
0.0
 49
0.0
 49
0.0208333333333333
 49
0.0
 49
0.0
 49
0.0
 49
0.0
 49
1.0
 49
0.0
 49
0.0
 49
0.0
 49
0.0
 49
1.0
175
     0
142
0.0208333333333333
142
0.0
142
0.0
142
0.0
142
0.0
142
0.0208333333333333
142
0.0
142
0.0
142
0.0
142
0.0
142
1.0
142
0.0
142
0.0
142
0.0
142
0.0
142
1.0
179
     0
144
0.0208333333333333
144
0.0
144
0.0
144
0.0
144
0.0
144
0.0208333333333333
144
0.0
144
0.0
144
0.0
144
0.0
144
1.0
144
0.0
144
0.0
144
0.0
144
0.0
144
1.0
147
0.0208333333333333
147
0.0
147
0.0
147
0.0
147
0.0
147
0.0208333333333333
147
0.0
147
0.0
147
0.0
147
0.0
147
1.0
147
0.0
147
0.0
147
0.0
147
0.0
147
1.0
  0
MLEADERSTYLE
  5
319C
102
{ACAD_REACTORS
330
319B
102
}
330
319B
100
AcDbMLeaderStyle
170
     2
171
     1
172
     0
 90
        2
 40
0.0
 41
0.0
173
     1
 91
-1056964608
340
11
 92
       -2
290
     1
 42
2.0
291
     1
 43
0.36
  3
Standard
 44
4.0
300

342
17
174
     1
178
     6
175
     1
176
     0
 93
-1056964608
 45
4.0
292
     0
297
     0
 46
4.0
 94
-1056964608
 47
1.0
 49
1.0
140
1.0
293
     1
141
0.0
294
     1
177
     0
142
1.0
295
     0
296
     0
143
0.125
1001
ACAD_MLEADERVER
1070
     2
  0
MLINESTYLE
  5
1C
102
{ACAD_REACTORS
330
1B
102
}
330
1B
100
AcDbMlineStyle
  2
STANDARD
 70
     0
  3

 62
     0
 51
90.0
 52
90.0
 71
     2
 49
0.5
 62
   256
  6
BYLAYER
 49
-0.5
 62
   256
  6
BYLAYER
  0
ACDBPLACEHOLDER
  5
1D
102
{ACAD_REACTORS
330
1F
102
}
330
1F
  0
SCALE
  5
317A
102
{ACAD_REACTORS
330
3179
102
}
330
3179
100
AcDbScale
 70
     0
300
1:1
140
1.0
141
1.0
290
     1
  0
SCALE
  5
317B
102
{ACAD_REACTORS
330
3179
102
}
330
3179
100
AcDbScale
 70
     0
300
1:2
140
1.0
141
2.0
290
     0
  0
SCALE
  5
317C
102
{ACAD_REACTORS
330
3179
102
}
330
3179
100
AcDbScale
 70
     0
300
1:4
140
1.0
141
4.0
290
     0
  0
SCALE
  5
317D
102
{ACAD_REACTORS
330
3179
102
}
330
3179
100
AcDbScale
 70
     0
300
1:5
140
1.0
141
5.0
290
     0
  0
SCALE
  5
317E
102
{ACAD_REACTORS
330
3179
102
}
330
3179
100
AcDbScale
 70
     0
300
1:8
140
1.0
141
8.0
290
     0
  0
SCALE
  5
317F
102
{ACAD_REACTORS
330
3179
102
}
330
3179
100
AcDbScale
 70
     0
300
1:10
140
1.0
141
10.0
290
     0
  0
SCALE
  5
3180
102
{ACAD_REACTORS
330
3179
102
}
330
3179
100
AcDbScale
 70
     0
300
1:16
140
1.0
141
16.0
290
     0
  0
SCALE
  5
3181
102
{ACAD_REACTORS
330
3179
102
}
330
3179
100
AcDbScale
 70
     0
300
1:20
140
1.0
141
20.0
290
     0
  0
SCALE
  5
3182
102
{ACAD_REACTORS
330
3179
102
}
330
3179
100
AcDbScale
 70
     0
300
1:30
140
1.0
141
30.0
290
     0
  0
SCALE
  5
3183
102
{ACAD_REACTORS
330
3179
102
}
330
3179
100
AcDbScale
 70
     0
300
1:40
140
1.0
141
40.0
290
     0
  0
SCALE
  5
3184
102
{ACAD_REACTORS
330
3179
102
}
330
3179
100
AcDbScale
 70
     0
300
1:50
140
1.0
141
50.0
290
     0
  0
SCALE
  5
3185
102
{ACAD_REACTORS
330
3179
102
}
330
3179
100
AcDbScale
 70
     0
300
1:100
140
1.0
141
100.0
290
     0
  0
SCALE
  5
3186
102
{ACAD_REACTORS
330
3179
102
}
330
3179
100
AcDbScale
 70
     0
300
2:1
140
2.0
141
1.0
290
     0
  0
SCALE
  5
3187
102
{ACAD_REACTORS
330
3179
102
}
330
3179
100
AcDbScale
 70
     0
300
4:1
140
4.0
141
1.0
290
     0
  0
SCALE
  5
3188
102
{ACAD_REACTORS
330
3179
102
}
330
3179
100
AcDbScale
 70
     0
300
8:1
140
8.0
141
1.0
290
     0
  0
SCALE
  5
3189
102
{ACAD_REACTORS
330
3179
102
}
330
3179
100
AcDbScale
 70
     0
300
10:1
140
10.0
141
1.0
290
     0
  0
SCALE
  5
318A
102
{ACAD_REACTORS
330
3179
102
}
330
3179
100
AcDbScale
 70
     0
300
100:1
140
100.0
141
1.0
290
     0
  0
SCALE
  5
318B
102
{ACAD_REACTORS
330
3179
102
}
330
3179
100
AcDbScale
 70
     0
300
1/128" = 1'-0"
140
0.0078125
141
12.0
290
     0
  0
SCALE
  5
318C
102
{ACAD_REACTORS
330
3179
102
}
330
3179
100
AcDbScale
 70
     0
300
1/64" = 1'-0"
140
0.015625
141
12.0
290
     0
  0
SCALE
  5
318D
102
{ACAD_REACTORS
330
3179
102
}
330
3179
100
AcDbScale
 70
     0
300
1/32" = 1'-0"
140
0.03125
141
12.0
290
     0
  0
SCALE
  5
318E
102
{ACAD_REACTORS
330
3179
102
}
330
3179
100
AcDbScale
 70
     0
300
1/16" = 1'-0"
140
0.0625
141
12.0
290
     0
  0
SCALE
  5
318F
102
{ACAD_REACTORS
330
3179
102
}
330
3179
100
AcDbScale
 70
     0
300
3/32" = 1'-0"
140
0.09375
141
12.0
290
     0
  0
SCALE
  5
3190
102
{ACAD_REACTORS
330
3179
102
}
330
3179
100
AcDbScale
 70
     0
300
1/8" = 1'-0"
140
0.125
141
12.0
290
     0
  0
SCALE
  5
3191
102
{ACAD_REACTORS
330
3179
102
}
330
3179
100
AcDbScale
 70
     0
300
3/16" = 1'-0"
140
0.1875
141
12.0
290
     0
  0
SCALE
  5
3192
102
{ACAD_REACTORS
330
3179
102
}
330
3179
100
AcDbScale
 70
     0
300
1/4" = 1'-0"
140
0.25
141
12.0
290
     0
  0
SCALE
  5
3193
102
{ACAD_REACTORS
330
3179
102
}
330
3179
100
AcDbScale
 70
     0
300
3/8" = 1'-0"
140
0.375
141
12.0
290
     0
  0
SCALE
  5
3194
102
{ACAD_REACTORS
330
3179
102
}
330
3179
100
AcDbScale
 70
     0
300
1/2" = 1'-0"
140
0.5
141
12.0
290
     0
  0
SCALE
  5
3195
102
{ACAD_REACTORS
330
3179
102
}
330
3179
100
AcDbScale
 70
     0
300
3/4" = 1'-0"
140
0.75
141
12.0
290
     0
  0
SCALE
  5
3196
102
{ACAD_REACTORS
330
3179
102
}
330
3179
100
AcDbScale
 70
     0
300
1" = 1'-0"
140
1.0
141
12.0
290
     0
  0
SCALE
  5
3197
102
{ACAD_REACTORS
330
3179
102
}
330
3179
100
AcDbScale
 70
     0
300
1-1/2" = 1'-0"
140
1.5
141
12.0
290
     0
  0
SCALE
  5
3198
102
{ACAD_REACTORS
330
3179
102
}
330
3179
100
AcDbScale
 70
     0
300
3" = 1'-0"
140
3.0
141
12.0
290
     0
  0
SCALE
  5
3199
102
{ACAD_REACTORS
330
3179
102
}
330
3179
100
AcDbScale
 70
     0
300
6" = 1'-0"
140
6.0
141
12.0
290
     0
  0
SCALE
  5
319A
102
{ACAD_REACTORS
330
3179
102
}
330
3179
100
AcDbScale
 70
     0
300
1'-0" = 1'-0"
140
12.0
141
12.0
290
     0
  0
TABLESTYLE
  5
3178
102
{ACAD_XDICTIONARY
360
6308
102
}
102
{ACAD_REACTORS
330
3177
102
}
330
3177
100
AcDbTableStyle
  3
Standard
 70
     0
 71
     0
 40
1.5
 41
1.5
280
     0
281
     0
  7
Standard
140
4.5
170
     2
 62
     0
 63
     7
283
     0
274
    -2
284
     1
 64
     0
275
    -2
285
     1
 65
     0
276
    -2
286
     1
 66
     0
277
    -2
287
     1
 67
     0
278
    -2
288
     1
 68
     0
279
    -2
289
     1
 69
     0
  7
Standard
140
6.0
170
     5
 62
     0
 63
     7
283
     0
274
    -2
284
     1
 64
     0
275
    -2
285
     1
 65
     0
276
    -2
286
     1
 66
     0
277
    -2
287
     1
 67
     0
278
    -2
288
     1
 68
     0
279
    -2
289
     1
 69
     0
  7
Standard
140
4.5
170
     5
 62
     0
 63
     7
283
     0
274
    -2
284
     1
 64
     0
275
    -2
285
     1
 65
     0
276
    -2
286
     1
 66
     0
277
    -2
287
     1
 67
     0
278
    -2
288
     1
 68
     0
279
    -2
289
     1
 69
     0
  0
VISUALSTYLE
  5
316B
102
{ACAD_REACTORS
330
3165
102
}
330
3165
100
AcDbVisualStyle
  2
2dWireframe
 70
     4
 71
     0
 72
     2
 73
     0
 90
        0
 40
-0.6
 41
-30.0
 62
     5
 63
     7
 74
     1
 91
        4
 64
     7
 65
   257
 75
     1
175
     1
 42
1.0
 92
        0
 66
   257
 43
1.0
 76
     1
 77
     6
 78
     2
 67
     7
 79
     5
170
     0
171
     0
290
     0
174
     0
 93
        1
 44
0.0
173
     0
291
     0
 45
0.0
1001
ACAD
1000
AcDbSavedByObjectVersion
1070
     0
1000
AcDbSavedByObjectVersion
1070
     0
  0
VISUALSTYLE
  5
316D
102
{ACAD_REACTORS
330
3165
102
}
330
3165
100
AcDbVisualStyle
  2
3D Hidden
 70
     6
 71
     1
 72
     2
 73
     2
 90
        0
 40
-0.6
 41
-30.0
 62
     5
 63
     7
 74
     2
 91
        2
 64
     7
 65
   257
 75
     2
175
     1
 42
40.0
 92
        0
 66
   257
 43
1.0
 76
     1
 77
     6
 78
     2
 67
     7
 79
     3
170
     0
171
     0
290
     0
174
     0
 93
        1
 44
0.0
173
     0
291
     0
 45
0.0
1001
ACAD
1000
AcDbSavedByObjectVersion
1070
     0
1000
AcDbSavedByObjectVersion
1070
     0
  0
VISUALSTYLE
  5
316C
102
{ACAD_REACTORS
330
3165
102
}
330
3165
100
AcDbVisualStyle
  2
3dWireframe
 70
     5
 71
     0
 72
     2
 73
     0
 90
        0
 40
-0.6
 41
-30.0
 62
     5
 63
     7
 74
     1
 91
        4
 64
     7
 65
   257
 75
     1
175
     1
 42
1.0
 92
        0
 66
   257
 43
1.0
 76
     1
 77
     6
 78
     2
 67
     7
 79
     5
170
     0
171
     0
290
     0
174
     0
 93
        1
 44
0.0
173
     0
291
     0
 45
0.0
1001
ACAD
1000
AcDbSavedByObjectVersion
1070
     0
1000
AcDbSavedByObjectVersion
1070
     0
  0
VISUALSTYLE
  5
316A
102
{ACAD_REACTORS
330
3165
102
}
330
3165
100
AcDbVisualStyle
  2
Basic
 70
     7
 71
     1
 72
     0
 73
     1
 90
        0
 40
-0.6
 41
-30.0
 62
     5
 63
     7
 74
     0
 91
        4
 64
     7
 65
   257
 75
     1
175
     1
 42
1.0
 92
        8
 66
     7
 43
1.0
 76
     1
 77
     6
 78
     2
 67
     7
 79
     5
170
     0
171
     0
290
     0
174
     0
 93
        1
 44
0.0
173
     0
291
     1
 45
0.0
1001
ACAD
1000
AcDbSavedByObjectVersion
1070
     0
1000
AcDbSavedByObjectVersion
1070
     0
  0
VISUALSTYLE
  5
3171
102
{ACAD_REACTORS
330
3165
102
}
330
3165
100
AcDbVisualStyle
  2
Brighten
 70
    12
 71
     2
 72
     2
 73
     0
 90
        0
 40
-0.6
 41
-30.0
 62
     5
 63
     7
 74
     1
 91
        4
 64
     7
 65
   257
 75
     1
175
     1
 42
1.0
 92
        8
 66
     7
 43
1.0
 76
     1
 77
     6
 78
     2
 67
     7
 79
     5
170
     0
171
     0
290
     0
174
     0
 93
        1
 44
50.0
173
     0
291
     1
 45
0.0
1001
ACAD
1000
AcDbSavedByObjectVersion
1070
     0
1000
AcDbSavedByObjectVersion
1070
     0
  0
VISUALSTYLE
  5
3175
102
{ACAD_REACTORS
330
3165
102
}
330
3165
100
AcDbVisualStyle
  2
ColorChange
 70
    16
 71
     2
 72
     2
 73
     3
 90
        0
 40
-0.6
 41
-30.0
 62
     5
 63
     8
 74
     1
 91
        4
 64
     7
 65
   257
 75
     1
175
     1
 42
1.0
 92
        8
 66
     8
 43
1.0
 76
     1
 77
     6
 78
     2
 67
     7
 79
     5
170
     0
171
     0
290
     0
174
     0
 93
        1
 44
0.0
173
     0
291
     1
 45
0.0
1001
ACAD
1000
AcDbSavedByObjectVersion
1070
     0
1000
AcDbSavedByObjectVersion
1070
     0
  0
VISUALSTYLE
  5
316E
102
{ACAD_REACTORS
330
3165
102
}
330
3165
100
AcDbVisualStyle
  2
Conceptual
 70
     9
 71
     3
 72
     2
 73
     0
 90
        0
 40
-0.6
 41
-30.0
 62
     5
 63
     7
 74
     2
 91
        2
 64
     7
 65
   257
 75
     1
175
     1
 42
40.0
 92
        8
 66
     7
 43
1.0
 76
     1
 77
     6
 78
     2
 67
     7
 79
     3
170
     0
171
     0
290
     0
174
     0
 93
        1
 44
0.0
173
     0
291
     0
 45
0.0
1001
ACAD
1000
AcDbSavedByObjectVersion
1070
     0
1000
AcDbSavedByObjectVersion
1070
     0
  0
VISUALSTYLE
  5
3170
102
{ACAD_REACTORS
330
3165
102
}
330
3165
100
AcDbVisualStyle
  2
Dim
 70
    11
 71
     2
 72
     2
 73
     0
 90
        0
 40
-0.6
 41
-30.0
 62
     5
 63
     7
 74
     1
 91
        4
 64
     7
 65
   257
 75
     1
175
     1
 42
1.0
 92
        8
 66
     7
 43
1.0
 76
     1
 77
     6
 78
     2
 67
     7
 79
     5
170
     0
171
     0
290
     0
174
     0
 93
        1
 44
-50.0
173
     0
291
     1
 45
0.0
1001
ACAD
1000
AcDbSavedByObjectVersion
1070
     0
1000
AcDbSavedByObjectVersion
1070
     0
  0
VISUALSTYLE
  5
3174
102
{ACAD_REACTORS
330
3165
102
}
330
3165
100
AcDbVisualStyle
  2
Facepattern
 70
    15
 71
     2
 72
     2
 73
     0
 90
        0
 40
-0.6
 41
-30.0
 62
     5
 63
     7
 74
     1
 91
        4
 64
     7
 65
   257
 75
     1
175
     1
 42
1.0
 92
        8
 66
     7
 43
1.0
 76
     1
 77
     6
 78
     2
 67
     7
 79
     5
170
     0
171
     0
290
     0
174
     0
 93
        1
 44
0.0
173
     0
291
     1
 45
0.0
1001
ACAD
1000
AcDbSavedByObjectVersion
1070
     0
1000
AcDbSavedByObjectVersion
1070
     0
  0
VISUALSTYLE
  5
3166
102
{ACAD_REACTORS
330
3165
102
}
330
3165
100
AcDbVisualStyle
  2
Flat
 70
     0
 71
     2
 72
     1
 73
     1
 90
        2
 40
-0.6
 41
30.0
 62
     5
 63
     7
 74
     0
 91
        4
 64
     7
 65
   257
 75
     1
175
     1
 42
1.0
 92
        8
 66
     7
 43
1.0
 76
     1
 77
     6
 78
     2
 67
     7
 79
     5
170
     0
171
     0
290
     0
174
     0
 93
       13
 44
0.0
173
     0
291
     1
 45
0.0
1001
ACAD
1000
AcDbSavedByObjectVersion
1070
     0
1000
AcDbSavedByObjectVersion
1070
     0
  0
VISUALSTYLE
  5
3167
102
{ACAD_REACTORS
330
3165
102
}
330
3165
100
AcDbVisualStyle
  2
FlatWithEdges
 70
     1
 71
     2
 72
     1
 73
     1
 90
        2
 40
-0.6
 41
30.0
 62
     5
 63
     7
 74
     1
 91
        4
 64
     7
 65
   257
 75
     1
175
     1
 42
1.0
 92
        0
 66
   257
 43
1.0
 76
     1
 77
     6
 78
     2
 67
     7
 79
     5
170
     0
171
     0
290
     0
174
     0
 93
       13
 44
0.0
173
     0
291
     1
 45
0.0
1001
ACAD
1000
AcDbSavedByObjectVersion
1070
     0
1000
AcDbSavedByObjectVersion
1070
     0
  0
VISUALSTYLE
  5
3168
102
{ACAD_REACTORS
330
3165
102
}
330
3165
100
AcDbVisualStyle
  2
Gouraud
 70
     2
 71
     2
 72
     2
 73
     1
 90
        2
 40
-0.6
 41
30.0
 62
     5
 63
     7
 74
     0
 91
        4
 64
     7
 65
   257
 75
     1
175
     1
 42
1.0
 92
        0
 66
     7
 43
1.0
 76
     1
 77
     6
 78
     2
 67
     7
 79
     5
170
     0
171
     0
290
     0
174
     0
 93
       13
 44
0.0
173
     0
291
     1
 45
0.0
1001
ACAD
1000
AcDbSavedByObjectVersion
1070
     0
1000
AcDbSavedByObjectVersion
1070
     0
  0
VISUALSTYLE
  5
3169
102
{ACAD_REACTORS
330
3165
102
}
330
3165
100
AcDbVisualStyle
  2
GouraudWithEdges
 70
     3
 71
     2
 72
     2
 73
     1
 90
        2
 40
-0.6
 41
30.0
 62
     5
 63
     7
 74
     1
 91
        4
 64
     7
 65
   257
 75
     1
175
     1
 42
1.0
 92
        0
 66
   257
 43
1.0
 76
     1
 77
     6
 78
     2
 67
     7
 79
     5
170
     0
171
     0
290
     0
174
     0
 93
       13
 44
0.0
173
     0
291
     1
 45
0.0
1001
ACAD
1000
AcDbSavedByObjectVersion
1070
     0
1000
AcDbSavedByObjectVersion
1070
     0
  0
VISUALSTYLE
  5
3173
102
{ACAD_REACTORS
330
3165
102
}
330
3165
100
AcDbVisualStyle
  2
Linepattern
 70
    14
 71
     2
 72
     2
 73
     0
 90
        0
 40
-0.6
 41
-30.0
 62
     5
 63
     7
 74
     1
 91
        4
 64
     7
 65
   257
 75
     7
175
     7
 42
1.0
 92
        8
 66
     7
 43
1.0
 76
     1
 77
     6
 78
     2
 67
     7
 79
     5
170
     0
171
     0
290
     0
174
     0
 93
        1
 44
0.0
173
     0
291
     1
 45
0.0
1001
ACAD
1000
AcDbSavedByObjectVersion
1070
     0
1000
AcDbSavedByObjectVersion
1070
     0
  0
VISUALSTYLE
  5
316F
102
{ACAD_REACTORS
330
3165
102
}
330
3165
100
AcDbVisualStyle
  2
Realistic
 70
     8
 71
     2
 72
     2
 73
     0
 90
        0
 40
-0.6
 41
-30.0
 62
     5
 63
     7
 74
     1
 91
        0
 64
     7
 65
   257
 75
     1
175
     1
 42
1.0
 92
        8
 66
     8
 43
1.0
 76
     1
 77
     6
 78
     2
 67
     7
 79
     5
170
     0
171
     0
290
     0
174
     0
 93
       13
 44
0.0
173
     0
291
     0
 45
0.0
1001
ACAD
1000
AcDbSavedByObjectVersion
1070
     0
1000
AcDbSavedByObjectVersion
1070
     0
  0
VISUALSTYLE
  5
3172
102
{ACAD_REACTORS
330
3165
102
}
330
3165
100
AcDbVisualStyle
  2
Thicken
 70
    13
 71
     2
 72
     2
 73
     0
 90
        0
 40
-0.6
 41
-30.0
 62
     5
 63
     7
 74
     1
 91
        4
 64
     7
 65
   257
 75
     1
175
     1
 42
1.0
 92
       12
 66
     7
 43
1.0
 76
     1
 77
     6
 78
     2
 67
     7
 79
     5
170
     0
171
     0
290
     0
174
     0
 93
        1
 44
0.0
173
     0
291
     1
 45
0.0
1001
ACAD
1000
AcDbSavedByObjectVersion
1070
     0
1000
AcDbSavedByObjectVersion
1070
     0
  0
DICTIONARYVAR
  5
630F
102
{ACAD_REACTORS
330
630B
102
}
330
630B
100
DictionaryVariables
280
     0
  1
1:1
  0
DICTIONARYVAR
  5
630D
102
{ACAD_REACTORS
330
630B
102
}
330
630B
100
DictionaryVariables
280
     0
  1
STANDARD
  0
DICTIONARYVAR
  5
630C
102
{ACAD_REACTORS
330
630B
102
}
330
630B
100
DictionaryVariables
280
     0
  1
STANDARD
  0
DICTIONARYVAR
  5
6318
102
{ACAD_REACTORS
330
630B
102
}
330
630B
100
DictionaryVariables
280
     0
  1
1
  0
DICTIONARYVAR
  5
6317
102
{ACAD_REACTORS
330
630B
102
}
330
630B
100
DictionaryVariables
280
     0
  1
0
  0
DICTIONARYVAR
  5
6310
102
{ACAD_REACTORS
330
630B
102
}
330
630B
100
DictionaryVariables
280
     0
  1
0
  0
DICTIONARYVAR
  5
630E
102
{ACAD_REACTORS
330
630B
102
}
330
630B
100
DictionaryVariables
280
     0
  1
0
  0
DICTIONARYVAR
  5
6316
102
{ACAD_REACTORS
330
630B
102
}
330
630B
100
DictionaryVariables
280
     0
  1
127
  0
XRECORD
  5
5E46
102
{ACAD_REACTORS
330
5E44
102
}
330
5E44
100
AcDbXrecord
280
     1
  0
DICTIONARY
  5
638C
330
21
100
AcDbDictionary
280
     1
281
     1
  3
ACAD_XREC_ROUNDTRIP
360
638D
  0
DICTIONARY
  5
638A
330
20
100
AcDbDictionary
280
     1
281
     1
  3
ACAD_XREC_ROUNDTRIP
360
638B
  0
DICTIONARY
  5
3156
330
3155
100
AcDbDictionary
280
     1
281
     1
  3
ACAD_XREC_ROUNDTRIP
360
6320
  3
BUMPTILE
360
3158
  3
DIFFUSETILE
360
3157
  3
OPACITYTILE
360
315B
  3
REFLECTIONTILE
360
315A
  3
REFRACTIONTILE
360
315C
  3
SPECULARTILE
360
3159
  0
DICTIONARY
  5
314E
330
314D
100
AcDbDictionary
280
     1
281
     1
  3
ACAD_XREC_ROUNDTRIP
360
631F
  3
BUMPTILE
360
3150
  3
DIFFUSETILE
360
314F
  3
OPACITYTILE
360
3153
  3
REFLECTIONTILE
360
3152
  3
REFRACTIONTILE
360
3154
  3
SPECULARTILE
360
3151
  0
DICTIONARY
  5
315E
330
315D
100
AcDbDictionary
280
     1
281
     1
  3
ACAD_XREC_ROUNDTRIP
360
6321
  3
BUMPTILE
360
3160
  3
DIFFUSETILE
360
315F
  3
OPACITYTILE
360
3163
  3
REFLECTIONTILE
360
3162
  3
REFRACTIONTILE
360
3164
  3
SPECULARTILE
360
3161
  0
DICTIONARY
  5
6308
330
3178
100
AcDbDictionary
280
     1
281
     1
  3
ACAD_ROUNDTRIP_2008_TABLESTYLE_CELLSTYLEMAP
360
6388
  3
ACAD_XREC_ROUNDTRIP
360
638E
  0
XRECORD
  5
638D
102
{ACAD_REACTORS
330
638C
102
}
330
638C
100
AcDbXrecord
280
     1
102
SHADEPLOT
 70
     0
102
SHADEPLOTRESLEVEL
 70
     2
102
SHADEPLOTCUSTOMDPI
 70
   300
  0
XRECORD
  5
638B
102
{ACAD_REACTORS
330
638A
102
}
330
638A
100
AcDbXrecord
280
     1
102
SHADEPLOT
 70
     0
102
SHADEPLOTRESLEVEL
 70
     2
102
SHADEPLOTCUSTOMDPI
 70
   300
  0
XRECORD
  5
6320
102
{ACAD_REACTORS
330
3156
102
}
330
3156
100
AcDbXrecord
280
     1
102
MATERIAL
148
0.0
149
0.0
149
0.0
 93
        0
 94
      127
282
     0
 72
     0
 77
     0
171
     0
175
     0
179
     0
273
     0
  0
XRECORD
  5
3158
102
{ACAD_REACTORS
330
3156
102
}
330
3156
100
AcDbXrecord
280
     1
270
     1
271
     1
  0
XRECORD
  5
3157
102
{ACAD_REACTORS
330
3156
102
}
330
3156
100
AcDbXrecord
280
     1
270
     1
271
     1
  0
XRECORD
  5
315B
102
{ACAD_REACTORS
330
3156
102
}
330
3156
100
AcDbXrecord
280
     1
270
     1
271
     1
  0
XRECORD
  5
315A
102
{ACAD_REACTORS
330
3156
102
}
330
3156
100
AcDbXrecord
280
     1
270
     1
271
     1
  0
XRECORD
  5
315C
102
{ACAD_REACTORS
330
3156
102
}
330
3156
100
AcDbXrecord
280
     1
270
     1
271
     1
  0
XRECORD
  5
3159
102
{ACAD_REACTORS
330
3156
102
}
330
3156
100
AcDbXrecord
280
     1
270
     1
271
     1
  0
XRECORD
  5
631F
102
{ACAD_REACTORS
330
314E
102
}
330
314E
100
AcDbXrecord
280
     1
102
MATERIAL
148
0.0
149
0.0
149
0.0
 93
        0
 94
      127
282
     0
 72
     0
 77
     0
171
     0
175
     0
179
     0
273
     0
  0
XRECORD
  5
3150
102
{ACAD_REACTORS
330
314E
102
}
330
314E
100
AcDbXrecord
280
     1
270
     1
271
     1
  0
XRECORD
  5
314F
102
{ACAD_REACTORS
330
314E
102
}
330
314E
100
AcDbXrecord
280
     1
270
     1
271
     1
  0
XRECORD
  5
3153
102
{ACAD_REACTORS
330
314E
102
}
330
314E
100
AcDbXrecord
280
     1
270
     1
271
     1
  0
XRECORD
  5
3152
102
{ACAD_REACTORS
330
314E
102
}
330
314E
100
AcDbXrecord
280
     1
270
     1
271
     1
  0
XRECORD
  5
3154
102
{ACAD_REACTORS
330
314E
102
}
330
314E
100
AcDbXrecord
280
     1
270
     1
271
     1
  0
XRECORD
  5
3151
102
{ACAD_REACTORS
330
314E
102
}
330
314E
100
AcDbXrecord
280
     1
270
     1
271
     1
  0
XRECORD
  5
6321
102
{ACAD_REACTORS
330
315E
102
}
330
315E
100
AcDbXrecord
280
     1
102
MATERIAL
148
0.0
149
0.0
149
0.0
 93
        0
 94
      127
282
     0
 72
     0
 77
     0
171
     0
175
     0
179
     0
273
     0
  0
XRECORD
  5
3160
102
{ACAD_REACTORS
330
315E
102
}
330
315E
100
AcDbXrecord
280
     1
270
     1
271
     1
  0
XRECORD
  5
315F
102
{ACAD_REACTORS
330
315E
102
}
330
315E
100
AcDbXrecord
280
     1
270
     1
271
     1
  0
XRECORD
  5
3163
102
{ACAD_REACTORS
330
315E
102
}
330
315E
100
AcDbXrecord
280
     1
270
     1
271
     1
  0
XRECORD
  5
3162
102
{ACAD_REACTORS
330
315E
102
}
330
315E
100
AcDbXrecord
280
     1
270
     1
271
     1
  0
XRECORD
  5
3164
102
{ACAD_REACTORS
330
315E
102
}
330
315E
100
AcDbXrecord
280
     1
270
     1
271
     1
  0
XRECORD
  5
3161
102
{ACAD_REACTORS
330
315E
102
}
330
315E
100
AcDbXrecord
280
     1
270
     1
271
     1
  0
CELLSTYLEMAP
  5
6388
102
{ACAD_REACTORS
330
6308
102
}
330
6308
100
AcDbCellStyleMap
 90
        3
300
CELLSTYLE
  1
TABLEFORMAT_BEGIN
 90
        5
170
     1
 91
        0
 92
    32768
 62
   257
 93
        1
300
CONTENTFORMAT
  1
CONTENTFORMAT_BEGIN
 90
        0
 91
        0
 92
      512
 93
        0
300

 40
0.0
140
1.0
 94
        5
 62
     0
340
17
144
6.0
309
CONTENTFORMAT_END
171
     1
301
MARGIN
  1
CELLMARGIN_BEGIN
 40
1.5
 40
1.5
 40
1.5
 40
1.5
 40
0.18
 40
0.18
309
CELLMARGIN_END
 94
        6
 95
        1
302
GRIDFORMAT
  1
GRIDFORMAT_BEGIN
 90
        0
 91
        1
 62
     0
 92
       -2
340
0
 93
        0
 40
1.125
309
GRIDFORMAT_END
 95
        2
302
GRIDFORMAT
  1
GRIDFORMAT_BEGIN
 90
        0
 91
        1
 62
     0
 92
       -2
340
0
 93
        0
 40
1.125
309
GRIDFORMAT_END
 95
        4
302
GRIDFORMAT
  1
GRIDFORMAT_BEGIN
 90
        0
 91
        1
 62
     0
 92
       -2
340
0
 93
        0
 40
1.125
309
GRIDFORMAT_END
 95
        8
302
GRIDFORMAT
  1
GRIDFORMAT_BEGIN
 90
        0
 91
        1
 62
     0
 92
       -2
340
0
 93
        0
 40
1.125
309
GRIDFORMAT_END
 95
       16
302
GRIDFORMAT
  1
GRIDFORMAT_BEGIN
 90
        0
 91
        1
 62
     0
 92
       -2
340
0
 93
        0
 40
1.125
309
GRIDFORMAT_END
 95
       32
302
GRIDFORMAT
  1
GRIDFORMAT_BEGIN
 90
        0
 91
        1
 62
     0
 92
       -2
340
0
 93
        0
 40
1.125
309
GRIDFORMAT_END
309
TABLEFORMAT_END
  1
CELLSTYLE_BEGIN
 90
        1
 91
        1
300
_TITLE
309
CELLSTYLE_END
300
CELLSTYLE
  1
TABLEFORMAT_BEGIN
 90
        5
170
     1
 91
        0
 92
        0
 62
   257
 93
        1
300
CONTENTFORMAT
  1
CONTENTFORMAT_BEGIN
 90
        0
 91
        0
 92
      512
 93
        0
300

 40
0.0
140
1.0
 94
        5
 62
     0
340
17
144
4.5
309
CONTENTFORMAT_END
171
     1
301
MARGIN
  1
CELLMARGIN_BEGIN
 40
1.5
 40
1.5
 40
1.5
 40
1.5
 40
0.18
 40
0.18
309
CELLMARGIN_END
 94
        6
 95
        1
302
GRIDFORMAT
  1
GRIDFORMAT_BEGIN
 90
        0
 91
        1
 62
     0
 92
       -2
340
0
 93
        0
 40
1.125
309
GRIDFORMAT_END
 95
        2
302
GRIDFORMAT
  1
GRIDFORMAT_BEGIN
 90
        0
 91
        1
 62
     0
 92
       -2
340
0
 93
        0
 40
1.125
309
GRIDFORMAT_END
 95
        4
302
GRIDFORMAT
  1
GRIDFORMAT_BEGIN
 90
        0
 91
        1
 62
     0
 92
       -2
340
0
 93
        0
 40
1.125
309
GRIDFORMAT_END
 95
        8
302
GRIDFORMAT
  1
GRIDFORMAT_BEGIN
 90
        0
 91
        1
 62
     0
 92
       -2
340
0
 93
        0
 40
1.125
309
GRIDFORMAT_END
 95
       16
302
GRIDFORMAT
  1
GRIDFORMAT_BEGIN
 90
        0
 91
        1
 62
     0
 92
       -2
340
0
 93
        0
 40
1.125
309
GRIDFORMAT_END
 95
       32
302
GRIDFORMAT
  1
GRIDFORMAT_BEGIN
 90
        0
 91
        1
 62
     0
 92
       -2
340
0
 93
        0
 40
1.125
309
GRIDFORMAT_END
309
TABLEFORMAT_END
  1
CELLSTYLE_BEGIN
 90
        2
 91
        1
300
_HEADER
309
CELLSTYLE_END
300
CELLSTYLE
  1
TABLEFORMAT_BEGIN
 90
        5
170
     1
 91
        0
 92
        0
 62
   257
 93
        1
300
CONTENTFORMAT
  1
CONTENTFORMAT_BEGIN
 90
        0
 91
        0
 92
      512
 93
        0
300

 40
0.0
140
1.0
 94
        2
 62
     0
340
17
144
4.5
309
CONTENTFORMAT_END
171
     1
301
MARGIN
  1
CELLMARGIN_BEGIN
 40
1.5
 40
1.5
 40
1.5
 40
1.5
 40
0.18
 40
0.18
309
CELLMARGIN_END
 94
        6
 95
        1
302
GRIDFORMAT
  1
GRIDFORMAT_BEGIN
 90
        0
 91
        1
 62
     0
 92
       -2
340
0
 93
        0
 40
1.125
309
GRIDFORMAT_END
 95
        2
302
GRIDFORMAT
  1
GRIDFORMAT_BEGIN
 90
        0
 91
        1
 62
     0
 92
       -2
340
0
 93
        0
 40
1.125
309
GRIDFORMAT_END
 95
        4
302
GRIDFORMAT
  1
GRIDFORMAT_BEGIN
 90
        0
 91
        1
 62
     0
 92
       -2
340
0
 93
        0
 40
1.125
309
GRIDFORMAT_END
 95
        8
302
GRIDFORMAT
  1
GRIDFORMAT_BEGIN
 90
        0
 91
        1
 62
     0
 92
       -2
340
0
 93
        0
 40
1.125
309
GRIDFORMAT_END
 95
       16
302
GRIDFORMAT
  1
GRIDFORMAT_BEGIN
 90
        0
 91
        1
 62
     0
 92
       -2
340
0
 93
        0
 40
1.125
309
GRIDFORMAT_END
 95
       32
302
GRIDFORMAT
  1
GRIDFORMAT_BEGIN
 90
        0
 91
        1
 62
     0
 92
       -2
340
0
 93
        0
 40
1.125
309
GRIDFORMAT_END
309
TABLEFORMAT_END
  1
CELLSTYLE_BEGIN
 90
        3
 91
        2
300
_DATA
309
CELLSTYLE_END
  0
XRECORD
  5
638E
102
{ACAD_REACTORS
330
6308
102
}
330
6308
100
AcDbXrecord
280
     1
102
ACAD_ROUNDTRIP_PRE2007_TABLESTYLE
 90
      512
 91
        0
  1

 92
      512
 93
        0
  2

 94
      512
 95
        0
  3

  0
ENDSEC
  0
EOF
