  0
SECTION
  2
HEADER
  9
$ACADVER
  1
AC1015
  9
$ACADMAINTVER
 70
    20
  9
$DWGCODEPAGE
  3
ANSI_1252
  9
$INSBASE
 10
0.0
 20
0.0
 30
0.0
  9
$EXTMIN
 10
-115.473975001566
 20
-66.8677341660341
 30
-0.0000000000001846
  9
$EXTMAX
 10
33.86989119587997
 20
62.90210112074783
 30
0.0000000000041672
  9
$LIMMIN
 10
-66.34999999999982
 20
-2008.85
  9
$LIMMAX
 10
3734.350000000001
 20
346.85
  9
$ORTHOMODE
 70
     0
  9
$REGENMODE
 70
     1
  9
$FILLMODE
 70
     1
  9
$QTEXTMODE
 70
     0
  9
$MIRRTEXT
 70
     1
  9
$LTSCALE
 40
10.0
  9
$ATTMODE
 70
     1
  9
$TEXTSIZE
 40
0.0
  9
$TRACEWID
 40
0.05
  9
$TEXTSTYLE
  7
Standard
  9
$CLAYER
  8
0
  9
$CELTYPE
  6
Continuous
  9
$CECOLOR
 62
   256
  9
$CELTSCALE
 40
1.0
  9
$DISPSILH
 70
     0
  9
$DIMSCALE
 40
1.0
  9
$DIMASZ
 40
1.25
  9
$DIMEXO
 40
0.0
  9
$DIMDLI
 40
0.38
  9
$DIMRND
 40
0.0
  9
$DIMDLE
 40
0.0
  9
$DIMEXE
 40
0.75
  9
$DIMTP
 40
0.0
  9
$DIMTM
 40
0.0
  9
$DIMTXT
 40
2.5
  9
$DIMCEN
 40
0.09
  9
$DIMTSZ
 40
0.0
  9
$DIMTOL
 70
     0
  9
$DIMLIM
 70
     0
  9
$DIMTIH
 70
     0
  9
$DIMTOH
 70
     0
  9
$DIMSE1
 70
     0
  9
$DIMSE2
 70
     0
  9
$DIMTAD
 70
     1
  9
$DIMZIN
 70
     0
  9
$DIMBLK
  1

  9
$DIMASO
 70
     1
  9
$DIMSHO
 70
     1
  9
$DIMPOST
  1

  9
$DIMAPOST
  1

  9
$DIMALT
 70
     0
  9
$DIMALTD
 70
     2
  9
$DIMALTF
 40
25.4
  9
$DIMLFAC
 40
1.0
  9
$DIMTOFL
 70
     0
  9
$DIMTVP
 40
0.0
  9
$DIMTIX
 70
     0
  9
$DIMSOXD
 70
     0
  9
$DIMSAH
 70
     0
  9
$DIMBLK1
  1

  9
$DIMBLK2
  1

  9
$DIMSTYLE
  2
Standard
  9
$DIMCLRD
 70
     7
  9
$DIMCLRE
 70
     7
  9
$DIMCLRT
 70
     7
  9
$DIMTFAC
 40
0.8
  9
$DIMGAP
 40
1.25
  9
$DIMJUST
 70
     0
  9
$DIMSD1
 70
     0
  9
$DIMSD2
 70
     0
  9
$DIMTOLJ
 70
     1
  9
$DIMTZIN
 70
     0
  9
$DIMALTZ
 70
     0
  9
$DIMALTTZ
 70
     0
  9
$DIMUPT
 70
     0
  9
$DIMDEC
 70
     2
  9
$DIMTDEC
 70
     4
  9
$DIMALTU
 70
     2
  9
$DIMALTTD
 70
     2
  9
$DIMTXSTY
  7
Standard
  9
$DIMAUNIT
 70
     0
  9
$DIMADEC
 70
     0
  9
$DIMALTRND
 40
0.0
  9
$DIMAZIN
 70
     0
  9
$DIMDSEP
 70
     0
  9
$DIMATFIT
 70
     3
  9
$DIMFRAC
 70
     0
  9
$DIMLDRBLK
  1

  9
$DIMLUNIT
 70
     2
  9
$DIMLWD
 70
     0
  9
$DIMLWE
 70
     0
  9
$DIMTMOVE
 70
     0
  9
$LUNITS
 70
     2
  9
$LUPREC
 70
     4
  9
$SKETCHINC
 40
0.1
  9
$FILLETRAD
 40
0.0
  9
$AUNITS
 70
     0
  9
$AUPREC
 70
     0
  9
$MENU
  1
acad
  9
$ELEVATION
 40
0.0
  9
$PELEVATION
 40
0.0
  9
$THICKNESS
 40
0.0
  9
$LIMCHECK
 70
     0
  9
$CHAMFERA
 40
0.0
  9
$CHAMFERB
 40
0.0
  9
$CHAMFERC
 40
0.0
  9
$CHAMFERD
 40
0.0
  9
$SKPOLY
 70
     0
  9
$TDCREATE
 40
2455303.727916667
  9
$TDUCREATE
 40
2455303.644583334
  9
$TDUPDATE
 40
2455306.439603449
  9
$TDUUPDATE
 40
2455306.356270116
  9
$TDINDWG
 40
0.0033193056
  9
$TDUSRTIMER
 40
0.0033191319
  9
$USRTIMER
 70
     1
  9
$ANGBASE
 50
0.0
  9
$ANGDIR
 70
     0
  9
$PDMODE
 70
     0
  9
$PDSIZE
 40
0.0
  9
$PLINEWID
 40
0.0
  9
$SPLFRAME
 70
     0
  9
$SPLINETYPE
 70
     6
  9
$SPLINESEGS
 70
     8
  9
$HANDSEED
  5
63AE
  9
$SURFTAB1
 70
     6
  9
$SURFTAB2
 70
     6
  9
$SURFTYPE
 70
     6
  9
$SURFU
 70
     6
  9
$SURFV
 70
     6
  9
$UCSBASE
  2

  9
$UCSNAME
  2

  9
$UCSORG
 10
0.0
 20
0.0
 30
0.0
  9
$UCSXDIR
 10
1.0
 20
0.0
 30
0.0
  9
$UCSYDIR
 10
0.0
 20
1.0
 30
0.0
  9
$UCSORTHOREF
  2

  9
$UCSORTHOVIEW
 70
     0
  9
$UCSORGTOP
 10
0.0
 20
0.0
 30
0.0
  9
$UCSORGBOTTOM
 10
0.0
 20
0.0
 30
0.0
  9
$UCSORGLEFT
 10
0.0
 20
0.0
 30
0.0
  9
$UCSORGRIGHT
 10
0.0
 20
0.0
 30
0.0
  9
$UCSORGFRONT
 10
0.0
 20
0.0
 30
0.0
  9
$UCSORGBACK
 10
0.0
 20
0.0
 30
0.0
  9
$PUCSBASE
  2

  9
$PUCSNAME
  2

  9
$PUCSORG
 10
0.0
 20
0.0
 30
0.0
  9
$PUCSXDIR
 10
1.0
 20
0.0
 30
0.0
  9
$PUCSYDIR
 10
0.0
 20
1.0
 30
0.0
  9
$PUCSORTHOREF
  2

  9
$PUCSORTHOVIEW
 70
     0
  9
$PUCSORGTOP
 10
0.0
 20
0.0
 30
0.0
  9
$PUCSORGBOTTOM
 10
0.0
 20
0.0
 30
0.0
  9
$PUCSORGLEFT
 10
0.0
 20
0.0
 30
0.0
  9
$PUCSORGRIGHT
 10
0.0
 20
0.0
 30
0.0
  9
$PUCSORGFRONT
 10
0.0
 20
0.0
 30
0.0
  9
$PUCSORGBACK
 10
0.0
 20
0.0
 30
0.0
  9
$USERI1
 70
     0
  9
$USERI2
 70
     0
  9
$USERI3
 70
     0
  9
$USERI4
 70
     0
  9
$USERI5
 70
     0
  9
$USERR1
 40
0.0
  9
$USERR2
 40
0.0
  9
$USERR3
 40
0.0
  9
$USERR4
 40
0.0
  9
$USERR5
 40
0.0
  9
$WORLDVIEW
 70
     1
  9
$SHADEDGE
 70
     3
  9
$SHADEDIF
 70
    70
  9
$TILEMODE
 70
     1
  9
$MAXACTVP
 70
    16
  9
$PINSBASE
 10
0.0
 20
0.0
 30
0.0
  9
$PLIMCHECK
 70
     0
  9
$PEXTMIN
 10
1.000000000000000E+20
 20
1.000000000000000E+20
 30
1.000000000000000E+20
  9
$PEXTMAX
 10
-1.000000000000000E+20
 20
-1.000000000000000E+20
 30
-1.000000000000000E+20
  9
$PLIMMIN
 10
0.0
 20
0.0
  9
$PLIMMAX
 10
12.0
 20
9.0
  9
$UNITMODE
 70
     0
  9
$VISRETAIN
 70
     0
  9
$PLINEGEN
 70
     1
  9
$PSLTSCALE
 70
     0
  9
$TREEDEPTH
 70
  3020
  9
$CMLSTYLE
  2
Standard
  9
$CMLJUST
 70
     0
  9
$CMLSCALE
 40
1.0
  9
$PROXYGRAPHICS
 70
     0
  9
$MEASUREMENT
 70
     1
  9
$CELWEIGHT
370
     0
  9
$ENDCAPS
280
     0
  9
$JOINSTYLE
280
     0
  9
$LWDISPLAY
290
     0
  9
$INSUNITS
 70
     0
  9
$HYPERLINKBASE
  1

  9
$STYLESHEET
  1

  9
$XEDIT
290
     1
  9
$CEPSNTYPE
380
     0
  9
$PSTYLEMODE
290
     1
  9
$FINGERPRINTGUID
  2

  9
$VERSIONGUID
  2
{0ED83077-0ECC-4123-9A0F-4143AE883B02}
  9
$EXTNAMES
290
     1
  9
$PSVPSCALE
 40
0.0
  9
$OLESTARTUP
290
     0
  0
ENDSEC
  0
SECTION
  2
CLASSES
  0
CLASS
  1
IMAGE
  2
AcDbRasterImage
  3
ISM
 90
    34943
280
     0
281
     1
  0
CLASS
  1
DICTIONARYVAR
  2
AcDbDictionaryVar
  3
ObjectDBX Classes
 90
        0
280
     0
281
     0
  0
CLASS
  1
RASTERVARIABLES
  2
AcDbRasterVariables
  3
ISM
 90
    32768
280
     0
281
     0
  0
CLASS
  1
IMAGEDEF
  2
AcDbRasterImageDef
  3
ISM
 90
    32768
280
     0
281
     0
  0
CLASS
  1
IMAGEDEF_REACTOR
  2
AcDbRasterImageDefReactor
  3
ISM
 90
    32769
280
     0
281
     0
  0
CLASS
  1
IDBUFFER
  2
AcDbIdBuffer
  3
ObjectDBX Classes
 90
    32768
280
     0
281
     0
  0
CLASS
  1
SPATIAL_FILTER
  2
AcDbSpatialFilter
  3
ObjectDBX Classes
 90
    32768
280
     0
281
     0
  0
CLASS
  1
SORTENTSTABLE
  2
AcDbSortentsTable
  3
ObjectDBX Classes
 90
        0
280
     0
281
     0
  0
CLASS
  1
LAYER_INDEX
  2
AcDbLayerIndex
  3
ObjectDBX Classes
 90
    32768
280
     0
281
     0
  0
CLASS
  1
SPATIAL_INDEX
  2
AcDbSpatialIndex
  3
ObjectDBX Classes
 90
    32768
280
     0
281
     0
  0
CLASS
  1
OBJECT_PTR
  2
CAseDLPNTableRecord
  3
ASE-LPNTableRecord
 90
    32769
280
     0
281
     0
  0
CLASS
  1
LAYOUT
  2
AcDbLayout
  3
ObjectDBX Classes
 90
        0
280
     0
281
     0
  0
CLASS
  1
PLOTSETTINGS
  2
AcDbPlotSettings
  3
ObjectDBX Classes
 90
    32768
280
     0
281
     0
  0
CLASS
  1
ACDBDICTIONARYWDFLT
  2
AcDbDictionaryWithDefault
  3
ObjectDBX Classes
 90
        0
280
     0
281
     0
  0
CLASS
  1
ACDBPLACEHOLDER
  2
AcDbPlaceHolder
  3
ObjectDBX Classes
 90
        0
280
     0
281
     0
  0
CLASS
  1
VBA_PROJECT
  2
AcDbVbaProject
  3
acad
 90
    32768
280
     0
281
     0
  0
CLASS
  1
WIPEOUT
  2
AcDbWipeout
  3
"WipeOut|Product Desc: Object Enabler for WipeOut entity                        |Company: Autodesk, Inc.                        |WEB Address: www.autodesk.com"
 90
    34943
280
     0
281
     1
  0
CLASS
  1
WIPEOUTVARIABLES
  2
AcDbWipeoutVariables
  3
"WipeOut|Product Desc:     WipeOut Dbx Application|Company:          Autodesk, Inc.|WEB Address:      www.autodesk.com"
 90
        0
280
     0
281
     0
  0
CLASS
  1
RTEXT
  2
RText
  3
RText|AutoCAD Express Tool|expresstools@autodesk.com
 90
    35839
280
     0
281
     1
  0
CLASS
  1
ARCALIGNEDTEXT
  2
AcDbArcAlignedText
  3
ATEXT|AutoCAD Express Tool|expresstools@autodesk.com
 90
    32768
280
     0
281
     1
  0
CLASS
  1
MATERIAL
  2
AcDbMaterial
  3
ObjectDBX Classes
 90
     1153
280
     0
281
     0
  0
CLASS
  1
VISUALSTYLE
  2
AcDbVisualStyle
  3
ObjectDBX Classes
 90
     4095
280
     0
281
     0
  0
CLASS
  1
TABLESTYLE
  2
AcDbTableStyle
  3
ObjectDBX Classes
 90
     4095
280
     0
281
     0
  0
CLASS
  1
SCALE
  2
AcDbScale
  3
ObjectDBX Classes
 90
     1153
280
     0
281
     0
  0
CLASS
  1
MLEADERSTYLE
  2
AcDbMLeaderStyle
  3
ACDB_MLEADERSTYLE_CLASS
 90
     4095
280
     0
281
     0
  0
CLASS
  1
CELLSTYLEMAP
  2
AcDbCellStyleMap
  3
ObjectDBX Classes
 90
     1152
280
     0
281
     0
  0
ENDSEC
  0
SECTION
  2
TABLES
  0
TABLE
  2
VPORT
  5
7
330
0
100
AcDbSymbolTable
 70
     1
  0
VPORT
  5
15
330
7
100
AcDbSymbolTableRecord
100
AcDbViewportTableRecord
  2
*ACTIVE
 70
     0
 10
0.0
 20
0.0
 11
1.0
 21
1.0
 12
-46.82248647580348
 22
-7.327008151938954
 13
0.0
 23
0.0
 14
1.0
 24
1.0
 15
0.0
 25
0.0
 16
0.0
 26
0.0
 36
1.0
 17
0.0
 27
0.0
 37
0.0
 40
164.8163936053726
 41
1.611330698287219
 42
50.0
 43
0.0
 44
0.0
 50
0.0
 51
0.0
 71
     0
 72
   100
 73
     1
 74
     1
 75
     0
 76
     0
 77
     0
 78
     0
281
     0
 65
     0
110
0.0
120
0.0
130
0.0
111
1.0
121
0.0
131
0.0
112
0.0
122
1.0
132
0.0
 79
     0
146
0.0
  0
ENDTAB
  0
TABLE
  2
LTYPE
  5
4
330
0
100
AcDbSymbolTable
 70
     4
  0
LTYPE
  5
11
330
4
100
AcDbSymbolTableRecord
100
AcDbLinetypeTableRecord
  2
ByBlock
 70
     0
  3

 72
    65
 73
     0
 40
0.0
  0
LTYPE
  5
12
330
4
100
AcDbSymbolTableRecord
100
AcDbLinetypeTableRecord
  2
ByLayer
 70
     0
  3

 72
    65
 73
     0
 40
0.0
  0
LTYPE
  5
13
330
4
100
AcDbSymbolTableRecord
100
AcDbLinetypeTableRecord
  2
Continuous
 70
     0
  3
Solid line
 72
    65
 73
     0
 40
0.0
  0
LTYPE
  5
1E4
330
4
100
AcDbSymbolTableRecord
100
AcDbLinetypeTableRecord
  2
CENTER
 70
     0
  3
____ _ ____ _ ____ _ ____ _ ____ _ ____ _ ____
 72
    65
 73
     4
 40
2.0
 49
1.25
 74
     0
 49
-0.25
 74
     0
 49
0.25
 74
     0
 49
-0.25
 74
     0
  0
ENDTAB
  0
TABLE
  2
LAYER
  5
2
330
0
100
AcDbSymbolTable
 70
     1
  0
LAYER
  5
14
102
{ACAD_XDICTIONARY
360
5E41
102
}
330
2
100
AcDbSymbolTableRecord
100
AcDbLayerTableRecord
  2
0
 70
     0
 62
     7
  6
Continuous
370
    -3
390
1D
  0
ENDTAB
  0
TABLE
  2
STYLE
  5
3
330
0
100
AcDbSymbolTable
 70
     1
  0
STYLE
  5
17
330
3
100
AcDbSymbolTableRecord
100
AcDbTextStyleTableRecord
  2
Standard
 70
     0
 40
0.0
 41
1.0
 50
0.0
 71
     0
 42
0.0
  3
I011000D.TTF
  4

1001
ACAD
1000
IsonormD
1071
        0
  0
ENDTAB
  0
TABLE
  2
VIEW
  5
5
330
0
100
AcDbSymbolTable
 70
     0
  0
ENDTAB
  0
TABLE
  2
UCS
  5
6
330
0
100
AcDbSymbolTable
 70
     0
  0
ENDTAB
  0
TABLE
  2
APPID
  5
8
330
0
100
AcDbSymbolTable
 70
     6
  0
APPID
  5
16
330
8
100
AcDbSymbolTableRecord
100
AcDbRegAppTableRecord
  2
ACAD
 70
     0
  0
APPID
  5
26
330
8
100
AcDbSymbolTableRecord
100
AcDbRegAppTableRecord
  2
TopSolid'Draft
 70
     0
  0
APPID
  5
319D
330
8
100
AcDbSymbolTableRecord
100
AcDbRegAppTableRecord
  2
ACAD_MLEADERVER
 70
     0
  0
APPID
  5
5E45
330
8
100
AcDbSymbolTableRecord
100
AcDbRegAppTableRecord
  2
DCO15
 70
     0
  0
APPID
  5
638E
330
8
100
AcDbSymbolTableRecord
100
AcDbRegAppTableRecord
  2
ACAD_EXEMPT_FROM_CAD_STANDARDS
 70
     0
  0
APPID
  5
6397
330
8
100
AcDbSymbolTableRecord
100
AcDbRegAppTableRecord
  2
ACAD_DSTYLE_DIMRADIAL_EXTENSION
 70
     0
  0
ENDTAB
  0
TABLE
  2
DIMSTYLE
  5
9
330
0
100
AcDbSymbolTable
 70
     2
100
AcDbDimStyleTable
 71
     1
340
18
  0
DIMSTYLE
105
18
330
9
100
AcDbSymbolTableRecord
100
AcDbDimStyleTableRecord
  2
Standard
 70
     0
 41
1.25
 42
0.0
 44
0.75
 73
     0
 74
     0
 77
     1
140
2.5
146
0.8
147
1.25
176
     7
177
     7
178
     7
271
     2
340
17
  0
ENDTAB
  0
TABLE
  2
BLOCK_RECORD
  5
1
330
0
100
AcDbSymbolTable
 70
     2
  0
BLOCK_RECORD
  5
A
102
{ACAD_XDICTIONARY
360
31A7
102
}
330
1
100
AcDbSymbolTableRecord
100
AcDbBlockTableRecord
  2
*MODEL_SPACE
340
20
  0
BLOCK_RECORD
  5
B
330
1
100
AcDbSymbolTableRecord
100
AcDbBlockTableRecord
  2
*PAPER_SPACE
340
21
  0
ENDTAB
  0
ENDSEC
  0
SECTION
  2
BLOCKS
  0
BLOCK
  5
D
330
A
100
AcDbEntity
  8
0
100
AcDbBlockBegin
  2
*MODEL_SPACE
 70
     0
 10
0.0
 20
0.0
 30
0.0
  3
*MODEL_SPACE
  1

  0
ENDBLK
  5
E
330
A
100
AcDbEntity
  8
0
100
AcDbBlockEnd
  0
BLOCK
  5
F
330
B
100
AcDbEntity
 67
     1
  8
0
100
AcDbBlockBegin
  2
*PAPER_SPACE
 70
     0
 10
0.0
 20
0.0
 30
0.0
  3
*PAPER_SPACE
  1

  0
ENDBLK
  5
10
330
B
100
AcDbEntity
 67
     1
  8
0
100
AcDbBlockEnd
  0
ENDSEC
  0
SECTION
  2
ENTITIES
  0
LINE
  5
19B6
330
A
100
AcDbEntity
  8
0
  6
CENTER
 62
     1
100
AcDbLine
 10
-87.24999999848531
 20
-55.79710894630847
 30
0.0
 11
-87.24999999848531
 21
-48.49710894630845
 31
0.0
  0
LINE
  5
19B7
330
A
100
AcDbEntity
  8
0
  6
CENTER
 62
     1
100
AcDbLine
 10
-115.2499999984853
 20
-52.14710894448273
 30
0.0
 11
-34.74999999848532
 21
-52.14710894973177
 31
0.0
  0
LINE
  5
19B8
330
A
100
AcDbEntity
  8
0
  6
CENTER
 62
     1
100
AcDbLine
 10
-14.49999999999998
 20
-0.0000000000000568
 30
0.0
 11
14.5
 21
-0.0000000000000568
 31
0.0
  0
LINE
  5
19B9
330
A
100
AcDbEntity
  8
0
  6
CENTER
 62
     1
100
AcDbLine
 10
0.0
 20
-14.50000000000005
 30
0.0
 11
0.0
 21
14.50000000000005
 31
0.0
  0
LINE
  5
19BA
330
A
100
AcDbEntity
  8
0
  6
CENTER
 62
     1
100
AcDbLine
 10
-115.2499999984853
 20
50.35289105297761
 30
0.0
 11
-34.74999999848532
 21
50.35289105822653
 31
0.0
  0
LINE
  5
19BB
330
A
100
AcDbEntity
  8
0
  6
CENTER
 62
     1
100
AcDbLine
 10
-115.2499999984853
 20
-0.0000000000000568
 30
0.0
 11
-34.74999999848532
 21
-0.0000000000000568
 31
0.0
  0
ELLIPSE
  5
430C
330
A
100
AcDbEntity
  8
0
  6
Continuous
 62
     7
370
     0
100
AcDbEllipse
 10
6.617306765589106
 20
-41.51183595307156
 30
0.0
 11
1.039999999999998
 21
0.000000000032585
 31
0.0
210
0.0
220
0.0
230
1.0
 40
0.4082482905160707
 41
6.17839870123313
 42
7.270952381469411
  0
ELLIPSE
  5
430D
330
A
100
AcDbEntity
  8
0
  6
Continuous
 62
     7
370
     0
100
AcDbEllipse
 10
6.617306765589106
 20
-41.51183595307156
 30
0.0
 11
1.039999999999998
 21
0.000000000032585
 31
0.0
210
0.0
220
0.0
230
1.0
 40
0.4082482905160707
 41
0.9877670742898258
 42
2.153825579299924
  0
ELLIPSE
  5
430E
330
A
100
AcDbEntity
  8
0
  6
Continuous
 62
     7
370
     0
100
AcDbEllipse
 10
6.617306765589106
 20
-41.51183595307156
 30
0.0
 11
1.039999999999998
 21
0.000000000032585
 31
-0.0000000000000001
210
0.0000000000000001
220
0.0
230
1.0
 40
0.4082482905160707
 41
2.153825579299923
 42
2.935800703121495
  0
LINE
  5
430F
330
A
100
AcDbEntity
  8
0
  6
Continuous
 62
     7
370
     0
100
AcDbLine
 10
5.810398766955302
 20
-41.47464397841491
 30
0.0
 11
5.791070318398112
 21
-41.34318114452923
 31
0.0
  0
LINE
  5
4310
330
A
100
AcDbEntity
  8
0
  6
Continuous
 62
     7
370
     0
100
AcDbLine
 10
7.388195865584492
 20
-41.30404465995996
 30
0.0
 11
7.429950336358487
 21
-41.58803853764277
 31
0.0
  0
LINE
  5
4311
330
A
100
AcDbEntity
  8
0
  6
Continuous
 62
     7
370
     0
100
AcDbLine
 10
6.561959418393612
 20
-41.1353898514177
 30
0.0
 11
7.388195865584492
 21
-41.30404465995996
 31
0.0
  0
LINE
  5
4312
330
A
100
AcDbEntity
  8
0
  6
Continuous
 62
     7
370
     0
100
AcDbLine
 10
5.791070318398112
 20
-41.34318114452923
 30
0.0
 11
6.561959418393612
 21
-41.1353898514177
 31
0.0
  0
LINE
  5
4313
330
A
100
AcDbEntity
  8
0
  6
Continuous
 62
     7
370
     0
100
AcDbLine
 10
7.388195865584492
 20
-41.30404465995996
 30
0.0
 11
7.388195865593488
 21
-41.59196610238166
 31
0.0
  0
LINE
  5
4314
330
A
100
AcDbEntity
  8
0
  6
Continuous
 62
     7
370
     0
100
AcDbLine
 10
6.561959418393612
 20
-41.1353898514177
 30
0.0
 11
6.56195941840761
 21
-41.58441312273504
 31
0.0
  0
ELLIPSE
  5
4315
330
A
100
AcDbEntity
  8
0
  6
Continuous
 62
     9
370
     0
100
AcDbEllipse
 10
-2.684736021840208
 20
-57.57836430625275
 30
0.0
 11
-6.324555319718164
 21
7.745966692919935
 31
-0.0000000000000001
210
0.0
220
0.0
230
1.0
 40
0.8164965809011054
 41
5.497787143847346
 42
6.283287233407891
  0
ELLIPSE
  5
4316
330
A
100
AcDbEntity
  8
0
  6
Continuous
 62
     9
370
     0
100
AcDbEllipse
 10
-2.684736021840208
 20
-57.57836430625275
 30
0.0
 11
-6.324555319718164
 21
7.745966692919935
 31
0.0000000000000002
210
0.0
220
-0.0000000000000001
230
1.0
 40
0.8164965809011054
 41
3.142035185827288
 42
5.497787143847342
  0
ELLIPSE
  5
4317
330
A
100
AcDbEntity
  8
0
  6
Continuous
 62
     9
370
     0
100
AcDbEllipse
 10
-3.042506898286802
 20
-57.87048300357941
 30
0.0
 11
5.818590894140704
 21
-7.126289357486326
 31
-0.0000000000000005
210
0.0000000000000001
220
0.0
230
1.0
 40
0.8164965809011043
 41
0.0
 42
6.283185307179585
  0
ELLIPSE
  5
431E
330
A
100
AcDbEntity
  8
0
  6
Continuous
 62
     7
370
     0
100
AcDbEllipse
 10
9.372142514411109
 20
-47.73396420634759
 30
0.0
 11
6.324555319718148
 21
-7.745966692919935
 31
0.0000000000000001
210
0.0
220
0.0
230
1.0
 40
0.8164965809011054
 41
6.283185307179581
 42
8.63937979743714
  0
ARC
  5
431F
330
A
100
AcDbEntity
  8
0
  6
Continuous
 62
     7
370
     0
100
AcDbCircle
 10
-3.210351923857714
 20
-54.42890671970815
 30
0.0
 40
7.436964167996976
100
AcDbArc
 50
74.54637373297109
 51
115.6175315353395
  0
ELLIPSE
  5
4320
330
A
100
AcDbEntity
  8
0
  6
Continuous
 62
     7
370
     0
100
AcDbEllipse
 10
9.372142514411109
 20
-47.73396420634759
 30
0.0
 11
6.324555319718177
 21
-7.745966692919934
 31
-0.0000000000000002
210
0.0
220
-0.0000000000000001
230
1.0
 40
0.8164965809011054
 41
2.356194490257553
 42
3.141592653589792
  0
LINE
  5
4321
330
A
100
AcDbEntity
  8
0
  6
Continuous
 62
     7
370
     0
100
AcDbLine
 10
5.848099384779601
 20
-41.48262408051169
 30
0.0
 11
4.977185639825492
 21
-41.17107824677908
 31
0.0
  0
LINE
  5
4327
330
A
100
AcDbEntity
  8
0
  6
Continuous
 62
     7
370
     0
100
AcDbLine
 10
-5.736799507501302
 20
-47.38632038310254
 30
0.0
 11
-2.291804691945102
 21
-44.34759279321127
 31
0.0
  0
LINE
  5
4328
330
A
100
AcDbEntity
  8
0
  6
Continuous
 62
     7
370
     0
100
AcDbLine
 10
7.890709876038613
 20
-41.49679217168517
 30
0.0
 11
7.937306765725779
 21
-41.33156858291402
 31
0.0
  0
ELLIPSE
  5
434D
330
A
100
AcDbEntity
  8
0
  6
Continuous
 62
     7
370
     0
100
AcDbEllipse
 10
12.34164078858909
 20
-45.30937901846994
 30
0.0
 11
5.05964425626941
 21
-6.196773353931871
 31
-0.0000000000000003
210
0.0000000000000001
220
0.0000000000000001
230
1.0
 40
0.816496580927726
 41
0.1868499684223954
 42
2.356194490192344
  0
ELLIPSE
  5
434E
330
A
100
AcDbEntity
  8
0
  6
Continuous
 62
     7
370
     0
100
AcDbEllipse
 10
12.69941166498898
 20
-45.0172603211339
 30
0.0
 11
5.05964425626941
 21
-6.196773353931871
 31
-0.0000000000000003
210
0.0000000000000001
220
0.0000000000000001
230
1.0
 40
0.816496580927726
 41
0.0990427464719267
 42
2.356194490192346
  0
ELLIPSE
  5
434F
330
A
100
AcDbEntity
  8
0
  6
Continuous
 62
     7
370
     0
100
AcDbEllipse
 10
12.34164078858909
 20
-45.30937901846994
 30
0.0
 11
5.05964425626941
 21
-6.196773353931871
 31
-0.0000000000000003
210
0.0000000000000001
220
0.0000000000000001
230
1.0
 40
0.816496580927726
 41
2.356194490192344
 42
2.954742685061953
  0
ELLIPSE
  5
4350
330
A
100
AcDbEntity
  8
0
  6
Continuous
 62
     7
370
     0
100
AcDbEllipse
 10
12.69941166498898
 20
-45.0172603211339
 30
0.0
 11
5.05964425626941
 21
-6.196773353931871
 31
-0.0000000000000003
210
0.0000000000000001
220
0.0000000000000001
230
1.0
 40
0.816496580927726
 41
2.356194490192344
 42
3.042549907025361
  0
ELLIPSE
  5
4351
330
A
100
AcDbEntity
  8
0
  6
Continuous
 62
     7
370
     0
100
AcDbEllipse
 10
12.520526226789
 20
-45.16331966980186
 30
0.0
 11
6.172765992648683
 21
-7.560063491796888
 31
-0.0000000000000003
210
0.0000000000000001
220
0.0000000000000001
230
1.0
 40
0.8164965809277264
 41
2.356194490192345
 42
3.349300465587223
  0
ELLIPSE
  5
4352
330
A
100
AcDbEntity
  8
0
  6
Continuous
 62
     7
370
     0
100
AcDbEllipse
 10
12.520526226789
 20
-45.16331966980186
 30
0.0
 11
6.172765992648683
 21
-7.560063491796888
 31
-0.0000000000000003
210
0.0000000000000001
220
0.0000000000000001
230
1.0
 40
0.8164965809277264
 41
6.075477495124831
 42
8.639379797371931
  0
ELLIPSE
  5
4353
330
A
100
AcDbEntity
  8
0
  6
Continuous
 62
     7
370
     0
100
AcDbEllipse
 10
12.627857489709
 20
-45.07568406060102
 30
0.0
 11
-6.324555320336723
 21
7.745966692414785
 31
0.0000000000000003
210
0.0000000000000001
220
0.0000000000000001
230
1.0
 40
0.8164965809277262
 41
3.141592653589788
 42
5.497787143782135
  0
ELLIPSE
  5
4354
330
A
100
AcDbEntity
  8
0
  6
Continuous
 62
     7
370
     0
100
AcDbEllipse
 10
12.520526226789
 20
-45.16331966980186
 30
0.0
 11
5.312626469082898
 21
-6.506612021628498
 31
-0.0000000000000003
210
0.0000000000000001
220
0.0000000000000001
230
1.0
 40
0.816496580927726
 41
2.356194490192349
 42
3.085852350677806
  0
ARC
  5
4355
330
A
100
AcDbEntity
  8
0
  6
Continuous
 62
     7
370
     0
100
AcDbCircle
 10
21.81307011102929
 20
-35.91819697886979
 30
0.0
 40
8.742163165686253
100
AcDbArc
 50
80.68091493700595
 51
133.6755797131216
  0
ELLIPSE
  5
4356
330
A
100
AcDbEntity
  8
0
  6
Continuous
 62
     9
370
     0
100
AcDbEllipse
 10
24.6847360243879
 20
-35.23128396037492
 30
0.0
 11
6.324555320336738
 21
-7.745966692414784
 31
-0.0000000000000003
210
0.0000000000000001
220
0.0000000000000001
230
1.0
 40
0.8164965809277259
 41
0.0000000000000034
 42
2.35619449019234
  0
ELLIPSE
  5
4357
330
A
100
AcDbEntity
  8
0
  6
Continuous
 62
     7
370
     0
100
AcDbEllipse
 10
12.627857489709
 20
-45.07568406060102
 30
0.0
 11
-6.324555320336723
 21
7.745966692414785
 31
0.0000000000000003
210
0.0000000000000001
220
0.0000000000000001
230
1.0
 40
0.8164965809277262
 41
5.497787143782135
 42
6.283185307179585
  0
ELLIPSE
  5
4358
330
A
100
AcDbEntity
  8
0
  6
Continuous
 62
     7
370
     0
100
AcDbEllipse
 10
12.627857489709
 20
-45.07568406060102
 30
0.0
 11
-6.324555320336723
 21
7.745966692414785
 31
0.0000000000000003
210
0.0000000000000001
220
0.0000000000000001
230
1.0
 40
0.8164965809277262
 41
2.881275670365408
 42
3.141592653589788
  0
ELLIPSE
  5
4359
330
A
100
AcDbEntity
  8
0
  6
Continuous
 62
     7
370
     0
100
AcDbEllipse
 10
12.627857489709
 20
-45.07568406060102
 30
0.0
 11
-6.324555320336723
 21
7.745966692414785
 31
0.0000000000000003
210
0.0000000000000001
220
0.0000000000000001
230
1.0
 40
0.8164965809277262
 41
0.0
 42
0.2603169831738501
  0
ELLIPSE
  5
435F
330
A
100
AcDbEntity
  8
0
  6
Continuous
 62
     9
370
     0
100
AcDbEllipse
 10
24.6847360243879
 20
-35.23128396037492
 30
0.0
 11
6.324555320336738
 21
-7.745966692414784
 31
-0.0000000000000003
210
0.0000000000000001
220
0.0000000000000001
230
1.0
 40
0.8164965809277259
 41
2.35619449019234
 42
3.141592653589781
  0
ELLIPSE
  5
4360
330
A
100
AcDbEntity
  8
0
  6
Continuous
 62
     7
370
     0
100
AcDbEllipse
 10
12.520526226789
 20
-45.16331966980186
 30
0.0
 11
5.312626469082898
 21
-6.506612021628498
 31
-0.0000000000000003
210
0.0000000000000001
220
0.0000000000000001
230
1.0
 40
0.816496580927726
 41
0.0557403028221848
 42
2.356194490192347
  0
LINE
  5
4361
330
A
100
AcDbEntity
  8
0
  6
Continuous
 62
     7
370
     0
100
AcDbLine
 10
12.32946242020898
 20
-32.63520383889016
 30
0.0
 11
15.77595769515649
 21
-29.59532654736518
 31
0.0
  0
LINE
  5
4367
330
A
100
AcDbEntity
  8
0
  6
Continuous
 62
     7
370
     0
100
AcDbLine
 10
7.498195205677703
 20
-41.24040899660889
 30
0.0
 11
7.189884251641103
 21
-41.15739860018618
 31
0.0
  0
LINE
  5
4368
330
A
100
AcDbEntity
  8
0
  6
Continuous
 62
     7
370
     0
100
AcDbLine
 10
6.044729279514783
 20
-41.15739860022211
 30
0.0
 11
5.736418325483285
 21
-41.24040899666403
 31
0.0
  0
LINE
  5
436F
330
A
100
AcDbEntity
  8
0
  6
Continuous
 62
     7
370
     0
100
AcDbLine
 10
-6.425649968083703
 20
-47.72286326589136
 30
0.0
 11
-9.009291341558309
 21
-49.83239761333289
 31
0.0
  0
LINE
  5
4370
330
A
100
AcDbEntity
  8
0
  6
Continuous
 62
     7
370
     0
100
AcDbLine
 10
3.047587194692894
 20
-39.98799751342767
 30
0.0
 11
-2.291624912990215
 21
-44.34744594348825
 31
0.0
  0
LINE
  5
4371
330
A
100
AcDbEntity
  8
0
  6
Continuous
 62
     7
370
     0
100
AcDbLine
 10
3.639819297877991
 20
-65.32433099917273
 30
0.0
 11
15.69669783412919
 21
-55.4799308992674
 31
0.0
  0
LINE
  5
4372
330
A
100
AcDbEntity
  8
0
  6
Continuous
 62
     7
370
     0
100
AcDbLine
 10
18.9524128100458
 20
-52.82165075301588
 30
0.0
 11
31.0092913447247
 21
-42.97725065278979
 31
0.0
  0
LINE
  5
4373
330
A
100
AcDbEntity
  8
0
  6
Continuous
 62
     7
370
     0
100
AcDbLine
 10
11.64260554857941
 20
-32.97019441452773
 30
0.0
 11
6.303302169372287
 21
-37.32971736818627
 31
0.0
  0
LINE
  5
4374
330
A
100
AcDbEntity
  8
0
  6
Continuous
 62
     7
370
     0
100
AcDbLine
 10
18.3601807040511
 20
-27.48531726796006
 30
0.0
 11
15.77607931877249
 21
-29.59522721381075
 31
0.0
  0
LINE
  5
4375
330
A
100
AcDbEntity
  8
0
  6
Continuous
 62
     7
370
     0
100
AcDbLine
 10
31.01218668732018
 20
-42.97488531411545
 30
0.0
 11
31.1109874595201
 21
-42.89258595610192
 31
0.0
  0
LINE
  5
4376
330
A
100
AcDbEntity
  8
0
  6
Continuous
 62
     7
370
     0
100
AcDbLine
 10
31.1109874595201
 20
-42.89258595610192
 30
0.0
 11
31.64303807198037
 21
-42.39042495914406
 31
0.0
  0
ARC
  5
437C
330
A
100
AcDbEntity
  8
0
  6
Continuous
 62
     7
370
     0
100
AcDbCircle
 10
23.11160271048969
 20
-33.63757637475425
 30
0.0
 40
7.7839396143704
100
AcDbArc
 50
77.13497625373482
 51
124.403559386641
  0
LINE
  5
437D
330
A
100
AcDbEntity
  8
0
  6
Continuous
 62
     7
370
     0
100
AcDbLine
 10
18.7135346868301
 20
-27.21521593801237
 30
0.0
 11
18.38758879745079
 21
-27.46305473320518
 31
0.0
  0
LINE
  5
437E
330
A
100
AcDbEntity
  8
0
  6
Continuous
 62
     7
370
     0
100
AcDbLine
 10
18.38758879745079
 20
-27.46305473320518
 30
0.0
 11
18.35951273722428
 21
-27.48586272982993
 31
0.0
  0
LINE
  5
4723
330
A
100
AcDbEntity
  8
0
  6
Continuous
 62
     7
370
     0
100
AcDbLine
 10
-79.24999999928082
 20
62.55289105532501
 30
0.0
 11
-79.2499999976898
 21
38.15289105532503
 31
0.0
  0
LINE
  5
4724
330
A
100
AcDbEntity
  8
0
  6
Continuous
 62
     7
370
     0
100
AcDbLine
 10
-79.54999999767025
 20
37.85289105530547
 30
0.0
 11
-79.54999999930038
 21
62.85289105530543
 31
0.0
  0
LINE
  5
4725
330
A
100
AcDbEntity
  8
0
  6
Continuous
 62
     9
370
     0
100
AcDbLine
 10
-113.2499999993003
 20
62.85289105310795
 30
0.0
 11
-113.2499999976702
 21
37.85289105310801
 31
0.0
  0
LINE
  5
4726
330
A
100
AcDbEntity
  8
0
  6
Continuous
 62
     7
370
     0
100
AcDbLine
 10
-114.2499999977354
 20
38.85289105304276
 30
0.0
 11
-114.2499999992351
 21
61.85289105304284
 31
0.0
  0
LINE
  5
4727
330
A
100
AcDbEntity
  8
0
  6
Continuous
 62
     7
370
     0
100
AcDbLine
 10
-71.2499999984853
 20
40.35289105538686
 30
0.0
 11
-71.2499999984853
 21
60.35289105538686
 31
0.0
  0
LINE
  5
4728
330
A
100
AcDbEntity
  8
0
  6
Continuous
 62
     9
370
     0
100
AcDbLine
 10
-36.74999999848532
 20
37.85289105538686
 30
0.0
 11
-36.74999999848532
 21
62.85289105538684
 31
0.0
  0
LINE
  5
4729
330
A
100
AcDbEntity
  8
0
  6
Continuous
 62
     7
370
     0
100
AcDbLine
 10
-70.44999999848531
 20
62.85289105538684
 30
0.0
 11
-70.44999999848531
 21
37.85289105538686
 31
0.0
  0
LINE
  5
472A
330
A
100
AcDbEntity
  8
0
  6
Continuous
 62
     7
370
     0
100
AcDbLine
 10
-35.74999999848532
 20
61.85289105538683
 30
0.0
 11
-35.74999999848532
 21
38.85289105538686
 31
0.0
  0
LINE
  5
472B
330
A
100
AcDbEntity
  8
0
  6
Continuous
 62
     7
370
     0
100
AcDbLine
 10
-70.74999999848531
 20
38.15289105538687
 30
0.0
 11
-70.74999999848531
 21
62.55289105538685
 31
0.0
  0
LINE
  5
472C
330
A
100
AcDbEntity
  8
0
  6
Continuous
 62
     9
370
     0
100
AcDbLine
 10
-71.2499999984853
 20
52.85289105494803
 30
0.0
 11
-79.24999999880717
 21
52.85289105450937
 31
0.0
  0
LINE
  5
472D
330
A
100
AcDbEntity
  8
0
  6
Continuous
 62
     9
370
     0
100
AcDbLine
 10
-79.24999999816344
 20
47.85289105450937
 30
0.0
 11
-71.2499999984853
 21
47.85289105494803
 31
0.0
  0
LINE
  5
472E
330
A
100
AcDbEntity
  8
0
  6
Continuous
 62
     7
370
     0
100
AcDbLine
 10
-79.54999999767025
 20
37.85289105530547
 30
0.0
 11
-79.2499999976898
 21
38.15289105532503
 31
0.0
  0
LINE
  5
472F
330
A
100
AcDbEntity
  8
0
  6
Continuous
 62
     7
370
     0
100
AcDbLine
 10
-79.24999999928082
 20
62.55289105532501
 30
0.0
 11
-79.54999999930038
 21
62.85289105530543
 31
0.0
  0
LINE
  5
4730
330
A
100
AcDbEntity
  8
0
  6
Continuous
 62
     7
370
     0
100
AcDbLine
 10
-79.54999999930038
 20
62.85289105530543
 30
0.0
 11
-113.2499999993003
 21
62.85289105310795
 31
0.0
  0
LINE
  5
4731
330
A
100
AcDbEntity
  8
0
  6
Continuous
 62
     7
370
     0
100
AcDbLine
 10
-113.2499999976702
 20
37.85289105310801
 30
0.0
 11
-79.54999999767025
 21
37.85289105530547
 31
0.0
  0
ARC
  5
4732
330
A
100
AcDbEntity
  8
0
  6
Continuous
 62
     7
370
     0
100
AcDbCircle
 10
-113.2499999992351
 20
61.85289105310795
 30
0.0
 40
1.0
100
AcDbArc
 50
90.00000000373566
 51
180.0000000037356
  0
ARC
  5
4733
330
A
100
AcDbEntity
  8
0
  6
Continuous
 62
     7
370
     0
100
AcDbCircle
 10
-113.2499999977354
 20
38.85289105310801
 30
0.0
 40
1.000000000000001
100
AcDbArc
 50
180.0000000037356
 51
270.0000000037365
  0
LINE
  5
4734
330
A
100
AcDbEntity
  8
0
  6
Continuous
 62
     7
370
     0
100
AcDbLine
 10
-71.2499999984853
 20
40.35289105538686
 30
0.0
 11
-70.74999999848531
 21
40.35289105538686
 31
0.0
  0
LINE
  5
4735
330
A
100
AcDbEntity
  8
0
  6
Continuous
 62
     7
370
     0
100
AcDbLine
 10
-70.74999999848531
 20
60.35289105538686
 30
0.0
 11
-71.2499999984853
 21
60.35289105538686
 31
0.0
  0
LINE
  5
4736
330
A
100
AcDbEntity
  8
0
  6
Continuous
 62
     7
370
     0
100
AcDbLine
 10
-70.44999999848531
 20
37.85289105538686
 30
0.0
 11
-36.74999999848532
 21
37.85289105538686
 31
0.0
  0
LINE
  5
4737
330
A
100
AcDbEntity
  8
0
  6
Continuous
 62
     7
370
     0
100
AcDbLine
 10
-36.74999999848532
 20
62.85289105538684
 30
0.0
 11
-70.44999999848531
 21
62.85289105538684
 31
0.0
  0
ARC
  5
4738
330
A
100
AcDbEntity
  8
0
  6
Continuous
 62
     7
370
     0
100
AcDbCircle
 10
-36.74999999848532
 20
38.85289105538686
 30
0.0
 40
1.0
100
AcDbArc
 50
270.0
 51
0.0
  0
ARC
  5
4739
330
A
100
AcDbEntity
  8
0
  6
Continuous
 62
     7
370
     0
100
AcDbCircle
 10
-36.74999999848532
 20
61.85289105538683
 30
0.0
 40
1.0
100
AcDbArc
 50
0.0
 51
90.0
  0
LINE
  5
473A
330
A
100
AcDbEntity
  8
0
  6
Continuous
 62
     7
370
     0
100
AcDbLine
 10
-70.44999999848531
 20
62.85289105538684
 30
0.0
 11
-70.74999999848531
 21
62.55289105538685
 31
0.0
  0
LINE
  5
473B
330
A
100
AcDbEntity
  8
0
  6
Continuous
 62
     7
370
     0
100
AcDbLine
 10
-70.74999999848531
 20
38.15289105538687
 30
0.0
 11
-70.44999999848531
 21
37.85289105538686
 31
0.0
  0
LINE
  5
473C
330
A
100
AcDbEntity
  8
0
  6
Continuous
 62
     7
370
     0
100
AcDbLine
 10
-71.24999999848589
 20
53.35289105494803
 30
0.0
 11
-79.24999999887268
 21
53.35289105450943
 31
0.0
  0
LINE
  5
473D
330
A
100
AcDbEntity
  8
0
  6
Continuous
 62
     7
370
     0
100
AcDbLine
 10
-79.24999999810023
 20
47.35289105450914
 30
0.0
 11
-71.24999999848589
 21
47.35289105494786
 31
0.0
  0
ARC
  5
473E
330
A
100
AcDbEntity
  8
0
  6
Continuous
 62
     7
370
     0
100
AcDbCircle
 10
0.0
 20
-0.0000000000000568
 30
0.0
 40
12.5
100
AcDbArc
 50
90.0
 51
0.0
  0
ARC
  5
473F
330
A
100
AcDbEntity
  8
0
  6
Continuous
 62
     7
370
     0
100
AcDbCircle
 10
0.0
 20
-0.0000000000000568
 30
0.0
 40
12.50000000000001
100
AcDbArc
 50
0.0
 51
90.0
  0
CIRCLE
  5
4740
330
A
100
AcDbEntity
  8
0
  6
Continuous
 62
     9
370
     0
100
AcDbCircle
 10
-0.0000000000652136
 20
-0.0000000000000568
 30
0.0
 40
11.49999999999995
  0
ARC
  5
4741
330
A
100
AcDbEntity
  8
0
  6
Continuous
 62
     9
370
     0
100
AcDbCircle
 10
-87.25001897426309
 20
-52.14712792208615
 30
0.0
 40
1.999981024312237
100
AcDbArc
 50
270.0005436174123
 51
179.9994563751172
  0
CIRCLE
  5
4742
330
A
100
AcDbEntity
  8
0
  6
Continuous
 62
     7
370
     0
100
AcDbCircle
 10
-87.24999999899685
 20
-52.14710894630844
 30
0.0
 40
1.299999999999966
  0
LINE
  5
4743
330
A
100
AcDbEntity
  8
0
  6
Continuous
 62
     7
370
     0
100
AcDbLine
 10
-88.24999999899684
 20
-51.56975867711889
 30
0.0
 11
-87.24999999899685
 21
-50.99240840792913
 31
0.0
  0
LINE
  5
4744
330
A
100
AcDbEntity
  8
0
  6
Continuous
 62
     7
370
     0
100
AcDbLine
 10
-88.24999999899684
 20
-52.72445921549802
 30
0.0
 11
-88.24999999899684
 21
-51.56975867711889
 31
0.0
  0
LINE
  5
4745
330
A
100
AcDbEntity
  8
0
  6
Continuous
 62
     7
370
     0
100
AcDbLine
 10
-87.24999999899685
 20
-53.30180948468774
 30
0.0
 11
-88.24999999899684
 21
-52.72445921549802
 31
0.0
  0
LINE
  5
4746
330
A
100
AcDbEntity
  8
0
  6
Continuous
 62
     7
370
     0
100
AcDbLine
 10
-86.24999999899683
 20
-52.72445921549802
 30
0.0
 11
-87.24999999899685
 21
-53.30180948468774
 31
0.0
  0
LINE
  5
4747
330
A
100
AcDbEntity
  8
0
  6
Continuous
 62
     7
370
     0
100
AcDbLine
 10
-86.24999999899683
 20
-51.56975867711889
 30
0.0
 11
-86.24999999899683
 21
-52.72445921549802
 31
0.0
  0
LINE
  5
4748
330
A
100
AcDbEntity
  8
0
  6
Continuous
 62
     7
370
     0
100
AcDbLine
 10
-87.24999999899685
 20
-50.99240840792913
 30
0.0
 11
-86.24999999899683
 21
-51.56975867711889
 31
0.0
  0
LINE
  5
4749
330
A
100
AcDbEntity
  8
0
  6
Continuous
 62
     9
370
     0
100
AcDbLine
 10
-113.2499999976702
 20
-39.64710894461319
 30
0.0
 11
-113.2499999984853
 21
-52.14710894461319
 31
0.0
  0
LINE
  5
474A
330
A
100
AcDbEntity
  8
0
  6
Continuous
 62
     7
370
     0
100
AcDbLine
 10
-79.54999999930038
 20
-64.64710894681053
 30
0.0
 11
-79.54999999848531
 21
-52.14710894681053
 31
0.0
  0
LINE
  5
4754
330
A
100
AcDbEntity
  8
0
  6
Continuous
 62
     9
370
     0
100
AcDbLine
 10
-113.2499999984853
 20
-52.14710894461319
 30
0.0
 11
-113.2499999993003
 21
-64.64710894461302
 31
0.0
  0
LINE
  5
4755
330
A
100
AcDbEntity
  8
0
  6
Continuous
 62
     7
370
     0
100
AcDbLine
 10
-79.54999999848531
 20
-52.14710894681053
 30
0.0
 11
-79.54999999767025
 21
-39.64710894681053
 31
0.0
  0
CIRCLE
  5
475A
330
A
100
AcDbEntity
  8
0
  6
Continuous
 62
     7
370
     0
100
AcDbCircle
 10
-87.24999999848531
 20
-52.14710894630844
 30
0.0
 40
1.650000000000002
  0
LINE
  5
475B
330
A
100
AcDbEntity
  8
0
  6
Continuous
 62
     7
370
     0
100
AcDbLine
 10
-114.2499999992351
 20
-63.64710894454794
 30
0.0
 11
-114.2499999984853
 21
-52.14710894454793
 31
0.0
  0
LINE
  5
475C
330
A
100
AcDbEntity
  8
0
  6
Continuous
 62
     7
370
     0
100
AcDbLine
 10
-114.2499999984853
 20
-52.14710894454793
 30
0.0
 11
-114.2499999977354
 21
-40.64710894454793
 31
0.0
  0
LINE
  5
475D
330
A
100
AcDbEntity
  8
0
  6
Continuous
 62
     7
370
     0
100
AcDbLine
 10
-79.2499999976898
 20
-39.94710894683021
 30
0.0
 11
-79.24999999848532
 21
-52.1471089468302
 31
0.0
  0
LINE
  5
475E
330
A
100
AcDbEntity
  8
0
  6
Continuous
 62
     7
370
     0
100
AcDbLine
 10
-79.24999999848532
 20
-52.1471089468302
 30
0.0
 11
-79.24999999928082
 21
-64.34710894683007
 31
0.0
  0
LINE
  5
475F
330
A
100
AcDbEntity
  8
0
  6
Continuous
 62
     7
370
     0
100
AcDbLine
 10
-71.2499999984853
 20
-62.14710894689194
 30
0.0
 11
-71.2499999984853
 21
-52.14710894689194
 31
0.0
  0
LINE
  5
4760
330
A
100
AcDbEntity
  8
0
  6
Continuous
 62
     7
370
     0
100
AcDbLine
 10
-71.2499999984853
 20
-52.14710894689194
 30
0.0
 11
-71.2499999984853
 21
-42.14710894689193
 31
0.0
  0
LINE
  5
4761
330
A
100
AcDbEntity
  8
0
  6
Continuous
 62
     7
370
     0
100
AcDbLine
 10
-70.74999999848531
 20
-64.34710894689192
 30
0.0
 11
-70.74999999848531
 21
-52.14710894689194
 31
0.0
  0
LINE
  5
4762
330
A
100
AcDbEntity
  8
0
  6
Continuous
 62
     7
370
     0
100
AcDbLine
 10
-70.44999999848531
 20
-39.64710894689194
 30
0.0
 11
-70.44999999848531
 21
-52.14710894689194
 31
0.0
  0
LINE
  5
4763
330
A
100
AcDbEntity
  8
0
  6
Continuous
 62
     7
370
     0
100
AcDbLine
 10
-70.74999999848531
 20
-52.14710894689194
 30
0.0
 11
-70.74999999848531
 21
-39.94710894689195
 31
0.0
  0
LINE
  5
4764
330
A
100
AcDbEntity
  8
0
  6
Continuous
 62
     7
370
     0
100
AcDbLine
 10
-70.44999999848531
 20
-52.14710894689194
 30
0.0
 11
-70.44999999848531
 21
-64.64710894689194
 31
0.0
  0
LINE
  5
476E
330
A
100
AcDbEntity
  8
0
  6
Continuous
 62
     9
370
     0
100
AcDbLine
 10
-36.74999999848532
 20
-64.64710894689194
 30
0.0
 11
-36.74999999848532
 21
-52.14710894689194
 31
0.0
  0
LINE
  5
476F
330
A
100
AcDbEntity
  8
0
  6
Continuous
 62
     9
370
     0
100
AcDbLine
 10
-36.74999999848532
 20
-52.14710894689194
 30
0.0
 11
-36.74999999848532
 21
-39.64710894689194
 31
0.0
  0
LINE
  5
4770
330
A
100
AcDbEntity
  8
0
  6
Continuous
 62
     7
370
     0
100
AcDbLine
 10
-35.74999999848532
 20
-40.64710894689193
 30
0.0
 11
-35.74999999848532
 21
-52.14710894689194
 31
0.0
  0
LINE
  5
4771
330
A
100
AcDbEntity
  8
0
  6
Continuous
 62
     7
370
     0
100
AcDbLine
 10
-35.74999999848532
 20
-52.14710894689194
 30
0.0
 11
-35.74999999848532
 21
-63.64710894689193
 31
0.0
  0
LINE
  5
4772
330
A
100
AcDbEntity
  8
0
  6
Continuous
 62
     9
370
     0
100
AcDbLine
 10
-71.2499999984853
 20
-49.6471089464531
 30
0.0
 11
-79.24999999816344
 21
-49.64710894601438
 31
0.0
  0
LINE
  5
4773
330
A
100
AcDbEntity
  8
0
  6
Continuous
 62
     9
370
     0
100
AcDbLine
 10
-79.24999999880717
 20
-54.64710894601438
 30
0.0
 11
-71.2499999984853
 21
-54.6471089464531
 31
0.0
  0
LINE
  5
4774
330
A
100
AcDbEntity
  8
0
  6
Continuous
 62
     7
370
     0
100
AcDbLine
 10
-79.54999999767025
 20
-39.64710894681053
 30
0.0
 11
-113.2499999976702
 21
-39.64710894461319
 31
0.0
  0
LINE
  5
4775
330
A
100
AcDbEntity
  8
0
  6
Continuous
 62
     7
370
     0
100
AcDbLine
 10
-113.2499999993003
 20
-64.64710894461302
 30
0.0
 11
-79.54999999930038
 21
-64.64710894681053
 31
0.0
  0
ARC
  5
4776
330
A
100
AcDbEntity
  8
0
  6
Continuous
 62
     7
370
     0
100
AcDbCircle
 10
-113.2499999977354
 20
-40.64710894461319
 30
0.0
 40
1.0
100
AcDbArc
 50
89.99999999626435
 51
179.9999999962643
  0
ARC
  5
4777
330
A
100
AcDbEntity
  8
0
  6
Continuous
 62
     7
370
     0
100
AcDbCircle
 10
-113.2499999992351
 20
-63.64710894461302
 30
0.0
 40
1.000000000000001
100
AcDbArc
 50
179.9999999962643
 51
269.9999999962627
  0
LINE
  5
4778
330
A
100
AcDbEntity
  8
0
  6
Continuous
 62
     7
370
     0
100
AcDbLine
 10
-79.54999999930038
 20
-64.64710894681053
 30
0.0
 11
-79.24999999928082
 21
-64.34710894683007
 31
0.0
  0
LINE
  5
4779
330
A
100
AcDbEntity
  8
0
  6
Continuous
 62
     7
370
     0
100
AcDbLine
 10
-79.2499999976898
 20
-39.94710894683021
 30
0.0
 11
-79.54999999767025
 21
-39.64710894681053
 31
0.0
  0
LINE
  5
477A
330
A
100
AcDbEntity
  8
0
  6
Continuous
 62
     7
370
     0
100
AcDbLine
 10
-71.2499999984853
 20
-62.14710894689194
 30
0.0
 11
-70.74999999848531
 21
-62.14710894689194
 31
0.0
  0
LINE
  5
477B
330
A
100
AcDbEntity
  8
0
  6
Continuous
 62
     7
370
     0
100
AcDbLine
 10
-70.74999999848531
 20
-42.14710894689193
 30
0.0
 11
-71.2499999984853
 21
-42.14710894689193
 31
0.0
  0
LINE
  5
477C
330
A
100
AcDbEntity
  8
0
  6
Continuous
 62
     7
370
     0
100
AcDbLine
 10
-70.44999999848531
 20
-39.64710894689194
 30
0.0
 11
-70.74999999848531
 21
-39.94710894689195
 31
0.0
  0
LINE
  5
477D
330
A
100
AcDbEntity
  8
0
  6
Continuous
 62
     7
370
     0
100
AcDbLine
 10
-70.74999999848531
 20
-64.34710894689192
 30
0.0
 11
-70.44999999848531
 21
-64.64710894689194
 31
0.0
  0
LINE
  5
477E
330
A
100
AcDbEntity
  8
0
  6
Continuous
 62
     7
370
     0
100
AcDbLine
 10
-70.44999999848531
 20
-64.64710894689194
 30
0.0
 11
-36.74999999848532
 21
-64.64710894689194
 31
0.0
  0
LINE
  5
477F
330
A
100
AcDbEntity
  8
0
  6
Continuous
 62
     7
370
     0
100
AcDbLine
 10
-36.74999999848532
 20
-39.64710894689194
 30
0.0
 11
-70.44999999848531
 21
-39.64710894689194
 31
0.0
  0
ARC
  5
4780
330
A
100
AcDbEntity
  8
0
  6
Continuous
 62
     7
370
     0
100
AcDbCircle
 10
-36.74999999848532
 20
-63.64710894689193
 30
0.0
 40
1.0
100
AcDbArc
 50
270.0
 51
0.0
  0
ARC
  5
4781
330
A
100
AcDbEntity
  8
0
  6
Continuous
 62
     7
370
     0
100
AcDbCircle
 10
-36.74999999848532
 20
-40.64710894689193
 30
0.0
 40
1.0
100
AcDbArc
 50
0.0
 51
90.0
  0
LINE
  5
4782
330
A
100
AcDbEntity
  8
0
  6
Continuous
 62
     7
370
     0
100
AcDbLine
 10
-71.24999999848589
 20
-49.14710894645293
 30
0.0
 11
-79.24999999810023
 21
-49.14710894601427
 31
0.0
  0
LINE
  5
4783
330
A
100
AcDbEntity
  8
0
  6
Continuous
 62
     7
370
     0
100
AcDbLine
 10
-79.24999999887268
 20
-55.14710894601439
 30
0.0
 11
-71.24999999848589
 21
-55.14710894645316
 31
0.0
  0
LINE
  5
4784
330
A
100
AcDbEntity
  8
0
  6
Continuous
 62
     7
370
     0
100
AcDbLine
 10
-79.54999999848531
 20
-12.49999999999994
 30
0.0
 11
-79.54999999848531
 21
12.49999999999994
 31
0.0
  0
LINE
  5
4785
330
A
100
AcDbEntity
  8
0
  6
Continuous
 62
     7
370
     0
100
AcDbLine
 10
-79.24999999848532
 20
12.19999999999993
 30
0.0
 11
-79.24999999848532
 21
-12.2000000000001
 31
0.0
  0
ARC
  5
4786
330
A
100
AcDbEntity
  8
0
  6
Continuous
 62
     7
370
     0
100
AcDbCircle
 10
-100.2499999984853
 20
17.00009744051493
 30
0.0
 40
10.00004384861032
100
AcDbArc
 50
206.7441825198298
 51
333.2558174801414
  0
ARC
  5
4787
330
A
100
AcDbEntity
  8
0
  6
Continuous
 62
     7
370
     0
100
AcDbCircle
 10
-87.24999999831778
 20
23.82721376915862
 30
0.0
 40
11.52945236047487
100
AcDbArc
 50
259.252630279147
 51
280.747369720853
  0
LINE
  5
4788
330
A
100
AcDbEntity
  8
0
  6
Continuous
 62
     9
370
     0
100
AcDbLine
 10
-113.2499999984853
 20
12.49999999999994
 30
0.0
 11
-113.2499999984853
 21
-12.49999999999994
 31
0.0
  0
LINE
  5
4789
330
A
100
AcDbEntity
  8
0
  6
Continuous
 62
     7
370
     0
100
AcDbLine
 10
-114.2499999984853
 20
-11.50000000000005
 30
0.0
 11
-114.2499999984853
 21
11.49999999999994
 31
0.0
  0
LINE
  5
478A
330
A
100
AcDbEntity
  8
0
  6
Continuous
 62
     7
370
     0
100
AcDbLine
 10
-71.2499999984853
 20
-10.00000000000005
 30
0.0
 11
-71.2499999984853
 21
10.00000000000005
 31
0.0
  0
LINE
  5
478B
330
A
100
AcDbEntity
  8
0
  6
Continuous
 62
     9
370
     0
100
AcDbLine
 10
-36.74999999848532
 20
-12.50000000000005
 30
0.0
 11
-36.74999999848532
 21
12.50000000000005
 31
0.0
  0
LINE
  5
478C
330
A
100
AcDbEntity
  8
0
  6
Continuous
 62
     7
370
     0
100
AcDbLine
 10
-35.74999999848532
 20
11.50000000000005
 30
0.0
 11
-35.74999999848532
 21
-11.50000000000005
 31
0.0
  0
ARC
  5
478D
330
A
100
AcDbEntity
  8
0
  6
Continuous
 62
     7
370
     0
100
AcDbCircle
 10
-49.74999999848531
 20
17.00005192944042
 30
0.0
 40
10.00002336835572
100
AcDbArc
 50
206.7439496559702
 51
333.2560503440586
  0
LINE
  5
478E
330
A
100
AcDbEntity
  8
0
  6
Continuous
 62
     7
370
     0
100
AcDbLine
 10
-70.44999999848531
 20
12.50000000000005
 30
0.0
 11
-70.44999999848531
 21
-12.50000000000005
 31
0.0
  0
LINE
  5
478F
330
A
100
AcDbEntity
  8
0
  6
Continuous
 62
     7
370
     0
100
AcDbLine
 10
-70.74999999848531
 20
-12.2000000000001
 30
0.0
 11
-70.74999999848531
 21
12.19999999999993
 31
0.0
  0
LINE
  5
4790
330
A
100
AcDbEntity
  8
0
  6
Continuous
 62
     9
370
     0
100
AcDbLine
 10
-71.2499999984853
 20
2.499999999991246
 30
0.0
 11
-79.24999999973184
 21
2.499999999993463
 31
0.0
  0
LINE
  5
4791
330
A
100
AcDbEntity
  8
0
  6
Continuous
 62
     9
370
     0
100
AcDbLine
 10
-79.24999999973184
 20
-2.500000000006536
 30
0.0
 11
-71.2499999984853
 21
-2.500000000008753
 31
0.0
  0
LINE
  5
4792
330
A
100
AcDbEntity
  8
0
  6
Continuous
 62
     7
370
     0
100
AcDbLine
 10
-79.54999999848531
 20
-12.50000000000005
 30
0.0
 11
-79.24999999848532
 21
-12.2000000000001
 31
0.0
  0
LINE
  5
4793
330
A
100
AcDbEntity
  8
0
  6
Continuous
 62
     7
370
     0
100
AcDbLine
 10
-79.24999999848532
 20
12.19999999999993
 30
0.0
 11
-79.54999999848531
 21
12.50000000000005
 31
0.0
  0
LINE
  5
4794
330
A
100
AcDbEntity
  8
0
  6
Continuous
 62
     7
370
     0
100
AcDbLine
 10
-109.1802855482312
 20
12.50000000000005
 30
0.0
 11
-113.2499999984853
 21
12.50000000000005
 31
0.0
  0
LINE
  5
4795
330
A
100
AcDbEntity
  8
0
  6
Continuous
 62
     7
370
     0
100
AcDbLine
 10
-89.39999998907195
 20
12.50000000000005
 30
0.0
 11
-91.32000635680777
 21
12.50000000000005
 31
0.0
  0
LINE
  5
4796
330
A
100
AcDbEntity
  8
0
  6
Continuous
 62
     7
370
     0
100
AcDbLine
 10
-79.54999999848531
 20
12.50000000000005
 30
0.0
 11
-85.10000070338691
 21
12.50000000000005
 31
0.0
  0
LINE
  5
4797
330
A
100
AcDbEntity
  8
0
  6
Continuous
 62
     7
370
     0
100
AcDbLine
 10
-113.2499999984853
 20
-12.50000000000005
 30
0.0
 11
-79.54999999848531
 21
-12.50000000000005
 31
0.0
  0
ARC
  5
4798
330
A
100
AcDbEntity
  8
0
  6
Continuous
 62
     7
370
     0
100
AcDbCircle
 10
-113.2499999984853
 20
11.49999999999994
 30
0.0
 40
1.0
100
AcDbArc
 50
90.0
 51
180.0
  0
ARC
  5
4799
330
A
100
AcDbEntity
  8
0
  6
Continuous
 62
     7
370
     0
100
AcDbCircle
 10
-113.2499999984853
 20
-11.50000000000005
 30
0.0
 40
1.0
100
AcDbArc
 50
180.0
 51
270.0
  0
LINE
  5
479A
330
A
100
AcDbEntity
  8
0
  6
Continuous
 62
     7
370
     0
100
AcDbLine
 10
-71.2499999984853
 20
-10.00000000000005
 30
0.0
 11
-70.74999999848531
 21
-10.00000000000005
 31
0.0
  0
LINE
  5
479B
330
A
100
AcDbEntity
  8
0
  6
Continuous
 62
     7
370
     0
100
AcDbLine
 10
-70.74999999848531
 20
10.00000000000005
 30
0.0
 11
-71.2499999984853
 21
10.00000000000005
 31
0.0
  0
ARC
  5
479C
330
A
100
AcDbEntity
  8
0
  6
Continuous
 62
     7
370
     0
100
AcDbCircle
 10
-36.74999999848532
 20
-11.50000000000005
 30
0.0
 40
1.0
100
AcDbArc
 50
270.0
 51
0.0
  0
ARC
  5
479D
330
A
100
AcDbEntity
  8
0
  6
Continuous
 62
     7
370
     0
100
AcDbCircle
 10
-36.74999999848532
 20
11.50000000000005
 30
0.0
 40
1.0
100
AcDbArc
 50
0.0
 51
90.0
  0
LINE
  5
479E
330
A
100
AcDbEntity
  8
0
  6
Continuous
 62
     7
370
     0
100
AcDbLine
 10
-70.44999999848531
 20
-12.50000000000005
 30
0.0
 11
-36.74999999848532
 21
-12.50000000000005
 31
0.0
  0
LINE
  5
479F
330
A
100
AcDbEntity
  8
0
  6
Continuous
 62
     7
370
     0
100
AcDbLine
 10
-58.67999364016284
 20
12.50000000000005
 30
0.0
 11
-70.44999999848531
 21
12.50000000000005
 31
0.0
  0
LINE
  5
47A0
330
A
100
AcDbEntity
  8
0
  6
Continuous
 62
     7
370
     0
100
AcDbLine
 10
-36.74999999848532
 20
12.50000000000005
 30
0.0
 11
-40.81971444873943
 21
12.50000000000005
 31
0.0
  0
LINE
  5
47A1
330
A
100
AcDbEntity
  8
0
  6
Continuous
 62
     7
370
     0
100
AcDbLine
 10
-70.44999999848531
 20
12.50000000000005
 30
0.0
 11
-70.74999999848531
 21
12.19999999999993
 31
0.0
  0
LINE
  5
47A2
330
A
100
AcDbEntity
  8
0
  6
Continuous
 62
     7
370
     0
100
AcDbLine
 10
-70.74999999848531
 20
-12.2000000000001
 30
0.0
 11
-70.44999999848531
 21
-12.50000000000005
 31
0.0
  0
LINE
  5
47A3
330
A
100
AcDbEntity
  8
0
  6
Continuous
 62
     7
370
     0
100
AcDbLine
 10
-71.24999999848589
 20
2.999999999991246
 30
0.0
 11
-79.24999999971459
 21
2.999999999993463
 31
0.0
  0
LINE
  5
47A4
330
A
100
AcDbEntity
  8
0
  6
Continuous
 62
     7
370
     0
100
AcDbLine
 10
-79.24999999971459
 20
-3.000000000006536
 30
0.0
 11
-71.24999999848589
 21
-3.000000000008753
 31
0.0
  0
TEXT
  5
5F82
330
A
100
AcDbEntity
  8
0
  6
Continuous
 62
     7
370
     0
100
AcDbText
 10
-21.39287189026806
 20
43.86021169846424
 30
0.0
 40
10.0
  1
5400
100
AcDbText
  0
ARC
  5
5FE9
330
A
100
AcDbEntity
  8
0
  6
Continuous
 62
     7
370
     0
100
AcDbCircle
 10
24.43563885893049
 20
-36.52737095678606
 30
0.0
 40
9.290963655662251
100
AcDbArc
 50
320.8724362809875
 51
38.90123839341596
  0
ARC
  5
5FEA
330
A
100
AcDbEntity
  8
0
  6
Continuous
 62
     7
370
     0
100
AcDbCircle
 10
22.36316802964241
 20
-37.02625595060374
 30
0.0
 40
11.25422437234169
100
AcDbArc
 50
34.24686068765548
 51
77.26153777989698
  0
ARC
  5
5FEB
330
A
100
AcDbEntity
  8
0
  6
Continuous
 62
     7
370
     0
100
AcDbCircle
 10
-2.879358758815712
 20
-56.26068052719176
 30
0.0
 40
8.882571240941807
100
AcDbArc
 50
133.6446045195083
 51
214.9331238305042
  0
ARC
  5
5FEC
330
A
100
AcDbEntity
  8
0
  6
Continuous
 62
     7
370
     0
100
AcDbCircle
 10
-1.031856431053199
 20
-56.50430702037971
 30
0.0
 40
10.33449650861925
100
AcDbArc
 50
207.9432426321305
 51
283.8073180334953
  0
ARC
  5
5FED
330
A
100
AcDbEntity
  8
0
  6
Continuous
 62
     7
370
     0
100
AcDbCircle
 10
-0.8125493355439061
 20
-59.85661523907129
 30
0.0
 40
7.051200771854207
100
AcDbArc
 50
288.583297961054
 51
309.1863541303173
  0
ARC
  5
5FEE
330
A
100
AcDbEntity
  8
0
  6
Continuous
 62
     7
370
     0
100
AcDbCircle
 10
127.6506921416303
 20
217.4742512238875
 30
0.0
 40
273.2279325884862
100
AcDbArc
 50
246.3657424377136
 51
247.9943215375634
  0
ARC
  5
5FEF
330
A
100
AcDbEntity
  8
0
  6
Continuous
 62
     7
370
     0
100
AcDbCircle
 10
15.0340201324789
 20
-40.38956242164357
 30
0.0
 40
8.157361043734905
100
AcDbArc
 50
67.81314005774724
 51
114.5754372839083
  0
ARC
  5
5FF0
330
A
100
AcDbEntity
  8
0
  6
Continuous
 62
     7
370
     0
100
AcDbCircle
 10
22.55302372511478
 20
-33.11885174883588
 30
0.0
 40
5.86647931244205
100
AcDbArc
 50
352.6372244736062
 51
83.38613129003968
  0
ARC
  5
5FF1
330
A
100
AcDbEntity
  8
0
  6
Continuous
 62
     7
370
     0
100
AcDbCircle
 10
25.9492343715204
 20
-33.49205725006067
 30
0.0
 40
2.451309515367059
100
AcDbArc
 50
253.9766180009723
 51
351.1154165686301
  0
LINE
  5
5FF2
330
A
100
AcDbEntity
  8
0
  6
Continuous
 62
     7
370
     0
100
AcDbLine
 10
7.937306765725779
 20
-41.33156858291402
 30
0.0
 11
7.916491232275603
 21
-41.21482554007889
 31
0.0
  0
LINE
  5
5FF3
330
A
100
AcDbEntity
  8
0
  6
Continuous
 62
     7
370
     0
100
AcDbLine
 10
7.916491232275603
 20
-41.21482554007889
 30
0.0
 11
7.869810573747599
 21
-41.12029853676893
 31
0.0
  0
LINE
  5
5FF4
330
A
100
AcDbEntity
  8
0
  6
Continuous
 62
     7
370
     0
100
AcDbLine
 10
7.869810573747599
 20
-41.12029853676893
 30
0.0
 11
7.797953910628493
 21
-41.02980883785995
 31
0.0
  0
LINE
  5
5FF5
330
A
100
AcDbEntity
  8
0
  6
Continuous
 62
     7
370
     0
100
AcDbLine
 10
7.797953910628493
 20
-41.02980883785995
 30
0.0
 11
7.708655465163005
 21
-40.95123482212637
 31
0.0
  0
LINE
  5
5FF6
330
A
100
AcDbEntity
  8
0
  6
Continuous
 62
     7
370
     0
100
AcDbLine
 10
7.708655465163005
 20
-40.95123482212637
 30
0.0
 11
7.607456331194399
 21
-40.88474923510773
 31
0.0
  0
ARC
  5
5FF7
330
A
100
AcDbEntity
  8
0
  6
Continuous
 62
     7
370
     0
100
AcDbCircle
 10
6.734934950980985
 20
-42.96226686476592
 30
0.0
 40
2.253302700586492
100
AcDbArc
 50
67.21843880995976
 51
125.1926003198443
  0
LINE
  5
5FF8
330
A
100
AcDbEntity
  8
0
  6
Continuous
 62
     7
370
     0
100
AcDbLine
 10
5.436296265480891
 20
-41.12082432561544
 30
0.0
 11
5.350104619929794
 21
-41.20506687008275
 31
0.0
  0
LINE
  5
5FF9
330
A
100
AcDbEntity
  8
0
  6
Continuous
 62
     7
370
     0
100
AcDbLine
 10
5.350104619929794
 20
-41.20506687008275
 30
0.0
 11
5.301649213030486
 21
-41.29632793075791
 31
0.0
  0
LINE
  5
5FFA
330
A
100
AcDbEntity
  8
0
  6
Continuous
 62
     7
370
     0
100
AcDbLine
 10
5.301649213030486
 20
-41.29632793075791
 30
0.0
 11
5.297306765930997
 21
-41.33160156138177
 31
0.0
  0
LINE
  5
5FFB
330
A
100
AcDbEntity
  8
0
  6
Continuous
 62
     7
370
     0
100
AcDbLine
 10
4.977185639825492
 20
-41.17107824677908
 30
0.0
 11
4.895066283291399
 21
-41.09392271421507
 31
0.0
  0
LINE
  5
5FFC
330
A
100
AcDbEntity
  8
0
  6
Continuous
 62
     7
370
     0
100
AcDbLine
 10
4.895066283291399
 20
-41.09392271421507
 30
0.0
 11
4.845672680243396
 21
-40.9960970178214
 31
0.0
  0
LINE
  5
5FFD
330
A
100
AcDbEntity
  8
0
  6
Continuous
 62
     7
370
     0
100
AcDbLine
 10
4.845672680243396
 20
-40.9960970178214
 30
0.0
 11
4.848854016279602
 21
-40.89481303246588
 31
0.0
  0
LINE
  5
5FFE
330
A
100
AcDbEntity
  8
0
  6
Continuous
 62
     7
370
     0
100
AcDbLine
 10
4.848854016279602
 20
-40.89481303246588
 30
0.0
 11
4.896005444713708
 21
-40.79802231667258
 31
0.0
  0
LINE
  5
5FFF
330
A
100
AcDbEntity
  8
0
  6
Continuous
 62
     7
370
     0
100
AcDbLine
 10
4.896005444713708
 20
-40.79802231667258
 30
0.0
 11
4.985382153532697
 21
-40.70022819689547
 31
0.0
  0
LINE
  5
6000
330
A
100
AcDbEntity
  8
0
  6
Continuous
 62
     7
370
     0
100
AcDbLine
 10
4.985382153532697
 20
-40.70022819689547
 30
0.0
 11
5.079317345164298
 21
-40.62657947236869
 31
0.0
  0
ARC
  5
6001
330
A
100
AcDbEntity
  8
0
  6
Continuous
 62
     7
370
     0
100
AcDbCircle
 10
6.674656846554796
 20
-43.22514538993056
 30
0.0
 40
3.049205298534459
100
AcDbArc
 50
61.4995584305743
 51
121.5470431261471
  0
LINE
  5
6002
330
A
100
AcDbEntity
  8
0
  6
Continuous
 62
     7
370
     0
100
AcDbLine
 10
8.129632518509595
 20
-40.54546280674452
 30
0.0
 11
8.237712883191392
 21
-40.64570505607821
 31
0.0
  0
LINE
  5
6003
330
A
100
AcDbEntity
  8
0
  6
Continuous
 62
     7
370
     0
100
AcDbLine
 10
8.237712883191392
 20
-40.64570505607821
 30
0.0
 11
8.318878791133187
 21
-40.75202290474073
 31
0.0
  0
LINE
  5
6004
330
A
100
AcDbEntity
  8
0
  6
Continuous
 62
     7
370
     0
100
AcDbLine
 10
8.318878791133187
 20
-40.75202290474073
 30
0.0
 11
8.371106611804506
 21
-40.86165339297759
 31
0.0
  0
LINE
  5
6005
330
A
100
AcDbEntity
  8
0
  6
Continuous
 62
     7
370
     0
100
AcDbLine
 10
8.371106611804506
 20
-40.86165339297759
 30
0.0
 11
8.392662380862688
 21
-40.97032430116485
 31
0.0
  0
LINE
  5
6006
330
A
100
AcDbEntity
  8
0
  6
Continuous
 62
     7
370
     0
100
AcDbLine
 10
8.392662380862688
 20
-40.97032430116485
 30
0.0
 11
8.385290444895986
 21
-41.0743578981224
 31
0.0
  0
LINE
  5
6007
330
A
100
AcDbEntity
  8
0
  6
Continuous
 62
     7
370
     0
100
AcDbLine
 10
8.385290444895986
 20
-41.0743578981224
 30
0.0
 11
8.337907444040112
 21
-41.19574724748741
 31
0.0
  0
LINE
  5
6008
330
A
100
AcDbEntity
  8
0
  6
Continuous
 62
     7
370
     0
100
AcDbLine
 10
8.337907444040112
 20
-41.19574724748741
 30
0.0
 11
8.255259426672779
 21
-41.29808278370592
 31
0.0
  0
LINE
  5
6009
330
A
100
AcDbEntity
  8
0
  6
Continuous
 62
     7
370
     0
100
AcDbLine
 10
8.255259426672779
 20
-41.29808278370592
 30
0.0
 11
8.154595001716288
 21
-41.37678327256509
 31
0.0
  0
LINE
  5
600A
330
A
100
AcDbEntity
  8
0
  6
Continuous
 62
     7
370
     0
100
AcDbLine
 10
8.154595001716288
 20
-41.37678327256509
 30
0.0
 11
8.148671670084183
 21
-41.3805744809701
 31
0.0
  0
LINE
  5
600B
330
A
100
AcDbEntity
  8
0
  6
Continuous
 62
     7
370
     0
100
AcDbLine
 10
8.148671670084183
 20
-41.3805744809701
 30
0.0
 11
8.039777815418489
 21
-41.43937229055365
 31
0.0
  0
ARC
  5
600C
330
A
100
AcDbEntity
  8
0
  6
Continuous
 62
     7
370
     0
100
AcDbCircle
 10
6.867841317166991
 20
-37.60495491438758
 30
0.0
 40
4.009512659984799
100
AcDbArc
 50
255.2660737732659
 51
286.9950457001899
  0
ARC
  5
600D
330
A
100
AcDbEntity
  8
0
  6
Continuous
 62
     7
370
     0
100
AcDbCircle
 10
428.6467428307907
 20
969.0469405237617
 30
0.0
 40
1103.310050262983
100
AcDbArc
 50
247.1298589590109
 51
247.5436718664729
  0
ARC
  5
600E
330
A
100
AcDbEntity
  8
0
  6
Continuous
 62
     7
370
     0
100
AcDbCircle
 10
-3.948006980981901
 20
-60.49432405553938
 30
0.0
 40
13.51000833989431
100
AcDbArc
 50
73.66335370696318
 51
78.38817233646714
  0
ARC
  5
600F
330
A
100
AcDbEntity
  8
0
  6
Continuous
 62
     7
370
     0
100
AcDbCircle
 10
3.437331767839793
 20
-49.90298505451477
 30
0.0
 40
7.98031250965696
100
AcDbArc
 50
46.56373996555267
 51
135.882094682454
  0
ARC
  5
6010
330
A
100
AcDbEntity
  8
0
  6
Continuous
 62
     7
370
     0
100
AcDbCircle
 10
6.258034628888395
 20
-47.32632685512771
 30
0.0
 40
4.179099347808139
100
AcDbArc
 50
313.7619136644618
 51
50.35941179555243
  0
ARC
  5
6011
330
A
100
AcDbEntity
  8
0
  6
Continuous
 62
     7
370
     0
100
AcDbCircle
 10
7.866325859893606
 20
-48.11082515182852
 30
0.0
 40
2.575595299478925
100
AcDbArc
 50
255.1294796859279
 51
299.8572960423187
  0
ARC
  5
617E
330
A
100
AcDbEntity
  8
0
  6
Continuous
 62
     7
370
     0
100
AcDbCircle
 10
-52.12492421964763
 20
-53.27947209074682
 30
0.0
 40
11.36177865713809
100
AcDbArc
 50
321.0120938857061
 51
5.719836810328684
  0
ARC
  5
617F
330
A
100
AcDbEntity
  8
0
  6
Continuous
 62
     7
370
     0
100
AcDbCircle
 10
-49.827094006125
 20
-51.56396212264496
 30
0.0
 40
11.01152019252728
100
AcDbArc
 50
254.0927247780397
 51
306.3935046256
  0
ARC
  5
6180
330
A
100
AcDbEntity
  8
0
  6
Continuous
 62
     7
370
     0
100
AcDbCircle
 10
-51.47449015777258
 20
-55.35832433793103
 30
0.0
 40
6.932341726407075
100
AcDbArc
 50
183.0195935642959
 51
258.5963932536371
  0
ARC
  5
6181
330
A
100
AcDbEntity
  8
0
  6
Continuous
 62
     7
370
     0
100
AcDbCircle
 10
-40.97963870201401
 20
-52.2805129928704
 30
0.0
 40
17.75460102586542
100
AcDbArc
 50
156.6360122328575
 51
191.1816966372449
  0
ARC
  5
6182
330
A
100
AcDbEntity
  8
0
  6
Continuous
 62
     7
370
     0
100
AcDbCircle
 10
-50.51084708542317
 20
-50.00781871690896
 30
0.0
 40
8.278683070954128
100
AcDbArc
 50
82.85690260019922
 51
144.8324770123088
  0
ARC
  5
6183
330
A
100
AcDbEntity
  8
0
  6
Continuous
 62
     7
370
     0
100
AcDbCircle
 10
-48.79355908728916
 20
-49.67758164141656
 30
0.0
 40
7.914141231886682
100
AcDbArc
 50
32.39380921072135
 51
94.98610918395149
  0
ARC
  5
6184
330
A
100
AcDbEntity
  8
0
  6
Continuous
 62
     7
370
     0
100
AcDbCircle
 10
-55.88019794324853
 20
-51.56660365956771
 30
0.0
 40
15.07166711007753
100
AcDbArc
 50
357.7926309079173
 51
23.99463049739886
  0
ARC
  5
6185
330
A
100
AcDbEntity
  8
0
  6
Continuous
 62
     7
370
     0
100
AcDbCircle
 10
-87.21167825733184
 20
-52.20215220301378
 30
0.0
 40
2.189013878834527
100
AcDbArc
 50
249.0889205867735
 51
178.5591325956679
  0
ARC
  5
6186
330
A
100
AcDbEntity
  8
0
  6
Continuous
 62
     7
370
     0
100
AcDbCircle
 10
-87.16909408525001
 20
-52.17361871706095
 30
0.0
 40
2.231063405567041
100
AcDbArc
 50
179.319188451844
 51
248.3288647306004
  0
ARC
  5
6187
330
A
100
AcDbEntity
  8
0
  6
Continuous
 62
     7
370
     0
100
AcDbCircle
 10
-97.87507577724893
 20
-51.0147458017608
 30
0.0
 40
11.36177865713832
100
AcDbArc
 50
141.0120938819722
 51
185.7198368065906
  0
ARC
  5
6188
330
A
100
AcDbEntity
  8
0
  6
Continuous
 62
     7
370
     0
100
AcDbCircle
 10
-100.1729059908836
 20
-52.73025576971304
 30
0.0
 40
11.01152019252756
100
AcDbArc
 50
74.0927247743037
 51
126.3935046218629
  0
ARC
  5
6189
330
A
100
AcDbEntity
  8
0
  6
Continuous
 62
     7
370
     0
100
AcDbCircle
 10
-98.52550983898872
 20
-48.93589355453423
 30
0.0
 40
6.932341726407103
100
AcDbArc
 50
3.019593560561626
 51
78.59639324990002
  0
ARC
  5
618A
330
A
100
AcDbEntity
  8
0
  6
Continuous
 62
     7
370
     0
100
AcDbCircle
 10
-109.0203612949477
 20
-52.01370489891042
 30
0.0
 40
17.75460102586526
100
AcDbArc
 50
336.6360122291219
 51
11.18169663350992
  0
ARC
  5
618B
330
A
100
AcDbEntity
  8
0
  6
Continuous
 62
     7
370
     0
100
AcDbCircle
 10
-99.48915291168706
 20
-54.28639917549316
 30
0.0
 40
8.278683070954386
100
AcDbArc
 50
262.8569025964645
 51
324.832477008572
  0
ARC
  5
618C
330
A
100
AcDbEntity
  8
0
  6
Continuous
 62
     7
370
     0
100
AcDbCircle
 10
-101.2064409098423
 20
-54.61663625087374
 30
0.0
 40
7.914141231886897
100
AcDbArc
 50
212.3938092069871
 51
274.9861091802147
  0
ARC
  5
618D
330
A
100
AcDbEntity
  8
0
  6
Continuous
 62
     7
370
     0
100
AcDbCircle
 10
-94.1198020537603
 20
-52.72761423318502
 30
0.0
 40
15.07166711007712
100
AcDbArc
 50
177.7926309041788
 51
203.9946304936627
  0
CIRCLE
  5
6394
330
A
100
AcDbEntity
  8
0
  6
CENTER
 62
     1
100
AcDbCircle
 10
0.0000000000000142
 20
-0.0000000000000568
 30
0.0
 40
5.0
  0
ENDSEC
  0
SECTION
  2
OBJECTS
  0
DICTIONARY
  5
19
330
0
100
AcDbDictionary
281
     1
  3
ACAD_COLOR
350
3176
  3
ACAD_GROUP
350
1A
  3
ACAD_LAYOUT
350
1E
  3
ACAD_MATERIAL
350
314C
  3
ACAD_MLEADERSTYLE
350
319B
  3
ACAD_MLINESTYLE
350
1B
  3
ACAD_PLOTSETTINGS
350
22
  3
ACAD_PLOTSTYLENAME
350
1F
  3
ACAD_SCALELIST
350
3179
  3
ACAD_TABLESTYLE
350
3177
  3
ACAD_VISUALSTYLE
350
3165
  3
ACAD_WIPEOUT_VARS
350
23
  3
ACDB_RECOMPOSE_DATA
350
630A
  3
AcDbVariableDictionary
350
630B
  3
ASE_INDEX_DICTIONARY
350
5E44
  3
DWGPROPS
350
63A8
  0
DICTIONARY
  5
5E41
330
14
100
AcDbDictionary
280
     1
281
     1
  3
ADSK_XREC_LAYER_RECONCILED
360
5E42
  0
DICTIONARY
  5
31A7
330
A
100
AcDbDictionary
280
     1
281
     1
  3
ACAD_SORTENTS
360
31A8
  0
DICTIONARY
  5
3176
102
{ACAD_REACTORS
330
19
102
}
330
19
100
AcDbDictionary
281
     1
  0
DICTIONARY
  5
1A
102
{ACAD_REACTORS
330
19
102
}
330
19
100
AcDbDictionary
281
     1
  0
DICTIONARY
  5
1E
102
{ACAD_REACTORS
330
19
102
}
330
19
100
AcDbDictionary
281
     1
  3
Layout1
350
21
  3
Model
350
20
  0
DICTIONARY
  5
314C
102
{ACAD_REACTORS
330
19
102
}
330
19
100
AcDbDictionary
281
     1
  3
ByBlock
350
3155
  3
ByLayer
350
314D
  3
Global
350
315D
  0
DICTIONARY
  5
319B
102
{ACAD_REACTORS
330
19
102
}
330
19
100
AcDbDictionary
281
     1
  3
Standard
350
319C
  0
DICTIONARY
  5
1B
102
{ACAD_REACTORS
330
19
102
}
330
19
100
AcDbDictionary
281
     1
  3
Standard
350
1C
  0
DICTIONARY
  5
22
102
{ACAD_REACTORS
330
19
102
}
330
19
100
AcDbDictionary
281
     1
  0
ACDBDICTIONARYWDFLT
  5
1F
102
{ACAD_REACTORS
330
19
102
}
330
19
100
AcDbDictionary
281
     1
  3
Normal
350
1D
100
AcDbDictionaryWithDefault
340
1D
  0
DICTIONARY
  5
3179
102
{ACAD_REACTORS
330
19
102
}
330
19
100
AcDbDictionary
281
     1
  3
A0
350
317A
  3
A1
350
317B
  3
A2
350
317C
  3
A3
350
317D
  3
A4
350
317E
  3
A5
350
317F
  3
A6
350
3180
  3
A7
350
3181
  3
A8
350
3182
  3
A9
350
3183
  3
B0
350
3184
  3
B1
350
3185
  3
B2
350
3186
  3
B3
350
3187
  3
B4
350
3188
  3
B5
350
3189
  3
B6
350
318A
  3
B7
350
318B
  3
B8
350
318C
  3
B9
350
318D
  3
C0
350
318E
  3
C1
350
318F
  3
C2
350
3190
  3
C3
350
3191
  3
C4
350
3192
  3
C5
350
3193
  3
C6
350
3194
  3
C7
350
3195
  3
C8
350
3196
  3
C9
350
3197
  3
D0
350
3198
  3
D1
350
3199
  3
D2
350
319A
  0
DICTIONARY
  5
3177
102
{ACAD_REACTORS
330
19
102
}
330
19
100
AcDbDictionary
281
     1
  3
Standard
350
3178
  0
DICTIONARY
  5
3165
102
{ACAD_REACTORS
330
19
102
}
330
19
100
AcDbDictionary
281
     1
  3
2dWireframe
350
316B
  3
3D Hidden
350
316D
  3
3dWireframe
350
316C
  3
Basic
350
316A
  3
Brighten
350
3171
  3
ColorChange
350
3175
  3
Conceptual
350
316E
  3
Dim
350
3170
  3
Facepattern
350
3174
  3
Flat
350
3166
  3
FlatWithEdges
350
3167
  3
Gouraud
350
3168
  3
GouraudWithEdges
350
3169
  3
Linepattern
350
3173
  3
Realistic
350
316F
  3
Thicken
350
3172
  0
WIPEOUTVARIABLES
  5
23
330
19
100
AcDbWipeoutVariables
 70
     1
  0
XRECORD
  5
630A
102
{ACAD_REACTORS
330
19
102
}
330
19
100
AcDbXrecord
280
     1
 90
        1
330
3178
  0
DICTIONARY
  5
630B
102
{ACAD_REACTORS
330
19
102
}
330
19
100
AcDbDictionary
281
     1
  3
CANNOSCALE
350
630F
  3
CMLEADERSTYLE
350
630D
  3
CTABLESTYLE
350
630C
  3
DIMASSOC
350
6318
  3
INDEXCTL
350
6317
  3
LIGHTINGUNITS
350
6310
  3
MSLTSCALE
350
630E
  3
SORTENTS
350
6316
  0
DICTIONARY
  5
5E44
102
{ACAD_REACTORS
330
19
102
}
330
19
100
AcDbDictionary
281
     1
  3
ASEBlockHierarchyIndexRecord
350
5E46
1001
DCO15
1040
1685075681.336
  0
XRECORD
  5
63A8
102
{ACAD_REACTORS
330
19
102
}
330
19
100
AcDbXrecord
280
     1
  1
DWGPROPS COOKIE
  2

  3

  4

  6

  7

  8
renzo.ceresoli
  9

300
=
301
=
302
=
303
=
304
=
305
=
306
=
307
=
308
=
309
=
 40
0.0033193055555556
 41
2455303.727916667
 42
2455306.439603449
  1

 90
        0
  0
XRECORD
  5
5E42
102
{ACAD_REACTORS
330
5E41
102
}
330
5E41
100
AcDbXrecord
280
     1
290
     1
  0
SORTENTSTABLE
  5
31A8
102
{ACAD_REACTORS
330
31A7
102
}
330
31A7
100
AcDbSortentsTable
330
A
331
19B7
  5
4A40
331
473C
  5
4A3D
331
4376
  5
4CAB
331
4328
  5
4C8B
331
4770
  5
4A0D
331
478B
  5
49D7
331
479E
  5
49EA
331
4755
  5
49FD
331
473A
  5
4A3B
331
4359
  5
4C9B
331
4374
  5
4CA9
331
4789
  5
49D5
331
479C
  5
49E8
331
476E
  5
4A0B
331
4738
  5
4A39
331
4357
  5
4C99
331
4372
  5
4CA7
331
4787
  5
49D3
331
4736
  5
4A37
331
479A
  5
49E6
331
430F
  5
4C7B
331
4355
  5
4C97
331
4370
  5
4CA5
331
4785
  5
49D1
331
4734
  5
4A35
331
4798
  5
49E4
331
430D
  5
4C79
331
4320
  5
4C87
331
4353
  5
4C95
331
4783
  5
4A20
331
4732
  5
4A33
331
4796
  5
49E2
331
431E
  5
4C85
331
4351
  5
4C93
331
4781
  5
4A1E
331
4730
  5
4A31
331
4794
  5
49E0
331
434F
  5
4C91
331
4792
  5
49DE
331
472E
  5
4A2F
331
4749
  5
49F9
331
4764
  5
4A09
331
477F
  5
4A1C
331
4368
  5
4CA2
331
434D
  5
4C8F
331
4790
  5
49DC
331
472C
  5
4A2D
331
4747
  5
49F7
331
4762
  5
4A07
331
477D
  5
4A1A
331
4745
  5
49F5
331
4760
  5
4A05
331
477B
  5
4A18
331
472A
  5
4A2B
331
4316
  5
4C82
331
4743
  5
49F3
331
475E
  5
4A03
331
4779
  5
4A16
331
4728
  5
4A29
331
437D
  5
4CAE
331
4777
  5
4A14
331
4314
  5
4C80
331
4741
  5
49F1
331
475C
  5
4A01
331
4726
  5
4A27
331
4360
  5
4C9E
331
47A3
  5
49EF
331
4775
  5
4A12
331
19BA
  5
4A43
331
4312
  5
4C7E
331
473F
  5
4A22
331
475A
  5
49FF
331
4724
  5
4A25
331
47A1
  5
49ED
331
4773
  5
4A10
331
478E
  5
49DA
331
19B8
  5
4A41
331
4310
  5
4C7C
331
473D
  5
4A3E
331
479F
  5
49EB
331
4771
  5
4A0E
331
478C
  5
49D8
331
19B6
  5
4A3F
331
473B
  5
4A3C
331
4327
  5
4C8A
331
4375
  5
4CAA
331
479D
  5
49E9
331
4754
  5
49FC
331
476F
  5
4A0C
331
478A
  5
49D6
331
4739
  5
4A3A
331
4358
  5
4C9A
331
4373
  5
4CA8
331
479B
  5
49E7
331
4788
  5
49D4
331
4737
  5
4A38
331
4356
  5
4C98
331
4371
  5
4CA6
331
4786
  5
49D2
331
4735
  5
4A36
331
4799
  5
49E5
331
430E
  5
4C7A
331
4321
  5
4C88
331
4354
  5
4C96
331
436F
  5
4CA4
331
4784
  5
49D0
331
4733
  5
4A34
331
4797
  5
49E3
331
430C
  5
4C78
331
431F
  5
4C86
331
4352
  5
4C94
331
4782
  5
4A1F
331
4731
  5
4A32
331
4795
  5
49E1
331
4350
  5
4C92
331
4780
  5
4A1D
331
4793
  5
49DF
331
472F
  5
4A30
331
474A
  5
49FA
331
434E
  5
4C90
331
4763
  5
4A08
331
477E
  5
4A1B
331
4791
  5
49DD
331
472D
  5
4A2E
331
4748
  5
49F8
331
4367
  5
4CA1
331
4761
  5
4A06
331
477C
  5
4A19
331
472B
  5
4A2C
331
4746
  5
49F6
331
4317
  5
4C83
331
475F
  5
4A04
331
477A
  5
4A17
331
4729
  5
4A2A
331
4744
  5
49F4
331
437E
  5
4CAF
331
4315
  5
4C81
331
4778
  5
4A15
331
4727
  5
4A28
331
4742
  5
49F2
331
475D
  5
4A02
331
4361
  5
4C9F
331
437C
  5
4CAD
331
4776
  5
4A13
331
47A4
  5
49F0
331
19BB
  5
4A44
331
4313
  5
4C7F
331
4725
  5
4A26
331
4740
  5
4A23
331
475B
  5
4A00
331
435F
  5
4C9D
331
4774
  5
4A11
331
478F
  5
49DB
331
47A2
  5
49EE
331
19B9
  5
4A42
331
4311
  5
4C7D
331
4723
  5
4A24
331
473E
  5
4A21
331
4772
  5
4A0F
331
478D
  5
49D9
331
47A0
  5
49EC
  0
LAYOUT
  5
21
102
{ACAD_XDICTIONARY
360
63AB
102
}
102
{ACAD_REACTORS
330
1E
102
}
330
1E
100
AcDbPlotSettings
  1

  2

  4

  6

 40
0.0
 41
0.0
 42
0.0
 43
0.0
 44
0.0
 45
0.0
 46
0.0
 47
0.0
 48
0.0
 49
0.0
140
0.0
141
0.0
142
1.0
143
1.0
 70
     0
 72
     0
 73
     0
 74
     0
  7

 75
     0
147
1.0
148
0.0
149
0.0
100
AcDbLayout
  1
Layout1
 70
     0
 71
     1
 10
0.0
 20
0.0
 11
12.0
 21
9.0
 12
0.0
 22
0.0
 32
0.0
 14
1.000000000000000E+20
 24
1.000000000000000E+20
 34
1.000000000000000E+20
 15
-1.000000000000000E+20
 25
-1.000000000000000E+20
 35
-1.000000000000000E+20
146
0.0
 13
0.0
 23
0.0
 33
0.0
 16
1.0
 26
0.0
 36
0.0
 17
0.0
 27
1.0
 37
0.0
 76
     0
330
B
  0
LAYOUT
  5
20
102
{ACAD_XDICTIONARY
360
63A9
102
}
102
{ACAD_REACTORS
330
1E
102
}
330
1E
100
AcDbPlotSettings
  1

  2

  4

  6

 40
0.0
 41
0.0
 42
0.0
 43
0.0
 44
0.0
 45
0.0
 46
0.0
 47
0.0
 48
0.0
 49
0.0
140
0.0
141
0.0
142
1.0
143
1.0
 70
  1024
 72
     0
 73
     0
 74
     0
  7

 75
     0
147
1.0
148
0.0
149
0.0
100
AcDbLayout
  1
Model
 70
     0
 71
     0
 10
0.0
 20
0.0
 11
0.0
 21
0.0
 12
0.0
 22
0.0
 32
0.0
 14
0.0
 24
0.0
 34
0.0
 15
0.0
 25
0.0
 35
0.0
146
0.0
 13
0.0
 23
0.0
 33
0.0
 16
0.0
 26
0.0
 36
0.0
 17
0.0
 27
0.0
 37
0.0
 76
     0
330
A
331
15
  0
MATERIAL
  5
3155
102
{ACAD_XDICTIONARY
360
3156
102
}
102
{ACAD_REACTORS
330
314C
102
}
330
314C
100
AcDbMaterial
  1
ByBlock
 72
     0
 43
0.0208333333333333
 43
0.0
 43
0.0
 43
0.0
 43
0.0
 43
0.0208333333333333
 43
0.0
 43
0.0
 43
0.0
 43
0.0
 43
1.0
 43
0.0
 43
0.0
 43
0.0
 43
0.0
 43
1.0
 77
     0
 47
0.0208333333333333
 47
0.0
 47
0.0
 47
0.0
 47
0.0
 47
0.0208333333333333
 47
0.0
 47
0.0
 47
0.0
 47
0.0
 47
1.0
 47
0.0
 47
0.0
 47
0.0
 47
0.0
 47
1.0
171
     0
 49
0.0208333333333333
 49
0.0
 49
0.0
 49
0.0
 49
0.0
 49
0.0208333333333333
 49
0.0
 49
0.0
 49
0.0
 49
0.0
 49
1.0
 49
0.0
 49
0.0
 49
0.0
 49
0.0
 49
1.0
175
     0
142
0.0208333333333333
142
0.0
142
0.0
142
0.0
142
0.0
142
0.0208333333333333
142
0.0
142
0.0
142
0.0
142
0.0
142
1.0
142
0.0
142
0.0
142
0.0
142
0.0
142
1.0
179
     0
144
0.0208333333333333
144
0.0
144
0.0
144
0.0
144
0.0
144
0.0208333333333333
144
0.0
144
0.0
144
0.0
144
0.0
144
1.0
144
0.0
144
0.0
144
0.0
144
0.0
144
1.0
147
0.0208333333333333
147
0.0
147
0.0
147
0.0
147
0.0
147
0.0208333333333333
147
0.0
147
0.0
147
0.0
147
0.0
147
1.0
147
0.0
147
0.0
147
0.0
147
0.0
147
1.0
  0
MATERIAL
  5
314D
102
{ACAD_XDICTIONARY
360
314E
102
}
102
{ACAD_REACTORS
330
314C
102
}
330
314C
100
AcDbMaterial
  1
ByLayer
 72
     0
 43
0.0208333333333333
 43
0.0
 43
0.0
 43
0.0
 43
0.0
 43
0.0208333333333333
 43
0.0
 43
0.0
 43
0.0
 43
0.0
 43
1.0
 43
0.0
 43
0.0
 43
0.0
 43
0.0
 43
1.0
 77
     0
 47
0.0208333333333333
 47
0.0
 47
0.0
 47
0.0
 47
0.0
 47
0.0208333333333333
 47
0.0
 47
0.0
 47
0.0
 47
0.0
 47
1.0
 47
0.0
 47
0.0
 47
0.0
 47
0.0
 47
1.0
171
     0
 49
0.0208333333333333
 49
0.0
 49
0.0
 49
0.0
 49
0.0
 49
0.0208333333333333
 49
0.0
 49
0.0
 49
0.0
 49
0.0
 49
1.0
 49
0.0
 49
0.0
 49
0.0
 49
0.0
 49
1.0
175
     0
142
0.0208333333333333
142
0.0
142
0.0
142
0.0
142
0.0
142
0.0208333333333333
142
0.0
142
0.0
142
0.0
142
0.0
142
1.0
142
0.0
142
0.0
142
0.0
142
0.0
142
1.0
179
     0
144
0.0208333333333333
144
0.0
144
0.0
144
0.0
144
0.0
144
0.0208333333333333
144
0.0
144
0.0
144
0.0
144
0.0
144
1.0
144
0.0
144
0.0
144
0.0
144
0.0
144
1.0
147
0.0208333333333333
147
0.0
147
0.0
147
0.0
147
0.0
147
0.0208333333333333
147
0.0
147
0.0
147
0.0
147
0.0
147
1.0
147
0.0
147
0.0
147
0.0
147
0.0
147
1.0
  0
MATERIAL
  5
315D
102
{ACAD_XDICTIONARY
360
315E
102
}
102
{ACAD_REACTORS
330
314C
102
}
330
314C
100
AcDbMaterial
  1
Global
 72
     0
 43
0.0208333333333333
 43
0.0
 43
0.0
 43
0.0
 43
0.0
 43
0.0208333333333333
 43
0.0
 43
0.0
 43
0.0
 43
0.0
 43
1.0
 43
0.0
 43
0.0
 43
0.0
 43
0.0
 43
1.0
 77
     0
 47
0.0208333333333333
 47
0.0
 47
0.0
 47
0.0
 47
0.0
 47
0.0208333333333333
 47
0.0
 47
0.0
 47
0.0
 47
0.0
 47
1.0
 47
0.0
 47
0.0
 47
0.0
 47
0.0
 47
1.0
171
     0
 49
0.0208333333333333
 49
0.0
 49
0.0
 49
0.0
 49
0.0
 49
0.0208333333333333
 49
0.0
 49
0.0
 49
0.0
 49
0.0
 49
1.0
 49
0.0
 49
0.0
 49
0.0
 49
0.0
 49
1.0
175
     0
142
0.0208333333333333
142
0.0
142
0.0
142
0.0
142
0.0
142
0.0208333333333333
142
0.0
142
0.0
142
0.0
142
0.0
142
1.0
142
0.0
142
0.0
142
0.0
142
0.0
142
1.0
179
     0
144
0.0208333333333333
144
0.0
144
0.0
144
0.0
144
0.0
144
0.0208333333333333
144
0.0
144
0.0
144
0.0
144
0.0
144
1.0
144
0.0
144
0.0
144
0.0
144
0.0
144
1.0
147
0.0208333333333333
147
0.0
147
0.0
147
0.0
147
0.0
147
0.0208333333333333
147
0.0
147
0.0
147
0.0
147
0.0
147
1.0
147
0.0
147
0.0
147
0.0
147
0.0
147
1.0
  0
MLEADERSTYLE
  5
319C
102
{ACAD_REACTORS
330
319B
102
}
330
319B
100
AcDbMLeaderStyle
170
     2
171
     1
172
     0
 90
        2
 40
0.0
 41
0.0
173
     1
 91
-1056964608
340
11
 92
       -2
290
     1
 42
2.0
291
     1
 43
0.36
  3
Standard
 44
4.0
300

342
17
174
     1
178
     6
175
     1
176
     0
 93
-1056964608
 45
4.0
292
     0
297
     0
 46
4.0
 94
-1056964608
 47
1.0
 49
1.0
140
1.0
293
     1
141
0.0
294
     1
177
     0
142
1.0
295
     0
296
     0
143
0.125
1001
ACAD_MLEADERVER
1070
     2
  0
MLINESTYLE
  5
1C
102
{ACAD_REACTORS
330
1B
102
}
330
1B
100
AcDbMlineStyle
  2
STANDARD
 70
     0
  3

 62
     0
 51
90.0
 52
90.0
 71
     2
 49
0.5
 62
   256
  6
BYLAYER
 49
-0.5
 62
   256
  6
BYLAYER
  0
ACDBPLACEHOLDER
  5
1D
102
{ACAD_REACTORS
330
1F
102
}
330
1F
  0
SCALE
  5
317A
102
{ACAD_REACTORS
330
3179
102
}
330
3179
100
AcDbScale
 70
     0
300
1:1
140
1.0
141
1.0
290
     1
  0
SCALE
  5
317B
102
{ACAD_REACTORS
330
3179
102
}
330
3179
100
AcDbScale
 70
     0
300
1:2
140
1.0
141
2.0
290
     0
  0
SCALE
  5
317C
102
{ACAD_REACTORS
330
3179
102
}
330
3179
100
AcDbScale
 70
     0
300
1:4
140
1.0
141
4.0
290
     0
  0
SCALE
  5
317D
102
{ACAD_REACTORS
330
3179
102
}
330
3179
100
AcDbScale
 70
     0
300
1:5
140
1.0
141
5.0
290
     0
  0
SCALE
  5
317E
102
{ACAD_REACTORS
330
3179
102
}
330
3179
100
AcDbScale
 70
     0
300
1:8
140
1.0
141
8.0
290
     0
  0
SCALE
  5
317F
102
{ACAD_REACTORS
330
3179
102
}
330
3179
100
AcDbScale
 70
     0
300
1:10
140
1.0
141
10.0
290
     0
  0
SCALE
  5
3180
102
{ACAD_REACTORS
330
3179
102
}
330
3179
100
AcDbScale
 70
     0
300
1:16
140
1.0
141
16.0
290
     0
  0
SCALE
  5
3181
102
{ACAD_REACTORS
330
3179
102
}
330
3179
100
AcDbScale
 70
     0
300
1:20
140
1.0
141
20.0
290
     0
  0
SCALE
  5
3182
102
{ACAD_REACTORS
330
3179
102
}
330
3179
100
AcDbScale
 70
     0
300
1:30
140
1.0
141
30.0
290
     0
  0
SCALE
  5
3183
102
{ACAD_REACTORS
330
3179
102
}
330
3179
100
AcDbScale
 70
     0
300
1:40
140
1.0
141
40.0
290
     0
  0
SCALE
  5
3184
102
{ACAD_REACTORS
330
3179
102
}
330
3179
100
AcDbScale
 70
     0
300
1:50
140
1.0
141
50.0
290
     0
  0
SCALE
  5
3185
102
{ACAD_REACTORS
330
3179
102
}
330
3179
100
AcDbScale
 70
     0
300
1:100
140
1.0
141
100.0
290
     0
  0
SCALE
  5
3186
102
{ACAD_REACTORS
330
3179
102
}
330
3179
100
AcDbScale
 70
     0
300
2:1
140
2.0
141
1.0
290
     0
  0
SCALE
  5
3187
102
{ACAD_REACTORS
330
3179
102
}
330
3179
100
AcDbScale
 70
     0
300
4:1
140
4.0
141
1.0
290
     0
  0
SCALE
  5
3188
102
{ACAD_REACTORS
330
3179
102
}
330
3179
100
AcDbScale
 70
     0
300
8:1
140
8.0
141
1.0
290
     0
  0
SCALE
  5
3189
102
{ACAD_REACTORS
330
3179
102
}
330
3179
100
AcDbScale
 70
     0
300
10:1
140
10.0
141
1.0
290
     0
  0
SCALE
  5
318A
102
{ACAD_REACTORS
330
3179
102
}
330
3179
100
AcDbScale
 70
     0
300
100:1
140
100.0
141
1.0
290
     0
  0
SCALE
  5
318B
102
{ACAD_REACTORS
330
3179
102
}
330
3179
100
AcDbScale
 70
     0
300
1/128" = 1'-0"
140
0.0078125
141
12.0
290
     0
  0
SCALE
  5
318C
102
{ACAD_REACTORS
330
3179
102
}
330
3179
100
AcDbScale
 70
     0
300
1/64" = 1'-0"
140
0.015625
141
12.0
290
     0
  0
SCALE
  5
318D
102
{ACAD_REACTORS
330
3179
102
}
330
3179
100
AcDbScale
 70
     0
300
1/32" = 1'-0"
140
0.03125
141
12.0
290
     0
  0
SCALE
  5
318E
102
{ACAD_REACTORS
330
3179
102
}
330
3179
100
AcDbScale
 70
     0
300
1/16" = 1'-0"
140
0.0625
141
12.0
290
     0
  0
SCALE
  5
318F
102
{ACAD_REACTORS
330
3179
102
}
330
3179
100
AcDbScale
 70
     0
300
3/32" = 1'-0"
140
0.09375
141
12.0
290
     0
  0
SCALE
  5
3190
102
{ACAD_REACTORS
330
3179
102
}
330
3179
100
AcDbScale
 70
     0
300
1/8" = 1'-0"
140
0.125
141
12.0
290
     0
  0
SCALE
  5
3191
102
{ACAD_REACTORS
330
3179
102
}
330
3179
100
AcDbScale
 70
     0
300
3/16" = 1'-0"
140
0.1875
141
12.0
290
     0
  0
SCALE
  5
3192
102
{ACAD_REACTORS
330
3179
102
}
330
3179
100
AcDbScale
 70
     0
300
1/4" = 1'-0"
140
0.25
141
12.0
290
     0
  0
SCALE
  5
3193
102
{ACAD_REACTORS
330
3179
102
}
330
3179
100
AcDbScale
 70
     0
300
3/8" = 1'-0"
140
0.375
141
12.0
290
     0
  0
SCALE
  5
3194
102
{ACAD_REACTORS
330
3179
102
}
330
3179
100
AcDbScale
 70
     0
300
1/2" = 1'-0"
140
0.5
141
12.0
290
     0
  0
SCALE
  5
3195
102
{ACAD_REACTORS
330
3179
102
}
330
3179
100
AcDbScale
 70
     0
300
3/4" = 1'-0"
140
0.75
141
12.0
290
     0
  0
SCALE
  5
3196
102
{ACAD_REACTORS
330
3179
102
}
330
3179
100
AcDbScale
 70
     0
300
1" = 1'-0"
140
1.0
141
12.0
290
     0
  0
SCALE
  5
3197
102
{ACAD_REACTORS
330
3179
102
}
330
3179
100
AcDbScale
 70
     0
300
1-1/2" = 1'-0"
140
1.5
141
12.0
290
     0
  0
SCALE
  5
3198
102
{ACAD_REACTORS
330
3179
102
}
330
3179
100
AcDbScale
 70
     0
300
3" = 1'-0"
140
3.0
141
12.0
290
     0
  0
SCALE
  5
3199
102
{ACAD_REACTORS
330
3179
102
}
330
3179
100
AcDbScale
 70
     0
300
6" = 1'-0"
140
6.0
141
12.0
290
     0
  0
SCALE
  5
319A
102
{ACAD_REACTORS
330
3179
102
}
330
3179
100
AcDbScale
 70
     0
300
1'-0" = 1'-0"
140
12.0
141
12.0
290
     0
  0
TABLESTYLE
  5
3178
102
{ACAD_XDICTIONARY
360
6308
102
}
102
{ACAD_REACTORS
330
3177
102
}
330
3177
100
AcDbTableStyle
  3
Standard
 70
     0
 71
     0
 40
1.5
 41
1.5
280
     0
281
     0
  7
Standard
140
4.5
170
     2
 62
     0
 63
     7
283
     0
274
    -2
284
     1
 64
     0
275
    -2
285
     1
 65
     0
276
    -2
286
     1
 66
     0
277
    -2
287
     1
 67
     0
278
    -2
288
     1
 68
     0
279
    -2
289
     1
 69
     0
  7
Standard
140
6.0
170
     5
 62
     0
 63
     7
283
     0
274
    -2
284
     1
 64
     0
275
    -2
285
     1
 65
     0
276
    -2
286
     1
 66
     0
277
    -2
287
     1
 67
     0
278
    -2
288
     1
 68
     0
279
    -2
289
     1
 69
     0
  7
Standard
140
4.5
170
     5
 62
     0
 63
     7
283
     0
274
    -2
284
     1
 64
     0
275
    -2
285
     1
 65
     0
276
    -2
286
     1
 66
     0
277
    -2
287
     1
 67
     0
278
    -2
288
     1
 68
     0
279
    -2
289
     1
 69
     0
  0
VISUALSTYLE
  5
316B
102
{ACAD_REACTORS
330
3165
102
}
330
3165
100
AcDbVisualStyle
  2
2dWireframe
 70
     4
 71
     0
 72
     2
 73
     0
 90
        0
 40
-0.6
 41
-30.0
 62
     5
 63
     7
 74
     1
 91
        4
 64
     7
 65
   257
 75
     1
175
     1
 42
1.0
 92
        0
 66
   257
 43
1.0
 76
     1
 77
     6
 78
     2
 67
     7
 79
     5
170
     0
171
     0
290
     0
174
     0
 93
        1
 44
0.0
173
     0
291
     0
 45
0.0
1001
ACAD
1000
AcDbSavedByObjectVersion
1070
     0
1000
AcDbSavedByObjectVersion
1070
     0
  0
VISUALSTYLE
  5
316D
102
{ACAD_REACTORS
330
3165
102
}
330
3165
100
AcDbVisualStyle
  2
3D Hidden
 70
     6
 71
     1
 72
     2
 73
     2
 90
        0
 40
-0.6
 41
-30.0
 62
     5
 63
     7
 74
     2
 91
        2
 64
     7
 65
   257
 75
     2
175
     1
 42
40.0
 92
        0
 66
   257
 43
1.0
 76
     1
 77
     6
 78
     2
 67
     7
 79
     3
170
     0
171
     0
290
     0
174
     0
 93
        1
 44
0.0
173
     0
291
     0
 45
0.0
1001
ACAD
1000
AcDbSavedByObjectVersion
1070
     0
1000
AcDbSavedByObjectVersion
1070
     0
  0
VISUALSTYLE
  5
316C
102
{ACAD_REACTORS
330
3165
102
}
330
3165
100
AcDbVisualStyle
  2
3dWireframe
 70
     5
 71
     0
 72
     2
 73
     0
 90
        0
 40
-0.6
 41
-30.0
 62
     5
 63
     7
 74
     1
 91
        4
 64
     7
 65
   257
 75
     1
175
     1
 42
1.0
 92
        0
 66
   257
 43
1.0
 76
     1
 77
     6
 78
     2
 67
     7
 79
     5
170
     0
171
     0
290
     0
174
     0
 93
        1
 44
0.0
173
     0
291
     0
 45
0.0
1001
ACAD
1000
AcDbSavedByObjectVersion
1070
     0
1000
AcDbSavedByObjectVersion
1070
     0
  0
VISUALSTYLE
  5
316A
102
{ACAD_REACTORS
330
3165
102
}
330
3165
100
AcDbVisualStyle
  2
Basic
 70
     7
 71
     1
 72
     0
 73
     1
 90
        0
 40
-0.6
 41
-30.0
 62
     5
 63
     7
 74
     0
 91
        4
 64
     7
 65
   257
 75
     1
175
     1
 42
1.0
 92
        8
 66
     7
 43
1.0
 76
     1
 77
     6
 78
     2
 67
     7
 79
     5
170
     0
171
     0
290
     0
174
     0
 93
        1
 44
0.0
173
     0
291
     1
 45
0.0
1001
ACAD
1000
AcDbSavedByObjectVersion
1070
     0
1000
AcDbSavedByObjectVersion
1070
     0
  0
VISUALSTYLE
  5
3171
102
{ACAD_REACTORS
330
3165
102
}
330
3165
100
AcDbVisualStyle
  2
Brighten
 70
    12
 71
     2
 72
     2
 73
     0
 90
        0
 40
-0.6
 41
-30.0
 62
     5
 63
     7
 74
     1
 91
        4
 64
     7
 65
   257
 75
     1
175
     1
 42
1.0
 92
        8
 66
     7
 43
1.0
 76
     1
 77
     6
 78
     2
 67
     7
 79
     5
170
     0
171
     0
290
     0
174
     0
 93
        1
 44
50.0
173
     0
291
     1
 45
0.0
1001
ACAD
1000
AcDbSavedByObjectVersion
1070
     0
1000
AcDbSavedByObjectVersion
1070
     0
  0
VISUALSTYLE
  5
3175
102
{ACAD_REACTORS
330
3165
102
}
330
3165
100
AcDbVisualStyle
  2
ColorChange
 70
    16
 71
     2
 72
     2
 73
     3
 90
        0
 40
-0.6
 41
-30.0
 62
     5
 63
     8
 74
     1
 91
        4
 64
     7
 65
   257
 75
     1
175
     1
 42
1.0
 92
        8
 66
     8
 43
1.0
 76
     1
 77
     6
 78
     2
 67
     7
 79
     5
170
     0
171
     0
290
     0
174
     0
 93
        1
 44
0.0
173
     0
291
     1
 45
0.0
1001
ACAD
1000
AcDbSavedByObjectVersion
1070
     0
1000
AcDbSavedByObjectVersion
1070
     0
  0
VISUALSTYLE
  5
316E
102
{ACAD_REACTORS
330
3165
102
}
330
3165
100
AcDbVisualStyle
  2
Conceptual
 70
     9
 71
     3
 72
     2
 73
     0
 90
        0
 40
-0.6
 41
-30.0
 62
     5
 63
     7
 74
     2
 91
        2
 64
     7
 65
   257
 75
     1
175
     1
 42
40.0
 92
        8
 66
     7
 43
1.0
 76
     1
 77
     6
 78
     2
 67
     7
 79
     3
170
     0
171
     0
290
     0
174
     0
 93
        1
 44
0.0
173
     0
291
     0
 45
0.0
1001
ACAD
1000
AcDbSavedByObjectVersion
1070
     0
1000
AcDbSavedByObjectVersion
1070
     0
  0
VISUALSTYLE
  5
3170
102
{ACAD_REACTORS
330
3165
102
}
330
3165
100
AcDbVisualStyle
  2
Dim
 70
    11
 71
     2
 72
     2
 73
     0
 90
        0
 40
-0.6
 41
-30.0
 62
     5
 63
     7
 74
     1
 91
        4
 64
     7
 65
   257
 75
     1
175
     1
 42
1.0
 92
        8
 66
     7
 43
1.0
 76
     1
 77
     6
 78
     2
 67
     7
 79
     5
170
     0
171
     0
290
     0
174
     0
 93
        1
 44
-50.0
173
     0
291
     1
 45
0.0
1001
ACAD
1000
AcDbSavedByObjectVersion
1070
     0
1000
AcDbSavedByObjectVersion
1070
     0
  0
VISUALSTYLE
  5
3174
102
{ACAD_REACTORS
330
3165
102
}
330
3165
100
AcDbVisualStyle
  2
Facepattern
 70
    15
 71
     2
 72
     2
 73
     0
 90
        0
 40
-0.6
 41
-30.0
 62
     5
 63
     7
 74
     1
 91
        4
 64
     7
 65
   257
 75
     1
175
     1
 42
1.0
 92
        8
 66
     7
 43
1.0
 76
     1
 77
     6
 78
     2
 67
     7
 79
     5
170
     0
171
     0
290
     0
174
     0
 93
        1
 44
0.0
173
     0
291
     1
 45
0.0
1001
ACAD
1000
AcDbSavedByObjectVersion
1070
     0
1000
AcDbSavedByObjectVersion
1070
     0
  0
VISUALSTYLE
  5
3166
102
{ACAD_REACTORS
330
3165
102
}
330
3165
100
AcDbVisualStyle
  2
Flat
 70
     0
 71
     2
 72
     1
 73
     1
 90
        2
 40
-0.6
 41
30.0
 62
     5
 63
     7
 74
     0
 91
        4
 64
     7
 65
   257
 75
     1
175
     1
 42
1.0
 92
        8
 66
     7
 43
1.0
 76
     1
 77
     6
 78
     2
 67
     7
 79
     5
170
     0
171
     0
290
     0
174
     0
 93
       13
 44
0.0
173
     0
291
     1
 45
0.0
1001
ACAD
1000
AcDbSavedByObjectVersion
1070
     0
1000
AcDbSavedByObjectVersion
1070
     0
  0
VISUALSTYLE
  5
3167
102
{ACAD_REACTORS
330
3165
102
}
330
3165
100
AcDbVisualStyle
  2
FlatWithEdges
 70
     1
 71
     2
 72
     1
 73
     1
 90
        2
 40
-0.6
 41
30.0
 62
     5
 63
     7
 74
     1
 91
        4
 64
     7
 65
   257
 75
     1
175
     1
 42
1.0
 92
        0
 66
   257
 43
1.0
 76
     1
 77
     6
 78
     2
 67
     7
 79
     5
170
     0
171
     0
290
     0
174
     0
 93
       13
 44
0.0
173
     0
291
     1
 45
0.0
1001
ACAD
1000
AcDbSavedByObjectVersion
1070
     0
1000
AcDbSavedByObjectVersion
1070
     0
  0
VISUALSTYLE
  5
3168
102
{ACAD_REACTORS
330
3165
102
}
330
3165
100
AcDbVisualStyle
  2
Gouraud
 70
     2
 71
     2
 72
     2
 73
     1
 90
        2
 40
-0.6
 41
30.0
 62
     5
 63
     7
 74
     0
 91
        4
 64
     7
 65
   257
 75
     1
175
     1
 42
1.0
 92
        0
 66
     7
 43
1.0
 76
     1
 77
     6
 78
     2
 67
     7
 79
     5
170
     0
171
     0
290
     0
174
     0
 93
       13
 44
0.0
173
     0
291
     1
 45
0.0
1001
ACAD
1000
AcDbSavedByObjectVersion
1070
     0
1000
AcDbSavedByObjectVersion
1070
     0
  0
VISUALSTYLE
  5
3169
102
{ACAD_REACTORS
330
3165
102
}
330
3165
100
AcDbVisualStyle
  2
GouraudWithEdges
 70
     3
 71
     2
 72
     2
 73
     1
 90
        2
 40
-0.6
 41
30.0
 62
     5
 63
     7
 74
     1
 91
        4
 64
     7
 65
   257
 75
     1
175
     1
 42
1.0
 92
        0
 66
   257
 43
1.0
 76
     1
 77
     6
 78
     2
 67
     7
 79
     5
170
     0
171
     0
290
     0
174
     0
 93
       13
 44
0.0
173
     0
291
     1
 45
0.0
1001
ACAD
1000
AcDbSavedByObjectVersion
1070
     0
1000
AcDbSavedByObjectVersion
1070
     0
  0
VISUALSTYLE
  5
3173
102
{ACAD_REACTORS
330
3165
102
}
330
3165
100
AcDbVisualStyle
  2
Linepattern
 70
    14
 71
     2
 72
     2
 73
     0
 90
        0
 40
-0.6
 41
-30.0
 62
     5
 63
     7
 74
     1
 91
        4
 64
     7
 65
   257
 75
     7
175
     7
 42
1.0
 92
        8
 66
     7
 43
1.0
 76
     1
 77
     6
 78
     2
 67
     7
 79
     5
170
     0
171
     0
290
     0
174
     0
 93
        1
 44
0.0
173
     0
291
     1
 45
0.0
1001
ACAD
1000
AcDbSavedByObjectVersion
1070
     0
1000
AcDbSavedByObjectVersion
1070
     0
  0
VISUALSTYLE
  5
316F
102
{ACAD_REACTORS
330
3165
102
}
330
3165
100
AcDbVisualStyle
  2
Realistic
 70
     8
 71
     2
 72
     2
 73
     0
 90
        0
 40
-0.6
 41
-30.0
 62
     5
 63
     7
 74
     1
 91
        0
 64
     7
 65
   257
 75
     1
175
     1
 42
1.0
 92
        8
 66
     8
 43
1.0
 76
     1
 77
     6
 78
     2
 67
     7
 79
     5
170
     0
171
     0
290
     0
174
     0
 93
       13
 44
0.0
173
     0
291
     0
 45
0.0
1001
ACAD
1000
AcDbSavedByObjectVersion
1070
     0
1000
AcDbSavedByObjectVersion
1070
     0
  0
VISUALSTYLE
  5
3172
102
{ACAD_REACTORS
330
3165
102
}
330
3165
100
AcDbVisualStyle
  2
Thicken
 70
    13
 71
     2
 72
     2
 73
     0
 90
        0
 40
-0.6
 41
-30.0
 62
     5
 63
     7
 74
     1
 91
        4
 64
     7
 65
   257
 75
     1
175
     1
 42
1.0
 92
       12
 66
     7
 43
1.0
 76
     1
 77
     6
 78
     2
 67
     7
 79
     5
170
     0
171
     0
290
     0
174
     0
 93
        1
 44
0.0
173
     0
291
     1
 45
0.0
1001
ACAD
1000
AcDbSavedByObjectVersion
1070
     0
1000
AcDbSavedByObjectVersion
1070
     0
  0
DICTIONARYVAR
  5
630F
102
{ACAD_REACTORS
330
630B
102
}
330
630B
100
DictionaryVariables
280
     0
  1
1:1
  0
DICTIONARYVAR
  5
630D
102
{ACAD_REACTORS
330
630B
102
}
330
630B
100
DictionaryVariables
280
     0
  1
STANDARD
  0
DICTIONARYVAR
  5
630C
102
{ACAD_REACTORS
330
630B
102
}
330
630B
100
DictionaryVariables
280
     0
  1
STANDARD
  0
DICTIONARYVAR
  5
6318
102
{ACAD_REACTORS
330
630B
102
}
330
630B
100
DictionaryVariables
280
     0
  1
1
  0
DICTIONARYVAR
  5
6317
102
{ACAD_REACTORS
330
630B
102
}
330
630B
100
DictionaryVariables
280
     0
  1
0
  0
DICTIONARYVAR
  5
6310
102
{ACAD_REACTORS
330
630B
102
}
330
630B
100
DictionaryVariables
280
     0
  1
0
  0
DICTIONARYVAR
  5
630E
102
{ACAD_REACTORS
330
630B
102
}
330
630B
100
DictionaryVariables
280
     0
  1
0
  0
DICTIONARYVAR
  5
6316
102
{ACAD_REACTORS
330
630B
102
}
330
630B
100
DictionaryVariables
280
     0
  1
127
  0
XRECORD
  5
5E46
102
{ACAD_REACTORS
330
5E44
102
}
330
5E44
100
AcDbXrecord
280
     1
  0
DICTIONARY
  5
63AB
330
21
100
AcDbDictionary
280
     1
281
     1
  3
ACAD_XREC_ROUNDTRIP
360
63AC
  0
DICTIONARY
  5
63A9
330
20
100
AcDbDictionary
280
     1
281
     1
  3
ACAD_XREC_ROUNDTRIP
360
63AA
  0
DICTIONARY
  5
3156
330
3155
100
AcDbDictionary
280
     1
281
     1
  3
ACAD_XREC_ROUNDTRIP
360
6320
  3
BUMPTILE
360
3158
  3
DIFFUSETILE
360
3157
  3
OPACITYTILE
360
315B
  3
REFLECTIONTILE
360
315A
  3
REFRACTIONTILE
360
315C
  3
SPECULARTILE
360
3159
  0
DICTIONARY
  5
314E
330
314D
100
AcDbDictionary
280
     1
281
     1
  3
ACAD_XREC_ROUNDTRIP
360
631F
  3
BUMPTILE
360
3150
  3
DIFFUSETILE
360
314F
  3
OPACITYTILE
360
3153
  3
REFLECTIONTILE
360
3152
  3
REFRACTIONTILE
360
3154
  3
SPECULARTILE
360
3151
  0
DICTIONARY
  5
315E
330
315D
100
AcDbDictionary
280
     1
281
     1
  3
ACAD_XREC_ROUNDTRIP
360
6321
  3
BUMPTILE
360
3160
  3
DIFFUSETILE
360
315F
  3
OPACITYTILE
360
3163
  3
REFLECTIONTILE
360
3162
  3
REFRACTIONTILE
360
3164
  3
SPECULARTILE
360
3161
  0
DICTIONARY
  5
6308
330
3178
100
AcDbDictionary
280
     1
281
     1
  3
ACAD_ROUNDTRIP_2008_TABLESTYLE_CELLSTYLEMAP
360
63A7
  3
ACAD_XREC_ROUNDTRIP
360
63AD
  0
XRECORD
  5
63AC
102
{ACAD_REACTORS
330
63AB
102
}
330
63AB
100
AcDbXrecord
280
     1
102
SHADEPLOT
 70
     0
102
SHADEPLOTRESLEVEL
 70
     2
102
SHADEPLOTCUSTOMDPI
 70
   300
  0
XRECORD
  5
63AA
102
{ACAD_REACTORS
330
63A9
102
}
330
63A9
100
AcDbXrecord
280
     1
102
SHADEPLOT
 70
     0
102
SHADEPLOTRESLEVEL
 70
     2
102
SHADEPLOTCUSTOMDPI
 70
   300
  0
XRECORD
  5
6320
102
{ACAD_REACTORS
330
3156
102
}
330
3156
100
AcDbXrecord
280
     1
102
MATERIAL
148
0.0
149
0.0
149
0.0
 93
        0
 94
      127
282
     0
 72
     0
 77
     0
171
     0
175
     0
179
     0
273
     0
  0
XRECORD
  5
3158
102
{ACAD_REACTORS
330
3156
102
}
330
3156
100
AcDbXrecord
280
     1
270
     1
271
     1
  0
XRECORD
  5
3157
102
{ACAD_REACTORS
330
3156
102
}
330
3156
100
AcDbXrecord
280
     1
270
     1
271
     1
  0
XRECORD
  5
315B
102
{ACAD_REACTORS
330
3156
102
}
330
3156
100
AcDbXrecord
280
     1
270
     1
271
     1
  0
XRECORD
  5
315A
102
{ACAD_REACTORS
330
3156
102
}
330
3156
100
AcDbXrecord
280
     1
270
     1
271
     1
  0
XRECORD
  5
315C
102
{ACAD_REACTORS
330
3156
102
}
330
3156
100
AcDbXrecord
280
     1
270
     1
271
     1
  0
XRECORD
  5
3159
102
{ACAD_REACTORS
330
3156
102
}
330
3156
100
AcDbXrecord
280
     1
270
     1
271
     1
  0
XRECORD
  5
631F
102
{ACAD_REACTORS
330
314E
102
}
330
314E
100
AcDbXrecord
280
     1
102
MATERIAL
148
0.0
149
0.0
149
0.0
 93
        0
 94
      127
282
     0
 72
     0
 77
     0
171
     0
175
     0
179
     0
273
     0
  0
XRECORD
  5
3150
102
{ACAD_REACTORS
330
314E
102
}
330
314E
100
AcDbXrecord
280
     1
270
     1
271
     1
  0
XRECORD
  5
314F
102
{ACAD_REACTORS
330
314E
102
}
330
314E
100
AcDbXrecord
280
     1
270
     1
271
     1
  0
XRECORD
  5
3153
102
{ACAD_REACTORS
330
314E
102
}
330
314E
100
AcDbXrecord
280
     1
270
     1
271
     1
  0
XRECORD
  5
3152
102
{ACAD_REACTORS
330
314E
102
}
330
314E
100
AcDbXrecord
280
     1
270
     1
271
     1
  0
XRECORD
  5
3154
102
{ACAD_REACTORS
330
314E
102
}
330
314E
100
AcDbXrecord
280
     1
270
     1
271
     1
  0
XRECORD
  5
3151
102
{ACAD_REACTORS
330
314E
102
}
330
314E
100
AcDbXrecord
280
     1
270
     1
271
     1
  0
XRECORD
  5
6321
102
{ACAD_REACTORS
330
315E
102
}
330
315E
100
AcDbXrecord
280
     1
102
MATERIAL
148
0.0
149
0.0
149
0.0
 93
        0
 94
      127
282
     0
 72
     0
 77
     0
171
     0
175
     0
179
     0
273
     0
  0
XRECORD
  5
3160
102
{ACAD_REACTORS
330
315E
102
}
330
315E
100
AcDbXrecord
280
     1
270
     1
271
     1
  0
XRECORD
  5
315F
102
{ACAD_REACTORS
330
315E
102
}
330
315E
100
AcDbXrecord
280
     1
270
     1
271
     1
  0
XRECORD
  5
3163
102
{ACAD_REACTORS
330
315E
102
}
330
315E
100
AcDbXrecord
280
     1
270
     1
271
     1
  0
XRECORD
  5
3162
102
{ACAD_REACTORS
330
315E
102
}
330
315E
100
AcDbXrecord
280
     1
270
     1
271
     1
  0
XRECORD
  5
3164
102
{ACAD_REACTORS
330
315E
102
}
330
315E
100
AcDbXrecord
280
     1
270
     1
271
     1
  0
XRECORD
  5
3161
102
{ACAD_REACTORS
330
315E
102
}
330
315E
100
AcDbXrecord
280
     1
270
     1
271
     1
  0
CELLSTYLEMAP
  5
63A7
102
{ACAD_REACTORS
330
6308
102
}
330
6308
100
AcDbCellStyleMap
 90
        3
300
CELLSTYLE
  1
TABLEFORMAT_BEGIN
 90
        5
170
     1
 91
        0
 92
    32768
 62
   257
 93
        1
300
CONTENTFORMAT
  1
CONTENTFORMAT_BEGIN
 90
        0
 91
        0
 92
      512
 93
        0
300

 40
0.0
140
1.0
 94
        5
 62
     0
340
17
144
6.0
309
CONTENTFORMAT_END
171
     1
301
MARGIN
  1
CELLMARGIN_BEGIN
 40
1.5
 40
1.5
 40
1.5
 40
1.5
 40
0.18
 40
0.18
309
CELLMARGIN_END
 94
        6
 95
        1
302
GRIDFORMAT
  1
GRIDFORMAT_BEGIN
 90
        0
 91
        1
 62
     0
 92
       -2
340
0
 93
        0
 40
1.125
309
GRIDFORMAT_END
 95
        2
302
GRIDFORMAT
  1
GRIDFORMAT_BEGIN
 90
        0
 91
        1
 62
     0
 92
       -2
340
0
 93
        0
 40
1.125
309
GRIDFORMAT_END
 95
        4
302
GRIDFORMAT
  1
GRIDFORMAT_BEGIN
 90
        0
 91
        1
 62
     0
 92
       -2
340
0
 93
        0
 40
1.125
309
GRIDFORMAT_END
 95
        8
302
GRIDFORMAT
  1
GRIDFORMAT_BEGIN
 90
        0
 91
        1
 62
     0
 92
       -2
340
0
 93
        0
 40
1.125
309
GRIDFORMAT_END
 95
       16
302
GRIDFORMAT
  1
GRIDFORMAT_BEGIN
 90
        0
 91
        1
 62
     0
 92
       -2
340
0
 93
        0
 40
1.125
309
GRIDFORMAT_END
 95
       32
302
GRIDFORMAT
  1
GRIDFORMAT_BEGIN
 90
        0
 91
        1
 62
     0
 92
       -2
340
0
 93
        0
 40
1.125
309
GRIDFORMAT_END
309
TABLEFORMAT_END
  1
CELLSTYLE_BEGIN
 90
        1
 91
        1
300
_TITLE
309
CELLSTYLE_END
300
CELLSTYLE
  1
TABLEFORMAT_BEGIN
 90
        5
170
     1
 91
        0
 92
        0
 62
   257
 93
        1
300
CONTENTFORMAT
  1
CONTENTFORMAT_BEGIN
 90
        0
 91
        0
 92
      512
 93
        0
300

 40
0.0
140
1.0
 94
        5
 62
     0
340
17
144
4.5
309
CONTENTFORMAT_END
171
     1
301
MARGIN
  1
CELLMARGIN_BEGIN
 40
1.5
 40
1.5
 40
1.5
 40
1.5
 40
0.18
 40
0.18
309
CELLMARGIN_END
 94
        6
 95
        1
302
GRIDFORMAT
  1
GRIDFORMAT_BEGIN
 90
        0
 91
        1
 62
     0
 92
       -2
340
0
 93
        0
 40
1.125
309
GRIDFORMAT_END
 95
        2
302
GRIDFORMAT
  1
GRIDFORMAT_BEGIN
 90
        0
 91
        1
 62
     0
 92
       -2
340
0
 93
        0
 40
1.125
309
GRIDFORMAT_END
 95
        4
302
GRIDFORMAT
  1
GRIDFORMAT_BEGIN
 90
        0
 91
        1
 62
     0
 92
       -2
340
0
 93
        0
 40
1.125
309
GRIDFORMAT_END
 95
        8
302
GRIDFORMAT
  1
GRIDFORMAT_BEGIN
 90
        0
 91
        1
 62
     0
 92
       -2
340
0
 93
        0
 40
1.125
309
GRIDFORMAT_END
 95
       16
302
GRIDFORMAT
  1
GRIDFORMAT_BEGIN
 90
        0
 91
        1
 62
     0
 92
       -2
340
0
 93
        0
 40
1.125
309
GRIDFORMAT_END
 95
       32
302
GRIDFORMAT
  1
GRIDFORMAT_BEGIN
 90
        0
 91
        1
 62
     0
 92
       -2
340
0
 93
        0
 40
1.125
309
GRIDFORMAT_END
309
TABLEFORMAT_END
  1
CELLSTYLE_BEGIN
 90
        2
 91
        1
300
_HEADER
309
CELLSTYLE_END
300
CELLSTYLE
  1
TABLEFORMAT_BEGIN
 90
        5
170
     1
 91
        0
 92
        0
 62
   257
 93
        1
300
CONTENTFORMAT
  1
CONTENTFORMAT_BEGIN
 90
        0
 91
        0
 92
      512
 93
        0
300

 40
0.0
140
1.0
 94
        2
 62
     0
340
17
144
4.5
309
CONTENTFORMAT_END
171
     1
301
MARGIN
  1
CELLMARGIN_BEGIN
 40
1.5
 40
1.5
 40
1.5
 40
1.5
 40
0.18
 40
0.18
309
CELLMARGIN_END
 94
        6
 95
        1
302
GRIDFORMAT
  1
GRIDFORMAT_BEGIN
 90
        0
 91
        1
 62
     0
 92
       -2
340
0
 93
        0
 40
1.125
309
GRIDFORMAT_END
 95
        2
302
GRIDFORMAT
  1
GRIDFORMAT_BEGIN
 90
        0
 91
        1
 62
     0
 92
       -2
340
0
 93
        0
 40
1.125
309
GRIDFORMAT_END
 95
        4
302
GRIDFORMAT
  1
GRIDFORMAT_BEGIN
 90
        0
 91
        1
 62
     0
 92
       -2
340
0
 93
        0
 40
1.125
309
GRIDFORMAT_END
 95
        8
302
GRIDFORMAT
  1
GRIDFORMAT_BEGIN
 90
        0
 91
        1
 62
     0
 92
       -2
340
0
 93
        0
 40
1.125
309
GRIDFORMAT_END
 95
       16
302
GRIDFORMAT
  1
GRIDFORMAT_BEGIN
 90
        0
 91
        1
 62
     0
 92
       -2
340
0
 93
        0
 40
1.125
309
GRIDFORMAT_END
 95
       32
302
GRIDFORMAT
  1
GRIDFORMAT_BEGIN
 90
        0
 91
        1
 62
     0
 92
       -2
340
0
 93
        0
 40
1.125
309
GRIDFORMAT_END
309
TABLEFORMAT_END
  1
CELLSTYLE_BEGIN
 90
        3
 91
        2
300
_DATA
309
CELLSTYLE_END
  0
XRECORD
  5
63AD
102
{ACAD_REACTORS
330
6308
102
}
330
6308
100
AcDbXrecord
280
     1
102
ACAD_ROUNDTRIP_PRE2007_TABLESTYLE
 90
      512
 91
        0
  1

 92
      512
 93
        0
  2

 94
      512
 95
        0
  3

  0
ENDSEC
  0
EOF
