  0
SECTION
  2
HEADER
  9
$ACADVER
  1
AC1015
  9
$ACADMAINTVER
 70
     6
  9
$DWGCODEPAGE
  3
ANSI_1252
  9
$INSBASE
 10
0.0
 20
0.0
 30
0.0
  9
$EXTMIN
 10
-432.8057451938
 20
-596.9657715674
 30
0.0
  9
$EXTMAX
 10
287.0970232204199
 20
903.0342284326
 30
0.0
  9
$LIMMIN
 10
0.0
 20
0.0
  9
$LIMMAX
 10
210.0
 20
297.0
  9
$ORTHOMODE
 70
     0
  9
$REGENMODE
 70
     1
  9
$FILLMODE
 70
     1
  9
$QTEXTMODE
 70
     0
  9
$MIRRTEXT
 70
     1
  9
$LTSCALE
 40
1.0
  9
$ATTMODE
 70
     1
  9
$TEXTSIZE
 40
2.8
  9
$TRACEWID
 40
1.0
  9
$TEXTSTYLE
  7
Standard
  9
$CLAYER
  8
0
  9
$CELTYPE
  6
ByLayer
  9
$CECOLOR
 62
   256
  9
$CELTSCALE
 40
1.0
  9
$DISPSILH
 70
     0
  9
$DIMSCALE
 40
1.0
  9
$DIMASZ
 40
3.2
  9
$DIMEXO
 40
0.1
  9
$DIMDLI
 40
3.75
  9
$DIMRND
 40
0.0
  9
$DIMDLE
 40
0.0
  9
$DIMEXE
 40
1.0
  9
$DIMTP
 40
0.0
  9
$DIMTM
 40
0.0
  9
$DIMTXT
 40
3.2
  9
$DIMCEN
 40
2.5
  9
$DIMTSZ
 40
0.0
  9
$DIMTOL
 70
     0
  9
$DIMLIM
 70
     0
  9
$DIMTIH
 70
     1
  9
$DIMTOH
 70
     1
  9
$DIMSE1
 70
     0
  9
$DIMSE2
 70
     0
  9
$DIMTAD
 70
     1
  9
$DIMZIN
 70
     0
  9
$DIMBLK
  1

  9
$DIMASO
 70
     1
  9
$DIMSHO
 70
     1
  9
$DIMPOST
  1

  9
$DIMAPOST
  1

  9
$DIMALT
 70
     0
  9
$DIMALTD
 70
     3
  9
$DIMALTF
 40
0.0393700787
  9
$DIMLFAC
 40
1.0
  9
$DIMTOFL
 70
     1
  9
$DIMTVP
 40
0.0
  9
$DIMTIX
 70
     0
  9
$DIMSOXD
 70
     0
  9
$DIMSAH
 70
     0
  9
$DIMBLK1
  1

  9
$DIMBLK2
  1

  9
$DIMSTYLE
  2
ISO-25
  9
$DIMCLRD
 70
     0
  9
$DIMCLRE
 70
     0
  9
$DIMCLRT
 70
     0
  9
$DIMTFAC
 40
1.0
  9
$DIMGAP
 40
2.0
  9
$DIMJUST
 70
     0
  9
$DIMSD1
 70
     0
  9
$DIMSD2
 70
     0
  9
$DIMTOLJ
 70
     0
  9
$DIMTZIN
 70
     0
  9
$DIMALTZ
 70
     0
  9
$DIMALTTZ
 70
     0
  9
$DIMUPT
 70
     0
  9
$DIMDEC
 70
     2
  9
$DIMTDEC
 70
     2
  9
$DIMALTU
 70
     2
  9
$DIMALTTD
 70
     3
  9
$DIMTXSTY
  7
Standard
  9
$DIMAUNIT
 70
     0
  9
$DIMADEC
 70
     2
  9
$DIMALTRND
 40
0.0
  9
$DIMAZIN
 70
     0
  9
$DIMDSEP
 70
    44
  9
$DIMATFIT
 70
     3
  9
$DIMFRAC
 70
     0
  9
$DIMLDRBLK
  1

  9
$DIMLUNIT
 70
     2
  9
$DIMLWD
 70
    -2
  9
$DIMLWE
 70
    -2
  9
$DIMTMOVE
 70
     0
  9
$LUNITS
 70
     2
  9
$LUPREC
 70
     2
  9
$SKETCHINC
 40
1.0
  9
$FILLETRAD
 40
10.0
  9
$AUNITS
 70
     0
  9
$AUPREC
 70
     2
  9
$MENU
  1
.
  9
$ELEVATION
 40
0.0
  9
$PELEVATION
 40
0.0
  9
$THICKNESS
 40
0.0
  9
$LIMCHECK
 70
     0
  9
$CHAMFERA
 40
0.0
  9
$CHAMFERB
 40
0.0
  9
$CHAMFERC
 40
0.0
  9
$CHAMFERD
 40
0.0
  9
$SKPOLY
 70
     0
  9
$TDCREATE
 40
2458521.438425231
  9
$TDUCREATE
 40
2458521.396758565
  9
$TDUPDATE
 40
2458521.439167697
  9
$TDUUPDATE
 40
2458521.39750103
  9
$TDINDWG
 40
0.0006109259
  9
$TDUSRTIMER
 40
0.0006109144
  9
$USRTIMER
 70
     1
  9
$ANGBASE
 50
0.0
  9
$ANGDIR
 70
     0
  9
$PDMODE
 70
     0
  9
$PDSIZE
 40
-1.0
  9
$PLINEWID
 40
0.0
  9
$SPLFRAME
 70
     0
  9
$SPLINETYPE
 70
     6
  9
$SPLINESEGS
 70
     8
  9
$HANDSEED
  5
F0
  9
$SURFTAB1
 70
     6
  9
$SURFTAB2
 70
     6
  9
$SURFTYPE
 70
     6
  9
$SURFU
 70
     6
  9
$SURFV
 70
     6
  9
$UCSBASE
  2

  9
$UCSNAME
  2

  9
$UCSORG
 10
0.0
 20
0.0
 30
0.0
  9
$UCSXDIR
 10
1.0
 20
0.0
 30
0.0
  9
$UCSYDIR
 10
0.0
 20
1.0
 30
0.0
  9
$UCSORTHOREF
  2

  9
$UCSORTHOVIEW
 70
     0
  9
$UCSORGTOP
 10
0.0
 20
0.0
 30
0.0
  9
$UCSORGBOTTOM
 10
0.0
 20
0.0
 30
0.0
  9
$UCSORGLEFT
 10
0.0
 20
0.0
 30
0.0
  9
$UCSORGRIGHT
 10
0.0
 20
0.0
 30
0.0
  9
$UCSORGFRONT
 10
0.0
 20
0.0
 30
0.0
  9
$UCSORGBACK
 10
0.0
 20
0.0
 30
0.0
  9
$PUCSBASE
  2

  9
$PUCSNAME
  2

  9
$PUCSORG
 10
0.0
 20
0.0
 30
0.0
  9
$PUCSXDIR
 10
1.0
 20
0.0
 30
0.0
  9
$PUCSYDIR
 10
0.0
 20
1.0
 30
0.0
  9
$PUCSORTHOREF
  2

  9
$PUCSORTHOVIEW
 70
     0
  9
$PUCSORGTOP
 10
0.0
 20
0.0
 30
0.0
  9
$PUCSORGBOTTOM
 10
0.0
 20
0.0
 30
0.0
  9
$PUCSORGLEFT
 10
0.0
 20
0.0
 30
0.0
  9
$PUCSORGRIGHT
 10
0.0
 20
0.0
 30
0.0
  9
$PUCSORGFRONT
 10
0.0
 20
0.0
 30
0.0
  9
$PUCSORGBACK
 10
0.0
 20
0.0
 30
0.0
  9
$USERI1
 70
     0
  9
$USERI2
 70
     0
  9
$USERI3
 70
     0
  9
$USERI4
 70
     0
  9
$USERI5
 70
     0
  9
$USERR1
 40
0.0
  9
$USERR2
 40
0.0
  9
$USERR3
 40
0.0
  9
$USERR4
 40
0.0
  9
$USERR5
 40
0.0
  9
$WORLDVIEW
 70
     1
  9
$SHADEDGE
 70
     3
  9
$SHADEDIF
 70
    70
  9
$TILEMODE
 70
     1
  9
$MAXACTVP
 70
    64
  9
$PINSBASE
 10
0.0
 20
0.0
 30
0.0
  9
$PLIMCHECK
 70
     0
  9
$PEXTMIN
 10
1.000000000000000E+20
 20
1.000000000000000E+20
 30
1.000000000000000E+20
  9
$PEXTMAX
 10
-1.000000000000000E+20
 20
-1.000000000000000E+20
 30
-1.000000000000000E+20
  9
$PLIMMIN
 10
0.0
 20
0.0
  9
$PLIMMAX
 10
0.0
 20
0.0
  9
$UNITMODE
 70
     0
  9
$VISRETAIN
 70
     1
  9
$PLINEGEN
 70
     0
  9
$PSLTSCALE
 70
     1
  9
$TREEDEPTH
 70
  3020
  9
$CMLSTYLE
  2
Standard
  9
$CMLJUST
 70
     0
  9
$CMLSCALE
 40
20.0
  9
$PROXYGRAPHICS
 70
     1
  9
$MEASUREMENT
 70
     1
  9
$CELWEIGHT
370
    -1
  9
$ENDCAPS
280
     0
  9
$JOINSTYLE
280
     0
  9
$LWDISPLAY
290
     1
  9
$INSUNITS
 70
     4
  9
$HYPERLINKBASE
  1

  9
$STYLESHEET
  1

  9
$XEDIT
290
     1
  9
$CEPSNTYPE
380
     0
  9
$PSTYLEMODE
290
     1
  9
$FINGERPRINTGUID
  2
{DB961042-BC93-40D9-B9CE-6362B3EE22A9}
  9
$VERSIONGUID
  2
{FAEB1C32-E019-11D5-929B-00C0DF256EC4}
  9
$EXTNAMES
290
     1
  9
$PSVPSCALE
 40
0.0
  9
$OLESTARTUP
290
     0
  0
ENDSEC
  0
SECTION
  2
CLASSES
  0
CLASS
  1
ACDBDICTIONARYWDFLT
  2
AcDbDictionaryWithDefault
  3
ObjectDBX Classes
 90
        0
280
     0
281
     0
  0
CLASS
  1
VISUALSTYLE
  2
AcDbVisualStyle
  3
ObjectDBX Classes
 90
     4095
280
     0
281
     0
  0
CLASS
  1
MATERIAL
  2
AcDbMaterial
  3
ObjectDBX Classes
 90
     1153
280
     0
281
     0
  0
CLASS
  1
SCALE
  2
AcDbScale
  3
ObjectDBX Classes
 90
     1153
280
     0
281
     0
  0
CLASS
  1
TABLESTYLE
  2
AcDbTableStyle
  3
ObjectDBX Classes
 90
     4095
280
     0
281
     0
  0
CLASS
  1
MLEADERSTYLE
  2
AcDbMLeaderStyle
  3
ACDB_MLEADERSTYLE_CLASS
 90
     4095
280
     0
281
     0
  0
CLASS
  1
SUN
  2
AcDbSun
  3
SCENEOE
 90
     1153
280
     0
281
     0
  0
CLASS
  1
ACDBPLACEHOLDER
  2
AcDbPlaceHolder
  3
ObjectDBX Classes
 90
        0
280
     0
281
     0
  0
CLASS
  1
LAYOUT
  2
AcDbLayout
  3
ObjectDBX Classes
 90
        0
280
     0
281
     0
  0
ENDSEC
  0
SECTION
  2
TABLES
  0
TABLE
  2
VPORT
  5
8
330
0
100
AcDbSymbolTable
 70
     1
  0
VPORT
  5
29
330
8
100
AcDbSymbolTableRecord
100
AcDbViewportTableRecord
  2
*Active
 70
     0
 10
0.0
 20
0.0
 11
1.0
 21
1.0
 12
-72.85436098669004
 22
153.0342284326
 13
0.0
 23
0.0
 14
10.0
 24
10.0
 15
10.0
 25
10.0
 16
0.0
 26
0.0
 36
1.0
 17
0.0
 27
0.0
 37
0.0
 40
1530.0
 41
2.786647314949202
 42
50.0
 43
0.0
 44
0.0
 50
0.0
 51
0.0
 71
    16
 72
  2000
 73
     1
 74
     3
 75
     0
 76
     0
 77
     0
 78
     0
281
     0
 65
     1
110
0.0
120
0.0
130
0.0
111
1.0
121
0.0
131
0.0
112
0.0
122
1.0
132
0.0
 79
     0
146
0.0
  0
ENDTAB
  0
TABLE
  2
LTYPE
  5
5
330
0
100
AcDbSymbolTable
 70
     6
  0
LTYPE
  5
14
330
5
100
AcDbSymbolTableRecord
100
AcDbLinetypeTableRecord
  2
ByBlock
 70
     0
  3

 72
    65
 73
     0
 40
0.0
  0
LTYPE
  5
15
330
5
100
AcDbSymbolTableRecord
100
AcDbLinetypeTableRecord
  2
ByLayer
 70
     0
  3

 72
    65
 73
     0
 40
0.0
  0
LTYPE
  5
16
330
5
100
AcDbSymbolTableRecord
100
AcDbLinetypeTableRecord
  2
Continuous
 70
     0
  3
Solid line
 72
    65
 73
     0
 40
0.0
  0
LTYPE
  5
6E
330
5
100
AcDbSymbolTableRecord
100
AcDbLinetypeTableRecord
  2
HIDDEN
 70
     0
  3
Hidden __ __ __ __ __ __ __ __ __ __ __ __ __ __
 72
    65
 73
     2
 40
1.905
 49
1.27
 74
     0
 49
-0.635
 74
     0
  0
LTYPE
  5
6F
330
5
100
AcDbSymbolTableRecord
100
AcDbLinetypeTableRecord
  2
PHANTOM
 70
     0
  3
Phantom ______  __  __  ______  __  __  ______
 72
    65
 73
     6
 40
12.7
 49
6.35
 74
     0
 49
-1.27
 74
     0
 49
1.27
 74
     0
 49
-1.27
 74
     0
 49
1.27
 74
     0
 49
-1.27
 74
     0
  0
LTYPE
  5
70
330
5
100
AcDbSymbolTableRecord
100
AcDbLinetypeTableRecord
  2
CENTER
 70
     0
  3
Center ____ _ ____ _ ____ _ ____ _ ____ _ ____
 72
    65
 73
     4
 40
10.16
 49
6.35
 74
     0
 49
-1.27
 74
     0
 49
1.27
 74
     0
 49
-1.27
 74
     0
  0
LTYPE
  5
71
330
5
100
AcDbSymbolTableRecord
100
AcDbLinetypeTableRecord
  2
CENTERX2
 70
     0
  3
Center (2x) ________  __  ________  __  _____
 72
    65
 73
     4
 40
20.32
 49
12.7
 74
     0
 49
-2.54
 74
     0
 49
2.54
 74
     0
 49
-2.54
 74
     0
  0
LTYPE
  5
72
330
5
100
AcDbSymbolTableRecord
100
AcDbLinetypeTableRecord
  2
DOT2
 70
     0
  3
Dot (.5x) ........................................
 72
    65
 73
     2
 40
0.635
 49
0.0
 74
     0
 49
-0.635
 74
     0
  0
ENDTAB
  0
TABLE
  2
LAYER
  5
2
330
0
100
AcDbSymbolTable
 70
     2
  0
LAYER
  5
10
330
2
100
AcDbSymbolTableRecord
100
AcDbLayerTableRecord
  2
0
 70
     0
 62
     7
  6
Continuous
370
    -3
390
F
  0
LAYER
  5
73
330
2
100
AcDbSymbolTableRecord
100
AcDbLayerTableRecord
  2
FORMAT
 70
     0
 62
     7
  6
Continuous
370
    -3
390
F
  0
ENDTAB
  0
TABLE
  2
STYLE
  5
3
330
0
100
AcDbSymbolTable
 70
     1
  0
STYLE
  5
11
330
3
100
AcDbSymbolTableRecord
100
AcDbTextStyleTableRecord
  2
Standard
 70
     0
 40
0.0
 41
1.0
 50
0.0
 71
     0
 42
2.8
  3
txt
  4

  0
ENDTAB
  0
TABLE
  2
VIEW
  5
6
330
0
100
AcDbSymbolTable
 70
     0
  0
ENDTAB
  0
TABLE
  2
UCS
  5
7
330
0
100
AcDbSymbolTable
 70
     0
  0
ENDTAB
  0
TABLE
  2
APPID
  5
9
330
0
100
AcDbSymbolTable
 70
     1
  0
APPID
  5
12
330
9
100
AcDbSymbolTableRecord
100
AcDbRegAppTableRecord
  2
ACAD
 70
     0
  0
ENDTAB
  0
TABLE
  2
DIMSTYLE
  5
A
330
0
100
AcDbSymbolTable
 70
     1
100
AcDbDimStyleTable
  0
DIMSTYLE
105
27
330
A
100
AcDbSymbolTableRecord
100
AcDbDimStyleTableRecord
  2
ISO-25
 70
     0
 41
2.5
 42
0.625
 43
3.75
 44
1.25
 73
     0
 74
     0
 77
     1
 78
     8
140
2.5
141
2.5
143
0.0393700787
147
0.625
171
     3
172
     1
178
     0
271
     2
272
     2
274
     3
278
    44
283
     0
284
     8
340
11
  0
ENDTAB
  0
TABLE
  2
BLOCK_RECORD
  5
1
330
0
100
AcDbSymbolTable
 70
     1
  0
BLOCK_RECORD
  5
1F
330
1
100
AcDbSymbolTableRecord
100
AcDbBlockTableRecord
  2
*Model_Space
340
22
  0
BLOCK_RECORD
  5
1B
330
1
100
AcDbSymbolTableRecord
100
AcDbBlockTableRecord
  2
*Paper_Space
340
1E
  0
BLOCK_RECORD
  5
23
330
1
100
AcDbSymbolTableRecord
100
AcDbBlockTableRecord
  2
*Paper_Space0
340
26
  0
ENDTAB
  0
ENDSEC
  0
SECTION
  2
BLOCKS
  0
BLOCK
  5
20
330
1F
100
AcDbEntity
  8
0
100
AcDbBlockBegin
  2
*Model_Space
 70
     0
 10
0.0
 20
0.0
 30
0.0
  3
*Model_Space
  1

  0
ENDBLK
  5
21
330
1F
100
AcDbEntity
  8
0
100
AcDbBlockEnd
  0
BLOCK
  5
1C
330
1B
100
AcDbEntity
 67
     1
  8
0
100
AcDbBlockBegin
  2
*Paper_Space
 70
     0
 10
0.0
 20
0.0
 30
0.0
  3
*Paper_Space
  1

  0
ENDBLK
  5
1D
330
1B
100
AcDbEntity
 67
     1
  8
0
100
AcDbBlockEnd
  0
BLOCK
  5
24
330
23
100
AcDbEntity
  8
0
100
AcDbBlockBegin
  2
*Paper_Space0
 70
     0
 10
0.0
 20
0.0
 30
0.0
  3
*Paper_Space0
  1

  0
ENDBLK
  5
25
330
23
100
AcDbEntity
  8
0
100
AcDbBlockEnd
  0
ENDSEC
  0
SECTION
  2
ENTITIES
  0
LINE
  5
74
330
1F
100
AcDbEntity
  8
0
  6
Continuous
 62
     7
370
    25
100
AcDbLine
 10
-306.8057451938
 20
-476.9657715674
 30
0.0
 11
-311.8057451938
 21
-476.9657715674
 31
0.0
  0
LINE
  5
75
330
1F
100
AcDbEntity
  8
0
  6
Continuous
 62
     7
370
    25
100
AcDbLine
 10
-311.8057451938
 20
-516.9657715674
 30
0.0
 11
-306.8057451938
 21
-516.9657715674
 31
0.0
  0
LINE
  5
76
330
1F
100
AcDbEntity
  8
0
  6
Continuous
 62
     7
370
    25
100
AcDbLine
 10
-311.8057451938
 20
-479.9657715674
 30
0.0
 11
-354.8057451938
 21
-479.9657715674
 31
0.0
  0
LINE
  5
77
330
1F
100
AcDbEntity
  8
0
  6
Continuous
 62
     7
370
    25
100
AcDbLine
 10
-354.8057451938
 20
-513.9657715674
 30
0.0
 11
-311.8057451938
 21
-513.9657715674
 31
0.0
  0
LINE
  5
78
330
1F
100
AcDbEntity
  8
0
  6
Continuous
 62
     7
370
    25
100
AcDbLine
 10
-296.8057451938
 20
-516.9657715674
 30
0.0
 11
-291.8057451938
 21
-516.9657715674
 31
0.0
  0
LINE
  5
79
330
1F
100
AcDbEntity
  8
0
  6
Continuous
 62
     7
370
    25
100
AcDbLine
 10
-291.8057451938
 20
-476.9657715674
 30
0.0
 11
-296.8057451938
 21
-476.9657715674
 31
0.0
  0
LINE
  5
7A
330
1F
100
AcDbEntity
  8
0
  6
Continuous
 62
     7
370
    25
100
AcDbLine
 10
-291.8057451938
 20
-513.9657715674
 30
0.0
 11
-248.8057451938
 21
-513.9657715674
 31
0.0
  0
LINE
  5
7B
330
1F
100
AcDbEntity
  8
0
  6
Continuous
 62
     7
370
    25
100
AcDbLine
 10
-248.8057451938
 20
-479.9657715674
 30
0.0
 11
-291.8057451938
 21
-479.9657715674
 31
0.0
  0
LINE
  5
80
330
1F
100
AcDbEntity
  8
0
  6
Continuous
 62
     7
370
    25
100
AcDbLine
 10
-402.8057451938
 20
615.0342284326
 30
0.0
 11
-410.8391156467
 21
615.0342284326
 31
0.0
  0
LINE
  5
81
330
1F
100
AcDbEntity
  8
0
  6
Continuous
 62
     7
370
    25
100
AcDbLine
 10
-410.8391156467
 20
591.0342284326
 30
0.0
 11
-402.8057451938
 21
591.0342284326
 31
0.0
  0
ARC
  5
82
330
1F
100
AcDbEntity
  8
0
  6
Continuous
 62
     7
370
    25
100
AcDbCircle
 10
-410.8391156467
 20
596.0342284326
 30
0.0
 40
5.000000000000007
100
AcDbArc
 50
251.58846062
 51
270.0
  0
ARC
  5
83
330
1F
100
AcDbEntity
  8
0
  6
Continuous
 62
     7
370
    25
100
AcDbCircle
 10
-410.8391156467
 20
610.0342284326
 30
0.0
 40
5.0
100
AcDbArc
 50
90.0
 51
108.4434388938
  0
LINE
  5
84
330
1F
100
AcDbEntity
  8
0
  6
Continuous
 62
     7
370
    25
100
AcDbLine
 10
-306.8057451938
 20
623.0342284326
 30
0.0
 11
-311.8057451938
 21
623.0342284326
 31
0.0
  0
LINE
  5
85
330
1F
100
AcDbEntity
  8
0
  6
Continuous
 62
     7
370
    25
100
AcDbLine
 10
-311.8057451938
 20
583.0342284326
 30
0.0
 11
-306.8057451938
 21
583.0342284326
 31
0.0
  0
LINE
  5
86
330
1F
100
AcDbEntity
  8
0
  6
Continuous
 62
     7
370
    25
100
AcDbLine
 10
-311.8057451938
 20
620.0342284326
 30
0.0
 11
-354.8057451938
 21
620.0342284326
 31
0.0
  0
LINE
  5
87
330
1F
100
AcDbEntity
  8
0
  6
Continuous
 62
     7
370
    25
100
AcDbLine
 10
-389.8057451938
 20
620.0342284326
 30
0.0
 11
-402.8057451938
 21
620.0342284326
 31
0.0
  0
LINE
  5
88
330
1F
100
AcDbEntity
  8
0
  6
Continuous
 62
     7
370
    25
100
AcDbLine
 10
-402.8057451938
 20
586.0342284326
 30
0.0
 11
-389.8057451938
 21
586.0342284326
 31
0.0
  0
LINE
  5
89
330
1F
100
AcDbEntity
  8
0
  6
Continuous
 62
     7
370
    25
100
AcDbLine
 10
-354.8057451938
 20
586.0342284326
 30
0.0
 11
-311.8057451938
 21
586.0342284326
 31
0.0
  0
LINE
  5
8A
330
1F
100
AcDbEntity
  8
0
  6
Continuous
 62
     7
370
    25
100
AcDbLine
 10
-296.8057451938
 20
583.0342284326
 30
0.0
 11
-291.8057451938
 21
583.0342284326
 31
0.0
  0
LINE
  5
8B
330
1F
100
AcDbEntity
  8
0
  6
Continuous
 62
     7
370
    25
100
AcDbLine
 10
-291.8057451938
 20
623.0342284326
 30
0.0
 11
-296.8057451938
 21
623.0342284326
 31
0.0
  0
LINE
  5
8C
330
1F
100
AcDbEntity
  8
0
  6
Continuous
 62
     7
370
    25
100
AcDbLine
 10
-291.8057451938
 20
586.0342284326
 30
0.0
 11
-248.8057451938
 21
586.0342284326
 31
0.0
  0
LINE
  5
8D
330
1F
100
AcDbEntity
  8
0
  6
Continuous
 62
     7
370
    25
100
AcDbLine
 10
-213.8057451938
 20
586.0342284326
 30
0.0
 11
-200.8057451938
 21
586.0342284326
 31
0.0
  0
LINE
  5
8E
330
1F
100
AcDbEntity
  8
0
  6
Continuous
 62
     7
370
    25
100
AcDbLine
 10
-200.8057451938
 20
620.0342284326
 30
0.0
 11
-213.8057451938
 21
620.0342284326
 31
0.0
  0
LINE
  5
8F
330
1F
100
AcDbEntity
  8
0
  6
Continuous
 62
     7
370
    25
100
AcDbLine
 10
-248.8057451938
 20
620.0342284326
 30
0.0
 11
-291.8057451938
 21
620.0342284326
 31
0.0
  0
LINE
  5
90
330
1F
100
AcDbEntity
  8
0
  6
Continuous
 62
     7
370
    25
100
AcDbLine
 10
-213.8057451938
 20
620.0342284326
 30
0.0
 11
-213.8057451938
 21
903.0342284326
 31
0.0
  0
LINE
  5
91
330
1F
100
AcDbEntity
  8
0
  6
Continuous
 62
     7
370
    25
100
AcDbLine
 10
-213.8057451938
 20
-596.9657715674
 30
0.0
 11
-213.8057451938
 21
586.0342284326
 31
0.0
  0
LINE
  5
92
330
1F
100
AcDbEntity
  8
0
  6
Continuous
 62
     7
370
    25
100
AcDbLine
 10
-248.8057451938
 20
-513.9657715674
 30
0.0
 11
-248.8057451938
 21
-596.9657715674
 31
0.0
  0
LINE
  5
93
330
1F
100
AcDbEntity
  8
0
  6
Continuous
 62
     7
370
    25
100
AcDbLine
 10
-248.8057451938
 20
586.0342284326
 30
0.0
 11
-248.8057451938
 21
-479.9657715674
 31
0.0
  0
LINE
  5
94
330
1F
100
AcDbEntity
  8
0
  6
Continuous
 62
     7
370
    25
100
AcDbLine
 10
-248.8057451938
 20
903.0342284326
 30
0.0
 11
-248.8057451938
 21
620.0342284326
 31
0.0
  0
LINE
  5
95
330
1F
100
AcDbEntity
  8
0
  6
Continuous
 62
     7
370
    25
100
AcDbLine
 10
-354.8057451938
 20
620.0342284326
 30
0.0
 11
-354.8057451938
 21
903.0342284326
 31
0.0
  0
LINE
  5
96
330
1F
100
AcDbEntity
  8
0
  6
Continuous
 62
     7
370
    25
100
AcDbLine
 10
-354.8057451938
 20
-479.9657715674
 30
0.0
 11
-354.8057451938
 21
586.0342284326
 31
0.0
  0
LINE
  5
97
330
1F
100
AcDbEntity
  8
0
  6
Continuous
 62
     7
370
    25
100
AcDbLine
 10
-354.8057451938
 20
-596.9657715674
 30
0.0
 11
-354.8057451938
 21
-513.9657715674
 31
0.0
  0
LINE
  5
98
330
1F
100
AcDbEntity
  8
0
  6
Continuous
 62
     7
370
    25
100
AcDbLine
 10
-389.8057451938
 20
586.0342284326
 30
0.0
 11
-389.8057451938
 21
-596.9657715674
 31
0.0
  0
LINE
  5
99
330
1F
100
AcDbEntity
  8
0
  6
Continuous
 62
     7
370
    25
100
AcDbLine
 10
-389.8057451938
 20
903.0342284326
 30
0.0
 11
-389.8057451938
 21
620.0342284326
 31
0.0
  0
CIRCLE
  5
9A
330
1F
100
AcDbEntity
  8
0
  6
Continuous
 62
     7
370
    25
100
AcDbCircle
 10
-187.0679027667
 20
601.5218085138
 30
0.0
 40
3.000000000000028
  0
ARC
  5
9B
330
1F
100
AcDbEntity
  8
0
  6
Continuous
 62
     7
370
    25
100
AcDbCircle
 10
-187.0679027667
 20
601.5218085138
 30
0.0
 40
9.999999999999964
100
AcDbArc
 50
203.5781784782
 51
156.3441556254
  0
LINE
  5
9C
330
1F
100
AcDbEntity
  8
0
  6
Continuous
 62
     7
370
    25
100
AcDbLine
 10
-196.833933543
 20
598.9375657971
 30
0.0
 11
-196.2330541567
 21
597.5218085138
 31
0.0
  0
LINE
  5
9D
330
1F
100
AcDbEntity
  8
0
  6
Continuous
 62
     7
370
    25
100
AcDbLine
 10
-199.3426924746
 20
597.5218085138
 30
0.0
 11
-196.833933543
 21
598.9375657971
 31
0.0
  0
LINE
  5
9E
330
1F
100
AcDbEntity
  8
0
  6
Continuous
 62
     7
370
    25
100
AcDbLine
 10
-200.3751216288
 20
599.6887209832
 30
0.0
 11
-199.3426924746
 21
597.5218085138
 31
0.0
  0
LINE
  5
9F
330
1F
100
AcDbEntity
  8
0
  6
Continuous
 62
     7
370
    25
100
AcDbLine
 10
-200.8057451938
 20
599.4457090139
 30
0.0
 11
-200.3751216288
 21
599.6887209832
 31
0.0
  0
LINE
  5
A0
330
1F
100
AcDbEntity
  8
0
  6
Continuous
 62
     7
370
    25
100
AcDbLine
 10
-196.2276236356
 20
605.5342284326
 30
0.0
 11
-200.8057451938
 21
605.5342284326
 31
0.0
  0
LINE
  5
A1
330
1F
100
AcDbEntity
  8
0
  6
Continuous
 62
     7
370
    25
100
AcDbLine
 10
-306.8057451938
 20
-476.9657715674
 30
0.0
 11
-306.8057451938
 21
-516.9657715674
 31
0.0
  0
LINE
  5
A2
330
1F
100
AcDbEntity
  8
0
  6
Continuous
 62
     7
370
    25
100
AcDbLine
 10
-311.8057451938
 20
-476.9657715674
 30
0.0
 11
-311.8057451938
 21
-516.9657715674
 31
0.0
  0
LINE
  5
A3
330
1F
100
AcDbEntity
  8
0
  6
Continuous
 62
     7
370
    25
100
AcDbLine
 10
-296.8057451938
 20
-480.9621932974
 30
0.0
 11
-296.8057451938
 21
-476.9657715674
 31
0.0
  0
LINE
  5
A4
330
1F
100
AcDbEntity
  8
0
  6
Continuous
 62
     7
370
    25
100
AcDbLine
 10
-296.8057451938
 20
-516.9657715674
 30
0.0
 11
-296.8057451938
 21
-480.9621932974
 31
0.0
  0
LINE
  5
A5
330
1F
100
AcDbEntity
  8
0
  6
Continuous
 62
     7
370
    25
100
AcDbLine
 10
-291.8057451938
 20
-480.9621932974
 30
0.0
 11
-291.8057451938
 21
-476.9657715674
 31
0.0
  0
LINE
  5
A6
330
1F
100
AcDbEntity
  8
0
  6
Continuous
 62
     7
370
    25
100
AcDbLine
 10
-291.8057451938
 20
-516.9657715674
 30
0.0
 11
-291.8057451938
 21
-480.9621932974
 31
0.0
  0
LINE
  5
AA
330
1F
100
AcDbEntity
  8
0
  6
Continuous
 62
     7
370
    25
100
AcDbLine
 10
-413.3335539045
 20
592.4097039802
 30
0.0
 11
-413.3335539045
 21
613.658752885
 31
0.0
  0
SPLINE
  5
AB
330
1F
100
AcDbEntity
  8
0
  6
Continuous
 62
     7
370
    25
100
AcDbSpline
210
0.0
220
0.0
230
1.0
 70
     8
 71
     3
 72
    10
 73
     6
 74
     0
 42
0.000000001
 43
0.00000001
 40
0.0
 40
0.0
 40
0.0
 40
0.0
 40
0.339241104013236
 40
0.7826730910168311
 40
0.9999999999999999
 40
0.9999999999999999
 40
0.9999999999999999
 40
0.9999999999999999
 10
-413.3335539045242
 20
613.6587528849694
 30
0.0
 10
-413.1227245089315
 20
613.8958340222837
 30
0.0
 10
-412.6363138329442
 20
614.442810860787
 30
0.0
 10
-412.3753716884891
 20
614.7844983216158
 30
0.0
 10
-412.4011527446956
 20
614.7509511716996
 30
0.0
 10
-412.4096322631548
 20
614.7399173461382
 30
0.0
  0
SPLINE
  5
AC
330
1F
100
AcDbEntity
  8
0
  6
Continuous
 62
     7
370
    25
100
AcDbSpline
210
0.0
220
0.0
230
1.0
 70
     8
 71
     3
 72
    11
 73
     7
 74
     0
 42
0.000000001
 43
0.00000001
 40
0.0
 40
0.0
 40
0.0
 40
0.0
 40
0.2384818611590891
 40
0.6677491978467968
 40
0.9187186383141394
 40
1.0
 40
1.0
 40
1.0
 40
1.0
 10
-412.4096315701358
 20
591.3285386437421
 30
0.0
 10
-412.4016022391076
 20
591.3184270459506
 30
0.0
 10
-412.3791201126799
 20
591.2901145727022
 30
0.0
 10
-412.6553922596987
 20
591.6382043631942
 30
0.0
 10
-413.039084113758
 20
592.0871717344004
 30
0.0
 10
-413.2756747172159
 20
592.3463090077346
 30
0.0
 10
-413.3335539045241
 20
592.4097039801579
 30
0.0
  0
LINE
  5
AD
330
1F
100
AcDbEntity
  8
0
  6
Continuous
 62
     7
370
    25
100
AcDbLine
 10
-432.5505368604
 20
597.7959961557
 30
0.0
 11
-432.5517769398
 21
597.7956399585
 31
0.0
  0
LWPOLYLINE
  5
AE
330
1F
100
AcDbEntity
  8
0
  6
Continuous
 62
     7
370
    25
100
AcDbPolyline
 90
        9
 70
   128
 43
0.0
 10
-432.5517762965
 20
608.2728167218
 10
-432.5517763044
 20
607.0799117381
 10
-432.5517763279
 20
605.7877733472
 10
-432.5517763664
 20
604.4280954028
 10
-432.5517764189
 20
603.0342283838
 10
-432.5517764843
 20
601.6403613659
 10
-432.5517765608
 20
600.2806834251
 10
-432.5517766465
 20
598.98854504
 10
-432.5517769398
 20
597.7956399585
  0
LINE
  5
AF
330
1F
100
AcDbEntity
  8
0
  6
Continuous
 62
     7
370
    25
100
AcDbLine
 10
-432.5505368604
 20
608.2724607094
 30
0.0
 11
-432.5517762965
 21
608.2728167218
 31
0.0
  0
SPLINE
  5
B0
330
1F
100
AcDbEntity
  8
0
  6
Continuous
 62
     7
370
    25
100
AcDbSpline
210
0.0
220
0.0
230
1.0
 70
     8
 71
     3
 72
    16
 73
    12
 74
     0
 42
0.000000001
 43
0.00000001
 40
0.0
 40
0.0
 40
0.0
 40
0.0
 40
0.0319661279540646
 40
0.1549375700268997
 40
0.2528731554108661
 40
0.3510083840488379
 40
0.4967313988914485
 40
0.642502501994221
 40
0.7899084104566115
 40
0.9373197839737032
 40
1.0
 40
1.0
 40
1.0
 40
1.0
 10
-413.3335539045242
 20
613.6587528849694
 30
0.0
 10
-413.4558655760389
 20
613.528173669856
 30
0.0
 10
-414.048701630429
 20
612.8952654141306
 30
0.0
 10
-415.305210634771
 20
611.7422988834586
 30
0.0
 10
-417.1283276083685
 20
610.4479643776934
 30
0.0
 10
-419.2598580496161
 20
609.2526017438762
 30
0.0
 10
-421.8741943116515
 20
608.2414407354745
 30
0.0
 10
-424.9655315156276
 20
607.5879156393527
 30
0.0
 10
-428.128677335437
 20
607.4714107726401
 30
0.0
 10
-430.6754385971959
 20
607.7768847350277
 30
0.0
 10
-432.1196581485962
 20
608.1585823374858
 30
0.0
 10
-432.5505368604375
 20
608.2724607094416
 30
0.0
  0
SPLINE
  5
B1
330
1F
100
AcDbEntity
  8
0
  6
Continuous
 62
     7
370
    25
100
AcDbSpline
210
0.0
220
0.0
230
1.0
 70
     8
 71
     3
 72
    16
 73
    12
 74
     0
 42
0.000000001
 43
0.00000001
 40
0.0
 40
0.0
 40
0.0
 40
0.0
 40
0.0319661279540719
 40
0.1549375700269061
 40
0.2528731554108719
 40
0.3510083840488429
 40
0.4967313988914525
 40
0.642502501994224
 40
0.7899084104566135
 40
0.9373197839737042
 40
0.9999999999999999
 40
0.9999999999999999
 40
0.9999999999999999
 40
0.9999999999999999
 10
-413.3335539045241
 20
592.4097039801579
 30
0.0
 10
-413.4558655760389
 20
592.5402831952715
 30
0.0
 10
-414.0487016304289
 20
593.1731914509968
 30
0.0
 10
-415.305210634771
 20
594.326157981669
 30
0.0
 10
-417.1283276083685
 20
595.6204924874339
 30
0.0
 10
-419.2598580496161
 20
596.8158551212515
 30
0.0
 10
-421.8741943116515
 20
597.8270161296527
 30
0.0
 10
-424.9655315156276
 20
598.4805412257748
 30
0.0
 10
-428.128677335437
 20
598.5970460924873
 30
0.0
 10
-430.6754385971959
 20
598.2915721300996
 30
0.0
 10
-432.1196581485961
 20
597.9098745276415
 30
0.0
 10
-432.5505368604375
 20
597.7959961556858
 30
0.0
  0
SPLINE
  5
B2
330
1F
100
AcDbEntity
  8
0
  6
Continuous
 62
     7
370
    25
100
AcDbSpline
210
0.0
220
0.0
230
1.0
 70
     8
 71
     3
 72
    14
 73
    10
 74
     0
 42
0.000000001
 43
0.00000001
 40
0.0
 40
0.0
 40
0.0
 40
0.0
 40
0.1558179800814443
 40
0.3116589821812972
 40
0.468198655090742
 40
0.6353050622112799
 40
0.8198464698629884
 40
0.9919158948804646
 40
1.0
 40
1.0
 40
1.0
 40
1.0
 10
-432.5517769398026
 20
597.7956399585008
 30
0.0
 10
-432.571649275905
 20
597.791903536271
 30
0.0
 10
-432.6113968842362
 20
597.7844301397569
 30
0.0
 10
-432.6720808874425
 20
597.7965159362639
 30
0.0
 10
-432.7261945929355
 20
597.8247114589499
 30
0.0
 10
-432.7705295132001
 20
597.8690783389817
 30
0.0
 10
-432.7987739475242
 20
597.9246779599335
 30
0.0
 10
-432.8056467493168
 20
597.966644577303
 30
0.0
 10
-432.8057409659483
 20
597.9872984784226
 30
0.0
 10
-432.8057451937709
 20
597.9882252896134
 30
0.0
  0
LINE
  5
B3
330
1F
100
AcDbEntity
  8
0
  6
Continuous
 62
     7
370
    25
100
AcDbLine
 10
-432.8057451938
 20
597.9882252896
 30
0.0
 11
-432.8057451938
 21
608.0802315755
 31
0.0
  0
SPLINE
  5
B4
330
1F
100
AcDbEntity
  8
0
  6
Continuous
 62
     7
370
    25
100
AcDbSpline
210
0.0
220
0.0
230
1.0
 70
     8
 71
     3
 72
    14
 73
    10
 74
     0
 42
0.000000001
 43
0.00000001
 40
0.0
 40
0.0
 40
0.0
 40
0.0
 40
0.1558194301361224
 40
0.3116601645473077
 40
0.4681995685679576
 40
0.6353056886491689
 40
0.819846779313396
 40
0.9919159087665629
 40
1.0
 40
1.0
 40
1.0
 40
1.0
 10
-432.5517762965358
 20
608.2728167218328
 30
0.0
 10
-432.5716488447865
 20
608.2765532358168
 30
0.0
 10
-432.6113966583447
 20
608.2840267746565
 30
0.0
 10
-432.6720808883175
 20
608.2719409275348
 30
0.0
 10
-432.7261945926836
 20
608.2437454065598
 30
0.0
 10
-432.7705295132779
 20
608.1993785260275
 30
0.0
 10
-432.7987739475028
 20
608.1437789052259
 30
0.0
 10
-432.805646749317
 20
608.1018122878249
 30
0.0
 10
-432.8057409659483
 20
608.0811583867047
 30
0.0
 10
-432.8057451937709
 20
608.0802315755141
 30
0.0
  0
LINE
  5
B5
330
1F
100
AcDbEntity
  8
0
  6
Continuous
 62
     7
370
    25
100
AcDbLine
 10
-306.8057451938
 20
623.0342284326
 30
0.0
 11
-306.8057451938
 21
583.0342284326
 31
0.0
  0
LINE
  5
B6
330
1F
100
AcDbEntity
  8
0
  6
Continuous
 62
     7
370
    25
100
AcDbLine
 10
-311.8057451938
 20
623.0342284326
 30
0.0
 11
-311.8057451938
 21
583.0342284326
 31
0.0
  0
LINE
  5
B7
330
1F
100
AcDbEntity
  8
0
  6
Continuous
 62
     7
370
    25
100
AcDbLine
 10
-402.8057451938
 20
590.6984219441
 30
0.0
 11
-402.8057451938
 21
620.0342284326
 31
0.0
  0
LINE
  5
B8
330
1F
100
AcDbEntity
  8
0
  6
Continuous
 62
     7
370
    25
100
AcDbLine
 10
-402.8057451938
 20
586.0342284326
 30
0.0
 11
-402.8057451938
 21
590.6984219441
 31
0.0
  0
LINE
  5
B9
330
1F
100
AcDbEntity
  8
0
  6
Continuous
 62
     7
370
    25
100
AcDbLine
 10
-291.8057451938
 20
601.9628137509
 30
0.0
 11
-291.8057451938
 21
623.0342284326
 31
0.0
  0
LINE
  5
BA
330
1F
100
AcDbEntity
  8
0
  6
Continuous
 62
     7
370
    25
100
AcDbLine
 10
-291.8057451938
 20
583.0342284326
 30
0.0
 11
-291.8057451938
 21
601.9628137509
 31
0.0
  0
LINE
  5
BB
330
1F
100
AcDbEntity
  8
0
  6
Continuous
 62
     7
370
    25
100
AcDbLine
 10
-296.8057451938
 20
601.9628137509
 30
0.0
 11
-296.8057451938
 21
623.0342284326
 31
0.0
  0
LINE
  5
BC
330
1F
100
AcDbEntity
  8
0
  6
Continuous
 62
     7
370
    25
100
AcDbLine
 10
-296.8057451938
 20
583.0342284326
 30
0.0
 11
-296.8057451938
 21
601.9628137509
 31
0.0
  0
LINE
  5
BD
330
1F
100
AcDbEntity
  8
0
  6
Continuous
 62
     7
370
    25
100
AcDbLine
 10
-200.8057451938
 20
620.0342284326
 30
0.0
 11
-200.8057451938
 21
586.0342284326
 31
0.0
  0
SPLINE
  5
BE
330
1F
100
AcDbEntity
  8
0
  6
Continuous
 62
     7
370
    25
100
AcDbSpline
210
0.0
220
0.0
230
1.0
 70
     8
 71
     3
 72
    29
 73
    25
 74
     0
 42
0.000000001
 43
0.00000001
 40
0.0
 40
0.0
 40
0.0
 40
0.0
 40
0.0169872640597686
 40
0.0530955547376945
 40
0.1211818983491947
 40
0.1683698242302983
 40
0.2169118570295609
 40
0.2816081989026255
 40
0.3481294559393004
 40
0.4260984847585039
 40
0.4653301783338645
 40
0.4917762932114904
 40
0.518484247639961
 40
0.5538019760950921
 40
0.6099919363823418
 40
0.6675696182124289
 40
0.728965613408541
 40
0.7918400220019536
 40
0.8363007670555075
 40
0.8818148343235316
 40
0.9185950312035739
 40
0.9563735514381467
 40
0.9931953907531252
 40
1.0
 40
1.0
 40
1.0
 40
1.0
 10
-213.8380613358878
 20
586.0674968927484
 30
0.0
 10
-213.83166139348
 20
586.0609077760294
 30
0.0
 10
-213.8116576723843
 20
586.0403127699001
 30
0.0
 10
-214.1531093516771
 20
586.3918586872288
 30
0.0
 10
-215.0230775555983
 20
587.2889121540403
 30
0.0
 10
-216.4344497754161
 20
588.752821970937
 30
0.0
 10
-218.075789919028
 20
590.4688605448346
 30
0.0
 10
-220.1647917978637
 20
592.6812159375861
 30
0.0
 10
-222.7666369363447
 20
595.5368209416242
 30
0.0
 10
-225.0994511865401
 20
598.2799513416754
 30
0.0
 10
-226.6463129388117
 20
600.7202607234877
 30
0.0
 10
-227.2315491840241
 20
602.5279395078535
 30
0.0
 10
-227.0729609339575
 20
604.3644678772749
 30
0.0
 10
-225.9872400918686
 20
606.5214497362506
 30
0.0
 10
-224.1876820566856
 20
608.8691284793953
 30
0.0
 10
-221.9805261353555
 20
611.4075849089476
 30
0.0
 10
-219.7377328675877
 20
613.8413436033612
 30
0.0
 10
-217.8110418691386
 20
615.8776197224869
 30
0.0
 10
-216.2785339232995
 20
617.4775430087504
 30
0.0
 10
-215.2133422901785
 20
618.5820388726278
 30
0.0
 10
-214.4337049684189
 20
619.3873045000531
 30
0.0
 10
-213.9785192568756
 20
619.8563876326574
 30
0.0
 10
-213.7755355022445
 20
620.0653316571871
 30
0.0
 10
-213.8210925483976
 20
620.018427422208
 30
0.0
 10
-213.8281982814502
 20
620.0111115621833
 30
0.0
  0
SPLINE
  5
BF
330
1F
100
AcDbEntity
  8
0
  6
Continuous
 62
     7
370
    25
100
AcDbSpline
210
0.0
220
0.0
230
1.0
 70
     8
 71
     3
 72
    30
 73
    26
 74
     0
 42
0.000000001
 43
0.00000001
 40
0.0
 40
0.0
 40
0.0
 40
0.0
 40
0.0371663797354553
 40
0.0756262537661498
 40
0.1127568282473105
 40
0.1508065164988363
 40
0.2031126175561367
 40
0.2569062863131064
 40
0.3280013600577139
 40
0.4011240173888833
 40
0.4485354716440679
 40
0.4812893651343704
 40
0.5049065112847428
 40
0.5285075585789317
 40
0.556949373892884
 40
0.5861776257521806
 40
0.6483554630076439
 40
0.7118281073128216
 40
0.7675279373287066
 40
0.824578179078711
 40
0.8660888556953533
 40
0.9086439211726366
 40
0.9437293780647459
 40
0.979792154795702
 40
1.0
 40
1.0
 40
1.0
 40
1.0
 10
-248.8057451937709
 20
620.0342284325636
 30
0.0
 10
-248.7773293603956
 20
620.0049839890501
 30
0.0
 10
-248.7195087429154
 20
619.9454773133353
 30
0.0
 10
-248.2631630709591
 20
619.4753684594125
 30
0.0
 10
-247.5689782886822
 20
618.758642746
 30
0.0
 10
-246.5472496858634
 20
617.7001565812793
 30
0.0
 10
-245.1385958018238
 20
616.232205176975
 30
0.0
 10
-243.1546564581984
 20
614.1406528298187
 30
0.0
 10
-240.7266539978225
 20
611.5196643115551
 30
0.0
 10
-238.2937155066421
 20
608.7340877043279
 30
0.0
 10
-236.4869370184691
 20
606.2765733031997
 30
0.0
 10
-235.5639934078505
 20
604.3697899313341
 30
0.0
 10
-235.3829467848735
 20
602.7239366479038
 30
0.0
 10
-235.7700098942904
 20
601.2166444538614
 30
0.0
 10
-236.547437971055
 20
599.770829308418
 30
0.0
 10
-237.9183823417649
 20
597.8186094367835
 30
0.0
 10
-239.8704857141089
 20
595.5119390343083
 30
0.0
 10
-242.1348297144373
 20
593.0203445779607
 30
0.0
 10
-244.2099726068811
 20
590.8112633052011
 30
0.0
 10
-245.843146517383
 20
589.1006974339814
 30
0.0
 10
-247.1054566159993
 20
587.7893492448732
 30
0.0
 10
-247.9576901443689
 20
586.9082506154957
 30
0.0
 10
-248.5129222123359
 20
586.3357107038946
 30
0.0
 10
-248.7891498650179
 20
586.0513101861741
 30
0.0
 10
-248.7779449948835
 20
586.0628472757114
 30
0.0
 10
-248.7739211139768
 20
586.0669904628927
 30
0.0
  0
SPLINE
  5
C0
330
1F
100
AcDbEntity
  8
0
  6
Continuous
 62
     7
370
    25
100
AcDbSpline
210
0.0
220
0.0
230
1.0
 70
     8
 71
     3
 72
    30
 73
    26
 74
     0
 42
0.000000001
 43
0.00000001
 40
0.0
 40
0.0
 40
0.0
 40
0.0
 40
0.0371663797354551
 40
0.0756262537661494
 40
0.1127568282473098
 40
0.1508065164988356
 40
0.2031126175561359
 40
0.2569062863131051
 40
0.3280013600577133
 40
0.4011240173888823
 40
0.4485354716440652
 40
0.4812893651343704
 40
0.5049065112847411
 40
0.5285075585789281
 40
0.5569493738928765
 40
0.5861776257521687
 40
0.6483554630076233
 40
0.7118281073127906
 40
0.7675279373286814
 40
0.8245781790786914
 40
0.8660888556953357
 40
0.9086439211726202
 40
0.9437293780647296
 40
0.9797921547956877
 40
1.0
 40
1.0
 40
1.0
 40
1.0
 10
-248.8057451937709
 20
-479.9657715674363
 30
0.0
 10
-248.7773293603956
 20
-479.9950160109499
 30
0.0
 10
-248.7195087429155
 20
-480.0545226866646
 30
0.0
 10
-248.2631630709591
 20
-480.5246315405872
 30
0.0
 10
-247.5689782886822
 20
-481.241357254
 30
0.0
 10
-246.5472496858634
 20
-482.2998434187206
 30
0.0
 10
-245.1385958018238
 20
-483.767794823025
 30
0.0
 10
-243.1546564581985
 20
-485.8593471701812
 30
0.0
 10
-240.7266539978226
 20
-488.4803356884449
 30
0.0
 10
-238.2937155066422
 20
-491.2659122956721
 30
0.0
 10
-236.4869370184691
 20
-493.7234266968002
 30
0.0
 10
-235.5639934078505
 20
-495.6302100686653
 30
0.0
 10
-235.3829467848735
 20
-497.2760633520961
 30
0.0
 10
-235.7700098942904
 20
-498.7833555461383
 30
0.0
 10
-236.5474379710547
 20
-500.2291706915815
 30
0.0
 10
-237.9183823417644
 20
-502.1813905632158
 30
0.0
 10
-239.8704857141081
 20
-504.4880609656909
 30
0.0
 10
-242.1348297144364
 20
-506.9796554220378
 30
0.0
 10
-244.2099726068801
 20
-509.1887366947978
 30
0.0
 10
-245.8431465173824
 20
-510.8993025660182
 30
0.0
 10
-247.1054566159988
 20
-512.2106507551262
 30
0.0
 10
-247.9576901443687
 20
-513.0917493845038
 30
0.0
 10
-248.5129222123356
 20
-513.6642892961053
 30
0.0
 10
-248.789149865018
 20
-513.9486898138259
 30
0.0
 10
-248.7779449948835
 20
-513.9371527242885
 30
0.0
 10
-248.7739211139768
 20
-513.9330095371072
 30
0.0
  0
LINE
  5
C1
330
1F
100
AcDbEntity
  8
0
  6
Continuous
 62
     7
370
    25
100
AcDbLine
 10
-248.8057451938
 20
-596.9657715674
 30
0.0
 11
-213.8057451938
 21
-596.9657715674
 31
0.0
  0
LINE
  5
C2
330
1F
100
AcDbEntity
  8
0
  6
Continuous
 62
     7
370
    25
100
AcDbLine
 10
-248.8057451938
 20
903.0342284326
 30
0.0
 11
-213.8057451938
 21
903.0342284326
 31
0.0
  0
LINE
  5
C3
330
1F
100
AcDbEntity
  8
0
  6
Continuous
 62
     7
370
    25
100
AcDbLine
 10
-389.8057451938
 20
903.0342284326
 30
0.0
 11
-354.8057451938
 21
903.0342284326
 31
0.0
  0
SPLINE
  5
C4
330
1F
100
AcDbEntity
  8
0
  6
Continuous
 62
     7
370
    25
100
AcDbSpline
210
0.0
220
0.0
230
1.0
 70
     8
 71
     3
 72
    18
 73
    14
 74
     0
 42
0.000000001
 43
0.00000001
 40
0.0
 40
0.0
 40
0.0
 40
0.0
 40
0.0554714531283061
 40
0.1481443565485792
 40
0.2876307969644647
 40
0.4309717310992195
 40
0.5417964107293276
 40
0.6553324091277757
 40
0.7376938000595854
 40
0.8221308946359871
 40
0.8920770530437323
 40
0.9639766511376926
 40
0.9999999999999999
 40
0.9999999999999999
 40
0.9999999999999999
 40
0.9999999999999999
 10
-376.4590571252299
 20
603.0342284325636
 30
0.0
 10
-376.5344706696586
 20
602.4721547705166
 30
0.0
 10
-376.7358731998682
 20
600.9710576061015
 30
0.0
 10
-378.3846733693122
 20
598.5087112615307
 30
0.0
 10
-380.697093431401
 20
595.686609800763
 30
0.0
 10
-383.1745738507746
 20
592.9789679382695
 30
0.0
 10
-385.3245210404787
 20
590.6899617545419
 30
0.0
 10
-386.9349536891207
 20
589.0051560532693
 30
0.0
 10
-388.1721504827198
 20
587.7202549289243
 30
0.0
 10
-389.0033897439885
 20
586.8610910882671
 30
0.0
 10
-389.5383157179465
 20
586.3095522414977
 30
0.0
 10
-389.7966838766898
 20
586.0435554383449
 30
0.0
 10
-389.7792486989761
 20
586.0615054126666
 30
0.0
 10
-389.7734290516539
 20
586.0674968927484
 30
0.0
  0
SPLINE
  5
C5
330
1F
100
AcDbEntity
  8
0
  6
Continuous
 62
     7
370
    25
100
AcDbSpline
210
0.0
220
0.0
230
1.0
 70
     8
 71
     3
 72
    17
 73
    13
 74
     0
 42
0.000000001
 43
0.00000001
 40
0.0
 40
0.0
 40
0.0
 40
0.0
 40
0.0626394179562478
 40
0.1299162736153874
 40
0.1989248947737494
 40
0.3441437317079665
 40
0.4569120304302658
 40
0.5728818075874674
 40
0.7184624252363935
 40
0.8682419029209149
 40
0.9416731911060736
 40
1.0
 40
1.0
 40
1.0
 40
1.0
 10
-389.7832921060916
 20
620.0111115621833
 30
0.0
 10
-389.7725125144203
 20
620.0000197238014
 30
0.0
 10
-389.7501552763313
 20
619.9770148754625
 30
0.0
 10
-389.3966268280629
 20
619.6129072178911
 30
0.0
 10
-388.6362223403289
 20
618.8283932213516
 30
0.0
 10
-387.2699157880464
 20
617.4137989475233
 30
0.0
 10
-385.312772044846
 20
615.3659686384422
 30
0.0
 10
-383.1190943023522
 20
613.0315754695379
 30
0.0
 10
-380.5332456360753
 20
610.1937849427565
 30
0.0
 10
-378.2492171932421
 20
607.4028624642604
 30
0.0
 10
-376.7241107355566
 20
604.9598420022913
 30
0.0
 10
-376.5403877874255
 20
603.6250954144009
 30
0.0
 10
-376.4590571252299
 20
603.0342284325637
 30
0.0
  0
SPLINE
  5
C6
330
1F
100
AcDbEntity
  8
0
  6
Continuous
 62
     7
370
    25
100
AcDbSpline
210
0.0
220
0.0
230
1.0
 70
     8
 71
     3
 72
    29
 73
    25
 74
     0
 42
0.000000001
 43
0.00000001
 40
0.0
 40
0.0
 40
0.0
 40
0.0
 40
0.0149073566324451
 40
0.051149468347126
 40
0.1191603820392996
 40
0.1660119347266259
 40
0.2142087337564905
 40
0.2784078725979571
 40
0.344417490677111
 40
0.3865414529243642
 40
0.429085393282805
 40
0.4673451697450471
 40
0.4932715192460013
 40
0.5194216628093755
 40
0.5555424294701017
 40
0.6133449125491471
 40
0.6725862984912815
 40
0.7352883024121449
 40
0.7996176567156656
 40
0.8431843359328606
 40
0.887788127964226
 40
0.924157783471763
 40
0.9615211337345821
 40
1.0
 40
1.0
 40
1.0
 40
1.0
 10
-354.8375692735649
 20
586.0669904628927
 30
0.0
 10
-354.8301244006147
 20
586.0593257173085
 30
0.0
 10
-354.8045798790267
 20
586.033026778381
 30
0.0
 10
-355.1287375266188
 20
586.3667589084738
 30
0.0
 10
-355.9775742070013
 20
587.2418781961809
 30
0.0
 10
-357.3683349859588
 20
588.6841371033319
 30
0.0
 10
-358.9860179756758
 20
590.3742089008365
 30
0.0
 10
-361.0481039784333
 20
592.5581438406026
 30
0.0
 10
-363.1918884950948
 20
594.897850516769
 30
0.0
 10
-365.083832372277
 20
597.0939618026848
 30
0.0
 10
-366.5735180159411
 20
599.0064614572258
 30
0.0
 10
-367.702754610563
 20
600.8372827916747
 30
0.0
 10
-368.2383014754892
 20
602.6179832322744
 30
0.0
 10
-368.0468831150249
 20
604.4429604678047
 30
0.0
 10
-366.9231675729296
 20
606.6212530409748
 30
0.0
 10
-365.0633692700907
 20
609.0205015235822
 30
0.0
 10
-362.7969108502071
 20
611.6115338362088
 30
0.0
 10
-360.5098192799826
 20
614.0847913856641
 30
0.0
 10
-358.5847372308163
 20
616.1149494395369
 30
0.0
 10
-357.0919663706393
 20
617.6713965069114
 30
0.0
 10
-356.0761895360392
 20
618.7238654949786
 30
0.0
 10
-355.3550782867712
 20
619.4683971289086
 30
0.0
 10
-354.8958840102398
 20
619.9414633262277
 30
0.0
 10
-354.8360846497965
 20
620.0030050043598
 30
0.0
 10
-354.8057451937709
 20
620.0342284325636
 30
0.0
  0
SPLINE
  5
C7
330
1F
100
AcDbEntity
  8
0
  6
Continuous
 62
     7
370
    25
100
AcDbSpline
210
0.0
220
0.0
230
1.0
 70
     8
 71
     3
 72
    29
 73
    25
 74
     0
 42
0.000000001
 43
0.00000001
 40
0.0
 40
0.0
 40
0.0
 40
0.0
 40
0.0149073566324315
 40
0.0511494683471133
 40
0.119160382039287
 40
0.166011934726611
 40
0.2142087337564735
 40
0.2784078725979366
 40
0.3444174906770865
 40
0.3865414529243598
 40
0.4290853932828242
 40
0.4673451697450601
 40
0.4932715192460114
 40
0.5194216628093813
 40
0.5555424294701145
 40
0.6133449125491724
 40
0.6725862984913166
 40
0.7352883024121907
 40
0.7996176567157212
 40
0.8431843359329096
 40
0.8877881279642694
 40
0.9241577834718038
 40
0.9615211337346206
 40
1.0
 40
1.0
 40
1.0
 40
1.0
 10
-354.8375692735649
 20
-513.9330095371072
 30
0.0
 10
-354.8301244006147
 20
-513.9406742826914
 30
0.0
 10
-354.8045798790267
 20
-513.966973221619
 30
0.0
 10
-355.1287375266187
 20
-513.6332410915265
 30
0.0
 10
-355.9775742070011
 20
-512.7581218038192
 30
0.0
 10
-357.3683349859584
 20
-511.3158628966685
 30
0.0
 10
-358.9860179756753
 20
-509.6257910991637
 30
0.0
 10
-361.0481039784326
 20
-507.4418561593983
 30
0.0
 10
-363.1918884950942
 20
-505.1021494832312
 30
0.0
 10
-365.0838323722769
 20
-502.9060381973154
 30
0.0
 10
-366.5735180159415
 20
-500.9935385427737
 30
0.0
 10
-367.7027546105633
 20
-499.1627172083245
 30
0.0
 10
-368.2383014754892
 20
-497.3820167677247
 30
0.0
 10
-368.0468831150247
 20
-495.5570395321951
 30
0.0
 10
-366.9231675729292
 20
-493.3787469590243
 30
0.0
 10
-365.0633692700898
 20
-490.9794984764166
 30
0.0
 10
-362.7969108502057
 20
-488.3884661637896
 30
0.0
 10
-360.509819279981
 20
-485.915208614334
 30
0.0
 10
-358.5847372308147
 20
-483.8850505604614
 30
0.0
 10
-357.091966370638
 20
-482.3286034930874
 30
0.0
 10
-356.0761895360383
 20
-481.27613450502
 30
0.0
 10
-355.3550782867705
 20
-480.5316028710909
 30
0.0
 10
-354.8958840102396
 20
-480.0585366737721
 30
0.0
 10
-354.8360846497965
 20
-479.9969949956401
 30
0.0
 10
-354.8057451937709
 20
-479.9657715674363
 30
0.0
  0
LINE
  5
C8
330
1F
100
AcDbEntity
  8
0
  6
Continuous
 62
     7
370
    25
100
AcDbLine
 10
-389.8057451938
 20
-596.9657715674
 30
0.0
 11
-354.8057451938
 21
-596.9657715674
 31
0.0
  0
LINE
  5
C9
330
1F
100
AcDbEntity
  8
0
  6
Continuous
 62
     8
370
    25
100
AcDbLine
 10
-410.8391156467
 20
615.0342284326
 30
0.0
 11
-410.8391156467
 21
591.0342284326
 31
0.0
  0
LINE
  5
CA
330
1F
100
AcDbEntity
  8
0
  6
CENTERX2
 62
     7
370
    18
100
AcDbLine
 10
-229.3057451938
 20
-496.9657715674
 30
0.0
 11
-298.8057451938
 21
-496.9657715674
 31
0.0
  0
LINE
  5
CB
330
1F
100
AcDbEntity
  8
0
  6
CENTERX2
 62
     7
370
    18
100
AcDbLine
 10
-293.8057451938
 20
603.0342284326
 30
0.0
 11
-198.8057451938
 21
603.0342284326
 31
0.0
  0
MTEXT
  5
EE
330
1F
100
AcDbEntity
  8
0
100
AcDbMText
 10
-20.90297677958006
 20
373.9848815530659
 30
0.0
 40
56.0
 41
3020.029027576193
 71
     1
 72
     5
  1
{500W50}
 73
     1
 44
1.0
1001
ACAD
1000
ACAD_MTEXT_DEFINED_HEIGHT_BEGIN
1070
    46
1040
2.8
1000
ACAD_MTEXT_DEFINED_HEIGHT_END
  0
ENDSEC
  0
SECTION
  2
OBJECTS
  0
DICTIONARY
  5
C
330
0
100
AcDbDictionary
281
     1
  3
ACAD_GROUP
350
D
  3
ACAD_LAYOUT
350
1A
  3
ACAD_MLINESTYLE
350
17
  3
ACAD_PLOTSETTINGS
350
19
  3
ACAD_PLOTSTYLENAME
350
E
  3
ACAD_SCALELIST
350
47
  3
APPDATA
350
ED
  3
DWGPROPS
350
EF
  0
DICTIONARY
  5
D
102
{ACAD_REACTORS
330
C
102
}
330
C
100
AcDbDictionary
281
     1
  0
DICTIONARY
  5
1A
102
{ACAD_REACTORS
330
C
102
}
330
C
100
AcDbDictionary
281
     1
  3
Layout1
350
1E
  3
Layout2
350
26
  3
Model
350
22
  0
DICTIONARY
  5
17
102
{ACAD_REACTORS
330
C
102
}
330
C
100
AcDbDictionary
281
     1
  3
Standard
350
18
  0
DICTIONARY
  5
19
102
{ACAD_REACTORS
330
C
102
}
330
C
100
AcDbDictionary
281
     1
  0
ACDBDICTIONARYWDFLT
  5
E
102
{ACAD_REACTORS
330
C
102
}
330
C
100
AcDbDictionary
281
     1
  3
Normal
350
F
100
AcDbDictionaryWithDefault
340
F
  0
DICTIONARY
  5
47
102
{ACAD_REACTORS
330
C
102
}
330
C
100
AcDbDictionary
281
     1
  3
A0
350
48
  3
A1
350
49
  3
A2
350
4A
  3
A3
350
4B
  3
A4
350
4C
  3
A5
350
4D
  3
A6
350
4E
  3
A7
350
4F
  3
A8
350
50
  3
A9
350
51
  3
B0
350
52
  3
B1
350
53
  3
B2
350
54
  3
B3
350
55
  3
B4
350
56
  3
B5
350
57
  3
B6
350
58
  3
B7
350
59
  3
B8
350
5A
  3
B9
350
5B
  3
C0
350
5C
  3
C1
350
5D
  3
C2
350
5E
  3
C3
350
5F
  3
C4
350
60
  3
C5
350
61
  3
C6
350
62
  3
C7
350
63
  3
C8
350
64
  3
C9
350
65
  3
D0
350
66
  3
D1
350
67
  3
D2
350
68
  0
DICTIONARY
  5
ED
102
{ACAD_REACTORS
330
C
102
}
330
C
100
AcDbDictionary
281
     1
  0
XRECORD
  5
EF
102
{ACAD_REACTORS
330
C
102
}
330
C
100
AcDbXrecord
280
     1
  1
DWGPROPS COOKIE
  2

  3

  4

  6

  7

  8
emilio.pezzoli
  9

300
=
301
=
302
=
303
=
304
=
305
=
306
=
307
=
308
=
309
=
 40
0.0
 41
2458521.396758565
 42
2458521.39750103
  1

 90
        0
  0
LAYOUT
  5
1E
102
{ACAD_REACTORS
330
1A
102
}
330
1A
100
AcDbPlotSettings
  1

  2
none_device
  4

  6

 40
0.0
 41
0.0
 42
0.0
 43
0.0
 44
0.0
 45
0.0
 46
0.0
 47
0.0
 48
0.0
 49
0.0
140
0.0
141
0.0
142
1.0
143
1.0
 70
   688
 72
     1
 73
     0
 74
     5
  7

 75
    16
147
1.0
148
0.0
149
0.0
100
AcDbLayout
  1
Layout1
 70
     1
 71
     1
 10
0.0
 20
0.0
 11
420.0
 21
297.0
 12
0.0
 22
0.0
 32
0.0
 14
1.000000000000000E+20
 24
1.000000000000000E+20
 34
1.000000000000000E+20
 15
-1.000000000000000E+20
 25
-1.000000000000000E+20
 35
-1.000000000000000E+20
146
0.0
 13
0.0
 23
0.0
 33
0.0
 16
1.0
 26
0.0
 36
0.0
 17
0.0
 27
1.0
 37
0.0
 76
     0
330
1B
  0
LAYOUT
  5
26
102
{ACAD_REACTORS
330
1A
102
}
330
1A
100
AcDbPlotSettings
  1

  2
none_device
  4

  6

 40
0.0
 41
0.0
 42
0.0
 43
0.0
 44
0.0
 45
0.0
 46
0.0
 47
0.0
 48
0.0
 49
0.0
140
0.0
141
0.0
142
1.0
143
1.0
 70
   688
 72
     1
 73
     0
 74
     5
  7

 75
    16
147
1.0
148
0.0
149
0.0
100
AcDbLayout
  1
Layout2
 70
     1
 71
     2
 10
0.0
 20
0.0
 11
0.0
 21
0.0
 12
0.0
 22
0.0
 32
0.0
 14
0.0
 24
0.0
 34
0.0
 15
0.0
 25
0.0
 35
0.0
146
0.0
 13
0.0
 23
0.0
 33
0.0
 16
1.0
 26
0.0
 36
0.0
 17
0.0
 27
1.0
 37
0.0
 76
     0
330
23
  0
LAYOUT
  5
22
102
{ACAD_REACTORS
330
1A
102
}
330
1A
100
AcDbPlotSettings
  1

  2
none_device
  4
Letter_(8.50_x_11.00_Inches)
  6

 40
6.35
 41
6.35
 42
6.35000508
 43
6.35000508
 44
215.9
 45
279.4
 46
0.0
 47
0.0
 48
0.0
 49
0.0
140
0.0
141
0.0
142
1.0
143
1.0
 70
  1712
 72
     1
 73
     0
 74
     0
  7

 75
     0
147
1.0
148
0.0
149
0.0
100
AcDbLayout
  1
Model
 70
     1
 71
     0
 10
0.0
 20
0.0
 11
210.0
 21
297.0
 12
0.0
 22
0.0
 32
0.0
 14
-432.8057451938
 24
-596.9657715674
 34
0.0
 15
287.0970232204199
 25
903.0342284326
 35
0.0
146
0.0
 13
0.0
 23
0.0
 33
0.0
 16
1.0
 26
0.0
 36
0.0
 17
0.0
 27
1.0
 37
0.0
 76
     0
330
1F
331
29
  0
MLINESTYLE
  5
18
102
{ACAD_REACTORS
330
17
102
}
330
17
100
AcDbMlineStyle
  2
Standard
 70
     0
  3

 62
   256
 51
90.0
 52
90.0
 71
     2
 49
0.5
 62
   256
  6
BYLAYER
 49
-0.5
 62
   256
  6
BYLAYER
  0
ACDBPLACEHOLDER
  5
F
102
{ACAD_REACTORS
330
E
102
}
330
E
  0
SCALE
  5
48
102
{ACAD_REACTORS
330
47
102
}
330
47
100
AcDbScale
 70
     0
300
1:1
140
1.0
141
1.0
290
     1
  0
SCALE
  5
49
102
{ACAD_REACTORS
330
47
102
}
330
47
100
AcDbScale
 70
     0
300
1:2
140
1.0
141
2.0
290
     0
  0
SCALE
  5
4A
102
{ACAD_REACTORS
330
47
102
}
330
47
100
AcDbScale
 70
     0
300
1:4
140
1.0
141
4.0
290
     0
  0
SCALE
  5
4B
102
{ACAD_REACTORS
330
47
102
}
330
47
100
AcDbScale
 70
     0
300
1:5
140
1.0
141
5.0
290
     0
  0
SCALE
  5
4C
102
{ACAD_REACTORS
330
47
102
}
330
47
100
AcDbScale
 70
     0
300
1:8
140
1.0
141
8.0
290
     0
  0
SCALE
  5
4D
102
{ACAD_REACTORS
330
47
102
}
330
47
100
AcDbScale
 70
     0
300
1:10
140
1.0
141
10.0
290
     0
  0
SCALE
  5
4E
102
{ACAD_REACTORS
330
47
102
}
330
47
100
AcDbScale
 70
     0
300
1:16
140
1.0
141
16.0
290
     0
  0
SCALE
  5
4F
102
{ACAD_REACTORS
330
47
102
}
330
47
100
AcDbScale
 70
     0
300
1:20
140
1.0
141
20.0
290
     0
  0
SCALE
  5
50
102
{ACAD_REACTORS
330
47
102
}
330
47
100
AcDbScale
 70
     0
300
1:30
140
1.0
141
30.0
290
     0
  0
SCALE
  5
51
102
{ACAD_REACTORS
330
47
102
}
330
47
100
AcDbScale
 70
     0
300
1:40
140
1.0
141
40.0
290
     0
  0
SCALE
  5
52
102
{ACAD_REACTORS
330
47
102
}
330
47
100
AcDbScale
 70
     0
300
1:50
140
1.0
141
50.0
290
     0
  0
SCALE
  5
53
102
{ACAD_REACTORS
330
47
102
}
330
47
100
AcDbScale
 70
     0
300
1:100
140
1.0
141
100.0
290
     0
  0
SCALE
  5
54
102
{ACAD_REACTORS
330
47
102
}
330
47
100
AcDbScale
 70
     0
300
2:1
140
2.0
141
1.0
290
     0
  0
SCALE
  5
55
102
{ACAD_REACTORS
330
47
102
}
330
47
100
AcDbScale
 70
     0
300
4:1
140
4.0
141
1.0
290
     0
  0
SCALE
  5
56
102
{ACAD_REACTORS
330
47
102
}
330
47
100
AcDbScale
 70
     0
300
8:1
140
8.0
141
1.0
290
     0
  0
SCALE
  5
57
102
{ACAD_REACTORS
330
47
102
}
330
47
100
AcDbScale
 70
     0
300
10:1
140
10.0
141
1.0
290
     0
  0
SCALE
  5
58
102
{ACAD_REACTORS
330
47
102
}
330
47
100
AcDbScale
 70
     0
300
100:1
140
100.0
141
1.0
290
     0
  0
SCALE
  5
59
102
{ACAD_REACTORS
330
47
102
}
330
47
100
AcDbScale
 70
     0
300
1/128" = 1'-0"
140
0.0078125
141
12.0
290
     0
  0
SCALE
  5
5A
102
{ACAD_REACTORS
330
47
102
}
330
47
100
AcDbScale
 70
     0
300
1/64" = 1'-0"
140
0.015625
141
12.0
290
     0
  0
SCALE
  5
5B
102
{ACAD_REACTORS
330
47
102
}
330
47
100
AcDbScale
 70
     0
300
1/32" = 1'-0"
140
0.03125
141
12.0
290
     0
  0
SCALE
  5
5C
102
{ACAD_REACTORS
330
47
102
}
330
47
100
AcDbScale
 70
     0
300
1/16" = 1'-0"
140
0.0625
141
12.0
290
     0
  0
SCALE
  5
5D
102
{ACAD_REACTORS
330
47
102
}
330
47
100
AcDbScale
 70
     0
300
3/32" = 1'-0"
140
0.09375
141
12.0
290
     0
  0
SCALE
  5
5E
102
{ACAD_REACTORS
330
47
102
}
330
47
100
AcDbScale
 70
     0
300
1/8" = 1'-0"
140
0.125
141
12.0
290
     0
  0
SCALE
  5
5F
102
{ACAD_REACTORS
330
47
102
}
330
47
100
AcDbScale
 70
     0
300
3/16" = 1'-0"
140
0.1875
141
12.0
290
     0
  0
SCALE
  5
60
102
{ACAD_REACTORS
330
47
102
}
330
47
100
AcDbScale
 70
     0
300
1/4" = 1'-0"
140
0.25
141
12.0
290
     0
  0
SCALE
  5
61
102
{ACAD_REACTORS
330
47
102
}
330
47
100
AcDbScale
 70
     0
300
3/8" = 1'-0"
140
0.375
141
12.0
290
     0
  0
SCALE
  5
62
102
{ACAD_REACTORS
330
47
102
}
330
47
100
AcDbScale
 70
     0
300
1/2" = 1'-0"
140
0.5
141
12.0
290
     0
  0
SCALE
  5
63
102
{ACAD_REACTORS
330
47
102
}
330
47
100
AcDbScale
 70
     0
300
3/4" = 1'-0"
140
0.75
141
12.0
290
     0
  0
SCALE
  5
64
102
{ACAD_REACTORS
330
47
102
}
330
47
100
AcDbScale
 70
     0
300
1" = 1'-0"
140
1.0
141
12.0
290
     0
  0
SCALE
  5
65
102
{ACAD_REACTORS
330
47
102
}
330
47
100
AcDbScale
 70
     0
300
1-1/2" = 1'-0"
140
1.5
141
12.0
290
     0
  0
SCALE
  5
66
102
{ACAD_REACTORS
330
47
102
}
330
47
100
AcDbScale
 70
     0
300
3" = 1'-0"
140
3.0
141
12.0
290
     0
  0
SCALE
  5
67
102
{ACAD_REACTORS
330
47
102
}
330
47
100
AcDbScale
 70
     0
300
6" = 1'-0"
140
6.0
141
12.0
290
     0
  0
SCALE
  5
68
102
{ACAD_REACTORS
330
47
102
}
330
47
100
AcDbScale
 70
     0
300
1'-0" = 1'-0"
140
12.0
141
12.0
290
     0
  0
ENDSEC
  0
EOF
