  0
SECTION
  2
HEADER
  9
$ACADVER
  1
AC1015
  9
$ACADMAINTVER
 70
     6
  9
$DWGCODEPAGE
  3
ANSI_1252
  9
$INSBASE
 10
0.0
 20
0.0
 30
0.0
  9
$EXTMIN
 10
-110.1584238953064
 20
-164.9113203781439
 30
-0.0000000000000098
  9
$EXTMAX
 10
94.48232200800976
 20
83.11908170239666
 30
0.0000000000000055
  9
$LIMMIN
 10
-20.0
 20
-575.8499999999997
  9
$LIMMAX
 10
1785.35
 20
579.8499999999997
  9
$ORTHOMODE
 70
     1
  9
$REGENMODE
 70
     1
  9
$FILLMODE
 70
     1
  9
$QTEXTMODE
 70
     0
  9
$MIRRTEXT
 70
     1
  9
$LTSCALE
 40
10.0
  9
$ATTMODE
 70
     1
  9
$TEXTSIZE
 40
0.0
  9
$TRACEWID
 40
0.05
  9
$TEXTSTYLE
  7
Standard
  9
$CLAYER
  8
0
  9
$CELTYPE
  6
Continuous
  9
$CECOLOR
 62
   256
  9
$CELTSCALE
 40
1.0
  9
$DISPSILH
 70
     0
  9
$DIMSCALE
 40
1.0
  9
$DIMASZ
 40
1.25
  9
$DIMEXO
 40
0.0
  9
$DIMDLI
 40
0.38
  9
$DIMRND
 40
0.0
  9
$DIMDLE
 40
0.0
  9
$DIMEXE
 40
0.75
  9
$DIMTP
 40
0.0
  9
$DIMTM
 40
0.0
  9
$DIMTXT
 40
2.5
  9
$DIMCEN
 40
0.09
  9
$DIMTSZ
 40
0.0
  9
$DIMTOL
 70
     0
  9
$DIMLIM
 70
     0
  9
$DIMTIH
 70
     0
  9
$DIMTOH
 70
     0
  9
$DIMSE1
 70
     0
  9
$DIMSE2
 70
     0
  9
$DIMTAD
 70
     1
  9
$DIMZIN
 70
     0
  9
$DIMBLK
  1

  9
$DIMASO
 70
     1
  9
$DIMSHO
 70
     1
  9
$DIMPOST
  1

  9
$DIMAPOST
  1

  9
$DIMALT
 70
     0
  9
$DIMALTD
 70
     2
  9
$DIMALTF
 40
25.4
  9
$DIMLFAC
 40
1.0
  9
$DIMTOFL
 70
     0
  9
$DIMTVP
 40
0.0
  9
$DIMTIX
 70
     0
  9
$DIMSOXD
 70
     0
  9
$DIMSAH
 70
     0
  9
$DIMBLK1
  1

  9
$DIMBLK2
  1

  9
$DIMSTYLE
  2
Standard
  9
$DIMCLRD
 70
     7
  9
$DIMCLRE
 70
     7
  9
$DIMCLRT
 70
     7
  9
$DIMTFAC
 40
0.8
  9
$DIMGAP
 40
1.25
  9
$DIMJUST
 70
     0
  9
$DIMSD1
 70
     0
  9
$DIMSD2
 70
     0
  9
$DIMTOLJ
 70
     1
  9
$DIMTZIN
 70
     0
  9
$DIMALTZ
 70
     0
  9
$DIMALTTZ
 70
     0
  9
$DIMUPT
 70
     0
  9
$DIMDEC
 70
     2
  9
$DIMTDEC
 70
     4
  9
$DIMALTU
 70
     2
  9
$DIMALTTD
 70
     2
  9
$DIMTXSTY
  7
Standard
  9
$DIMAUNIT
 70
     0
  9
$DIMADEC
 70
     0
  9
$DIMALTRND
 40
0.0
  9
$DIMAZIN
 70
     0
  9
$DIMDSEP
 70
     0
  9
$DIMATFIT
 70
     3
  9
$DIMFRAC
 70
     0
  9
$DIMLDRBLK
  1

  9
$DIMLUNIT
 70
     2
  9
$DIMLWD
 70
     0
  9
$DIMLWE
 70
     0
  9
$DIMTMOVE
 70
     0
  9
$LUNITS
 70
     2
  9
$LUPREC
 70
     4
  9
$SKETCHINC
 40
0.1
  9
$FILLETRAD
 40
0.0
  9
$AUNITS
 70
     0
  9
$AUPREC
 70
     0
  9
$MENU
  1
acad
  9
$ELEVATION
 40
0.0
  9
$PELEVATION
 40
0.0
  9
$THICKNESS
 40
0.0
  9
$LIMCHECK
 70
     0
  9
$CHAMFERA
 40
0.0
  9
$CHAMFERB
 40
0.0
  9
$CHAMFERC
 40
0.0
  9
$CHAMFERD
 40
0.0
  9
$SKPOLY
 70
     0
  9
$TDCREATE
 40
2455301.802361111
  9
$TDUCREATE
 40
2455301.719027778
  9
$TDUPDATE
 40
2456051.413421181
  9
$TDUUPDATE
 40
2456051.330087847
  9
$TDINDWG
 40
0.1878967014
  9
$TDUSRTIMER
 40
2456051.329911713
  9
$USRTIMER
 70
     1
  9
$ANGBASE
 50
0.0
  9
$ANGDIR
 70
     0
  9
$PDMODE
 70
     0
  9
$PDSIZE
 40
0.0
  9
$PLINEWID
 40
0.0
  9
$SPLFRAME
 70
     0
  9
$SPLINETYPE
 70
     6
  9
$SPLINESEGS
 70
     8
  9
$HANDSEED
  5
C18A
  9
$SURFTAB1
 70
     6
  9
$SURFTAB2
 70
     6
  9
$SURFTYPE
 70
     6
  9
$SURFU
 70
     6
  9
$SURFV
 70
     6
  9
$UCSBASE
  2

  9
$UCSNAME
  2

  9
$UCSORG
 10
0.0
 20
0.0
 30
0.0
  9
$UCSXDIR
 10
1.0
 20
0.0
 30
0.0
  9
$UCSYDIR
 10
0.0
 20
1.0
 30
0.0
  9
$UCSORTHOREF
  2

  9
$UCSORTHOVIEW
 70
     0
  9
$UCSORGTOP
 10
0.0
 20
0.0
 30
0.0
  9
$UCSORGBOTTOM
 10
0.0
 20
0.0
 30
0.0
  9
$UCSORGLEFT
 10
0.0
 20
0.0
 30
0.0
  9
$UCSORGRIGHT
 10
0.0
 20
0.0
 30
0.0
  9
$UCSORGFRONT
 10
0.0
 20
0.0
 30
0.0
  9
$UCSORGBACK
 10
0.0
 20
0.0
 30
0.0
  9
$PUCSBASE
  2

  9
$PUCSNAME
  2

  9
$PUCSORG
 10
0.0
 20
0.0
 30
0.0
  9
$PUCSXDIR
 10
1.0
 20
0.0
 30
0.0
  9
$PUCSYDIR
 10
0.0
 20
1.0
 30
0.0
  9
$PUCSORTHOREF
  2

  9
$PUCSORTHOVIEW
 70
     0
  9
$PUCSORGTOP
 10
0.0
 20
0.0
 30
0.0
  9
$PUCSORGBOTTOM
 10
0.0
 20
0.0
 30
0.0
  9
$PUCSORGLEFT
 10
0.0
 20
0.0
 30
0.0
  9
$PUCSORGRIGHT
 10
0.0
 20
0.0
 30
0.0
  9
$PUCSORGFRONT
 10
0.0
 20
0.0
 30
0.0
  9
$PUCSORGBACK
 10
0.0
 20
0.0
 30
0.0
  9
$USERI1
 70
     0
  9
$USERI2
 70
     0
  9
$USERI3
 70
     0
  9
$USERI4
 70
     0
  9
$USERI5
 70
     0
  9
$USERR1
 40
0.0
  9
$USERR2
 40
0.0
  9
$USERR3
 40
0.0
  9
$USERR4
 40
0.0
  9
$USERR5
 40
0.0
  9
$WORLDVIEW
 70
     1
  9
$SHADEDGE
 70
     3
  9
$SHADEDIF
 70
    70
  9
$TILEMODE
 70
     1
  9
$MAXACTVP
 70
    16
  9
$PINSBASE
 10
0.0
 20
0.0
 30
0.0
  9
$PLIMCHECK
 70
     0
  9
$PEXTMIN
 10
1.000000000000000E+20
 20
1.000000000000000E+20
 30
1.000000000000000E+20
  9
$PEXTMAX
 10
-1.000000000000000E+20
 20
-1.000000000000000E+20
 30
-1.000000000000000E+20
  9
$PLIMMIN
 10
0.0
 20
0.0
  9
$PLIMMAX
 10
12.0
 20
9.0
  9
$UNITMODE
 70
     0
  9
$VISRETAIN
 70
     0
  9
$PLINEGEN
 70
     1
  9
$PSLTSCALE
 70
     0
  9
$TREEDEPTH
 70
  3020
  9
$CMLSTYLE
  2
Standard
  9
$CMLJUST
 70
     0
  9
$CMLSCALE
 40
1.0
  9
$PROXYGRAPHICS
 70
     0
  9
$MEASUREMENT
 70
     1
  9
$CELWEIGHT
370
     0
  9
$ENDCAPS
280
     0
  9
$JOINSTYLE
280
     0
  9
$LWDISPLAY
290
     0
  9
$INSUNITS
 70
     0
  9
$HYPERLINKBASE
  1

  9
$STYLESHEET
  1

  9
$XEDIT
290
     1
  9
$CEPSNTYPE
380
     0
  9
$PSTYLEMODE
290
     1
  9
$FINGERPRINTGUID
  2

  9
$VERSIONGUID
  2
{8FBE37C9-D84A-4822-A492-321741B7DD91}
  9
$EXTNAMES
290
     1
  9
$PSVPSCALE
 40
0.0
  9
$OLESTARTUP
290
     0
  0
ENDSEC
  0
SECTION
  2
CLASSES
  0
CLASS
  1
IMAGE
  2
AcDbRasterImage
  3
ISM
 90
      127
280
     0
281
     1
  0
CLASS
  1
DICTIONARYVAR
  2
AcDbDictionaryVar
  3
ObjectDBX Classes
 90
        0
280
     0
281
     0
  0
CLASS
  1
RASTERVARIABLES
  2
AcDbRasterVariables
  3
ISM
 90
        0
280
     0
281
     0
  0
CLASS
  1
IMAGEDEF
  2
AcDbRasterImageDef
  3
ISM
 90
        0
280
     0
281
     0
  0
CLASS
  1
IMAGEDEF_REACTOR
  2
AcDbRasterImageDefReactor
  3
ISM
 90
        1
280
     0
281
     0
  0
CLASS
  1
IDBUFFER
  2
AcDbIdBuffer
  3
ObjectDBX Classes
 90
        0
280
     0
281
     0
  0
CLASS
  1
SPATIAL_FILTER
  2
AcDbSpatialFilter
  3
ObjectDBX Classes
 90
        0
280
     0
281
     0
  0
CLASS
  1
SORTENTSTABLE
  2
AcDbSortentsTable
  3
ObjectDBX Classes
 90
        0
280
     0
281
     0
  0
CLASS
  1
LAYER_INDEX
  2
AcDbLayerIndex
  3
ObjectDBX Classes
 90
        0
280
     0
281
     0
  0
CLASS
  1
SPATIAL_INDEX
  2
AcDbSpatialIndex
  3
AutoCAD 2000
 90
        0
280
     0
281
     0
  0
CLASS
  1
OBJECT_PTR
  2
CAseDLPNTableRecord
  3
ASE-LPNTableRecord
 90
        1
280
     0
281
     0
  0
CLASS
  1
LAYOUT
  2
AcDbLayout
  3
ObjectDBX Classes
 90
        0
280
     0
281
     0
  0
CLASS
  1
PLOTSETTINGS
  2
AcDbPlotSettings
  3
ObjectDBX Classes
 90
        0
280
     0
281
     0
  0
CLASS
  1
ACDBDICTIONARYWDFLT
  2
AcDbDictionaryWithDefault
  3
ObjectDBX Classes
 90
        0
280
     0
281
     0
  0
CLASS
  1
ACDBPLACEHOLDER
  2
AcDbPlaceHolder
  3
ObjectDBX Classes
 90
        0
280
     0
281
     0
  0
CLASS
  1
VBA_PROJECT
  2
AcDbVbaProject
  3
ObjectDBX Classes
 90
        0
280
     0
281
     0
  0
CLASS
  1
WIPEOUT
  2
AcDbWipeout
  3
WipeOut|AutoCAD Express Tool|expresstools@autodesk.com
 90
      127
280
     0
281
     1
  0
CLASS
  1
WIPEOUTVARIABLES
  2
AcDbWipeoutVariables
  3
WipeOut|AutoCAD Express Tool|expresstools@autodesk.com
 90
        0
280
     0
281
     0
  0
CLASS
  1
RTEXT
  2
RText
  3
RText|AutoCAD Express Tool|expresstools@autodesk.com
 90
        0
280
     0
281
     1
  0
CLASS
  1
ARCALIGNEDTEXT
  2
AcDbArcAlignedText
  3
ATEXT|AutoCAD Express Tool|expresstools@autodesk.com
 90
        0
280
     0
281
     1
  0
CLASS
  1
MATERIAL
  2
AcDbMaterial
  3
ObjectDBX Classes
 90
     1153
280
     0
281
     0
  0
CLASS
  1
VISUALSTYLE
  2
AcDbVisualStyle
  3
ObjectDBX Classes
 90
     4095
280
     0
281
     0
  0
CLASS
  1
TABLESTYLE
  2
AcDbTableStyle
  3
ObjectDBX Classes
 90
     4095
280
     0
281
     0
  0
CLASS
  1
SCALE
  2
AcDbScale
  3
ObjectDBX Classes
 90
     1153
280
     0
281
     0
  0
CLASS
  1
MLEADERSTYLE
  2
AcDbMLeaderStyle
  3
ACDB_MLEADERSTYLE_CLASS
 90
     4095
280
     0
281
     0
  0
CLASS
  1
CELLSTYLEMAP
  2
AcDbCellStyleMap
  3
ObjectDBX Classes
 90
     1152
280
     0
281
     0
  0
ENDSEC
  0
SECTION
  2
TABLES
  0
TABLE
  2
VPORT
  5
7
330
0
100
AcDbSymbolTable
 70
     1
  0
VPORT
  5
15
330
7
100
AcDbSymbolTableRecord
100
AcDbViewportTableRecord
  2
*ACTIVE
 70
     0
 10
0.0
 20
0.0
 11
1.0
 21
1.0
 12
-20.51684572972421
 22
26.82408167332675
 13
0.0
 23
0.0
 14
1.0
 24
1.0
 15
0.0
 25
0.0
 16
0.0
 26
0.0
 36
1.0
 17
0.0
 27
0.0
 37
0.0
 40
126.5241461497999
 41
2.274173806609547
 42
50.0
 43
0.0
 44
0.0
 50
0.0
 51
0.0
 71
    16
 72
   100
 73
     1
 74
     1
 75
     0
 76
     0
 77
     0
 78
     0
281
     0
 65
     0
110
0.0
120
0.0
130
0.0
111
1.0
121
0.0
131
0.0
112
0.0
122
1.0
132
0.0
 79
     0
146
0.0
  0
ENDTAB
  0
TABLE
  2
LTYPE
  5
4
330
0
100
AcDbSymbolTable
 70
     2
  0
LTYPE
  5
11
330
4
100
AcDbSymbolTableRecord
100
AcDbLinetypeTableRecord
  2
ByBlock
 70
     0
  3

 72
    65
 73
     0
 40
0.0
  0
LTYPE
  5
12
330
4
100
AcDbSymbolTableRecord
100
AcDbLinetypeTableRecord
  2
ByLayer
 70
     0
  3

 72
    65
 73
     0
 40
0.0
  0
LTYPE
  5
13
330
4
100
AcDbSymbolTableRecord
100
AcDbLinetypeTableRecord
  2
Continuous
 70
     0
  3
Solid line
 72
    65
 73
     0
 40
0.0
  0
LTYPE
  5
108
330
4
100
AcDbSymbolTableRecord
100
AcDbLinetypeTableRecord
  2
CENTER
 70
     0
  3
____ _ ____ _ ____ _ ____ _ ____ _ ____ _ ____
 72
    65
 73
     4
 40
2.0
 49
1.25
 74
     0
 49
-0.25
 74
     0
 49
0.25
 74
     0
 49
-0.25
 74
     0
  0
ENDTAB
  0
TABLE
  2
LAYER
  5
2
330
0
100
AcDbSymbolTable
 70
     2
  0
LAYER
  5
14
102
{ACAD_XDICTIONARY
360
5858
102
}
330
2
100
AcDbSymbolTableRecord
100
AcDbLayerTableRecord
  2
0
 70
     0
 62
     7
  6
Continuous
370
    -3
390
1D
  0
LAYER
  5
B652
330
2
100
AcDbSymbolTableRecord
100
AcDbLayerTableRecord
  2
Defpoints
 70
     0
 62
     7
  6
Continuous
290
     0
370
    -3
390
1D
  0
ENDTAB
  0
TABLE
  2
STYLE
  5
3
330
0
100
AcDbSymbolTable
 70
     1
  0
STYLE
  5
17
330
3
100
AcDbSymbolTableRecord
100
AcDbTextStyleTableRecord
  2
Standard
 70
     0
 40
0.0
 41
1.0
 50
0.0
 71
     0
 42
0.0
  3
I011000D_0.TTF
  4

1001
ACAD
1000
IsonormD
1071
        0
  0
ENDTAB
  0
TABLE
  2
VIEW
  5
5
330
0
100
AcDbSymbolTable
 70
     0
  0
ENDTAB
  0
TABLE
  2
UCS
  5
6
330
0
100
AcDbSymbolTable
 70
     0
  0
ENDTAB
  0
TABLE
  2
APPID
  5
8
330
0
100
AcDbSymbolTable
 70
     6
  0
APPID
  5
16
330
8
100
AcDbSymbolTableRecord
100
AcDbRegAppTableRecord
  2
ACAD
 70
     0
  0
APPID
  5
26
330
8
100
AcDbSymbolTableRecord
100
AcDbRegAppTableRecord
  2
TopSolid'Draft
 70
     0
  0
APPID
  5
5850
330
8
100
AcDbSymbolTableRecord
100
AcDbRegAppTableRecord
  2
ACAD_MLEADERVER
 70
     0
  0
APPID
  5
5856
330
8
100
AcDbSymbolTableRecord
100
AcDbRegAppTableRecord
  2
DCO15
 70
     0
  0
APPID
  5
B62D
330
8
100
AcDbSymbolTableRecord
100
AcDbRegAppTableRecord
  2
ACAD_EXEMPT_FROM_CAD_STANDARDS
 70
     0
  0
APPID
  5
B915
330
8
100
AcDbSymbolTableRecord
100
AcDbRegAppTableRecord
  2
ACAD_DSTYLE_DIMRADIAL_EXTENSION
 70
     0
  0
ENDTAB
  0
TABLE
  2
DIMSTYLE
  5
9
330
0
100
AcDbSymbolTable
 70
     2
100
AcDbDimStyleTable
  0
DIMSTYLE
105
18
330
9
100
AcDbSymbolTableRecord
100
AcDbDimStyleTableRecord
  2
Standard
 70
     0
 41
1.25
 42
0.0
 44
0.75
 73
     0
 74
     0
 77
     1
140
2.5
146
0.8
147
1.25
176
     7
177
     7
271
     2
178
     7
271
     2
340
17
  0
DIMSTYLE
105
C01C
330
9
100
AcDbSymbolTableRecord
100
AcDbDimStyleTableRecord
  2
ISO-25
 70
     0
 41
2.5
 42
0.625
 43
3.75
 44
1.25
 73
     0
 74
     0
 77
     1
 78
     8
140
2.5
141
2.5
143
0.03937007874016
147
0.625
171
     3
172
     1
178
     0
271
     2
272
     2
274
     3
278
    44
283
     0
284
     8
340
17
  0
ENDTAB
  0
TABLE
  2
BLOCK_RECORD
  5
1
330
0
100
AcDbSymbolTable
 70
     0
  0
BLOCK_RECORD
  5
A
102
{ACAD_XDICTIONARY
360
5864
102
}
330
1
100
AcDbSymbolTableRecord
100
AcDbBlockTableRecord
  2
*MODEL_SPACE
340
20
  0
BLOCK_RECORD
  5
B
330
1
100
AcDbSymbolTableRecord
100
AcDbBlockTableRecord
  2
*PAPER_SPACE
340
21
  0
ENDTAB
  0
ENDSEC
  0
SECTION
  2
BLOCKS
  0
BLOCK
  5
D
330
A
100
AcDbEntity
  8
0
100
AcDbBlockBegin
  2
*MODEL_SPACE
 70
     0
 10
0.0
 20
0.0
 30
0.0
  3
*MODEL_SPACE
  1

  0
ENDBLK
  5
E
330
A
100
AcDbEntity
  8
0
100
AcDbBlockEnd
  0
BLOCK
  5
F
330
B
100
AcDbEntity
 67
     1
  8
0
100
AcDbBlockBegin
  2
*PAPER_SPACE
 70
     0
 10
0.0
 20
0.0
 30
0.0
  3
*PAPER_SPACE
  1

  0
ENDBLK
  5
10
330
B
100
AcDbEntity
 67
     1
  8
0
100
AcDbBlockEnd
  0
ENDSEC
  0
SECTION
  2
ENTITIES
  0
TEXT
  5
ABEF
330
A
100
AcDbEntity
  8
0
  6
Continuous
 62
     7
370
     0
100
AcDbText
 10
-66.31204597145167
 20
60.25882805645302
 30
0.0
 40
10.0
  1
4NB5
100
AcDbText
  0
LINE
  5
C141
330
A
100
AcDbEntity
  8
0
  6
Continuous
 62
     7
370
    15
100
AcDbLine
 10
7.0
 20
60.87525030630739
 30
0.0
 11
7.0
 21
65.8752503063074
 31
0.0
  0
LINE
  5
C142
330
A
100
AcDbEntity
  8
0
  6
Continuous
 62
     7
370
    15
100
AcDbLine
 10
-7.0
 20
65.8752503063074
 30
0.0
 11
-7.0
 21
60.87525030630739
 31
0.0
  0
LINE
  5
C143
330
A
100
AcDbEntity
  8
0
  6
Continuous
 62
     7
370
    15
100
AcDbLine
 10
-14.50000000006418
 20
69.37525030537664
 30
0.0
 11
-14.5
 21
68.37525030537664
 31
0.0
  0
LINE
  5
C144
330
A
100
AcDbEntity
  8
0
  6
Continuous
 62
     7
370
    15
100
AcDbLine
 10
14.5
 20
68.37525030723803
 30
0.0
 11
14.4999999999358
 21
69.37525030723803
 31
0.0
  0
LINE
  5
C145
330
A
100
AcDbEntity
  8
0
  6
Continuous
 62
     7
370
    15
100
AcDbLine
 10
-14.49999999999983
 20
58.37525030630989
 30
0.0
 11
-14.5
 21
57.37525030630989
 31
0.0
  0
LINE
  5
C146
330
A
100
AcDbEntity
  8
0
  6
Continuous
 62
     7
370
    15
100
AcDbLine
 10
14.5
 20
57.37525030630449
 30
0.0
 11
14.50000000000017
 21
58.37525030630449
 31
0.0
  0
LINE
  5
C147
330
A
100
AcDbEntity
  8
0
  6
Continuous
 62
     7
370
    15
100
AcDbLine
 10
15.0
 20
74.37525030630734
 30
0.0
 11
14.0
 21
75.37525030630734
 31
0.0
  0
LINE
  5
C148
330
A
100
AcDbEntity
  8
0
  6
Continuous
 62
     7
370
    15
100
AcDbLine
 10
-14.0
 20
75.37525030630734
 30
0.0
 11
-15.0
 21
74.37525030630734
 31
0.0
  0
LINE
  5
C149
330
A
100
AcDbEntity
  8
0
  6
Continuous
 62
     7
370
    15
100
AcDbLine
 10
-15.0
 20
74.37525030630734
 30
0.0
 11
-15.0
 21
69.37525030630734
 31
0.0
  0
LINE
  5
C14A
330
A
100
AcDbEntity
  8
0
  6
Continuous
 62
     7
370
    15
100
AcDbLine
 10
15.0
 20
69.37525030630734
 30
0.0
 11
15.0
 21
74.37525030630734
 31
0.0
  0
LINE
  5
C14B
330
A
100
AcDbEntity
  8
0
  6
Continuous
 62
     7
370
    15
100
AcDbLine
 10
-4.0
 20
68.37525030605063
 30
0.0
 11
-4.0
 21
65.8752503063074
 31
0.0
  0
LINE
  5
C14C
330
A
100
AcDbEntity
  8
0
  6
Continuous
 62
     7
370
    15
100
AcDbLine
 10
-4.0
 20
60.87525030630739
 30
0.0
 11
-4.0
 21
58.37525030630779
 31
0.0
  0
LINE
  5
C14D
330
A
100
AcDbEntity
  8
0
  6
Continuous
 62
     7
370
    15
100
AcDbLine
 10
-4.0
 20
57.37525030630779
 30
0.0
 11
-4.0
 21
45.37525030631443
 31
0.0
  0
LINE
  5
C14E
330
A
100
AcDbEntity
  8
0
  6
Continuous
 62
     7
370
    15
100
AcDbLine
 10
4.0
 20
45.37525030631443
 30
0.0
 11
4.0
 21
57.37525030630626
 31
0.0
  0
LINE
  5
C14F
330
A
100
AcDbEntity
  8
0
  6
Continuous
 62
     7
370
    15
100
AcDbLine
 10
4.0
 20
58.37525030630631
 30
0.0
 11
4.0
 21
60.87525030630739
 31
0.0
  0
LINE
  5
C150
330
A
100
AcDbEntity
  8
0
  6
Continuous
 62
     7
370
    15
100
AcDbLine
 10
4.0
 20
65.8752503063074
 30
0.0
 11
4.0
 21
68.37525030656415
 31
0.0
  0
LINE
  5
C151
330
A
100
AcDbEntity
  8
0
  6
Continuous
 62
     7
370
    15
100
AcDbLine
 10
-4.0
 20
45.37525030631443
 30
0.0
 11
-2.999999999992923
 21
44.37525030630738
 31
0.0
  0
LINE
  5
C152
330
A
100
AcDbEntity
  8
0
  6
Continuous
 62
     7
370
    15
100
AcDbLine
 10
2.999999999992923
 20
44.37525030630738
 30
0.0
 11
4.0
 21
45.37525030631443
 31
0.0
  0
LINE
  5
C153
330
A
100
AcDbEntity
  8
0
  6
Continuous
 62
     7
370
    15
100
AcDbLine
 10
4.869622722290956
 20
65.8752503063074
 30
0.0
 11
-7.0
 21
65.8752503063074
 31
0.0
  0
LINE
  5
C154
330
A
100
AcDbEntity
  8
0
  6
Continuous
 62
     7
370
    15
100
AcDbLine
 10
7.0
 20
65.8752503063074
 30
0.0
 11
4.869622722290956
 21
65.8752503063074
 31
0.0
  0
LINE
  5
C155
330
A
100
AcDbEntity
  8
0
  6
Continuous
 62
     7
370
    15
100
AcDbLine
 10
4.869622722290956
 20
60.87525030630739
 30
0.0
 11
-7.0
 21
60.87525030630739
 31
0.0
  0
LINE
  5
C156
330
A
100
AcDbEntity
  8
0
  6
Continuous
 62
     7
370
    15
100
AcDbLine
 10
7.0
 20
60.87525030630739
 30
0.0
 11
4.869622722290956
 21
60.87525030630739
 31
0.0
  0
LINE
  5
C157
330
A
100
AcDbEntity
  8
0
  6
Continuous
 62
     7
370
    15
100
AcDbLine
 10
-14.50000000006418
 20
69.37525030537664
 30
0.0
 11
14.4999999999358
 21
69.37525030723803
 31
0.0
  0
LINE
  5
C158
330
A
100
AcDbEntity
  8
0
  6
Continuous
 62
     7
370
    15
100
AcDbLine
 10
-14.5
 20
68.37525030537664
 30
0.0
 11
14.5
 21
68.37525030723803
 31
0.0
  0
LINE
  5
C159
330
A
100
AcDbEntity
  8
0
  6
Continuous
 62
     7
370
    15
100
AcDbLine
 10
-14.49999999999983
 20
58.37525030630989
 30
0.0
 11
14.50000000000017
 21
58.37525030630449
 31
0.0
  0
LINE
  5
C15A
330
A
100
AcDbEntity
  8
0
  6
Continuous
 62
     7
370
    15
100
AcDbLine
 10
-14.5
 20
57.37525030630989
 30
0.0
 11
14.5
 21
57.37525030630449
 31
0.0
  0
LINE
  5
C15B
330
A
100
AcDbEntity
  8
0
  6
Continuous
 62
     7
370
    15
100
AcDbLine
 10
-14.0
 20
75.37525030630734
 30
0.0
 11
14.0
 21
75.37525030630734
 31
0.0
  0
LINE
  5
C15C
330
A
100
AcDbEntity
  8
0
  6
Continuous
 62
     7
370
    15
100
AcDbLine
 10
14.99999999999997
 20
74.37525030630734
 30
0.0
 11
-15.0
 21
74.37525030630734
 31
0.0
  0
LINE
  5
C15D
330
A
100
AcDbEntity
  8
0
  6
Continuous
 62
     7
370
    15
100
AcDbLine
 10
-15.0
 20
69.37525030630734
 30
0.0
 11
14.99999999999997
 21
69.37525030630734
 31
0.0
  0
LINE
  5
C15E
330
A
100
AcDbEntity
  8
0
  6
Continuous
 62
     7
370
    15
100
AcDbLine
 10
-4.0
 20
45.37525030631443
 30
0.0
 11
4.0
 21
45.37525030631443
 31
0.0
  0
LINE
  5
C15F
330
A
100
AcDbEntity
  8
0
  6
Continuous
 62
     7
370
    15
100
AcDbLine
 10
2.999999999992923
 20
44.37525030630738
 30
0.0
 11
-2.999999999992923
 21
44.37525030630738
 31
0.0
  0
CIRCLE
  5
C160
330
A
100
AcDbEntity
  8
0
  6
Continuous
 62
     7
370
    15
100
AcDbCircle
 10
0.0
 20
0.0
 30
0.0
 40
14.0
  0
CIRCLE
  5
C161
330
A
100
AcDbEntity
  8
0
  6
Continuous
 62
     7
370
    15
100
AcDbCircle
 10
0.0
 20
0.0
 30
0.0
 40
15.0
  0
CIRCLE
  5
C162
330
A
100
AcDbEntity
  8
0
  6
Continuous
 62
     7
370
    15
100
AcDbCircle
 10
0.0
 20
-5.500000000000028
 30
0.0
 40
1.25
  0
CIRCLE
  5
C163
330
A
100
AcDbEntity
  8
0
  6
Continuous
 62
     7
370
    15
100
AcDbCircle
 10
0.0
 20
5.499999999999972
 30
0.0
 40
1.25
  0
LINE
  5
C164
330
A
100
AcDbEntity
  8
0
  6
Continuous
 62
     7
370
    15
100
AcDbLine
 10
-68.66974090279189
 20
-1.173532460777587
 30
0.0
 11
-68.669740902792
 21
-1.99007327266326
 31
0.0
  0
LINE
  5
C165
330
A
100
AcDbEntity
  8
0
  6
Continuous
 62
     7
370
    15
100
AcDbLine
 10
-39.669740902792
 20
-1.990073272667594
 30
0.0
 11
-39.66974090279189
 21
-1.173532460781921
 31
0.0
  0
LINE
  5
C166
330
A
100
AcDbEntity
  8
0
  6
Continuous
 62
     7
370
    15
100
AcDbLine
 10
-43.5614157340726
 20
18.01318627933311
 30
0.0
 11
-44.26863741198724
 21
18.42158937455614
 31
0.0
  0
LINE
  5
C167
330
A
100
AcDbEntity
  8
0
  6
Continuous
 62
     7
370
    15
100
AcDbLine
 10
-64.07084439359679
 20
18.42158937455614
 30
0.0
 11
-64.7780660715114
 21
18.01318627933311
 31
0.0
  0
LINE
  5
C168
330
A
100
AcDbEntity
  8
0
  6
Continuous
 62
     7
370
    15
100
AcDbLine
 10
-69.169740902792
 20
11.89112052939246
 30
0.0
 11
-69.169740902792
 21
7.80841646996371
 31
0.0
  0
LINE
  5
C169
330
A
100
AcDbEntity
  8
0
  6
Continuous
 62
     7
370
    15
100
AcDbLine
 10
-39.169740902792
 20
7.80841646996371
 30
0.0
 11
-39.169740902792
 21
11.89112052939246
 31
0.0
  0
LINE
  5
C16A
330
A
100
AcDbEntity
  8
0
  6
Continuous
 62
     7
370
    15
100
AcDbLine
 10
-58.169740902792
 20
-10.03593986151046
 30
0.0
 11
-58.169740902792
 21
-11.78856301528854
 31
0.0
  0
LINE
  5
C16B
330
A
100
AcDbEntity
  8
0
  6
Continuous
 62
     7
370
    15
100
AcDbLine
 10
-50.169740902792
 20
-11.78856301528852
 30
0.0
 11
-50.169740902792
 21
-10.03593986151126
 31
0.0
  0
LINE
  5
C16C
330
A
100
AcDbEntity
  8
0
  6
Continuous
 62
     7
370
    15
100
AcDbLine
 10
-56.99862761445053
 20
-13.42111388193937
 30
0.0
 11
-56.29140593653088
 21
-13.82951697716528
 31
0.0
  0
LINE
  5
C16D
330
A
100
AcDbEntity
  8
0
  6
Continuous
 62
     7
370
    15
100
AcDbLine
 10
-52.04807586905312
 20
-13.82951697716528
 30
0.0
 11
-51.3408541911335
 21
-13.42111388193937
 31
0.0
  0
ARC
  5
C16E
330
A
100
AcDbEntity
  8
0
  6
Continuous
 62
     7
370
    15
100
AcDbCircle
 10
-54.95769148253004
 20
4.349002944303471
 30
0.0
 40
7.551951264149709
100
AcDbArc
 50
219.5295433023272
 51
275.1321014740194
  0
ARC
  5
C16F
330
A
100
AcDbEntity
  8
0
  6
Continuous
 62
     7
370
    15
100
AcDbCircle
 10
-53.47040197828215
 20
4.503246947988295
 30
0.0
 40
7.718723329028079
100
AcDbArc
 50
263.9632505382251
 51
320.0060068568758
  0
LWPOLYLINE
  5
C170
330
A
100
AcDbEntity
  8
0
  6
Continuous
 62
     7
370
    15
100
AcDbPolyline
 90
       30
 70
   128
 43
0.0
 10
-67.9515536840478
 20
4.390130404726087
 10
-67.91807029286099
 20
4.331747975541809
 10
-67.43425199586828
 20
3.610785482699448
 10
-66.83726556716434
 20
2.918669259094578
 10
-66.13220428446735
 20
2.261304196313723
 10
-65.3250834820437
 20
1.644298701292122
 10
-64.42278922999688
 20
1.072916847363281
 10
-63.43301958474538
 20
0.5520334630413757
 10
-62.36421891191952
 20
0.0860925417031169
 10
-61.22550584201134
 20
-0.3209306729967878
 10
-60.0265954734344
 20
-0.6655636025028642
 10
-58.77771648672949
 20
-0.9448659601746741
 10
-57.48952387706885
 20
-1.156454836775843
 10
-56.17300804959419
 20
-1.298525030615316
 10
-54.83940105315511
 20
-1.369864448891839
 10
-53.50008075242869
 20
-1.3698644488422
 10
-52.16647375598961
 20
-1.298525030466827
 10
-50.84995792851495
 20
-1.156454836529754
 10
-49.56176531885433
 20
-0.944865959833102
 10
-48.31288633214942
 20
-0.6655636020686941
 10
-47.11397596357247
 20
-0.3209306724737715
 10
-45.97526289366431
 20
0.0860925423105456
 10
-44.90646222083848
 20
0.5520334637280442
 10
-43.91669257558698
 20
1.072916848123334
 10
-43.01439832354018
 20
1.644298702119052
 10
-42.20727752111654
 20
2.261304197200481
 10
-41.50221623841958
 20
2.918669260033603
 10
-40.90522980971565
 20
3.610785483682726
 10
-40.42141151272295
 20
4.331747976560955
 10
-40.38792812395815
 20
4.390130401472071
  0
LWPOLYLINE
  5
C171
330
A
100
AcDbEntity
  8
0
  6
Continuous
 62
     7
370
    15
100
AcDbPolyline
 90
       47
 70
   128
 43
0.0
 10
-66.8280877359389
 20
2.909171598546543
 10
-67.29628808727668
 20
2.382473580102747
 10
-67.80865185753181
 20
1.668113628364772
 10
-68.20465324846566
 20
0.9295097541304287
 10
-68.48091371583692
 20
0.1729634652302749
 10
-68.6350763027447
 20
-0.5950706521495235
 10
-68.66582574835368
 20
-1.368040001720637
 10
-68.57289970923588
 20
-2.139349881533896
 10
-68.35709099759227
 20
-2.902419747650903
 10
-68.02024081725857
 20
-3.650739357024811
 10
-67.56522305520335
 20
-4.377924310598509
 10
-66.99591976253774
 20
-5.077770522746299
 10
-66.31718803422406
 20
-5.744307152344952
 10
-65.53481857005423
 20
-6.371847543884932
 10
-64.65548627044085
 20
-6.955037744010134
 10
-63.68669328852035
 20
-7.488902179560178
 10
-62.63670502442773
 20
-7.968886107406213
 10
-61.51447960781675
 20
-8.390894473913455
 10
-60.32959147025645
 20
-8.751326852494806
 10
-59.09214965955667
 20
-9.047108161181093
 10
-57.81271159293661
 20
-9.275714898136151
 10
-56.50219298486354
 20
-9.43519667128475
 10
-55.17177471802566
 20
-9.524192838370062
 10
-53.83280745198337
 20
-9.541944115473719
 10
-52.496714783344
 20
-9.488299054958368
 10
-51.17489578366337
 20
-9.363715337565587
 10
-49.87862774658652
 20
-9.169255867645226
 10
-48.61896997395451
 20
-8.906579704830158
 10
-47.40666942174062
 20
-8.577927909524512
 10
-46.25206901081123
 20
-8.186104422966473
 10
-45.16501938477171
 20
-7.734452144990307
 10
-44.15479486774859
 20
-7.226824413583579
 10
-43.23001433912594
 20
-6.66755212956614
 10
-42.39856770030556
 20
-6.061406806871396
 10
-41.66754856085001
 20
-5.413559863671757
 10
-41.04319371830704
 20
-4.729538501662184
 10
-40.53082994805192
 20
-4.015178549924237
 10
-40.13482855711808
 20
-3.276574675689879
 10
-39.85856808974685
 20
-2.520028386789711
 10
-39.70440550283908
 20
-1.751994269409927
 10
-39.67365605723009
 20
-0.9790249198388139
 10
-39.76658209634792
 20
-0.2077150400255547
 10
-39.98239080799152
 20
0.5553548260914525
 10
-40.31924098832525
 20
1.303674435465346
 10
-40.77425875038048
 20
2.030859389039044
 10
-41.34356204304609
 20
2.730705601186834
 10
-41.51139407010021
 20
2.909171599014535
  0
ARC
  5
C172
330
A
100
AcDbEntity
  8
0
  6
Continuous
 62
     7
370
    15
100
AcDbCircle
 10
-54.16974090279143
 20
2.591931178356539
 30
0.0
 40
6.09740169082873
100
AcDbArc
 50
243.1176341121216
 51
296.8823658878919
  0
LWPOLYLINE
  5
C173
330
A
100
AcDbEntity
  8
0
  6
Continuous
 62
     7
370
    15
100
AcDbPolyline
 90
       36
 70
   128
 43
0.0
 10
-68.669740902792
 20
-1.99007327266326
 10
-68.6658257483538
 20
-2.18458081360631
 10
-68.572899709236
 20
-2.955890693419555
 10
-68.3570909975924
 20
-3.718960559536576
 10
-68.02024081725868
 20
-4.467280168910484
 10
-67.56522305520346
 20
-5.194465122484182
 10
-66.99591976253785
 20
-5.894311334631958
 10
-66.31718803422419
 20
-6.560847964230625
 10
-65.53481857005436
 20
-7.188388355770606
 10
-64.65548627044096
 20
-7.771578555895822
 10
-63.68669328852047
 20
-8.305442991445851
 10
-62.63670502442784
 20
-8.785426919291886
 10
-61.51447960781687
 20
-9.207435285799129
 10
-60.32959147025656
 20
-9.56786766438048
 10
-59.09214965955678
 20
-9.863648973066752
 10
-57.81271159293675
 20
-10.09225571002182
 10
-56.50219298486365
 20
-10.25173748317041
 10
-55.17177471802577
 20
-10.34073365025574
 10
-53.83280745198351
 20
-10.35848492735938
 10
-52.49671478334415
 20
-10.30483986684403
 10
-51.17489578366349
 20
-10.18025614945126
 10
-49.87862774658663
 20
-9.9857966795309
 10
-48.61896997395462
 20
-9.723120516715817
 10
-47.40666942174073
 20
-9.394468721410185
 10
-46.25206901081134
 20
-9.00264523485216
 10
-45.16501938477185
 20
-8.550992956875966
 10
-44.15479486774873
 20
-8.043365225469238
 10
-43.23001433912609
 20
-7.484092941451813
 10
-42.39856770030568
 20
-6.877947618757069
 10
-41.66754856085015
 20
-6.230100675557416
 10
-41.04319371830715
 20
-5.546079313547857
 10
-40.53082994805206
 20
-4.831719361809895
 10
-40.13482855711823
 20
-4.093115487575552
 10
-39.85856808974697
 20
-3.336569198675384
 10
-39.70440550283919
 20
-2.5685350812956
 10
-39.669740902792
 20
-1.990073272667594
  0
LWPOLYLINE
  5
C174
330
A
100
AcDbEntity
  8
0
  6
Continuous
 62
     7
370
    15
100
AcDbPolyline
 90
       68
 70
   128
 43
0.0
 10
-64.06923583940365
 20
18.42251812403718
 10
-64.95274073218013
 20
17.86225923897843
 10
-65.74148423474021
 20
17.25670156225491
 10
-66.42853484082318
 20
16.61116675650323
 10
-67.00785472499902
 20
15.9313278048073
 10
-67.47435280329546
 20
15.22315915631911
 10
-67.82392947382695
 20
14.49288422258454
 10
-68.0535126442434
 20
13.74692068597924
 10
-68.16108472938825
 20
12.99182410088489
 10
-68.14570038190936
 20
12.23423028324169
 10
-68.00749480000553
 20
11.48079699475928
 10
-67.7476825392999
 20
10.7381454342675
 10
-67.36854683928141
 20
10.01280205038281
 10
-66.87341955811407
 20
9.311141186843436
 10
-66.2666518921477
 20
8.63932906454722
 10
-65.55357613744789
 20
8.003269592580686
 10
-64.74045882938643
 20
7.408552484453786
 10
-63.83444567210316
 20
6.860404135496488
 10
-62.84349874180107
 20
6.363641693108768
 10
-61.77632651573438
 20
5.92263072349602
 10
-60.64230734179722
 20
5.541246846916302
 10
-59.45140702126514
 20
5.222841678590093
 10
-58.21409122897528
 20
4.970213374585278
 10
-56.94123354059943
 20
4.785582041521032
 10
-55.64401987527015
 20
4.670570226190939
 10
-54.3338501933213
 20
4.626188656563521
 10
-53.02223831302649
 20
4.652827359468453
 10
-51.72071072675038
 20
4.750252233026792
 10
-50.44070530571918
 20
4.917607103946658
 10
-49.19347078359701
 20
5.153421251604975
 10
-47.98996790221011
 20
5.455622332793133
 10
-46.8407730881535
 20
5.821554593543659
 10
-45.75598550677378
 20
6.248002207991526
 10
-44.74513831034096
 20
6.731217539167538
 10
-43.81711486036357
 20
7.26695407336674
 10
-42.98007066028816
 20
7.850503738663512
 10
-42.24136168464193
 20
8.476738279617017
 10
-41.60747973446405
 20
9.140154324564342
 10
-41.08399538712465
 20
9.834921749448547
 10
-40.67550904189068
 20
10.55493491315858
 10
-40.38561049145162
 20
11.29386631412279
 10
-40.21684737469246
 20
12.04522219662031
 10
-40.17070278795131
 20
12.80239961813991
 10
-40.24758225151567
 20
13.55874447627603
 10
-40.4468101458954
 20
14.30760998522005
 10
-40.76663564919124
 20
15.04241508795304
 10
-41.20424812338049
 20
15.75670229081138
 10
-41.75580181430513
 20
16.44419441217327
 10
-42.41644964829754
 20
17.09884974655657
 10
-43.18038582843815
 20
17.71491515934387
 10
-44.04089685610765
 20
18.28697664553614
 10
-44.99042052945424
 20
18.81000690822359
 10
-46.02061240029522
 20
19.27940953865156
 10
-47.12241910542787
 20
19.69105940962587
 10
-48.28615792791069
 20
20.04133892727908
 10
-49.50160188912807
 20
20.32716982261528
 10
-50.7580696238461
 20
20.54604020344889
 10
-52.04451924843426
 20
20.69602662900343
 10
-53.34964539733579
 20
20.77581101317811
 10
-54.66197857502681
 20
20.78469220793614
 10
-55.96998595035524
 20
20.7225921650186
 10
-57.26217270747571
 20
20.59005662183555
 10
-58.52718306270449
 20
20.3882503055059
 10
-59.75390005955488
 20
20.11894669719386
 10
-60.93154326495049
 20
19.78451244669231
 10
-62.0497635080587
 20
19.38788657421967
 10
-63.09873382917613
 20
18.93255464220443
 10
-64.06923583940365
 20
18.42251812403718
  0
LWPOLYLINE
  5
C175
330
A
100
AcDbEntity
  8
0
  6
Continuous
 62
     7
370
    15
100
AcDbPolyline
 90
       54
 70
   128
 43
0.0
 10
-43.5614157340726
 20
18.01318627933311
 10
-42.86404552288153
 20
17.58205465117786
 10
-42.01444590849835
 20
16.96497719439953
 10
-41.26556889658926
 20
16.30585616335006
 10
-40.62361991792397
 20
15.6101532424743
 10
-40.09391836391316
 20
14.88363324527715
 10
-39.68085350845595
 20
14.13231634526338
 10
-39.38784813703401
 20
13.36242819088401
 10
-39.21733018443322
 20
12.58034831785236
 10
-39.17071261611116
 20
11.79255728630223
 10
-39.24838171992059
 20
11.00558298082556
 10
-39.44969390520643
 20
10.22594651836483
 10
-39.7729810358008
 20
9.46010821218426
 10
-40.21556425272453
 20
8.714414039679632
 10
-40.77377617205639
 20
7.995043057610978
 10
-41.44299127403121
 20
7.307956200492221
 10
-42.2176642315535
 20
6.65884688641048
 10
-43.0913758605241
 20
6.053093839570714
 10
-44.05688631122129
 20
5.495716520493069
 10
-45.10619505997568
 20
4.991333533182107
 10
-46.23060720402904
 20
4.544124353919536
 10
-47.42080551023679
 20
4.157794698807415
 10
-48.66692762059628
 20
3.835545817037463
 10
-49.95864777485122
 20
3.580047964332117
 10
-51.28526237299306
 20
3.393418276364592
 10
-52.63577866866163
 20
3.277203225505993
 10
-53.99900585850358
 20
3.232365806268142
 10
-55.3636478126933
 20
3.259277555627769
 10
-56.71839667822215
 20
3.357715474354215
 10
-58.05202657932998
 20
3.526863874851166
 10
-59.35348663864684
 20
3.765321140201017
 10
-60.61199254824339
 20
4.071111338404087
 10
-61.81711593180273
 20
4.44170059557343
 10
-62.95887075743083
 20
4.874018092411909
 10
-64.02779608506174
 20
5.364481509987947
 10
-65.01503446278666
 20
5.909026713958475
 10
-65.91240532248992
 20
6.503141431265995
 10
-66.71247276661279
 20
7.141902640254237
 10
-67.40860718434249
 20
7.820017364376007
 10
-67.99504018665525
 20
8.53186653146387
 10
-68.4669124050045
 20
9.271551535131742
 10
-68.82031375757902
 20
10.03294311248508
 10
-69.05231584947222
 20
10.80973213312362
 10
-69.16099623828465
 20
11.59548187858282
 10
-69.14545436408716
 20
12.38368137901012
 10
-69.00581901174402
 20
13.16779936511191
 10
-68.74324724376112
 20
13.94133838830761
 10
-68.35991481250147
 20
14.69788866063499
 10
-67.85899813121608
 20
15.43118116827194
 10
-67.2446479532832
 20
16.13513961855927
 10
-66.52195497775878
 20
16.80393079007539
 10
-65.69690766624069
 20
17.43201286854609
 10
-64.7763426205902
 20
18.01418136806277
 10
-64.7763426205902
 20
18.01418136806277
  0
LWPOLYLINE
  5
C176
330
A
100
AcDbEntity
  8
0
  6
Continuous
 62
     7
370
    15
100
AcDbPolyline
 90
       37
 70
   128
 43
0.0
 10
-69.169740902792
 20
7.80841646996371
 10
-69.16099623828461
 20
7.512777819153932
 10
-69.05231584947217
 20
6.727028073694761
 10
-68.82031375757894
 20
5.950239053056229
 10
-68.46691240500442
 20
5.188847475702879
 10
-67.99504018665516
 20
4.44916247203502
 10
-67.40860718434237
 20
3.737313304947158
 10
-66.71247276661266
 20
3.059198580825388
 10
-65.91240532248978
 20
2.42043737183716
 10
-65.0150344627865
 20
1.82632265452964
 10
-64.02779608506157
 20
1.281777450559112
 10
-62.95887075743065
 20
0.7913140329830881
 10
-61.81711593180256
 20
0.3589965361446374
 10
-60.61199254824322
 20
-0.0115927210247051
 10
-59.35348663864664
 20
-0.3173829192277609
 10
-58.05202657932978
 20
-0.5558401845775975
 10
-56.71839667822195
 20
-0.7249885850745343
 10
-55.3636478126931
 20
-0.8234265038009809
 10
-53.99900585850338
 20
-0.8503382531606221
 10
-52.63577866866143
 20
-0.8055008339227285
 10
-51.28526237299286
 20
-0.6892857830641432
 10
-49.95864777485104
 20
-0.5026560950966186
 10
-48.66692762059608
 20
-0.2471582423912579
 10
-47.42080551023659
 20
0.0750906393787076
 10
-46.23060720402887
 20
0.4614202944908428
 10
-45.10619505997553
 20
0.9086294737534146
 10
-44.05688631122112
 20
1.41301246106439
 10
-43.09137586052395
 20
1.97038978014205
 10
-42.21766423155336
 20
2.576142826981815
 10
-41.4429912740311
 20
3.225252141063557
 10
-40.77377617205627
 20
3.912338998182328
 10
-40.21556425272445
 20
4.631709980250982
 10
-39.77298103580074
 20
5.377404152755595
 10
-39.44969390520637
 20
6.143242458936179
 10
-39.24838171992056
 20
6.922878921396922
 10
-39.17071261611113
 20
7.709853226873598
 10
-39.169740902792
 20
7.80841646996371
  0
LWPOLYLINE
  5
C177
330
A
100
AcDbEntity
  8
0
  6
Continuous
 62
     7
370
    15
100
AcDbPolyline
 90
       21
 70
   128
 43
0.0
 10
-58.94271167580121
 20
10.97279410365494
 10
-59.17258635455349
 20
10.7901429548948
 10
-59.29343862506195
 20
10.57542365178376
 10
-59.29343862506195
 20
10.34965441574777
 10
-59.17258635455349
 20
10.13493511263673
 10
-58.94271167580121
 20
9.95228396387656
 10
-58.62631632399246
 20
9.81958013651326
 10
-58.2543712806183
 20
9.749813605771088
 10
-57.86328511801773
 20
9.749813605771088
 10
-57.49134007464357
 20
9.81958013651326
 10
-57.17494472283482
 20
9.952283963876589
 10
-56.94507004408257
 20
10.13493511263676
 10
-56.82421777357411
 20
10.34965441574777
 10
-56.82421777357411
 20
10.57542365178376
 10
-56.94507004408257
 20
10.7901429548948
 10
-57.17494472283485
 20
10.97279410365497
 10
-57.4913400746436
 20
11.10549793101824
 10
-57.86328511801776
 20
11.17526446176044
 10
-58.25437128061833
 20
11.17526446176041
 10
-58.62631632399246
 20
11.10549793101824
 10
-58.94271167580121
 20
10.97279410365494
  0
LWPOLYLINE
  5
C178
330
A
100
AcDbEntity
  8
0
  6
Continuous
 62
     7
370
    15
100
AcDbPolyline
 90
       21
 70
   128
 43
0.0
 10
-51.16453708274918
 20
15.46303871867983
 10
-51.39441176150143
 20
15.28038756991968
 10
-51.5152640320099
 20
15.06566826680865
 10
-51.5152640320099
 20
14.83989903077265
 10
-51.39441176150143
 20
14.62517972766162
 10
-51.16453708274918
 20
14.44252857890144
 10
-50.84814173094043
 20
14.30982475153815
 10
-50.47619668756627
 20
14.24005822079599
 10
-50.0851105249657
 20
14.24005822079599
 10
-49.71316548159155
 20
14.30982475153815
 10
-49.39677012978279
 20
14.44252857890144
 10
-49.16689545103051
 20
14.62517972766162
 10
-49.04604318052208
 20
14.83989903077268
 10
-49.04604318052208
 20
15.06566826680865
 10
-49.16689545103054
 20
15.28038756991968
 10
-49.39677012978279
 20
15.46303871867983
 10
-49.71316548159157
 20
15.59574254604315
 10
-50.0851105249657
 20
15.66550907678531
 10
-50.4761966875663
 20
15.66550907678531
 10
-50.84814173094043
 20
15.59574254604315
 10
-51.16453708274918
 20
15.46303871867983
  0
ARC
  5
C179
330
A
100
AcDbEntity
  8
0
  6
Continuous
 62
     7
370
    15
100
AcDbCircle
 10
-52.11170867749041
 20
-11.63188839714478
 30
0.0
 40
1.948277642929135
100
AcDbArc
 50
293.2923936061691
 51
355.3874654362183
  0
LWPOLYLINE
  5
C17A
330
A
100
AcDbEntity
  8
0
  6
Continuous
 62
     7
370
    15
100
AcDbPolyline
 90
       15
 70
   128
 43
0.0
 10
-58.169740902792
 20
-11.78856301528854
 10
-58.16873384256203
 20
-11.84037589049236
 10
-58.08844249648493
 20
-12.25175423491294
 10
-57.88220085686817
 20
-12.6482452324198
 10
-57.55663769970511
 20
-13.01710533611918
 10
-57.12221689274133
 20
-13.34647907877908
 10
-56.59290107815525
 20
-13.62578011730076
 10
-55.98570290175016
 20
-13.84603148649651
 10
-55.32013821252002
 20
-14.00015412613694
 10
-54.61759880720518
 20
-14.08319440777149
 10
-53.90066488034381
 20
-14.09248334842261
 10
-53.19237927824037
 20
-14.02772239389486
 10
-52.51550688292588
 20
-13.89099301455223
 10
-51.89180293011816
 20
-13.68668980514807
 10
-51.34131377804582
 20
-13.42137923893394
  0
ARC
  5
C17B
330
A
100
AcDbEntity
  8
0
  6
Continuous
 62
     7
370
    15
100
AcDbCircle
 10
-54.16972151285449
 20
-9.741895950605318
 30
0.0
 40
4.605452252542205
100
AcDbArc
 50
242.5683783588379
 51
297.4262467101333
  0
LINE
  5
C17C
330
A
100
AcDbEntity
  8
0
  6
CENTER
 62
     1
100
AcDbLine
 10
0.0000000000001705
 20
41.3271499683782
 30
0.0
 11
0.0000000000001705
 21
78.16038779623294
 31
0.0
  0
LINE
  5
C186
330
A
100
AcDbEntity
  8
0
  6
CENTER
 62
     1
100
AcDbLine
 10
-21.07423663498264
 20
0.0
 30
0.0
 11
21.07423663498264
 21
0.0
 31
0.0
  0
LINE
  5
C187
330
A
100
AcDbEntity
  8
0
  6
CENTER
 62
     1
100
AcDbLine
 10
0.0
 20
-21.0742366349827
 30
0.0
 11
0.0
 21
21.0742366349827
 31
0.0
  0
ENDSEC
  0
SECTION
  2
OBJECTS
  0
DICTIONARY
  5
19
330
0
100
AcDbDictionary
281
     1
  3
ACAD_GROUP
350
1A
  3
ACAD_IMAGE_VARS
350
BFFD
  3
ACAD_LAYOUT
350
1E
  3
ACAD_MLINESTYLE
350
1B
  3
ACAD_PLOTSETTINGS
350
22
  3
ACAD_PLOTSTYLENAME
350
1F
  3
ACAD_SCALELIST
350
582C
  3
ACAD_WIPEOUT_VARS
350
23
  3
AcDbVariableDictionary
350
AB91
  3
APPDATA
350
BFFC
  3
ASE_INDEX_DICTIONARY
350
BB66
  3
DWGPROPS
350
C188
  0
DICTIONARY
  5
5858
330
14
100
AcDbDictionary
280
     1
281
     1
  3
ADSK_XREC_LAYER_RECONCILED
360
5859
  0
DICTIONARY
  5
5864
330
A
100
AcDbDictionary
280
     1
281
     1
  3
ACAD_SORTENTS
360
5865
  0
DICTIONARY
  5
1A
102
{ACAD_REACTORS
330
19
102
}
330
19
100
AcDbDictionary
281
     1
  0
RASTERVARIABLES
  5
BFFD
102
{ACAD_REACTORS
330
19
102
}
330
19
100
AcDbRasterVariables
 90
        0
 70
     1
 71
     1
 72
     0
  0
DICTIONARY
  5
1E
102
{ACAD_REACTORS
330
19
102
}
330
19
100
AcDbDictionary
281
     1
  3
Layout1
350
21
  3
Model
350
20
  0
DICTIONARY
  5
1B
102
{ACAD_REACTORS
330
19
102
}
330
19
100
AcDbDictionary
281
     1
  3
Standard
350
1C
  0
DICTIONARY
  5
22
102
{ACAD_REACTORS
330
19
102
}
330
19
100
AcDbDictionary
281
     1
  0
ACDBDICTIONARYWDFLT
  5
1F
102
{ACAD_REACTORS
330
19
102
}
330
19
100
AcDbDictionary
281
     1
  3
Normal
350
1D
100
AcDbDictionaryWithDefault
340
1D
  0
DICTIONARY
  5
582C
102
{ACAD_REACTORS
330
19
102
}
330
19
100
AcDbDictionary
281
     1
  3
A0
350
582D
  3
A1
350
582E
  3
A2
350
582F
  3
A3
350
5830
  3
A4
350
5831
  3
A5
350
5832
  3
A6
350
5833
  3
A7
350
5834
  3
A8
350
5835
  3
A9
350
5836
  3
B0
350
5837
  3
B1
350
5838
  3
B2
350
5839
  3
B3
350
583A
  3
B4
350
583B
  3
B5
350
583C
  3
B6
350
583D
  3
B7
350
583E
  3
B8
350
583F
  3
B9
350
5840
  3
C0
350
5841
  3
C1
350
5842
  3
C2
350
5843
  3
C3
350
5844
  3
C4
350
5845
  3
C5
350
5846
  3
C6
350
5847
  3
C7
350
5848
  3
C8
350
5849
  3
C9
350
584A
  3
D0
350
584B
  3
D1
350
584C
  3
D2
350
584D
  0
WIPEOUTVARIABLES
  5
23
330
19
100
AcDbWipeoutVariables
 70
     1
  0
DICTIONARY
  5
AB91
102
{ACAD_REACTORS
330
19
102
}
330
19
100
AcDbDictionary
281
     1
  3
CANNOSCALE
350
C189
  3
DIMASSOC
350
B616
  3
INDEXCTL
350
B615
  3
SORTENTS
350
B614
  0
DICTIONARY
  5
BFFC
102
{ACAD_REACTORS
330
19
102
}
330
19
100
AcDbDictionary
281
     1
  0
DICTIONARY
  5
BB66
102
{ACAD_REACTORS
330
19
102
}
330
19
100
AcDbDictionary
281
     1
  3
ASEBlockHierarchyIndexRecord
350
BB67
1001
DCO15
1040
1685073386.331
  0
XRECORD
  5
C188
102
{ACAD_REACTORS
330
19
102
}
330
19
100
AcDbXrecord
280
     1
  1
DWGPROPS COOKIE
  2

  3

  4

  6

  7

  8
renzo.ceresoli
  9

300
=
301
=
302
=
303
=
304
=
305
=
306
=
307
=
308
=
309
=
 40
0.0
 41
2455301.719027778
 42
2456051.330087847
  1

 90
        0
  0
XRECORD
  5
5859
102
{ACAD_REACTORS
330
5858
102
}
330
5858
100
AcDbXrecord
280
     1
290
     1
  0
SORTENTSTABLE
  5
5865
102
{ACAD_REACTORS
330
5864
102
}
330
5864
100
AcDbSortentsTable
330
A
331
0
  5
BAEE
331
ABEF
  5
ABEF
  0
LAYOUT
  5
21
102
{ACAD_REACTORS
330
1E
102
}
330
1E
100
AcDbPlotSettings
  1

  2

  4

  6

 40
0.0
 41
0.0
 42
0.0
 43
0.0
 44
0.0
 45
0.0
 46
0.0
 47
0.0
 48
0.0
 49
0.0
140
0.0
141
0.0
142
1.0
143
1.0
 70
     0
 72
     0
 73
     0
 74
     0
  7

 75
     0
147
1.0
148
0.0
149
0.0
100
AcDbLayout
  1
Layout1
 70
     0
 71
     1
 10
0.0
 20
0.0
 11
12.0
 21
9.0
 12
0.0
 22
0.0
 32
0.0
 14
1.000000000000000E+20
 24
1.000000000000000E+20
 34
1.000000000000000E+20
 15
-1.000000000000000E+20
 25
-1.000000000000000E+20
 35
-1.000000000000000E+20
146
0.0
 13
0.0
 23
0.0
 33
0.0
 16
1.0
 26
0.0
 36
0.0
 17
0.0
 27
1.0
 37
0.0
 76
     0
330
B
  0
LAYOUT
  5
20
102
{ACAD_REACTORS
330
1E
102
}
330
1E
100
AcDbPlotSettings
  1

  2

  4

  6

 40
0.0
 41
0.0
 42
0.0
 43
0.0
 44
0.0
 45
0.0
 46
0.0
 47
0.0
 48
0.0
 49
0.0
140
0.0
141
0.0
142
1.0
143
1.0
 70
  1024
 72
     0
 73
     0
 74
     0
  7

 75
     0
147
1.0
148
0.0
149
0.0
100
AcDbLayout
  1
Model
 70
     0
 71
     0
 10
0.0
 20
0.0
 11
0.0
 21
0.0
 12
0.0
 22
0.0
 32
0.0
 14
0.0
 24
0.0
 34
0.0
 15
0.0
 25
0.0
 35
0.0
146
0.0
 13
0.0
 23
0.0
 33
0.0
 16
0.0
 26
0.0
 36
0.0
 17
0.0
 27
0.0
 37
0.0
 76
     0
330
A
331
15
  0
MLINESTYLE
  5
1C
102
{ACAD_REACTORS
330
1B
102
}
330
1B
100
AcDbMlineStyle
  2
STANDARD
 70
     0
  3

 62
     0
 51
90.0
 52
90.0
 71
     2
 49
0.5
 62
   256
  6
BYLAYER
 49
-0.5
 62
   256
  6
BYLAYER
  0
ACDBPLACEHOLDER
  5
1D
102
{ACAD_REACTORS
330
1F
102
}
330
1F
  0
SCALE
  5
582D
102
{ACAD_REACTORS
330
582C
102
}
330
582C
100
AcDbScale
 70
     0
300
1:1
140
1.0
141
1.0
290
     1
  0
SCALE
  5
582E
102
{ACAD_REACTORS
330
582C
102
}
330
582C
100
AcDbScale
 70
     0
300
1:2
140
1.0
141
2.0
290
     0
  0
SCALE
  5
582F
102
{ACAD_REACTORS
330
582C
102
}
330
582C
100
AcDbScale
 70
     0
300
1:4
140
1.0
141
4.0
290
     0
  0
SCALE
  5
5830
102
{ACAD_REACTORS
330
582C
102
}
330
582C
100
AcDbScale
 70
     0
300
1:5
140
1.0
141
5.0
290
     0
  0
SCALE
  5
5831
102
{ACAD_REACTORS
330
582C
102
}
330
582C
100
AcDbScale
 70
     0
300
1:8
140
1.0
141
8.0
290
     0
  0
SCALE
  5
5832
102
{ACAD_REACTORS
330
582C
102
}
330
582C
100
AcDbScale
 70
     0
300
1:10
140
1.0
141
10.0
290
     0
  0
SCALE
  5
5833
102
{ACAD_REACTORS
330
582C
102
}
330
582C
100
AcDbScale
 70
     0
300
1:16
140
1.0
141
16.0
290
     0
  0
SCALE
  5
5834
102
{ACAD_REACTORS
330
582C
102
}
330
582C
100
AcDbScale
 70
     0
300
1:20
140
1.0
141
20.0
290
     0
  0
SCALE
  5
5835
102
{ACAD_REACTORS
330
582C
102
}
330
582C
100
AcDbScale
 70
     0
300
1:30
140
1.0
141
30.0
290
     0
  0
SCALE
  5
5836
102
{ACAD_REACTORS
330
582C
102
}
330
582C
100
AcDbScale
 70
     0
300
1:40
140
1.0
141
40.0
290
     0
  0
SCALE
  5
5837
102
{ACAD_REACTORS
330
582C
102
}
330
582C
100
AcDbScale
 70
     0
300
1:50
140
1.0
141
50.0
290
     0
  0
SCALE
  5
5838
102
{ACAD_REACTORS
330
582C
102
}
330
582C
100
AcDbScale
 70
     0
300
1:100
140
1.0
141
100.0
290
     0
  0
SCALE
  5
5839
102
{ACAD_REACTORS
330
582C
102
}
330
582C
100
AcDbScale
 70
     0
300
2:1
140
2.0
141
1.0
290
     0
  0
SCALE
  5
583A
102
{ACAD_REACTORS
330
582C
102
}
330
582C
100
AcDbScale
 70
     0
300
4:1
140
4.0
141
1.0
290
     0
  0
SCALE
  5
583B
102
{ACAD_REACTORS
330
582C
102
}
330
582C
100
AcDbScale
 70
     0
300
8:1
140
8.0
141
1.0
290
     0
  0
SCALE
  5
583C
102
{ACAD_REACTORS
330
582C
102
}
330
582C
100
AcDbScale
 70
     0
300
10:1
140
10.0
141
1.0
290
     0
  0
SCALE
  5
583D
102
{ACAD_REACTORS
330
582C
102
}
330
582C
100
AcDbScale
 70
     0
300
100:1
140
100.0
141
1.0
290
     0
  0
SCALE
  5
583E
102
{ACAD_REACTORS
330
582C
102
}
330
582C
100
AcDbScale
 70
     0
300
1/128" = 1'-0"
140
0.0078125
141
12.0
290
     0
  0
SCALE
  5
583F
102
{ACAD_REACTORS
330
582C
102
}
330
582C
100
AcDbScale
 70
     0
300
1/64" = 1'-0"
140
0.015625
141
12.0
290
     0
  0
SCALE
  5
5840
102
{ACAD_REACTORS
330
582C
102
}
330
582C
100
AcDbScale
 70
     0
300
1/32" = 1'-0"
140
0.03125
141
12.0
290
     0
  0
SCALE
  5
5841
102
{ACAD_REACTORS
330
582C
102
}
330
582C
100
AcDbScale
 70
     0
300
1/16" = 1'-0"
140
0.0625
141
12.0
290
     0
  0
SCALE
  5
5842
102
{ACAD_REACTORS
330
582C
102
}
330
582C
100
AcDbScale
 70
     0
300
3/32" = 1'-0"
140
0.09375
141
12.0
290
     0
  0
SCALE
  5
5843
102
{ACAD_REACTORS
330
582C
102
}
330
582C
100
AcDbScale
 70
     0
300
1/8" = 1'-0"
140
0.125
141
12.0
290
     0
  0
SCALE
  5
5844
102
{ACAD_REACTORS
330
582C
102
}
330
582C
100
AcDbScale
 70
     0
300
3/16" = 1'-0"
140
0.1875
141
12.0
290
     0
  0
SCALE
  5
5845
102
{ACAD_REACTORS
330
582C
102
}
330
582C
100
AcDbScale
 70
     0
300
1/4" = 1'-0"
140
0.25
141
12.0
290
     0
  0
SCALE
  5
5846
102
{ACAD_REACTORS
330
582C
102
}
330
582C
100
AcDbScale
 70
     0
300
3/8" = 1'-0"
140
0.375
141
12.0
290
     0
  0
SCALE
  5
5847
102
{ACAD_REACTORS
330
582C
102
}
330
582C
100
AcDbScale
 70
     0
300
1/2" = 1'-0"
140
0.5
141
12.0
290
     0
  0
SCALE
  5
5848
102
{ACAD_REACTORS
330
582C
102
}
330
582C
100
AcDbScale
 70
     0
300
3/4" = 1'-0"
140
0.75
141
12.0
290
     0
  0
SCALE
  5
5849
102
{ACAD_REACTORS
330
582C
102
}
330
582C
100
AcDbScale
 70
     0
300
1" = 1'-0"
140
1.0
141
12.0
290
     0
  0
SCALE
  5
584A
102
{ACAD_REACTORS
330
582C
102
}
330
582C
100
AcDbScale
 70
     0
300
1-1/2" = 1'-0"
140
1.5
141
12.0
290
     0
  0
SCALE
  5
584B
102
{ACAD_REACTORS
330
582C
102
}
330
582C
100
AcDbScale
 70
     0
300
3" = 1'-0"
140
3.0
141
12.0
290
     0
  0
SCALE
  5
584C
102
{ACAD_REACTORS
330
582C
102
}
330
582C
100
AcDbScale
 70
     0
300
6" = 1'-0"
140
6.0
141
12.0
290
     0
  0
SCALE
  5
584D
102
{ACAD_REACTORS
330
582C
102
}
330
582C
100
AcDbScale
 70
     0
300
1'-0" = 1'-0"
140
12.0
141
12.0
290
     0
  0
DICTIONARYVAR
  5
C189
102
{ACAD_REACTORS
330
AB91
102
}
330
AB91
100
DictionaryVariables
280
     0
  1
1:1
  0
DICTIONARYVAR
  5
B616
102
{ACAD_REACTORS
330
AB91
102
}
330
AB91
100
DictionaryVariables
280
     0
  1
1
  0
DICTIONARYVAR
  5
B615
102
{ACAD_REACTORS
330
AB91
102
}
330
AB91
100
DictionaryVariables
280
     0
  1
0
  0
DICTIONARYVAR
  5
B614
102
{ACAD_REACTORS
330
AB91
102
}
330
AB91
100
DictionaryVariables
280
     0
  1
127
  0
XRECORD
  5
BB67
102
{ACAD_REACTORS
330
BB66
102
}
330
BB66
100
AcDbXrecord
280
     1
  0
ENDSEC
  0
EOF
