  0
SECTION
  2
HEADER
  9
$ACADVER
  1
AC1015
  9
$ACADMAINTVER
 70
    20
  9
$DWGCODEPAGE
  3
ANSI_1252
  9
$INSBASE
 10
0.0
 20
0.0
 30
0.0
  9
$EXTMIN
 10
-70.23559448784727
 20
-99.87606040810442
 30
-0.0000000000000005
  9
$EXTMAX
 10
101.7168472716212
 20
65.11208096246901
 30
0.0000000000000147
  9
$LIMMIN
 10
-66.34999999999982
 20
-2008.85
  9
$LIMMAX
 10
3734.350000000001
 20
346.85
  9
$ORTHOMODE
 70
     1
  9
$REGENMODE
 70
     1
  9
$FILLMODE
 70
     1
  9
$QTEXTMODE
 70
     0
  9
$MIRRTEXT
 70
     1
  9
$LTSCALE
 40
10.0
  9
$ATTMODE
 70
     1
  9
$TEXTSIZE
 40
0.0
  9
$TRACEWID
 40
0.05
  9
$TEXTSTYLE
  7
Standard
  9
$CLAYER
  8
0
  9
$CELTYPE
  6
Continuous
  9
$CECOLOR
 62
   256
  9
$CELTSCALE
 40
1.0
  9
$DISPSILH
 70
     0
  9
$DIMSCALE
 40
1.0
  9
$DIMASZ
 40
1.25
  9
$DIMEXO
 40
0.0
  9
$DIMDLI
 40
0.38
  9
$DIMRND
 40
0.0
  9
$DIMDLE
 40
0.0
  9
$DIMEXE
 40
0.75
  9
$DIMTP
 40
0.0
  9
$DIMTM
 40
0.0
  9
$DIMTXT
 40
2.5
  9
$DIMCEN
 40
0.09
  9
$DIMTSZ
 40
0.0
  9
$DIMTOL
 70
     0
  9
$DIMLIM
 70
     0
  9
$DIMTIH
 70
     0
  9
$DIMTOH
 70
     0
  9
$DIMSE1
 70
     0
  9
$DIMSE2
 70
     0
  9
$DIMTAD
 70
     1
  9
$DIMZIN
 70
     0
  9
$DIMBLK
  1

  9
$DIMASO
 70
     1
  9
$DIMSHO
 70
     1
  9
$DIMPOST
  1

  9
$DIMAPOST
  1

  9
$DIMALT
 70
     0
  9
$DIMALTD
 70
     2
  9
$DIMALTF
 40
25.4
  9
$DIMLFAC
 40
1.0
  9
$DIMTOFL
 70
     0
  9
$DIMTVP
 40
0.0
  9
$DIMTIX
 70
     0
  9
$DIMSOXD
 70
     0
  9
$DIMSAH
 70
     0
  9
$DIMBLK1
  1

  9
$DIMBLK2
  1

  9
$DIMSTYLE
  2
Standard
  9
$DIMCLRD
 70
     7
  9
$DIMCLRE
 70
     7
  9
$DIMCLRT
 70
     7
  9
$DIMTFAC
 40
0.8
  9
$DIMGAP
 40
1.25
  9
$DIMJUST
 70
     0
  9
$DIMSD1
 70
     0
  9
$DIMSD2
 70
     0
  9
$DIMTOLJ
 70
     1
  9
$DIMTZIN
 70
     0
  9
$DIMALTZ
 70
     0
  9
$DIMALTTZ
 70
     0
  9
$DIMUPT
 70
     0
  9
$DIMDEC
 70
     2
  9
$DIMTDEC
 70
     4
  9
$DIMALTU
 70
     2
  9
$DIMALTTD
 70
     2
  9
$DIMTXSTY
  7
Standard
  9
$DIMAUNIT
 70
     0
  9
$DIMADEC
 70
     0
  9
$DIMALTRND
 40
0.0
  9
$DIMAZIN
 70
     0
  9
$DIMDSEP
 70
     0
  9
$DIMATFIT
 70
     3
  9
$DIMFRAC
 70
     0
  9
$DIMLDRBLK
  1

  9
$DIMLUNIT
 70
     2
  9
$DIMLWD
 70
     0
  9
$DIMLWE
 70
     0
  9
$DIMTMOVE
 70
     0
  9
$LUNITS
 70
     2
  9
$LUPREC
 70
     4
  9
$SKETCHINC
 40
0.1
  9
$FILLETRAD
 40
0.0
  9
$AUNITS
 70
     0
  9
$AUPREC
 70
     0
  9
$MENU
  1
acad
  9
$ELEVATION
 40
0.0
  9
$PELEVATION
 40
0.0
  9
$THICKNESS
 40
0.0
  9
$LIMCHECK
 70
     0
  9
$CHAMFERA
 40
0.0
  9
$CHAMFERB
 40
0.0
  9
$CHAMFERC
 40
0.0
  9
$CHAMFERD
 40
0.0
  9
$SKPOLY
 70
     0
  9
$TDCREATE
 40
2455303.727916667
  9
$TDUCREATE
 40
2455303.644583334
  9
$TDUPDATE
 40
2455306.436865428
  9
$TDUUPDATE
 40
2455306.353532095
  9
$TDINDWG
 40
0.0028047801
  9
$TDUSRTIMER
 40
0.0028045949
  9
$USRTIMER
 70
     1
  9
$ANGBASE
 50
0.0
  9
$ANGDIR
 70
     0
  9
$PDMODE
 70
     0
  9
$PDSIZE
 40
0.0
  9
$PLINEWID
 40
0.0
  9
$SPLFRAME
 70
     0
  9
$SPLINETYPE
 70
     6
  9
$SPLINESEGS
 70
     8
  9
$HANDSEED
  5
63B4
  9
$SURFTAB1
 70
     6
  9
$SURFTAB2
 70
     6
  9
$SURFTYPE
 70
     6
  9
$SURFU
 70
     6
  9
$SURFV
 70
     6
  9
$UCSBASE
  2

  9
$UCSNAME
  2

  9
$UCSORG
 10
0.0
 20
0.0
 30
0.0
  9
$UCSXDIR
 10
1.0
 20
0.0
 30
0.0
  9
$UCSYDIR
 10
0.0
 20
1.0
 30
0.0
  9
$UCSORTHOREF
  2

  9
$UCSORTHOVIEW
 70
     0
  9
$UCSORGTOP
 10
0.0
 20
0.0
 30
0.0
  9
$UCSORGBOTTOM
 10
0.0
 20
0.0
 30
0.0
  9
$UCSORGLEFT
 10
0.0
 20
0.0
 30
0.0
  9
$UCSORGRIGHT
 10
0.0
 20
0.0
 30
0.0
  9
$UCSORGFRONT
 10
0.0
 20
0.0
 30
0.0
  9
$UCSORGBACK
 10
0.0
 20
0.0
 30
0.0
  9
$PUCSBASE
  2

  9
$PUCSNAME
  2

  9
$PUCSORG
 10
0.0
 20
0.0
 30
0.0
  9
$PUCSXDIR
 10
1.0
 20
0.0
 30
0.0
  9
$PUCSYDIR
 10
0.0
 20
1.0
 30
0.0
  9
$PUCSORTHOREF
  2

  9
$PUCSORTHOVIEW
 70
     0
  9
$PUCSORGTOP
 10
0.0
 20
0.0
 30
0.0
  9
$PUCSORGBOTTOM
 10
0.0
 20
0.0
 30
0.0
  9
$PUCSORGLEFT
 10
0.0
 20
0.0
 30
0.0
  9
$PUCSORGRIGHT
 10
0.0
 20
0.0
 30
0.0
  9
$PUCSORGFRONT
 10
0.0
 20
0.0
 30
0.0
  9
$PUCSORGBACK
 10
0.0
 20
0.0
 30
0.0
  9
$USERI1
 70
     0
  9
$USERI2
 70
     0
  9
$USERI3
 70
     0
  9
$USERI4
 70
     0
  9
$USERI5
 70
     0
  9
$USERR1
 40
0.0
  9
$USERR2
 40
0.0
  9
$USERR3
 40
0.0
  9
$USERR4
 40
0.0
  9
$USERR5
 40
0.0
  9
$WORLDVIEW
 70
     1
  9
$SHADEDGE
 70
     3
  9
$SHADEDIF
 70
    70
  9
$TILEMODE
 70
     1
  9
$MAXACTVP
 70
    16
  9
$PINSBASE
 10
0.0
 20
0.0
 30
0.0
  9
$PLIMCHECK
 70
     0
  9
$PEXTMIN
 10
1.000000000000000E+20
 20
1.000000000000000E+20
 30
1.000000000000000E+20
  9
$PEXTMAX
 10
-1.000000000000000E+20
 20
-1.000000000000000E+20
 30
-1.000000000000000E+20
  9
$PLIMMIN
 10
0.0
 20
0.0
  9
$PLIMMAX
 10
12.0
 20
9.0
  9
$UNITMODE
 70
     0
  9
$VISRETAIN
 70
     0
  9
$PLINEGEN
 70
     1
  9
$PSLTSCALE
 70
     0
  9
$TREEDEPTH
 70
  3020
  9
$CMLSTYLE
  2
Standard
  9
$CMLJUST
 70
     0
  9
$CMLSCALE
 40
1.0
  9
$PROXYGRAPHICS
 70
     0
  9
$MEASUREMENT
 70
     1
  9
$CELWEIGHT
370
     0
  9
$ENDCAPS
280
     0
  9
$JOINSTYLE
280
     0
  9
$LWDISPLAY
290
     0
  9
$INSUNITS
 70
     0
  9
$HYPERLINKBASE
  1

  9
$STYLESHEET
  1

  9
$XEDIT
290
     1
  9
$CEPSNTYPE
380
     0
  9
$PSTYLEMODE
290
     1
  9
$FINGERPRINTGUID
  2

  9
$VERSIONGUID
  2
{76A1BE23-D660-4978-ADB3-42F1FE971620}
  9
$EXTNAMES
290
     1
  9
$PSVPSCALE
 40
0.0
  9
$OLESTARTUP
290
     0
  0
ENDSEC
  0
SECTION
  2
CLASSES
  0
CLASS
  1
IMAGE
  2
AcDbRasterImage
  3
ISM
 90
    34943
280
     0
281
     1
  0
CLASS
  1
DICTIONARYVAR
  2
AcDbDictionaryVar
  3
ObjectDBX Classes
 90
        0
280
     0
281
     0
  0
CLASS
  1
RASTERVARIABLES
  2
AcDbRasterVariables
  3
ISM
 90
    32768
280
     0
281
     0
  0
CLASS
  1
IMAGEDEF
  2
AcDbRasterImageDef
  3
ISM
 90
    32768
280
     0
281
     0
  0
CLASS
  1
IMAGEDEF_REACTOR
  2
AcDbRasterImageDefReactor
  3
ISM
 90
    32769
280
     0
281
     0
  0
CLASS
  1
IDBUFFER
  2
AcDbIdBuffer
  3
ObjectDBX Classes
 90
    32768
280
     0
281
     0
  0
CLASS
  1
SPATIAL_FILTER
  2
AcDbSpatialFilter
  3
ObjectDBX Classes
 90
    32768
280
     0
281
     0
  0
CLASS
  1
SORTENTSTABLE
  2
AcDbSortentsTable
  3
ObjectDBX Classes
 90
        0
280
     0
281
     0
  0
CLASS
  1
LAYER_INDEX
  2
AcDbLayerIndex
  3
ObjectDBX Classes
 90
    32768
280
     0
281
     0
  0
CLASS
  1
SPATIAL_INDEX
  2
AcDbSpatialIndex
  3
ObjectDBX Classes
 90
    32768
280
     0
281
     0
  0
CLASS
  1
OBJECT_PTR
  2
CAseDLPNTableRecord
  3
ASE-LPNTableRecord
 90
    32769
280
     0
281
     0
  0
CLASS
  1
LAYOUT
  2
AcDbLayout
  3
ObjectDBX Classes
 90
        0
280
     0
281
     0
  0
CLASS
  1
PLOTSETTINGS
  2
AcDbPlotSettings
  3
ObjectDBX Classes
 90
    32768
280
     0
281
     0
  0
CLASS
  1
ACDBDICTIONARYWDFLT
  2
AcDbDictionaryWithDefault
  3
ObjectDBX Classes
 90
        0
280
     0
281
     0
  0
CLASS
  1
ACDBPLACEHOLDER
  2
AcDbPlaceHolder
  3
ObjectDBX Classes
 90
        0
280
     0
281
     0
  0
CLASS
  1
VBA_PROJECT
  2
AcDbVbaProject
  3
acad
 90
    32768
280
     0
281
     0
  0
CLASS
  1
WIPEOUT
  2
AcDbWipeout
  3
"WipeOut|Product Desc: Object Enabler for WipeOut entity                        |Company: Autodesk, Inc.                        |WEB Address: www.autodesk.com"
 90
    34943
280
     0
281
     1
  0
CLASS
  1
WIPEOUTVARIABLES
  2
AcDbWipeoutVariables
  3
"WipeOut|Product Desc:     WipeOut Dbx Application|Company:          Autodesk, Inc.|WEB Address:      www.autodesk.com"
 90
        0
280
     0
281
     0
  0
CLASS
  1
RTEXT
  2
RText
  3
RText|AutoCAD Express Tool|expresstools@autodesk.com
 90
    35839
280
     0
281
     1
  0
CLASS
  1
ARCALIGNEDTEXT
  2
AcDbArcAlignedText
  3
ATEXT|AutoCAD Express Tool|expresstools@autodesk.com
 90
    32768
280
     0
281
     1
  0
CLASS
  1
MATERIAL
  2
AcDbMaterial
  3
ObjectDBX Classes
 90
     1153
280
     0
281
     0
  0
CLASS
  1
VISUALSTYLE
  2
AcDbVisualStyle
  3
ObjectDBX Classes
 90
     4095
280
     0
281
     0
  0
CLASS
  1
TABLESTYLE
  2
AcDbTableStyle
  3
ObjectDBX Classes
 90
     4095
280
     0
281
     0
  0
CLASS
  1
SCALE
  2
AcDbScale
  3
ObjectDBX Classes
 90
     1153
280
     0
281
     0
  0
CLASS
  1
MLEADERSTYLE
  2
AcDbMLeaderStyle
  3
ACDB_MLEADERSTYLE_CLASS
 90
     4095
280
     0
281
     0
  0
CLASS
  1
CELLSTYLEMAP
  2
AcDbCellStyleMap
  3
ObjectDBX Classes
 90
     1152
280
     0
281
     0
  0
ENDSEC
  0
SECTION
  2
TABLES
  0
TABLE
  2
VPORT
  5
7
330
0
100
AcDbSymbolTable
 70
     1
  0
VPORT
  5
15
330
7
100
AcDbSymbolTableRecord
100
AcDbViewportTableRecord
  2
*ACTIVE
 70
     0
 10
0.0
 20
0.0
 11
1.0
 21
1.0
 12
13.16004989658631
 22
-16.46379012507155
 13
0.0
 23
0.0
 14
1.0
 24
1.0
 15
0.0
 25
0.0
 16
0.0
 26
0.0
 36
1.0
 17
0.0
 27
0.0
 37
0.0
 40
186.6696221172954
 41
1.611330698287219
 42
50.0
 43
0.0
 44
0.0
 50
0.0
 51
0.0
 71
     0
 72
   100
 73
     1
 74
     1
 75
     0
 76
     0
 77
     0
 78
     0
281
     0
 65
     0
110
0.0
120
0.0
130
0.0
111
1.0
121
0.0
131
0.0
112
0.0
122
1.0
132
0.0
 79
     0
146
0.0
  0
ENDTAB
  0
TABLE
  2
LTYPE
  5
4
330
0
100
AcDbSymbolTable
 70
     4
  0
LTYPE
  5
11
330
4
100
AcDbSymbolTableRecord
100
AcDbLinetypeTableRecord
  2
ByBlock
 70
     0
  3

 72
    65
 73
     0
 40
0.0
  0
LTYPE
  5
12
330
4
100
AcDbSymbolTableRecord
100
AcDbLinetypeTableRecord
  2
ByLayer
 70
     0
  3

 72
    65
 73
     0
 40
0.0
  0
LTYPE
  5
13
330
4
100
AcDbSymbolTableRecord
100
AcDbLinetypeTableRecord
  2
Continuous
 70
     0
  3
Solid line
 72
    65
 73
     0
 40
0.0
  0
LTYPE
  5
1E4
330
4
100
AcDbSymbolTableRecord
100
AcDbLinetypeTableRecord
  2
CENTER
 70
     0
  3
____ _ ____ _ ____ _ ____ _ ____ _ ____ _ ____
 72
    65
 73
     4
 40
2.0
 49
1.25
 74
     0
 49
-0.25
 74
     0
 49
0.25
 74
     0
 49
-0.25
 74
     0
  0
ENDTAB
  0
TABLE
  2
LAYER
  5
2
330
0
100
AcDbSymbolTable
 70
     1
  0
LAYER
  5
14
102
{ACAD_XDICTIONARY
360
5E41
102
}
330
2
100
AcDbSymbolTableRecord
100
AcDbLayerTableRecord
  2
0
 70
     0
 62
     7
  6
Continuous
370
    -3
390
1D
  0
ENDTAB
  0
TABLE
  2
STYLE
  5
3
330
0
100
AcDbSymbolTable
 70
     1
  0
STYLE
  5
17
330
3
100
AcDbSymbolTableRecord
100
AcDbTextStyleTableRecord
  2
Standard
 70
     0
 40
0.0
 41
1.0
 50
0.0
 71
     0
 42
0.0
  3
I011000D.TTF
  4

1001
ACAD
1000
IsonormD
1071
        0
  0
ENDTAB
  0
TABLE
  2
VIEW
  5
5
330
0
100
AcDbSymbolTable
 70
     0
  0
ENDTAB
  0
TABLE
  2
UCS
  5
6
330
0
100
AcDbSymbolTable
 70
     0
  0
ENDTAB
  0
TABLE
  2
APPID
  5
8
330
0
100
AcDbSymbolTable
 70
     5
  0
APPID
  5
16
330
8
100
AcDbSymbolTableRecord
100
AcDbRegAppTableRecord
  2
ACAD
 70
     0
  0
APPID
  5
26
330
8
100
AcDbSymbolTableRecord
100
AcDbRegAppTableRecord
  2
TopSolid'Draft
 70
     0
  0
APPID
  5
319D
330
8
100
AcDbSymbolTableRecord
100
AcDbRegAppTableRecord
  2
ACAD_MLEADERVER
 70
     0
  0
APPID
  5
5E45
330
8
100
AcDbSymbolTableRecord
100
AcDbRegAppTableRecord
  2
DCO15
 70
     0
  0
APPID
  5
6333
330
8
100
AcDbSymbolTableRecord
100
AcDbRegAppTableRecord
  2
ACAD_EXEMPT_FROM_CAD_STANDARDS
 70
     0
  0
ENDTAB
  0
TABLE
  2
DIMSTYLE
  5
9
330
0
100
AcDbSymbolTable
 70
     2
100
AcDbDimStyleTable
 71
     1
340
18
  0
DIMSTYLE
105
18
330
9
100
AcDbSymbolTableRecord
100
AcDbDimStyleTableRecord
  2
Standard
 70
     0
 41
1.25
 42
0.0
 44
0.75
 73
     0
 74
     0
 77
     1
140
2.5
146
0.8
147
1.25
176
     7
177
     7
178
     7
271
     2
340
17
  0
ENDTAB
  0
TABLE
  2
BLOCK_RECORD
  5
1
330
0
100
AcDbSymbolTable
 70
     2
  0
BLOCK_RECORD
  5
A
102
{ACAD_XDICTIONARY
360
31A7
102
}
330
1
100
AcDbSymbolTableRecord
100
AcDbBlockTableRecord
  2
*MODEL_SPACE
340
20
  0
BLOCK_RECORD
  5
B
330
1
100
AcDbSymbolTableRecord
100
AcDbBlockTableRecord
  2
*PAPER_SPACE
340
21
  0
ENDTAB
  0
ENDSEC
  0
SECTION
  2
BLOCKS
  0
BLOCK
  5
D
330
A
100
AcDbEntity
  8
0
100
AcDbBlockBegin
  2
*MODEL_SPACE
 70
     0
 10
0.0
 20
0.0
 30
0.0
  3
*MODEL_SPACE
  1

  0
ENDBLK
  5
E
330
A
100
AcDbEntity
  8
0
100
AcDbBlockEnd
  0
BLOCK
  5
F
330
B
100
AcDbEntity
 67
     1
  8
0
100
AcDbBlockBegin
  2
*PAPER_SPACE
 70
     0
 10
0.0
 20
0.0
 30
0.0
  3
*PAPER_SPACE
  1

  0
ENDBLK
  5
10
330
B
100
AcDbEntity
 67
     1
  8
0
100
AcDbBlockEnd
  0
ENDSEC
  0
SECTION
  2
ENTITIES
  0
LINE
  5
1904
330
A
100
AcDbEntity
  8
0
  6
CENTER
 62
     1
100
AcDbLine
 10
-9.504000000000132
 20
-0.0000000000000142
 30
0.0
 11
9.504000000000132
 21
-0.0000000000000142
 31
0.0
  0
LINE
  5
1905
330
A
100
AcDbEntity
  8
0
  6
CENTER
 62
     1
100
AcDbLine
 10
0.0
 20
-32.79738370557334
 30
0.0
 11
0.0
 21
9.503999999999525
 31
0.0
  0
LINE
  5
1906
330
A
100
AcDbEntity
  8
0
  6
CENTER
 62
     1
100
AcDbLine
 10
-4.65000000000009
 20
56.00000000000662
 30
0.0
 11
4.65000000000009
 21
56.00000000000662
 31
0.0
  0
LINE
  5
1907
330
A
100
AcDbEntity
  8
0
  6
CENTER
 62
     1
100
AcDbLine
 10
0.0
 20
51.3500000000068
 30
0.0
 11
0.0
 21
60.65000000000643
 31
0.0
  0
LINE
  5
1908
330
A
100
AcDbEntity
  8
0
  6
CENTER
 62
     1
100
AcDbLine
 10
74.50000000000091
 20
0.0000000000004405
 30
0.0
 11
61.00000000000091
 21
0.0000000000004405
 31
0.0
  0
LINE
  5
1909
330
A
100
AcDbEntity
  8
0
  6
CENTER
 62
     1
100
AcDbLine
 10
-67.00000000000113
 20
0.0000000000004405
 30
0.0
 11
-53.50000000000204
 21
0.0000000000004405
 31
0.0
  0
LINE
  5
190A
330
A
100
AcDbEntity
  8
0
  6
CENTER
 62
     1
100
AcDbLine
 10
0.0
 20
-74.49999999999625
 30
0.0
 11
0.0
 21
-60.99999999999624
 31
0.0
  0
LINE
  5
47B0
330
A
100
AcDbEntity
  8
0
  6
Continuous
 62
     9
370
     0
100
AcDbLine
 10
98.60408557279697
 20
-63.09616308354165
 30
0.0
 11
98.96185644919706
 21
-62.80404438620554
 31
0.0
  0
ELLIPSE
  5
47B1
330
A
100
AcDbEntity
  8
0
  6
Continuous
 62
     7
370
     0
100
AcDbEllipse
 10
95.38414768519805
 20
-62.43889601453545
 30
0.0
 11
2.276839915321238
 21
-2.788548009269336
 31
-0.0000000000000001
210
0.0000000000000001
220
0.0
230
1.0
 40
0.8164965809277259
 41
0.7853981633974501
 42
2.356194490192315
  0
LINE
  5
47B2
330
A
100
AcDbEntity
  8
0
  6
Continuous
 62
     9
370
     0
100
AcDbLine
 10
95.38414768519805
 20
-59.15256066950444
 30
0.0
 11
95.7419185615979
 21
-58.86044197216833
 31
0.0
  0
ELLIPSE
  5
47B3
330
A
100
AcDbEntity
  8
0
  6
Continuous
 62
     7
370
     0
100
AcDbEllipse
 10
95.7419185615979
 20
-62.14677731719934
 30
0.0
 11
2.276839915321238
 21
-2.788548009269336
 31
-0.0000000000000001
210
0.0000000000000001
220
0.0
230
1.0
 40
0.8164965809277259
 41
0.7853981633974501
 42
2.356194490192315
  0
ELLIPSE
  5
47B4
330
A
100
AcDbEntity
  8
0
  6
Continuous
 62
     7
370
     0
100
AcDbEllipse
 10
67.47801932600009
 20
-56.7425814164817
 30
0.0
 11
2.276839915321238
 21
-2.788548009269336
 31
-0.0000000000000001
210
0.0000000000000001
220
0.0
230
1.0
 40
0.8164965809277259
 41
2.356194490192315
 42
3.14159265358979
  0
LINE
  5
47B5
330
A
100
AcDbEntity
  8
0
  6
Continuous
 62
     7
370
     0
100
AcDbLine
 10
95.38414768519805
 20
-59.15256066950444
 30
0.0
 11
67.47801932600009
 21
-53.45624607145069
 31
0.0
  0
LINE
  5
47B6
330
A
100
AcDbEntity
  8
0
  6
Continuous
 62
     7
370
     0
100
AcDbLine
 10
98.60408557279697
 20
-94.13377467550105
 30
0.0
 11
98.60408557279697
 21
-63.09616308354165
 31
0.0
  0
LINE
  5
47B7
330
A
100
AcDbEntity
  8
0
  6
Continuous
 62
     9
370
     0
100
AcDbLine
 10
98.60408557279697
 20
-94.13377467550105
 30
0.0
 11
98.96185644919706
 21
-93.84165597816494
 31
0.0
  0
LINE
  5
47B8
330
A
100
AcDbEntity
  8
0
  6
Continuous
 62
     7
370
     0
100
AcDbLine
 10
98.96185644919706
 20
-93.84165597816494
 30
0.0
 11
98.96185644919706
 21
-62.80404438620554
 31
0.0
  0
LINE
  5
47B9
330
A
100
AcDbEntity
  8
0
  6
Continuous
 62
     9
370
     0
100
AcDbLine
 10
67.47801932600009
 20
-53.45624607145069
 30
0.0
 11
67.83579020239995
 21
-53.16412737411461
 31
0.0
  0
LINE
  5
47BA
330
A
100
AcDbEntity
  8
0
  6
Continuous
 62
     7
370
     0
100
AcDbLine
 10
95.7419185615979
 20
-58.86044197216833
 30
0.0
 11
67.83579020239995
 21
-53.16412737411461
 31
0.0
  0
ELLIPSE
  5
47BB
330
A
100
AcDbEntity
  8
0
  6
Continuous
 62
     7
370
     0
100
AcDbEllipse
 10
67.83579020239995
 20
-56.45046271914559
 30
0.0
 11
2.276839915321238
 21
-2.788548009269336
 31
-0.0000000000000001
210
0.0000000000000001
220
0.0
230
1.0
 40
0.8164965809277259
 41
2.356194490192315
 42
3.141592653589792
  0
ELLIPSE
  5
47BC
330
A
100
AcDbEntity
  8
0
  6
Continuous
 62
     7
370
     0
100
AcDbEllipse
 10
97.88854381999795
 20
-93.98771532683296
 30
0.0
 11
0.5059644256268925
 21
-0.6196773353931706
 31
0.0
210
0.0000000000000001
220
0.0
230
1.0
 40
0.8164965809277259
 41
0.0
 42
0.785398163397466
  0
ELLIPSE
  5
47BD
330
A
100
AcDbEntity
  8
0
  6
Continuous
 62
     7
370
     0
100
AcDbEllipse
 10
98.24631469639804
 20
-93.69559662949683
 30
0.0
 11
0.5059644256268925
 21
-0.6196773353931706
 31
0.0
210
0.0000000000000001
220
0.0
230
1.0
 40
0.8164965809277259
 41
0.0
 42
0.785398163397466
  0
ELLIPSE
  5
47BE
330
A
100
AcDbEntity
  8
0
  6
Continuous
 62
     7
370
     0
100
AcDbEllipse
 10
67.47801932600009
 20
-56.01228467315362
 30
0.0
 11
2.529822128134683
 21
-3.098386676965922
 31
-0.0000000000000001
210
0.0
220
-0.0000000000000001
230
0.9999999999999998
 40
0.8164965809276999
 41
2.356194490192306
 42
3.141592653589797
  0
LINE
  5
47BF
330
A
100
AcDbEntity
  8
0
  6
Continuous
 62
     7
370
     0
100
AcDbLine
 10
67.47801932600009
 20
-52.36080095645265
 30
0.0
 11
96.09968943799799
 21
-58.20317490317442
 31
0.0
  0
ELLIPSE
  5
47C0
330
A
100
AcDbEntity
  8
0
  6
Continuous
 62
     7
370
     0
100
AcDbEllipse
 10
96.09968943799799
 20
-61.85465861987534
 30
0.0
 11
2.529822128134683
 21
-3.098386676965922
 31
-0.0000000000000001
210
0.0
220
-0.0000000000000001
230
0.9999999999999998
 40
0.8164965809276999
 41
0.7853981633974679
 42
2.356194490192303
  0
LINE
  5
47C1
330
A
100
AcDbEntity
  8
0
  6
Continuous
 62
     7
370
     0
100
AcDbLine
 10
99.677398201997
 20
-62.58495536321564
 30
0.0
 11
99.677398201997
 21
-95.44830881352444
 31
0.0
  0
LINE
  5
47C2
330
A
100
AcDbEntity
  8
0
  6
Continuous
 62
     7
370
     0
100
AcDbLine
 10
99.677398201997
 20
-95.44830881352444
 30
0.0
 11
97.53077294359105
 21
-95.01013076751902
 31
0.0
  0
LINE
  5
47C3
330
A
100
AcDbEntity
  8
0
  6
Continuous
 62
     9
370
     0
100
AcDbLine
 10
96.09968943799799
 20
-58.20317490317442
 30
0.0
 11
97.88854381999705
 21
-56.74258141649403
 31
0.0
  0
ELLIPSE
  5
47C4
330
A
100
AcDbEntity
  8
0
  6
Continuous
 62
     7
370
     0
100
AcDbEllipse
 10
97.88854381999705
 20
-60.39406513319502
 30
0.0
 11
-2.529822128134683
 21
3.098386676965922
 31
0.0000000000000001
210
0.0
220
-0.0000000000000001
230
0.9999999999999998
 40
0.8164965809276999
 41
3.926990816987265
 42
5.497787143782155
  0
LINE
  5
47C5
330
A
100
AcDbEntity
  8
0
  6
Continuous
 62
     9
370
     0
100
AcDbLine
 10
101.4662525839969
 20
-61.12436187653525
 30
0.0
 11
99.677398201997
 21
-62.58495536321564
 31
0.0
  0
LINE
  5
47C6
330
A
100
AcDbEntity
  8
0
  6
Continuous
 62
     7
370
     0
100
AcDbLine
 10
99.677398201997
 20
-95.44830881352444
 30
0.0
 11
101.4662525839969
 21
-93.98771532684405
 31
0.0
  0
LINE
  5
47C7
330
A
100
AcDbEntity
  8
0
  6
Continuous
 62
     7
370
     0
100
AcDbLine
 10
101.4662525839969
 20
-61.12436187653525
 30
0.0
 11
101.4662525839969
 21
-93.98771532684405
 31
0.0
  0
LINE
  5
47C8
330
A
100
AcDbEntity
  8
0
  6
Continuous
 62
     9
370
     0
100
AcDbLine
 10
69.26687370799982
 20
-50.90020746977225
 30
0.0
 11
67.47801932600009
 21
-52.36080095645265
 31
0.0
  0
LINE
  5
47C9
330
A
100
AcDbEntity
  8
0
  6
Continuous
 62
     7
370
     0
100
AcDbLine
 10
69.26687370799982
 20
-50.90020746977225
 30
0.0
 11
97.88854381999705
 21
-56.74258141649403
 31
0.0
  0
ELLIPSE
  5
47CA
330
A
100
AcDbEntity
  8
0
  6
Continuous
 62
     7
370
     0
100
AcDbEllipse
 10
69.26687370799982
 20
-54.55169118647326
 30
0.0
 11
-2.529822128134683
 21
3.098386676965922
 31
0.0000000000000001
210
0.0
220
0.0
230
0.9999999999999998
 40
0.8164965809276997
 41
5.497787143782097
 42
6.283185307179584
  0
ELLIPSE
  5
47CB
330
A
100
AcDbEntity
  8
0
  6
Continuous
 62
     7
370
     0
100
AcDbEllipse
 10
67.47801932600009
 20
-56.01228467315362
 30
0.0
 11
2.529822128134683
 21
-3.098386676965922
 31
-0.0000000000000001
210
0.0
220
0.0
230
0.9999999999999998
 40
0.8164965809276999
 41
3.141592653589792
 42
3.926990816987252
  0
LINE
  5
47CC
330
A
100
AcDbEntity
  8
0
  6
Continuous
 62
     9
370
     0
100
AcDbLine
 10
96.08335936462186
 20
-65.15432741398064
 30
0.0
 11
96.09968943799186
 21
-65.14099396490765
 31
0.0
  0
LINE
  5
47CD
330
A
100
AcDbEntity
  8
0
  6
Continuous
 62
     9
370
     0
100
AcDbLine
 10
92.86342147702203
 20
-61.21072499994605
 30
0.0
 11
92.87975155039317
 21
-61.19739155087204
 31
0.0
  0
ELLIPSE
  5
47CE
330
A
100
AcDbEntity
  8
0
  6
Continuous
 62
     7
370
     0
100
AcDbEllipse
 10
92.87975155039317
 20
-64.48372689590174
 30
0.0
 11
2.276839915321238
 21
-2.788548009269336
 31
-0.0000000000000001
210
0.0000000000000001
220
0.0
230
1.0
 40
0.8164965809277259
 41
0.7853981633974501
 42
2.356194490192315
  0
LINE
  5
47CF
330
A
100
AcDbEntity
  8
0
  6
Continuous
 62
     7
370
     0
100
AcDbLine
 10
96.09968943799186
 20
-65.50614233657583
 30
0.0
 11
96.09968943799186
 21
-65.14099396490765
 31
0.0
  0
LINE
  5
47D0
330
A
100
AcDbEntity
  8
0
  6
Continuous
 62
     7
370
     0
100
AcDbLine
 10
92.87975155039317
 20
-61.19739155087204
 30
0.0
 11
92.52198067399694
 21
-61.12436187653874
 31
0.0
  0
LINE
  5
47D1
330
A
100
AcDbEntity
  8
0
  6
Continuous
 62
     7
370
     0
100
AcDbLine
 10
97.53077294359105
 20
-95.01013076751915
 30
0.0
 11
96.09968943799799
 21
-94.71801207018433
 31
0.0
  0
ELLIPSE
  5
47D2
330
A
100
AcDbEntity
  8
0
  6
Continuous
 62
     7
370
     0
100
AcDbEllipse
 10
67.12024844960592
 20
-57.03470011383017
 30
0.0
 11
-2.276839915321238
 21
2.788548009269336
 31
0.0000000000000001
210
0.0000000000000001
220
0.0
230
1.0
 40
0.8164965809273631
 41
0.0000000000001548
 42
0.4455612539434335
  0
LINE
  5
47D3
330
A
100
AcDbEntity
  8
0
  6
Continuous
 62
     7
370
     0
100
AcDbLine
 10
67.12024844960592
 20
-53.74836476879917
 30
0.0
 11
95.02637680879207
 21
-59.44467936685059
 31
0.0
  0
ELLIPSE
  5
47D4
330
A
100
AcDbEntity
  8
0
  6
Continuous
 62
     7
370
     0
100
AcDbEllipse
 10
95.02637680879207
 20
-62.73101471188152
 30
0.0
 11
-2.276839915321238
 21
2.788548009269351
 31
0.0000000000000001
210
0.0000000000000001
220
0.0
230
1.0
 40
0.8164965809273635
 41
3.926990816987466
 42
5.497787143781887
  0
LINE
  5
47D5
330
A
100
AcDbEntity
  8
0
  6
Continuous
 62
     7
370
     0
100
AcDbLine
 10
98.24631469639099
 20
-63.38828178088753
 30
0.0
 11
98.24631469639099
 21
-94.42589337284696
 31
0.0
  0
ELLIPSE
  5
47D6
330
A
100
AcDbEntity
  8
0
  6
Continuous
 62
     7
370
     0
100
AcDbEllipse
 10
97.53077294359105
 20
-94.27983402417893
 30
0.0
 11
-0.5059644256268925
 21
0.6196773353931706
 31
0.0
210
0.0000000000000001
220
0.0
230
1.0
 40
0.8164965809273637
 41
3.14159265358999
 42
3.926990816987528
  0
LINE
  5
47D7
330
A
100
AcDbEntity
  8
0
  6
Continuous
 62
     9
370
     0
100
AcDbLine
 10
95.74191856159201
 20
-58.86044197217866
 30
0.0
 11
95.38414768520283
 21
-59.15256066950559
 31
0.0
  0
LINE
  5
47D8
330
A
100
AcDbEntity
  8
0
  6
Continuous
 62
     9
370
     0
100
AcDbLine
 10
95.38414768520283
 20
-59.15256066950559
 30
0.0
 11
95.02637680879207
 21
-59.44467936685059
 31
0.0
  0
ELLIPSE
  5
47D9
330
A
100
AcDbEntity
  8
0
  6
Continuous
 62
     7
370
     0
100
AcDbEllipse
 10
95.74191856159201
 20
-62.14677731720965
 30
0.0
 11
-2.276839915321238
 21
2.788548009269364
 31
0.0000000000000001
210
0.0000000000000001
220
0.0
230
1.0
 40
0.8164965809273637
 41
3.926990816987473
 42
5.497787143781891
  0
LINE
  5
47DA
330
A
100
AcDbEntity
  8
0
  6
Continuous
 62
     9
370
     0
100
AcDbLine
 10
98.96185644919093
 20
-62.80404438621554
 30
0.0
 11
98.60408557279107
 21
-63.09616308355145
 31
0.0
  0
LINE
  5
47DB
330
A
100
AcDbEntity
  8
0
  6
Continuous
 62
     9
370
     0
100
AcDbLine
 10
98.60408557279107
 20
-63.09616308355145
 30
0.0
 11
98.24631469639099
 21
-63.38828178088753
 31
0.0
  0
LINE
  5
47DC
330
A
100
AcDbEntity
  8
0
  6
Continuous
 62
     9
370
     0
100
AcDbLine
 10
67.83579020240608
 20
-53.16412737412726
 30
0.0
 11
67.47801932600578
 21
-53.45624607146305
 31
0.0
  0
LINE
  5
47DD
330
A
100
AcDbEntity
  8
0
  6
Continuous
 62
     9
370
     0
100
AcDbLine
 10
67.47801932600578
 20
-53.45624607146305
 30
0.0
 11
67.12024844960592
 21
-53.74836476879917
 31
0.0
  0
LINE
  5
47DE
330
A
100
AcDbEntity
  8
0
  6
Continuous
 62
     7
370
     0
100
AcDbLine
 10
67.83579020240608
 20
-53.16412737412726
 30
0.0
 11
95.74191856159201
 21
-58.86044197217866
 31
0.0
  0
LINE
  5
47DF
330
A
100
AcDbEntity
  8
0
  6
Continuous
 62
     9
370
     0
100
AcDbLine
 10
98.96185644919093
 20
-93.84165597817503
 30
0.0
 11
98.60408557279107
 21
-94.13377467551084
 31
0.0
  0
LINE
  5
47E0
330
A
100
AcDbEntity
  8
0
  6
Continuous
 62
     9
370
     0
100
AcDbLine
 10
98.60408557279107
 20
-94.13377467551084
 30
0.0
 11
98.24631469639099
 21
-94.42589337284696
 31
0.0
  0
LINE
  5
47E1
330
A
100
AcDbEntity
  8
0
  6
Continuous
 62
     7
370
     0
100
AcDbLine
 10
98.96185644919093
 20
-62.80404438621554
 30
0.0
 11
98.96185644919093
 21
-93.84165597817503
 31
0.0
  0
ELLIPSE
  5
47E2
330
A
100
AcDbEntity
  8
0
  6
Continuous
 62
     7
370
     0
100
AcDbEllipse
 10
67.83579020240608
 20
-56.45046271915823
 30
0.0
 11
-2.276839915321238
 21
2.788548009269336
 31
0.0
210
0.0000000000000001
220
0.0
230
1.0
 40
0.8164965809273635
 41
5.497787143782111
 42
6.283185307179584
  0
ELLIPSE
  5
47E3
330
A
100
AcDbEntity
  8
0
  6
Continuous
 62
     7
370
     0
100
AcDbEllipse
 10
67.12024844960592
 20
-57.03470011383017
 30
0.0
 11
-2.276839915321238
 21
2.788548009269336
 31
0.0
210
0.0000000000000001
220
0.0
230
1.0
 40
0.8164965809273635
 41
5.497787143782111
 42
6.283185307179584
  0
ELLIPSE
  5
47E4
330
A
100
AcDbEntity
  8
0
  6
Continuous
 62
     7
370
     0
100
AcDbEllipse
 10
97.53077294359105
 20
-94.27983402417893
 30
0.0
 11
-0.5059644256268925
 21
0.6196773353931706
 31
0.0
210
0.0000000000000001
220
0.0
230
1.0
 40
0.8164965809273635
 41
2.356194490192464
 42
3.141592653589813
  0
ELLIPSE
  5
47E5
330
A
100
AcDbEntity
  8
0
  6
Continuous
 62
     7
370
     0
100
AcDbEllipse
 10
98.24631469639099
 20
-93.69559662950704
 30
0.0
 11
-0.5059644256268925
 21
0.6196773353931706
 31
0.0
210
0.0000000000000001
220
0.0
230
1.0
 40
0.8164965809273637
 41
3.14159265358999
 42
3.926990816987528
  0
LINE
  5
47E6
330
A
100
AcDbEntity
  8
0
  6
Continuous
 62
     9
370
     0
100
AcDbLine
 10
94.31083505599781
 20
-66.96673582325626
 30
0.0
 11
96.09968943799799
 21
-65.50614233657583
 31
0.0
  0
ELLIPSE
  5
47E7
330
A
100
AcDbEntity
  8
0
  6
Continuous
 62
     7
370
     0
100
AcDbEllipse
 10
90.7331262919979
 20
-66.23643907991604
 30
0.0
 11
2.529822128134683
 21
-3.098386676965922
 31
-0.0000000000000001
210
0.0000000000000001
220
0.0
230
0.9999999999999998
 40
0.8164965809277259
 41
0.7853981633974542
 42
2.356194490192357
  0
LINE
  5
47E8
330
A
100
AcDbEntity
  8
0
  6
Continuous
 62
     9
370
     0
100
AcDbLine
 10
90.7331262919979
 20
-62.58495536321493
 30
0.0
 11
92.52198067399808
 21
-61.12436187653445
 31
0.0
  0
ELLIPSE
  5
47E9
330
A
100
AcDbEntity
  8
0
  6
Continuous
 62
     7
370
     0
100
AcDbEllipse
 10
92.52198067399808
 20
-64.77584559323553
 30
0.0
 11
2.529822128134683
 21
-3.098386676965922
 31
-0.0000000000000001
210
0.0000000000000001
220
0.0
230
0.9999999999999998
 40
0.8164965809277259
 41
0.7853981633974542
 42
2.356194490192357
  0
ELLIPSE
  5
47EA
330
A
100
AcDbEntity
  8
0
  6
Continuous
 62
     7
370
     0
100
AcDbEllipse
 10
62.11145618000092
 20
-60.39406513319427
 30
0.0
 11
2.529822128134683
 21
-3.098386676965922
 31
-0.0000000000000001
210
0.0000000000000001
220
0.0
230
0.9999999999999998
 40
0.8164965809277259
 41
2.356194490192358
 42
3.141592653589792
  0
LINE
  5
47EB
330
A
100
AcDbEntity
  8
0
  6
Continuous
 62
     7
370
     0
100
AcDbLine
 10
90.7331262919979
 20
-62.58495536321493
 30
0.0
 11
62.11145618000092
 21
-56.74258141649318
 31
0.0
  0
LINE
  5
47EC
330
A
100
AcDbEntity
  8
0
  6
Continuous
 62
     7
370
     0
100
AcDbLine
 10
94.31083505599781
 20
-99.83008927356625
 30
0.0
 11
94.31083505599781
 21
-66.96673582325626
 31
0.0
  0
LINE
  5
47ED
330
A
100
AcDbEntity
  8
0
  6
Continuous
 62
     7
370
     0
100
AcDbLine
 10
58.533747416001
 20
-92.52712184016402
 30
0.0
 11
94.31083505599781
 21
-99.83008927356625
 31
0.0
  0
LINE
  5
47EE
330
A
100
AcDbEntity
  8
0
  6
Continuous
 62
     7
370
     0
100
AcDbLine
 10
58.533747416001
 20
-59.66376838985405
 30
0.0
 11
58.533747416001
 21
-92.52712184016402
 31
0.0
  0
LINE
  5
47EF
330
A
100
AcDbEntity
  8
0
  6
Continuous
 62
     9
370
     0
100
AcDbLine
 10
62.11145618000092
 20
-56.74258141649318
 30
0.0
 11
63.90031056200109
 21
-55.28198792981273
 31
0.0
  0
LINE
  5
47F0
330
A
100
AcDbEntity
  8
0
  6
Continuous
 62
     7
370
     0
100
AcDbLine
 10
92.52198067399808
 20
-61.12436187653445
 30
0.0
 11
63.90031056200109
 21
-55.28198792981273
 31
0.0
  0
LINE
  5
47F1
330
A
100
AcDbEntity
  8
0
  6
Continuous
 62
     7
370
     0
100
AcDbLine
 10
94.31083505599781
 20
-99.83008927356625
 30
0.0
 11
96.09968943799799
 21
-98.36949578688575
 31
0.0
  0
LINE
  5
47F2
330
A
100
AcDbEntity
  8
0
  6
Continuous
 62
     7
370
     0
100
AcDbLine
 10
96.09968943799799
 20
-98.36949578688575
 30
0.0
 11
96.09968943799799
 21
-65.50614233657583
 31
0.0
  0
ELLIPSE
  5
47F3
330
A
100
AcDbEntity
  8
0
  6
Continuous
 62
     7
370
     0
100
AcDbEllipse
 10
62.11145618000092
 20
-60.39406513319427
 30
0.0
 11
2.529822128134683
 21
-3.098386676965922
 31
-0.0000000000000001
210
0.0000000000000001
220
0.0
230
0.9999999999999998
 40
0.8164965809277259
 41
3.141592653589792
 42
3.926990816987246
  0
ELLIPSE
  5
47F4
330
A
100
AcDbEntity
  8
0
  6
Continuous
 62
     7
370
     0
100
AcDbEllipse
 10
63.90031056200109
 20
-58.9334716465138
 30
0.0
 11
2.529822128134683
 21
-3.098386676965922
 31
-0.0000000000000001
210
0.0000000000000001
220
0.0
230
0.9999999999999998
 40
0.8164965809277259
 41
2.356194490192358
 42
3.14159265358979
  0
LINE
  5
47F5
330
A
100
AcDbEntity
  8
0
  6
Continuous
 62
     7
370
     0
100
AcDbLine
 10
65.55895028707891
 20
-53.66191470987626
 30
0.0
 11
65.20117941067906
 21
-53.95403340721234
 31
0.0
  0
LINE
  5
47F6
330
A
100
AcDbEntity
  8
0
  6
Continuous
 62
     7
370
     0
100
AcDbLine
 10
98.39450824562504
 20
-94.60739266222615
 30
0.0
 11
98.75227912202513
 21
-94.31527396489006
 31
0.0
  0
LINE
  5
47F7
330
A
100
AcDbEntity
  8
0
  6
Continuous
 62
     7
370
     0
100
AcDbLine
 10
66.73705157986592
 20
-51.45330450950737
 30
0.0
 11
64.94819719786597
 21
-52.91389799618778
 31
0.0
  0
LINE
  5
47F8
330
A
100
AcDbEntity
  8
0
  6
Continuous
 62
     7
370
     0
100
AcDbLine
 10
65.55895028708505
 20
-53.66191470988953
 30
0.0
 11
65.20117941068793
 21
-53.95403340722303
 31
0.0
  0
LINE
  5
47F9
330
A
100
AcDbEntity
  8
0
  6
Continuous
 62
     7
370
     0
100
AcDbLine
 10
65.20117941068793
 20
-53.95403340722303
 30
0.0
 11
64.8434085342858
 21
-54.24615210456143
 31
0.0
  0
LINE
  5
47FA
330
A
100
AcDbEntity
  8
0
  6
Continuous
 62
     7
370
     0
100
AcDbLine
 10
98.03673736921815
 20
-94.89951135957204
 30
0.0
 11
98.3945082456271
 21
-94.60739266222853
 31
0.0
  0
LINE
  5
47FB
330
A
100
AcDbEntity
  8
0
  6
Continuous
 62
     7
370
     0
100
AcDbLine
 10
98.3945082456271
 20
-94.60739266222853
 30
0.0
 11
98.75227912201808
 21
-94.31527396490002
 31
0.0
  0
LINE
  5
47FC
330
A
100
AcDbEntity
  8
0
  6
Continuous
 62
     7
370
     0
100
AcDbLine
 10
61.37048843386605
 20
-55.83508496954791
 30
0.0
 11
59.5816340518661
 21
-57.29567845622835
 31
0.0
  0
LINE
  5
47FD
330
A
100
AcDbEntity
  8
0
  6
Continuous
 62
     7
370
     0
100
AcDbLine
 10
-23.99999999999
 20
-71.49999999999625
 30
0.0
 11
-23.99999999999
 21
-72.49999999999625
 31
0.0
  0
LINE
  5
47FE
330
A
100
AcDbEntity
  8
0
  6
Continuous
 62
     7
370
     0
100
AcDbLine
 10
-23.99999999999204
 20
-71.49999999999625
 30
0.0
 11
-19.49999999999204
 21
-71.49999999999625
 31
0.0
  0
LINE
  5
47FF
330
A
100
AcDbEntity
  8
0
  6
Continuous
 62
     9
370
     0
100
AcDbLine
 10
-19.49999999999204
 20
-71.49999999999625
 30
0.0
 11
-19.49999999999204
 21
-72.49999999999625
 31
0.0
  0
LINE
  5
4800
330
A
100
AcDbEntity
  8
0
  6
Continuous
 62
     9
370
     0
100
AcDbLine
 10
19.49999999999204
 20
-71.49999999999625
 30
0.0
 11
19.49999999999204
 21
-72.49999999999625
 31
0.0
  0
LINE
  5
4801
330
A
100
AcDbEntity
  8
0
  6
Continuous
 62
     7
370
     0
100
AcDbLine
 10
19.49999999999204
 20
-71.49999999999625
 30
0.0
 11
23.99999999999204
 21
-71.49999999999625
 31
0.0
  0
LINE
  5
4802
330
A
100
AcDbEntity
  8
0
  6
Continuous
 62
     7
370
     0
100
AcDbLine
 10
23.99999999999
 20
-71.49999999999625
 30
0.0
 11
23.99999999999
 21
-72.49999999999625
 31
0.0
  0
LINE
  5
4803
330
A
100
AcDbEntity
  8
0
  6
Continuous
 62
     7
370
     0
100
AcDbLine
 10
-19.49999999999204
 20
-71.49999999999625
 30
0.0
 11
19.49999999999204
 21
-71.49999999999625
 31
0.0
  0
LINE
  5
4804
330
A
100
AcDbEntity
  8
0
  6
Continuous
 62
     7
370
     0
100
AcDbLine
 10
19.5
 20
-63.49999999999624
 30
0.0
 11
-19.5
 21
-63.49999999999624
 31
0.0
  0
LINE
  5
4805
330
A
100
AcDbEntity
  8
0
  6
Continuous
 62
     9
370
     0
100
AcDbLine
 10
-19.5
 20
-63.49999999999624
 30
0.0
 11
-19.5
 21
-62.49999999999625
 31
0.0
  0
LINE
  5
4806
330
A
100
AcDbEntity
  8
0
  6
Continuous
 62
     7
370
     0
100
AcDbLine
 10
-19.5
 20
-63.49999999999624
 30
0.0
 11
-24.0
 21
-63.49999999999624
 31
0.0
  0
LINE
  5
4807
330
A
100
AcDbEntity
  8
0
  6
Continuous
 62
     7
370
     0
100
AcDbLine
 10
-24.0
 20
-63.49999999999624
 30
0.0
 11
-24.0
 21
-62.49999999999625
 31
0.0
  0
LINE
  5
4808
330
A
100
AcDbEntity
  8
0
  6
Continuous
 62
     7
370
     0
100
AcDbLine
 10
24.0
 20
-63.49999999999624
 30
0.0
 11
24.0
 21
-62.49999999999625
 31
0.0
  0
LINE
  5
4809
330
A
100
AcDbEntity
  8
0
  6
Continuous
 62
     7
370
     0
100
AcDbLine
 10
24.0
 20
-63.49999999999624
 30
0.0
 11
19.5
 21
-63.49999999999624
 31
0.0
  0
LINE
  5
480A
330
A
100
AcDbEntity
  8
0
  6
Continuous
 62
     9
370
     0
100
AcDbLine
 10
19.5
 20
-63.49999999999624
 30
0.0
 11
19.5
 21
-62.49999999999625
 31
0.0
  0
LINE
  5
480B
330
A
100
AcDbEntity
  8
0
  6
Continuous
 62
     9
370
     0
100
AcDbLine
 10
20.0
 20
-62.49999999999625
 30
0.0
 11
20.0
 21
-57.49999999999641
 31
0.0
  0
LINE
  5
480C
330
A
100
AcDbEntity
  8
0
  6
Continuous
 62
     7
370
     0
100
AcDbLine
 10
25.0
 20
-57.49999999999641
 30
0.0
 11
25.0
 21
-62.49999999999625
 31
0.0
  0
LINE
  5
480D
330
A
100
AcDbEntity
  8
0
  6
Continuous
 62
     7
370
     0
100
AcDbLine
 10
25.0
 20
-62.49999999999625
 30
0.0
 11
20.0
 21
-62.49999999999625
 31
0.0
  0
LINE
  5
480E
330
A
100
AcDbEntity
  8
0
  6
Continuous
 62
     7
370
     0
100
AcDbLine
 10
20.0
 20
-57.49999999999641
 30
0.0
 11
24.99999999999909
 21
-57.49999999999641
 31
0.0
  0
LINE
  5
480F
330
A
100
AcDbEntity
  8
0
  6
Continuous
 62
     7
370
     0
100
AcDbLine
 10
-20.0
 20
-62.49999999999625
 30
0.0
 11
20.0
 21
-62.49999999999625
 31
0.0
  0
LINE
  5
4810
330
A
100
AcDbEntity
  8
0
  6
Continuous
 62
     9
370
     0
100
AcDbLine
 10
-20.0
 20
-57.49999999999641
 30
0.0
 11
-20.0
 21
-62.49999999999625
 31
0.0
  0
LINE
  5
4811
330
A
100
AcDbEntity
  8
0
  6
Continuous
 62
     7
370
     0
100
AcDbLine
 10
-20.0
 20
-57.49999999999641
 30
0.0
 11
20.0
 21
-57.49999999999641
 31
0.0
  0
LINE
  5
4812
330
A
100
AcDbEntity
  8
0
  6
Continuous
 62
     7
370
     0
100
AcDbLine
 10
-25.0
 20
-62.49999999999625
 30
0.0
 11
-25.0
 21
-57.49999999999641
 31
0.0
  0
LINE
  5
4813
330
A
100
AcDbEntity
  8
0
  6
Continuous
 62
     7
370
     0
100
AcDbLine
 10
-20.0
 20
-62.49999999999625
 30
0.0
 11
-24.99999999999909
 21
-62.49999999999625
 31
0.0
  0
LINE
  5
4814
330
A
100
AcDbEntity
  8
0
  6
Continuous
 62
     7
370
     0
100
AcDbLine
 10
-25.0
 20
-57.49999999999641
 30
0.0
 11
-20.0
 21
-57.49999999999641
 31
0.0
  0
LINE
  5
4815
330
A
100
AcDbEntity
  8
0
  6
Continuous
 62
     7
370
     0
100
AcDbLine
 10
15.0
 20
-64.49999999999144
 30
0.0
 11
15.0
 21
-70.49999999998866
 31
0.0
  0
LINE
  5
4816
330
A
100
AcDbEntity
  8
0
  6
Continuous
 62
     7
370
     0
100
AcDbLine
 10
-15.0
 20
-64.49999999999144
 30
0.0
 11
-15.0
 21
-70.49999999998866
 31
0.0
  0
LINE
  5
4817
330
A
100
AcDbEntity
  8
0
  6
Continuous
 62
     7
370
     0
100
AcDbLine
 10
23.99999999999
 20
-72.49999999999305
 30
0.0
 11
23.99999999999
 21
-71.49999999999625
 31
0.0
  0
LINE
  5
4818
330
A
100
AcDbEntity
  8
0
  6
Continuous
 62
     7
370
     0
100
AcDbLine
 10
23.99999999999
 20
-71.49999999999625
 30
0.0
 11
23.99999999999
 21
-70.49999999999295
 31
0.0
  0
LINE
  5
4819
330
A
100
AcDbEntity
  8
0
  6
Continuous
 62
     9
370
     0
100
AcDbLine
 10
19.49999999999204
 20
-72.49999999999305
 30
0.0
 11
19.49999999999204
 21
-71.49999999999625
 31
0.0
  0
LINE
  5
481A
330
A
100
AcDbEntity
  8
0
  6
Continuous
 62
     9
370
     0
100
AcDbLine
 10
19.49999999999204
 20
-71.49999999999625
 30
0.0
 11
19.49999999999204
 21
-70.49999999999295
 31
0.0
  0
LINE
  5
481B
330
A
100
AcDbEntity
  8
0
  6
Continuous
 62
     7
370
     0
100
AcDbLine
 10
23.99999999999204
 20
-70.49999999999295
 30
0.0
 11
19.49999999999204
 21
-70.49999999999295
 31
0.0
  0
LINE
  5
481C
330
A
100
AcDbEntity
  8
0
  6
Continuous
 62
     9
370
     0
100
AcDbLine
 10
-19.49999999999204
 20
-72.49999999999295
 30
0.0
 11
-19.49999999999204
 21
-71.49999999999625
 31
0.0
  0
LINE
  5
481D
330
A
100
AcDbEntity
  8
0
  6
Continuous
 62
     9
370
     0
100
AcDbLine
 10
-19.49999999999204
 20
-71.49999999999625
 30
0.0
 11
-19.49999999999204
 21
-70.49999999999295
 31
0.0
  0
LINE
  5
481E
330
A
100
AcDbEntity
  8
0
  6
Continuous
 62
     7
370
     0
100
AcDbLine
 10
-23.99999999999
 20
-72.49999999999295
 30
0.0
 11
-23.99999999999
 21
-71.49999999999625
 31
0.0
  0
LINE
  5
481F
330
A
100
AcDbEntity
  8
0
  6
Continuous
 62
     7
370
     0
100
AcDbLine
 10
-23.99999999999
 20
-71.49999999999625
 30
0.0
 11
-23.99999999999
 21
-70.49999999999295
 31
0.0
  0
LINE
  5
4820
330
A
100
AcDbEntity
  8
0
  6
Continuous
 62
     7
370
     0
100
AcDbLine
 10
-19.49999999999204
 20
-70.49999999999295
 30
0.0
 11
-23.99999999999204
 21
-70.49999999999295
 31
0.0
  0
LINE
  5
4821
330
A
100
AcDbEntity
  8
0
  6
Continuous
 62
     7
370
     0
100
AcDbLine
 10
19.49999999999204
 20
-70.49999999999295
 30
0.0
 11
-19.49999999999204
 21
-70.49999999999295
 31
0.0
  0
LINE
  5
4822
330
A
100
AcDbEntity
  8
0
  6
Continuous
 62
     7
370
     0
100
AcDbLine
 10
-19.49999999999204
 20
-64.49999999999545
 30
0.0
 11
19.49999999999204
 21
-64.49999999999545
 31
0.0
  0
LINE
  5
4823
330
A
100
AcDbEntity
  8
0
  6
Continuous
 62
     9
370
     0
100
AcDbLine
 10
19.49999999999204
 20
-62.49999999999634
 30
0.0
 11
19.49999999999204
 21
-63.49999999999534
 31
0.0
  0
LINE
  5
4824
330
A
100
AcDbEntity
  8
0
  6
Continuous
 62
     9
370
     0
100
AcDbLine
 10
19.49999999999204
 20
-63.49999999999534
 30
0.0
 11
19.49999999999204
 21
-64.49999999999545
 31
0.0
  0
LINE
  5
4825
330
A
100
AcDbEntity
  8
0
  6
Continuous
 62
     7
370
     0
100
AcDbLine
 10
23.99999999999
 20
-62.49999999999634
 30
0.0
 11
23.99999999999
 21
-63.49999999999534
 31
0.0
  0
LINE
  5
4826
330
A
100
AcDbEntity
  8
0
  6
Continuous
 62
     7
370
     0
100
AcDbLine
 10
23.99999999999
 20
-63.49999999999534
 30
0.0
 11
23.99999999999
 21
-64.49999999999545
 31
0.0
  0
LINE
  5
4827
330
A
100
AcDbEntity
  8
0
  6
Continuous
 62
     7
370
     0
100
AcDbLine
 10
19.49999999999204
 20
-64.49999999999545
 30
0.0
 11
23.9999999999859
 21
-64.49999999999545
 31
0.0
  0
LINE
  5
4828
330
A
100
AcDbEntity
  8
0
  6
Continuous
 62
     7
370
     0
100
AcDbLine
 10
-23.99999999999
 20
-62.49999999999634
 30
0.0
 11
-23.99999999999
 21
-63.49999999999534
 31
0.0
  0
LINE
  5
4829
330
A
100
AcDbEntity
  8
0
  6
Continuous
 62
     7
370
     0
100
AcDbLine
 10
-23.99999999999
 20
-63.49999999999534
 30
0.0
 11
-23.99999999999
 21
-64.49999999999545
 31
0.0
  0
LINE
  5
482A
330
A
100
AcDbEntity
  8
0
  6
Continuous
 62
     9
370
     0
100
AcDbLine
 10
-19.49999999999204
 20
-62.49999999999634
 30
0.0
 11
-19.49999999999204
 21
-63.49999999999534
 31
0.0
  0
LINE
  5
482B
330
A
100
AcDbEntity
  8
0
  6
Continuous
 62
     9
370
     0
100
AcDbLine
 10
-19.49999999999204
 20
-63.49999999999534
 30
0.0
 11
-19.49999999999204
 21
-64.49999999999545
 31
0.0
  0
LINE
  5
482C
330
A
100
AcDbEntity
  8
0
  6
Continuous
 62
     7
370
     0
100
AcDbLine
 10
-23.99999999998818
 20
-64.49999999999545
 30
0.0
 11
-19.49999999999204
 21
-64.49999999999545
 31
0.0
  0
LINE
  5
482D
330
A
100
AcDbEntity
  8
0
  6
Continuous
 62
     9
370
     0
100
AcDbLine
 10
-20.0
 20
-77.49999999999625
 30
0.0
 11
-20.0
 21
-72.49999999999625
 31
0.0
  0
LINE
  5
482E
330
A
100
AcDbEntity
  8
0
  6
Continuous
 62
     7
370
     0
100
AcDbLine
 10
-20.0
 20
-77.49999999999625
 30
0.0
 11
-25.0
 21
-77.49999999999625
 31
0.0
  0
LINE
  5
482F
330
A
100
AcDbEntity
  8
0
  6
Continuous
 62
     7
370
     0
100
AcDbLine
 10
-25.0
 20
-77.49999999999625
 30
0.0
 11
-25.0
 21
-72.49999999999625
 31
0.0
  0
LINE
  5
4830
330
A
100
AcDbEntity
  8
0
  6
Continuous
 62
     7
370
     0
100
AcDbLine
 10
-20.0
 20
-72.49999999999625
 30
0.0
 11
-25.0
 21
-72.49999999999625
 31
0.0
  0
LINE
  5
4831
330
A
100
AcDbEntity
  8
0
  6
Continuous
 62
     7
370
     0
100
AcDbLine
 10
25.0
 20
-77.49999999999625
 30
0.0
 11
25.0
 21
-72.49999999999625
 31
0.0
  0
LINE
  5
4832
330
A
100
AcDbEntity
  8
0
  6
Continuous
 62
     9
370
     0
100
AcDbLine
 10
20.0
 20
-77.49999999999625
 30
0.0
 11
20.0
 21
-72.49999999999625
 31
0.0
  0
LINE
  5
4833
330
A
100
AcDbEntity
  8
0
  6
Continuous
 62
     7
370
     0
100
AcDbLine
 10
25.0
 20
-72.49999999999625
 30
0.0
 11
20.0
 21
-72.49999999999625
 31
0.0
  0
LINE
  5
4834
330
A
100
AcDbEntity
  8
0
  6
Continuous
 62
     7
370
     0
100
AcDbLine
 10
25.0
 20
-77.49999999999625
 30
0.0
 11
20.0
 21
-77.49999999999625
 31
0.0
  0
LINE
  5
4835
330
A
100
AcDbEntity
  8
0
  6
Continuous
 62
     7
370
     0
100
AcDbLine
 10
20.0
 20
-72.49999999999625
 30
0.0
 11
-20.0
 21
-72.49999999999625
 31
0.0
  0
LINE
  5
4836
330
A
100
AcDbEntity
  8
0
  6
Continuous
 62
     7
370
     0
100
AcDbLine
 10
20.0
 20
-77.49999999999625
 30
0.0
 11
-20.0
 21
-77.49999999999625
 31
0.0
  0
LINE
  5
4837
330
A
100
AcDbEntity
  8
0
  6
Continuous
 62
     7
370
     0
100
AcDbLine
 10
-5.0
 20
-64.49999999999545
 30
0.0
 11
-5.0
 21
-70.49999999999295
 31
0.0
  0
LINE
  5
4838
330
A
100
AcDbEntity
  8
0
  6
Continuous
 62
     7
370
     0
100
AcDbLine
 10
5.0
 20
-70.49999999999295
 30
0.0
 11
5.0
 21
-64.49999999999545
 31
0.0
  0
LINE
  5
4839
330
A
100
AcDbEntity
  8
0
  6
Continuous
 62
     9
370
     0
100
AcDbLine
 10
71.5000000000009
 20
14.49999999999451
 30
0.0
 11
72.50000000000091
 21
14.49999999999451
 31
0.0
  0
LINE
  5
483A
330
A
100
AcDbEntity
  8
0
  6
Continuous
 62
     7
370
     0
100
AcDbLine
 10
71.5000000000009
 20
14.49999999999451
 30
0.0
 11
71.5000000000009
 21
18.99999999999451
 31
0.0
  0
LINE
  5
483B
330
A
100
AcDbEntity
  8
0
  6
Continuous
 62
     7
370
     0
100
AcDbLine
 10
71.5000000000009
 20
18.99999999999268
 30
0.0
 11
72.50000000000091
 21
18.99999999999268
 31
0.0
  0
LINE
  5
483C
330
A
100
AcDbEntity
  8
0
  6
Continuous
 62
     9
370
     0
100
AcDbLine
 10
71.5000000000009
 20
-27.99999999998812
 30
0.0
 11
72.50000000000091
 21
-27.99999999998812
 31
0.0
  0
LINE
  5
483D
330
A
100
AcDbEntity
  8
0
  6
Continuous
 62
     7
370
     0
100
AcDbLine
 10
71.5000000000009
 20
-27.99999999998812
 30
0.0
 11
71.5000000000009
 21
14.49999999999451
 31
0.0
  0
LINE
  5
483E
330
A
100
AcDbEntity
  8
0
  6
Continuous
 62
     7
370
     0
100
AcDbLine
 10
71.5000000000009
 20
-28.99999999998771
 30
0.0
 11
72.50000000000091
 21
-28.99999999998771
 31
0.0
  0
LINE
  5
483F
330
A
100
AcDbEntity
  8
0
  6
Continuous
 62
     7
370
     0
100
AcDbLine
 10
71.5000000000009
 20
-28.99999999998814
 30
0.0
 11
71.5000000000009
 21
-27.99999999998812
 31
0.0
  0
LINE
  5
4840
330
A
100
AcDbEntity
  8
0
  6
Continuous
 62
     9
370
     0
100
AcDbLine
 10
63.50000000000091
 20
14.50000000001615
 30
0.0
 11
62.50000000000091
 21
14.50000000001615
 31
0.0
  0
LINE
  5
4841
330
A
100
AcDbEntity
  8
0
  6
Continuous
 62
     9
370
     0
100
AcDbLine
 10
63.50000000000091
 20
-27.99999999998386
 30
0.0
 11
62.50000000000091
 21
-27.99999999998386
 31
0.0
  0
LINE
  5
4842
330
A
100
AcDbEntity
  8
0
  6
Continuous
 62
     7
370
     0
100
AcDbLine
 10
63.50000000000091
 20
14.50000000001615
 30
0.0
 11
63.50000000000091
 21
-27.99999999998386
 31
0.0
  0
LINE
  5
4843
330
A
100
AcDbEntity
  8
0
  6
Continuous
 62
     7
370
     0
100
AcDbLine
 10
63.50000000000091
 20
-28.99999999998386
 30
0.0
 11
62.50000000000091
 21
-28.99999999998386
 31
0.0
  0
LINE
  5
4844
330
A
100
AcDbEntity
  8
0
  6
Continuous
 62
     7
370
     0
100
AcDbLine
 10
63.50000000000091
 20
-27.99999999998386
 30
0.0
 11
63.50000000000091
 21
-28.99999999998386
 31
0.0
  0
LINE
  5
4845
330
A
100
AcDbEntity
  8
0
  6
Continuous
 62
     7
370
     0
100
AcDbLine
 10
63.50000000000091
 20
19.00000000001615
 30
0.0
 11
62.50000000000091
 21
19.00000000001615
 31
0.0
  0
LINE
  5
4846
330
A
100
AcDbEntity
  8
0
  6
Continuous
 62
     7
370
     0
100
AcDbLine
 10
63.50000000000091
 20
19.00000000001615
 30
0.0
 11
63.50000000000091
 21
14.50000000001615
 31
0.0
  0
LINE
  5
4847
330
A
100
AcDbEntity
  8
0
  6
Continuous
 62
     9
370
     0
100
AcDbLine
 10
62.50000000000091
 20
14.99999999999949
 30
0.0
 11
57.50000000000091
 21
14.99999999999949
 31
0.0
  0
LINE
  5
4848
330
A
100
AcDbEntity
  8
0
  6
Continuous
 62
     7
370
     0
100
AcDbLine
 10
57.50000000000091
 20
19.99999999999933
 30
0.0
 11
62.50000000000091
 21
19.99999999999933
 31
0.0
  0
LINE
  5
4849
330
A
100
AcDbEntity
  8
0
  6
Continuous
 62
     7
370
     0
100
AcDbLine
 10
57.50000000000091
 20
14.99999999999949
 30
0.0
 11
57.50000000000091
 21
19.99999999999901
 31
0.0
  0
LINE
  5
484A
330
A
100
AcDbEntity
  8
0
  6
Continuous
 62
     7
370
     0
100
AcDbLine
 10
62.50000000000091
 20
19.99999999999917
 30
0.0
 11
62.50000000000091
 21
14.99999999999949
 31
0.0
  0
LINE
  5
484B
330
A
100
AcDbEntity
  8
0
  6
Continuous
 62
     7
370
     0
100
AcDbLine
 10
62.50000000000091
 20
-29.99999999999902
 30
0.0
 11
57.50000000000091
 21
-29.99999999999902
 31
0.0
  0
LINE
  5
484C
330
A
100
AcDbEntity
  8
0
  6
Continuous
 62
     7
370
     0
100
AcDbLine
 10
57.50000000000091
 20
-29.99999999999902
 30
0.0
 11
57.50000000000091
 21
14.99999999999949
 31
0.0
  0
LINE
  5
484D
330
A
100
AcDbEntity
  8
0
  6
Continuous
 62
     7
370
     0
100
AcDbLine
 10
62.50000000000091
 20
-29.99999999999902
 30
0.0
 11
62.50000000000091
 21
14.99999999999949
 31
0.0
  0
LINE
  5
484E
330
A
100
AcDbEntity
  8
0
  6
Continuous
 62
     7
370
     0
100
AcDbLine
 10
64.49999999999613
 20
-24.99999999999919
 30
0.0
 11
70.49999999999295
 21
-24.99999999999919
 31
0.0
  0
LINE
  5
484F
330
A
100
AcDbEntity
  8
0
  6
Continuous
 62
     7
370
     0
100
AcDbLine
 10
62.50000000000091
 20
-29.99999999999902
 30
0.0
 11
72.50000000000091
 21
-29.99999999999902
 31
0.0
  0
LINE
  5
4850
330
A
100
AcDbEntity
  8
0
  6
Continuous
 62
     9
370
     0
100
AcDbLine
 10
72.49999999999795
 20
14.49999999999452
 30
0.0
 11
71.5000000000009
 21
14.49999999999452
 31
0.0
  0
LINE
  5
4851
330
A
100
AcDbEntity
  8
0
  6
Continuous
 62
     9
370
     0
100
AcDbLine
 10
71.5000000000009
 20
14.49999999999452
 30
0.0
 11
70.49999999999795
 21
14.49999999999452
 31
0.0
  0
LINE
  5
4852
330
A
100
AcDbEntity
  8
0
  6
Continuous
 62
     9
370
     0
100
AcDbLine
 10
72.49999999999795
 20
-27.99999999998815
 30
0.0
 11
71.5000000000009
 21
-27.99999999998815
 31
0.0
  0
LINE
  5
4853
330
A
100
AcDbEntity
  8
0
  6
Continuous
 62
     9
370
     0
100
AcDbLine
 10
71.5000000000009
 20
-27.99999999998815
 30
0.0
 11
70.49999999999795
 21
-27.99999999998815
 31
0.0
  0
LINE
  5
4854
330
A
100
AcDbEntity
  8
0
  6
Continuous
 62
     7
370
     0
100
AcDbLine
 10
70.49999999999795
 20
14.49999999999452
 30
0.0
 11
70.49999999999795
 21
-27.99999999998815
 31
0.0
  0
LINE
  5
4855
330
A
100
AcDbEntity
  8
0
  6
Continuous
 62
     7
370
     0
100
AcDbLine
 10
72.49999999999795
 20
18.9999999999927
 30
0.0
 11
71.5000000000009
 21
18.9999999999927
 31
0.0
  0
LINE
  5
4856
330
A
100
AcDbEntity
  8
0
  6
Continuous
 62
     7
370
     0
100
AcDbLine
 10
71.5000000000009
 20
18.9999999999927
 30
0.0
 11
70.49999999999795
 21
18.9999999999927
 31
0.0
  0
LINE
  5
4857
330
A
100
AcDbEntity
  8
0
  6
Continuous
 62
     7
370
     0
100
AcDbLine
 10
70.49999999999795
 20
18.99999999999452
 30
0.0
 11
70.49999999999795
 21
14.49999999999452
 31
0.0
  0
LINE
  5
4858
330
A
100
AcDbEntity
  8
0
  6
Continuous
 62
     7
370
     0
100
AcDbLine
 10
72.49999999999795
 20
-28.99999999998775
 30
0.0
 11
71.5000000000009
 21
-28.99999999998775
 31
0.0
  0
LINE
  5
4859
330
A
100
AcDbEntity
  8
0
  6
Continuous
 62
     7
370
     0
100
AcDbLine
 10
71.5000000000009
 20
-28.99999999998775
 30
0.0
 11
70.49999999999795
 21
-28.99999999998775
 31
0.0
  0
LINE
  5
485A
330
A
100
AcDbEntity
  8
0
  6
Continuous
 62
     7
370
     0
100
AcDbLine
 10
70.49999999999795
 20
-27.99999999998815
 30
0.0
 11
70.49999999999795
 21
-28.99999999998816
 31
0.0
  0
LINE
  5
485B
330
A
100
AcDbEntity
  8
0
  6
Continuous
 62
     9
370
     0
100
AcDbLine
 10
62.50000000000091
 20
14.50000000000042
 30
0.0
 11
63.5
 21
14.50000000000042
 31
0.0
  0
LINE
  5
485C
330
A
100
AcDbEntity
  8
0
  6
Continuous
 62
     9
370
     0
100
AcDbLine
 10
63.5
 20
14.50000000000042
 30
0.0
 11
64.5
 21
14.50000000000042
 31
0.0
  0
LINE
  5
485D
330
A
100
AcDbEntity
  8
0
  6
Continuous
 62
     7
370
     0
100
AcDbLine
 10
62.50000000000091
 20
19.00000000000044
 30
0.0
 11
63.5
 21
19.00000000000044
 31
0.0
  0
LINE
  5
485E
330
A
100
AcDbEntity
  8
0
  6
Continuous
 62
     7
370
     0
100
AcDbLine
 10
63.5
 20
19.00000000000044
 30
0.0
 11
64.5
 21
19.00000000000044
 31
0.0
  0
LINE
  5
485F
330
A
100
AcDbEntity
  8
0
  6
Continuous
 62
     7
370
     0
100
AcDbLine
 10
64.5
 20
14.50000000000042
 30
0.0
 11
64.5
 21
18.99999999999444
 31
0.0
  0
LINE
  5
4860
330
A
100
AcDbEntity
  8
0
  6
Continuous
 62
     9
370
     0
100
AcDbLine
 10
62.50000000000091
 20
-27.99999999999956
 30
0.0
 11
63.5
 21
-27.99999999999956
 31
0.0
  0
LINE
  5
4861
330
A
100
AcDbEntity
  8
0
  6
Continuous
 62
     9
370
     0
100
AcDbLine
 10
63.5
 20
-27.99999999999956
 30
0.0
 11
64.5
 21
-27.99999999999956
 31
0.0
  0
LINE
  5
4862
330
A
100
AcDbEntity
  8
0
  6
Continuous
 62
     7
370
     0
100
AcDbLine
 10
64.5
 20
-27.99999999999956
 30
0.0
 11
64.5
 21
14.50000000000042
 31
0.0
  0
LINE
  5
4863
330
A
100
AcDbEntity
  8
0
  6
Continuous
 62
     7
370
     0
100
AcDbLine
 10
62.50000000000091
 20
-28.99999999999956
 30
0.0
 11
63.5
 21
-28.99999999999956
 31
0.0
  0
LINE
  5
4864
330
A
100
AcDbEntity
  8
0
  6
Continuous
 62
     7
370
     0
100
AcDbLine
 10
63.5
 20
-28.99999999999956
 30
0.0
 11
64.5
 21
-28.99999999999956
 31
0.0
  0
LINE
  5
4865
330
A
100
AcDbEntity
  8
0
  6
Continuous
 62
     7
370
     0
100
AcDbLine
 10
64.5
 20
-28.99999999999867
 30
0.0
 11
64.5
 21
-27.99999999999956
 31
0.0
  0
LINE
  5
4866
330
A
100
AcDbEntity
  8
0
  6
Continuous
 62
     7
370
     0
100
AcDbLine
 10
77.50000000000091
 20
20.00000000000044
 30
0.0
 11
72.50000000000091
 21
20.00000000000044
 31
0.0
  0
LINE
  5
4867
330
A
100
AcDbEntity
  8
0
  6
Continuous
 62
     9
370
     0
100
AcDbLine
 10
77.50000000000091
 20
15.00000000000043
 30
0.0
 11
72.50000000000091
 21
15.00000000000043
 31
0.0
  0
LINE
  5
4868
330
A
100
AcDbEntity
  8
0
  6
Continuous
 62
     7
370
     0
100
AcDbLine
 10
72.50000000000091
 20
20.00000000000044
 30
0.0
 11
72.50000000000091
 21
15.00000000000043
 31
0.0
  0
LINE
  5
4869
330
A
100
AcDbEntity
  8
0
  6
Continuous
 62
     7
370
     0
100
AcDbLine
 10
77.50000000000091
 20
20.00000000000044
 30
0.0
 11
77.50000000000091
 21
15.00000000000043
 31
0.0
  0
LINE
  5
486A
330
A
100
AcDbEntity
  8
0
  6
Continuous
 62
     7
370
     0
100
AcDbLine
 10
72.50000000000091
 20
15.00000000000043
 30
0.0
 11
72.50000000000091
 21
-29.99999999999955
 31
0.0
  0
LINE
  5
486B
330
A
100
AcDbEntity
  8
0
  6
Continuous
 62
     7
370
     0
100
AcDbLine
 10
77.50000000000091
 20
15.00000000000043
 30
0.0
 11
77.50000000000091
 21
-29.99999999999955
 31
0.0
  0
LINE
  5
486C
330
A
100
AcDbEntity
  8
0
  6
Continuous
 62
     7
370
     0
100
AcDbLine
 10
77.50000000000091
 20
-29.99999999999956
 30
0.0
 11
72.50000000000091
 21
-29.99999999999956
 31
0.0
  0
LINE
  5
486D
330
A
100
AcDbEntity
  8
0
  6
Continuous
 62
     7
370
     0
100
AcDbLine
 10
64.5
 20
-4.999999999999559
 30
0.0
 11
70.49999999999795
 21
-4.999999999999559
 31
0.0
  0
LINE
  5
486E
330
A
100
AcDbEntity
  8
0
  6
Continuous
 62
     7
370
     0
100
AcDbLine
 10
70.49999999999795
 20
5.00000000000044
 30
0.0
 11
64.5
 21
5.00000000000044
 31
0.0
  0
LINE
  5
486F
330
A
100
AcDbEntity
  8
0
  6
Continuous
 62
     9
370
     0
100
AcDbLine
 10
-64.00000000000114
 20
14.49999999999452
 30
0.0
 11
-65.00000000000205
 21
14.49999999999452
 31
0.0
  0
LINE
  5
4870
330
A
100
AcDbEntity
  8
0
  6
Continuous
 62
     7
370
     0
100
AcDbLine
 10
-64.00000000000114
 20
14.49999999999452
 30
0.0
 11
-64.00000000000114
 21
-27.99999999998812
 31
0.0
  0
LINE
  5
4871
330
A
100
AcDbEntity
  8
0
  6
Continuous
 62
     9
370
     0
100
AcDbLine
 10
-64.00000000000114
 20
-27.99999999998812
 30
0.0
 11
-65.00000000000205
 21
-27.99999999998812
 31
0.0
  0
LINE
  5
4872
330
A
100
AcDbEntity
  8
0
  6
Continuous
 62
     7
370
     0
100
AcDbLine
 10
-64.00000000000114
 20
-28.99999999998771
 30
0.0
 11
-65.00000000000205
 21
-28.99999999998771
 31
0.0
  0
LINE
  5
4873
330
A
100
AcDbEntity
  8
0
  6
Continuous
 62
     7
370
     0
100
AcDbLine
 10
-64.00000000000114
 20
-27.99999999998812
 30
0.0
 11
-64.00000000000114
 21
-28.99999999998814
 31
0.0
  0
LINE
  5
4874
330
A
100
AcDbEntity
  8
0
  6
Continuous
 62
     7
370
     0
100
AcDbLine
 10
-64.00000000000114
 20
18.99999999999268
 30
0.0
 11
-65.00000000000205
 21
18.99999999999268
 31
0.0
  0
LINE
  5
4875
330
A
100
AcDbEntity
  8
0
  6
Continuous
 62
     7
370
     0
100
AcDbLine
 10
-64.00000000000114
 20
18.99999999999452
 30
0.0
 11
-64.00000000000114
 21
14.49999999999452
 31
0.0
  0
LINE
  5
4876
330
A
100
AcDbEntity
  8
0
  6
Continuous
 62
     9
370
     0
100
AcDbLine
 10
-56.00000000000204
 20
-27.99999999998386
 30
0.0
 11
-55.00000000000113
 21
-27.99999999998386
 31
0.0
  0
LINE
  5
4877
330
A
100
AcDbEntity
  8
0
  6
Continuous
 62
     7
370
     0
100
AcDbLine
 10
-56.00000000000204
 20
-27.99999999998386
 30
0.0
 11
-56.00000000000204
 21
14.50000000001615
 31
0.0
  0
LINE
  5
4878
330
A
100
AcDbEntity
  8
0
  6
Continuous
 62
     9
370
     0
100
AcDbLine
 10
-56.00000000000204
 20
14.50000000001615
 30
0.0
 11
-55.00000000000113
 21
14.50000000001615
 31
0.0
  0
LINE
  5
4879
330
A
100
AcDbEntity
  8
0
  6
Continuous
 62
     7
370
     0
100
AcDbLine
 10
-56.00000000000204
 20
19.00000000001615
 30
0.0
 11
-55.00000000000113
 21
19.00000000001615
 31
0.0
  0
LINE
  5
487A
330
A
100
AcDbEntity
  8
0
  6
Continuous
 62
     7
370
     0
100
AcDbLine
 10
-56.00000000000204
 20
14.50000000001615
 30
0.0
 11
-56.00000000000204
 21
19.00000000001615
 31
0.0
  0
LINE
  5
487B
330
A
100
AcDbEntity
  8
0
  6
Continuous
 62
     7
370
     0
100
AcDbLine
 10
-56.00000000000204
 20
-28.99999999998386
 30
0.0
 11
-55.00000000000113
 21
-28.99999999998386
 31
0.0
  0
LINE
  5
487C
330
A
100
AcDbEntity
  8
0
  6
Continuous
 62
     7
370
     0
100
AcDbLine
 10
-56.00000000000204
 20
-28.99999999998386
 30
0.0
 11
-56.00000000000204
 21
-27.99999999998386
 31
0.0
  0
LINE
  5
487D
330
A
100
AcDbEntity
  8
0
  6
Continuous
 62
     7
370
     0
100
AcDbLine
 10
-55.00000000000113
 20
19.99999999999933
 30
0.0
 11
-50.00000000000205
 21
19.99999999999933
 31
0.0
  0
LINE
  5
487E
330
A
100
AcDbEntity
  8
0
  6
Continuous
 62
     7
370
     0
100
AcDbLine
 10
-50.00000000000205
 20
19.99999999999917
 30
0.0
 11
-50.00000000000205
 21
14.99999999999949
 31
0.0
  0
LINE
  5
487F
330
A
100
AcDbEntity
  8
0
  6
Continuous
 62
     9
370
     0
100
AcDbLine
 10
-50.00000000000205
 20
14.99999999999949
 30
0.0
 11
-55.00000000000113
 21
14.99999999999949
 31
0.0
  0
LINE
  5
4880
330
A
100
AcDbEntity
  8
0
  6
Continuous
 62
     7
370
     0
100
AcDbLine
 10
-55.00000000000113
 20
14.99999999999949
 30
0.0
 11
-55.00000000000113
 21
19.99999999999901
 31
0.0
  0
LINE
  5
4881
330
A
100
AcDbEntity
  8
0
  6
Continuous
 62
     7
370
     0
100
AcDbLine
 10
-55.00000000000113
 20
-29.99999999999902
 30
0.0
 11
-50.00000000000205
 21
-29.99999999999902
 31
0.0
  0
LINE
  5
4882
330
A
100
AcDbEntity
  8
0
  6
Continuous
 62
     7
370
     0
100
AcDbLine
 10
-55.00000000000113
 20
14.99999999999949
 30
0.0
 11
-55.00000000000113
 21
-29.99999999999902
 31
0.0
  0
LINE
  5
4883
330
A
100
AcDbEntity
  8
0
  6
Continuous
 62
     7
370
     0
100
AcDbLine
 10
-50.00000000000205
 20
14.99999999999949
 30
0.0
 11
-50.00000000000205
 21
-29.99999999999902
 31
0.0
  0
LINE
  5
4884
330
A
100
AcDbEntity
  8
0
  6
Continuous
 62
     7
370
     0
100
AcDbLine
 10
-56.99999999999704
 20
-24.99999999999919
 30
0.0
 11
-62.99999999999409
 21
-24.99999999999919
 31
0.0
  0
LINE
  5
4885
330
A
100
AcDbEntity
  8
0
  6
Continuous
 62
     7
370
     0
100
AcDbLine
 10
-55.00000000000113
 20
-29.99999999999902
 30
0.0
 11
-65.00000000000205
 21
-29.99999999999902
 31
0.0
  0
LINE
  5
4886
330
A
100
AcDbEntity
  8
0
  6
Continuous
 62
     9
370
     0
100
AcDbLine
 10
-64.99999999999795
 20
-27.99999999998815
 30
0.0
 11
-64.00000000000114
 21
-27.99999999998815
 31
0.0
  0
LINE
  5
4887
330
A
100
AcDbEntity
  8
0
  6
Continuous
 62
     9
370
     0
100
AcDbLine
 10
-64.00000000000114
 20
-27.99999999998815
 30
0.0
 11
-62.99999999999795
 21
-27.99999999998815
 31
0.0
  0
LINE
  5
4888
330
A
100
AcDbEntity
  8
0
  6
Continuous
 62
     9
370
     0
100
AcDbLine
 10
-64.99999999999795
 20
14.49999999999453
 30
0.0
 11
-64.00000000000114
 21
14.49999999999453
 31
0.0
  0
LINE
  5
4889
330
A
100
AcDbEntity
  8
0
  6
Continuous
 62
     9
370
     0
100
AcDbLine
 10
-64.00000000000114
 20
14.49999999999453
 30
0.0
 11
-62.99999999999795
 21
14.49999999999453
 31
0.0
  0
LINE
  5
488A
330
A
100
AcDbEntity
  8
0
  6
Continuous
 62
     7
370
     0
100
AcDbLine
 10
-62.99999999999795
 20
-27.99999999998815
 30
0.0
 11
-62.99999999999795
 21
14.49999999999453
 31
0.0
  0
LINE
  5
488B
330
A
100
AcDbEntity
  8
0
  6
Continuous
 62
     7
370
     0
100
AcDbLine
 10
-64.99999999999795
 20
-28.99999999998774
 30
0.0
 11
-64.00000000000114
 21
-28.99999999998774
 31
0.0
  0
LINE
  5
488C
330
A
100
AcDbEntity
  8
0
  6
Continuous
 62
     7
370
     0
100
AcDbLine
 10
-64.00000000000114
 20
-28.99999999998774
 30
0.0
 11
-62.99999999999795
 21
-28.99999999998774
 31
0.0
  0
LINE
  5
488D
330
A
100
AcDbEntity
  8
0
  6
Continuous
 62
     7
370
     0
100
AcDbLine
 10
-62.99999999999795
 20
-28.99999999998816
 30
0.0
 11
-62.99999999999795
 21
-27.99999999998815
 31
0.0
  0
LINE
  5
488E
330
A
100
AcDbEntity
  8
0
  6
Continuous
 62
     7
370
     0
100
AcDbLine
 10
-64.99999999999795
 20
18.9999999999927
 30
0.0
 11
-64.00000000000114
 21
18.9999999999927
 31
0.0
  0
LINE
  5
488F
330
A
100
AcDbEntity
  8
0
  6
Continuous
 62
     7
370
     0
100
AcDbLine
 10
-64.00000000000114
 20
18.9999999999927
 30
0.0
 11
-62.99999999999795
 21
18.9999999999927
 31
0.0
  0
LINE
  5
4890
330
A
100
AcDbEntity
  8
0
  6
Continuous
 62
     7
370
     0
100
AcDbLine
 10
-62.99999999999795
 20
14.49999999999453
 30
0.0
 11
-62.99999999999795
 21
18.99999999999452
 31
0.0
  0
LINE
  5
4891
330
A
100
AcDbEntity
  8
0
  6
Continuous
 62
     9
370
     0
100
AcDbLine
 10
-55.00000000000113
 20
14.50000000000042
 30
0.0
 11
-56.00000000000114
 21
14.50000000000042
 31
0.0
  0
LINE
  5
4892
330
A
100
AcDbEntity
  8
0
  6
Continuous
 62
     9
370
     0
100
AcDbLine
 10
-56.00000000000114
 20
14.50000000000042
 30
0.0
 11
-57.00000000000113
 21
14.50000000000042
 31
0.0
  0
LINE
  5
4893
330
A
100
AcDbEntity
  8
0
  6
Continuous
 62
     9
370
     0
100
AcDbLine
 10
-55.00000000000113
 20
-27.99999999999956
 30
0.0
 11
-56.00000000000114
 21
-27.99999999999956
 31
0.0
  0
LINE
  5
4894
330
A
100
AcDbEntity
  8
0
  6
Continuous
 62
     9
370
     0
100
AcDbLine
 10
-56.00000000000114
 20
-27.99999999999956
 30
0.0
 11
-57.00000000000113
 21
-27.99999999999956
 31
0.0
  0
LINE
  5
4895
330
A
100
AcDbEntity
  8
0
  6
Continuous
 62
     7
370
     0
100
AcDbLine
 10
-57.00000000000113
 20
14.50000000000042
 30
0.0
 11
-57.00000000000113
 21
-27.99999999999956
 31
0.0
  0
LINE
  5
4896
330
A
100
AcDbEntity
  8
0
  6
Continuous
 62
     7
370
     0
100
AcDbLine
 10
-55.00000000000113
 20
-28.99999999999956
 30
0.0
 11
-56.00000000000114
 21
-28.99999999999956
 31
0.0
  0
LINE
  5
4897
330
A
100
AcDbEntity
  8
0
  6
Continuous
 62
     7
370
     0
100
AcDbLine
 10
-56.00000000000114
 20
-28.99999999999956
 30
0.0
 11
-57.00000000000113
 21
-28.99999999999956
 31
0.0
  0
LINE
  5
4898
330
A
100
AcDbEntity
  8
0
  6
Continuous
 62
     7
370
     0
100
AcDbLine
 10
-57.00000000000113
 20
-27.99999999999956
 30
0.0
 11
-57.00000000000113
 21
-28.99999999999823
 31
0.0
  0
LINE
  5
4899
330
A
100
AcDbEntity
  8
0
  6
Continuous
 62
     7
370
     0
100
AcDbLine
 10
-55.00000000000113
 20
19.00000000000044
 30
0.0
 11
-56.00000000000114
 21
19.00000000000044
 31
0.0
  0
LINE
  5
489A
330
A
100
AcDbEntity
  8
0
  6
Continuous
 62
     7
370
     0
100
AcDbLine
 10
-56.00000000000114
 20
19.00000000000044
 30
0.0
 11
-57.00000000000113
 21
19.00000000000044
 31
0.0
  0
LINE
  5
489B
330
A
100
AcDbEntity
  8
0
  6
Continuous
 62
     7
370
     0
100
AcDbLine
 10
-57.00000000000113
 20
18.99999999999644
 30
0.0
 11
-57.00000000000113
 21
14.50000000000042
 31
0.0
  0
LINE
  5
489C
330
A
100
AcDbEntity
  8
0
  6
Continuous
 62
     7
370
     0
100
AcDbLine
 10
-70.00000000000205
 20
-29.99999999999955
 30
0.0
 11
-70.00000000000205
 21
15.00000000000042
 31
0.0
  0
LINE
  5
489D
330
A
100
AcDbEntity
  8
0
  6
Continuous
 62
     9
370
     0
100
AcDbLine
 10
-70.00000000000205
 20
15.00000000000043
 30
0.0
 11
-65.00000000000205
 21
15.00000000000043
 31
0.0
  0
LINE
  5
489E
330
A
100
AcDbEntity
  8
0
  6
Continuous
 62
     7
370
     0
100
AcDbLine
 10
-65.00000000000205
 20
-29.99999999999955
 30
0.0
 11
-65.00000000000205
 21
15.00000000000042
 31
0.0
  0
LINE
  5
489F
330
A
100
AcDbEntity
  8
0
  6
Continuous
 62
     7
370
     0
100
AcDbLine
 10
-70.00000000000205
 20
-29.99999999999955
 30
0.0
 11
-65.00000000000205
 21
-29.99999999999955
 31
0.0
  0
LINE
  5
48A0
330
A
100
AcDbEntity
  8
0
  6
Continuous
 62
     7
370
     0
100
AcDbLine
 10
-70.00000000000205
 20
15.00000000000043
 30
0.0
 11
-70.00000000000205
 21
20.00000000000044
 31
0.0
  0
LINE
  5
48A1
330
A
100
AcDbEntity
  8
0
  6
Continuous
 62
     7
370
     0
100
AcDbLine
 10
-70.00000000000205
 20
20.00000000000044
 30
0.0
 11
-65.00000000000205
 21
20.00000000000044
 31
0.0
  0
LINE
  5
48A2
330
A
100
AcDbEntity
  8
0
  6
Continuous
 62
     7
370
     0
100
AcDbLine
 10
-65.00000000000205
 20
15.00000000000043
 30
0.0
 11
-65.00000000000205
 21
20.00000000000044
 31
0.0
  0
LINE
  5
48A3
330
A
100
AcDbEntity
  8
0
  6
Continuous
 62
     7
370
     0
100
AcDbLine
 10
-57.00000000000113
 20
5.00000000000044
 30
0.0
 11
-62.99999999999795
 21
5.00000000000044
 31
0.0
  0
LINE
  5
48A4
330
A
100
AcDbEntity
  8
0
  6
Continuous
 62
     7
370
     0
100
AcDbLine
 10
-62.99999999999795
 20
-4.999999999999559
 30
0.0
 11
-57.00000000000113
 21
-4.999999999999559
 31
0.0
  0
LINE
  5
48A5
330
A
100
AcDbEntity
  8
0
  6
Continuous
 62
     9
370
     0
100
AcDbLine
 10
-16.99999999999295
 20
59.0000000000068
 30
0.0
 11
-16.99999999999295
 21
60.00000000000681
 31
0.0
  0
LINE
  5
48A6
330
A
100
AcDbEntity
  8
0
  6
Continuous
 62
     7
370
     0
100
AcDbLine
 10
-16.99999999999295
 20
59.0000000000068
 30
0.0
 11
-22.99999999999113
 21
59.0000000000068
 31
0.0
  0
LINE
  5
48A7
330
A
100
AcDbEntity
  8
0
  6
Continuous
 62
     9
370
     0
100
AcDbLine
 10
-22.99999999999113
 20
59.0000000000068
 30
0.0
 11
-22.99999999999113
 21
60.00000000000681
 31
0.0
  0
LINE
  5
48A8
330
A
100
AcDbEntity
  8
0
  6
Continuous
 62
     7
370
     0
100
AcDbLine
 10
-22.99999999999113
 20
59.0000000000068
 30
0.0
 11
-23.99999999999113
 21
59.0000000000068
 31
0.0
  0
LINE
  5
48A9
330
A
100
AcDbEntity
  8
0
  6
Continuous
 62
     7
370
     0
100
AcDbLine
 10
-23.99999999999
 20
59.0000000000068
 30
0.0
 11
-23.99999999999
 21
60.00000000000681
 31
0.0
  0
LINE
  5
48AA
330
A
100
AcDbEntity
  8
0
  6
Continuous
 62
     7
370
     0
100
AcDbLine
 10
-15.99999999999295
 20
59.0000000000068
 30
0.0
 11
-15.99999999999295
 21
60.00000000000681
 31
0.0
  0
LINE
  5
48AB
330
A
100
AcDbEntity
  8
0
  6
Continuous
 62
     7
370
     0
100
AcDbLine
 10
-15.99999999999295
 20
59.0000000000068
 30
0.0
 11
-16.99999999999295
 21
59.0000000000068
 31
0.0
  0
LINE
  5
48AC
330
A
100
AcDbEntity
  8
0
  6
Continuous
 62
     9
370
     0
100
AcDbLine
 10
16.99999999999295
 20
59.0000000000068
 30
0.0
 11
16.99999999999295
 21
60.00000000000682
 31
0.0
  0
LINE
  5
48AD
330
A
100
AcDbEntity
  8
0
  6
Continuous
 62
     7
370
     0
100
AcDbLine
 10
15.99999999999295
 20
59.0000000000068
 30
0.0
 11
15.99999999999295
 21
60.00000000000682
 31
0.0
  0
LINE
  5
48AE
330
A
100
AcDbEntity
  8
0
  6
Continuous
 62
     7
370
     0
100
AcDbLine
 10
16.99999999999295
 20
59.0000000000068
 30
0.0
 11
15.99999999999295
 21
59.0000000000068
 31
0.0
  0
LINE
  5
48AF
330
A
100
AcDbEntity
  8
0
  6
Continuous
 62
     9
370
     0
100
AcDbLine
 10
22.99999999999
 20
59.00000000000682
 30
0.0
 11
22.99999999999
 21
60.00000000000683
 31
0.0
  0
LINE
  5
48B0
330
A
100
AcDbEntity
  8
0
  6
Continuous
 62
     7
370
     0
100
AcDbLine
 10
22.99999999999
 20
59.00000000000682
 30
0.0
 11
16.99999999999295
 21
59.0000000000068
 31
0.0
  0
LINE
  5
48B1
330
A
100
AcDbEntity
  8
0
  6
Continuous
 62
     7
370
     0
100
AcDbLine
 10
23.99999999999
 20
59.00000000000682
 30
0.0
 11
23.99999999999
 21
60.00000000000683
 31
0.0
  0
LINE
  5
48B2
330
A
100
AcDbEntity
  8
0
  6
Continuous
 62
     7
370
     0
100
AcDbLine
 10
23.99999999999113
 20
59.00000000000682
 30
0.0
 11
22.99999999999
 21
59.00000000000682
 31
0.0
  0
LINE
  5
48B3
330
A
100
AcDbEntity
  8
0
  6
Continuous
 62
     7
370
     0
100
AcDbLine
 10
14.99999999999386
 20
60.00000000000682
 30
0.0
 11
15.25
 21
60.00000000000682
 31
0.0
  0
LINE
  5
48B4
330
A
100
AcDbEntity
  8
0
  6
Continuous
 62
     7
370
     0
100
AcDbLine
 10
14.99999999999386
 20
59.0000000000068
 30
0.0
 11
15.99999999999386
 21
59.0000000000068
 31
0.0
  0
LINE
  5
48B5
330
A
100
AcDbEntity
  8
0
  6
Continuous
 62
     7
370
     0
100
AcDbLine
 10
-15.25
 20
60.00000000000681
 30
0.0
 11
-14.99999999999386
 21
60.00000000000681
 31
0.0
  0
LINE
  5
48B6
330
A
100
AcDbEntity
  8
0
  6
Continuous
 62
     7
370
     0
100
AcDbLine
 10
-15.99999999999386
 20
59.0000000000068
 30
0.0
 11
-14.99999999999386
 21
59.0000000000068
 31
0.0
  0
LINE
  5
48B7
330
A
100
AcDbEntity
  8
0
  6
Continuous
 62
     9
370
     0
100
AcDbLine
 10
-17.0
 20
51.0000000000068
 30
0.0
 11
-17.0
 21
50.00000000000681
 31
0.0
  0
LINE
  5
48B8
330
A
100
AcDbEntity
  8
0
  6
Continuous
 62
     7
370
     0
100
AcDbLine
 10
-16.0
 20
51.0000000000068
 30
0.0
 11
-16.0
 21
50.00000000000681
 31
0.0
  0
LINE
  5
48B9
330
A
100
AcDbEntity
  8
0
  6
Continuous
 62
     7
370
     0
100
AcDbLine
 10
-17.0
 20
51.0000000000068
 30
0.0
 11
-16.0
 21
51.0000000000068
 31
0.0
  0
LINE
  5
48BA
330
A
100
AcDbEntity
  8
0
  6
Continuous
 62
     7
370
     0
100
AcDbLine
 10
16.0
 20
51.00000000000682
 30
0.0
 11
16.0
 21
50.00000000000681
 31
0.0
  0
LINE
  5
48BB
330
A
100
AcDbEntity
  8
0
  6
Continuous
 62
     7
370
     0
100
AcDbLine
 10
16.0
 20
51.00000000000682
 30
0.0
 11
17.0
 21
51.00000000000682
 31
0.0
  0
LINE
  5
48BC
330
A
100
AcDbEntity
  8
0
  6
Continuous
 62
     7
370
     0
100
AcDbLine
 10
23.0
 20
51.00000000000682
 30
0.0
 11
24.0
 21
51.00000000000682
 31
0.0
  0
LINE
  5
48BD
330
A
100
AcDbEntity
  8
0
  6
Continuous
 62
     7
370
     0
100
AcDbLine
 10
24.0
 20
51.00000000000682
 30
0.0
 11
24.0
 21
50.00000000000682
 31
0.0
  0
LINE
  5
48BE
330
A
100
AcDbEntity
  8
0
  6
Continuous
 62
     9
370
     0
100
AcDbLine
 10
-23.0
 20
51.0000000000068
 30
0.0
 11
-23.0
 21
50.00000000000681
 31
0.0
  0
LINE
  5
48BF
330
A
100
AcDbEntity
  8
0
  6
Continuous
 62
     7
370
     0
100
AcDbLine
 10
-23.0
 20
51.0000000000068
 30
0.0
 11
-17.0
 21
51.0000000000068
 31
0.0
  0
LINE
  5
48C0
330
A
100
AcDbEntity
  8
0
  6
Continuous
 62
     7
370
     0
100
AcDbLine
 10
-24.0
 20
51.00000000000679
 30
0.0
 11
-24.0
 21
50.00000000000679
 31
0.0
  0
LINE
  5
48C1
330
A
100
AcDbEntity
  8
0
  6
Continuous
 62
     7
370
     0
100
AcDbLine
 10
-24.0
 20
51.00000000000679
 30
0.0
 11
-23.0
 21
51.0000000000068
 31
0.0
  0
LINE
  5
48C2
330
A
100
AcDbEntity
  8
0
  6
Continuous
 62
     9
370
     0
100
AcDbLine
 10
17.0
 20
51.00000000000682
 30
0.0
 11
17.0
 21
50.00000000000681
 31
0.0
  0
LINE
  5
48C3
330
A
100
AcDbEntity
  8
0
  6
Continuous
 62
     7
370
     0
100
AcDbLine
 10
17.0
 20
51.00000000000682
 30
0.0
 11
23.0
 21
51.00000000000682
 31
0.0
  0
LINE
  5
48C4
330
A
100
AcDbEntity
  8
0
  6
Continuous
 62
     9
370
     0
100
AcDbLine
 10
23.0
 20
51.00000000000682
 30
0.0
 11
23.0
 21
50.00000000000682
 31
0.0
  0
LINE
  5
48C5
330
A
100
AcDbEntity
  8
0
  6
Continuous
 62
     7
370
     0
100
AcDbLine
 10
16.0
 20
51.00000000000682
 30
0.0
 11
15.0
 21
51.00000000000682
 31
0.0
  0
LINE
  5
48C6
330
A
100
AcDbEntity
  8
0
  6
Continuous
 62
     7
370
     0
100
AcDbLine
 10
-15.0
 20
51.0000000000068
 30
0.0
 11
-16.0
 21
51.0000000000068
 31
0.0
  0
LINE
  5
48C7
330
A
100
AcDbEntity
  8
0
  6
Continuous
 62
     7
370
     0
100
AcDbLine
 10
25.0
 20
50.00000000000682
 30
0.0
 11
25.0
 21
45.00000000000698
 31
0.0
  0
CIRCLE
  5
48C8
330
A
100
AcDbEntity
  8
0
  6
Continuous
 62
     7
370
     0
100
AcDbCircle
 10
0.0
 20
56.00000000000662
 30
0.0
 40
2.649999999999595
  0
LINE
  5
48C9
330
A
100
AcDbEntity
  8
0
  6
Continuous
 62
     7
370
     0
100
AcDbLine
 10
-15.0
 20
50.00000000000681
 30
0.0
 11
-25.0
 21
50.00000000000679
 31
0.0
  0
LINE
  5
48CA
330
A
100
AcDbEntity
  8
0
  6
Continuous
 62
     7
370
     0
100
AcDbLine
 10
25.0
 20
50.00000000000682
 30
0.0
 11
15.0
 21
50.00000000000681
 31
0.0
  0
LINE
  5
48CB
330
A
100
AcDbEntity
  8
0
  6
Continuous
 62
     7
370
     0
100
AcDbLine
 10
15.0
 20
50.00000000000681
 30
0.0
 11
15.0
 21
62.50000000000642
 31
0.0
  0
LINE
  5
48CC
330
A
100
AcDbEntity
  8
0
  6
Continuous
 62
     7
370
     0
100
AcDbLine
 10
-25.0
 20
50.00000000000679
 30
0.0
 11
-25.0
 21
45.00000000000696
 31
0.0
  0
LINE
  5
48CD
330
A
100
AcDbEntity
  8
0
  6
Continuous
 62
     7
370
     0
100
AcDbLine
 10
25.0
 20
45.00000000000698
 30
0.0
 11
-25.0
 21
45.00000000000696
 31
0.0
  0
LINE
  5
48CE
330
A
100
AcDbEntity
  8
0
  6
Continuous
 62
     7
370
     0
100
AcDbLine
 10
15.0
 20
62.50000000000642
 30
0.0
 11
-15.0
 21
62.50000000000641
 31
0.0
  0
LINE
  5
48CF
330
A
100
AcDbEntity
  8
0
  6
Continuous
 62
     7
370
     0
100
AcDbLine
 10
-15.0
 20
50.00000000000681
 30
0.0
 11
-15.0
 21
62.50000000000641
 31
0.0
  0
LINE
  5
48D0
330
A
100
AcDbEntity
  8
0
  6
Continuous
 62
     7
370
     0
100
AcDbLine
 10
-23.99999999999
 20
60.00000000000356
 30
0.0
 11
-23.99999999999
 21
59.0000000000068
 31
0.0
  0
LINE
  5
48D1
330
A
100
AcDbEntity
  8
0
  6
Continuous
 62
     7
370
     0
100
AcDbLine
 10
-23.99999999999
 20
59.0000000000068
 30
0.0
 11
-23.99999999999
 21
58.00000000000355
 31
0.0
  0
LINE
  5
48D2
330
A
100
AcDbEntity
  8
0
  6
Continuous
 62
     9
370
     0
100
AcDbLine
 10
-22.99999999999113
 20
60.00000000000356
 30
0.0
 11
-22.99999999999113
 21
59.0000000000068
 31
0.0
  0
LINE
  5
48D3
330
A
100
AcDbEntity
  8
0
  6
Continuous
 62
     9
370
     0
100
AcDbLine
 10
-22.99999999999113
 20
59.0000000000068
 30
0.0
 11
-22.99999999999113
 21
58.00000000000355
 31
0.0
  0
LINE
  5
48D4
330
A
100
AcDbEntity
  8
0
  6
Continuous
 62
     7
370
     0
100
AcDbLine
 10
-23.99999999999113
 20
58.00000000000355
 30
0.0
 11
-22.99999999999113
 21
58.00000000000355
 31
0.0
  0
LINE
  5
48D5
330
A
100
AcDbEntity
  8
0
  6
Continuous
 62
     9
370
     0
100
AcDbLine
 10
-16.99999999999295
 20
60.00000000000356
 30
0.0
 11
-16.99999999999295
 21
59.0000000000068
 31
0.0
  0
LINE
  5
48D6
330
A
100
AcDbEntity
  8
0
  6
Continuous
 62
     9
370
     0
100
AcDbLine
 10
-16.99999999999295
 20
59.0000000000068
 30
0.0
 11
-16.99999999999295
 21
58.00000000000355
 31
0.0
  0
LINE
  5
48D7
330
A
100
AcDbEntity
  8
0
  6
Continuous
 62
     7
370
     0
100
AcDbLine
 10
-15.99999999999295
 20
60.00000000000356
 30
0.0
 11
-15.99999999999295
 21
59.0000000000068
 31
0.0
  0
LINE
  5
48D8
330
A
100
AcDbEntity
  8
0
  6
Continuous
 62
     7
370
     0
100
AcDbLine
 10
-15.99999999999295
 20
59.0000000000068
 30
0.0
 11
-15.99999999999295
 21
58.00000000000355
 31
0.0
  0
LINE
  5
48D9
330
A
100
AcDbEntity
  8
0
  6
Continuous
 62
     7
370
     0
100
AcDbLine
 10
-16.99999999999295
 20
58.00000000000355
 30
0.0
 11
-15.99999999999295
 21
58.00000000000355
 31
0.0
  0
LINE
  5
48DA
330
A
100
AcDbEntity
  8
0
  6
Continuous
 62
     7
370
     0
100
AcDbLine
 10
-22.99999999999113
 20
58.00000000000355
 30
0.0
 11
-16.99999999999295
 21
58.00000000000355
 31
0.0
  0
LINE
  5
48DB
330
A
100
AcDbEntity
  8
0
  6
Continuous
 62
     7
370
     0
100
AcDbLine
 10
15.99999999999295
 20
60.00000000000357
 30
0.0
 11
15.99999999999295
 21
59.0000000000068
 31
0.0
  0
LINE
  5
48DC
330
A
100
AcDbEntity
  8
0
  6
Continuous
 62
     7
370
     0
100
AcDbLine
 10
15.99999999999295
 20
59.0000000000068
 30
0.0
 11
15.99999999999295
 21
58.00000000000355
 31
0.0
  0
LINE
  5
48DD
330
A
100
AcDbEntity
  8
0
  6
Continuous
 62
     9
370
     0
100
AcDbLine
 10
16.99999999999295
 20
60.00000000000357
 30
0.0
 11
16.99999999999295
 21
59.0000000000068
 31
0.0
  0
LINE
  5
48DE
330
A
100
AcDbEntity
  8
0
  6
Continuous
 62
     9
370
     0
100
AcDbLine
 10
16.99999999999295
 20
59.0000000000068
 30
0.0
 11
16.99999999999295
 21
58.00000000000355
 31
0.0
  0
LINE
  5
48DF
330
A
100
AcDbEntity
  8
0
  6
Continuous
 62
     7
370
     0
100
AcDbLine
 10
15.99999999999295
 20
58.00000000000355
 30
0.0
 11
16.99999999999295
 21
58.00000000000355
 31
0.0
  0
LINE
  5
48E0
330
A
100
AcDbEntity
  8
0
  6
Continuous
 62
     9
370
     0
100
AcDbLine
 10
22.99999999999
 20
60.00000000000357
 30
0.0
 11
22.99999999999
 21
59.00000000000682
 31
0.0
  0
LINE
  5
48E1
330
A
100
AcDbEntity
  8
0
  6
Continuous
 62
     9
370
     0
100
AcDbLine
 10
22.99999999999
 20
59.00000000000682
 30
0.0
 11
22.99999999999
 21
58.00000000000356
 31
0.0
  0
LINE
  5
48E2
330
A
100
AcDbEntity
  8
0
  6
Continuous
 62
     7
370
     0
100
AcDbLine
 10
23.99999999999
 20
60.00000000000357
 30
0.0
 11
23.99999999999
 21
59.00000000000682
 31
0.0
  0
LINE
  5
48E3
330
A
100
AcDbEntity
  8
0
  6
Continuous
 62
     7
370
     0
100
AcDbLine
 10
23.99999999999
 20
59.00000000000682
 30
0.0
 11
23.99999999999
 21
58.00000000000356
 31
0.0
  0
LINE
  5
48E4
330
A
100
AcDbEntity
  8
0
  6
Continuous
 62
     7
370
     0
100
AcDbLine
 10
22.99999999999
 20
58.00000000000356
 30
0.0
 11
23.99999999999113
 21
58.00000000000356
 31
0.0
  0
LINE
  5
48E5
330
A
100
AcDbEntity
  8
0
  6
Continuous
 62
     7
370
     0
100
AcDbLine
 10
16.99999999999295
 20
58.00000000000355
 30
0.0
 11
22.99999999999
 21
58.00000000000356
 31
0.0
  0
LINE
  5
48E6
330
A
100
AcDbEntity
  8
0
  6
Continuous
 62
     7
370
     0
100
AcDbLine
 10
15.25
 20
60.00000000000357
 30
0.0
 11
14.99999999999386
 21
60.00000000000357
 31
0.0
  0
LINE
  5
48E7
330
A
100
AcDbEntity
  8
0
  6
Continuous
 62
     7
370
     0
100
AcDbLine
 10
15.99999999999386
 20
58.00000000000355
 30
0.0
 11
14.99999999999386
 21
58.00000000000355
 31
0.0
  0
LINE
  5
48E8
330
A
100
AcDbEntity
  8
0
  6
Continuous
 62
     7
370
     0
100
AcDbLine
 10
-14.99999999999386
 20
60.00000000000356
 30
0.0
 11
-15.25
 21
60.00000000000356
 31
0.0
  0
LINE
  5
48E9
330
A
100
AcDbEntity
  8
0
  6
Continuous
 62
     7
370
     0
100
AcDbLine
 10
-14.99999999999386
 20
58.00000000000355
 30
0.0
 11
-15.99999999999386
 21
58.00000000000355
 31
0.0
  0
LINE
  5
48EA
330
A
100
AcDbEntity
  8
0
  6
Continuous
 62
     7
370
     0
100
AcDbLine
 10
-1.738533865086083
 20
58.00000000000355
 30
0.0
 11
1.738533865061071
 21
58.00000000000355
 31
0.0
  0
LINE
  5
48EB
330
A
100
AcDbEntity
  8
0
  6
Continuous
 62
     9
370
     0
100
AcDbLine
 10
16.99999999999295
 20
50.00000000000689
 30
0.0
 11
16.99999999999295
 21
51.00000000000592
 31
0.0
  0
LINE
  5
48EC
330
A
100
AcDbEntity
  8
0
  6
Continuous
 62
     9
370
     0
100
AcDbLine
 10
16.99999999999295
 20
51.00000000000592
 30
0.0
 11
16.99999999999295
 21
52.00000000000601
 31
0.0
  0
LINE
  5
48ED
330
A
100
AcDbEntity
  8
0
  6
Continuous
 62
     7
370
     0
100
AcDbLine
 10
15.99999999999295
 20
50.00000000000689
 30
0.0
 11
15.99999999999295
 21
51.00000000000592
 31
0.0
  0
LINE
  5
48EE
330
A
100
AcDbEntity
  8
0
  6
Continuous
 62
     7
370
     0
100
AcDbLine
 10
15.99999999999295
 20
51.00000000000592
 30
0.0
 11
15.99999999999295
 21
52.00000000000601
 31
0.0
  0
LINE
  5
48EF
330
A
100
AcDbEntity
  8
0
  6
Continuous
 62
     7
370
     0
100
AcDbLine
 10
16.99999999999295
 20
52.00000000000601
 30
0.0
 11
15.99999999999386
 21
52.00000000000601
 31
0.0
  0
LINE
  5
48F0
330
A
100
AcDbEntity
  8
0
  6
Continuous
 62
     7
370
     0
100
AcDbLine
 10
-16.99999999999295
 20
52.00000000000599
 30
0.0
 11
-22.99999999999113
 21
52.00000000000599
 31
0.0
  0
LINE
  5
48F1
330
A
100
AcDbEntity
  8
0
  6
Continuous
 62
     7
370
     0
100
AcDbLine
 10
22.99999999999
 20
52.00000000000601
 30
0.0
 11
16.99999999999295
 21
52.00000000000601
 31
0.0
  0
LINE
  5
48F2
330
A
100
AcDbEntity
  8
0
  6
Continuous
 62
     7
370
     0
100
AcDbLine
 10
-15.99999999999295
 20
50.00000000000689
 30
0.0
 11
-15.99999999999295
 21
51.00000000000592
 31
0.0
  0
LINE
  5
48F3
330
A
100
AcDbEntity
  8
0
  6
Continuous
 62
     7
370
     0
100
AcDbLine
 10
-15.99999999999295
 20
51.00000000000592
 30
0.0
 11
-15.99999999999295
 21
52.00000000000599
 31
0.0
  0
LINE
  5
48F4
330
A
100
AcDbEntity
  8
0
  6
Continuous
 62
     9
370
     0
100
AcDbLine
 10
-16.99999999999295
 20
50.00000000000689
 30
0.0
 11
-16.99999999999295
 21
51.0000000000068
 31
0.0
  0
LINE
  5
48F5
330
A
100
AcDbEntity
  8
0
  6
Continuous
 62
     9
370
     0
100
AcDbLine
 10
-16.99999999999295
 20
51.0000000000068
 30
0.0
 11
-16.99999999999295
 21
52.00000000000599
 31
0.0
  0
LINE
  5
48F6
330
A
100
AcDbEntity
  8
0
  6
Continuous
 62
     7
370
     0
100
AcDbLine
 10
-15.99999999999386
 20
52.00000000000599
 30
0.0
 11
-16.99999999999295
 21
52.00000000000599
 31
0.0
  0
LINE
  5
48F7
330
A
100
AcDbEntity
  8
0
  6
Continuous
 62
     7
370
     0
100
AcDbLine
 10
23.99999999999
 20
50.0000000000069
 30
0.0
 11
23.99999999999
 21
51.00000000000592
 31
0.0
  0
LINE
  5
48F8
330
A
100
AcDbEntity
  8
0
  6
Continuous
 62
     7
370
     0
100
AcDbLine
 10
23.99999999999
 20
51.00000000000592
 30
0.0
 11
23.99999999999
 21
52.00000000000601
 31
0.0
  0
LINE
  5
48F9
330
A
100
AcDbEntity
  8
0
  6
Continuous
 62
     9
370
     0
100
AcDbLine
 10
22.99999999999
 20
50.0000000000069
 30
0.0
 11
22.99999999999
 21
51.00000000000592
 31
0.0
  0
LINE
  5
48FA
330
A
100
AcDbEntity
  8
0
  6
Continuous
 62
     9
370
     0
100
AcDbLine
 10
22.99999999999
 20
51.00000000000592
 30
0.0
 11
22.99999999999
 21
52.00000000000601
 31
0.0
  0
LINE
  5
48FB
330
A
100
AcDbEntity
  8
0
  6
Continuous
 62
     7
370
     0
100
AcDbLine
 10
23.99999999999
 20
52.00000000000601
 30
0.0
 11
22.99999999999
 21
52.00000000000601
 31
0.0
  0
LINE
  5
48FC
330
A
100
AcDbEntity
  8
0
  6
Continuous
 62
     9
370
     0
100
AcDbLine
 10
-22.99999999999113
 20
50.00000000000689
 30
0.0
 11
-22.99999999999113
 21
51.00000000000592
 31
0.0
  0
LINE
  5
48FD
330
A
100
AcDbEntity
  8
0
  6
Continuous
 62
     9
370
     0
100
AcDbLine
 10
-22.99999999999113
 20
51.00000000000592
 30
0.0
 11
-22.99999999999113
 21
52.00000000000599
 31
0.0
  0
LINE
  5
48FE
330
A
100
AcDbEntity
  8
0
  6
Continuous
 62
     7
370
     0
100
AcDbLine
 10
-23.99999999999
 20
50.00000000000688
 30
0.0
 11
-23.99999999999
 21
51.00000000000592
 31
0.0
  0
LINE
  5
48FF
330
A
100
AcDbEntity
  8
0
  6
Continuous
 62
     7
370
     0
100
AcDbLine
 10
-23.99999999999
 20
51.00000000000592
 30
0.0
 11
-23.99999999999
 21
52.00000000000599
 31
0.0
  0
LINE
  5
4900
330
A
100
AcDbEntity
  8
0
  6
Continuous
 62
     7
370
     0
100
AcDbLine
 10
-22.99999999999113
 20
52.00000000000599
 30
0.0
 11
-23.99999999999
 21
52.00000000000599
 31
0.0
  0
LINE
  5
4901
330
A
100
AcDbEntity
  8
0
  6
Continuous
 62
     7
370
     0
100
AcDbLine
 10
14.99999999999386
 20
52.00000000000601
 30
0.0
 11
15.99999999999295
 21
52.00000000000601
 31
0.0
  0
LINE
  5
4902
330
A
100
AcDbEntity
  8
0
  6
Continuous
 62
     7
370
     0
100
AcDbLine
 10
-15.99999999999204
 20
52.00000000000599
 30
0.0
 11
-14.99999999999386
 21
52.00000000000599
 31
0.0
  0
LINE
  5
4903
330
A
100
AcDbEntity
  8
0
  6
Continuous
 62
     7
370
     0
100
AcDbLine
 10
-25.0
 20
65.00000000000681
 30
0.0
 11
-25.0
 21
60.00000000000681
 31
0.0
  0
LINE
  5
4904
330
A
100
AcDbEntity
  8
0
  6
Continuous
 62
     7
370
     0
100
AcDbLine
 10
-25.0
 20
65.00000000000681
 30
0.0
 11
25.0
 21
65.00000000000682
 31
0.0
  0
LINE
  5
4905
330
A
100
AcDbEntity
  8
0
  6
Continuous
 62
     7
370
     0
100
AcDbLine
 10
25.0
 20
65.00000000000682
 30
0.0
 11
25.0
 21
60.00000000000683
 31
0.0
  0
LINE
  5
4906
330
A
100
AcDbEntity
  8
0
  6
Continuous
 62
     7
370
     0
100
AcDbLine
 10
15.25
 20
60.00000000000682
 30
0.0
 11
25.0
 21
60.00000000000683
 31
0.0
  0
LINE
  5
4907
330
A
100
AcDbEntity
  8
0
  6
Continuous
 62
     7
370
     0
100
AcDbLine
 10
15.25
 20
60.00000000000682
 30
0.0
 11
15.25
 21
62.70000000000681
 31
0.0
  0
LINE
  5
4908
330
A
100
AcDbEntity
  8
0
  6
Continuous
 62
     7
370
     0
100
AcDbLine
 10
-15.25
 20
62.70000000000681
 30
0.0
 11
15.25
 21
62.70000000000681
 31
0.0
  0
LINE
  5
4909
330
A
100
AcDbEntity
  8
0
  6
Continuous
 62
     7
370
     0
100
AcDbLine
 10
-15.25
 20
60.00000000000681
 30
0.0
 11
-15.25
 21
62.70000000000681
 31
0.0
  0
LINE
  5
490A
330
A
100
AcDbEntity
  8
0
  6
Continuous
 62
     7
370
     0
100
AcDbLine
 10
-25.0
 20
60.00000000000681
 30
0.0
 11
-15.25
 21
60.00000000000681
 31
0.0
  0
LINE
  5
490B
330
A
100
AcDbEntity
  8
0
  6
Continuous
 62
     7
370
     0
100
AcDbLine
 10
-10.25
 20
62.50000000000641
 30
0.0
 11
-10.25
 21
62.70000000000681
 31
0.0
  0
LINE
  5
490C
330
A
100
AcDbEntity
  8
0
  6
Continuous
 62
     7
370
     0
100
AcDbLine
 10
10.25
 20
62.50000000000642
 30
0.0
 11
10.25
 21
62.70000000000681
 31
0.0
  0
LINE
  5
490D
330
A
100
AcDbEntity
  8
0
  6
Continuous
 62
     7
370
     0
100
AcDbLine
 10
-25.0
 20
15.00000000000043
 30
0.0
 11
-25.0
 21
-29.99999999999955
 31
0.0
  0
ARC
  5
490E
330
A
100
AcDbEntity
  8
0
  6
Continuous
 62
     7
370
     0
100
AcDbCircle
 10
-20.0
 20
15.00000000000043
 30
0.0
 40
5.000000000000004
100
AcDbArc
 50
90.0
 51
179.9999999999996
  0
LINE
  5
490F
330
A
100
AcDbEntity
  8
0
  6
Continuous
 62
     7
370
     0
100
AcDbLine
 10
20.0
 20
20.00000000000044
 30
0.0
 11
-20.0
 21
20.00000000000044
 31
0.0
  0
ARC
  5
4910
330
A
100
AcDbEntity
  8
0
  6
Continuous
 62
     7
370
     0
100
AcDbCircle
 10
20.0
 20
15.00000000000043
 30
0.0
 40
5.000000000000115
100
AcDbArc
 50
0.0
 51
90.0
  0
LINE
  5
4911
330
A
100
AcDbEntity
  8
0
  6
Continuous
 62
     7
370
     0
100
AcDbLine
 10
25.0
 20
-29.99999999999955
 30
0.0
 11
25.0
 21
15.00000000000042
 31
0.0
  0
LINE
  5
4912
330
A
100
AcDbEntity
  8
0
  6
Continuous
 62
     7
370
     0
100
AcDbLine
 10
-25.0
 20
-29.99999999999956
 30
0.0
 11
25.0
 21
-29.99999999999955
 31
0.0
  0
TEXT
  5
618E
330
A
100
AcDbEntity
  8
0
  6
Continuous
 62
     7
370
     0
100
AcDbText
 10
39.78605216160099
 20
48.50732064422193
 30
0.0
 40
10.0
  1
4502
100
AcDbText
  0
ARC
  5
6394
330
A
100
AcDbEntity
  8
0
  6
CENTER
 62
     1
100
AcDbCircle
 10
0.0
 20
-0.0000000000000142
 30
0.0
 40
7.5
100
AcDbArc
 50
17.78547901411245
 51
162.2145209858875
  0
LINE
  5
6395
330
A
100
AcDbEntity
  8
0
  6
CENTER
 62
     1
100
AcDbLine
 10
-17.5
 20
-29.99999999999956
 30
0.0
 11
-7.141551279598616
 21
2.290904913099254
 31
0.0
  0
LINE
  5
6396
330
A
100
AcDbEntity
  8
0
  6
CENTER
 62
     1
100
AcDbLine
 10
17.5
 20
-29.99999999999956
 30
0.0
 11
7.141551279598616
 21
2.290904913099254
 31
0.0
  0
ENDSEC
  0
SECTION
  2
OBJECTS
  0
DICTIONARY
  5
19
330
0
100
AcDbDictionary
281
     1
  3
ACAD_COLOR
350
3176
  3
ACAD_GROUP
350
1A
  3
ACAD_LAYOUT
350
1E
  3
ACAD_MATERIAL
350
314C
  3
ACAD_MLEADERSTYLE
350
319B
  3
ACAD_MLINESTYLE
350
1B
  3
ACAD_PLOTSETTINGS
350
22
  3
ACAD_PLOTSTYLENAME
350
1F
  3
ACAD_SCALELIST
350
3179
  3
ACAD_TABLESTYLE
350
3177
  3
ACAD_VISUALSTYLE
350
3165
  3
ACAD_WIPEOUT_VARS
350
23
  3
ACDB_RECOMPOSE_DATA
350
630A
  3
AcDbVariableDictionary
350
630B
  3
ASE_INDEX_DICTIONARY
350
5E44
  3
DWGPROPS
350
63AE
  0
DICTIONARY
  5
5E41
330
14
100
AcDbDictionary
280
     1
281
     1
  3
ADSK_XREC_LAYER_RECONCILED
360
5E42
  0
DICTIONARY
  5
31A7
330
A
100
AcDbDictionary
280
     1
281
     1
  3
ACAD_SORTENTS
360
31A8
  0
DICTIONARY
  5
3176
102
{ACAD_REACTORS
330
19
102
}
330
19
100
AcDbDictionary
281
     1
  0
DICTIONARY
  5
1A
102
{ACAD_REACTORS
330
19
102
}
330
19
100
AcDbDictionary
281
     1
  0
DICTIONARY
  5
1E
102
{ACAD_REACTORS
330
19
102
}
330
19
100
AcDbDictionary
281
     1
  3
Layout1
350
21
  3
Model
350
20
  0
DICTIONARY
  5
314C
102
{ACAD_REACTORS
330
19
102
}
330
19
100
AcDbDictionary
281
     1
  3
ByBlock
350
3155
  3
ByLayer
350
314D
  3
Global
350
315D
  0
DICTIONARY
  5
319B
102
{ACAD_REACTORS
330
19
102
}
330
19
100
AcDbDictionary
281
     1
  3
Standard
350
319C
  0
DICTIONARY
  5
1B
102
{ACAD_REACTORS
330
19
102
}
330
19
100
AcDbDictionary
281
     1
  3
Standard
350
1C
  0
DICTIONARY
  5
22
102
{ACAD_REACTORS
330
19
102
}
330
19
100
AcDbDictionary
281
     1
  0
ACDBDICTIONARYWDFLT
  5
1F
102
{ACAD_REACTORS
330
19
102
}
330
19
100
AcDbDictionary
281
     1
  3
Normal
350
1D
100
AcDbDictionaryWithDefault
340
1D
  0
DICTIONARY
  5
3179
102
{ACAD_REACTORS
330
19
102
}
330
19
100
AcDbDictionary
281
     1
  3
A0
350
317A
  3
A1
350
317B
  3
A2
350
317C
  3
A3
350
317D
  3
A4
350
317E
  3
A5
350
317F
  3
A6
350
3180
  3
A7
350
3181
  3
A8
350
3182
  3
A9
350
3183
  3
B0
350
3184
  3
B1
350
3185
  3
B2
350
3186
  3
B3
350
3187
  3
B4
350
3188
  3
B5
350
3189
  3
B6
350
318A
  3
B7
350
318B
  3
B8
350
318C
  3
B9
350
318D
  3
C0
350
318E
  3
C1
350
318F
  3
C2
350
3190
  3
C3
350
3191
  3
C4
350
3192
  3
C5
350
3193
  3
C6
350
3194
  3
C7
350
3195
  3
C8
350
3196
  3
C9
350
3197
  3
D0
350
3198
  3
D1
350
3199
  3
D2
350
319A
  0
DICTIONARY
  5
3177
102
{ACAD_REACTORS
330
19
102
}
330
19
100
AcDbDictionary
281
     1
  3
Standard
350
3178
  0
DICTIONARY
  5
3165
102
{ACAD_REACTORS
330
19
102
}
330
19
100
AcDbDictionary
281
     1
  3
2dWireframe
350
316B
  3
3D Hidden
350
316D
  3
3dWireframe
350
316C
  3
Basic
350
316A
  3
Brighten
350
3171
  3
ColorChange
350
3175
  3
Conceptual
350
316E
  3
Dim
350
3170
  3
Facepattern
350
3174
  3
Flat
350
3166
  3
FlatWithEdges
350
3167
  3
Gouraud
350
3168
  3
GouraudWithEdges
350
3169
  3
Linepattern
350
3173
  3
Realistic
350
316F
  3
Thicken
350
3172
  0
WIPEOUTVARIABLES
  5
23
330
19
100
AcDbWipeoutVariables
 70
     1
  0
XRECORD
  5
630A
102
{ACAD_REACTORS
330
19
102
}
330
19
100
AcDbXrecord
280
     1
 90
        1
330
3178
  0
DICTIONARY
  5
630B
102
{ACAD_REACTORS
330
19
102
}
330
19
100
AcDbDictionary
281
     1
  3
CANNOSCALE
350
630F
  3
CMLEADERSTYLE
350
630D
  3
CTABLESTYLE
350
630C
  3
DIMASSOC
350
6318
  3
INDEXCTL
350
6317
  3
LIGHTINGUNITS
350
6310
  3
MSLTSCALE
350
630E
  3
SORTENTS
350
6316
  0
DICTIONARY
  5
5E44
102
{ACAD_REACTORS
330
19
102
}
330
19
100
AcDbDictionary
281
     1
  3
ASEBlockHierarchyIndexRecord
350
5E46
1001
DCO15
1040
1685075681.336
  0
XRECORD
  5
63AE
102
{ACAD_REACTORS
330
19
102
}
330
19
100
AcDbXrecord
280
     1
  1
DWGPROPS COOKIE
  2

  3

  4

  6

  7

  8
renzo.ceresoli
  9

300
=
301
=
302
=
303
=
304
=
305
=
306
=
307
=
308
=
309
=
 40
0.0028047800925926
 41
2455303.727916667
 42
2455306.436865428
  1

 90
        0
  0
XRECORD
  5
5E42
102
{ACAD_REACTORS
330
5E41
102
}
330
5E41
100
AcDbXrecord
280
     1
290
     1
  0
SORTENTSTABLE
  5
31A8
102
{ACAD_REACTORS
330
31A7
102
}
330
31A7
100
AcDbSortentsTable
330
A
331
4814
  5
494A
331
482F
  5
4965
331
484A
  5
490E
331
48C7
  5
4881
331
48E2
  5
489C
331
487E
  5
48D6
331
4891
  5
48E9
331
48AC
  5
4866
331
4863
  5
4927
331
1906
  5
49C0
331
490E
  5
485A
331
47B5
  5
4974
331
47D0
  5
498F
331
47CE
  5
498D
331
47E9
  5
49A8
331
4804
  5
493A
331
4812
  5
4948
331
482D
  5
4963
331
4848
  5
490C
331
48C5
  5
487F
331
48E0
  5
489A
331
487C
  5
48D4
331
488F
  5
48E7
331
48AA
  5
4864
331
4846
  5
490A
331
4861
  5
4925
331
1904
  5
49BC
331
48DE
  5
4898
331
490C
  5
48C6
331
47B3
  5
4972
331
47CC
  5
498B
331
47E7
  5
49A6
331
4802
  5
4938
331
482B
  5
4961
331
4810
  5
4946
331
48C3
  5
487D
331
487A
  5
48D2
331
488D
  5
48E5
331
4844
  5
4908
331
485F
  5
4923
331
48A8
  5
4862
331
48DC
  5
4896
331
48F7
  5
48B1
331
490A
  5
48C4
331
47B1
  5
4970
331
47CA
  5
4989
331
47E5
  5
49A4
331
4800
  5
4936
331
4829
  5
495F
331
480E
  5
4944
331
48C1
  5
487B
331
4878
  5
48D0
331
488B
  5
48E3
331
4827
  5
495D
331
4842
  5
4906
331
485D
  5
4921
331
48A6
  5
4860
331
48DA
  5
4894
331
48F5
  5
48AF
331
4908
  5
48C2
331
48BF
  5
4879
331
47C8
  5
4987
331
47E3
  5
49A2
331
47FE
  5
4934
331
480C
  5
4942
331
4889
  5
48E1
331
48A4
  5
48FC
331
4825
  5
495B
331
4840
  5
4904
331
485B
  5
491F
331
4876
  5
48CE
331
48D8
  5
4892
331
48F3
  5
48AD
331
48BD
  5
4877
331
4906
  5
48C0
331
47C6
  5
4985
331
47E1
  5
49A0
331
47FC
  5
49BB
331
480A
  5
4940
331
4887
  5
48DF
331
48A2
  5
48FA
331
4823
  5
4959
331
483E
  5
4902
331
4859
  5
491D
331
4874
  5
48CC
331
48D6
  5
4890
331
48F1
  5
48AB
331
48BB
  5
4875
331
4904
  5
48BE
331
47C4
  5
4983
331
47DF
  5
499E
331
47FA
  5
49B9
331
4808
  5
493E
331
4885
  5
48DD
331
48A0
  5
48F8
331
483C
  5
4900
331
4857
  5
491B
331
4872
  5
48CA
331
4821
  5
4957
331
48EF
  5
48A9
331
4902
  5
48BC
331
489E
  5
48F6
331
48B9
  5
4873
331
48D4
  5
488E
331
47C2
  5
4981
331
47DD
  5
499C
331
47F8
  5
49B7
331
4883
  5
48DB
331
483A
  5
48FE
331
4855
  5
4919
331
4870
  5
48C8
331
481F
  5
4955
331
48ED
  5
48A7
331
4900
  5
48BA
331
489C
  5
48F4
331
48B7
  5
4871
331
48D2
  5
488C
331
47DB
  5
499A
331
47F6
  5
49B5
331
47C0
  5
497F
331
4881
  5
48D9
331
4838
  5
496E
331
4853
  5
4917
331
486E
  5
4932
331
481D
  5
4953
331
48EB
  5
48A5
331
48FE
  5
48B8
331
489A
  5
48F2
331
48B5
  5
486F
331
48D0
  5
488A
331
47D9
  5
4998
331
47F4
  5
49B3
331
47BE
  5
497D
331
4836
  5
496C
331
4851
  5
4915
331
481B
  5
4951
331
486C
  5
4930
331
48E9
  5
48A3
331
48FC
  5
48B6
331
4898
  5
48F0
331
48B3
  5
486D
331
48CE
  5
4888
331
47D7
  5
4996
331
47F2
  5
49B1
331
47BC
  5
497B
331
4834
  5
496A
331
484F
  5
4913
331
4819
  5
494F
331
486A
  5
492E
331
48E7
  5
48A1
331
48FA
  5
48B4
331
4896
  5
48EE
331
48B1
  5
486B
331
48CC
  5
4886
331
47D5
  5
4994
331
47F0
  5
49AF
331
47BA
  5
4979
331
47EE
  5
49AD
331
484D
  5
4911
331
4868
  5
492C
331
4817
  5
494D
331
4832
  5
4968
331
48F8
  5
48B2
331
4894
  5
48EC
331
48AF
  5
4869
331
4866
  5
492A
331
48CA
  5
4884
331
48E5
  5
489F
331
1909
  5
618E
331
4911
  5
485D
331
47D3
  5
4992
331
47B8
  5
4977
331
47EC
  5
49AB
331
4807
  5
493D
331
484B
  5
490F
331
4815
  5
494B
331
4830
  5
4966
331
48E3
  5
489D
331
4892
  5
48EA
331
48AD
  5
4867
331
4864
  5
4928
331
487F
  5
48D7
331
48C8
  5
4882
331
1907
  5
49C1
331
490F
  5
485B
331
47B6
  5
4975
331
47D1
  5
4990
331
47EA
  5
49A9
331
4805
  5
493B
331
47CF
  5
498E
331
4849
  5
490D
331
4813
  5
4949
331
482E
  5
4964
331
48E1
  5
489B
331
4890
  5
48E8
331
48AB
  5
4865
331
48C6
  5
4880
331
4847
  5
490B
331
4862
  5
4926
331
487D
  5
48D5
331
1905
  5
49BD
331
48DF
  5
4899
331
490D
  5
4859
331
47B4
  5
4973
331
47E8
  5
49A7
331
4803
  5
4939
331
47CD
  5
498C
331
482C
  5
4962
331
4811
  5
4947
331
488E
  5
48E6
331
48A9
  5
4863
331
48C4
  5
487E
331
4845
  5
4909
331
4860
  5
4924
331
487B
  5
48D3
331
48DD
  5
4897
331
490B
  5
48C5
331
47B2
  5
4971
331
47E6
  5
49A5
331
4801
  5
4937
331
47CB
  5
498A
331
482A
  5
4960
331
480F
  5
4945
331
488C
  5
48E4
331
48A7
  5
4861
331
48C2
  5
487C
331
485E
  5
4922
331
4879
  5
48D1
331
4843
  5
4907
331
4909
  5
48C3
331
48DB
  5
4895
331
48F6
  5
48B0
331
47B0
  5
496F
331
47E4
  5
49A3
331
47FF
  5
4935
331
47C9
  5
4988
331
480D
  5
4943
331
4828
  5
495E
331
48A5
  5
485F
331
48C0
  5
487A
331
485C
  5
4920
331
4877
  5
48CF
331
488A
  5
48E2
331
4826
  5
495C
331
4841
  5
4905
331
4907
  5
48C1
331
48BE
  5
4878
331
48D9
  5
4893
331
48F4
  5
48AE
331
47FD
  5
4933
331
47C7
  5
4986
331
47E2
  5
49A1
331
480B
  5
4941
331
48A3
  5
48FB
331
485A
  5
491E
331
4875
  5
48CD
331
4888
  5
48E0
331
4824
  5
495A
331
483F
  5
4903
331
4905
  5
48BF
331
48BC
  5
4876
331
48D7
  5
4891
331
48F2
  5
48AC
331
47FB
  5
49BA
331
47C5
  5
4984
331
47E0
  5
499F
331
4809
  5
493F
331
48A1
  5
48F9
331
4858
  5
491C
331
4873
  5
48CB
331
4822
  5
4958
331
483D
  5
4901
331
4886
  5
48DE
331
4903
  5
48BD
331
48BA
  5
4874
331
48D5
  5
488F
331
48F0
  5
48AA
331
489F
  5
48F7
331
47F9
  5
49B8
331
47C3
  5
4982
331
47DE
  5
499D
331
4856
  5
491A
331
4871
  5
48C9
331
4820
  5
4956
331
483B
  5
48FF
331
4884
  5
48DC
331
4901
  5
48BB
331
48B8
  5
4872
331
48D3
  5
488D
331
48EE
  5
48A8
331
489D
  5
48F5
331
47F7
  5
49B6
331
47C1
  5
4980
331
47DC
  5
499B
331
618E
  5
636A
331
486F
  5
48C7
331
4882
  5
48DA
331
481E
  5
4954
331
4839
  5
48FD
331
4854
  5
4918
331
48FF
  5
48B9
331
48B6
  5
4870
331
48D1
  5
488B
331
489B
  5
48F3
331
48EC
  5
48A6
331
47F5
  5
49B4
331
47BF
  5
497E
331
47DA
  5
4999
331
486D
  5
4931
331
4880
  5
48D8
331
481C
  5
4952
331
4837
  5
496D
331
4852
  5
4916
331
48FD
  5
48B7
331
48B4
  5
486E
331
48CF
  5
4889
331
4899
  5
48F1
331
48EA
  5
48A4
331
47BD
  5
497C
331
47D8
  5
4997
331
47F3
  5
49B2
331
486B
  5
492F
331
481A
  5
4950
331
4835
  5
496B
331
4850
  5
4914
331
48FB
  5
48B5
331
48CD
  5
4887
331
48E8
  5
48A2
331
4897
  5
48EF
331
48B2
  5
486C
331
47BB
  5
497A
331
47D6
  5
4995
331
47F1
  5
49B0
331
47EF
  5
49AE
331
4869
  5
492D
331
4818
  5
494E
331
4833
  5
4969
331
484E
  5
4912
331
48F9
  5
48B3
331
48CB
  5
4885
331
48E6
  5
48A0
331
4867
  5
492B
331
4895
  5
48ED
331
48B0
  5
486A
331
190A
  5
6369
331
4912
  5
485E
331
47B9
  5
4978
331
47D4
  5
4993
331
47ED
  5
49AC
331
484C
  5
4910
331
4816
  5
494C
331
4831
  5
4967
331
48C9
  5
4883
331
48E4
  5
489E
331
4865
  5
4929
331
4893
  5
48EB
331
48AE
  5
4868
331
1908
  5
49C2
331
4910
  5
485C
331
47B7
  5
4976
331
47D2
  5
4991
331
4806
  5
493C
331
47EB
  5
49AA
  0
LAYOUT
  5
21
102
{ACAD_XDICTIONARY
360
63B1
102
}
102
{ACAD_REACTORS
330
1E
102
}
330
1E
100
AcDbPlotSettings
  1

  2

  4

  6

 40
0.0
 41
0.0
 42
0.0
 43
0.0
 44
0.0
 45
0.0
 46
0.0
 47
0.0
 48
0.0
 49
0.0
140
0.0
141
0.0
142
1.0
143
1.0
 70
     0
 72
     0
 73
     0
 74
     0
  7

 75
     0
147
1.0
148
0.0
149
0.0
100
AcDbLayout
  1
Layout1
 70
     0
 71
     1
 10
0.0
 20
0.0
 11
12.0
 21
9.0
 12
0.0
 22
0.0
 32
0.0
 14
1.000000000000000E+20
 24
1.000000000000000E+20
 34
1.000000000000000E+20
 15
-1.000000000000000E+20
 25
-1.000000000000000E+20
 35
-1.000000000000000E+20
146
0.0
 13
0.0
 23
0.0
 33
0.0
 16
1.0
 26
0.0
 36
0.0
 17
0.0
 27
1.0
 37
0.0
 76
     0
330
B
  0
LAYOUT
  5
20
102
{ACAD_XDICTIONARY
360
63AF
102
}
102
{ACAD_REACTORS
330
1E
102
}
330
1E
100
AcDbPlotSettings
  1

  2

  4

  6

 40
0.0
 41
0.0
 42
0.0
 43
0.0
 44
0.0
 45
0.0
 46
0.0
 47
0.0
 48
0.0
 49
0.0
140
0.0
141
0.0
142
1.0
143
1.0
 70
  1024
 72
     0
 73
     0
 74
     0
  7

 75
     0
147
1.0
148
0.0
149
0.0
100
AcDbLayout
  1
Model
 70
     0
 71
     0
 10
0.0
 20
0.0
 11
0.0
 21
0.0
 12
0.0
 22
0.0
 32
0.0
 14
0.0
 24
0.0
 34
0.0
 15
0.0
 25
0.0
 35
0.0
146
0.0
 13
0.0
 23
0.0
 33
0.0
 16
0.0
 26
0.0
 36
0.0
 17
0.0
 27
0.0
 37
0.0
 76
     0
330
A
331
15
  0
MATERIAL
  5
3155
102
{ACAD_XDICTIONARY
360
3156
102
}
102
{ACAD_REACTORS
330
314C
102
}
330
314C
100
AcDbMaterial
  1
ByBlock
 72
     0
 43
0.0208333333333333
 43
0.0
 43
0.0
 43
0.0
 43
0.0
 43
0.0208333333333333
 43
0.0
 43
0.0
 43
0.0
 43
0.0
 43
1.0
 43
0.0
 43
0.0
 43
0.0
 43
0.0
 43
1.0
 77
     0
 47
0.0208333333333333
 47
0.0
 47
0.0
 47
0.0
 47
0.0
 47
0.0208333333333333
 47
0.0
 47
0.0
 47
0.0
 47
0.0
 47
1.0
 47
0.0
 47
0.0
 47
0.0
 47
0.0
 47
1.0
171
     0
 49
0.0208333333333333
 49
0.0
 49
0.0
 49
0.0
 49
0.0
 49
0.0208333333333333
 49
0.0
 49
0.0
 49
0.0
 49
0.0
 49
1.0
 49
0.0
 49
0.0
 49
0.0
 49
0.0
 49
1.0
175
     0
142
0.0208333333333333
142
0.0
142
0.0
142
0.0
142
0.0
142
0.0208333333333333
142
0.0
142
0.0
142
0.0
142
0.0
142
1.0
142
0.0
142
0.0
142
0.0
142
0.0
142
1.0
179
     0
144
0.0208333333333333
144
0.0
144
0.0
144
0.0
144
0.0
144
0.0208333333333333
144
0.0
144
0.0
144
0.0
144
0.0
144
1.0
144
0.0
144
0.0
144
0.0
144
0.0
144
1.0
147
0.0208333333333333
147
0.0
147
0.0
147
0.0
147
0.0
147
0.0208333333333333
147
0.0
147
0.0
147
0.0
147
0.0
147
1.0
147
0.0
147
0.0
147
0.0
147
0.0
147
1.0
  0
MATERIAL
  5
314D
102
{ACAD_XDICTIONARY
360
314E
102
}
102
{ACAD_REACTORS
330
314C
102
}
330
314C
100
AcDbMaterial
  1
ByLayer
 72
     0
 43
0.0208333333333333
 43
0.0
 43
0.0
 43
0.0
 43
0.0
 43
0.0208333333333333
 43
0.0
 43
0.0
 43
0.0
 43
0.0
 43
1.0
 43
0.0
 43
0.0
 43
0.0
 43
0.0
 43
1.0
 77
     0
 47
0.0208333333333333
 47
0.0
 47
0.0
 47
0.0
 47
0.0
 47
0.0208333333333333
 47
0.0
 47
0.0
 47
0.0
 47
0.0
 47
1.0
 47
0.0
 47
0.0
 47
0.0
 47
0.0
 47
1.0
171
     0
 49
0.0208333333333333
 49
0.0
 49
0.0
 49
0.0
 49
0.0
 49
0.0208333333333333
 49
0.0
 49
0.0
 49
0.0
 49
0.0
 49
1.0
 49
0.0
 49
0.0
 49
0.0
 49
0.0
 49
1.0
175
     0
142
0.0208333333333333
142
0.0
142
0.0
142
0.0
142
0.0
142
0.0208333333333333
142
0.0
142
0.0
142
0.0
142
0.0
142
1.0
142
0.0
142
0.0
142
0.0
142
0.0
142
1.0
179
     0
144
0.0208333333333333
144
0.0
144
0.0
144
0.0
144
0.0
144
0.0208333333333333
144
0.0
144
0.0
144
0.0
144
0.0
144
1.0
144
0.0
144
0.0
144
0.0
144
0.0
144
1.0
147
0.0208333333333333
147
0.0
147
0.0
147
0.0
147
0.0
147
0.0208333333333333
147
0.0
147
0.0
147
0.0
147
0.0
147
1.0
147
0.0
147
0.0
147
0.0
147
0.0
147
1.0
  0
MATERIAL
  5
315D
102
{ACAD_XDICTIONARY
360
315E
102
}
102
{ACAD_REACTORS
330
314C
102
}
330
314C
100
AcDbMaterial
  1
Global
 72
     0
 43
0.0208333333333333
 43
0.0
 43
0.0
 43
0.0
 43
0.0
 43
0.0208333333333333
 43
0.0
 43
0.0
 43
0.0
 43
0.0
 43
1.0
 43
0.0
 43
0.0
 43
0.0
 43
0.0
 43
1.0
 77
     0
 47
0.0208333333333333
 47
0.0
 47
0.0
 47
0.0
 47
0.0
 47
0.0208333333333333
 47
0.0
 47
0.0
 47
0.0
 47
0.0
 47
1.0
 47
0.0
 47
0.0
 47
0.0
 47
0.0
 47
1.0
171
     0
 49
0.0208333333333333
 49
0.0
 49
0.0
 49
0.0
 49
0.0
 49
0.0208333333333333
 49
0.0
 49
0.0
 49
0.0
 49
0.0
 49
1.0
 49
0.0
 49
0.0
 49
0.0
 49
0.0
 49
1.0
175
     0
142
0.0208333333333333
142
0.0
142
0.0
142
0.0
142
0.0
142
0.0208333333333333
142
0.0
142
0.0
142
0.0
142
0.0
142
1.0
142
0.0
142
0.0
142
0.0
142
0.0
142
1.0
179
     0
144
0.0208333333333333
144
0.0
144
0.0
144
0.0
144
0.0
144
0.0208333333333333
144
0.0
144
0.0
144
0.0
144
0.0
144
1.0
144
0.0
144
0.0
144
0.0
144
0.0
144
1.0
147
0.0208333333333333
147
0.0
147
0.0
147
0.0
147
0.0
147
0.0208333333333333
147
0.0
147
0.0
147
0.0
147
0.0
147
1.0
147
0.0
147
0.0
147
0.0
147
0.0
147
1.0
  0
MLEADERSTYLE
  5
319C
102
{ACAD_REACTORS
330
319B
102
}
330
319B
100
AcDbMLeaderStyle
170
     2
171
     1
172
     0
 90
        2
 40
0.0
 41
0.0
173
     1
 91
-1056964608
340
11
 92
       -2
290
     1
 42
2.0
291
     1
 43
0.36
  3
Standard
 44
4.0
300

342
17
174
     1
178
     6
175
     1
176
     0
 93
-1056964608
 45
4.0
292
     0
297
     0
 46
4.0
 94
-1056964608
 47
1.0
 49
1.0
140
1.0
293
     1
141
0.0
294
     1
177
     0
142
1.0
295
     0
296
     0
143
0.125
1001
ACAD_MLEADERVER
1070
     2
  0
MLINESTYLE
  5
1C
102
{ACAD_REACTORS
330
1B
102
}
330
1B
100
AcDbMlineStyle
  2
STANDARD
 70
     0
  3

 62
     0
 51
90.0
 52
90.0
 71
     2
 49
0.5
 62
   256
  6
BYLAYER
 49
-0.5
 62
   256
  6
BYLAYER
  0
ACDBPLACEHOLDER
  5
1D
102
{ACAD_REACTORS
330
1F
102
}
330
1F
  0
SCALE
  5
317A
102
{ACAD_REACTORS
330
3179
102
}
330
3179
100
AcDbScale
 70
     0
300
1:1
140
1.0
141
1.0
290
     1
  0
SCALE
  5
317B
102
{ACAD_REACTORS
330
3179
102
}
330
3179
100
AcDbScale
 70
     0
300
1:2
140
1.0
141
2.0
290
     0
  0
SCALE
  5
317C
102
{ACAD_REACTORS
330
3179
102
}
330
3179
100
AcDbScale
 70
     0
300
1:4
140
1.0
141
4.0
290
     0
  0
SCALE
  5
317D
102
{ACAD_REACTORS
330
3179
102
}
330
3179
100
AcDbScale
 70
     0
300
1:5
140
1.0
141
5.0
290
     0
  0
SCALE
  5
317E
102
{ACAD_REACTORS
330
3179
102
}
330
3179
100
AcDbScale
 70
     0
300
1:8
140
1.0
141
8.0
290
     0
  0
SCALE
  5
317F
102
{ACAD_REACTORS
330
3179
102
}
330
3179
100
AcDbScale
 70
     0
300
1:10
140
1.0
141
10.0
290
     0
  0
SCALE
  5
3180
102
{ACAD_REACTORS
330
3179
102
}
330
3179
100
AcDbScale
 70
     0
300
1:16
140
1.0
141
16.0
290
     0
  0
SCALE
  5
3181
102
{ACAD_REACTORS
330
3179
102
}
330
3179
100
AcDbScale
 70
     0
300
1:20
140
1.0
141
20.0
290
     0
  0
SCALE
  5
3182
102
{ACAD_REACTORS
330
3179
102
}
330
3179
100
AcDbScale
 70
     0
300
1:30
140
1.0
141
30.0
290
     0
  0
SCALE
  5
3183
102
{ACAD_REACTORS
330
3179
102
}
330
3179
100
AcDbScale
 70
     0
300
1:40
140
1.0
141
40.0
290
     0
  0
SCALE
  5
3184
102
{ACAD_REACTORS
330
3179
102
}
330
3179
100
AcDbScale
 70
     0
300
1:50
140
1.0
141
50.0
290
     0
  0
SCALE
  5
3185
102
{ACAD_REACTORS
330
3179
102
}
330
3179
100
AcDbScale
 70
     0
300
1:100
140
1.0
141
100.0
290
     0
  0
SCALE
  5
3186
102
{ACAD_REACTORS
330
3179
102
}
330
3179
100
AcDbScale
 70
     0
300
2:1
140
2.0
141
1.0
290
     0
  0
SCALE
  5
3187
102
{ACAD_REACTORS
330
3179
102
}
330
3179
100
AcDbScale
 70
     0
300
4:1
140
4.0
141
1.0
290
     0
  0
SCALE
  5
3188
102
{ACAD_REACTORS
330
3179
102
}
330
3179
100
AcDbScale
 70
     0
300
8:1
140
8.0
141
1.0
290
     0
  0
SCALE
  5
3189
102
{ACAD_REACTORS
330
3179
102
}
330
3179
100
AcDbScale
 70
     0
300
10:1
140
10.0
141
1.0
290
     0
  0
SCALE
  5
318A
102
{ACAD_REACTORS
330
3179
102
}
330
3179
100
AcDbScale
 70
     0
300
100:1
140
100.0
141
1.0
290
     0
  0
SCALE
  5
318B
102
{ACAD_REACTORS
330
3179
102
}
330
3179
100
AcDbScale
 70
     0
300
1/128" = 1'-0"
140
0.0078125
141
12.0
290
     0
  0
SCALE
  5
318C
102
{ACAD_REACTORS
330
3179
102
}
330
3179
100
AcDbScale
 70
     0
300
1/64" = 1'-0"
140
0.015625
141
12.0
290
     0
  0
SCALE
  5
318D
102
{ACAD_REACTORS
330
3179
102
}
330
3179
100
AcDbScale
 70
     0
300
1/32" = 1'-0"
140
0.03125
141
12.0
290
     0
  0
SCALE
  5
318E
102
{ACAD_REACTORS
330
3179
102
}
330
3179
100
AcDbScale
 70
     0
300
1/16" = 1'-0"
140
0.0625
141
12.0
290
     0
  0
SCALE
  5
318F
102
{ACAD_REACTORS
330
3179
102
}
330
3179
100
AcDbScale
 70
     0
300
3/32" = 1'-0"
140
0.09375
141
12.0
290
     0
  0
SCALE
  5
3190
102
{ACAD_REACTORS
330
3179
102
}
330
3179
100
AcDbScale
 70
     0
300
1/8" = 1'-0"
140
0.125
141
12.0
290
     0
  0
SCALE
  5
3191
102
{ACAD_REACTORS
330
3179
102
}
330
3179
100
AcDbScale
 70
     0
300
3/16" = 1'-0"
140
0.1875
141
12.0
290
     0
  0
SCALE
  5
3192
102
{ACAD_REACTORS
330
3179
102
}
330
3179
100
AcDbScale
 70
     0
300
1/4" = 1'-0"
140
0.25
141
12.0
290
     0
  0
SCALE
  5
3193
102
{ACAD_REACTORS
330
3179
102
}
330
3179
100
AcDbScale
 70
     0
300
3/8" = 1'-0"
140
0.375
141
12.0
290
     0
  0
SCALE
  5
3194
102
{ACAD_REACTORS
330
3179
102
}
330
3179
100
AcDbScale
 70
     0
300
1/2" = 1'-0"
140
0.5
141
12.0
290
     0
  0
SCALE
  5
3195
102
{ACAD_REACTORS
330
3179
102
}
330
3179
100
AcDbScale
 70
     0
300
3/4" = 1'-0"
140
0.75
141
12.0
290
     0
  0
SCALE
  5
3196
102
{ACAD_REACTORS
330
3179
102
}
330
3179
100
AcDbScale
 70
     0
300
1" = 1'-0"
140
1.0
141
12.0
290
     0
  0
SCALE
  5
3197
102
{ACAD_REACTORS
330
3179
102
}
330
3179
100
AcDbScale
 70
     0
300
1-1/2" = 1'-0"
140
1.5
141
12.0
290
     0
  0
SCALE
  5
3198
102
{ACAD_REACTORS
330
3179
102
}
330
3179
100
AcDbScale
 70
     0
300
3" = 1'-0"
140
3.0
141
12.0
290
     0
  0
SCALE
  5
3199
102
{ACAD_REACTORS
330
3179
102
}
330
3179
100
AcDbScale
 70
     0
300
6" = 1'-0"
140
6.0
141
12.0
290
     0
  0
SCALE
  5
319A
102
{ACAD_REACTORS
330
3179
102
}
330
3179
100
AcDbScale
 70
     0
300
1'-0" = 1'-0"
140
12.0
141
12.0
290
     0
  0
TABLESTYLE
  5
3178
102
{ACAD_XDICTIONARY
360
6308
102
}
102
{ACAD_REACTORS
330
3177
102
}
330
3177
100
AcDbTableStyle
  3
Standard
 70
     0
 71
     0
 40
1.5
 41
1.5
280
     0
281
     0
  7
Standard
140
4.5
170
     2
 62
     0
 63
     7
283
     0
274
    -2
284
     1
 64
     0
275
    -2
285
     1
 65
     0
276
    -2
286
     1
 66
     0
277
    -2
287
     1
 67
     0
278
    -2
288
     1
 68
     0
279
    -2
289
     1
 69
     0
  7
Standard
140
6.0
170
     5
 62
     0
 63
     7
283
     0
274
    -2
284
     1
 64
     0
275
    -2
285
     1
 65
     0
276
    -2
286
     1
 66
     0
277
    -2
287
     1
 67
     0
278
    -2
288
     1
 68
     0
279
    -2
289
     1
 69
     0
  7
Standard
140
4.5
170
     5
 62
     0
 63
     7
283
     0
274
    -2
284
     1
 64
     0
275
    -2
285
     1
 65
     0
276
    -2
286
     1
 66
     0
277
    -2
287
     1
 67
     0
278
    -2
288
     1
 68
     0
279
    -2
289
     1
 69
     0
  0
VISUALSTYLE
  5
316B
102
{ACAD_REACTORS
330
3165
102
}
330
3165
100
AcDbVisualStyle
  2
2dWireframe
 70
     4
 71
     0
 72
     2
 73
     0
 90
        0
 40
-0.6
 41
-30.0
 62
     5
 63
     7
 74
     1
 91
        4
 64
     7
 65
   257
 75
     1
175
     1
 42
1.0
 92
        0
 66
   257
 43
1.0
 76
     1
 77
     6
 78
     2
 67
     7
 79
     5
170
     0
171
     0
290
     0
174
     0
 93
        1
 44
0.0
173
     0
291
     0
 45
0.0
1001
ACAD
1000
AcDbSavedByObjectVersion
1070
     0
1000
AcDbSavedByObjectVersion
1070
     0
1000
AcDbSavedByObjectVersion
1070
     0
  0
VISUALSTYLE
  5
316D
102
{ACAD_REACTORS
330
3165
102
}
330
3165
100
AcDbVisualStyle
  2
3D Hidden
 70
     6
 71
     1
 72
     2
 73
     2
 90
        0
 40
-0.6
 41
-30.0
 62
     5
 63
     7
 74
     2
 91
        2
 64
     7
 65
   257
 75
     2
175
     1
 42
40.0
 92
        0
 66
   257
 43
1.0
 76
     1
 77
     6
 78
     2
 67
     7
 79
     3
170
     0
171
     0
290
     0
174
     0
 93
        1
 44
0.0
173
     0
291
     0
 45
0.0
1001
ACAD
1000
AcDbSavedByObjectVersion
1070
     0
1000
AcDbSavedByObjectVersion
1070
     0
1000
AcDbSavedByObjectVersion
1070
     0
  0
VISUALSTYLE
  5
316C
102
{ACAD_REACTORS
330
3165
102
}
330
3165
100
AcDbVisualStyle
  2
3dWireframe
 70
     5
 71
     0
 72
     2
 73
     0
 90
        0
 40
-0.6
 41
-30.0
 62
     5
 63
     7
 74
     1
 91
        4
 64
     7
 65
   257
 75
     1
175
     1
 42
1.0
 92
        0
 66
   257
 43
1.0
 76
     1
 77
     6
 78
     2
 67
     7
 79
     5
170
     0
171
     0
290
     0
174
     0
 93
        1
 44
0.0
173
     0
291
     0
 45
0.0
1001
ACAD
1000
AcDbSavedByObjectVersion
1070
     0
1000
AcDbSavedByObjectVersion
1070
     0
1000
AcDbSavedByObjectVersion
1070
     0
  0
VISUALSTYLE
  5
316A
102
{ACAD_REACTORS
330
3165
102
}
330
3165
100
AcDbVisualStyle
  2
Basic
 70
     7
 71
     1
 72
     0
 73
     1
 90
        0
 40
-0.6
 41
-30.0
 62
     5
 63
     7
 74
     0
 91
        4
 64
     7
 65
   257
 75
     1
175
     1
 42
1.0
 92
        8
 66
     7
 43
1.0
 76
     1
 77
     6
 78
     2
 67
     7
 79
     5
170
     0
171
     0
290
     0
174
     0
 93
        1
 44
0.0
173
     0
291
     1
 45
0.0
1001
ACAD
1000
AcDbSavedByObjectVersion
1070
     0
1000
AcDbSavedByObjectVersion
1070
     0
1000
AcDbSavedByObjectVersion
1070
     0
  0
VISUALSTYLE
  5
3171
102
{ACAD_REACTORS
330
3165
102
}
330
3165
100
AcDbVisualStyle
  2
Brighten
 70
    12
 71
     2
 72
     2
 73
     0
 90
        0
 40
-0.6
 41
-30.0
 62
     5
 63
     7
 74
     1
 91
        4
 64
     7
 65
   257
 75
     1
175
     1
 42
1.0
 92
        8
 66
     7
 43
1.0
 76
     1
 77
     6
 78
     2
 67
     7
 79
     5
170
     0
171
     0
290
     0
174
     0
 93
        1
 44
50.0
173
     0
291
     1
 45
0.0
1001
ACAD
1000
AcDbSavedByObjectVersion
1070
     0
1000
AcDbSavedByObjectVersion
1070
     0
1000
AcDbSavedByObjectVersion
1070
     0
  0
VISUALSTYLE
  5
3175
102
{ACAD_REACTORS
330
3165
102
}
330
3165
100
AcDbVisualStyle
  2
ColorChange
 70
    16
 71
     2
 72
     2
 73
     3
 90
        0
 40
-0.6
 41
-30.0
 62
     5
 63
     8
 74
     1
 91
        4
 64
     7
 65
   257
 75
     1
175
     1
 42
1.0
 92
        8
 66
     8
 43
1.0
 76
     1
 77
     6
 78
     2
 67
     7
 79
     5
170
     0
171
     0
290
     0
174
     0
 93
        1
 44
0.0
173
     0
291
     1
 45
0.0
1001
ACAD
1000
AcDbSavedByObjectVersion
1070
     0
1000
AcDbSavedByObjectVersion
1070
     0
1000
AcDbSavedByObjectVersion
1070
     0
  0
VISUALSTYLE
  5
316E
102
{ACAD_REACTORS
330
3165
102
}
330
3165
100
AcDbVisualStyle
  2
Conceptual
 70
     9
 71
     3
 72
     2
 73
     0
 90
        0
 40
-0.6
 41
-30.0
 62
     5
 63
     7
 74
     2
 91
        2
 64
     7
 65
   257
 75
     1
175
     1
 42
40.0
 92
        8
 66
     7
 43
1.0
 76
     1
 77
     6
 78
     2
 67
     7
 79
     3
170
     0
171
     0
290
     0
174
     0
 93
        1
 44
0.0
173
     0
291
     0
 45
0.0
1001
ACAD
1000
AcDbSavedByObjectVersion
1070
     0
1000
AcDbSavedByObjectVersion
1070
     0
1000
AcDbSavedByObjectVersion
1070
     0
  0
VISUALSTYLE
  5
3170
102
{ACAD_REACTORS
330
3165
102
}
330
3165
100
AcDbVisualStyle
  2
Dim
 70
    11
 71
     2
 72
     2
 73
     0
 90
        0
 40
-0.6
 41
-30.0
 62
     5
 63
     7
 74
     1
 91
        4
 64
     7
 65
   257
 75
     1
175
     1
 42
1.0
 92
        8
 66
     7
 43
1.0
 76
     1
 77
     6
 78
     2
 67
     7
 79
     5
170
     0
171
     0
290
     0
174
     0
 93
        1
 44
-50.0
173
     0
291
     1
 45
0.0
1001
ACAD
1000
AcDbSavedByObjectVersion
1070
     0
1000
AcDbSavedByObjectVersion
1070
     0
1000
AcDbSavedByObjectVersion
1070
     0
  0
VISUALSTYLE
  5
3174
102
{ACAD_REACTORS
330
3165
102
}
330
3165
100
AcDbVisualStyle
  2
Facepattern
 70
    15
 71
     2
 72
     2
 73
     0
 90
        0
 40
-0.6
 41
-30.0
 62
     5
 63
     7
 74
     1
 91
        4
 64
     7
 65
   257
 75
     1
175
     1
 42
1.0
 92
        8
 66
     7
 43
1.0
 76
     1
 77
     6
 78
     2
 67
     7
 79
     5
170
     0
171
     0
290
     0
174
     0
 93
        1
 44
0.0
173
     0
291
     1
 45
0.0
1001
ACAD
1000
AcDbSavedByObjectVersion
1070
     0
1000
AcDbSavedByObjectVersion
1070
     0
1000
AcDbSavedByObjectVersion
1070
     0
  0
VISUALSTYLE
  5
3166
102
{ACAD_REACTORS
330
3165
102
}
330
3165
100
AcDbVisualStyle
  2
Flat
 70
     0
 71
     2
 72
     1
 73
     1
 90
        2
 40
-0.6
 41
30.0
 62
     5
 63
     7
 74
     0
 91
        4
 64
     7
 65
   257
 75
     1
175
     1
 42
1.0
 92
        8
 66
     7
 43
1.0
 76
     1
 77
     6
 78
     2
 67
     7
 79
     5
170
     0
171
     0
290
     0
174
     0
 93
       13
 44
0.0
173
     0
291
     1
 45
0.0
1001
ACAD
1000
AcDbSavedByObjectVersion
1070
     0
1000
AcDbSavedByObjectVersion
1070
     0
1000
AcDbSavedByObjectVersion
1070
     0
  0
VISUALSTYLE
  5
3167
102
{ACAD_REACTORS
330
3165
102
}
330
3165
100
AcDbVisualStyle
  2
FlatWithEdges
 70
     1
 71
     2
 72
     1
 73
     1
 90
        2
 40
-0.6
 41
30.0
 62
     5
 63
     7
 74
     1
 91
        4
 64
     7
 65
   257
 75
     1
175
     1
 42
1.0
 92
        0
 66
   257
 43
1.0
 76
     1
 77
     6
 78
     2
 67
     7
 79
     5
170
     0
171
     0
290
     0
174
     0
 93
       13
 44
0.0
173
     0
291
     1
 45
0.0
1001
ACAD
1000
AcDbSavedByObjectVersion
1070
     0
1000
AcDbSavedByObjectVersion
1070
     0
1000
AcDbSavedByObjectVersion
1070
     0
  0
VISUALSTYLE
  5
3168
102
{ACAD_REACTORS
330
3165
102
}
330
3165
100
AcDbVisualStyle
  2
Gouraud
 70
     2
 71
     2
 72
     2
 73
     1
 90
        2
 40
-0.6
 41
30.0
 62
     5
 63
     7
 74
     0
 91
        4
 64
     7
 65
   257
 75
     1
175
     1
 42
1.0
 92
        0
 66
     7
 43
1.0
 76
     1
 77
     6
 78
     2
 67
     7
 79
     5
170
     0
171
     0
290
     0
174
     0
 93
       13
 44
0.0
173
     0
291
     1
 45
0.0
1001
ACAD
1000
AcDbSavedByObjectVersion
1070
     0
1000
AcDbSavedByObjectVersion
1070
     0
1000
AcDbSavedByObjectVersion
1070
     0
  0
VISUALSTYLE
  5
3169
102
{ACAD_REACTORS
330
3165
102
}
330
3165
100
AcDbVisualStyle
  2
GouraudWithEdges
 70
     3
 71
     2
 72
     2
 73
     1
 90
        2
 40
-0.6
 41
30.0
 62
     5
 63
     7
 74
     1
 91
        4
 64
     7
 65
   257
 75
     1
175
     1
 42
1.0
 92
        0
 66
   257
 43
1.0
 76
     1
 77
     6
 78
     2
 67
     7
 79
     5
170
     0
171
     0
290
     0
174
     0
 93
       13
 44
0.0
173
     0
291
     1
 45
0.0
1001
ACAD
1000
AcDbSavedByObjectVersion
1070
     0
1000
AcDbSavedByObjectVersion
1070
     0
1000
AcDbSavedByObjectVersion
1070
     0
  0
VISUALSTYLE
  5
3173
102
{ACAD_REACTORS
330
3165
102
}
330
3165
100
AcDbVisualStyle
  2
Linepattern
 70
    14
 71
     2
 72
     2
 73
     0
 90
        0
 40
-0.6
 41
-30.0
 62
     5
 63
     7
 74
     1
 91
        4
 64
     7
 65
   257
 75
     7
175
     7
 42
1.0
 92
        8
 66
     7
 43
1.0
 76
     1
 77
     6
 78
     2
 67
     7
 79
     5
170
     0
171
     0
290
     0
174
     0
 93
        1
 44
0.0
173
     0
291
     1
 45
0.0
1001
ACAD
1000
AcDbSavedByObjectVersion
1070
     0
1000
AcDbSavedByObjectVersion
1070
     0
1000
AcDbSavedByObjectVersion
1070
     0
  0
VISUALSTYLE
  5
316F
102
{ACAD_REACTORS
330
3165
102
}
330
3165
100
AcDbVisualStyle
  2
Realistic
 70
     8
 71
     2
 72
     2
 73
     0
 90
        0
 40
-0.6
 41
-30.0
 62
     5
 63
     7
 74
     1
 91
        0
 64
     7
 65
   257
 75
     1
175
     1
 42
1.0
 92
        8
 66
     8
 43
1.0
 76
     1
 77
     6
 78
     2
 67
     7
 79
     5
170
     0
171
     0
290
     0
174
     0
 93
       13
 44
0.0
173
     0
291
     0
 45
0.0
1001
ACAD
1000
AcDbSavedByObjectVersion
1070
     0
1000
AcDbSavedByObjectVersion
1070
     0
1000
AcDbSavedByObjectVersion
1070
     0
  0
VISUALSTYLE
  5
3172
102
{ACAD_REACTORS
330
3165
102
}
330
3165
100
AcDbVisualStyle
  2
Thicken
 70
    13
 71
     2
 72
     2
 73
     0
 90
        0
 40
-0.6
 41
-30.0
 62
     5
 63
     7
 74
     1
 91
        4
 64
     7
 65
   257
 75
     1
175
     1
 42
1.0
 92
       12
 66
     7
 43
1.0
 76
     1
 77
     6
 78
     2
 67
     7
 79
     5
170
     0
171
     0
290
     0
174
     0
 93
        1
 44
0.0
173
     0
291
     1
 45
0.0
1001
ACAD
1000
AcDbSavedByObjectVersion
1070
     0
1000
AcDbSavedByObjectVersion
1070
     0
1000
AcDbSavedByObjectVersion
1070
     0
  0
DICTIONARYVAR
  5
630F
102
{ACAD_REACTORS
330
630B
102
}
330
630B
100
DictionaryVariables
280
     0
  1
1:1
  0
DICTIONARYVAR
  5
630D
102
{ACAD_REACTORS
330
630B
102
}
330
630B
100
DictionaryVariables
280
     0
  1
STANDARD
  0
DICTIONARYVAR
  5
630C
102
{ACAD_REACTORS
330
630B
102
}
330
630B
100
DictionaryVariables
280
     0
  1
STANDARD
  0
DICTIONARYVAR
  5
6318
102
{ACAD_REACTORS
330
630B
102
}
330
630B
100
DictionaryVariables
280
     0
  1
1
  0
DICTIONARYVAR
  5
6317
102
{ACAD_REACTORS
330
630B
102
}
330
630B
100
DictionaryVariables
280
     0
  1
0
  0
DICTIONARYVAR
  5
6310
102
{ACAD_REACTORS
330
630B
102
}
330
630B
100
DictionaryVariables
280
     0
  1
0
  0
DICTIONARYVAR
  5
630E
102
{ACAD_REACTORS
330
630B
102
}
330
630B
100
DictionaryVariables
280
     0
  1
0
  0
DICTIONARYVAR
  5
6316
102
{ACAD_REACTORS
330
630B
102
}
330
630B
100
DictionaryVariables
280
     0
  1
127
  0
XRECORD
  5
5E46
102
{ACAD_REACTORS
330
5E44
102
}
330
5E44
100
AcDbXrecord
280
     1
  0
DICTIONARY
  5
63B1
330
21
100
AcDbDictionary
280
     1
281
     1
  3
ACAD_XREC_ROUNDTRIP
360
63B2
  0
DICTIONARY
  5
63AF
330
20
100
AcDbDictionary
280
     1
281
     1
  3
ACAD_XREC_ROUNDTRIP
360
63B0
  0
DICTIONARY
  5
3156
330
3155
100
AcDbDictionary
280
     1
281
     1
  3
ACAD_XREC_ROUNDTRIP
360
6320
  3
BUMPTILE
360
3158
  3
DIFFUSETILE
360
3157
  3
OPACITYTILE
360
315B
  3
REFLECTIONTILE
360
315A
  3
REFRACTIONTILE
360
315C
  3
SPECULARTILE
360
3159
  0
DICTIONARY
  5
314E
330
314D
100
AcDbDictionary
280
     1
281
     1
  3
ACAD_XREC_ROUNDTRIP
360
631F
  3
BUMPTILE
360
3150
  3
DIFFUSETILE
360
314F
  3
OPACITYTILE
360
3153
  3
REFLECTIONTILE
360
3152
  3
REFRACTIONTILE
360
3154
  3
SPECULARTILE
360
3151
  0
DICTIONARY
  5
315E
330
315D
100
AcDbDictionary
280
     1
281
     1
  3
ACAD_XREC_ROUNDTRIP
360
6321
  3
BUMPTILE
360
3160
  3
DIFFUSETILE
360
315F
  3
OPACITYTILE
360
3163
  3
REFLECTIONTILE
360
3162
  3
REFRACTIONTILE
360
3164
  3
SPECULARTILE
360
3161
  0
DICTIONARY
  5
6308
330
3178
100
AcDbDictionary
280
     1
281
     1
  3
ACAD_ROUNDTRIP_2008_TABLESTYLE_CELLSTYLEMAP
360
63AD
  3
ACAD_XREC_ROUNDTRIP
360
63B3
  0
XRECORD
  5
63B2
102
{ACAD_REACTORS
330
63B1
102
}
330
63B1
100
AcDbXrecord
280
     1
102
SHADEPLOT
 70
     0
102
SHADEPLOTRESLEVEL
 70
     2
102
SHADEPLOTCUSTOMDPI
 70
   300
  0
XRECORD
  5
63B0
102
{ACAD_REACTORS
330
63AF
102
}
330
63AF
100
AcDbXrecord
280
     1
102
SHADEPLOT
 70
     0
102
SHADEPLOTRESLEVEL
 70
     2
102
SHADEPLOTCUSTOMDPI
 70
   300
  0
XRECORD
  5
6320
102
{ACAD_REACTORS
330
3156
102
}
330
3156
100
AcDbXrecord
280
     1
102
MATERIAL
148
0.0
149
0.0
149
0.0
 93
        0
 94
      127
282
     0
 72
     0
 77
     0
171
     0
175
     0
179
     0
273
     0
  0
XRECORD
  5
3158
102
{ACAD_REACTORS
330
3156
102
}
330
3156
100
AcDbXrecord
280
     1
270
     1
271
     1
  0
XRECORD
  5
3157
102
{ACAD_REACTORS
330
3156
102
}
330
3156
100
AcDbXrecord
280
     1
270
     1
271
     1
  0
XRECORD
  5
315B
102
{ACAD_REACTORS
330
3156
102
}
330
3156
100
AcDbXrecord
280
     1
270
     1
271
     1
  0
XRECORD
  5
315A
102
{ACAD_REACTORS
330
3156
102
}
330
3156
100
AcDbXrecord
280
     1
270
     1
271
     1
  0
XRECORD
  5
315C
102
{ACAD_REACTORS
330
3156
102
}
330
3156
100
AcDbXrecord
280
     1
270
     1
271
     1
  0
XRECORD
  5
3159
102
{ACAD_REACTORS
330
3156
102
}
330
3156
100
AcDbXrecord
280
     1
270
     1
271
     1
  0
XRECORD
  5
631F
102
{ACAD_REACTORS
330
314E
102
}
330
314E
100
AcDbXrecord
280
     1
102
MATERIAL
148
0.0
149
0.0
149
0.0
 93
        0
 94
      127
282
     0
 72
     0
 77
     0
171
     0
175
     0
179
     0
273
     0
  0
XRECORD
  5
3150
102
{ACAD_REACTORS
330
314E
102
}
330
314E
100
AcDbXrecord
280
     1
270
     1
271
     1
  0
XRECORD
  5
314F
102
{ACAD_REACTORS
330
314E
102
}
330
314E
100
AcDbXrecord
280
     1
270
     1
271
     1
  0
XRECORD
  5
3153
102
{ACAD_REACTORS
330
314E
102
}
330
314E
100
AcDbXrecord
280
     1
270
     1
271
     1
  0
XRECORD
  5
3152
102
{ACAD_REACTORS
330
314E
102
}
330
314E
100
AcDbXrecord
280
     1
270
     1
271
     1
  0
XRECORD
  5
3154
102
{ACAD_REACTORS
330
314E
102
}
330
314E
100
AcDbXrecord
280
     1
270
     1
271
     1
  0
XRECORD
  5
3151
102
{ACAD_REACTORS
330
314E
102
}
330
314E
100
AcDbXrecord
280
     1
270
     1
271
     1
  0
XRECORD
  5
6321
102
{ACAD_REACTORS
330
315E
102
}
330
315E
100
AcDbXrecord
280
     1
102
MATERIAL
148
0.0
149
0.0
149
0.0
 93
        0
 94
      127
282
     0
 72
     0
 77
     0
171
     0
175
     0
179
     0
273
     0
  0
XRECORD
  5
3160
102
{ACAD_REACTORS
330
315E
102
}
330
315E
100
AcDbXrecord
280
     1
270
     1
271
     1
  0
XRECORD
  5
315F
102
{ACAD_REACTORS
330
315E
102
}
330
315E
100
AcDbXrecord
280
     1
270
     1
271
     1
  0
XRECORD
  5
3163
102
{ACAD_REACTORS
330
315E
102
}
330
315E
100
AcDbXrecord
280
     1
270
     1
271
     1
  0
XRECORD
  5
3162
102
{ACAD_REACTORS
330
315E
102
}
330
315E
100
AcDbXrecord
280
     1
270
     1
271
     1
  0
XRECORD
  5
3164
102
{ACAD_REACTORS
330
315E
102
}
330
315E
100
AcDbXrecord
280
     1
270
     1
271
     1
  0
XRECORD
  5
3161
102
{ACAD_REACTORS
330
315E
102
}
330
315E
100
AcDbXrecord
280
     1
270
     1
271
     1
  0
CELLSTYLEMAP
  5
63AD
102
{ACAD_REACTORS
330
6308
102
}
330
6308
100
AcDbCellStyleMap
 90
        3
300
CELLSTYLE
  1
TABLEFORMAT_BEGIN
 90
        5
170
     1
 91
        0
 92
    32768
 62
   257
 93
        1
300
CONTENTFORMAT
  1
CONTENTFORMAT_BEGIN
 90
        0
 91
        0
 92
      512
 93
        0
300

 40
0.0
140
1.0
 94
        5
 62
     0
340
17
144
6.0
309
CONTENTFORMAT_END
171
     1
301
MARGIN
  1
CELLMARGIN_BEGIN
 40
1.5
 40
1.5
 40
1.5
 40
1.5
 40
0.18
 40
0.18
309
CELLMARGIN_END
 94
        6
 95
        1
302
GRIDFORMAT
  1
GRIDFORMAT_BEGIN
 90
        0
 91
        1
 62
     0
 92
       -2
340
0
 93
        0
 40
1.125
309
GRIDFORMAT_END
 95
        2
302
GRIDFORMAT
  1
GRIDFORMAT_BEGIN
 90
        0
 91
        1
 62
     0
 92
       -2
340
0
 93
        0
 40
1.125
309
GRIDFORMAT_END
 95
        4
302
GRIDFORMAT
  1
GRIDFORMAT_BEGIN
 90
        0
 91
        1
 62
     0
 92
       -2
340
0
 93
        0
 40
1.125
309
GRIDFORMAT_END
 95
        8
302
GRIDFORMAT
  1
GRIDFORMAT_BEGIN
 90
        0
 91
        1
 62
     0
 92
       -2
340
0
 93
        0
 40
1.125
309
GRIDFORMAT_END
 95
       16
302
GRIDFORMAT
  1
GRIDFORMAT_BEGIN
 90
        0
 91
        1
 62
     0
 92
       -2
340
0
 93
        0
 40
1.125
309
GRIDFORMAT_END
 95
       32
302
GRIDFORMAT
  1
GRIDFORMAT_BEGIN
 90
        0
 91
        1
 62
     0
 92
       -2
340
0
 93
        0
 40
1.125
309
GRIDFORMAT_END
309
TABLEFORMAT_END
  1
CELLSTYLE_BEGIN
 90
        1
 91
        1
300
_TITLE
309
CELLSTYLE_END
300
CELLSTYLE
  1
TABLEFORMAT_BEGIN
 90
        5
170
     1
 91
        0
 92
        0
 62
   257
 93
        1
300
CONTENTFORMAT
  1
CONTENTFORMAT_BEGIN
 90
        0
 91
        0
 92
      512
 93
        0
300

 40
0.0
140
1.0
 94
        5
 62
     0
340
17
144
4.5
309
CONTENTFORMAT_END
171
     1
301
MARGIN
  1
CELLMARGIN_BEGIN
 40
1.5
 40
1.5
 40
1.5
 40
1.5
 40
0.18
 40
0.18
309
CELLMARGIN_END
 94
        6
 95
        1
302
GRIDFORMAT
  1
GRIDFORMAT_BEGIN
 90
        0
 91
        1
 62
     0
 92
       -2
340
0
 93
        0
 40
1.125
309
GRIDFORMAT_END
 95
        2
302
GRIDFORMAT
  1
GRIDFORMAT_BEGIN
 90
        0
 91
        1
 62
     0
 92
       -2
340
0
 93
        0
 40
1.125
309
GRIDFORMAT_END
 95
        4
302
GRIDFORMAT
  1
GRIDFORMAT_BEGIN
 90
        0
 91
        1
 62
     0
 92
       -2
340
0
 93
        0
 40
1.125
309
GRIDFORMAT_END
 95
        8
302
GRIDFORMAT
  1
GRIDFORMAT_BEGIN
 90
        0
 91
        1
 62
     0
 92
       -2
340
0
 93
        0
 40
1.125
309
GRIDFORMAT_END
 95
       16
302
GRIDFORMAT
  1
GRIDFORMAT_BEGIN
 90
        0
 91
        1
 62
     0
 92
       -2
340
0
 93
        0
 40
1.125
309
GRIDFORMAT_END
 95
       32
302
GRIDFORMAT
  1
GRIDFORMAT_BEGIN
 90
        0
 91
        1
 62
     0
 92
       -2
340
0
 93
        0
 40
1.125
309
GRIDFORMAT_END
309
TABLEFORMAT_END
  1
CELLSTYLE_BEGIN
 90
        2
 91
        1
300
_HEADER
309
CELLSTYLE_END
300
CELLSTYLE
  1
TABLEFORMAT_BEGIN
 90
        5
170
     1
 91
        0
 92
        0
 62
   257
 93
        1
300
CONTENTFORMAT
  1
CONTENTFORMAT_BEGIN
 90
        0
 91
        0
 92
      512
 93
        0
300

 40
0.0
140
1.0
 94
        2
 62
     0
340
17
144
4.5
309
CONTENTFORMAT_END
171
     1
301
MARGIN
  1
CELLMARGIN_BEGIN
 40
1.5
 40
1.5
 40
1.5
 40
1.5
 40
0.18
 40
0.18
309
CELLMARGIN_END
 94
        6
 95
        1
302
GRIDFORMAT
  1
GRIDFORMAT_BEGIN
 90
        0
 91
        1
 62
     0
 92
       -2
340
0
 93
        0
 40
1.125
309
GRIDFORMAT_END
 95
        2
302
GRIDFORMAT
  1
GRIDFORMAT_BEGIN
 90
        0
 91
        1
 62
     0
 92
       -2
340
0
 93
        0
 40
1.125
309
GRIDFORMAT_END
 95
        4
302
GRIDFORMAT
  1
GRIDFORMAT_BEGIN
 90
        0
 91
        1
 62
     0
 92
       -2
340
0
 93
        0
 40
1.125
309
GRIDFORMAT_END
 95
        8
302
GRIDFORMAT
  1
GRIDFORMAT_BEGIN
 90
        0
 91
        1
 62
     0
 92
       -2
340
0
 93
        0
 40
1.125
309
GRIDFORMAT_END
 95
       16
302
GRIDFORMAT
  1
GRIDFORMAT_BEGIN
 90
        0
 91
        1
 62
     0
 92
       -2
340
0
 93
        0
 40
1.125
309
GRIDFORMAT_END
 95
       32
302
GRIDFORMAT
  1
GRIDFORMAT_BEGIN
 90
        0
 91
        1
 62
     0
 92
       -2
340
0
 93
        0
 40
1.125
309
GRIDFORMAT_END
309
TABLEFORMAT_END
  1
CELLSTYLE_BEGIN
 90
        3
 91
        2
300
_DATA
309
CELLSTYLE_END
  0
XRECORD
  5
63B3
102
{ACAD_REACTORS
330
6308
102
}
330
6308
100
AcDbXrecord
280
     1
102
ACAD_ROUNDTRIP_PRE2007_TABLESTYLE
 90
      512
 91
        0
  1

 92
      512
 93
        0
  2

 94
      512
 95
        0
  3

  0
ENDSEC
  0
EOF
