  0
SECTION
  2
HEADER
  9
$ACADVER
  1
AC1015
  9
$ACADMAINTVER
 70
    20
  9
$DWGCODEPAGE
  3
ANSI_1252
  9
$INSBASE
 10
0.0
 20
0.0
 30
0.0
  9
$EXTMIN
 10
-138.2112152357495
 20
-109.042068414381
 30
-0.0000000000000043
  9
$EXTMAX
 10
101.6892744544002
 20
113.098828760033
 30
0.0000000000000113
  9
$LIMMIN
 10
-66.34999999999982
 20
-2008.85
  9
$LIMMAX
 10
3734.350000000001
 20
346.85
  9
$ORTHOMODE
 70
     0
  9
$REGENMODE
 70
     1
  9
$FILLMODE
 70
     1
  9
$QTEXTMODE
 70
     0
  9
$MIRRTEXT
 70
     1
  9
$LTSCALE
 40
10.0
  9
$ATTMODE
 70
     1
  9
$TEXTSIZE
 40
0.0
  9
$TRACEWID
 40
0.05
  9
$TEXTSTYLE
  7
Standard
  9
$CLAYER
  8
0
  9
$CELTYPE
  6
Continuous
  9
$CECOLOR
 62
   256
  9
$CELTSCALE
 40
1.0
  9
$DISPSILH
 70
     0
  9
$DIMSCALE
 40
1.0
  9
$DIMASZ
 40
1.25
  9
$DIMEXO
 40
0.0
  9
$DIMDLI
 40
0.38
  9
$DIMRND
 40
0.0
  9
$DIMDLE
 40
0.0
  9
$DIMEXE
 40
0.75
  9
$DIMTP
 40
0.0
  9
$DIMTM
 40
0.0
  9
$DIMTXT
 40
2.5
  9
$DIMCEN
 40
0.09
  9
$DIMTSZ
 40
0.0
  9
$DIMTOL
 70
     0
  9
$DIMLIM
 70
     0
  9
$DIMTIH
 70
     0
  9
$DIMTOH
 70
     0
  9
$DIMSE1
 70
     0
  9
$DIMSE2
 70
     0
  9
$DIMTAD
 70
     1
  9
$DIMZIN
 70
     0
  9
$DIMBLK
  1

  9
$DIMASO
 70
     1
  9
$DIMSHO
 70
     1
  9
$DIMPOST
  1

  9
$DIMAPOST
  1

  9
$DIMALT
 70
     0
  9
$DIMALTD
 70
     2
  9
$DIMALTF
 40
25.4
  9
$DIMLFAC
 40
1.0
  9
$DIMTOFL
 70
     0
  9
$DIMTVP
 40
0.0
  9
$DIMTIX
 70
     0
  9
$DIMSOXD
 70
     0
  9
$DIMSAH
 70
     0
  9
$DIMBLK1
  1

  9
$DIMBLK2
  1

  9
$DIMSTYLE
  2
Standard
  9
$DIMCLRD
 70
     7
  9
$DIMCLRE
 70
     7
  9
$DIMCLRT
 70
     7
  9
$DIMTFAC
 40
0.8
  9
$DIMGAP
 40
1.25
  9
$DIMJUST
 70
     0
  9
$DIMSD1
 70
     0
  9
$DIMSD2
 70
     0
  9
$DIMTOLJ
 70
     1
  9
$DIMTZIN
 70
     0
  9
$DIMALTZ
 70
     0
  9
$DIMALTTZ
 70
     0
  9
$DIMUPT
 70
     0
  9
$DIMDEC
 70
     2
  9
$DIMTDEC
 70
     4
  9
$DIMALTU
 70
     2
  9
$DIMALTTD
 70
     2
  9
$DIMTXSTY
  7
Standard
  9
$DIMAUNIT
 70
     0
  9
$DIMADEC
 70
     0
  9
$DIMALTRND
 40
0.0
  9
$DIMAZIN
 70
     0
  9
$DIMDSEP
 70
     0
  9
$DIMATFIT
 70
     3
  9
$DIMFRAC
 70
     0
  9
$DIMLDRBLK
  1

  9
$DIMLUNIT
 70
     2
  9
$DIMLWD
 70
     0
  9
$DIMLWE
 70
     0
  9
$DIMTMOVE
 70
     0
  9
$LUNITS
 70
     2
  9
$LUPREC
 70
     4
  9
$SKETCHINC
 40
0.1
  9
$FILLETRAD
 40
0.0
  9
$AUNITS
 70
     0
  9
$AUPREC
 70
     0
  9
$MENU
  1
acad
  9
$ELEVATION
 40
0.0
  9
$PELEVATION
 40
0.0
  9
$THICKNESS
 40
0.0
  9
$LIMCHECK
 70
     0
  9
$CHAMFERA
 40
0.0
  9
$CHAMFERB
 40
0.0
  9
$CHAMFERC
 40
0.0
  9
$CHAMFERD
 40
0.0
  9
$SKPOLY
 70
     0
  9
$TDCREATE
 40
2455303.727916667
  9
$TDUCREATE
 40
2455303.644583334
  9
$TDUPDATE
 40
2455306.430117870
  9
$TDUUPDATE
 40
2455306.346784537
  9
$TDINDWG
 40
0.0024585532
  9
$TDUSRTIMER
 40
0.0024583681
  9
$USRTIMER
 70
     1
  9
$ANGBASE
 50
0.0
  9
$ANGDIR
 70
     0
  9
$PDMODE
 70
     0
  9
$PDSIZE
 40
0.0
  9
$PLINEWID
 40
0.0
  9
$SPLFRAME
 70
     0
  9
$SPLINETYPE
 70
     6
  9
$SPLINESEGS
 70
     8
  9
$HANDSEED
  5
63B4
  9
$SURFTAB1
 70
     6
  9
$SURFTAB2
 70
     6
  9
$SURFTYPE
 70
     6
  9
$SURFU
 70
     6
  9
$SURFV
 70
     6
  9
$UCSBASE
  2

  9
$UCSNAME
  2

  9
$UCSORG
 10
0.0
 20
0.0
 30
0.0
  9
$UCSXDIR
 10
1.0
 20
0.0
 30
0.0
  9
$UCSYDIR
 10
0.0
 20
1.0
 30
0.0
  9
$UCSORTHOREF
  2

  9
$UCSORTHOVIEW
 70
     0
  9
$UCSORGTOP
 10
0.0
 20
0.0
 30
0.0
  9
$UCSORGBOTTOM
 10
0.0
 20
0.0
 30
0.0
  9
$UCSORGLEFT
 10
0.0
 20
0.0
 30
0.0
  9
$UCSORGRIGHT
 10
0.0
 20
0.0
 30
0.0
  9
$UCSORGFRONT
 10
0.0
 20
0.0
 30
0.0
  9
$UCSORGBACK
 10
0.0
 20
0.0
 30
0.0
  9
$PUCSBASE
  2

  9
$PUCSNAME
  2

  9
$PUCSORG
 10
0.0
 20
0.0
 30
0.0
  9
$PUCSXDIR
 10
1.0
 20
0.0
 30
0.0
  9
$PUCSYDIR
 10
0.0
 20
1.0
 30
0.0
  9
$PUCSORTHOREF
  2

  9
$PUCSORTHOVIEW
 70
     0
  9
$PUCSORGTOP
 10
0.0
 20
0.0
 30
0.0
  9
$PUCSORGBOTTOM
 10
0.0
 20
0.0
 30
0.0
  9
$PUCSORGLEFT
 10
0.0
 20
0.0
 30
0.0
  9
$PUCSORGRIGHT
 10
0.0
 20
0.0
 30
0.0
  9
$PUCSORGFRONT
 10
0.0
 20
0.0
 30
0.0
  9
$PUCSORGBACK
 10
0.0
 20
0.0
 30
0.0
  9
$USERI1
 70
     0
  9
$USERI2
 70
     0
  9
$USERI3
 70
     0
  9
$USERI4
 70
     0
  9
$USERI5
 70
     0
  9
$USERR1
 40
0.0
  9
$USERR2
 40
0.0
  9
$USERR3
 40
0.0
  9
$USERR4
 40
0.0
  9
$USERR5
 40
0.0
  9
$WORLDVIEW
 70
     1
  9
$SHADEDGE
 70
     3
  9
$SHADEDIF
 70
    70
  9
$TILEMODE
 70
     1
  9
$MAXACTVP
 70
    16
  9
$PINSBASE
 10
0.0
 20
0.0
 30
0.0
  9
$PLIMCHECK
 70
     0
  9
$PEXTMIN
 10
1.000000000000000E+20
 20
1.000000000000000E+20
 30
1.000000000000000E+20
  9
$PEXTMAX
 10
-1.000000000000000E+20
 20
-1.000000000000000E+20
 30
-1.000000000000000E+20
  9
$PLIMMIN
 10
0.0
 20
0.0
  9
$PLIMMAX
 10
12.0
 20
9.0
  9
$UNITMODE
 70
     0
  9
$VISRETAIN
 70
     0
  9
$PLINEGEN
 70
     1
  9
$PSLTSCALE
 70
     0
  9
$TREEDEPTH
 70
  3020
  9
$CMLSTYLE
  2
Standard
  9
$CMLJUST
 70
     0
  9
$CMLSCALE
 40
1.0
  9
$PROXYGRAPHICS
 70
     0
  9
$MEASUREMENT
 70
     1
  9
$CELWEIGHT
370
     0
  9
$ENDCAPS
280
     0
  9
$JOINSTYLE
280
     0
  9
$LWDISPLAY
290
     0
  9
$INSUNITS
 70
     0
  9
$HYPERLINKBASE
  1

  9
$STYLESHEET
  1

  9
$XEDIT
290
     1
  9
$CEPSNTYPE
380
     0
  9
$PSTYLEMODE
290
     1
  9
$FINGERPRINTGUID
  2

  9
$VERSIONGUID
  2
{C668CA82-13D9-48C6-9C59-B2C0B595C55E}
  9
$EXTNAMES
290
     1
  9
$PSVPSCALE
 40
0.0
  9
$OLESTARTUP
290
     0
  0
ENDSEC
  0
SECTION
  2
CLASSES
  0
CLASS
  1
IMAGE
  2
AcDbRasterImage
  3
ISM
 90
    34943
280
     0
281
     1
  0
CLASS
  1
DICTIONARYVAR
  2
AcDbDictionaryVar
  3
ObjectDBX Classes
 90
        0
280
     0
281
     0
  0
CLASS
  1
RASTERVARIABLES
  2
AcDbRasterVariables
  3
ISM
 90
    32768
280
     0
281
     0
  0
CLASS
  1
IMAGEDEF
  2
AcDbRasterImageDef
  3
ISM
 90
    32768
280
     0
281
     0
  0
CLASS
  1
IMAGEDEF_REACTOR
  2
AcDbRasterImageDefReactor
  3
ISM
 90
    32769
280
     0
281
     0
  0
CLASS
  1
IDBUFFER
  2
AcDbIdBuffer
  3
ObjectDBX Classes
 90
    32768
280
     0
281
     0
  0
CLASS
  1
SPATIAL_FILTER
  2
AcDbSpatialFilter
  3
ObjectDBX Classes
 90
    32768
280
     0
281
     0
  0
CLASS
  1
SORTENTSTABLE
  2
AcDbSortentsTable
  3
ObjectDBX Classes
 90
        0
280
     0
281
     0
  0
CLASS
  1
LAYER_INDEX
  2
AcDbLayerIndex
  3
ObjectDBX Classes
 90
    32768
280
     0
281
     0
  0
CLASS
  1
SPATIAL_INDEX
  2
AcDbSpatialIndex
  3
ObjectDBX Classes
 90
    32768
280
     0
281
     0
  0
CLASS
  1
OBJECT_PTR
  2
CAseDLPNTableRecord
  3
ASE-LPNTableRecord
 90
    32769
280
     0
281
     0
  0
CLASS
  1
LAYOUT
  2
AcDbLayout
  3
ObjectDBX Classes
 90
        0
280
     0
281
     0
  0
CLASS
  1
PLOTSETTINGS
  2
AcDbPlotSettings
  3
ObjectDBX Classes
 90
    32768
280
     0
281
     0
  0
CLASS
  1
ACDBDICTIONARYWDFLT
  2
AcDbDictionaryWithDefault
  3
ObjectDBX Classes
 90
        0
280
     0
281
     0
  0
CLASS
  1
ACDBPLACEHOLDER
  2
AcDbPlaceHolder
  3
ObjectDBX Classes
 90
        0
280
     0
281
     0
  0
CLASS
  1
VBA_PROJECT
  2
AcDbVbaProject
  3
acad
 90
    32768
280
     0
281
     0
  0
CLASS
  1
WIPEOUT
  2
AcDbWipeout
  3
"WipeOut|Product Desc: Object Enabler for WipeOut entity                        |Company: Autodesk, Inc.                        |WEB Address: www.autodesk.com"
 90
    34943
280
     0
281
     1
  0
CLASS
  1
WIPEOUTVARIABLES
  2
AcDbWipeoutVariables
  3
"WipeOut|Product Desc:     WipeOut Dbx Application|Company:          Autodesk, Inc.|WEB Address:      www.autodesk.com"
 90
        0
280
     0
281
     0
  0
CLASS
  1
RTEXT
  2
RText
  3
RText|AutoCAD Express Tool|expresstools@autodesk.com
 90
    35839
280
     0
281
     1
  0
CLASS
  1
ARCALIGNEDTEXT
  2
AcDbArcAlignedText
  3
ATEXT|AutoCAD Express Tool|expresstools@autodesk.com
 90
    32768
280
     0
281
     1
  0
CLASS
  1
MATERIAL
  2
AcDbMaterial
  3
ObjectDBX Classes
 90
     1153
280
     0
281
     0
  0
CLASS
  1
VISUALSTYLE
  2
AcDbVisualStyle
  3
ObjectDBX Classes
 90
     4095
280
     0
281
     0
  0
CLASS
  1
TABLESTYLE
  2
AcDbTableStyle
  3
ObjectDBX Classes
 90
     4095
280
     0
281
     0
  0
CLASS
  1
SCALE
  2
AcDbScale
  3
ObjectDBX Classes
 90
     1153
280
     0
281
     0
  0
CLASS
  1
MLEADERSTYLE
  2
AcDbMLeaderStyle
  3
ACDB_MLEADERSTYLE_CLASS
 90
     4095
280
     0
281
     0
  0
CLASS
  1
CELLSTYLEMAP
  2
AcDbCellStyleMap
  3
ObjectDBX Classes
 90
     1152
280
     0
281
     0
  0
ENDSEC
  0
SECTION
  2
TABLES
  0
TABLE
  2
VPORT
  5
7
330
0
100
AcDbSymbolTable
 70
     1
  0
VPORT
  5
15
330
7
100
AcDbSymbolTableRecord
100
AcDbViewportTableRecord
  2
*ACTIVE
 70
     0
 10
0.0
 20
0.0
 11
1.0
 21
1.0
 12
-22.2673145614784
 22
3.846537974482799
 13
0.0
 23
0.0
 14
1.0
 24
1.0
 15
0.0
 25
0.0
 16
0.0
 26
0.0
 36
1.0
 17
0.0
 27
0.0
 37
0.0
 40
251.3329543065085
 41
1.611330698287219
 42
50.0
 43
0.0
 44
0.0
 50
0.0
 51
0.0
 71
     0
 72
   100
 73
     1
 74
     1
 75
     0
 76
     0
 77
     0
 78
     0
281
     0
 65
     0
110
0.0
120
0.0
130
0.0
111
1.0
121
0.0
131
0.0
112
0.0
122
1.0
132
0.0
 79
     0
146
0.0
  0
ENDTAB
  0
TABLE
  2
LTYPE
  5
4
330
0
100
AcDbSymbolTable
 70
     4
  0
LTYPE
  5
11
330
4
100
AcDbSymbolTableRecord
100
AcDbLinetypeTableRecord
  2
ByBlock
 70
     0
  3

 72
    65
 73
     0
 40
0.0
  0
LTYPE
  5
12
330
4
100
AcDbSymbolTableRecord
100
AcDbLinetypeTableRecord
  2
ByLayer
 70
     0
  3

 72
    65
 73
     0
 40
0.0
  0
LTYPE
  5
13
330
4
100
AcDbSymbolTableRecord
100
AcDbLinetypeTableRecord
  2
Continuous
 70
     0
  3
Solid line
 72
    65
 73
     0
 40
0.0
  0
LTYPE
  5
1E4
330
4
100
AcDbSymbolTableRecord
100
AcDbLinetypeTableRecord
  2
CENTER
 70
     0
  3
____ _ ____ _ ____ _ ____ _ ____ _ ____ _ ____
 72
    65
 73
     4
 40
2.0
 49
1.25
 74
     0
 49
-0.25
 74
     0
 49
0.25
 74
     0
 49
-0.25
 74
     0
  0
ENDTAB
  0
TABLE
  2
LAYER
  5
2
330
0
100
AcDbSymbolTable
 70
     1
  0
LAYER
  5
14
102
{ACAD_XDICTIONARY
360
5E41
102
}
330
2
100
AcDbSymbolTableRecord
100
AcDbLayerTableRecord
  2
0
 70
     0
 62
     7
  6
Continuous
370
    -3
390
1D
  0
ENDTAB
  0
TABLE
  2
STYLE
  5
3
330
0
100
AcDbSymbolTable
 70
     1
  0
STYLE
  5
17
330
3
100
AcDbSymbolTableRecord
100
AcDbTextStyleTableRecord
  2
Standard
 70
     0
 40
0.0
 41
1.0
 50
0.0
 71
     0
 42
0.0
  3
I011000D.TTF
  4

1001
ACAD
1000
IsonormD
1071
        0
  0
ENDTAB
  0
TABLE
  2
VIEW
  5
5
330
0
100
AcDbSymbolTable
 70
     0
  0
ENDTAB
  0
TABLE
  2
UCS
  5
6
330
0
100
AcDbSymbolTable
 70
     0
  0
ENDTAB
  0
TABLE
  2
APPID
  5
8
330
0
100
AcDbSymbolTable
 70
     5
  0
APPID
  5
16
330
8
100
AcDbSymbolTableRecord
100
AcDbRegAppTableRecord
  2
ACAD
 70
     0
  0
APPID
  5
26
330
8
100
AcDbSymbolTableRecord
100
AcDbRegAppTableRecord
  2
TopSolid'Draft
 70
     0
  0
APPID
  5
319D
330
8
100
AcDbSymbolTableRecord
100
AcDbRegAppTableRecord
  2
ACAD_MLEADERVER
 70
     0
  0
APPID
  5
5E45
330
8
100
AcDbSymbolTableRecord
100
AcDbRegAppTableRecord
  2
DCO15
 70
     0
  0
APPID
  5
632F
330
8
100
AcDbSymbolTableRecord
100
AcDbRegAppTableRecord
  2
ACAD_EXEMPT_FROM_CAD_STANDARDS
 70
     0
  0
ENDTAB
  0
TABLE
  2
DIMSTYLE
  5
9
330
0
100
AcDbSymbolTable
 70
     2
100
AcDbDimStyleTable
 71
     1
340
18
  0
DIMSTYLE
105
18
330
9
100
AcDbSymbolTableRecord
100
AcDbDimStyleTableRecord
  2
Standard
 70
     0
 41
1.25
 42
0.0
 44
0.75
 73
     0
 74
     0
 77
     1
140
2.5
146
0.8
147
1.25
176
     7
177
     7
178
     7
271
     2
340
17
  0
ENDTAB
  0
TABLE
  2
BLOCK_RECORD
  5
1
330
0
100
AcDbSymbolTable
 70
     2
  0
BLOCK_RECORD
  5
A
102
{ACAD_XDICTIONARY
360
31A7
102
}
330
1
100
AcDbSymbolTableRecord
100
AcDbBlockTableRecord
  2
*MODEL_SPACE
340
20
  0
BLOCK_RECORD
  5
B
330
1
100
AcDbSymbolTableRecord
100
AcDbBlockTableRecord
  2
*PAPER_SPACE
340
21
  0
ENDTAB
  0
ENDSEC
  0
SECTION
  2
BLOCKS
  0
BLOCK
  5
D
330
A
100
AcDbEntity
  8
0
100
AcDbBlockBegin
  2
*MODEL_SPACE
 70
     0
 10
0.0
 20
0.0
 30
0.0
  3
*MODEL_SPACE
  1

  0
ENDBLK
  5
E
330
A
100
AcDbEntity
  8
0
100
AcDbBlockEnd
  0
BLOCK
  5
F
330
B
100
AcDbEntity
 67
     1
  8
0
100
AcDbBlockBegin
  2
*PAPER_SPACE
 70
     0
 10
0.0
 20
0.0
 30
0.0
  3
*PAPER_SPACE
  1

  0
ENDBLK
  5
10
330
B
100
AcDbEntity
 67
     1
  8
0
100
AcDbBlockEnd
  0
ENDSEC
  0
SECTION
  2
ENTITIES
  0
LINE
  5
167A
330
A
100
AcDbEntity
  8
0
  6
CENTER
 62
     1
100
AcDbLine
 10
-8.0
 20
0.0000000000000142
 30
0.0
 11
8.000000000000227
 21
0.0000000000000142
 31
0.0
  0
LINE
  5
167B
330
A
100
AcDbEntity
  8
0
  6
CENTER
 62
     1
100
AcDbLine
 10
0.0
 20
-8.000000000000014
 30
0.0
 11
0.0
 21
8.000000000000028
 31
0.0
  0
LINE
  5
167C
330
A
100
AcDbEntity
  8
0
  6
CENTER
 62
     1
100
AcDbLine
 10
-33.00000000005957
 20
88.0000001489064
 30
0.0
 11
-17.00000000005957
 21
88.0000001489064
 31
0.0
  0
LINE
  5
167D
330
A
100
AcDbEntity
  8
0
  6
CENTER
 62
     1
100
AcDbLine
 10
-25.00000000005957
 20
80.00000014890639
 30
0.0
 11
-25.00000000005957
 21
96.00000014890641
 31
0.0
  0
LINE
  5
167E
330
A
100
AcDbEntity
  8
0
  6
CENTER
 62
     1
100
AcDbLine
 10
-32.73700980485183
 20
63.00000014890641
 30
0.0
 11
-46.03700980485178
 21
63.00000014890639
 31
0.0
  0
LINE
  5
167F
330
A
100
AcDbEntity
  8
0
  6
CENTER
 62
     1
100
AcDbLine
 10
0.0000000000110276
 20
109.9999998510059
 30
0.0
 11
-0.0000000000951559
 21
95.73700995370298
 31
0.0
  0
LINE
  5
1680
330
A
100
AcDbEntity
  8
0
  6
CENTER
 62
     1
100
AcDbLine
 10
-113.0000001489353
 20
-22.0000000000052
 30
0.0
 11
-113.0000001489353
 21
1.999999999994741
 31
0.0
  0
LINE
  5
1685
330
A
100
AcDbEntity
  8
0
  6
CENTER
 62
     1
100
AcDbLine
 10
-134.999999851035
 20
0.0000000000000142
 30
0.0
 11
-120.7370099537321
 21
0.0000000000000142
 31
0.0
  0
LINE
  5
1686
330
A
100
AcDbEntity
  8
0
  6
CENTER
 62
     1
100
AcDbLine
 10
98.49999985098577
 20
0.0000000000000142
 30
0.0
 11
84.23700995368278
 21
0.0000000000000142
 31
0.0
  0
LINE
  5
1687
330
A
100
AcDbEntity
  8
0
  6
CENTER
 62
     1
100
AcDbLine
 10
-33.00000000005957
 20
-84.00000014891588
 30
0.0
 11
-17.00000000005957
 21
-84.00000014891588
 31
0.0
  0
LINE
  5
1688
330
A
100
AcDbEntity
  8
0
  6
CENTER
 62
     1
100
AcDbLine
 10
-25.00000000005957
 20
-92.00000014891589
 30
0.0
 11
-25.00000000005957
 21
-76.000000148916
 31
0.0
  0
LINE
  5
1689
330
A
100
AcDbEntity
  8
0
  6
CENTER
 62
     1
100
AcDbLine
 10
-32.73700980485183
 20
-59.00000014891588
 30
0.0
 11
-46.03700980485178
 21
-59.00000014891588
 31
0.0
  0
LINE
  5
168A
330
A
100
AcDbEntity
  8
0
  6
CENTER
 62
     1
100
AcDbLine
 10
0.0000000000110276
 20
-105.9999998510155
 30
0.0
 11
-0.0000000000951559
 21
-91.73700995371248
 31
0.0
  0
ELLIPSE
  5
49EC
330
A
100
AcDbEntity
  8
0
  6
Continuous
 62
     7
370
     0
100
AcDbEllipse
 10
56.73461347487478
 20
-62.98951029169862
 30
0.0
 11
4.000000000000002
 21
0.0
 31
0.0
210
0.0
220
0.0
230
1.0
 40
0.4082482904638633
 41
0.0447362801002167
 42
3.096856373489578
  0
LINE
  5
49ED
330
A
100
AcDbEntity
  8
0
  6
Continuous
 62
     7
370
     0
100
AcDbLine
 10
58.72905585175181
 20
-63.46482298502971
 30
0.0
 11
56.72354417739779
 21
-63.93230850305198
 31
0.0
  0
LINE
  5
49EE
330
A
100
AcDbEntity
  8
0
  6
Continuous
 62
     7
370
     0
100
AcDbLine
 10
58.74012514922867
 20
-62.52202477367638
 30
0.0
 11
58.72905585175181
 21
-63.46482298502971
 31
0.0
  0
LINE
  5
49EF
330
A
100
AcDbEntity
  8
0
  6
Continuous
 62
     7
370
     0
100
AcDbLine
 10
56.74568277235175
 20
-62.04671208034532
 30
0.0
 11
58.74012514922867
 21
-62.52202477367638
 31
0.0
  0
LINE
  5
49F0
330
A
100
AcDbEntity
  8
0
  6
Continuous
 62
     7
370
     0
100
AcDbLine
 10
54.74017109799774
 20
-62.51419759836761
 30
0.0
 11
56.74568277235175
 21
-62.04671208034532
 31
0.0
  0
LINE
  5
49F1
330
A
100
AcDbEntity
  8
0
  6
Continuous
 62
     7
370
     0
100
AcDbLine
 10
54.72910180052088
 20
-63.45699580972098
 30
0.0
 11
54.74017109799774
 21
-62.51419759836761
 31
0.0
  0
LINE
  5
49F2
330
A
100
AcDbEntity
  8
0
  6
Continuous
 62
     7
370
     0
100
AcDbLine
 10
56.72354417739779
 20
-63.93230850305198
 30
0.0
 11
54.72910180052088
 21
-63.45699580972098
 31
0.0
  0
LINE
  5
49F3
330
A
100
AcDbEntity
  8
0
  6
Continuous
 62
     7
370
     0
100
AcDbLine
 10
54.74017109799774
 20
-62.51419759836761
 30
0.0
 11
54.74017109799774
 21
-63.45963382907811
 31
0.0
  0
LINE
  5
49F4
330
A
100
AcDbEntity
  8
0
  6
Continuous
 62
     7
370
     0
100
AcDbLine
 10
56.74568277235175
 20
-62.04671208034532
 30
0.0
 11
56.74568277235175
 21
-63.92714798832532
 31
0.0
  0
LINE
  5
49F5
330
A
100
AcDbEntity
  8
0
  6
Continuous
 62
     9
370
     0
100
AcDbLine
 10
74.26538652515285
 20
-75.55061419011872
 30
0.0
 11
74.26538652515285
 21
-104.7624839237276
 31
0.0
  0
ELLIPSE
  5
49F6
330
A
100
AcDbEntity
  8
0
  6
Continuous
 62
     7
370
     0
100
AcDbEllipse
 10
75.33869915433559
 20
-74.6742580981072
 30
0.0
 11
2.399999999999957
 21
0.0
 31
-0.0000000000000001
210
0.0
220
0.0000000000000001
230
1.0
 40
0.4082482904638634
 41
4.248741371391393
 42
5.819537698186278
  0
LINE
  5
49F7
330
A
100
AcDbEntity
  8
0
  6
Continuous
 62
     9
370
     0
100
AcDbLine
 10
77.48532441274381
 20
-75.11243614410481
 30
0.0
 11
77.48532441274381
 21
-104.3243058777136
 31
0.0
  0
ELLIPSE
  5
49F8
330
A
100
AcDbEntity
  8
0
  6
Continuous
 62
     7
370
     0
100
AcDbEllipse
 10
75.33869915433559
 20
-103.886127831716
 30
0.0
 11
2.399999999999957
 21
0.0
 31
-0.0000000000000001
210
0.0
220
0.0000000000000001
230
1.0
 40
0.4082482904638634
 41
4.248741371391319
 42
5.819537698186246
  0
LINE
  5
49F9
330
A
100
AcDbEntity
  8
0
  6
Continuous
 62
     7
370
     0
100
AcDbLine
 10
74.26538652515285
 20
-75.55061419011872
 30
0.0
 11
57.0923844578898
 21
-72.04518982213798
 31
0.0
  0
ELLIPSE
  5
49FA
330
A
100
AcDbEntity
  8
0
  6
Continuous
 62
     7
370
     0
100
AcDbEllipse
 10
58.16569708707368
 20
-71.1688337301264
 30
0.0
 11
2.399999999999957
 21
0.0
 31
0.0
210
0.0
220
0.0
230
1.0
 40
0.4082482904638636
 41
3.141592653589792
 42
4.248741371391393
  0
LINE
  5
49FB
330
A
100
AcDbEntity
  8
0
  6
Continuous
 62
     7
370
     0
100
AcDbLine
 10
56.0190718286658
 20
-70.7306556841288
 30
0.0
 11
56.73461358145482
 21
-70.14641828945449
 31
0.0
  0
LINE
  5
49FC
330
A
100
AcDbEntity
  8
0
  6
Continuous
 62
     7
370
     0
100
AcDbLine
 10
56.73461358145482
 20
-70.14641828945449
 30
0.0
 11
78.20086616553282
 21
-74.5281987494304
 31
0.0
  0
LINE
  5
49FD
330
A
100
AcDbEntity
  8
0
  6
Continuous
 62
     7
370
     0
100
AcDbLine
 10
78.20086616553282
 20
-74.5281987494304
 30
0.0
 11
77.48532441274381
 21
-75.11243614410481
 31
0.0
  0
LINE
  5
49FE
330
A
100
AcDbEntity
  8
0
  6
Continuous
 62
     9
370
     0
100
AcDbLine
 10
57.0923844578898
 20
-72.04518982213798
 30
0.0
 11
57.0923844578898
 21
-101.2570595557468
 31
0.0
  0
LINE
  5
49FF
330
A
100
AcDbEntity
  8
0
  6
Continuous
 62
     7
370
     0
100
AcDbLine
 10
74.26538652515285
 20
-104.7624839237276
 30
0.0
 11
57.0923844578898
 21
-101.2570595557468
 31
0.0
  0
LINE
  5
4A00
330
A
100
AcDbEntity
  8
0
  6
Continuous
 62
     7
370
     0
100
AcDbLine
 10
78.20086616553282
 20
-74.5281987494304
 30
0.0
 11
78.20086616553282
 21
-103.7400684830393
 31
0.0
  0
LINE
  5
4A01
330
A
100
AcDbEntity
  8
0
  6
Continuous
 62
     7
370
     0
100
AcDbLine
 10
78.20086616553282
 20
-103.7400684830393
 30
0.0
 11
77.48532441274381
 21
-104.3243058777136
 31
0.0
  0
ELLIPSE
  5
4A02
330
A
100
AcDbEntity
  8
0
  6
Continuous
 62
     7
370
     0
100
AcDbEllipse
 10
58.16569708707368
 20
-71.1688337301264
 30
0.0
 11
2.399999999999957
 21
0.0
 31
0.0
210
0.0
220
0.0000000000000001
230
1.0
 40
0.4082482904638634
 41
2.677945044596413
 42
3.141592653589792
  0
ELLIPSE
  5
4A03
330
A
100
AcDbEntity
  8
0
  6
Continuous
 62
     7
370
     0
100
AcDbEllipse
 10
58.16569708707368
 20
-100.3807034637353
 30
0.0
 11
2.399999999999957
 21
0.0
 31
0.0
210
0.0
220
0.0
230
1.0
 40
0.4082482904638636
 41
3.14159265358977
 42
4.24874137139131
  0
LINE
  5
4A04
330
A
100
AcDbEntity
  8
0
  6
Continuous
 62
     9
370
     0
100
AcDbLine
 10
46.00148718287164
 20
-57.00107699632622
 30
0.0
 11
46.00148718288039
 21
-86.21294672992773
 31
0.0
  0
LINE
  5
4A05
330
A
100
AcDbEntity
  8
0
  6
Continuous
 62
     7
370
     0
100
AcDbLine
 10
47.4325706884714
 20
-57.29319569366229
 30
0.0
 11
46.00148718287164
 21
-57.00107699632622
 31
0.0
  0
LINE
  5
4A06
330
A
100
AcDbEntity
  8
0
  6
Continuous
 62
     7
370
     0
100
AcDbLine
 10
47.4325706884714
 20
-57.29319569366229
 30
0.0
 11
47.43257068848016
 21
-86.50506542726381
 31
0.0
  0
LINE
  5
4A07
330
A
100
AcDbEntity
  8
0
  6
Continuous
 62
     7
370
     0
100
AcDbLine
 10
47.43257068848016
 20
-86.50506542726381
 30
0.0
 11
46.00148718288039
 21
-86.21294672992773
 31
0.0
  0
ELLIPSE
  5
4A08
330
A
100
AcDbEntity
  8
0
  6
Continuous
 62
     7
370
     0
100
AcDbEllipse
 10
47.07479981207143
 20
-56.1247209043166
 30
0.0
 11
2.400000000000068
 21
0.0000000000007216
 31
0.0000000000000001
210
0.0
220
0.0
230
1.0
 40
0.4082482904643732
 41
3.141592653589781
 42
4.248741371383805
  0
LINE
  5
4A09
330
A
100
AcDbEntity
  8
0
  6
Continuous
 62
     7
370
     0
100
AcDbLine
 10
44.92817455367151
 20
-55.6865428583124
 30
0.0
 11
53.51467558727086
 21
-48.67569412223528
 31
0.0
  0
ELLIPSE
  5
4A0A
330
A
100
AcDbEntity
  8
0
  6
Continuous
 62
     7
370
     0
100
AcDbEllipse
 10
55.66130084566975
 20
-49.11387216823951
 30
0.0
 11
2.399999999999957
 21
0.0000000000007216
 31
0.0
210
0.0
220
0.0
230
1.0
 40
0.4082482904643732
 41
1.107148717793958
 42
2.677945044588808
  0
LINE
  5
4A0B
330
A
100
AcDbEntity
  8
0
  6
Continuous
 62
     7
370
     0
100
AcDbLine
 10
56.73461347486977
 20
-48.2375160762298
 30
0.0
 11
58.16569698047079
 21
-48.5296347735659
 31
0.0
  0
LINE
  5
4A0C
330
A
100
AcDbEntity
  8
0
  6
Continuous
 62
     7
370
     0
100
AcDbLine
 10
58.16569698047079
 20
-48.5296347735659
 30
0.0
 11
47.4325706884714
 21
-57.29319569366229
 31
0.0
  0
LINE
  5
4A0D
330
A
100
AcDbEntity
  8
0
  6
Continuous
 62
     7
370
     0
100
AcDbLine
 10
58.16569698047079
 20
-48.5296347735659
 30
0.0
 11
58.16569698047079
 21
-50.1859106828611
 31
0.0
  0
LINE
  5
4A0E
330
A
100
AcDbEntity
  8
0
  6
Continuous
 62
     7
370
     0
100
AcDbLine
 10
49.22142507047874
 20
-85.04447194058229
 30
0.0
 11
47.43257068848016
 21
-86.50506542726381
 31
0.0
  0
ELLIPSE
  5
4A0F
330
A
100
AcDbEntity
  8
0
  6
Continuous
 62
     7
370
     0
100
AcDbEllipse
 10
47.07479981207143
 20
-56.1247209043166
 30
0.0
 11
2.400000000000068
 21
0.0000000000007216
 31
0.0000000000000001
210
0.0
220
0.0
230
1.0
 40
0.4082482904643731
 41
2.677945044588883
 42
3.141592653589781
  0
ELLIPSE
  5
4A10
330
A
100
AcDbEntity
  8
0
  6
Continuous
 62
     7
370
     0
100
AcDbEllipse
 10
47.07479981208041
 20
-85.33659063791811
 30
0.0
 11
2.399999999999957
 21
0.0000000000007216
 31
0.0000000000000001
210
0.0
220
0.0
230
1.0
 40
0.4082482904643732
 41
3.141592653589803
 42
4.248741371383762
  0
LINE
  5
4A11
330
A
100
AcDbEntity
  8
0
  6
Continuous
 62
     7
370
     0
100
AcDbLine
 10
58.52346785687473
 20
-54.0798900229546
 30
0.0
 11
58.52346785687473
 21
-51.158703049594
 31
0.0
  0
LINE
  5
4A12
330
A
100
AcDbEntity
  8
0
  6
Continuous
 62
     7
370
     0
100
AcDbLine
 10
49.22142507047579
 20
-85.0444719405803
 30
0.0
 11
50.65250857607577
 21
-83.87599715123622
 31
0.0
  0
ELLIPSE
  5
4A13
330
A
100
AcDbEntity
  8
0
  6
Continuous
 62
     7
370
     0
100
AcDbEllipse
 10
49.22142507047579
 20
-83.58387845389989
 30
0.0
 11
0.320000000000098
 21
1.567673435381277
 31
0.0
210
0.0
220
0.0
230
1.0
 40
0.4082482904638631
 41
2.034443935795827
 42
3.141592653589928
  0
LINE
  5
4A14
330
A
100
AcDbEntity
  8
0
  6
Continuous
 62
     7
370
     0
100
AcDbLine
 10
48.50588331767676
 20
-59.3380265750045
 30
0.0
 11
48.50588331767676
 21
-84.16811584857212
 31
0.0
  0
ELLIPSE
  5
4A15
330
A
100
AcDbEntity
  8
0
  6
Continuous
 62
     7
370
     0
100
AcDbEllipse
 10
49.22142507047579
 20
-58.75378918033229
 30
0.0
 11
0.320000000000098
 21
1.567673435381249
 31
0.0
210
0.0
220
0.0
230
1.0
 40
0.4082482904638633
 41
0.4636476090009102
 42
2.034443935795865
  0
LINE
  5
4A16
330
A
100
AcDbEntity
  8
0
  6
Continuous
 62
     7
370
     0
100
AcDbLine
 10
57.80792610407582
 20
-50.28234695758581
 30
0.0
 11
49.22142507047579
 21
-57.29319569365191
 31
0.0
  0
ELLIPSE
  5
4A17
330
A
100
AcDbEntity
  8
0
  6
Continuous
 62
     7
370
     0
100
AcDbEllipse
 10
57.80792610407582
 20
-51.7429404442662
 30
0.0
 11
0.320000000000098
 21
1.567673435381249
 31
0.0
210
0.0
220
0.0
230
1.0
 40
0.4082482904638633
 41
5.176036589385518
 42
6.283185307179449
  0
LINE
  5
4A18
330
A
100
AcDbEntity
  8
0
  6
Continuous
 62
     9
370
     0
100
AcDbLine
 10
47.7903415648766
 20
-59.19196722633649
 30
0.0
 11
48.50588331767676
 21
-59.3380265750045
 31
0.0
  0
ELLIPSE
  5
4A19
330
A
100
AcDbEntity
  8
0
  6
Continuous
 62
     7
370
     0
100
AcDbEllipse
 10
48.50588331767676
 20
-58.6077298316643
 30
0.0
 11
0.320000000000098
 21
1.567673435381221
 31
0.0
210
0.0
220
0.0
230
1.0
 40
0.4082482904638631
 41
0.4636476090007617
 42
2.034443935795585
  0
LINE
  5
4A1A
330
A
100
AcDbEntity
  8
0
  6
Continuous
 62
     9
370
     0
100
AcDbLine
 10
48.50588331767676
 20
-57.14713634498389
 30
0.0
 11
49.22142507047579
 21
-57.29319569365191
 31
0.0
  0
LINE
  5
4A1B
330
A
100
AcDbEntity
  8
0
  6
Continuous
 62
     9
370
     0
100
AcDbLine
 10
47.7903415648766
 20
-84.02205649990401
 30
0.0
 11
48.50588331767676
 21
-84.16811584857212
 31
0.0
  0
LINE
  5
4A1C
330
A
100
AcDbEntity
  8
0
  6
Continuous
 62
     7
370
     0
100
AcDbLine
 10
47.7903415648766
 20
-59.19196722633649
 30
0.0
 11
47.7903415648766
 21
-84.02205649990401
 31
0.0
  0
LINE
  5
4A1D
330
A
100
AcDbEntity
  8
0
  6
Continuous
 62
     9
370
     0
100
AcDbLine
 10
57.09238435127474
 20
-50.13628760891771
 30
0.0
 11
57.80792610407582
 21
-50.28234695758581
 31
0.0
  0
LINE
  5
4A1E
330
A
100
AcDbEntity
  8
0
  6
Continuous
 62
     7
370
     0
100
AcDbLine
 10
57.09238435127474
 20
-50.13628760891771
 30
0.0
 11
48.50588331767676
 21
-57.14713634498389
 31
0.0
  0
ELLIPSE
  5
4A1F
330
A
100
AcDbEntity
  8
0
  6
Continuous
 62
     7
370
     0
100
AcDbEllipse
 10
49.22142507047579
 20
-83.58387845389989
 30
0.0
 11
0.320000000000098
 21
1.567673435381277
 31
0.0
210
0.0000000000000001
220
0.0
230
1.0
 40
0.408248290463863
 41
3.141592653589928
 42
3.6052402625907
  0
ELLIPSE
  5
4A20
330
A
100
AcDbEntity
  8
0
  6
Continuous
 62
     7
370
     0
100
AcDbEllipse
 10
48.50588331767676
 20
-83.43781910523189
 30
0.0
 11
0.320000000000098
 21
1.567673435381221
 31
0.0
210
0.0
220
0.0
230
1.0
 40
0.4082482904638631
 41
2.034443935795585
 42
3.141592653589513
  0
ELLIPSE
  5
4A21
330
A
100
AcDbEntity
  8
0
  6
Continuous
 62
     7
370
     0
100
AcDbEllipse
 10
57.09238435127474
 20
-51.5968810955982
 30
0.0
 11
0.320000000000098
 21
1.567673435381277
 31
0.0
210
0.0
220
0.0
230
1.0
 40
0.4082482904638631
 41
6.283185307179445
 42
6.746832916180482
  0
ELLIPSE
  5
4A22
330
A
100
AcDbEntity
  8
0
  6
Continuous
 62
     7
370
     0
100
AcDbEllipse
 10
57.80792610407582
 20
-51.7429404442662
 30
0.0
 11
0.320000000000098
 21
1.567673435381249
 31
0.0
210
0.0
220
0.0
230
1.0
 40
0.4082482904638633
 41
6.283185307179449
 42
6.746832916180486
  0
LINE
  5
4A23
330
A
100
AcDbEntity
  8
0
  6
Continuous
 62
     9
370
     0
100
AcDbLine
 10
79.63194956447285
 20
-71.89913056045662
 30
0.0
 11
79.27417868807276
 21
-72.19124925779272
 31
0.0
  0
ELLIPSE
  5
4A24
330
A
100
AcDbEntity
  8
0
  6
Continuous
 62
     7
370
     0
100
AcDbEllipse
 10
79.63194956447285
 20
-73.35972404713698
 30
0.0
 11
1.011928851253784
 21
-1.239354670786312
 31
0.0
210
0.0
220
0.0
230
1.0
 40
0.8164965809277134
 41
0.7853981633974893
 42
2.356194490192455
  0
LINE
  5
4A25
330
A
100
AcDbEntity
  8
0
  6
Continuous
 62
     9
370
     0
100
AcDbLine
 10
81.06303307007271
 20
-73.65184274447298
 30
0.0
 11
80.70526219367286
 21
-73.94396144180911
 31
0.0
  0
ELLIPSE
  5
4A26
330
A
100
AcDbEntity
  8
0
  6
Continuous
 62
     7
370
     0
100
AcDbEllipse
 10
79.27417868807276
 20
-73.65184274447298
 30
0.0
 11
1.011928851253784
 21
-1.239354670786312
 31
0.0
210
0.0
220
0.0
230
1.0
 40
0.8164965809277134
 41
0.7853981633974893
 42
2.356194490192455
  0
LINE
  5
4A27
330
A
100
AcDbEntity
  8
0
  6
Continuous
 62
     7
370
     0
100
AcDbLine
 10
80.70526219367286
 20
-98.77405071537621
 30
0.0
 11
80.70526219367286
 21
-73.94396144180911
 31
0.0
  0
ELLIPSE
  5
4A28
330
A
100
AcDbEntity
  8
0
  6
Continuous
 62
     7
370
     0
100
AcDbEllipse
 10
79.27417868807276
 20
-98.48193201804011
 30
0.0
 11
1.011928851253784
 21
-1.239354670786312
 31
0.0
210
0.0
220
0.0
230
1.0
 40
0.8164965809277134
 41
5.497787143782248
 42
6.283185307179585
  0
LINE
  5
4A29
330
A
100
AcDbEntity
  8
0
  6
Continuous
 62
     7
370
     0
100
AcDbLine
 10
78.20086616553282
 20
-99.7234365034903
 30
0.0
 11
79.27417868807276
 21
-99.94252550472049
 31
0.0
  0
LINE
  5
4A2A
330
A
100
AcDbEntity
  8
0
  6
Continuous
 62
     7
370
     0
100
AcDbLine
 10
60.67009311527488
 20
-69.85429967910391
 30
0.0
 11
60.67009311527488
 21
-70.94974468535821
 31
0.0
  0
ELLIPSE
  5
4A2B
330
A
100
AcDbEntity
  8
0
  6
Continuous
 62
     7
370
     0
100
AcDbEllipse
 10
62.10117662087487
 20
-70.14641837643998
 30
0.0
 11
1.011928851253784
 21
-1.23935467078634
 31
0.0
210
0.0
220
0.0
230
1.0
 40
0.8164965809277134
 41
2.356194490192466
 42
3.141592653589802
  0
LINE
  5
4A2C
330
A
100
AcDbEntity
  8
0
  6
Continuous
 62
     7
370
     0
100
AcDbLine
 10
79.27417868807276
 20
-72.19124925779272
 30
0.0
 11
62.10117662087487
 21
-68.6858248897596
 31
0.0
  0
LINE
  5
4A2D
330
A
100
AcDbEntity
  8
0
  6
Continuous
 62
     7
370
     0
100
AcDbLine
 10
81.06303307007271
 20
-98.48193201804011
 30
0.0
 11
81.06303307007271
 21
-73.65184274447298
 31
0.0
  0
LINE
  5
4A2E
330
A
100
AcDbEntity
  8
0
  6
Continuous
 62
     9
370
     0
100
AcDbLine
 10
81.06303307007271
 20
-98.48193201804011
 30
0.0
 11
80.70526219367286
 21
-98.77405071537621
 31
0.0
  0
LINE
  5
4A2F
330
A
100
AcDbEntity
  8
0
  6
Continuous
 62
     9
370
     0
100
AcDbLine
 10
62.45894749727483
 20
-68.39370619242348
 30
0.0
 11
62.10117662087487
 21
-68.6858248897596
 31
0.0
  0
LINE
  5
4A30
330
A
100
AcDbEntity
  8
0
  6
Continuous
 62
     7
370
     0
100
AcDbLine
 10
79.63194956447285
 20
-71.89913056045662
 30
0.0
 11
62.45894749727483
 21
-68.39370619242348
 31
0.0
  0
ELLIPSE
  5
4A31
330
A
100
AcDbEntity
  8
0
  6
Continuous
 62
     7
370
     0
100
AcDbEllipse
 10
62.10117662087487
 20
-70.14641837643998
 30
0.0
 11
1.011928851253784
 21
-1.23935467078634
 31
0.0
210
0.0
220
0.0
230
1.0
 40
0.8164965809277134
 41
3.141592653589921
 42
3.926990816987323
  0
ELLIPSE
  5
4A32
330
A
100
AcDbEntity
  8
0
  6
Continuous
 62
     7
370
     0
100
AcDbEllipse
 10
62.45894749727483
 20
-69.85429967910391
 30
0.0
 11
1.011928851253784
 21
-1.23935467078634
 31
0.0
210
0.0
220
0.0
230
1.0
 40
0.8164965809277134
 41
2.356194490192466
 42
3.141592653589921
  0
ELLIPSE
  5
4A33
330
A
100
AcDbEntity
  8
0
  6
Continuous
 62
     7
370
     0
100
AcDbEllipse
 10
79.63194956447285
 20
-98.189813320704
 30
0.0
 11
1.011928851253784
 21
-1.239354670786312
 31
0.0
210
0.0
220
0.0
230
1.0
 40
0.8164965809277134
 41
6.283185307179585
 42
7.068583470577075
  0
ELLIPSE
  5
4A34
330
A
100
AcDbEntity
  8
0
  6
Continuous
 62
     7
370
     0
100
AcDbEllipse
 10
79.27417868807276
 20
-98.48193201804011
 30
0.0
 11
1.011928851253784
 21
-1.239354670786312
 31
0.0
210
0.0
220
0.0
230
1.0
 40
0.8164965809277134
 41
6.283185307179585
 42
7.068583470577075
  0
LINE
  5
4A35
330
A
100
AcDbEntity
  8
0
  6
Continuous
 62
     7
370
     0
100
AcDbLine
 10
81.77857482287288
 20
-100.8188815967291
 30
0.0
 11
81.77857482287288
 21
-71.60701186312022
 31
0.0
  0
LINE
  5
4A36
330
A
100
AcDbEntity
  8
0
  6
Continuous
 62
     7
370
     0
100
AcDbLine
 10
78.20086616553282
 20
-100.0885848751607
 30
0.0
 11
81.77857482287288
 21
-100.8188815967291
 31
0.0
  0
LINE
  5
4A37
330
A
100
AcDbEntity
  8
0
  6
Continuous
 62
     7
370
     0
100
AcDbLine
 10
59.23900960967478
 20
-70.65762598802749
 30
0.0
 11
59.23900960967478
 21
-67.0061423800768
 31
0.0
  0
LINE
  5
4A38
330
A
100
AcDbEntity
  8
0
  6
Continuous
 62
     7
370
     0
100
AcDbLine
 10
59.23900960967478
 20
-67.0061423800768
 30
0.0
 11
81.77857482287288
 21
-71.60701186312022
 31
0.0
  0
LINE
  5
4A39
330
A
100
AcDbEntity
  8
0
  6
Continuous
 62
     7
370
     0
100
AcDbLine
 10
82.49411657567282
 20
-100.2346442020568
 30
0.0
 11
82.49411657567282
 21
-71.02277446844798
 31
0.0
  0
LINE
  5
4A3A
330
A
100
AcDbEntity
  8
0
  6
Continuous
 62
     7
370
     0
100
AcDbLine
 10
81.77857482287288
 20
-100.8188815967291
 30
0.0
 11
82.49411657567282
 21
-100.2346442020568
 31
0.0
  0
LINE
  5
4A3B
330
A
100
AcDbEntity
  8
0
  6
Continuous
 62
     7
370
     0
100
AcDbLine
 10
81.77857482287288
 20
-71.60701186312022
 30
0.0
 11
82.49411657567282
 21
-71.02277446844798
 31
0.0
  0
ELLIPSE
  5
4A3C
330
A
100
AcDbEntity
  8
0
  6
Continuous
 62
     7
370
     0
100
AcDbEllipse
 10
12.84087924485982
 20
-97.99321053381852
 30
0.0
 11
-95.99999999999996
 21
0.0
 31
0.0
210
0.0
220
0.0
230
1.0
 40
0.4082482904638633
 41
3.90054908089642
 42
4.183163925491493
  0
LINE
  5
4A3D
330
A
100
AcDbEntity
  8
0
  6
Continuous
 62
     7
370
     0
100
AcDbLine
 10
59.41789504787482
 20
-66.86008303140872
 30
0.0
 11
59.23900960967478
 21
-67.0061423800768
 31
0.0
  0
ELLIPSE
  5
4A3E
330
A
100
AcDbEntity
  8
0
  6
Continuous
 62
     7
370
     0
100
AcDbEllipse
 10
59.06012417147485
 20
-66.78705335707471
 30
0.0
 11
0.3999999999999559
 21
0.0
 31
0.0
210
0.0
220
0.0
230
1.0
 40
0.4082482904638633
 41
0.0
 42
1.107148717794307
  0
LINE
  5
4A3F
330
A
100
AcDbEntity
  8
0
  6
Continuous
 62
     7
370
     0
100
AcDbLine
 10
54.23021734007568
 20
-65.61857856773039
 30
0.0
 11
59.23900960967478
 21
-66.64099400840672
 31
0.0
  0
LINE
  5
4A40
330
A
100
AcDbEntity
  8
0
  6
Continuous
 62
     7
370
     0
100
AcDbLine
 10
54.97144588610274
 20
-65.0133679942133
 30
0.0
 11
54.23021734007568
 21
-65.61857856773039
 31
0.0
  0
ELLIPSE
  5
4A41
330
A
100
AcDbEntity
  8
0
  6
Continuous
 62
     7
370
     0
100
AcDbEllipse
 10
56.73461347487478
 20
-62.84345094303748
 30
0.0
 11
-5.600000000000048
 21
0.0
 31
0.0
210
0.0
220
0.0
230
1.0
 40
0.4082482904638631
 41
1.250496286699455
 42
2.526386045309963
  0
ELLIPSE
  5
4A42
330
A
100
AcDbEntity
  8
0
  6
Continuous
 62
     7
370
     0
100
AcDbEllipse
 10
59.06012417147485
 20
-66.78705335707471
 30
0.0
 11
0.3999999999999559
 21
0.0
 31
0.0
210
0.0
220
0.0
230
1.0
 40
0.4082482904638633
 41
5.819537698178717
 42
6.283185307179585
  0
LINE
  5
4A43
330
A
100
AcDbEntity
  8
0
  6
Continuous
 62
     9
370
     0
100
AcDbLine
 10
59.23900960967478
 20
-67.0061423800768
 30
0.0
 11
59.23900960967478
 21
-66.64099400840672
 31
0.0
  0
LINE
  5
4A44
330
A
100
AcDbEntity
  8
0
  6
Continuous
 62
     7
370
     0
100
AcDbLine
 10
54.23021734007568
 20
-94.83044830133923
 30
0.0
 11
55.76569708707371
 21
-95.14387679221622
 31
0.0
  0
LINE
  5
4A45
330
A
100
AcDbEntity
  8
0
  6
Continuous
 62
     7
370
     0
100
AcDbLine
 10
54.23021734007568
 20
-94.83044830133923
 30
0.0
 11
54.23021734007568
 21
-65.61857856773039
 31
0.0
  0
ELLIPSE
  5
4A46
330
A
100
AcDbEntity
  8
0
  6
Continuous
 62
     7
370
     0
100
AcDbEllipse
 10
56.73461347487478
 20
-92.05532067664638
 30
0.0
 11
-4.799999999999914
 21
0.0
 31
0.0
210
0.0
220
0.0000000000000001
230
1.0
 40
0.408248290463863
 41
0.0
 42
1.021896257834346
  0
ELLIPSE
  5
4A47
330
A
100
AcDbEntity
  8
0
  6
Continuous
 62
     7
370
     0
100
AcDbEllipse
 10
56.73461347487478
 20
-77.44938580984189
 30
0.0
 11
-4.799999999999914
 21
0.0
 31
0.0
210
0.0
220
0.0000000000000001
230
1.0
 40
0.408248290463863
 41
0.0
 42
1.021896257834352
  0
LINE
  5
4A48
330
A
100
AcDbEntity
  8
0
  6
Continuous
 62
     7
370
     0
100
AcDbLine
 10
52.44136295807573
 20
-61.96709485102928
 30
0.0
 11
52.62024839627589
 21
-61.82103550236121
 31
0.0
  0
ELLIPSE
  5
4A49
330
A
100
AcDbEntity
  8
0
  6
Continuous
 62
     7
370
     0
100
AcDbEllipse
 10
52.2624775198758
 20
-61.74800582802721
 30
0.0
 11
-0.3999999999999559
 21
0.0
 31
0.0
210
0.0
220
0.0
230
1.0
 40
0.4082482904638633
 41
2.67794504458911
 42
3.141592653589792
  0
LINE
  5
4A4A
330
A
100
AcDbEntity
  8
0
  6
Continuous
 62
     7
370
     0
100
AcDbLine
 10
52.44136295807573
 20
-61.60194647935921
 30
0.0
 11
50.65250857607577
 21
-61.236798107689
 31
0.0
  0
LINE
  5
4A4B
330
A
100
AcDbEntity
  8
0
  6
Continuous
 62
     7
370
     0
100
AcDbLine
 10
50.65250857607577
 20
-61.236798107689
 30
0.0
 11
53.15690471087577
 21
-59.1919672263364
 31
0.0
  0
ELLIPSE
  5
4A4C
330
A
100
AcDbEntity
  8
0
  6
Continuous
 62
     7
370
     0
100
AcDbEllipse
 10
52.79913383447581
 20
-59.11893755200239
 30
0.0
 11
-0.3999999999999559
 21
0.0
 31
0.0
210
0.0
220
0.0
230
1.0
 40
0.4082482904638633
 41
2.67794504458911
 42
3.141592653589792
  0
LINE
  5
4A4D
330
A
100
AcDbEntity
  8
0
  6
Continuous
 62
     7
370
     0
100
AcDbLine
 10
52.97801927267585
 20
-58.9728782033344
 30
0.0
 11
52.62024839627589
 21
-58.89984852900031
 31
0.0
  0
LINE
  5
4A4E
330
A
100
AcDbEntity
  8
0
  6
Continuous
 62
     7
370
     0
100
AcDbLine
 10
52.62024839627589
 20
-58.89984852900031
 30
0.0
 11
63.89003100287482
 21
-49.69810956291351
 31
0.0
  0
LINE
  5
4A4F
330
A
100
AcDbEntity
  8
0
  6
Continuous
 62
     7
370
     0
100
AcDbLine
 10
63.89003100287482
 20
-49.69810956291351
 30
0.0
 11
65.3211145084748
 21
-49.99022826024958
 31
0.0
  0
ELLIPSE
  5
4A50
330
A
100
AcDbEntity
  8
0
  6
Continuous
 62
     7
370
     0
100
AcDbEllipse
 10
-30.03975925648467
 20
-45.4753684473001
 30
0.0
 11
95.99999999999996
 21
0.0
 31
0.0
210
0.0
220
0.0
230
1.0
 40
0.4082482904638633
 41
5.881352128721068
 42
6.167729988666242
  0
ELLIPSE
  5
4A51
330
A
100
AcDbEntity
  8
0
  6
Continuous
 62
     7
370
     0
100
AcDbEllipse
 10
58.6815540244828
 20
-60.86740410268788
 30
0.0
 11
-0.3999999999999559
 21
0.0
 31
0.0
210
0.0
220
0.0
230
1.0
 40
0.4082482904638633
 41
5.881352128721117
 42
6.283185307179585
  0
LINE
  5
4A52
330
A
100
AcDbEntity
  8
0
  6
Continuous
 62
     7
370
     0
100
AcDbLine
 10
58.50266858628287
 20
-61.0134634513559
 30
0.0
 11
58.8812387332747
 21
-61.09073875902097
 31
0.0
  0
ELLIPSE
  5
4A53
330
A
100
AcDbEntity
  8
0
  6
Continuous
 62
     7
370
     0
100
AcDbEllipse
 10
56.73461347487478
 20
-62.84345094303748
 30
0.0
 11
4.799999999999914
 21
0.0
 31
0.0
210
0.0
220
0.0
230
1.0
 40
0.4082482904638633
 41
0.0
 42
1.107148717794069
  0
ELLIPSE
  5
4A54
330
A
100
AcDbEntity
  8
0
  6
Continuous
 62
     7
370
     0
100
AcDbEllipse
 10
56.73461347487478
 20
-62.84345094303748
 30
0.0
 11
4.000000000000002
 21
0.0
 31
0.0
210
0.0
220
0.0
230
1.0
 40
0.4082482904638633
 41
3.141592653589792
 42
4.248741371383904
  0
ELLIPSE
  5
4A55
330
A
100
AcDbEntity
  8
0
  6
Continuous
 62
     7
370
     0
100
AcDbEllipse
 10
56.73461347487478
 20
-62.84345094303748
 30
0.0
 11
4.799999999999914
 21
0.0
 31
0.0
210
0.0
220
0.0000000000000001
230
1.0
 40
0.408248290463863
 41
2.677945044588991
 42
3.141592653589792
  0
ELLIPSE
  5
4A56
330
A
100
AcDbEntity
  8
0
  6
Continuous
 62
     7
370
     0
100
AcDbEllipse
 10
56.73461347487478
 20
-62.84345094303748
 30
0.0
 11
4.799999999999914
 21
0.0
 31
0.0
210
0.0
220
0.0000000000000001
230
1.0
 40
0.408248290463863
 41
3.141592653589792
 42
6.283185307179585
  0
ELLIPSE
  5
4A57
330
A
100
AcDbEntity
  8
0
  6
Continuous
 62
     7
370
     0
100
AcDbEllipse
 10
56.73461347487478
 20
-77.44938580984189
 30
0.0
 11
4.799999999999914
 21
0.0
 31
0.0
210
0.0
220
0.0000000000000001
230
1.0
 40
0.4082482904638633
 41
3.141592653589792
 42
4.163488911424146
  0
ELLIPSE
  5
4A58
330
A
100
AcDbEntity
  8
0
  6
Continuous
 62
     7
370
     0
100
AcDbEllipse
 10
56.73461347487478
 20
-62.84345094303748
 30
0.0
 11
4.000000000000002
 21
0.0
 31
-0.0000000000000003
210
0.0000000000000001
220
0.0000000000000001
230
1.0
 40
0.4082482904638636
 41
4.248741371383904
 42
6.283185307179585
  0
ELLIPSE
  5
4A59
330
A
100
AcDbEntity
  8
0
  6
Continuous
 62
     7
370
     0
100
AcDbEllipse
 10
56.73461347487478
 20
-62.84345094303748
 30
0.0
 11
4.000000000000002
 21
0.0
 31
-0.0000000000000003
210
0.0000000000000001
220
0.0000000000000001
230
1.0
 40
0.4082482904638636
 41
0.0
 42
3.141592653589792
  0
ELLIPSE
  5
4A5A
330
A
100
AcDbEntity
  8
0
  6
Continuous
 62
     7
370
     0
100
AcDbEllipse
 10
52.2624775198758
 20
-61.74800582802721
 30
0.0
 11
-0.3999999999999559
 21
0.0
 31
0.0
210
0.0
220
0.0000000000000001
230
1.0
 40
0.408248290463863
 41
3.141592653589792
 42
4.248741371384101
  0
LINE
  5
4A5B
330
A
100
AcDbEntity
  8
0
  6
Continuous
 62
     9
370
     0
100
AcDbLine
 10
52.44136295807573
 20
-61.60194647935921
 30
0.0
 11
52.44136295807573
 21
-61.9670948510292
 31
0.0
  0
LINE
  5
4A5C
330
A
100
AcDbEntity
  8
0
  6
Continuous
 62
     7
370
     0
100
AcDbLine
 10
51.93461347487482
 20
-90.710376407863
 30
0.0
 11
50.65250857607577
 21
-90.44866784129792
 31
0.0
  0
LINE
  5
4A5D
330
A
100
AcDbEntity
  8
0
  6
Continuous
 62
     7
370
     0
100
AcDbLine
 10
50.65250857607577
 20
-61.236798107689
 30
0.0
 11
50.65250857607577
 21
-90.44866784129792
 31
0.0
  0
ELLIPSE
  5
4A5E
330
A
100
AcDbEntity
  8
0
  6
Continuous
 62
     7
370
     0
100
AcDbEllipse
 10
58.6815540244828
 20
-60.86740410268788
 30
0.0
 11
-0.3999999999999559
 21
0.0
 31
0.0
210
0.0
220
0.0000000000000001
230
1.0
 40
0.4082482904638631
 41
0.0
 42
1.107148717794307
  0
LINE
  5
4A5F
330
A
100
AcDbEntity
  8
0
  6
Continuous
 62
     9
370
     0
100
AcDbLine
 10
58.31341579510183
 20
-60.80353673482321
 30
0.0
 11
58.31341579510183
 21
-60.93127147055262
 31
0.0
  0
LINE
  5
4A60
330
A
100
AcDbEntity
  8
0
  6
Continuous
 62
     7
370
     0
100
AcDbLine
 10
65.3211145084748
 20
-49.99022826024958
 30
0.0
 11
65.3211145084748
 21
-65.1759769852807
 31
0.0
  0
ELLIPSE
  5
4A61
330
A
100
AcDbEntity
  8
0
  6
Continuous
 62
     7
370
     0
100
AcDbEllipse
 10
52.79913383447581
 20
-59.11893755200239
 30
0.0
 11
-0.3999999999999559
 21
0.0
 31
0.0
210
0.0
220
0.0
230
1.0
 40
0.4082482904638635
 41
3.141592653589792
 42
4.248741371383603
  0
LINE
  5
4A62
330
A
100
AcDbEntity
  8
0
  6
Continuous
 62
     9
370
     0
100
AcDbLine
 10
52.97801927267585
 20
-58.9728782033344
 30
0.0
 11
52.97801927267585
 21
-59.3380265750045
 31
0.0
  0
LINE
  5
4A63
330
A
100
AcDbEntity
  8
0
  6
Continuous
 62
     7
370
     0
100
AcDbLine
 10
52.62024839627589
 20
-58.89984852900031
 30
0.0
 11
52.62024839627589
 21
-59.63014527234048
 31
0.0
  0
LINE
  5
4A64
330
A
100
AcDbEntity
  8
0
  6
Continuous
 62
     7
370
     0
100
AcDbLine
 10
55.76569708707371
 20
-71.1688337301264
 30
0.0
 11
55.76569708707371
 21
-100.3807034637353
 31
0.0
  0
LINE
  5
4A65
330
A
100
AcDbEntity
  8
0
  6
Continuous
 62
     7
370
     0
100
AcDbLine
 10
44.67479981207145
 20
-56.12472090431729
 30
0.0
 11
44.67479981208009
 21
-85.33659063791882
 31
0.0
  0
LINE
  5
4A66
330
A
100
AcDbEntity
  8
0
  6
Continuous
 62
     7
370
     0
100
AcDbLine
 10
48.1858833176758
 20
-85.00549254061311
 30
0.0
 11
48.90142507047585
 21
-85.1515518892811
 31
0.0
  0
LINE
  5
4A67
330
A
100
AcDbEntity
  8
0
  6
Continuous
 62
     7
370
     0
100
AcDbLine
 10
58.12792610407587
 20
-50.17526700888499
 30
0.0
 11
57.41238435127582
 21
-50.02920766021691
 31
0.0
  0
LINE
  5
4A68
330
A
100
AcDbEntity
  8
0
  6
Continuous
 62
     7
370
     0
100
AcDbLine
 10
61.44701864602087
 20
-68.61494500831762
 30
0.0
 11
61.08924776962067
 21
-68.90706370565371
 31
0.0
  0
LINE
  5
4A69
330
A
100
AcDbEntity
  8
0
  6
Continuous
 62
     7
370
     0
100
AcDbLine
 10
80.28610753932673
 20
-99.72128668882641
 30
0.0
 11
80.64387841572681
 21
-99.42916799149029
 31
0.0
  0
LINE
  5
4A6A
330
A
100
AcDbEntity
  8
0
  6
Continuous
 62
     7
370
     0
100
AcDbLine
 10
51.93461347487482
 20
-77.44938580984189
 30
0.0
 11
51.93461347487482
 21
-92.05532067664638
 31
0.0
  0
LINE
  5
4A6B
330
A
100
AcDbEntity
  8
0
  6
Continuous
 62
     7
370
     0
100
AcDbLine
 10
61.53461347487473
 20
-64.21718292365139
 30
0.0
 11
61.53461347487473
 21
-62.84345094303748
 31
0.0
  0
LINE
  5
4A6C
330
A
100
AcDbEntity
  8
0
  6
Continuous
 62
     7
370
     0
100
AcDbLine
 10
51.93461347487482
 20
-62.84345094303748
 30
0.0
 11
51.93461347487482
 21
-77.44938580984189
 31
0.0
  0
LINE
  5
4A6D
330
A
100
AcDbEntity
  8
0
  6
Continuous
 62
     7
370
     0
100
AcDbLine
 10
90.50000005909863
 20
-5.999999999999957
 30
0.0
 11
90.50000005909863
 21
6.000000000000014
 31
0.0
  0
LINE
  5
4A6E
330
A
100
AcDbEntity
  8
0
  6
Continuous
 62
     7
370
     0
100
AcDbLine
 10
98.49999985109787
 20
20.00000000000006
 30
0.0
 11
96.49999985109786
 21
20.00000000000006
 31
0.0
  0
LINE
  5
4A6F
330
A
100
AcDbEntity
  8
0
  6
Continuous
 62
     9
370
     0
100
AcDbLine
 10
98.49999985109787
 20
20.00000000000006
 30
0.0
 11
98.49999985109787
 21
-19.9999999999999
 31
0.0
  0
LINE
  5
4A70
330
A
100
AcDbEntity
  8
0
  6
Continuous
 62
     7
370
     0
100
AcDbLine
 10
96.49999985109786
 20
20.00000000000006
 30
0.0
 11
96.49999985109786
 21
-19.9999999999999
 31
0.0
  0
LINE
  5
4A71
330
A
100
AcDbEntity
  8
0
  6
Continuous
 62
     7
370
     0
100
AcDbLine
 10
98.49999985109787
 20
-19.9999999999999
 30
0.0
 11
96.49999985109786
 21
-19.9999999999999
 31
0.0
  0
LINE
  5
4A72
330
A
100
AcDbEntity
  8
0
  6
Continuous
 62
     7
370
     0
100
AcDbLine
 10
101.4999998510758
 20
20.00000000000006
 30
0.0
 11
101.4999998510758
 21
-19.9999999999999
 31
0.0
  0
LINE
  5
4A73
330
A
100
AcDbEntity
  8
0
  6
Continuous
 62
     7
370
     0
100
AcDbLine
 10
101.4999998510758
 20
20.00000000000006
 30
0.0
 11
98.49999985109787
 21
20.00000000000006
 31
0.0
  0
LINE
  5
4A74
330
A
100
AcDbEntity
  8
0
  6
Continuous
 62
     7
370
     0
100
AcDbLine
 10
101.4999998510758
 20
-19.9999999999999
 30
0.0
 11
98.49999985109787
 21
-19.9999999999999
 31
0.0
  0
LINE
  5
4A75
330
A
100
AcDbEntity
  8
0
  6
Continuous
 62
     7
370
     0
100
AcDbLine
 10
89.99999985098577
 20
-4.899999999999977
 30
0.0
 11
89.99999985098577
 21
0.0000000000000426
 31
0.0
  0
LINE
  5
4A76
330
A
100
AcDbEntity
  8
0
  6
Continuous
 62
     7
370
     0
100
AcDbLine
 10
89.99999985098577
 20
0.0000000000000426
 30
0.0
 11
89.99999985098577
 21
4.900000000000048
 31
0.0
  0
LINE
  5
4A77
330
A
100
AcDbEntity
  8
0
  6
Continuous
 62
     9
370
     0
100
AcDbLine
 10
63.50000014889975
 20
19.99999999998773
 30
0.0
 11
63.50000014887474
 21
-20.00000000001229
 31
0.0
  0
LINE
  5
4A78
330
A
100
AcDbEntity
  8
0
  6
Continuous
 62
     7
370
     0
100
AcDbLine
 10
66.50000014889974
 20
19.99999999998584
 30
0.0
 11
66.50000014887473
 21
-20.0000000000141
 31
0.0
  0
LINE
  5
4A79
330
A
100
AcDbEntity
  8
0
  6
Continuous
 62
     7
370
     0
100
AcDbLine
 10
66.50000014889974
 20
19.99999999998584
 30
0.0
 11
63.50000014889975
 21
19.99999999998773
 31
0.0
  0
LINE
  5
4A7A
330
A
100
AcDbEntity
  8
0
  6
Continuous
 62
     7
370
     0
100
AcDbLine
 10
66.50000014887473
 20
-20.0000000000141
 30
0.0
 11
63.50000014887474
 21
-20.00000000001229
 31
0.0
  0
LINE
  5
4A7B
330
A
100
AcDbEntity
  8
0
  6
Continuous
 62
     9
370
     0
100
AcDbLine
 10
39.50000014890031
 20
20.00000000000271
 30
0.0
 11
39.50000014887553
 21
-19.99999999999721
 31
0.0
  0
LINE
  5
4A7C
330
A
100
AcDbEntity
  8
0
  6
Continuous
 62
     7
370
     0
100
AcDbLine
 10
63.50000014889975
 20
19.99999999998773
 30
0.0
 11
39.50000014890031
 21
20.00000000000271
 31
0.0
  0
LINE
  5
4A7D
330
A
100
AcDbEntity
  8
0
  6
Continuous
 62
     7
370
     0
100
AcDbLine
 10
63.50000014887474
 20
-20.00000000001229
 30
0.0
 11
39.50000014887553
 21
-19.99999999999721
 31
0.0
  0
LINE
  5
4A7E
330
A
100
AcDbEntity
  8
0
  6
Continuous
 62
     7
370
     0
100
AcDbLine
 10
36.5000001489002
 20
20.00000000000459
 30
0.0
 11
36.50000014887553
 21
-19.99999999999539
 31
0.0
  0
LINE
  5
4A7F
330
A
100
AcDbEntity
  8
0
  6
Continuous
 62
     7
370
     0
100
AcDbLine
 10
39.50000014890031
 20
20.00000000000271
 30
0.0
 11
36.5000001489002
 21
20.00000000000459
 31
0.0
  0
LINE
  5
4A80
330
A
100
AcDbEntity
  8
0
  6
Continuous
 62
     7
370
     0
100
AcDbLine
 10
39.50000014887553
 20
-19.99999999999721
 30
0.0
 11
36.50000014887553
 21
-19.99999999999539
 31
0.0
  0
LINE
  5
4A81
330
A
100
AcDbEntity
  8
0
  6
Continuous
 62
     9
370
     0
100
AcDbLine
 10
96.50000014888576
 20
-17.0000000000052
 30
0.0
 11
95.50000014888576
 21
-17.0000000000052
 31
0.0
  0
LINE
  5
4A82
330
A
100
AcDbEntity
  8
0
  6
Continuous
 62
     7
370
     0
100
AcDbLine
 10
96.50000014888576
 20
-19.0000000000052
 30
0.0
 11
95.50000014888576
 21
-19.0000000000052
 31
0.0
  0
LINE
  5
4A83
330
A
100
AcDbEntity
  8
0
  6
Continuous
 62
     7
370
     0
100
AcDbLine
 10
95.50000014888576
 20
-19.0000000000052
 30
0.0
 11
95.50000014888576
 21
-17.0000000000052
 31
0.0
  0
LINE
  5
4A84
330
A
100
AcDbEntity
  8
0
  6
Continuous
 62
     9
370
     0
100
AcDbLine
 10
96.50000014888576
 20
16.99999999999474
 30
0.0
 11
95.50000014888576
 21
16.99999999999474
 31
0.0
  0
LINE
  5
4A85
330
A
100
AcDbEntity
  8
0
  6
Continuous
 62
     7
370
     0
100
AcDbLine
 10
95.50000014888576
 20
-17.0000000000052
 30
0.0
 11
95.50000014888576
 21
16.99999999999474
 31
0.0
  0
LINE
  5
4A86
330
A
100
AcDbEntity
  8
0
  6
Continuous
 62
     7
370
     0
100
AcDbLine
 10
96.50000014888576
 20
18.99999999999474
 30
0.0
 11
95.50000014888576
 21
18.99999999999474
 31
0.0
  0
LINE
  5
4A87
330
A
100
AcDbEntity
  8
0
  6
Continuous
 62
     7
370
     0
100
AcDbLine
 10
95.50000014888576
 20
16.99999999999474
 30
0.0
 11
95.50000014888576
 21
18.99999999999474
 31
0.0
  0
LINE
  5
4A88
330
A
100
AcDbEntity
  8
0
  6
Continuous
 62
     9
370
     0
100
AcDbLine
 10
86.50000014888666
 20
-17.0000000000049
 30
0.0
 11
87.50000014888668
 21
-17.0000000000049
 31
0.0
  0
LINE
  5
4A89
330
A
100
AcDbEntity
  8
0
  6
Continuous
 62
     9
370
     0
100
AcDbLine
 10
86.50000014888666
 20
16.99999999999439
 30
0.0
 11
87.50000014888668
 21
16.99999999999439
 31
0.0
  0
LINE
  5
4A8A
330
A
100
AcDbEntity
  8
0
  6
Continuous
 62
     7
370
     0
100
AcDbLine
 10
87.50000014888668
 20
16.99999999999439
 30
0.0
 11
87.50000014888668
 21
-17.0000000000049
 31
0.0
  0
LINE
  5
4A8B
330
A
100
AcDbEntity
  8
0
  6
Continuous
 62
     7
370
     0
100
AcDbLine
 10
86.50000014888666
 20
-19.0000000000048
 30
0.0
 11
87.50000014888668
 21
-19.0000000000048
 31
0.0
  0
LINE
  5
4A8C
330
A
100
AcDbEntity
  8
0
  6
Continuous
 62
     7
370
     0
100
AcDbLine
 10
87.50000014888668
 20
-17.0000000000049
 30
0.0
 11
87.50000014888668
 21
-19.0000000000048
 31
0.0
  0
LINE
  5
4A8D
330
A
100
AcDbEntity
  8
0
  6
Continuous
 62
     7
370
     0
100
AcDbLine
 10
86.50000014888666
 20
18.99999999999434
 30
0.0
 11
87.50000014888668
 21
18.99999999999434
 31
0.0
  0
LINE
  5
4A8E
330
A
100
AcDbEntity
  8
0
  6
Continuous
 62
     7
370
     0
100
AcDbLine
 10
87.50000014888668
 20
18.99999999999434
 30
0.0
 11
87.50000014888668
 21
16.99999999999439
 31
0.0
  0
LINE
  5
4A8F
330
A
100
AcDbEntity
  8
0
  6
Continuous
 62
     7
370
     0
100
AcDbLine
 10
75.50000014888667
 20
-20.0000000000052
 30
0.0
 11
82.50000014888668
 21
-20.0000000000052
 31
0.0
  0
LINE
  5
4A90
330
A
100
AcDbEntity
  8
0
  6
Continuous
 62
     7
370
     0
100
AcDbLine
 10
76.00000014888667
 20
-0.000000000005258
 30
0.0
 11
76.50000014888667
 21
-0.000000000005258
 31
0.0
  0
LINE
  5
4A91
330
A
100
AcDbEntity
  8
0
  6
Continuous
 62
     7
370
     0
100
AcDbLine
 10
76.50000014888667
 20
-0.000000000005258
 30
0.0
 11
82.50000014888668
 21
-0.000000000005258
 31
0.0
  0
LINE
  5
4A92
330
A
100
AcDbEntity
  8
0
  6
Continuous
 62
     7
370
     0
100
AcDbLine
 10
82.50000014888668
 20
-20.0000000000052
 30
0.0
 11
82.50000014888668
 21
-0.000000000005258
 31
0.0
  0
LINE
  5
4A93
330
A
100
AcDbEntity
  8
0
  6
Continuous
 62
     9
370
     0
100
AcDbLine
 10
83.00000014888667
 20
-20.0000000000052
 30
0.0
 11
83.00000014888667
 21
-0.000000000005258
 31
0.0
  0
LINE
  5
4A94
330
A
100
AcDbEntity
  8
0
  6
Continuous
 62
     7
370
     0
100
AcDbLine
 10
83.00000014888667
 20
-0.000000000005258
 30
0.0
 11
82.50000014888668
 21
-0.000000000005258
 31
0.0
  0
LINE
  5
4A95
330
A
100
AcDbEntity
  8
0
  6
Continuous
 62
     7
370
     0
100
AcDbLine
 10
83.00000014888667
 20
-20.0000000000052
 30
0.0
 11
82.50000014888668
 21
-20.0000000000052
 31
0.0
  0
LINE
  5
4A96
330
A
100
AcDbEntity
  8
0
  6
Continuous
 62
     7
370
     0
100
AcDbLine
 10
83.4282033791618
 20
-0.000000000005258
 30
0.0
 11
83.4282033791618
 21
19.99999999999475
 31
0.0
  0
LINE
  5
4A97
330
A
100
AcDbEntity
  8
0
  6
Continuous
 62
     7
370
     0
100
AcDbLine
 10
85.50000014888667
 20
-20.0000000000052
 30
0.0
 11
85.50000014888667
 21
19.99999999999475
 31
0.0
  0
LINE
  5
4A98
330
A
100
AcDbEntity
  8
0
  6
Continuous
 62
     7
370
     0
100
AcDbLine
 10
83.4282033791618
 20
19.99999999999475
 30
0.0
 11
85.50000014888667
 21
19.99999999999475
 31
0.0
  0
LINE
  5
4A99
330
A
100
AcDbEntity
  8
0
  6
Continuous
 62
     7
370
     0
100
AcDbLine
 10
83.00000014888667
 20
-0.000000000005258
 30
0.0
 11
83.4282033791618
 21
-0.000000000005258
 31
0.0
  0
LINE
  5
4A9A
330
A
100
AcDbEntity
  8
0
  6
Continuous
 62
     7
370
     0
100
AcDbLine
 10
83.00000014888667
 20
-20.0000000000052
 30
0.0
 11
85.50000014888667
 21
-20.0000000000052
 31
0.0
  0
LINE
  5
4A9B
330
A
100
AcDbEntity
  8
0
  6
Continuous
 62
     7
370
     0
100
AcDbLine
 10
82.50000014888668
 20
19.99999999999475
 30
0.0
 11
83.4282033791618
 21
19.99999999999475
 31
0.0
  0
LINE
  5
4A9C
330
A
100
AcDbEntity
  8
0
  6
Continuous
 62
     9
370
     0
100
AcDbLine
 10
86.00000014888667
 20
-20.0000000000052
 30
0.0
 11
86.00000014888667
 21
19.99999999999475
 31
0.0
  0
LINE
  5
4A9D
330
A
100
AcDbEntity
  8
0
  6
Continuous
 62
     7
370
     0
100
AcDbLine
 10
86.00000014888667
 20
19.99999999999475
 30
0.0
 11
85.50000014888667
 21
19.99999999999475
 31
0.0
  0
LINE
  5
4A9E
330
A
100
AcDbEntity
  8
0
  6
Continuous
 62
     7
370
     0
100
AcDbLine
 10
86.00000014888667
 20
-20.0000000000052
 30
0.0
 11
85.50000014888667
 21
-20.0000000000052
 31
0.0
  0
LINE
  5
4A9F
330
A
100
AcDbEntity
  8
0
  6
Continuous
 62
     7
370
     0
100
AcDbLine
 10
86.50000014888666
 20
-20.0000000000052
 30
0.0
 11
86.50000014888666
 21
19.99999999999475
 31
0.0
  0
LINE
  5
4AA0
330
A
100
AcDbEntity
  8
0
  6
Continuous
 62
     7
370
     0
100
AcDbLine
 10
86.00000014888667
 20
19.99999999999475
 30
0.0
 11
86.50000014888666
 21
19.99999999999475
 31
0.0
  0
LINE
  5
4AA1
330
A
100
AcDbEntity
  8
0
  6
Continuous
 62
     7
370
     0
100
AcDbLine
 10
86.00000014888667
 20
-20.0000000000052
 30
0.0
 11
86.50000014888666
 21
-20.0000000000052
 31
0.0
  0
LINE
  5
4AA2
330
A
100
AcDbEntity
  8
0
  6
Continuous
 62
     7
370
     0
100
AcDbLine
 10
68.00000014888678
 20
19.99999999999475
 30
0.0
 11
68.00000014888678
 21
-20.0000000000052
 31
0.0
  0
LINE
  5
4AA3
330
A
100
AcDbEntity
  8
0
  6
Continuous
 62
     7
370
     0
100
AcDbLine
 10
68.00000014888678
 20
-20.0000000000052
 30
0.0
 11
66.50000014887473
 21
-20.0000000000052
 31
0.0
  0
LINE
  5
4AA4
330
A
100
AcDbEntity
  8
0
  6
Continuous
 62
     7
370
     0
100
AcDbLine
 10
68.00000014888678
 20
19.99999999999475
 30
0.0
 11
66.50000014889974
 21
19.99999999999029
 31
0.0
  0
LINE
  5
4AA5
330
A
100
AcDbEntity
  8
0
  6
Continuous
 62
     9
370
     0
100
AcDbLine
 10
68.50000014888678
 20
19.99999999999475
 30
0.0
 11
68.50000014888678
 21
-20.0000000000052
 31
0.0
  0
LINE
  5
4AA6
330
A
100
AcDbEntity
  8
0
  6
Continuous
 62
     7
370
     0
100
AcDbLine
 10
68.00000014888678
 20
-20.0000000000052
 30
0.0
 11
68.50000014888678
 21
-20.0000000000052
 31
0.0
  0
LINE
  5
4AA7
330
A
100
AcDbEntity
  8
0
  6
Continuous
 62
     7
370
     0
100
AcDbLine
 10
68.00000014888678
 20
19.99999999999475
 30
0.0
 11
68.50000014888678
 21
19.99999999999475
 31
0.0
  0
LINE
  5
4AA8
330
A
100
AcDbEntity
  8
0
  6
Continuous
 62
     7
370
     0
100
AcDbLine
 10
75.50000014888667
 20
19.99999999999475
 30
0.0
 11
75.50000014888667
 21
-20.0000000000052
 31
0.0
  0
LINE
  5
4AA9
330
A
100
AcDbEntity
  8
0
  6
Continuous
 62
     7
370
     0
100
AcDbLine
 10
75.50000014888667
 20
-20.0000000000052
 30
0.0
 11
68.50000014888678
 21
-20.0000000000052
 31
0.0
  0
LINE
  5
4AAA
330
A
100
AcDbEntity
  8
0
  6
Continuous
 62
     7
370
     0
100
AcDbLine
 10
75.50000014888667
 20
19.99999999999475
 30
0.0
 11
68.50000014888678
 21
19.99999999999475
 31
0.0
  0
LINE
  5
4AAB
330
A
100
AcDbEntity
  8
0
  6
Continuous
 62
     9
370
     0
100
AcDbLine
 10
76.00000014888667
 20
19.99999999999475
 30
0.0
 11
76.00000014888667
 21
-0.000000000005258
 31
0.0
  0
LINE
  5
4AAC
330
A
100
AcDbEntity
  8
0
  6
Continuous
 62
     7
370
     0
100
AcDbLine
 10
75.50000014888667
 20
-0.000000000005258
 30
0.0
 11
76.00000014888667
 21
-0.000000000005258
 31
0.0
  0
LINE
  5
4AAD
330
A
100
AcDbEntity
  8
0
  6
Continuous
 62
     7
370
     0
100
AcDbLine
 10
75.50000014888667
 20
19.99999999999475
 30
0.0
 11
76.00000014888667
 21
19.99999999999475
 31
0.0
  0
LINE
  5
4AAE
330
A
100
AcDbEntity
  8
0
  6
Continuous
 62
     7
370
     0
100
AcDbLine
 10
82.50000014888668
 20
19.99999999999475
 30
0.0
 11
76.50000014888667
 21
19.99999999999475
 31
0.0
  0
LINE
  5
4AAF
330
A
100
AcDbEntity
  8
0
  6
Continuous
 62
     7
370
     0
100
AcDbLine
 10
82.50000014888668
 20
-0.000000000005258
 30
0.0
 11
76.50000014888667
 21
-0.000000000005258
 31
0.0
  0
LINE
  5
4AB0
330
A
100
AcDbEntity
  8
0
  6
Continuous
 62
     9
370
     0
100
AcDbLine
 10
76.50000014888667
 20
19.99999999999475
 30
0.0
 11
76.50000014888667
 21
-0.000000000005258
 31
0.0
  0
LINE
  5
4AB1
330
A
100
AcDbEntity
  8
0
  6
Continuous
 62
     7
370
     0
100
AcDbLine
 10
76.50000014888667
 20
-0.000000000005258
 30
0.0
 11
76.00000014888667
 21
-0.000000000005258
 31
0.0
  0
LINE
  5
4AB2
330
A
100
AcDbEntity
  8
0
  6
Continuous
 62
     7
370
     0
100
AcDbLine
 10
76.50000014888667
 20
19.99999999999475
 30
0.0
 11
76.00000014888667
 21
19.99999999999475
 31
0.0
  0
LINE
  5
4AB3
330
A
100
AcDbEntity
  8
0
  6
Continuous
 62
     9
370
     0
100
AcDbLine
 10
89.99999985101874
 20
2.099999999892588
 30
0.0
 11
87.50000014888668
 21
2.09999999998179
 31
0.0
  0
LINE
  5
4AB4
330
A
100
AcDbEntity
  8
0
  6
Continuous
 62
     9
370
     0
100
AcDbLine
 10
87.50000014888668
 20
-2.100000000018226
 30
0.0
 11
89.99999985101874
 21
-2.100000000107414
 31
0.0
  0
LINE
  5
4AB5
330
A
100
AcDbEntity
  8
0
  6
Continuous
 62
     7
370
     0
100
AcDbLine
 10
89.99999985109377
 20
2.499999999892594
 30
0.0
 11
87.50000014888668
 21
2.499999999981781
 31
0.0
  0
LINE
  5
4AB6
330
A
100
AcDbEntity
  8
0
  6
Continuous
 62
     7
370
     0
100
AcDbLine
 10
87.50000014888668
 20
-2.500000000018218
 30
0.0
 11
89.99999985087891
 21
-2.500000000107405
 31
0.0
  0
LINE
  5
4AB7
330
A
100
AcDbEntity
  8
0
  6
Continuous
 62
     7
370
     0
100
AcDbLine
 10
90.50000005909863
 20
-6.000000000000326
 30
0.0
 11
95.50000005909863
 21
-6.000000000000326
 31
0.0
  0
LINE
  5
4AB8
330
A
100
AcDbEntity
  8
0
  6
Continuous
 62
     7
370
     0
100
AcDbLine
 10
95.50000005909863
 20
6.000000000000383
 30
0.0
 11
90.50000005909863
 21
6.000000000000383
 31
0.0
  0
LINE
  5
4AB9
330
A
100
AcDbEntity
  8
0
  6
Continuous
 62
     7
370
     0
100
AcDbLine
 10
89.99999985098577
 20
-4.899999999999977
 30
0.0
 11
90.50000005913274
 21
-4.899999999999977
 31
0.0
  0
LINE
  5
4ABA
330
A
100
AcDbEntity
  8
0
  6
Continuous
 62
     7
370
     0
100
AcDbLine
 10
90.50000005913274
 20
4.900000000000048
 30
0.0
 11
89.99999985098577
 21
4.900000000000048
 31
0.0
  0
LINE
  5
4ABB
330
A
100
AcDbEntity
  8
0
  6
Continuous
 62
     7
370
     0
100
AcDbLine
 10
82.50000014888668
 20
-0.000000000005258
 30
0.0
 11
82.50000014888668
 21
19.99999999999475
 31
0.0
  0
ARC
  5
4ABC
330
A
100
AcDbEntity
  8
0
  6
Continuous
 62
     7
370
     0
100
AcDbCircle
 10
-88.00000014893555
 20
0.0000000003271623
 30
0.0
 40
2.549999999999998
100
AcDbArc
 50
258.3483561673248
 51
281.6516438326686
  0
LINE
  5
4ABD
330
A
100
AcDbEntity
  8
0
  6
Continuous
 62
     7
370
     0
100
AcDbLine
 10
-87.48500014893545
 20
-2.497453702947424
 30
0.0
 11
-87.48500014893545
 21
-0.5149999996728525
 31
0.0
  0
LINE
  5
4ABE
330
A
100
AcDbEntity
  8
0
  6
Continuous
 62
     7
370
     0
100
AcDbLine
 10
-87.48500014893545
 20
-0.5149999996728525
 30
0.0
 11
-85.50254644566065
 21
-0.5149999996728525
 31
0.0
  0
ARC
  5
4ABF
330
A
100
AcDbEntity
  8
0
  6
Continuous
 62
     7
370
     0
100
AcDbCircle
 10
-88.00000014893555
 20
0.0000000003271623
 30
0.0
 40
2.550000000000101
100
AcDbArc
 50
348.3483561673277
 51
11.65164383267231
  0
LINE
  5
4AC0
330
A
100
AcDbEntity
  8
0
  6
Continuous
 62
     7
370
     0
100
AcDbLine
 10
-85.50254644566065
 20
0.5150000003271487
 30
0.0
 11
-87.48500014893545
 21
0.5150000003271487
 31
0.0
  0
LINE
  5
4AC1
330
A
100
AcDbEntity
  8
0
  6
Continuous
 62
     7
370
     0
100
AcDbLine
 10
-87.48500014893545
 20
0.5150000003271487
 30
0.0
 11
-87.48500014893545
 21
2.497453703601749
 31
0.0
  0
ARC
  5
4AC2
330
A
100
AcDbEntity
  8
0
  6
Continuous
 62
     7
370
     0
100
AcDbCircle
 10
-88.00000014893555
 20
0.0000000003271623
 30
0.0
 40
2.550000000000013
100
AcDbArc
 50
78.34835616732481
 51
101.6516438326686
  0
LINE
  5
4AC3
330
A
100
AcDbEntity
  8
0
  6
Continuous
 62
     7
370
     0
100
AcDbLine
 10
-88.51500014893554
 20
2.497453703601749
 30
0.0
 11
-88.51500014893554
 21
0.5150000003271487
 31
0.0
  0
LINE
  5
4AC4
330
A
100
AcDbEntity
  8
0
  6
Continuous
 62
     7
370
     0
100
AcDbLine
 10
-88.51500014893554
 20
0.5150000003271487
 30
0.0
 11
-90.49745385221001
 21
0.5150000003271487
 31
0.0
  0
ARC
  5
4AC5
330
A
100
AcDbEntity
  8
0
  6
Continuous
 62
     7
370
     0
100
AcDbCircle
 10
-88.00000014893555
 20
0.0000000003271623
 30
0.0
 40
2.54999999999999
100
AcDbArc
 50
168.3483561673277
 51
191.6516438326723
  0
LINE
  5
4AC6
330
A
100
AcDbEntity
  8
0
  6
Continuous
 62
     7
370
     0
100
AcDbLine
 10
-90.49745385221001
 20
-0.5149999996728525
 30
0.0
 11
-88.51500014893554
 21
-0.5149999996728525
 31
0.0
  0
LINE
  5
4AC7
330
A
100
AcDbEntity
  8
0
  6
Continuous
 62
     7
370
     0
100
AcDbLine
 10
-88.51500014893554
 20
-0.5149999996728525
 30
0.0
 11
-88.51500014893554
 21
-2.497453702947424
 31
0.0
  0
CIRCLE
  5
4AC8
330
A
100
AcDbEntity
  8
0
  6
Continuous
 62
     7
370
     0
100
AcDbCircle
 10
-88.00000014893555
 20
0.0000000003271623
 30
0.0
 40
4.649999999999931
  0
ARC
  5
4AC9
330
A
100
AcDbEntity
  8
0
  6
Continuous
 62
     7
370
     0
100
AcDbCircle
 10
-88.00000014893555
 20
0.0000000001321894
 30
0.0
 40
1.062415604874128
100
AcDbArc
 50
241.0042733693547
 51
298.9957266306383
  0
ARC
  5
4ACA
330
A
100
AcDbEntity
  8
0
  6
Continuous
 62
     7
370
     0
100
AcDbCircle
 10
-88.00000014893555
 20
0.0000000001321894
 30
0.0
 40
1.062415604874194
100
AcDbArc
 50
331.0042733693569
 51
28.9957266306438
  0
ARC
  5
4ACB
330
A
100
AcDbEntity
  8
0
  6
Continuous
 62
     7
370
     0
100
AcDbCircle
 10
-88.00000014893555
 20
0.0000000001321894
 30
0.0
 40
1.06241560487407
100
AcDbArc
 50
151.0042733693562
 51
208.9957266306438
  0
ARC
  5
4ACC
330
A
100
AcDbEntity
  8
0
  6
Continuous
 62
     7
370
     0
100
AcDbCircle
 10
-88.00000014893555
 20
0.0000000001321894
 30
0.0
 40
1.062415604874151
100
AcDbArc
 50
61.00427336935478
 51
118.9957266306387
  0
LINE
  5
4ACD
330
A
100
AcDbEntity
  8
0
  6
Continuous
 62
     7
370
     0
100
AcDbLine
 10
-127.0000000591474
 20
6.000000000000014
 30
0.0
 11
-127.0000000591474
 21
2.073559868794774
 31
0.0
  0
LINE
  5
4ACE
330
A
100
AcDbEntity
  8
0
  6
Continuous
 62
     7
370
     0
100
AcDbLine
 10
-127.0000000591474
 20
2.073559868794774
 30
0.0
 11
-127.0000000591474
 21
-6.0
 31
0.0
  0
LINE
  5
4ACF
330
A
100
AcDbEntity
  8
0
  6
Continuous
 62
     7
370
     0
100
AcDbLine
 10
-137.9999998509455
 20
20.00000000000004
 30
0.0
 11
-137.9999998509455
 21
-20.00000000000001
 31
0.0
  0
LINE
  5
4AD0
330
A
100
AcDbEntity
  8
0
  6
Continuous
 62
     7
370
     0
100
AcDbLine
 10
-134.9999998509231
 20
20.00000000000004
 30
0.0
 11
-137.9999998509455
 21
20.00000000000004
 31
0.0
  0
LINE
  5
4AD1
330
A
100
AcDbEntity
  8
0
  6
Continuous
 62
     9
370
     0
100
AcDbLine
 10
-134.9999998509231
 20
20.00000000000004
 30
0.0
 11
-134.9999998509231
 21
-20.00000000000001
 31
0.0
  0
LINE
  5
4AD2
330
A
100
AcDbEntity
  8
0
  6
Continuous
 62
     7
370
     0
100
AcDbLine
 10
-134.9999998509231
 20
-20.00000000000001
 30
0.0
 11
-137.9999998509455
 21
-20.00000000000001
 31
0.0
  0
LINE
  5
4AD3
330
A
100
AcDbEntity
  8
0
  6
Continuous
 62
     7
370
     0
100
AcDbLine
 10
-132.9999998509231
 20
20.00000000000004
 30
0.0
 11
-132.9999998509231
 21
-20.00000000000001
 31
0.0
  0
LINE
  5
4AD4
330
A
100
AcDbEntity
  8
0
  6
Continuous
 62
     7
370
     0
100
AcDbLine
 10
-132.9999998509231
 20
-20.00000000000001
 30
0.0
 11
-134.9999998509231
 21
-20.00000000000001
 31
0.0
  0
LINE
  5
4AD5
330
A
100
AcDbEntity
  8
0
  6
Continuous
 62
     7
370
     0
100
AcDbLine
 10
-132.9999998509231
 20
20.00000000000004
 30
0.0
 11
-134.9999998509231
 21
20.00000000000004
 31
0.0
  0
LINE
  5
4AD6
330
A
100
AcDbEntity
  8
0
  6
Continuous
 62
     7
370
     0
100
AcDbLine
 10
-126.499999851035
 20
4.900000000000048
 30
0.0
 11
-126.499999851035
 21
-4.899999999999977
 31
0.0
  0
LINE
  5
4AD7
330
A
100
AcDbEntity
  8
0
  6
Continuous
 62
     7
370
     0
100
AcDbLine
 10
-133.0000001489347
 20
-19.0000000000052
 30
0.0
 11
-132.0000001489347
 21
-19.0000000000052
 31
0.0
  0
LINE
  5
4AD8
330
A
100
AcDbEntity
  8
0
  6
Continuous
 62
     9
370
     0
100
AcDbLine
 10
-133.0000001489347
 20
-17.0000000000052
 30
0.0
 11
-132.0000001489347
 21
-17.0000000000052
 31
0.0
  0
LINE
  5
4AD9
330
A
100
AcDbEntity
  8
0
  6
Continuous
 62
     7
370
     0
100
AcDbLine
 10
-132.0000001489347
 20
-17.0000000000052
 30
0.0
 11
-132.0000001489347
 21
-19.0000000000052
 31
0.0
  0
LINE
  5
4ADA
330
A
100
AcDbEntity
  8
0
  6
Continuous
 62
     9
370
     0
100
AcDbLine
 10
-133.0000001489347
 20
16.99999999999474
 30
0.0
 11
-132.0000001489347
 21
16.99999999999474
 31
0.0
  0
LINE
  5
4ADB
330
A
100
AcDbEntity
  8
0
  6
Continuous
 62
     7
370
     0
100
AcDbLine
 10
-133.0000001489347
 20
18.99999999999474
 30
0.0
 11
-132.0000001489347
 21
18.99999999999474
 31
0.0
  0
LINE
  5
4ADC
330
A
100
AcDbEntity
  8
0
  6
Continuous
 62
     7
370
     0
100
AcDbLine
 10
-132.0000001489347
 20
18.99999999999475
 30
0.0
 11
-132.0000001489347
 21
16.99999999999474
 31
0.0
  0
LINE
  5
4ADD
330
A
100
AcDbEntity
  8
0
  6
Continuous
 62
     7
370
     0
100
AcDbLine
 10
-132.0000001489347
 20
16.99999999999474
 30
0.0
 11
-132.0000001489347
 21
-17.0000000000052
 31
0.0
  0
LINE
  5
4ADE
330
A
100
AcDbEntity
  8
0
  6
Continuous
 62
     7
370
     0
100
AcDbLine
 10
-123.0000001489353
 20
18.99999999999434
 30
0.0
 11
-124.0000001489355
 21
18.99999999999434
 31
0.0
  0
LINE
  5
4ADF
330
A
100
AcDbEntity
  8
0
  6
Continuous
 62
     9
370
     0
100
AcDbLine
 10
-123.0000001489353
 20
16.99999999999439
 30
0.0
 11
-124.0000001489355
 21
16.99999999999439
 31
0.0
  0
LINE
  5
4AE0
330
A
100
AcDbEntity
  8
0
  6
Continuous
 62
     7
370
     0
100
AcDbLine
 10
-124.0000001489355
 20
16.99999999999439
 30
0.0
 11
-124.0000001489355
 21
18.9999999999943
 31
0.0
  0
LINE
  5
4AE1
330
A
100
AcDbEntity
  8
0
  6
Continuous
 62
     9
370
     0
100
AcDbLine
 10
-123.0000001489353
 20
-17.0000000000049
 30
0.0
 11
-124.0000001489355
 21
-17.0000000000049
 31
0.0
  0
LINE
  5
4AE2
330
A
100
AcDbEntity
  8
0
  6
Continuous
 62
     7
370
     0
100
AcDbLine
 10
-124.0000001489355
 20
-17.0000000000049
 30
0.0
 11
-124.0000001489355
 21
16.99999999999439
 31
0.0
  0
LINE
  5
4AE3
330
A
100
AcDbEntity
  8
0
  6
Continuous
 62
     7
370
     0
100
AcDbLine
 10
-123.0000001489353
 20
-19.0000000000048
 30
0.0
 11
-124.0000001489355
 21
-19.0000000000048
 31
0.0
  0
LINE
  5
4AE4
330
A
100
AcDbEntity
  8
0
  6
Continuous
 62
     7
370
     0
100
AcDbLine
 10
-124.0000001489355
 20
-19.0000000000048
 30
0.0
 11
-124.0000001489355
 21
-17.0000000000049
 31
0.0
  0
LINE
  5
4AE5
330
A
100
AcDbEntity
  8
0
  6
Continuous
 62
     7
370
     0
100
AcDbLine
 10
-114.0568562544416
 20
-0.000000000005258
 30
0.0
 11
-114.0281130614413
 21
-0.000000000005258
 31
0.0
  0
LINE
  5
4AE6
330
A
100
AcDbEntity
  8
0
  6
Continuous
 62
     9
370
     0
100
AcDbLine
 10
-114.0281130614411
 20
-20.0000000000052
 30
0.0
 11
-114.0281130614411
 21
-0.000000000005258
 31
0.0
  0
LINE
  5
4AE7
330
A
100
AcDbEntity
  8
0
  6
Continuous
 62
     7
370
     0
100
AcDbLine
 10
-121.0000001489355
 20
-20.0000000000052
 30
0.0
 11
-114.0281130614413
 21
-20.0000000000052
 31
0.0
  0
LINE
  5
4AE8
330
A
100
AcDbEntity
  8
0
  6
Continuous
 62
     7
370
     0
100
AcDbLine
 10
-121.0000001489353
 20
-20.0000000000052
 30
0.0
 11
-121.0000001489353
 21
19.99999999999475
 31
0.0
  0
LINE
  5
4AE9
330
A
100
AcDbEntity
  8
0
  6
Continuous
 62
     7
370
     0
100
AcDbLine
 10
-121.0000001489357
 20
19.99999999999475
 30
0.0
 11
-114.0568562544416
 21
19.99999999999475
 31
0.0
  0
LINE
  5
4AEA
330
A
100
AcDbEntity
  8
0
  6
Continuous
 62
     7
370
     0
100
AcDbLine
 10
-114.0568562544416
 20
19.99999999999475
 30
0.0
 11
-114.0568562544416
 21
-0.000000000005258
 31
0.0
  0
LINE
  5
4AF2
330
A
100
AcDbEntity
  8
0
  6
Continuous
 62
     7
370
     0
100
AcDbLine
 10
-123.0000001489353
 20
-20.0000000000052
 30
0.0
 11
-121.0000001489353
 21
-20.0000000000052
 31
0.0
  0
LINE
  5
4AF3
330
A
100
AcDbEntity
  8
0
  6
Continuous
 62
     7
370
     0
100
AcDbLine
 10
-123.0000001489353
 20
-20.0000000000052
 30
0.0
 11
-123.0000001489353
 21
19.99999999999475
 31
0.0
  0
LINE
  5
4AF4
330
A
100
AcDbEntity
  8
0
  6
Continuous
 62
     7
370
     0
100
AcDbLine
 10
-123.0000001489353
 20
19.99999999999475
 30
0.0
 11
-121.0000001489353
 21
19.99999999999475
 31
0.0
  0
LINE
  5
4B08
330
A
100
AcDbEntity
  8
0
  6
Continuous
 62
     9
370
     0
100
AcDbLine
 10
-113.5290680132642
 20
-20.0000000000052
 30
0.0
 11
-113.5290680132642
 21
-0.000000000005258
 31
0.0
  0
LINE
  5
4B09
330
A
100
AcDbEntity
  8
0
  6
Continuous
 62
     7
370
     0
100
AcDbLine
 10
-113.5290680132642
 20
-0.000000000005258
 30
0.0
 11
-114.0281130614411
 21
-0.000000000005258
 31
0.0
  0
LINE
  5
4B0A
330
A
100
AcDbEntity
  8
0
  6
Continuous
 62
     7
370
     0
100
AcDbLine
 10
-113.5290680132642
 20
-20.0000000000052
 30
0.0
 11
-114.0281130614411
 21
-20.0000000000052
 31
0.0
  0
LINE
  5
4B0B
330
A
100
AcDbEntity
  8
0
  6
Continuous
 62
     9
370
     0
100
AcDbLine
 10
-113.0000001489353
 20
-20.0000000000052
 30
0.0
 11
-113.0000001489353
 21
-0.000000000005258
 31
0.0
  0
LINE
  5
4B0C
330
A
100
AcDbEntity
  8
0
  6
Continuous
 62
     7
370
     0
100
AcDbLine
 10
-113.0000001489353
 20
-0.000000000005258
 30
0.0
 11
-107.0000001489355
 21
-0.000000000005258
 31
0.0
  0
LINE
  5
4B0D
330
A
100
AcDbEntity
  8
0
  6
Continuous
 62
     7
370
     0
100
AcDbLine
 10
-113.0000001489353
 20
-20.0000000000052
 30
0.0
 11
-107.0000001489355
 21
-20.0000000000052
 31
0.0
  0
LINE
  5
4B0E
330
A
100
AcDbEntity
  8
0
  6
Continuous
 62
     7
370
     0
100
AcDbLine
 10
-113.5290680132642
 20
-0.000000000005258
 30
0.0
 11
-113.0000001489353
 21
-0.000000000005258
 31
0.0
  0
LINE
  5
4B0F
330
A
100
AcDbEntity
  8
0
  6
Continuous
 62
     7
370
     0
100
AcDbLine
 10
-113.5290680132642
 20
-20.0000000000052
 30
0.0
 11
-113.0000001489353
 21
-20.0000000000052
 31
0.0
  0
LINE
  5
4B10
330
A
100
AcDbEntity
  8
0
  6
Continuous
 62
     7
370
     0
100
AcDbLine
 10
-107.0000001489355
 20
19.99999999999475
 30
0.0
 11
-107.0000001489355
 21
-0.000000000005258
 31
0.0
  0
LINE
  5
4B11
330
A
100
AcDbEntity
  8
0
  6
Continuous
 62
     7
370
     0
100
AcDbLine
 10
-107.0000001489355
 20
-0.000000000005258
 30
0.0
 11
-113.0000001489353
 21
-0.000000000005258
 31
0.0
  0
LINE
  5
4B12
330
A
100
AcDbEntity
  8
0
  6
Continuous
 62
     7
370
     0
100
AcDbLine
 10
-113.0000001489353
 20
-0.000000000005258
 30
0.0
 11
-113.5290680132642
 21
-0.000000000005258
 31
0.0
  0
LINE
  5
4B13
330
A
100
AcDbEntity
  8
0
  6
Continuous
 62
     7
370
     0
100
AcDbLine
 10
-107.0000001489355
 20
19.99999999999475
 30
0.0
 11
-114.0568562544416
 21
19.99999999999475
 31
0.0
  0
LINE
  5
4B14
330
A
100
AcDbEntity
  8
0
  6
Continuous
 62
     9
370
     0
100
AcDbLine
 10
-106.5308876850989
 20
19.99999999999475
 30
0.0
 11
-106.5308876850989
 21
-0.000000000005258
 31
0.0
  0
LINE
  5
4B15
330
A
100
AcDbEntity
  8
0
  6
Continuous
 62
     7
370
     0
100
AcDbLine
 10
-107.0000001489355
 20
-0.000000000005258
 30
0.0
 11
-106.5308876850989
 21
-0.000000000005258
 31
0.0
  0
LINE
  5
4B16
330
A
100
AcDbEntity
  8
0
  6
Continuous
 62
     7
370
     0
100
AcDbLine
 10
-107.0000001489355
 20
19.99999999999475
 30
0.0
 11
-106.5308876850989
 21
19.99999999999475
 31
0.0
  0
LINE
  5
4B17
330
A
100
AcDbEntity
  8
0
  6
Continuous
 62
     7
370
     0
100
AcDbLine
 10
-73.00000014893555
 20
19.99999999999475
 30
0.0
 11
-73.00000014893555
 21
-20.0000000000052
 31
0.0
  0
LINE
  5
4B18
330
A
100
AcDbEntity
  8
0
  6
Continuous
 62
     7
370
     0
100
AcDbLine
 10
-73.00000014893555
 20
-20.0000000000052
 30
0.0
 11
-106.0802418314613
 21
-20.0000000000052
 31
0.0
  0
LINE
  5
4B19
330
A
100
AcDbEntity
  8
0
  6
Continuous
 62
     7
370
     0
100
AcDbLine
 10
-106.0802418314613
 20
-20.0000000000052
 30
0.0
 11
-106.0802418314613
 21
-0.000000000005258
 31
0.0
  0
CIRCLE
  5
4B1A
330
A
100
AcDbEntity
  8
0
  6
Continuous
 62
     7
370
     0
100
AcDbCircle
 10
-88.00002180061289
 20
-0.0007686114221173
 30
0.0
 40
4.99997840739916
  0
LINE
  5
4B1B
330
A
100
AcDbEntity
  8
0
  6
Continuous
 62
     7
370
     0
100
AcDbLine
 10
-106.0802418314613
 20
-0.000000000005258
 30
0.0
 11
-106.5308876850989
 21
-0.000000000005258
 31
0.0
  0
LINE
  5
4B1C
330
A
100
AcDbEntity
  8
0
  6
Continuous
 62
     7
370
     0
100
AcDbLine
 10
-73.00000014893555
 20
19.99999999999475
 30
0.0
 11
-106.5308876850989
 21
19.99999999999475
 31
0.0
  0
LINE
  5
4B1D
330
A
100
AcDbEntity
  8
0
  6
Continuous
 62
     7
370
     0
100
AcDbLine
 10
-106.0802418314613
 20
-20.0000000000052
 30
0.0
 11
-107.0000001489355
 21
-20.0000000000052
 31
0.0
  0
LINE
  5
4B1E
330
A
100
AcDbEntity
  8
0
  6
Continuous
 62
     9
370
     0
100
AcDbLine
 10
-126.499999851002
 20
-2.100000000107414
 30
0.0
 11
-124.0000001489355
 21
-2.100000000018226
 31
0.0
  0
LINE
  5
4B1F
330
A
100
AcDbEntity
  8
0
  6
Continuous
 62
     9
370
     0
100
AcDbLine
 10
-124.0000001489355
 20
2.09999999998179
 30
0.0
 11
-126.499999851002
 21
2.099999999892588
 31
0.0
  0
LINE
  5
4B20
330
A
100
AcDbEntity
  8
0
  6
Continuous
 62
     7
370
     0
100
AcDbLine
 10
-126.4999998509275
 20
-2.500000000107405
 30
0.0
 11
-124.0000001489355
 21
-2.500000000018218
 31
0.0
  0
LINE
  5
4B21
330
A
100
AcDbEntity
  8
0
  6
Continuous
 62
     7
370
     0
100
AcDbLine
 10
-124.0000001489355
 20
2.499999999981781
 30
0.0
 11
-126.4999998511425
 21
2.499999999892594
 31
0.0
  0
LINE
  5
4B22
330
A
100
AcDbEntity
  8
0
  6
Continuous
 62
     7
370
     0
100
AcDbLine
 10
-127.0000000591474
 20
6.000000000000383
 30
0.0
 11
-132.0000000591474
 21
6.000000000000383
 31
0.0
  0
LINE
  5
4B23
330
A
100
AcDbEntity
  8
0
  6
Continuous
 62
     7
370
     0
100
AcDbLine
 10
-132.0000000591473
 20
-6.000000000000326
 30
0.0
 11
-127.0000000591474
 21
-6.000000000000326
 31
0.0
  0
LINE
  5
4B24
330
A
100
AcDbEntity
  8
0
  6
Continuous
 62
     7
370
     0
100
AcDbLine
 10
-126.499999851035
 20
4.900000000000048
 30
0.0
 11
-127.0000000591137
 21
4.900000000000048
 31
0.0
  0
LINE
  5
4B25
330
A
100
AcDbEntity
  8
0
  6
Continuous
 62
     7
370
     0
100
AcDbLine
 10
-127.0000000591137
 20
-4.899999999999977
 30
0.0
 11
-126.499999851035
 21
-4.899999999999977
 31
0.0
  0
LINE
  5
4B26
330
A
100
AcDbEntity
  8
0
  6
Continuous
 62
     7
370
     0
100
AcDbLine
 10
-107.0000001489355
 20
-20.0000000000052
 30
0.0
 11
-107.0000001489355
 21
-0.000000000005258
 31
0.0
  0
LINE
  5
4B27
330
A
100
AcDbEntity
  8
0
  6
Continuous
 62
     7
370
     0
100
AcDbLine
 10
-37.00000000006082
 20
-53.000000148917
 30
0.0
 11
-37.00000000006082
 21
-59.5068140253081
 31
0.0
  0
LINE
  5
4B28
330
A
100
AcDbEntity
  8
0
  6
Continuous
 62
     7
370
     0
100
AcDbLine
 10
-37.00000000006082
 20
-59.5068140253081
 30
0.0
 11
-37.00000000006082
 21
-65.000000148917
 31
0.0
  0
LINE
  5
4B29
330
A
100
AcDbEntity
  8
0
  6
Continuous
 62
     7
370
     0
100
AcDbLine
 10
-6.000000000048657
 20
-98.0000000591864
 30
0.0
 11
5.630306338910713
 21
-98.00000005907321
 31
0.0
  0
LINE
  5
4B2A
330
A
100
AcDbEntity
  8
0
  6
Continuous
 62
     7
370
     0
100
AcDbLine
 10
5.630306338910713
 20
-98.00000005907321
 30
0.0
 11
5.999999999951569
 21
-98.00000005906973
 31
0.0
  0
LINE
  5
4B2B
330
A
100
AcDbEntity
  8
0
  6
Continuous
 62
     7
370
     0
100
AcDbLine
 10
-22.11929692409297
 20
-84.18677038596991
 30
0.0
 11
-23.72139623203577
 21
-86.58814731199013
 31
0.0
  0
LINE
  5
4B2C
330
A
100
AcDbEntity
  8
0
  6
Continuous
 62
     7
370
     0
100
AcDbLine
 10
-23.72139623203577
 20
-86.58814731199013
 30
0.0
 11
-26.60209930800284
 21
-86.40137707493611
 31
0.0
  0
LINE
  5
4B2D
330
A
100
AcDbEntity
  8
0
  6
Continuous
 62
     7
370
     0
100
AcDbLine
 10
-23.39790069211665
 20
-81.59862322289582
 30
0.0
 11
-22.11929692409297
 21
-84.18677038596991
 31
0.0
  0
LINE
  5
4B2E
330
A
100
AcDbEntity
  8
0
  6
Continuous
 62
     7
370
     0
100
AcDbLine
 10
-26.60209930800284
 20
-86.40137707493611
 30
0.0
 11
-27.88070307602641
 21
-83.81322991186189
 31
0.0
  0
LINE
  5
4B2F
330
A
100
AcDbEntity
  8
0
  6
Continuous
 62
     7
370
     0
100
AcDbLine
 10
-26.27860376808349
 20
-81.41185298584181
 30
0.0
 11
-23.39790069211665
 21
-81.59862322289582
 31
0.0
  0
LINE
  5
4B30
330
A
100
AcDbEntity
  8
0
  6
Continuous
 62
     7
370
     0
100
AcDbLine
 10
-27.88070307602641
 20
-83.81322991186189
 30
0.0
 11
-26.27860376808349
 21
-81.41185298584181
 31
0.0
  0
ARC
  5
4B31
330
A
100
AcDbEntity
  8
0
  6
Continuous
 62
     7
370
     0
100
AcDbCircle
 10
12.00000000001114
 20
-105.9999998509259
 30
0.0
 40
3.000000000000001
100
AcDbArc
 50
270.0000000004299
 51
0.0000000004274665
  0
LINE
  5
4B32
330
A
100
AcDbEntity
  8
0
  6
Continuous
 62
     7
370
     0
100
AcDbLine
 10
12.00000000003376
 20
-108.9999998509259
 30
0.0
 11
-11.99999999996623
 21
-108.999999851105
 31
0.0
  0
LINE
  5
4B33
330
A
100
AcDbEntity
  8
0
  6
Continuous
 62
     7
370
     0
100
AcDbLine
 10
-14.99999999998886
 20
-105.9999998511274
 30
0.0
 11
-15.00000000000375
 21
-103.9999998511274
 31
0.0
  0
LINE
  5
4B34
330
A
100
AcDbEntity
  8
0
  6
Continuous
 62
     7
370
     0
100
AcDbLine
 10
-15.00000000000375
 20
-103.9999998511274
 30
0.0
 11
14.99999999999625
 21
-103.9999998509035
 31
0.0
  0
LINE
  5
4B35
330
A
100
AcDbEntity
  8
0
  6
Continuous
 62
     7
370
     0
100
AcDbLine
 10
14.99999999999625
 20
-103.9999998509035
 30
0.0
 11
15.00000000001137
 21
-105.9999998509035
 31
0.0
  0
ARC
  5
4B36
330
A
100
AcDbEntity
  8
0
  6
Continuous
 62
     7
370
     0
100
AcDbCircle
 10
-11.99999999998863
 20
-105.999999851105
 30
0.0
 40
2.999999999999975
100
AcDbArc
 50
180.0000000004283
 51
270.0000000004299
  0
LINE
  5
4B37
330
A
100
AcDbEntity
  8
0
  6
Continuous
 62
     7
370
     0
100
AcDbLine
 10
-4.900000000052273
 20
-97.49999985105198
 30
0.0
 11
4.899999999947681
 21
-97.4999998509789
 31
0.0
  0
ARC
  5
4B38
330
A
100
AcDbEntity
  8
0
  6
Continuous
 62
     7
370
     0
100
AcDbCircle
 10
-45.0000000000598
 20
-71.0000001489295
 30
0.0
 40
3.000000000000001
100
AcDbArc
 50
180.0
 51
270.0
  0
LINE
  5
4B39
330
A
100
AcDbEntity
  8
0
  6
Continuous
 62
     7
370
     0
100
AcDbLine
 10
-48.00000000005979
 20
-71.0000001489295
 30
0.0
 11
-48.00000000005979
 21
-47.0000001489295
 31
0.0
  0
LINE
  5
4B3A
330
A
100
AcDbEntity
  8
0
  6
Continuous
 62
     7
370
     0
100
AcDbLine
 10
-45.0000000000598
 20
-44.00000014892938
 30
0.0
 11
-43.00000000005979
 21
-44.0000001489295
 31
0.0
  0
LINE
  5
4B3B
330
A
100
AcDbEntity
  8
0
  6
Continuous
 62
     7
370
     0
100
AcDbLine
 10
-43.00000000005979
 20
-44.0000001489295
 30
0.0
 11
-43.00000000005979
 21
-74.00000014892938
 31
0.0
  0
LINE
  5
4B3C
330
A
100
AcDbEntity
  8
0
  6
Continuous
 62
     7
370
     0
100
AcDbLine
 10
-43.00000000005979
 20
-74.00000014892938
 30
0.0
 11
-45.0000000000598
 21
-74.00000014892938
 31
0.0
  0
ARC
  5
4B3D
330
A
100
AcDbEntity
  8
0
  6
Continuous
 62
     7
370
     0
100
AcDbCircle
 10
-45.0000000000598
 20
-47.0000001489295
 30
0.0
 40
3.000000000000001
100
AcDbArc
 50
90.0
 51
180.0
  0
LINE
  5
4B3E
330
A
100
AcDbEntity
  8
0
  6
Continuous
 62
     7
370
     0
100
AcDbLine
 10
-36.5000000000598
 20
-54.10000014891699
 30
0.0
 11
-36.5000000000598
 21
-63.90000014891697
 31
0.0
  0
LINE
  5
4B3F
330
A
100
AcDbEntity
  8
0
  6
Continuous
 62
     9
370
     0
100
AcDbLine
 10
-12.0000000000598
 20
-104.0000001489154
 30
0.0
 11
-12.0000000000598
 21
-103.0000001489154
 31
0.0
  0
LINE
  5
4B40
330
A
100
AcDbEntity
  8
0
  6
Continuous
 62
     7
370
     0
100
AcDbLine
 10
-14.0000000000598
 20
-104.0000001489154
 30
0.0
 11
-14.0000000000598
 21
-103.0000001489154
 31
0.0
  0
LINE
  5
4B41
330
A
100
AcDbEntity
  8
0
  6
Continuous
 62
     7
370
     0
100
AcDbLine
 10
-14.0000000000598
 20
-103.0000001489154
 30
0.0
 11
-12.0000000000598
 21
-103.0000001489154
 31
0.0
  0
LINE
  5
4B42
330
A
100
AcDbEntity
  8
0
  6
Continuous
 62
     7
370
     0
100
AcDbLine
 10
13.9999999999402
 20
-104.0000001489154
 30
0.0
 11
13.9999999999402
 21
-103.0000001489154
 31
0.0
  0
LINE
  5
4B43
330
A
100
AcDbEntity
  8
0
  6
Continuous
 62
     9
370
     0
100
AcDbLine
 10
11.9999999999402
 20
-104.0000001489154
 30
0.0
 11
11.9999999999402
 21
-103.0000001489154
 31
0.0
  0
LINE
  5
4B44
330
A
100
AcDbEntity
  8
0
  6
Continuous
 62
     7
370
     0
100
AcDbLine
 10
11.9999999999402
 20
-103.0000001489154
 30
0.0
 11
13.9999999999402
 21
-103.0000001489154
 31
0.0
  0
LINE
  5
4B45
330
A
100
AcDbEntity
  8
0
  6
Continuous
 62
     7
370
     0
100
AcDbLine
 10
-12.0000000000598
 20
-103.0000001489154
 30
0.0
 11
11.9999999999402
 21
-103.0000001489154
 31
0.0
  0
LINE
  5
4B46
330
A
100
AcDbEntity
  8
0
  6
Continuous
 62
     9
370
     0
100
AcDbLine
 10
-43.00000000005946
 20
-47.000000148916
 30
0.0
 11
-42.00000000005945
 21
-47.000000148916
 31
0.0
  0
LINE
  5
4B47
330
A
100
AcDbEntity
  8
0
  6
Continuous
 62
     7
370
     0
100
AcDbLine
 10
-43.00000000005946
 20
-45.00000014891589
 30
0.0
 11
-42.00000000005945
 21
-45.00000014891589
 31
0.0
  0
LINE
  5
4B48
330
A
100
AcDbEntity
  8
0
  6
Continuous
 62
     7
370
     0
100
AcDbLine
 10
-42.00000000005945
 20
-45.00000014891589
 30
0.0
 11
-42.00000000005945
 21
-47.000000148916
 31
0.0
  0
LINE
  5
4B49
330
A
100
AcDbEntity
  8
0
  6
Continuous
 62
     7
370
     0
100
AcDbLine
 10
-43.00000000005946
 20
-73.000000148916
 30
0.0
 11
-42.00000000005945
 21
-73.000000148916
 31
0.0
  0
LINE
  5
4B4A
330
A
100
AcDbEntity
  8
0
  6
Continuous
 62
     9
370
     0
100
AcDbLine
 10
-43.00000000005946
 20
-71.00000014891588
 30
0.0
 11
-42.00000000005945
 21
-71.00000014891588
 31
0.0
  0
LINE
  5
4B4B
330
A
100
AcDbEntity
  8
0
  6
Continuous
 62
     7
370
     0
100
AcDbLine
 10
-42.00000000005945
 20
-71.00000014891588
 30
0.0
 11
-42.00000000005945
 21
-73.000000148916
 31
0.0
  0
LINE
  5
4B4C
330
A
100
AcDbEntity
  8
0
  6
Continuous
 62
     7
370
     0
100
AcDbLine
 10
-42.00000000005945
 20
-47.000000148916
 30
0.0
 11
-42.00000000005945
 21
-71.00000014891588
 31
0.0
  0
LINE
  5
4B4D
330
A
100
AcDbEntity
  8
0
  6
Continuous
 62
     7
370
     0
100
AcDbLine
 10
-35.0000000000598
 20
-45.00000014891599
 30
0.0
 11
-36.0000000000598
 21
-45.00000014891599
 31
0.0
  0
LINE
  5
4B4E
330
A
100
AcDbEntity
  8
0
  6
Continuous
 62
     9
370
     0
100
AcDbLine
 10
-35.0000000000598
 20
-47.000000148916
 30
0.0
 11
-36.0000000000598
 21
-47.000000148916
 31
0.0
  0
LINE
  5
4B4F
330
A
100
AcDbEntity
  8
0
  6
Continuous
 62
     7
370
     0
100
AcDbLine
 10
-36.0000000000598
 20
-47.000000148916
 30
0.0
 11
-36.0000000000598
 21
-45.00000014891611
 31
0.0
  0
LINE
  5
4B50
330
A
100
AcDbEntity
  8
0
  6
Continuous
 62
     9
370
     0
100
AcDbLine
 10
-35.0000000000598
 20
-71.00000014891588
 30
0.0
 11
-36.0000000000598
 21
-71.00000014891588
 31
0.0
  0
LINE
  5
4B51
330
A
100
AcDbEntity
  8
0
  6
Continuous
 62
     7
370
     0
100
AcDbLine
 10
-35.0000000000598
 20
-73.00000014891589
 30
0.0
 11
-36.0000000000598
 21
-73.00000014891589
 31
0.0
  0
LINE
  5
4B52
330
A
100
AcDbEntity
  8
0
  6
Continuous
 62
     7
370
     0
100
AcDbLine
 10
-36.0000000000598
 20
-73.0000001489158
 30
0.0
 11
-36.0000000000598
 21
-71.00000014891588
 31
0.0
  0
LINE
  5
4B53
330
A
100
AcDbEntity
  8
0
  6
Continuous
 62
     7
370
     0
100
AcDbLine
 10
-36.0000000000598
 20
-71.00000014891588
 30
0.0
 11
-36.0000000000598
 21
-47.000000148916
 31
0.0
  0
LINE
  5
4B54
330
A
100
AcDbEntity
  8
0
  6
Continuous
 62
     9
370
     0
100
AcDbLine
 10
11.9999999999402
 20
-94.00000014891588
 30
0.0
 11
11.9999999999402
 21
-95.00000014891588
 31
0.0
  0
LINE
  5
4B55
330
A
100
AcDbEntity
  8
0
  6
Continuous
 62
     7
370
     0
100
AcDbLine
 10
13.9999999999402
 20
-94.00000014891588
 30
0.0
 11
13.9999999999402
 21
-95.00000014891588
 31
0.0
  0
LINE
  5
4B56
330
A
100
AcDbEntity
  8
0
  6
Continuous
 62
     7
370
     0
100
AcDbLine
 10
13.9999999999402
 20
-95.00000014891588
 30
0.0
 11
11.9999999999402
 21
-95.00000014891588
 31
0.0
  0
LINE
  5
4B57
330
A
100
AcDbEntity
  8
0
  6
Continuous
 62
     7
370
     0
100
AcDbLine
 10
-14.00000000005945
 20
-94.00000014891588
 30
0.0
 11
-14.00000000005945
 21
-95.00000014891588
 31
0.0
  0
LINE
  5
4B58
330
A
100
AcDbEntity
  8
0
  6
Continuous
 62
     9
370
     0
100
AcDbLine
 10
-12.00000000005957
 20
-94.00000014891588
 30
0.0
 11
-12.00000000005957
 21
-95.00000014891588
 31
0.0
  0
LINE
  5
4B59
330
A
100
AcDbEntity
  8
0
  6
Continuous
 62
     7
370
     0
100
AcDbLine
 10
-12.00000000005957
 20
-95.00000014891588
 30
0.0
 11
-14.00000000005945
 21
-95.00000014891588
 31
0.0
  0
LINE
  5
4B5A
330
A
100
AcDbEntity
  8
0
  6
Continuous
 62
     7
370
     0
100
AcDbLine
 10
11.9999999999402
 20
-95.00000014891588
 30
0.0
 11
-12.00000000005957
 21
-95.00000014891588
 31
0.0
  0
ARC
  5
4B5B
330
A
100
AcDbEntity
  8
0
  6
Continuous
 62
     7
370
     0
100
AcDbCircle
 10
-25.94389621548589
 20
-204.7989246238435
 30
0.0
 40
120.0
100
AcDbArc
 50
70.05005129607315
 51
86.24268911911975
  0
LINE
  5
4B5C
330
A
100
AcDbEntity
  8
0
  6
Continuous
 62
     7
370
     0
100
AcDbLine
 10
14.9999999999402
 20
-94.00000014891588
 30
0.0
 11
14.9999999999402
 21
-92.00000014891589
 31
0.0
  0
LINE
  5
4B5D
330
A
100
AcDbEntity
  8
0
  6
Continuous
 62
     7
370
     0
100
AcDbLine
 10
-16.5000000000598
 20
-94.00000014891588
 30
0.0
 11
14.9999999999402
 21
-94.00000014891588
 31
0.0
  0
LINE
  5
4B5E
330
A
100
AcDbEntity
  8
0
  6
Continuous
 62
     7
370
     0
100
AcDbLine
 10
-24.0000000000598
 20
-93.00000014891589
 30
0.0
 11
-17.00000000005957
 21
-93.00000014891589
 31
0.0
  0
ARC
  5
4B5F
330
A
100
AcDbEntity
  8
0
  6
Continuous
 62
     7
370
     0
100
AcDbCircle
 10
-25.00000000005957
 20
-84.00000014891588
 30
0.0
 40
6.999999999999976
100
AcDbArc
 50
278.2132107017363
 51
351.3163089940852
  0
ARC
  5
4B60
330
A
100
AcDbEntity
  8
0
  6
Continuous
 62
     7
370
     0
100
AcDbCircle
 10
-17.00000000005957
 20
-93.50000014891589
 30
0.0
 40
0.5000000000000006
100
AcDbArc
 50
0.0
 51
90.0
  0
LINE
  5
4B61
330
A
100
AcDbEntity
  8
0
  6
Continuous
 62
     7
370
     0
100
AcDbLine
 10
-16.5000000000598
 20
-93.50000014891589
 30
0.0
 11
-16.5000000000598
 21
-94.00000014891588
 31
0.0
  0
LINE
  5
4B62
330
A
100
AcDbEntity
  8
0
  6
Continuous
 62
     7
370
     0
100
AcDbLine
 10
-24.0000000000598
 20
-90.92820337919139
 30
0.0
 11
-24.0000000000598
 21
-93.00000014891589
 31
0.0
  0
ARC
  5
4B63
330
A
100
AcDbEntity
  8
0
  6
Continuous
 62
     7
370
     0
100
AcDbCircle
 10
-24.5000000000598
 20
-90.50000014891589
 30
0.0
 40
0.5000000000000006
100
AcDbArc
 50
0.0
 51
90.0
  0
ARC
  5
4B64
330
A
100
AcDbEntity
  8
0
  6
Continuous
 62
     7
370
     0
100
AcDbCircle
 10
-18.5000000000598
 20
-84.52906801324479
 30
0.0
 40
0.5000000000000103
100
AcDbArc
 50
180.0000000000049
 51
266.458294016926
  0
LINE
  5
4B65
330
A
100
AcDbEntity
  8
0
  6
Continuous
 62
     7
370
     0
100
AcDbLine
 10
-25.00000000005957
 20
-90.00000014891588
 30
0.0
 11
-24.5000000000598
 21
-90.00000014891588
 31
0.0
  0
LINE
  5
4B66
330
A
100
AcDbEntity
  8
0
  6
Continuous
 62
     7
370
     0
100
AcDbLine
 10
-19.0000000000598
 20
-84.52906801324479
 30
0.0
 11
-19.0000000000598
 21
-84.00000014891588
 31
0.0
  0
ARC
  5
4B67
330
A
100
AcDbEntity
  8
0
  6
Continuous
 62
     7
370
     0
100
AcDbCircle
 10
-25.94389621548589
 20
-204.7989246238435
 30
0.0
 40
120.0
100
AcDbArc
 50
86.24268911911975
 51
86.45829401691953
  0
LINE
  5
4B68
330
A
100
AcDbEntity
  8
0
  6
Continuous
 62
     7
370
     0
100
AcDbLine
 10
-24.0000000000598
 20
-90.50000014891589
 30
0.0
 11
-24.0000000000598
 21
-90.92820337919139
 31
0.0
  0
LINE
  5
4B69
330
A
100
AcDbEntity
  8
0
  6
Continuous
 62
     7
370
     0
100
AcDbLine
 10
-34.5000000000598
 20
-75.50000014891589
 30
0.0
 11
-35.0000000000598
 21
-75.50000014891589
 31
0.0
  0
LINE
  5
4B6A
330
A
100
AcDbEntity
  8
0
  6
Continuous
 62
     7
370
     0
100
AcDbLine
 10
-35.0000000000598
 20
-44.00000014891588
 30
0.0
 11
-33.00000000005957
 21
-44.00000014891588
 31
0.0
  0
ARC
  5
4B6B
330
A
100
AcDbEntity
  8
0
  6
Continuous
 62
     7
370
     0
100
AcDbCircle
 10
-145.7989244749873
 20
-84.94389636434211
 30
0.0
 40
119.9999999999999
100
AcDbArc
 50
3.541705983078092
 51
19.94994870392456
  0
ARC
  5
4B6C
330
A
100
AcDbEntity
  8
0
  6
Continuous
 62
     7
370
     0
100
AcDbCircle
 10
-25.52906786438848
 20
-77.50000014891589
 30
0.0
 40
0.5000000000000135
100
AcDbArc
 50
183.5417059830772
 51
270.0
  0
LINE
  5
4B6D
330
A
100
AcDbEntity
  8
0
  6
Continuous
 62
     7
370
     0
100
AcDbLine
 10
-25.52906786438848
 20
-78.000000148916
 30
0.0
 11
-25.00000000005957
 21
-78.000000148916
 31
0.0
  0
ARC
  5
4B6E
330
A
100
AcDbEntity
  8
0
  6
Continuous
 62
     7
370
     0
100
AcDbCircle
 10
-25.00000000005957
 20
-84.00000014891588
 30
0.0
 40
6.000000000000004
100
AcDbArc
 50
180.0
 51
90.0
  0
CIRCLE
  5
4B6F
330
A
100
AcDbEntity
  8
0
  6
Continuous
 62
     7
370
     0
100
AcDbCircle
 10
-25.00000000005957
 20
-84.00000014891588
 30
0.0
 40
4.999999999999976
  0
ARC
  5
4B70
330
A
100
AcDbEntity
  8
0
  6
Continuous
 62
     7
370
     0
100
AcDbCircle
 10
-34.5000000000598
 20
-76.000000148916
 30
0.0
 40
0.4999999999999451
100
AcDbArc
 50
0.0
 51
90.0
  0
LINE
  5
4B71
330
A
100
AcDbEntity
  8
0
  6
Continuous
 62
     7
370
     0
100
AcDbLine
 10
-31.0000000000598
 20
-84.00000014891588
 30
0.0
 11
-31.0000000000598
 21
-83.50000014891589
 31
0.0
  0
LINE
  5
4B72
330
A
100
AcDbEntity
  8
0
  6
Continuous
 62
     7
370
     0
100
AcDbLine
 10
-34.00000000005957
 20
-83.00000014891589
 30
0.0
 11
-34.00000000005957
 21
-76.000000148916
 31
0.0
  0
LINE
  5
4B73
330
A
100
AcDbEntity
  8
0
  6
Continuous
 62
     7
370
     0
100
AcDbLine
 10
-31.5000000000598
 20
-83.00000014891589
 30
0.0
 11
-34.00000000005957
 21
-83.00000014891589
 31
0.0
  0
LINE
  5
4B74
330
A
100
AcDbEntity
  8
0
  6
Continuous
 62
     7
370
     0
100
AcDbLine
 10
-35.0000000000598
 20
-75.50000014891589
 30
0.0
 11
-35.0000000000598
 21
-44.00000014891588
 31
0.0
  0
ARC
  5
4B75
330
A
100
AcDbEntity
  8
0
  6
Continuous
 62
     7
370
     0
100
AcDbCircle
 10
-31.5000000000598
 20
-83.50000014891589
 30
0.0
 40
0.4999999999999451
100
AcDbArc
 50
0.0
 51
90.0
  0
LINE
  5
4B76
330
A
100
AcDbEntity
  8
0
  6
Continuous
 62
     9
370
     0
100
AcDbLine
 10
2.100000000042427
 20
-97.49999985099979
 30
0.0
 11
2.099999999953183
 21
-95.00000014891588
 31
0.0
  0
LINE
  5
4B77
330
A
100
AcDbEntity
  8
0
  6
Continuous
 62
     9
370
     0
100
AcDbLine
 10
-2.100000000046634
 20
-95.00000014891588
 30
0.0
 11
-2.099999999957503
 21
-97.4999998510311
 31
0.0
  0
LINE
  5
4B78
330
A
100
AcDbEntity
  8
0
  6
Continuous
 62
     9
370
     0
100
AcDbLine
 10
-36.5000000000598
 20
-61.10000014891591
 30
0.0
 11
-36.0000000000598
 21
-61.10000014891591
 31
0.0
  0
LINE
  5
4B79
330
A
100
AcDbEntity
  8
0
  6
Continuous
 62
     9
370
     0
100
AcDbLine
 10
-36.0000000000598
 20
-56.90000014891589
 30
0.0
 11
-36.5000000000598
 21
-56.90000014891589
 31
0.0
  0
LINE
  5
4B7A
330
A
100
AcDbEntity
  8
0
  6
Continuous
 62
     7
370
     0
100
AcDbLine
 10
2.500000000042518
 20
-97.49999985090198
 30
0.0
 11
2.499999999953161
 21
-95.00000014891588
 31
0.0
  0
LINE
  5
4B7B
330
A
100
AcDbEntity
  8
0
  6
Continuous
 62
     7
370
     0
100
AcDbLine
 10
-2.500000000046611
 20
-95.00000014891588
 30
0.0
 11
-2.499999999957481
 21
-97.49999985112888
 31
0.0
  0
LINE
  5
4B7C
330
A
100
AcDbEntity
  8
0
  6
Continuous
 62
     7
370
     0
100
AcDbLine
 10
-36.4999856477275
 20
-61.50000014891588
 30
0.0
 11
-36.0000000000598
 21
-61.50000014891588
 31
0.0
  0
LINE
  5
4B7D
330
A
100
AcDbEntity
  8
0
  6
Continuous
 62
     7
370
     0
100
AcDbLine
 10
-36.0000000000598
 20
-56.50000014891588
 30
0.0
 11
-36.49998564772818
 21
-56.50000014891588
 31
0.0
  0
LINE
  5
4B7E
330
A
100
AcDbEntity
  8
0
  6
Continuous
 62
     7
370
     0
100
AcDbLine
 10
-37.00000000006082
 20
-53.000000148917
 30
0.0
 11
-42.00000000006093
 21
-53.000000148917
 31
0.0
  0
LINE
  5
4B7F
330
A
100
AcDbEntity
  8
0
  6
Continuous
 62
     7
370
     0
100
AcDbLine
 10
-42.00000000006093
 20
-65.000000148917
 30
0.0
 11
-37.00000000006082
 21
-65.000000148917
 31
0.0
  0
LINE
  5
4B80
330
A
100
AcDbEntity
  8
0
  6
Continuous
 62
     7
370
     0
100
AcDbLine
 10
-6.000000000048885
 20
-98.0000000591864
 30
0.0
 11
-6.000000000000227
 21
-103.0000000591864
 31
0.0
  0
LINE
  5
4B81
330
A
100
AcDbEntity
  8
0
  6
Continuous
 62
     7
370
     0
100
AcDbLine
 10
6.000000000000454
 20
-103.0000000590696
 30
0.0
 11
5.999999999952024
 21
-98.00000005906973
 31
0.0
  0
LINE
  5
4B82
330
A
100
AcDbEntity
  8
0
  6
Continuous
 62
     7
370
     0
100
AcDbLine
 10
-4.900000000052273
 20
-97.49999985105198
 30
0.0
 11
-4.900000000048635
 21
-98.00000005917571
 31
0.0
  0
LINE
  5
4B83
330
A
100
AcDbEntity
  8
0
  6
Continuous
 62
     7
370
     0
100
AcDbLine
 10
4.899999999951319
 20
-98.00000005908032
 30
0.0
 11
4.899999999947681
 21
-97.4999998509789
 31
0.0
  0
LINE
  5
4B84
330
A
100
AcDbEntity
  8
0
  6
Continuous
 62
     7
370
     0
100
AcDbLine
 10
-36.5000000000598
 20
-54.10000014891699
 30
0.0
 11
-37.00000000006082
 21
-54.10000014891699
 31
0.0
  0
LINE
  5
4B85
330
A
100
AcDbEntity
  8
0
  6
Continuous
 62
     7
370
     0
100
AcDbLine
 10
-37.00000000006082
 20
-63.90000014891697
 30
0.0
 11
-36.5000000000598
 21
-63.90000014891697
 31
0.0
  0
LINE
  5
4B86
330
A
100
AcDbEntity
  8
0
  6
Continuous
 62
     7
370
     0
100
AcDbLine
 10
-37.00000000006082
 20
69.00000014890744
 30
0.0
 11
-37.00000000006082
 21
57.00000014890744
 31
0.0
  0
LINE
  5
4B87
330
A
100
AcDbEntity
  8
0
  6
Continuous
 62
     7
370
     0
100
AcDbLine
 10
5.999999999951569
 20
102.0000000590601
 30
0.0
 11
-6.000000000048657
 21
102.0000000591768
 31
0.0
  0
LINE
  5
4B88
330
A
100
AcDbEntity
  8
0
  6
Continuous
 62
     7
370
     0
100
AcDbLine
 10
-14.99999999998886
 20
109.9999998511178
 30
0.0
 11
-15.00000000000375
 21
107.9999998511178
 31
0.0
  0
ARC
  5
4B89
330
A
100
AcDbEntity
  8
0
  6
Continuous
 62
     7
370
     0
100
AcDbCircle
 10
-11.99999999998863
 20
109.9999998510954
 30
0.0
 40
2.999999999999998
100
AcDbArc
 50
89.9999999995701
 51
179.9999999995717
  0
LINE
  5
4B8A
330
A
100
AcDbEntity
  8
0
  6
Continuous
 62
     7
370
     0
100
AcDbLine
 10
14.99999999999625
 20
107.9999998508939
 30
0.0
 11
15.00000000001103
 21
109.9999998508939
 31
0.0
  0
LINE
  5
4B8B
330
A
100
AcDbEntity
  8
0
  6
Continuous
 62
     7
370
     0
100
AcDbLine
 10
-15.00000000000375
 20
107.9999998511178
 30
0.0
 11
14.99999999999625
 21
107.9999998508939
 31
0.0
  0
LINE
  5
4B8C
330
A
100
AcDbEntity
  8
0
  6
Continuous
 62
     7
370
     0
100
AcDbLine
 10
12.00000000003376
 20
112.9999998509163
 30
0.0
 11
-11.99999999996657
 21
112.9999998510955
 31
0.0
  0
ARC
  5
4B8D
330
A
100
AcDbEntity
  8
0
  6
Continuous
 62
     7
370
     0
100
AcDbCircle
 10
12.00000000001114
 20
109.9999998509163
 30
0.0
 40
3.000000000000001
100
AcDbArc
 50
359.9999999995725
 51
89.9999999995701
  0
LINE
  5
4B8E
330
A
100
AcDbEntity
  8
0
  6
Continuous
 62
     7
370
     0
100
AcDbLine
 10
4.899999999947681
 20
101.4999998509693
 30
0.0
 11
-4.900000000052273
 21
101.4999998510425
 31
0.0
  0
LINE
  5
4B8F
330
A
100
AcDbEntity
  8
0
  6
Continuous
 62
     7
370
     0
100
AcDbLine
 10
-45.0000000000598
 20
48.00000014889495
 30
0.0
 11
-43.00000000005979
 21
48.00000014889495
 31
0.0
  0
ARC
  5
4B90
330
A
100
AcDbEntity
  8
0
  6
Continuous
 62
     7
370
     0
100
AcDbCircle
 10
-45.0000000000598
 20
51.00000014889495
 30
0.0
 40
3.000000000000001
100
AcDbArc
 50
180.0
 51
270.0
  0
LINE
  5
4B91
330
A
100
AcDbEntity
  8
0
  6
Continuous
 62
     7
370
     0
100
AcDbLine
 10
-43.00000000005979
 20
78.00000014889495
 30
0.0
 11
-45.0000000000598
 21
78.00000014889495
 31
0.0
  0
LINE
  5
4B92
330
A
100
AcDbEntity
  8
0
  6
Continuous
 62
     7
370
     0
100
AcDbLine
 10
-43.00000000005979
 20
48.00000014889495
 30
0.0
 11
-43.00000000005979
 21
78.00000014889495
 31
0.0
  0
LINE
  5
4B93
330
A
100
AcDbEntity
  8
0
  6
Continuous
 62
     7
370
     0
100
AcDbLine
 10
-48.00000000005979
 20
75.00000014889495
 30
0.0
 11
-48.00000000005979
 21
51.00000014889495
 31
0.0
  0
ARC
  5
4B94
330
A
100
AcDbEntity
  8
0
  6
Continuous
 62
     7
370
     0
100
AcDbCircle
 10
-45.0000000000598
 20
75.00000014889495
 30
0.0
 40
2.999999999999998
100
AcDbArc
 50
90.0
 51
180.0
  0
LINE
  5
4B95
330
A
100
AcDbEntity
  8
0
  6
Continuous
 62
     7
370
     0
100
AcDbLine
 10
-36.5000000000598
 20
67.90000014890745
 30
0.0
 11
-36.5000000000598
 21
58.10000014890744
 31
0.0
  0
LINE
  5
4B96
330
A
100
AcDbEntity
  8
0
  6
Continuous
 62
     9
370
     0
100
AcDbLine
 10
-12.0000000000598
 20
108.0000001489058
 30
0.0
 11
-12.0000000000598
 21
107.0000001489058
 31
0.0
  0
LINE
  5
4B97
330
A
100
AcDbEntity
  8
0
  6
Continuous
 62
     9
370
     0
100
AcDbLine
 10
11.9999999999402
 20
108.0000001489058
 30
0.0
 11
11.9999999999402
 21
107.0000001489058
 31
0.0
  0
LINE
  5
4B98
330
A
100
AcDbEntity
  8
0
  6
Continuous
 62
     7
370
     0
100
AcDbLine
 10
11.9999999999402
 20
107.0000001489058
 30
0.0
 11
-12.0000000000598
 21
107.0000001489058
 31
0.0
  0
LINE
  5
4B99
330
A
100
AcDbEntity
  8
0
  6
Continuous
 62
     7
370
     0
100
AcDbLine
 10
13.9999999999402
 20
108.0000001489058
 30
0.0
 11
13.9999999999402
 21
107.0000001489058
 31
0.0
  0
LINE
  5
4B9A
330
A
100
AcDbEntity
  8
0
  6
Continuous
 62
     7
370
     0
100
AcDbLine
 10
13.9999999999402
 20
107.0000001489058
 30
0.0
 11
11.9999999999402
 21
107.0000001489058
 31
0.0
  0
LINE
  5
4B9B
330
A
100
AcDbEntity
  8
0
  6
Continuous
 62
     7
370
     0
100
AcDbLine
 10
-14.0000000000598
 20
108.0000001489058
 30
0.0
 11
-14.0000000000598
 21
107.0000001489058
 31
0.0
  0
LINE
  5
4B9C
330
A
100
AcDbEntity
  8
0
  6
Continuous
 62
     7
370
     0
100
AcDbLine
 10
-12.0000000000598
 20
107.0000001489058
 30
0.0
 11
-14.0000000000598
 21
107.0000001489058
 31
0.0
  0
LINE
  5
4B9D
330
A
100
AcDbEntity
  8
0
  6
Continuous
 62
     9
370
     0
100
AcDbLine
 10
-43.00000000005946
 20
51.00000014890639
 30
0.0
 11
-42.00000000005945
 21
51.00000014890639
 31
0.0
  0
LINE
  5
4B9E
330
A
100
AcDbEntity
  8
0
  6
Continuous
 62
     9
370
     0
100
AcDbLine
 10
-43.00000000005946
 20
75.00000014890641
 30
0.0
 11
-42.00000000005945
 21
75.00000014890641
 31
0.0
  0
LINE
  5
4B9F
330
A
100
AcDbEntity
  8
0
  6
Continuous
 62
     7
370
     0
100
AcDbLine
 10
-42.00000000005945
 20
75.00000014890641
 30
0.0
 11
-42.00000000005945
 21
51.00000014890639
 31
0.0
  0
LINE
  5
4BA0
330
A
100
AcDbEntity
  8
0
  6
Continuous
 62
     7
370
     0
100
AcDbLine
 10
-43.00000000005946
 20
77.0000001489064
 30
0.0
 11
-42.00000000005945
 21
77.0000001489064
 31
0.0
  0
LINE
  5
4BA1
330
A
100
AcDbEntity
  8
0
  6
Continuous
 62
     7
370
     0
100
AcDbLine
 10
-42.00000000005945
 20
77.0000001489064
 30
0.0
 11
-42.00000000005945
 21
75.00000014890641
 31
0.0
  0
LINE
  5
4BA2
330
A
100
AcDbEntity
  8
0
  6
Continuous
 62
     7
370
     0
100
AcDbLine
 10
-43.00000000005946
 20
49.0000001489064
 30
0.0
 11
-42.00000000005945
 21
49.0000001489064
 31
0.0
  0
LINE
  5
4BA3
330
A
100
AcDbEntity
  8
0
  6
Continuous
 62
     7
370
     0
100
AcDbLine
 10
-42.00000000005945
 20
51.00000014890639
 30
0.0
 11
-42.00000000005945
 21
49.0000001489064
 31
0.0
  0
LINE
  5
4BA4
330
A
100
AcDbEntity
  8
0
  6
Continuous
 62
     7
370
     0
100
AcDbLine
 10
-35.0000000000598
 20
77.00000014890632
 30
0.0
 11
-36.0000000000598
 21
77.00000014890632
 31
0.0
  0
LINE
  5
4BA5
330
A
100
AcDbEntity
  8
0
  6
Continuous
 62
     9
370
     0
100
AcDbLine
 10
-35.0000000000598
 20
75.00000014890634
 30
0.0
 11
-36.0000000000598
 21
75.00000014890634
 31
0.0
  0
LINE
  5
4BA6
330
A
100
AcDbEntity
  8
0
  6
Continuous
 62
     7
370
     0
100
AcDbLine
 10
-36.0000000000598
 20
75.00000014890634
 30
0.0
 11
-36.0000000000598
 21
77.00000014890624
 31
0.0
  0
LINE
  5
4BA7
330
A
100
AcDbEntity
  8
0
  6
Continuous
 62
     9
370
     0
100
AcDbLine
 10
-35.0000000000598
 20
51.00000014890646
 30
0.0
 11
-36.0000000000598
 21
51.00000014890646
 31
0.0
  0
LINE
  5
4BA8
330
A
100
AcDbEntity
  8
0
  6
Continuous
 62
     7
370
     0
100
AcDbLine
 10
-35.0000000000598
 20
49.00000014890648
 30
0.0
 11
-36.0000000000598
 21
49.00000014890648
 31
0.0
  0
LINE
  5
4BA9
330
A
100
AcDbEntity
  8
0
  6
Continuous
 62
     7
370
     0
100
AcDbLine
 10
-36.0000000000598
 20
49.00000014890652
 30
0.0
 11
-36.0000000000598
 21
51.00000014890646
 31
0.0
  0
LINE
  5
4BAA
330
A
100
AcDbEntity
  8
0
  6
Continuous
 62
     7
370
     0
100
AcDbLine
 10
-36.0000000000598
 20
51.00000014890646
 30
0.0
 11
-36.0000000000598
 21
75.00000014890632
 31
0.0
  0
LINE
  5
4BAB
330
A
100
AcDbEntity
  8
0
  6
Continuous
 62
     7
370
     0
100
AcDbLine
 10
13.9999999999402
 20
98.00000014890642
 30
0.0
 11
13.9999999999402
 21
99.00000014890641
 31
0.0
  0
LINE
  5
4BAC
330
A
100
AcDbEntity
  8
0
  6
Continuous
 62
     7
370
     0
100
AcDbLine
 10
11.9999999999402
 20
99.00000014890641
 30
0.0
 11
13.9999999999402
 21
99.00000014890641
 31
0.0
  0
LINE
  5
4BAD
330
A
100
AcDbEntity
  8
0
  6
Continuous
 62
     9
370
     0
100
AcDbLine
 10
11.9999999999402
 20
98.00000014890642
 30
0.0
 11
11.9999999999402
 21
99.00000014890641
 31
0.0
  0
LINE
  5
4BAE
330
A
100
AcDbEntity
  8
0
  6
Continuous
 62
     9
370
     0
100
AcDbLine
 10
-12.00000000005957
 20
98.00000014890642
 30
0.0
 11
-12.00000000005957
 21
99.0000001489064
 31
0.0
  0
LINE
  5
4BAF
330
A
100
AcDbEntity
  8
0
  6
Continuous
 62
     7
370
     0
100
AcDbLine
 10
-12.00000000005957
 20
99.0000001489064
 30
0.0
 11
11.9999999999402
 21
99.00000014890641
 31
0.0
  0
LINE
  5
4BB0
330
A
100
AcDbEntity
  8
0
  6
Continuous
 62
     7
370
     0
100
AcDbLine
 10
-14.00000000005945
 20
98.00000014890642
 30
0.0
 11
-14.00000000005945
 21
99.0000001489064
 31
0.0
  0
LINE
  5
4BB1
330
A
100
AcDbEntity
  8
0
  6
Continuous
 62
     7
370
     0
100
AcDbLine
 10
-14.00000000005945
 20
99.0000001489064
 30
0.0
 11
-12.00000000005957
 21
99.0000001489064
 31
0.0
  0
LINE
  5
4BB2
330
A
100
AcDbEntity
  8
0
  6
Continuous
 62
     7
370
     0
100
AcDbLine
 10
-19.0000000000598
 20
88.52906801323527
 30
0.0
 11
-19.0000000000598
 21
88.0000001489064
 31
0.0
  0
LINE
  5
4BB3
330
A
100
AcDbEntity
  8
0
  6
Continuous
 62
     7
370
     0
100
AcDbLine
 10
14.9999999999402
 20
98.00000014890642
 30
0.0
 11
14.9999999999402
 21
96.00000014890641
 31
0.0
  0
LINE
  5
4BB4
330
A
100
AcDbEntity
  8
0
  6
Continuous
 62
     7
370
     0
100
AcDbLine
 10
-16.5000000000598
 20
98.0000001489064
 30
0.0
 11
14.9999999999402
 21
98.00000014890642
 31
0.0
  0
LINE
  5
4BB5
330
A
100
AcDbEntity
  8
0
  6
Continuous
 62
     7
370
     0
100
AcDbLine
 10
-16.5000000000598
 20
97.50000014890641
 30
0.0
 11
-16.5000000000598
 21
98.0000001489064
 31
0.0
  0
ARC
  5
4BB6
330
A
100
AcDbEntity
  8
0
  6
Continuous
 62
     7
370
     0
100
AcDbCircle
 10
-17.00000000005957
 20
97.50000014890641
 30
0.0
 40
0.5000000000000006
100
AcDbArc
 50
270.0
 51
0.0
  0
LINE
  5
4BB7
330
A
100
AcDbEntity
  8
0
  6
Continuous
 62
     7
370
     0
100
AcDbLine
 10
-24.0000000000598
 20
97.0000001489064
 30
0.0
 11
-17.00000000005957
 21
97.0000001489064
 31
0.0
  0
LINE
  5
4BB8
330
A
100
AcDbEntity
  8
0
  6
Continuous
 62
     7
370
     0
100
AcDbLine
 10
-24.0000000000598
 20
94.50000014890639
 30
0.0
 11
-24.0000000000598
 21
97.0000001489064
 31
0.0
  0
ARC
  5
4BB9
330
A
100
AcDbEntity
  8
0
  6
Continuous
 62
     7
370
     0
100
AcDbCircle
 10
-24.5000000000598
 20
94.50000014890639
 30
0.0
 40
0.5000000000000006
100
AcDbArc
 50
270.0
 51
0.0
  0
LINE
  5
4BBA
330
A
100
AcDbEntity
  8
0
  6
Continuous
 62
     7
370
     0
100
AcDbLine
 10
-25.00000000005957
 20
94.0000001489064
 30
0.0
 11
-24.5000000000598
 21
94.0000001489064
 31
0.0
  0
ARC
  5
4BBB
330
A
100
AcDbEntity
  8
0
  6
Continuous
 62
     7
370
     0
100
AcDbCircle
 10
-25.00000000005957
 20
88.0000001489064
 30
0.0
 40
6.000000000000004
100
AcDbArc
 50
90.0
 51
0.0
  0
ARC
  5
4BBC
330
A
100
AcDbEntity
  8
0
  6
Continuous
 62
     7
370
     0
100
AcDbCircle
 10
-18.5000000000598
 20
88.52906801323527
 30
0.0
 40
0.5000000000000026
100
AcDbArc
 50
93.54170598307398
 51
179.9999999999951
  0
ARC
  5
4BBD
330
A
100
AcDbEntity
  8
0
  6
Continuous
 62
     7
370
     0
100
AcDbCircle
 10
-25.94389621548589
 20
208.7989246238339
 30
0.0
 40
120.0
100
AcDbArc
 50
273.5417059830805
 51
289.9499487039268
  0
ARC
  5
4BBE
330
A
100
AcDbEntity
  8
0
  6
Continuous
 62
     7
370
     0
100
AcDbCircle
 10
-145.7989244749873
 20
88.94389636433263
 30
0.0
 40
119.9999999999999
100
AcDbArc
 50
340.0500512960754
 51
356.242689119119
  0
LINE
  5
4BBF
330
A
100
AcDbEntity
  8
0
  6
Continuous
 62
     7
370
     0
100
AcDbLine
 10
-35.0000000000598
 20
48.0000001489064
 30
0.0
 11
-33.00000000005957
 21
48.0000001489064
 31
0.0
  0
LINE
  5
4BC0
330
A
100
AcDbEntity
  8
0
  6
Continuous
 62
     7
370
     0
100
AcDbLine
 10
-34.5000000000598
 20
79.5000001489064
 30
0.0
 11
-35.0000000000598
 21
79.5000001489064
 31
0.0
  0
LINE
  5
4BC1
330
A
100
AcDbEntity
  8
0
  6
Continuous
 62
     7
370
     0
100
AcDbLine
 10
-35.0000000000598
 20
79.5000001489064
 30
0.0
 11
-35.0000000000598
 21
48.0000001489064
 31
0.0
  0
LINE
  5
4BC2
330
A
100
AcDbEntity
  8
0
  6
Continuous
 62
     7
370
     0
100
AcDbLine
 10
-31.9282032303355
 20
87.00000014890639
 30
0.0
 11
-34.00000000005957
 21
87.00000014890639
 31
0.0
  0
ARC
  5
4BC3
330
A
100
AcDbEntity
  8
0
  6
Continuous
 62
     7
370
     0
100
AcDbCircle
 10
-25.00000000005957
 20
88.0000001489064
 30
0.0
 40
7.000000000000031
100
AcDbArc
 50
188.2132107017382
 51
261.3163089940884
  0
ARC
  5
4BC4
330
A
100
AcDbEntity
  8
0
  6
Continuous
 62
     7
370
     0
100
AcDbCircle
 10
-34.5000000000598
 20
80.00000014890639
 30
0.0
 40
0.4999999999999451
100
AcDbArc
 50
270.0
 51
0.0
  0
LINE
  5
4BC5
330
A
100
AcDbEntity
  8
0
  6
Continuous
 62
     7
370
     0
100
AcDbLine
 10
-34.00000000005957
 20
87.00000014890639
 30
0.0
 11
-34.00000000005957
 21
80.00000014890639
 31
0.0
  0
ARC
  5
4BC6
330
A
100
AcDbEntity
  8
0
  6
Continuous
 62
     7
370
     0
100
AcDbCircle
 10
-31.5000000000598
 20
87.50000014890639
 30
0.0
 40
0.4999999999999451
100
AcDbArc
 50
270.0
 51
0.0
  0
LINE
  5
4BC7
330
A
100
AcDbEntity
  8
0
  6
Continuous
 62
     7
370
     0
100
AcDbLine
 10
-31.0000000000598
 20
88.0000001489064
 30
0.0
 11
-31.0000000000598
 21
87.50000014890639
 31
0.0
  0
LINE
  5
4BC8
330
A
100
AcDbEntity
  8
0
  6
Continuous
 62
     7
370
     0
100
AcDbLine
 10
-25.52906786438848
 20
82.0000001489064
 30
0.0
 11
-25.00000000005957
 21
82.0000001489064
 31
0.0
  0
ARC
  5
4BC9
330
A
100
AcDbEntity
  8
0
  6
Continuous
 62
     7
370
     0
100
AcDbCircle
 10
-25.52906786438848
 20
81.5000001489064
 30
0.0
 40
0.5000000000000129
100
AcDbArc
 50
90.0
 51
176.4582940169235
  0
ARC
  5
4BCA
330
A
100
AcDbEntity
  8
0
  6
Continuous
 62
     7
370
     0
100
AcDbCircle
 10
-145.7989244749873
 20
88.94389636433263
 30
0.0
 40
119.9999999999999
100
AcDbArc
 50
356.242689119119
 51
356.4582940169219
  0
LINE
  5
4BCB
330
A
100
AcDbEntity
  8
0
  6
Continuous
 62
     7
370
     0
100
AcDbLine
 10
-31.5000000000598
 20
87.00000014890639
 30
0.0
 11
-31.9282032303355
 21
87.00000014890639
 31
0.0
  0
LINE
  5
4BCC
330
A
100
AcDbEntity
  8
0
  6
Continuous
 62
     9
370
     0
100
AcDbLine
 10
-2.099999999957503
 20
101.4999998510216
 30
0.0
 11
-2.100000000046634
 21
99.0000001489064
 31
0.0
  0
LINE
  5
4BCD
330
A
100
AcDbEntity
  8
0
  6
Continuous
 62
     9
370
     0
100
AcDbLine
 10
2.099999999953183
 20
99.0000001489064
 30
0.0
 11
2.100000000042427
 21
101.4999998509902
 31
0.0
  0
LINE
  5
4BCE
330
A
100
AcDbEntity
  8
0
  6
Continuous
 62
     9
370
     0
100
AcDbLine
 10
-36.5000000000598
 20
60.9000001489064
 30
0.0
 11
-36.0000000000598
 21
60.9000001489064
 31
0.0
  0
LINE
  5
4BCF
330
A
100
AcDbEntity
  8
0
  6
Continuous
 62
     9
370
     0
100
AcDbLine
 10
-36.0000000000598
 20
65.10000014890639
 30
0.0
 11
-36.5000000000598
 21
65.10000014890639
 31
0.0
  0
LINE
  5
4BD0
330
A
100
AcDbEntity
  8
0
  6
Continuous
 62
     7
370
     0
100
AcDbLine
 10
-2.499999999957481
 20
101.4999998511193
 30
0.0
 11
-2.500000000046611
 21
99.0000001489064
 31
0.0
  0
LINE
  5
4BD1
330
A
100
AcDbEntity
  8
0
  6
Continuous
 62
     7
370
     0
100
AcDbLine
 10
2.499999999953161
 20
99.0000001489064
 30
0.0
 11
2.500000000042518
 21
101.4999998508925
 31
0.0
  0
LINE
  5
4BD2
330
A
100
AcDbEntity
  8
0
  6
Continuous
 62
     7
370
     0
100
AcDbLine
 10
-36.49998564772818
 20
60.50000014890639
 30
0.0
 11
-36.0000000000598
 21
60.50000014890639
 31
0.0
  0
LINE
  5
4BD3
330
A
100
AcDbEntity
  8
0
  6
Continuous
 62
     7
370
     0
100
AcDbLine
 10
-36.0000000000598
 20
65.50000014890639
 30
0.0
 11
-36.4999856477275
 21
65.50000014890639
 31
0.0
  0
LINE
  5
4BD4
330
A
100
AcDbEntity
  8
0
  6
Continuous
 62
     7
370
     0
100
AcDbLine
 10
-37.00000000006082
 20
69.00000014890744
 30
0.0
 11
-42.00000000006093
 21
69.00000014890744
 31
0.0
  0
LINE
  5
4BD5
330
A
100
AcDbEntity
  8
0
  6
Continuous
 62
     7
370
     0
100
AcDbLine
 10
-42.00000000006093
 20
57.00000014890744
 30
0.0
 11
-37.00000000006082
 21
57.00000014890744
 31
0.0
  0
LINE
  5
4BD6
330
A
100
AcDbEntity
  8
0
  6
Continuous
 62
     7
370
     0
100
AcDbLine
 10
5.999999999952024
 20
102.0000000590601
 30
0.0
 11
6.000000000000454
 21
107.0000000590601
 31
0.0
  0
LINE
  5
4BD7
330
A
100
AcDbEntity
  8
0
  6
Continuous
 62
     7
370
     0
100
AcDbLine
 10
-6.000000000000227
 20
107.0000000591768
 30
0.0
 11
-6.000000000048885
 21
102.0000000591768
 31
0.0
  0
LINE
  5
4BD8
330
A
100
AcDbEntity
  8
0
  6
Continuous
 62
     7
370
     0
100
AcDbLine
 10
4.899999999947681
 20
101.4999998509693
 30
0.0
 11
4.899999999951319
 21
102.0000000590708
 31
0.0
  0
LINE
  5
4BD9
330
A
100
AcDbEntity
  8
0
  6
Continuous
 62
     7
370
     0
100
AcDbLine
 10
-4.900000000048635
 20
102.0000000591661
 30
0.0
 11
-4.900000000052273
 21
101.4999998510425
 31
0.0
  0
LINE
  5
4BDA
330
A
100
AcDbEntity
  8
0
  6
Continuous
 62
     7
370
     0
100
AcDbLine
 10
-36.5000000000598
 20
67.90000014890745
 30
0.0
 11
-37.00000000006082
 21
67.90000014890745
 31
0.0
  0
LINE
  5
4BDB
330
A
100
AcDbEntity
  8
0
  6
Continuous
 62
     7
370
     0
100
AcDbLine
 10
-37.00000000006082
 20
58.10000014890744
 30
0.0
 11
-36.5000000000598
 21
58.10000014890744
 31
0.0
  0
LINE
  5
4BDC
330
A
100
AcDbEntity
  8
0
  6
Continuous
 62
     7
370
     0
100
AcDbLine
 10
-37.00000000006082
 20
5.99999999999521
 30
0.0
 11
-37.00000000006082
 21
5.978556656471539
 31
0.0
  0
LINE
  5
4BDD
330
A
100
AcDbEntity
  8
0
  6
Continuous
 62
     7
370
     0
100
AcDbLine
 10
-37.00000000006082
 20
5.978556656471539
 30
0.0
 11
-37.00000000006082
 21
-6.00000000000476
 31
0.0
  0
LINE
  5
4BDE
330
A
100
AcDbEntity
  8
0
  6
Continuous
 62
     7
370
     0
100
AcDbLine
 10
-14.99999999998886
 20
20.00000000000006
 30
0.0
 11
-14.99999999998886
 21
-19.9999999999999
 31
0.0
  0
LINE
  5
4BDF
330
A
100
AcDbEntity
  8
0
  6
Continuous
 62
     7
370
     0
100
AcDbLine
 10
-11.99999999996623
 20
20.00000000000006
 30
0.0
 11
-14.99999999998886
 21
20.00000000000006
 31
0.0
  0
LINE
  5
4BE0
330
A
100
AcDbEntity
  8
0
  6
Continuous
 62
     9
370
     0
100
AcDbLine
 10
-11.99999999996623
 20
20.00000000000006
 30
0.0
 11
-11.99999999996657
 21
-19.9999999999999
 31
0.0
  0
LINE
  5
4BE1
330
A
100
AcDbEntity
  8
0
  6
Continuous
 62
     7
370
     0
100
AcDbLine
 10
-11.99999999996657
 20
-19.9999999999999
 30
0.0
 11
-14.99999999998886
 21
-19.9999999999999
 31
0.0
  0
LINE
  5
4BE2
330
A
100
AcDbEntity
  8
0
  6
Continuous
 62
     9
370
     0
100
AcDbLine
 10
12.00000000003376
 20
20.00000000000004
 30
0.0
 11
12.00000000003376
 21
-20.00000000000001
 31
0.0
  0
LINE
  5
4BE3
330
A
100
AcDbEntity
  8
0
  6
Continuous
 62
     7
370
     0
100
AcDbLine
 10
12.00000000003376
 20
-20.00000000000001
 30
0.0
 11
-11.99999999996657
 21
-19.9999999999999
 31
0.0
  0
LINE
  5
4BE4
330
A
100
AcDbEntity
  8
0
  6
Continuous
 62
     7
370
     0
100
AcDbLine
 10
12.00000000003376
 20
20.00000000000004
 30
0.0
 11
-11.99999999996623
 21
20.00000000000006
 31
0.0
  0
LINE
  5
4BE5
330
A
100
AcDbEntity
  8
0
  6
Continuous
 62
     7
370
     0
100
AcDbLine
 10
15.00000000001137
 20
20.00000000000004
 30
0.0
 11
15.00000000001103
 21
-20.00000000000001
 31
0.0
  0
LINE
  5
4BE6
330
A
100
AcDbEntity
  8
0
  6
Continuous
 62
     7
370
     0
100
AcDbLine
 10
15.00000000001103
 20
-20.00000000000001
 30
0.0
 11
12.00000000003376
 21
-20.00000000000001
 31
0.0
  0
LINE
  5
4BE7
330
A
100
AcDbEntity
  8
0
  6
Continuous
 62
     7
370
     0
100
AcDbLine
 10
15.00000000001137
 20
20.00000000000004
 30
0.0
 11
12.00000000003376
 21
20.00000000000004
 31
0.0
  0
LINE
  5
4BE8
330
A
100
AcDbEntity
  8
0
  6
Continuous
 62
     9
370
     0
100
AcDbLine
 10
-45.0000000000598
 20
19.99999999998584
 30
0.0
 11
-45.0000000000598
 21
-20.0000000000141
 31
0.0
  0
LINE
  5
4BE9
330
A
100
AcDbEntity
  8
0
  6
Continuous
 62
     7
370
     0
100
AcDbLine
 10
-43.00000000005979
 20
19.99999999998584
 30
0.0
 11
-45.0000000000598
 21
19.99999999998584
 31
0.0
  0
LINE
  5
4BEA
330
A
100
AcDbEntity
  8
0
  6
Continuous
 62
     7
370
     0
100
AcDbLine
 10
-43.00000000005979
 20
19.99999999998584
 30
0.0
 11
-43.00000000005979
 21
-20.0000000000141
 31
0.0
  0
LINE
  5
4BEB
330
A
100
AcDbEntity
  8
0
  6
Continuous
 62
     7
370
     0
100
AcDbLine
 10
-43.00000000005979
 20
-20.0000000000141
 30
0.0
 11
-45.0000000000598
 21
-20.0000000000141
 31
0.0
  0
LINE
  5
4BEC
330
A
100
AcDbEntity
  8
0
  6
Continuous
 62
     7
370
     0
100
AcDbLine
 10
-48.00000000005979
 20
19.99999999998773
 30
0.0
 11
-48.00000000005979
 21
-20.00000000001229
 31
0.0
  0
LINE
  5
4BED
330
A
100
AcDbEntity
  8
0
  6
Continuous
 62
     7
370
     0
100
AcDbLine
 10
-45.0000000000598
 20
-20.00000000001229
 30
0.0
 11
-48.00000000005979
 21
-20.00000000001229
 31
0.0
  0
LINE
  5
4BEE
330
A
100
AcDbEntity
  8
0
  6
Continuous
 62
     7
370
     0
100
AcDbLine
 10
-45.0000000000598
 20
19.99999999998773
 30
0.0
 11
-48.00000000005979
 21
19.99999999998773
 31
0.0
  0
LINE
  5
4BEF
330
A
100
AcDbEntity
  8
0
  6
Continuous
 62
     7
370
     0
100
AcDbLine
 10
-36.5000000000598
 20
4.899999999995216
 30
0.0
 11
-36.5000000000598
 21
-4.90000000000478
 31
0.0
  0
LINE
  5
4BF0
330
A
100
AcDbEntity
  8
0
  6
Continuous
 62
     9
370
     0
100
AcDbLine
 10
-43.00000000005946
 20
-17.0000000000052
 30
0.0
 11
-42.00000000005945
 21
-17.0000000000052
 31
0.0
  0
LINE
  5
4BF1
330
A
100
AcDbEntity
  8
0
  6
Continuous
 62
     9
370
     0
100
AcDbLine
 10
-43.00000000005946
 20
16.99999999999474
 30
0.0
 11
-42.00000000005945
 21
16.99999999999474
 31
0.0
  0
LINE
  5
4BF2
330
A
100
AcDbEntity
  8
0
  6
Continuous
 62
     7
370
     0
100
AcDbLine
 10
-42.00000000005945
 20
16.99999999999474
 30
0.0
 11
-42.00000000005945
 21
-17.0000000000052
 31
0.0
  0
LINE
  5
4BF3
330
A
100
AcDbEntity
  8
0
  6
Continuous
 62
     7
370
     0
100
AcDbLine
 10
-43.00000000005946
 20
18.99999999999474
 30
0.0
 11
-42.00000000005945
 21
18.99999999999474
 31
0.0
  0
LINE
  5
4BF4
330
A
100
AcDbEntity
  8
0
  6
Continuous
 62
     7
370
     0
100
AcDbLine
 10
-42.00000000005945
 20
18.99999999999475
 30
0.0
 11
-42.00000000005945
 21
16.99999999999474
 31
0.0
  0
LINE
  5
4BF5
330
A
100
AcDbEntity
  8
0
  6
Continuous
 62
     7
370
     0
100
AcDbLine
 10
-43.00000000005946
 20
-19.0000000000052
 30
0.0
 11
-42.00000000005945
 21
-19.0000000000052
 31
0.0
  0
LINE
  5
4BF6
330
A
100
AcDbEntity
  8
0
  6
Continuous
 62
     7
370
     0
100
AcDbLine
 10
-42.00000000005945
 20
-17.0000000000052
 30
0.0
 11
-42.00000000005945
 21
-19.0000000000052
 31
0.0
  0
LINE
  5
4BF7
330
A
100
AcDbEntity
  8
0
  6
Continuous
 62
     9
370
     0
100
AcDbLine
 10
-35.0000000000598
 20
16.99999999999439
 30
0.0
 11
-36.0000000000598
 21
16.99999999999439
 31
0.0
  0
LINE
  5
4BF8
330
A
100
AcDbEntity
  8
0
  6
Continuous
 62
     9
370
     0
100
AcDbLine
 10
-35.0000000000598
 20
-17.0000000000049
 30
0.0
 11
-36.0000000000598
 21
-17.0000000000049
 31
0.0
  0
LINE
  5
4BF9
330
A
100
AcDbEntity
  8
0
  6
Continuous
 62
     7
370
     0
100
AcDbLine
 10
-36.0000000000598
 20
-17.0000000000049
 30
0.0
 11
-36.0000000000598
 21
16.99999999999439
 31
0.0
  0
LINE
  5
4BFA
330
A
100
AcDbEntity
  8
0
  6
Continuous
 62
     7
370
     0
100
AcDbLine
 10
-35.0000000000598
 20
18.99999999999436
 30
0.0
 11
-36.0000000000598
 21
18.99999999999436
 31
0.0
  0
LINE
  5
4BFB
330
A
100
AcDbEntity
  8
0
  6
Continuous
 62
     7
370
     0
100
AcDbLine
 10
-36.0000000000598
 20
16.99999999999439
 30
0.0
 11
-36.0000000000598
 21
18.9999999999943
 31
0.0
  0
LINE
  5
4BFC
330
A
100
AcDbEntity
  8
0
  6
Continuous
 62
     7
370
     0
100
AcDbLine
 10
-35.0000000000598
 20
-19.0000000000048
 30
0.0
 11
-36.0000000000598
 21
-19.0000000000048
 31
0.0
  0
LINE
  5
4BFD
330
A
100
AcDbEntity
  8
0
  6
Continuous
 62
     7
370
     0
100
AcDbLine
 10
-36.0000000000598
 20
-19.0000000000048
 30
0.0
 11
-36.0000000000598
 21
-17.0000000000049
 31
0.0
  0
LINE
  5
4BFE
330
A
100
AcDbEntity
  8
0
  6
Continuous
 62
     7
370
     0
100
AcDbLine
 10
-16.5000000000598
 20
-20.0000000000052
 30
0.0
 11
-14.99999999998886
 21
-20.00000000000259
 31
0.0
  0
LINE
  5
4BFF
330
A
100
AcDbEntity
  8
0
  6
Continuous
 62
     7
370
     0
100
AcDbLine
 10
-16.5000000000598
 20
-20.0000000000052
 30
0.0
 11
-16.5000000000598
 21
19.99999999999475
 31
0.0
  0
LINE
  5
4C00
330
A
100
AcDbEntity
  8
0
  6
Continuous
 62
     7
370
     0
100
AcDbLine
 10
-16.5000000000598
 20
19.99999999999475
 30
0.0
 11
-14.99999999998886
 21
19.99999999999738
 31
0.0
  0
LINE
  5
4C01
330
A
100
AcDbEntity
  8
0
  6
Continuous
 62
     9
370
     0
100
AcDbLine
 10
-17.00000000005957
 20
-20.0000000000052
 30
0.0
 11
-17.00000000005957
 21
19.99999999999475
 31
0.0
  0
LINE
  5
4C02
330
A
100
AcDbEntity
  8
0
  6
Continuous
 62
     7
370
     0
100
AcDbLine
 10
-16.5000000000598
 20
-20.0000000000052
 30
0.0
 11
-17.00000000005957
 21
-20.0000000000052
 31
0.0
  0
LINE
  5
4C03
330
A
100
AcDbEntity
  8
0
  6
Continuous
 62
     7
370
     0
100
AcDbLine
 10
-16.5000000000598
 20
19.99999999999475
 30
0.0
 11
-17.00000000005957
 21
19.99999999999475
 31
0.0
  0
LINE
  5
4C04
330
A
100
AcDbEntity
  8
0
  6
Continuous
 62
     7
370
     0
100
AcDbLine
 10
-24.0000000000598
 20
-20.0000000000052
 30
0.0
 11
-24.0000000000598
 21
19.99999999999475
 31
0.0
  0
LINE
  5
4C05
330
A
100
AcDbEntity
  8
0
  6
Continuous
 62
     7
370
     0
100
AcDbLine
 10
-24.0000000000598
 20
-20.0000000000052
 30
0.0
 11
-17.00000000005957
 21
-20.0000000000052
 31
0.0
  0
LINE
  5
4C06
330
A
100
AcDbEntity
  8
0
  6
Continuous
 62
     7
370
     0
100
AcDbLine
 10
-24.0000000000598
 20
19.99999999999475
 30
0.0
 11
-17.00000000005957
 21
19.99999999999475
 31
0.0
  0
LINE
  5
4C07
330
A
100
AcDbEntity
  8
0
  6
Continuous
 62
     9
370
     0
100
AcDbLine
 10
-24.5000000000598
 20
-20.0000000000052
 30
0.0
 11
-24.5000000000598
 21
-0.000000000005258
 31
0.0
  0
LINE
  5
4C08
330
A
100
AcDbEntity
  8
0
  6
Continuous
 62
     7
370
     0
100
AcDbLine
 10
-24.0000000000598
 20
-0.000000000005258
 30
0.0
 11
-24.5000000000598
 21
-0.000000000005258
 31
0.0
  0
LINE
  5
4C09
330
A
100
AcDbEntity
  8
0
  6
Continuous
 62
     7
370
     0
100
AcDbLine
 10
-24.0000000000598
 20
-20.0000000000052
 30
0.0
 11
-24.5000000000598
 21
-20.0000000000052
 31
0.0
  0
LINE
  5
4C0A
330
A
100
AcDbEntity
  8
0
  6
Continuous
 62
     7
370
     0
100
AcDbLine
 10
-31.0000000000598
 20
-20.0000000000052
 30
0.0
 11
-25.00000000005957
 21
-20.0000000000052
 31
0.0
  0
LINE
  5
4C0B
330
A
100
AcDbEntity
  8
0
  6
Continuous
 62
     7
370
     0
100
AcDbLine
 10
-31.0000000000598
 20
-0.000000000005258
 30
0.0
 11
-25.00000000005957
 21
-0.000000000005258
 31
0.0
  0
LINE
  5
4C0C
330
A
100
AcDbEntity
  8
0
  6
Continuous
 62
     9
370
     0
100
AcDbLine
 10
-25.00000000005957
 20
-20.0000000000052
 30
0.0
 11
-25.00000000005957
 21
-0.000000000005258
 31
0.0
  0
LINE
  5
4C0D
330
A
100
AcDbEntity
  8
0
  6
Continuous
 62
     7
370
     0
100
AcDbLine
 10
-25.00000000005957
 20
-0.000000000005258
 30
0.0
 11
-24.5000000000598
 21
-0.000000000005258
 31
0.0
  0
LINE
  5
4C0E
330
A
100
AcDbEntity
  8
0
  6
Continuous
 62
     7
370
     0
100
AcDbLine
 10
-25.00000000005957
 20
-20.0000000000052
 30
0.0
 11
-24.5000000000598
 21
-20.0000000000052
 31
0.0
  0
LINE
  5
4C0F
330
A
100
AcDbEntity
  8
0
  6
Continuous
 62
     7
370
     0
100
AcDbLine
 10
-24.0000000000598
 20
19.99999999999475
 30
0.0
 11
-31.0000000000598
 21
19.99999999999475
 31
0.0
  0
LINE
  5
4C10
330
A
100
AcDbEntity
  8
0
  6
Continuous
 62
     7
370
     0
100
AcDbLine
 10
-24.5000000000598
 20
-0.000000000005258
 30
0.0
 11
-25.00000000005957
 21
-0.000000000005258
 31
0.0
  0
LINE
  5
4C11
330
A
100
AcDbEntity
  8
0
  6
Continuous
 62
     7
370
     0
100
AcDbLine
 10
-25.00000000005957
 20
-0.000000000005258
 30
0.0
 11
-31.0000000000598
 21
-0.000000000005258
 31
0.0
  0
LINE
  5
4C12
330
A
100
AcDbEntity
  8
0
  6
Continuous
 62
     7
370
     0
100
AcDbLine
 10
-31.0000000000598
 20
19.99999999999475
 30
0.0
 11
-31.0000000000598
 21
-0.000000000005258
 31
0.0
  0
LINE
  5
4C13
330
A
100
AcDbEntity
  8
0
  6
Continuous
 62
     9
370
     0
100
AcDbLine
 10
-31.5000000000598
 20
19.99999999999475
 30
0.0
 11
-31.5000000000598
 21
-0.000000000005258
 31
0.0
  0
LINE
  5
4C14
330
A
100
AcDbEntity
  8
0
  6
Continuous
 62
     7
370
     0
100
AcDbLine
 10
-31.5000000000598
 20
-0.000000000005258
 30
0.0
 11
-31.0000000000598
 21
-0.000000000005258
 31
0.0
  0
LINE
  5
4C15
330
A
100
AcDbEntity
  8
0
  6
Continuous
 62
     7
370
     0
100
AcDbLine
 10
-31.5000000000598
 20
19.99999999999475
 30
0.0
 11
-31.0000000000598
 21
19.99999999999475
 31
0.0
  0
LINE
  5
4C16
330
A
100
AcDbEntity
  8
0
  6
Continuous
 62
     7
370
     0
100
AcDbLine
 10
-31.9282032303355
 20
-20.0000000000052
 30
0.0
 11
-34.00000000005957
 21
-20.0000000000052
 31
0.0
  0
LINE
  5
4C17
330
A
100
AcDbEntity
  8
0
  6
Continuous
 62
     7
370
     0
100
AcDbLine
 10
-34.00000000005957
 20
19.99999999999475
 30
0.0
 11
-34.00000000005957
 21
-20.0000000000052
 31
0.0
  0
LINE
  5
4C18
330
A
100
AcDbEntity
  8
0
  6
Continuous
 62
     7
370
     0
100
AcDbLine
 10
-31.9282032303355
 20
-0.000000000005258
 30
0.0
 11
-31.9282032303355
 21
-20.0000000000052
 31
0.0
  0
LINE
  5
4C19
330
A
100
AcDbEntity
  8
0
  6
Continuous
 62
     7
370
     0
100
AcDbLine
 10
-31.5000000000598
 20
-0.000000000005258
 30
0.0
 11
-31.9282032303355
 21
-0.000000000005258
 31
0.0
  0
LINE
  5
4C1A
330
A
100
AcDbEntity
  8
0
  6
Continuous
 62
     7
370
     0
100
AcDbLine
 10
-31.5000000000598
 20
19.99999999999475
 30
0.0
 11
-34.00000000005957
 21
19.99999999999475
 31
0.0
  0
LINE
  5
4C1B
330
A
100
AcDbEntity
  8
0
  6
Continuous
 62
     7
370
     0
100
AcDbLine
 10
-31.0000000000598
 20
-20.0000000000052
 30
0.0
 11
-31.92820323033516
 21
-20.0000000000052
 31
0.0
  0
LINE
  5
4C1C
330
A
100
AcDbEntity
  8
0
  6
Continuous
 62
     9
370
     0
100
AcDbLine
 10
-34.5000000000598
 20
19.99999999999475
 30
0.0
 11
-34.5000000000598
 21
-20.0000000000052
 31
0.0
  0
LINE
  5
4C1D
330
A
100
AcDbEntity
  8
0
  6
Continuous
 62
     7
370
     0
100
AcDbLine
 10
-34.5000000000598
 20
-20.0000000000052
 30
0.0
 11
-34.00000000005957
 21
-20.0000000000052
 31
0.0
  0
LINE
  5
4C1E
330
A
100
AcDbEntity
  8
0
  6
Continuous
 62
     7
370
     0
100
AcDbLine
 10
-34.5000000000598
 20
19.99999999999475
 30
0.0
 11
-34.00000000005957
 21
19.99999999999475
 31
0.0
  0
LINE
  5
4C1F
330
A
100
AcDbEntity
  8
0
  6
Continuous
 62
     7
370
     0
100
AcDbLine
 10
-35.0000000000598
 20
19.99999999999475
 30
0.0
 11
-35.0000000000598
 21
-20.0000000000052
 31
0.0
  0
LINE
  5
4C20
330
A
100
AcDbEntity
  8
0
  6
Continuous
 62
     7
370
     0
100
AcDbLine
 10
-34.5000000000598
 20
-20.0000000000052
 30
0.0
 11
-35.0000000000598
 21
-20.0000000000052
 31
0.0
  0
LINE
  5
4C21
330
A
100
AcDbEntity
  8
0
  6
Continuous
 62
     7
370
     0
100
AcDbLine
 10
-34.5000000000598
 20
19.99999999999475
 30
0.0
 11
-35.0000000000598
 21
19.99999999999475
 31
0.0
  0
LINE
  5
4C22
330
A
100
AcDbEntity
  8
0
  6
Continuous
 62
     9
370
     0
100
AcDbLine
 10
-36.5000000000598
 20
-2.100000000060418
 30
0.0
 11
-36.0000000000598
 21
-2.100000000028458
 31
0.0
  0
LINE
  5
4C23
330
A
100
AcDbEntity
  8
0
  6
Continuous
 62
     9
370
     0
100
AcDbLine
 10
-36.0000000000598
 20
2.099999999971529
 30
0.0
 11
-36.5000000000598
 21
2.099999999939612
 31
0.0
  0
LINE
  5
4C24
330
A
100
AcDbEntity
  8
0
  6
Continuous
 62
     7
370
     0
100
AcDbLine
 10
-36.50000000000421
 20
-2.500000000060424
 30
0.0
 11
-36.0000000000598
 21
-2.50000000002845
 31
0.0
  0
LINE
  5
4C25
330
A
100
AcDbEntity
  8
0
  6
Continuous
 62
     7
370
     0
100
AcDbLine
 10
-36.0000000000598
 20
2.499999999971549
 30
0.0
 11
-36.50000000011551
 21
2.499999999939589
 31
0.0
  0
LINE
  5
4C26
330
A
100
AcDbEntity
  8
0
  6
Continuous
 62
     7
370
     0
100
AcDbLine
 10
-37.00000000006082
 20
5.99999999999521
 30
0.0
 11
-42.00000000006093
 21
5.99999999999521
 31
0.0
  0
LINE
  5
4C27
330
A
100
AcDbEntity
  8
0
  6
Continuous
 62
     7
370
     0
100
AcDbLine
 10
-42.00000000006093
 20
-6.000000000004803
 30
0.0
 11
-37.00000000006082
 21
-6.000000000004803
 31
0.0
  0
LINE
  5
4C28
330
A
100
AcDbEntity
  8
0
  6
Continuous
 62
     7
370
     0
100
AcDbLine
 10
-36.5000000000598
 20
4.899999999995216
 30
0.0
 11
-37.00000000006082
 21
4.899999999995216
 31
0.0
  0
LINE
  5
4C29
330
A
100
AcDbEntity
  8
0
  6
Continuous
 62
     7
370
     0
100
AcDbLine
 10
-37.00000000006082
 20
-4.90000000000478
 30
0.0
 11
-36.5000000000598
 21
-4.90000000000478
 31
0.0
  0
LINE
  5
4C2A
330
A
100
AcDbEntity
  8
0
  6
Continuous
 62
     7
370
     0
100
AcDbLine
 10
-31.0000000000598
 20
-0.000000000005258
 30
0.0
 11
-31.0000000000598
 21
-20.0000000000052
 31
0.0
  0
TEXT
  5
6190
330
A
100
AcDbEntity
  8
0
  6
Continuous
 62
     7
370
     0
100
AcDbText
 10
-17.91541303988822
 20
53.50732064421191
 30
0.0
 40
10.0
  1
4429
100
AcDbText
  0
LINE
  5
6191
330
A
100
AcDbEntity
  8
0
  6
Continuous
 62
     7
370
     0
100
AcDbLine
 10
-116.6370139506835
 20
4.999999999962184
 30
0.0
 11
-116.7474138463382
 21
4.97557133883879
 31
0.0
  0
LINE
  5
6192
330
A
100
AcDbEntity
  8
0
  6
Continuous
 62
     7
370
     0
100
AcDbLine
 10
-116.7474138463382
 20
4.97557133883879
 30
0.0
 11
-116.842928342617
 21
4.915902057892353
 31
0.0
  0
LINE
  5
6193
330
A
100
AcDbEntity
  8
0
  6
Continuous
 62
     7
370
     0
100
AcDbLine
 10
-116.842928342617
 20
4.915902057892353
 30
0.0
 11
-116.9384912845219
 21
4.82100806962363
 31
0.0
  0
LINE
  5
6194
330
A
100
AcDbEntity
  8
0
  6
Continuous
 62
     7
370
     0
100
AcDbLine
 10
-116.9384912845219
 20
4.82100806962363
 30
0.0
 11
-117.0360844088994
 21
4.687166918965928
 31
0.0
  0
ARC
  5
6195
330
A
100
AcDbEntity
  8
0
  6
Continuous
 62
     7
370
     0
100
AcDbCircle
 10
-104.4324324393338
 20
0.061575290422951
 30
0.0
 40
13.42565234482029
100
AcDbArc
 50
159.8466574421352
 51
201.3230718221234
  0
LINE
  5
6196
330
A
100
AcDbEntity
  8
0
  6
Continuous
 62
     7
370
     0
100
AcDbLine
 10
-116.9390301191957
 20
-4.820345986907767
 30
0.0
 11
-116.8439183594466
 21
-4.915126681406434
 31
0.0
  0
LINE
  5
6197
330
A
100
AcDbEntity
  8
0
  6
Continuous
 62
     7
370
     0
100
AcDbLine
 10
-116.8439183594466
 20
-4.915126681406434
 30
0.0
 11
-116.74615342815
 21
-4.976091144478857
 31
0.0
  0
LINE
  5
6198
330
A
100
AcDbEntity
  8
0
  6
Continuous
 62
     7
370
     0
100
AcDbLine
 10
-116.74615342815
 20
-4.976091144478857
 30
0.0
 11
-116.6370137992251
 21
-4.999999999975102
 31
0.0
  0
LINE
  5
6199
330
A
100
AcDbEntity
  8
0
  6
Continuous
 62
     7
370
     0
100
AcDbLine
 10
-116.6370137992251
 20
-4.999999999975102
 30
0.0
 11
-116.5093225514516
 21
-4.96581696538891
 31
0.0
  0
LINE
  5
619A
330
A
100
AcDbEntity
  8
0
  6
Continuous
 62
     7
370
     0
100
AcDbLine
 10
-116.5093225514516
 20
-4.96581696538891
 30
0.0
 11
-116.4177042335974
 21
-4.896698383392859
 31
0.0
  0
LINE
  5
619B
330
A
100
AcDbEntity
  8
0
  6
Continuous
 62
     7
370
     0
100
AcDbLine
 10
-116.4177042335974
 20
-4.896698383392859
 30
0.0
 11
-116.3278231322291
 21
-4.788738278086469
 31
0.0
  0
LINE
  5
619C
330
A
100
AcDbEntity
  8
0
  6
Continuous
 62
     7
370
     0
100
AcDbLine
 10
-116.3278231322291
 20
-4.788738278086469
 30
0.0
 11
-116.243327221921
 21
-4.646504897219884
 31
0.0
  0
ARC
  5
619D
330
A
100
AcDbEntity
  8
0
  6
Continuous
 62
     7
370
     0
100
AcDbCircle
 10
-128.590968864351
 20
-0.6829009214934274
 30
0.0
 40
12.96820768673414
100
AcDbArc
 50
342.2033234862825
 51
3.018570319201307
  0
ARC
  5
619E
330
A
100
AcDbEntity
  8
0
  6
Continuous
 62
     7
370
     0
100
AcDbCircle
 10
-127.4584822650837
 20
0.7371960810885412
 30
0.0
 40
11.84069896678802
100
AcDbArc
 50
356.4304844187721
 51
20.07968442897072
  0
LINE
  5
619F
330
A
100
AcDbEntity
  8
0
  6
Continuous
 62
     7
370
     0
100
AcDbLine
 10
-116.3375078029838
 20
4.802424123329217
 30
0.0
 11
-116.4235325963319
 21
4.902284823150495
 31
0.0
  0
LINE
  5
61A0
330
A
100
AcDbEntity
  8
0
  6
Continuous
 62
     7
370
     0
100
AcDbLine
 10
-116.4235325963319
 20
4.902284823150495
 30
0.0
 11
-116.5121028341923
 21
4.967311880922125
 31
0.0
  0
LINE
  5
61A1
330
A
100
AcDbEntity
  8
0
  6
Continuous
 62
     7
370
     0
100
AcDbLine
 10
-116.5121028341923
 20
4.967311880922125
 30
0.0
 11
-116.6370139506835
 21
4.999999999962184
 31
0.0
  0
CIRCLE
  5
639A
330
A
100
AcDbEntity
  8
0
  6
CENTER
 62
     1
100
AcDbCircle
 10
0.0
 20
0.0000000000000071
 30
0.0
 40
7.0
  0
CIRCLE
  5
639C
330
A
100
AcDbEntity
  8
0
  6
CENTER
 62
     1
100
AcDbCircle
 10
-88.00000014893555
 20
-0.0007686114221173
 30
0.0
 40
7.0
  0
LINE
  5
639D
330
A
100
AcDbEntity
  8
0
  6
CENTER
 62
     1
100
AcDbLine
 10
-96.00000014893556
 20
0.0000000001321894
 30
0.0
 11
-80.00000014893533
 21
0.0000000001321894
 31
0.0
  0
LINE
  5
639E
330
A
100
AcDbEntity
  8
0
  6
CENTER
 62
     1
100
AcDbLine
 10
-88.00000014893555
 20
-7.999999999867839
 30
0.0
 11
-88.00000014893555
 21
8.000000000132203
 31
0.0
  0
ENDSEC
  0
SECTION
  2
OBJECTS
  0
DICTIONARY
  5
19
330
0
100
AcDbDictionary
281
     1
  3
ACAD_COLOR
350
3176
  3
ACAD_GROUP
350
1A
  3
ACAD_LAYOUT
350
1E
  3
ACAD_MATERIAL
350
314C
  3
ACAD_MLEADERSTYLE
350
319B
  3
ACAD_MLINESTYLE
350
1B
  3
ACAD_PLOTSETTINGS
350
22
  3
ACAD_PLOTSTYLENAME
350
1F
  3
ACAD_SCALELIST
350
3179
  3
ACAD_TABLESTYLE
350
3177
  3
ACAD_VISUALSTYLE
350
3165
  3
ACAD_WIPEOUT_VARS
350
23
  3
ACDB_RECOMPOSE_DATA
350
630A
  3
AcDbVariableDictionary
350
630B
  3
ASE_INDEX_DICTIONARY
350
5E44
  3
DWGPROPS
350
63AE
  0
DICTIONARY
  5
5E41
330
14
100
AcDbDictionary
280
     1
281
     1
  3
ADSK_XREC_LAYER_RECONCILED
360
5E42
  0
DICTIONARY
  5
31A7
330
A
100
AcDbDictionary
280
     1
281
     1
  3
ACAD_SORTENTS
360
31A8
  0
DICTIONARY
  5
3176
102
{ACAD_REACTORS
330
19
102
}
330
19
100
AcDbDictionary
281
     1
  0
DICTIONARY
  5
1A
102
{ACAD_REACTORS
330
19
102
}
330
19
100
AcDbDictionary
281
     1
  0
DICTIONARY
  5
1E
102
{ACAD_REACTORS
330
19
102
}
330
19
100
AcDbDictionary
281
     1
  3
Layout1
350
21
  3
Model
350
20
  0
DICTIONARY
  5
314C
102
{ACAD_REACTORS
330
19
102
}
330
19
100
AcDbDictionary
281
     1
  3
ByBlock
350
3155
  3
ByLayer
350
314D
  3
Global
350
315D
  0
DICTIONARY
  5
319B
102
{ACAD_REACTORS
330
19
102
}
330
19
100
AcDbDictionary
281
     1
  3
Standard
350
319C
  0
DICTIONARY
  5
1B
102
{ACAD_REACTORS
330
19
102
}
330
19
100
AcDbDictionary
281
     1
  3
Standard
350
1C
  0
DICTIONARY
  5
22
102
{ACAD_REACTORS
330
19
102
}
330
19
100
AcDbDictionary
281
     1
  0
ACDBDICTIONARYWDFLT
  5
1F
102
{ACAD_REACTORS
330
19
102
}
330
19
100
AcDbDictionary
281
     1
  3
Normal
350
1D
100
AcDbDictionaryWithDefault
340
1D
  0
DICTIONARY
  5
3179
102
{ACAD_REACTORS
330
19
102
}
330
19
100
AcDbDictionary
281
     1
  3
A0
350
317A
  3
A1
350
317B
  3
A2
350
317C
  3
A3
350
317D
  3
A4
350
317E
  3
A5
350
317F
  3
A6
350
3180
  3
A7
350
3181
  3
A8
350
3182
  3
A9
350
3183
  3
B0
350
3184
  3
B1
350
3185
  3
B2
350
3186
  3
B3
350
3187
  3
B4
350
3188
  3
B5
350
3189
  3
B6
350
318A
  3
B7
350
318B
  3
B8
350
318C
  3
B9
350
318D
  3
C0
350
318E
  3
C1
350
318F
  3
C2
350
3190
  3
C3
350
3191
  3
C4
350
3192
  3
C5
350
3193
  3
C6
350
3194
  3
C7
350
3195
  3
C8
350
3196
  3
C9
350
3197
  3
D0
350
3198
  3
D1
350
3199
  3
D2
350
319A
  0
DICTIONARY
  5
3177
102
{ACAD_REACTORS
330
19
102
}
330
19
100
AcDbDictionary
281
     1
  3
Standard
350
3178
  0
DICTIONARY
  5
3165
102
{ACAD_REACTORS
330
19
102
}
330
19
100
AcDbDictionary
281
     1
  3
2dWireframe
350
316B
  3
3D Hidden
350
316D
  3
3dWireframe
350
316C
  3
Basic
350
316A
  3
Brighten
350
3171
  3
ColorChange
350
3175
  3
Conceptual
350
316E
  3
Dim
350
3170
  3
Facepattern
350
3174
  3
Flat
350
3166
  3
FlatWithEdges
350
3167
  3
Gouraud
350
3168
  3
GouraudWithEdges
350
3169
  3
Linepattern
350
3173
  3
Realistic
350
316F
  3
Thicken
350
3172
  0
WIPEOUTVARIABLES
  5
23
330
19
100
AcDbWipeoutVariables
 70
     1
  0
XRECORD
  5
630A
102
{ACAD_REACTORS
330
19
102
}
330
19
100
AcDbXrecord
280
     1
 90
        1
330
3178
  0
DICTIONARY
  5
630B
102
{ACAD_REACTORS
330
19
102
}
330
19
100
AcDbDictionary
281
     1
  3
CANNOSCALE
350
630F
  3
CMLEADERSTYLE
350
630D
  3
CTABLESTYLE
350
630C
  3
DIMASSOC
350
6318
  3
INDEXCTL
350
6317
  3
LIGHTINGUNITS
350
6310
  3
MSLTSCALE
350
630E
  3
SORTENTS
350
6316
  0
DICTIONARY
  5
5E44
102
{ACAD_REACTORS
330
19
102
}
330
19
100
AcDbDictionary
281
     1
  3
ASEBlockHierarchyIndexRecord
350
5E46
1001
DCO15
1040
1685075681.336
  0
XRECORD
  5
63AE
102
{ACAD_REACTORS
330
19
102
}
330
19
100
AcDbXrecord
280
     1
  1
DWGPROPS COOKIE
  2

  3

  4

  6

  7

  8
renzo.ceresoli
  9

300
=
301
=
302
=
303
=
304
=
305
=
306
=
307
=
308
=
309
=
 40
0.0024585532407407
 41
2455303.727916667
 42
2455306.43011787
  1

 90
        0
  0
XRECORD
  5
5E42
102
{ACAD_REACTORS
330
5E41
102
}
330
5E41
100
AcDbXrecord
280
     1
290
     1
  0
SORTENTSTABLE
  5
31A8
102
{ACAD_REACTORS
330
31A7
102
}
330
31A7
100
AcDbSortentsTable
330
A
331
4C24
  5
4439
331
4C09
  5
43E9
331
4BEE
  5
43CE
331
4A2F
  5
4719
331
4A4A
  5
4734
331
49F9
  5
46E3
331
4A14
  5
46FE
331
4ADA
  5
4649
331
4A91
  5
46AB
331
4AAC
  5
46C6
331
4AC7
  5
4636
331
4A76
  5
4690
331
1680
  5
4770
331
4B54
  5
45B5
331
4B67
  5
45C8
331
4B82
  5
45E3
331
4AF3
  5
4660
331
4B1E
  5
467E
331
4B39
  5
4578
331
4B9B
  5
4481
331
4BB6
  5
44C8
331
4BD1
  5
44F5
331
4C22
  5
4437
331
4C07
  5
43E7
331
4BEC
  5
43CC
331
4A2D
  5
4717
331
4A48
  5
4732
331
49F7
  5
46E1
331
4A12
  5
46FC
331
4AD8
  5
4647
331
4A8F
  5
46A9
331
4AAA
  5
46C4
331
4AC5
  5
4634
331
4A46
  5
4730
331
4A74
  5
468E
331
167E
  5
476E
331
4B52
  5
45B3
331
4B65
  5
45C6
331
4B80
  5
45E1
331
4B1C
  5
467C
331
4B37
  5
4554
331
4B99
  5
447F
331
4BB4
  5
44C6
331
4BCF
  5
44F3
331
4B7E
  5
45DF
331
4C20
  5
4435
331
4C05
  5
43E5
331
4BEA
  5
43B8
331
4A2B
  5
4715
331
49F5
  5
46DF
331
4A10
  5
46FA
331
4A8D
  5
46A7
331
4AA8
  5
46C2
331
4AC3
  5
4632
331
4A44
  5
472E
331
4A5F
  5
4749
331
4A72
  5
468C
331
167C
  5
4764
331
4B50
  5
45B1
331
4B63
  5
45C4
331
4B1A
  5
467A
331
4B35
  5
4552
331
4BB2
  5
44C4
331
4BCD
  5
44F1
331
4B7C
  5
45DD
331
4B97
  5
447D
331
4C1E
  5
4433
331
4C03
  5
43E3
331
4BE8
  5
43B2
331
49F3
  5
46DD
331
4A0E
  5
46F8
331
4A29
  5
4713
331
4A8B
  5
46A5
331
4AA6
  5
46C0
331
4AC1
  5
460E
331
4A42
  5
472C
331
4A5D
  5
4747
331
4A70
  5
468A
331
4A27
  5
4711
331
167A
  5
4762
331
4B4E
  5
45AF
331
4B61
  5
45C2
331
4B18
  5
4678
331
4ABF
  5
460C
331
4B33
  5
4550
331
4BB0
  5
44C2
331
4BCB
  5
44EF
331
4B7A
  5
45DB
331
4B95
  5
447B
331
4C1C
  5
4431
331
4C01
  5
43E1
331
4BE6
  5
43B0
331
49F1
  5
46DB
331
4A0C
  5
46F6
331
4A89
  5
46A3
331
4AA4
  5
46BE
331
4A40
  5
472A
331
4A5B
  5
4745
331
4A6E
  5
4688
331
4A25
  5
470F
331
4B4C
  5
45AD
331
4B16
  5
4676
331
4ABD
  5
460A
331
4B31
  5
454E
331
4BAE
  5
44C0
331
4BC9
  5
44ED
331
4B78
  5
45D9
331
4B93
  5
4479
331
4C1A
  5
442F
331
4BE4
  5
43AE
331
4BFF
  5
43DF
331
49EF
  5
46D9
331
4A0A
  5
46F4
331
4AA2
  5
46BC
331
4A3E
  5
4728
331
4A59
  5
4743
331
4A6C
  5
4761
331
4A23
  5
470D
331
4A87
  5
46A1
331
4AE9
  5
465C
331
4B14
  5
4674
331
4B2F
  5
454C
331
4ABB
  5
46D5
331
4AD6
  5
4645
331
4B4A
  5
45AB
331
4BAC
  5
44BE
331
4BC7
  5
44EB
331
4B76
  5
45D7
331
4B91
  5
4477
331
4C18
  5
442D
331
4BE2
  5
43AC
331
4BFD
  5
43DD
331
4C16
  5
4419
331
49ED
  5
46D7
331
4A08
  5
46F2
331
4AA0
  5
46BA
331
4A3C
  5
4726
331
4A57
  5
4741
331
4A6A
  5
475F
331
4A06
  5
46F0
331
4A21
  5
470B
331
4A85
  5
469F
331
4AE7
  5
465A
331
4B12
  5
4672
331
4B2D
  5
454A
331
4A9E
  5
46B8
331
4AB9
  5
46D3
331
4AD4
  5
4643
331
4B48
  5
45A9
331
4BAA
  5
44BC
331
4BC5
  5
44E9
331
4B74
  5
45D5
331
4B8F
  5
4475
331
4B46
  5
45A7
331
4BE0
  5
43AA
331
4BFB
  5
43DB
331
4C14
  5
4417
331
4A55
  5
473F
331
4A68
  5
475D
331
4A83
  5
469D
331
4A04
  5
46EE
331
4A1F
  5
4709
331
4A3A
  5
4724
331
4B10
  5
4670
331
4B2B
  5
4548
331
4A9C
  5
46B6
331
4AB7
  5
46D1
331
4AD2
  5
4641
331
4AE5
  5
4658
331
4BC3
  5
44E7
331
4B5F
  5
45C0
331
4B72
  5
45D3
331
4B8D
  5
4473
331
4B44
  5
45A5
331
4BA8
  5
44A8
331
4BDE
  5
43A8
331
4BF9
  5
43D9
331
4C12
  5
43FB
331
4BF7
  5
43D7
331
4A53
  5
473D
331
4A66
  5
475B
331
4A81
  5
469B
331
4A02
  5
46EC
331
4A1D
  5
4707
331
4A38
  5
4722
331
4B0E
  5
466E
331
4B29
  5
4524
331
4A9A
  5
46B4
331
4AB5
  5
46CF
331
4AD0
  5
463F
331
4A7F
  5
4699
331
4AE3
  5
4656
331
1689
  5
4779
331
4BC1
  5
44E5
331
4B5D
  5
45BE
331
4B70
  5
45D1
331
4B8B
  5
4471
331
4B27
  5
4522
331
4B42
  5
45A3
331
4BA6
  5
448C
331
4BBF
  5
44E3
331
4BDC
  5
43A6
331
4BF5
  5
43D5
331
4C10
  5
43F9
331
4A51
  5
473B
331
4A64
  5
4756
331
4A00
  5
46EA
331
4A1B
  5
4705
331
4A36
  5
4720
331
4B0C
  5
466C
331
4AB3
  5
46CD
331
4ACE
  5
463D
331
4AE1
  5
4654
331
4A7D
  5
4697
331
4A98
  5
46B2
331
1687
  5
4777
331
4B6E
  5
45CF
331
4B89
  5
4455
331
4BA4
  5
448A
331
4B25
  5
4685
331
4B40
  5
45A1
331
4B5B
  5
45BC
331
4BBD
  5
44E1
331
4BDA
  5
44FE
331
4C29
  5
443E
331
4BF3
  5
43D3
331
4C0E
  5
43F2
331
4A4F
  5
4739
331
4A62
  5
4754
331
49FE
  5
46E8
331
4A19
  5
4703
331
4A34
  5
471E
331
4B0A
  5
466A
331
4AB1
  5
46CB
331
4ACC
  5
463B
331
4ADF
  5
4652
331
4A7B
  5
4695
331
4A96
  5
46B0
331
1685
  5
4775
331
4B6C
  5
45CD
331
4B87
  5
4441
331
4BA2
  5
4488
331
4B23
  5
4683
331
4B3E
  5
459F
331
4B59
  5
45BA
331
4BBB
  5
44DF
331
4BD6
  5
44FA
331
4BD8
  5
44FC
331
4C27
  5
443C
331
4BF1
  5
43D1
331
4C0C
  5
43F0
331
4A4D
  5
4737
331
4A60
  5
474A
331
49FC
  5
46E6
331
4A17
  5
4701
331
4A32
  5
471C
331
4B08
  5
4664
331
4AAF
  5
46C9
331
4ACA
  5
4639
331
4ADD
  5
464C
331
4A79
  5
4693
331
4A94
  5
46AE
331
4B6A
  5
45CB
331
4B85
  5
4608
331
4BA0
  5
4486
331
4B21
  5
4681
331
4B3C
  5
457B
331
4B57
  5
45B8
331
4BD4
  5
44F8
331
4B9E
  5
4484
331
4BB9
  5
44DD
331
4C25
  5
443A
331
4BEF
  5
43CF
331
4C0A
  5
43EE
331
49FA
  5
46E4
331
4A15
  5
46FF
331
4A30
  5
471A
331
4A4B
  5
4735
331
4AAD
  5
46C7
331
4AC8
  5
4637
331
4ADB
  5
464A
331
4A77
  5
4691
331
4A92
  5
46AC
331
4B68
  5
45C9
331
4B83
  5
45E4
331
4B1F
  5
467F
331
4B3A
  5
4579
331
4B55
  5
45B6
331
4AF4
  5
4661
331
4BD2
  5
44F6
331
4B9C
  5
4482
331
4BB7
  5
44C9
331
4C23
  5
4438
331
4BED
  5
43CD
331
4C08
  5
43E8
331
49F8
  5
46E2
331
4A13
  5
46FD
331
4A2E
  5
4718
331
4A49
  5
4733
331
4AAB
  5
46C5
331
4AC6
  5
4635
331
4AD9
  5
4648
331
4A75
  5
468F
331
4A90
  5
46AA
331
4A47
  5
4731
331
167F
  5
476F
331
4B66
  5
45C7
331
4B81
  5
45E2
331
4B1D
  5
467D
331
4B38
  5
4555
331
4B53
  5
45B4
331
4AF2
  5
465F
331
4BD0
  5
44F4
331
4B7F
  5
45E0
331
4B9A
  5
4480
331
4BB5
  5
44C7
331
4BEB
  5
43CB
331
4C06
  5
43E6
331
4C21
  5
4436
331
4A11
  5
46FB
331
4A2C
  5
4716
331
49F6
  5
46E0
331
4AC4
  5
4633
331
4A73
  5
468D
331
4A8E
  5
46A8
331
4A45
  5
472F
331
4AA9
  5
46C3
331
167D
  5
4765
331
4B1B
  5
467B
331
4B36
  5
4553
331
4B51
  5
45B2
331
4B64
  5
45C5
331
4BCE
  5
44F2
331
4B7D
  5
45DE
331
4B98
  5
447E
331
4BB3
  5
44C5
331
4BE9
  5
43B3
331
4C04
  5
43E4
331
4C1F
  5
4434
331
4A0F
  5
46F9
331
4A2A
  5
4714
331
49F4
  5
46DE
331
4AC2
  5
4631
331
4A5E
  5
4748
331
4A71
  5
468B
331
4A8C
  5
46A6
331
4A43
  5
472D
331
4AA7
  5
46C1
331
167B
  5
4763
331
4B19
  5
4679
331
4B34
  5
4551
331
4B4F
  5
45B0
331
4B62
  5
45C3
331
4BCC
  5
44F0
331
4B7B
  5
45DC
331
4B96
  5
447C
331
4BB1
  5
44C3
331
4C02
  5
43E2
331
4C1D
  5
4432
331
4BE7
  5
43B1
331
4A0D
  5
46F7
331
4A28
  5
4712
331
49F2
  5
46DC
331
4AC0
  5
460D
331
4A6F
  5
4689
331
4A8A
  5
46A4
331
4AA5
  5
46BF
331
4A26
  5
4710
331
4A41
  5
472B
331
4A5C
  5
4746
331
4B32
  5
454F
331
4B4D
  5
45AE
331
4B60
  5
45C1
331
4ABE
  5
460B
331
4B17
  5
4677
331
4B79
  5
45DA
331
4B94
  5
447A
331
4BAF
  5
44C1
331
4BCA
  5
44EE
331
4C00
  5
43E0
331
4C1B
  5
4430
331
4BE5
  5
43AF
331
4A0B
  5
46F5
331
49F0
  5
46DA
331
4A6D
  5
4687
331
4A88
  5
46A2
331
4AA3
  5
46BD
331
4A24
  5
470E
331
4A3F
  5
4729
331
4A5A
  5
4744
331
4B30
  5
454D
331
4B4B
  5
45AC
331
4ABC
  5
4609
331
4AD7
  5
4646
331
4AEA
  5
465D
331
4B15
  5
4675
331
4B77
  5
45D8
331
4B92
  5
4478
331
4BAD
  5
44BF
331
4BC8
  5
44EC
331
4BFE
  5
43DE
331
4C19
  5
442E
331
4BE3
  5
43AD
331
4C17
  5
441A
331
4A09
  5
46F3
331
49EE
  5
46D8
331
4A6B
  5
4760
331
4A86
  5
46A0
331
4AA1
  5
46BB
331
4A22
  5
470C
331
4A3D
  5
4727
331
4A58
  5
4742
331
4A07
  5
46F1
331
4B2E
  5
454B
331
4B49
  5
45AA
331
4AD5
  5
4644
331
4AE8
  5
465B
331
4B13
  5
4673
331
4A9F
  5
46B9
331
4ABA
  5
46D4
331
4B90
  5
4476
331
4BAB
  5
44BD
331
4BC6
  5
44EA
331
4B47
  5
45A8
331
4B75
  5
45D6
331
4BFC
  5
43DC
331
4BE1
  5
43AB
331
4C15
  5
4418
331
49EC
  5
46D6
331
4A69
  5
475E
331
4A84
  5
469E
331
4A20
  5
470A
331
4A3B
  5
4725
331
4A56
  5
4740
331
4A05
  5
46EF
331
4B2C
  5
4549
331
4AD3
  5
4642
331
4AE6
  5
4659
331
4B11
  5
4671
331
4A9D
  5
46B7
331
4AB8
  5
46D2
331
4B8E
  5
4474
331
4BA9
  5
44A9
331
4BC4
  5
44E8
331
4B45
  5
45A6
331
4B73
  5
45D4
331
4BFA
  5
43DA
331
4BDF
  5
43A9
331
4C13
  5
43FC
331
4A67
  5
475C
331
4A82
  5
469C
331
4A1E
  5
4708
331
4A39
  5
4723
331
4A54
  5
473E
331
4A03
  5
46ED
331
4B2A
  5
4547
331
4AD1
  5
4640
331
4AE4
  5
4657
331
4B0F
  5
466F
331
4A9B
  5
46B5
331
4AB6
  5
46D0
331
168A
  5
477A
331
4B8C
  5
4472
331
4BA7
  5
448D
331
4BC2
  5
44E6
331
4B43
  5
45A4
331
4B5E
  5
45BF
331
4B71
  5
45D2
331
4BF8
  5
43D8
331
4BDD
  5
43A7
331
4C11
  5
43FA
331
4BF6
  5
43D6
331
4A80
  5
469A
331
4A1C
  5
4706
331
4A37
  5
4721
331
4A52
  5
473C
331
4A01
  5
46EB
331
4A65
  5
475A
331
4ACF
  5
463E
331
4AE2
  5
4655
331
4B0D
  5
466D
331
4A7E
  5
4698
331
4A99
  5
46B3
331
4AB4
  5
46CE
331
4B28
  5
4523
331
1688
  5
4778
331
4B8A
  5
4456
331
4BA5
  5
448B
331
4BC0
  5
44E4
331
4B41
  5
45A2
331
4B5C
  5
45BD
331
4B6F
  5
45D0
331
4B26
  5
4686
331
4BBE
  5
44E2
331
4BDB
  5
4521
331
4C0F
  5
43F3
331
4C2A
  5
443F
331
4BF4
  5
43D4
331
4A1A
  5
4704
331
4A35
  5
471F
331
4A50
  5
473A
331
49FF
  5
46E9
331
4A63
  5
4755
331
4ACD
  5
463C
331
4AE0
  5
4653
331
4B0B
  5
466B
331
4A7C
  5
4696
331
4A97
  5
46B1
331
4AB2
  5
46CC
331
1686
  5
4776
331
4B88
  5
4454
331
4BA3
  5
4489
331
4B3F
  5
45A0
331
4B5A
  5
45BB
331
4B6D
  5
45CE
331
4B24
  5
4684
331
4BBC
  5
44E0
331
4BD7
  5
44FB
331
4BD9
  5
44FD
331
4C0D
  5
43F1
331
4C28
  5
443D
331
4BF2
  5
43D2
331
4A33
  5
471D
331
4A4E
  5
4738
331
4A61
  5
474B
331
49FD
  5
46E7
331
4A18
  5
4702
331
4ADE
  5
4651
331
4B09
  5
4665
331
4A7A
  5
4694
331
4A95
  5
46AF
331
4AB0
  5
46CA
331
4ACB
  5
463A
331
4BA1
  5
4487
331
4B3D
  5
459E
331
4B58
  5
45B9
331
4B6B
  5
45CC
331
4B22
  5
4682
331
4B86
  5
4440
331
4B9F
  5
4485
331
4BBA
  5
44DE
331
4BD5
  5
44F9
331
4C0B
  5
43EF
331
4C26
  5
443B
331
4BF0
  5
43D0
331
4A31
  5
471B
331
4A4C
  5
4736
331
49FB
  5
46E5
331
4A16
  5
4700
331
4ADC
  5
464B
331
4A78
  5
4692
331
4A93
  5
46AD
331
4AAE
  5
46C8
331
4AC9
  5
4638
331
4B3B
  5
457A
331
4B56
  5
45B7
331
4B69
  5
45CA
331
4B20
  5
4680
331
4B84
  5
45E5
331
4B9D
  5
4483
331
4BB8
  5
44CA
331
4BD3
  5
44F7
  0
LAYOUT
  5
21
102
{ACAD_XDICTIONARY
360
63B1
102
}
102
{ACAD_REACTORS
330
1E
102
}
330
1E
100
AcDbPlotSettings
  1

  2

  4

  6

 40
0.0
 41
0.0
 42
0.0
 43
0.0
 44
0.0
 45
0.0
 46
0.0
 47
0.0
 48
0.0
 49
0.0
140
0.0
141
0.0
142
1.0
143
1.0
 70
     0
 72
     0
 73
     0
 74
     0
  7

 75
     0
147
1.0
148
0.0
149
0.0
100
AcDbLayout
  1
Layout1
 70
     0
 71
     1
 10
0.0
 20
0.0
 11
12.0
 21
9.0
 12
0.0
 22
0.0
 32
0.0
 14
1.000000000000000E+20
 24
1.000000000000000E+20
 34
1.000000000000000E+20
 15
-1.000000000000000E+20
 25
-1.000000000000000E+20
 35
-1.000000000000000E+20
146
0.0
 13
0.0
 23
0.0
 33
0.0
 16
1.0
 26
0.0
 36
0.0
 17
0.0
 27
1.0
 37
0.0
 76
     0
330
B
  0
LAYOUT
  5
20
102
{ACAD_XDICTIONARY
360
63AF
102
}
102
{ACAD_REACTORS
330
1E
102
}
330
1E
100
AcDbPlotSettings
  1

  2

  4

  6

 40
0.0
 41
0.0
 42
0.0
 43
0.0
 44
0.0
 45
0.0
 46
0.0
 47
0.0
 48
0.0
 49
0.0
140
0.0
141
0.0
142
1.0
143
1.0
 70
  1024
 72
     0
 73
     0
 74
     0
  7

 75
     0
147
1.0
148
0.0
149
0.0
100
AcDbLayout
  1
Model
 70
     0
 71
     0
 10
0.0
 20
0.0
 11
0.0
 21
0.0
 12
0.0
 22
0.0
 32
0.0
 14
0.0
 24
0.0
 34
0.0
 15
0.0
 25
0.0
 35
0.0
146
0.0
 13
0.0
 23
0.0
 33
0.0
 16
0.0
 26
0.0
 36
0.0
 17
0.0
 27
0.0
 37
0.0
 76
     0
330
A
331
15
  0
MATERIAL
  5
3155
102
{ACAD_XDICTIONARY
360
3156
102
}
102
{ACAD_REACTORS
330
314C
102
}
330
314C
100
AcDbMaterial
  1
ByBlock
 72
     0
 43
0.0208333333333333
 43
0.0
 43
0.0
 43
0.0
 43
0.0
 43
0.0208333333333333
 43
0.0
 43
0.0
 43
0.0
 43
0.0
 43
1.0
 43
0.0
 43
0.0
 43
0.0
 43
0.0
 43
1.0
 77
     0
 47
0.0208333333333333
 47
0.0
 47
0.0
 47
0.0
 47
0.0
 47
0.0208333333333333
 47
0.0
 47
0.0
 47
0.0
 47
0.0
 47
1.0
 47
0.0
 47
0.0
 47
0.0
 47
0.0
 47
1.0
171
     0
 49
0.0208333333333333
 49
0.0
 49
0.0
 49
0.0
 49
0.0
 49
0.0208333333333333
 49
0.0
 49
0.0
 49
0.0
 49
0.0
 49
1.0
 49
0.0
 49
0.0
 49
0.0
 49
0.0
 49
1.0
175
     0
142
0.0208333333333333
142
0.0
142
0.0
142
0.0
142
0.0
142
0.0208333333333333
142
0.0
142
0.0
142
0.0
142
0.0
142
1.0
142
0.0
142
0.0
142
0.0
142
0.0
142
1.0
179
     0
144
0.0208333333333333
144
0.0
144
0.0
144
0.0
144
0.0
144
0.0208333333333333
144
0.0
144
0.0
144
0.0
144
0.0
144
1.0
144
0.0
144
0.0
144
0.0
144
0.0
144
1.0
147
0.0208333333333333
147
0.0
147
0.0
147
0.0
147
0.0
147
0.0208333333333333
147
0.0
147
0.0
147
0.0
147
0.0
147
1.0
147
0.0
147
0.0
147
0.0
147
0.0
147
1.0
  0
MATERIAL
  5
314D
102
{ACAD_XDICTIONARY
360
314E
102
}
102
{ACAD_REACTORS
330
314C
102
}
330
314C
100
AcDbMaterial
  1
ByLayer
 72
     0
 43
0.0208333333333333
 43
0.0
 43
0.0
 43
0.0
 43
0.0
 43
0.0208333333333333
 43
0.0
 43
0.0
 43
0.0
 43
0.0
 43
1.0
 43
0.0
 43
0.0
 43
0.0
 43
0.0
 43
1.0
 77
     0
 47
0.0208333333333333
 47
0.0
 47
0.0
 47
0.0
 47
0.0
 47
0.0208333333333333
 47
0.0
 47
0.0
 47
0.0
 47
0.0
 47
1.0
 47
0.0
 47
0.0
 47
0.0
 47
0.0
 47
1.0
171
     0
 49
0.0208333333333333
 49
0.0
 49
0.0
 49
0.0
 49
0.0
 49
0.0208333333333333
 49
0.0
 49
0.0
 49
0.0
 49
0.0
 49
1.0
 49
0.0
 49
0.0
 49
0.0
 49
0.0
 49
1.0
175
     0
142
0.0208333333333333
142
0.0
142
0.0
142
0.0
142
0.0
142
0.0208333333333333
142
0.0
142
0.0
142
0.0
142
0.0
142
1.0
142
0.0
142
0.0
142
0.0
142
0.0
142
1.0
179
     0
144
0.0208333333333333
144
0.0
144
0.0
144
0.0
144
0.0
144
0.0208333333333333
144
0.0
144
0.0
144
0.0
144
0.0
144
1.0
144
0.0
144
0.0
144
0.0
144
0.0
144
1.0
147
0.0208333333333333
147
0.0
147
0.0
147
0.0
147
0.0
147
0.0208333333333333
147
0.0
147
0.0
147
0.0
147
0.0
147
1.0
147
0.0
147
0.0
147
0.0
147
0.0
147
1.0
  0
MATERIAL
  5
315D
102
{ACAD_XDICTIONARY
360
315E
102
}
102
{ACAD_REACTORS
330
314C
102
}
330
314C
100
AcDbMaterial
  1
Global
 72
     0
 43
0.0208333333333333
 43
0.0
 43
0.0
 43
0.0
 43
0.0
 43
0.0208333333333333
 43
0.0
 43
0.0
 43
0.0
 43
0.0
 43
1.0
 43
0.0
 43
0.0
 43
0.0
 43
0.0
 43
1.0
 77
     0
 47
0.0208333333333333
 47
0.0
 47
0.0
 47
0.0
 47
0.0
 47
0.0208333333333333
 47
0.0
 47
0.0
 47
0.0
 47
0.0
 47
1.0
 47
0.0
 47
0.0
 47
0.0
 47
0.0
 47
1.0
171
     0
 49
0.0208333333333333
 49
0.0
 49
0.0
 49
0.0
 49
0.0
 49
0.0208333333333333
 49
0.0
 49
0.0
 49
0.0
 49
0.0
 49
1.0
 49
0.0
 49
0.0
 49
0.0
 49
0.0
 49
1.0
175
     0
142
0.0208333333333333
142
0.0
142
0.0
142
0.0
142
0.0
142
0.0208333333333333
142
0.0
142
0.0
142
0.0
142
0.0
142
1.0
142
0.0
142
0.0
142
0.0
142
0.0
142
1.0
179
     0
144
0.0208333333333333
144
0.0
144
0.0
144
0.0
144
0.0
144
0.0208333333333333
144
0.0
144
0.0
144
0.0
144
0.0
144
1.0
144
0.0
144
0.0
144
0.0
144
0.0
144
1.0
147
0.0208333333333333
147
0.0
147
0.0
147
0.0
147
0.0
147
0.0208333333333333
147
0.0
147
0.0
147
0.0
147
0.0
147
1.0
147
0.0
147
0.0
147
0.0
147
0.0
147
1.0
  0
MLEADERSTYLE
  5
319C
102
{ACAD_REACTORS
330
319B
102
}
330
319B
100
AcDbMLeaderStyle
170
     2
171
     1
172
     0
 90
        2
 40
0.0
 41
0.0
173
     1
 91
-1056964608
340
11
 92
       -2
290
     1
 42
2.0
291
     1
 43
0.36
  3
Standard
 44
4.0
300

342
17
174
     1
178
     6
175
     1
176
     0
 93
-1056964608
 45
4.0
292
     0
297
     0
 46
4.0
 94
-1056964608
 47
1.0
 49
1.0
140
1.0
293
     1
141
0.0
294
     1
177
     0
142
1.0
295
     0
296
     0
143
0.125
1001
ACAD_MLEADERVER
1070
     2
  0
MLINESTYLE
  5
1C
102
{ACAD_REACTORS
330
1B
102
}
330
1B
100
AcDbMlineStyle
  2
STANDARD
 70
     0
  3

 62
     0
 51
90.0
 52
90.0
 71
     2
 49
0.5
 62
   256
  6
BYLAYER
 49
-0.5
 62
   256
  6
BYLAYER
  0
ACDBPLACEHOLDER
  5
1D
102
{ACAD_REACTORS
330
1F
102
}
330
1F
  0
SCALE
  5
317A
102
{ACAD_REACTORS
330
3179
102
}
330
3179
100
AcDbScale
 70
     0
300
1:1
140
1.0
141
1.0
290
     1
  0
SCALE
  5
317B
102
{ACAD_REACTORS
330
3179
102
}
330
3179
100
AcDbScale
 70
     0
300
1:2
140
1.0
141
2.0
290
     0
  0
SCALE
  5
317C
102
{ACAD_REACTORS
330
3179
102
}
330
3179
100
AcDbScale
 70
     0
300
1:4
140
1.0
141
4.0
290
     0
  0
SCALE
  5
317D
102
{ACAD_REACTORS
330
3179
102
}
330
3179
100
AcDbScale
 70
     0
300
1:5
140
1.0
141
5.0
290
     0
  0
SCALE
  5
317E
102
{ACAD_REACTORS
330
3179
102
}
330
3179
100
AcDbScale
 70
     0
300
1:8
140
1.0
141
8.0
290
     0
  0
SCALE
  5
317F
102
{ACAD_REACTORS
330
3179
102
}
330
3179
100
AcDbScale
 70
     0
300
1:10
140
1.0
141
10.0
290
     0
  0
SCALE
  5
3180
102
{ACAD_REACTORS
330
3179
102
}
330
3179
100
AcDbScale
 70
     0
300
1:16
140
1.0
141
16.0
290
     0
  0
SCALE
  5
3181
102
{ACAD_REACTORS
330
3179
102
}
330
3179
100
AcDbScale
 70
     0
300
1:20
140
1.0
141
20.0
290
     0
  0
SCALE
  5
3182
102
{ACAD_REACTORS
330
3179
102
}
330
3179
100
AcDbScale
 70
     0
300
1:30
140
1.0
141
30.0
290
     0
  0
SCALE
  5
3183
102
{ACAD_REACTORS
330
3179
102
}
330
3179
100
AcDbScale
 70
     0
300
1:40
140
1.0
141
40.0
290
     0
  0
SCALE
  5
3184
102
{ACAD_REACTORS
330
3179
102
}
330
3179
100
AcDbScale
 70
     0
300
1:50
140
1.0
141
50.0
290
     0
  0
SCALE
  5
3185
102
{ACAD_REACTORS
330
3179
102
}
330
3179
100
AcDbScale
 70
     0
300
1:100
140
1.0
141
100.0
290
     0
  0
SCALE
  5
3186
102
{ACAD_REACTORS
330
3179
102
}
330
3179
100
AcDbScale
 70
     0
300
2:1
140
2.0
141
1.0
290
     0
  0
SCALE
  5
3187
102
{ACAD_REACTORS
330
3179
102
}
330
3179
100
AcDbScale
 70
     0
300
4:1
140
4.0
141
1.0
290
     0
  0
SCALE
  5
3188
102
{ACAD_REACTORS
330
3179
102
}
330
3179
100
AcDbScale
 70
     0
300
8:1
140
8.0
141
1.0
290
     0
  0
SCALE
  5
3189
102
{ACAD_REACTORS
330
3179
102
}
330
3179
100
AcDbScale
 70
     0
300
10:1
140
10.0
141
1.0
290
     0
  0
SCALE
  5
318A
102
{ACAD_REACTORS
330
3179
102
}
330
3179
100
AcDbScale
 70
     0
300
100:1
140
100.0
141
1.0
290
     0
  0
SCALE
  5
318B
102
{ACAD_REACTORS
330
3179
102
}
330
3179
100
AcDbScale
 70
     0
300
1/128" = 1'-0"
140
0.0078125
141
12.0
290
     0
  0
SCALE
  5
318C
102
{ACAD_REACTORS
330
3179
102
}
330
3179
100
AcDbScale
 70
     0
300
1/64" = 1'-0"
140
0.015625
141
12.0
290
     0
  0
SCALE
  5
318D
102
{ACAD_REACTORS
330
3179
102
}
330
3179
100
AcDbScale
 70
     0
300
1/32" = 1'-0"
140
0.03125
141
12.0
290
     0
  0
SCALE
  5
318E
102
{ACAD_REACTORS
330
3179
102
}
330
3179
100
AcDbScale
 70
     0
300
1/16" = 1'-0"
140
0.0625
141
12.0
290
     0
  0
SCALE
  5
318F
102
{ACAD_REACTORS
330
3179
102
}
330
3179
100
AcDbScale
 70
     0
300
3/32" = 1'-0"
140
0.09375
141
12.0
290
     0
  0
SCALE
  5
3190
102
{ACAD_REACTORS
330
3179
102
}
330
3179
100
AcDbScale
 70
     0
300
1/8" = 1'-0"
140
0.125
141
12.0
290
     0
  0
SCALE
  5
3191
102
{ACAD_REACTORS
330
3179
102
}
330
3179
100
AcDbScale
 70
     0
300
3/16" = 1'-0"
140
0.1875
141
12.0
290
     0
  0
SCALE
  5
3192
102
{ACAD_REACTORS
330
3179
102
}
330
3179
100
AcDbScale
 70
     0
300
1/4" = 1'-0"
140
0.25
141
12.0
290
     0
  0
SCALE
  5
3193
102
{ACAD_REACTORS
330
3179
102
}
330
3179
100
AcDbScale
 70
     0
300
3/8" = 1'-0"
140
0.375
141
12.0
290
     0
  0
SCALE
  5
3194
102
{ACAD_REACTORS
330
3179
102
}
330
3179
100
AcDbScale
 70
     0
300
1/2" = 1'-0"
140
0.5
141
12.0
290
     0
  0
SCALE
  5
3195
102
{ACAD_REACTORS
330
3179
102
}
330
3179
100
AcDbScale
 70
     0
300
3/4" = 1'-0"
140
0.75
141
12.0
290
     0
  0
SCALE
  5
3196
102
{ACAD_REACTORS
330
3179
102
}
330
3179
100
AcDbScale
 70
     0
300
1" = 1'-0"
140
1.0
141
12.0
290
     0
  0
SCALE
  5
3197
102
{ACAD_REACTORS
330
3179
102
}
330
3179
100
AcDbScale
 70
     0
300
1-1/2" = 1'-0"
140
1.5
141
12.0
290
     0
  0
SCALE
  5
3198
102
{ACAD_REACTORS
330
3179
102
}
330
3179
100
AcDbScale
 70
     0
300
3" = 1'-0"
140
3.0
141
12.0
290
     0
  0
SCALE
  5
3199
102
{ACAD_REACTORS
330
3179
102
}
330
3179
100
AcDbScale
 70
     0
300
6" = 1'-0"
140
6.0
141
12.0
290
     0
  0
SCALE
  5
319A
102
{ACAD_REACTORS
330
3179
102
}
330
3179
100
AcDbScale
 70
     0
300
1'-0" = 1'-0"
140
12.0
141
12.0
290
     0
  0
TABLESTYLE
  5
3178
102
{ACAD_XDICTIONARY
360
6308
102
}
102
{ACAD_REACTORS
330
3177
102
}
330
3177
100
AcDbTableStyle
  3
Standard
 70
     0
 71
     0
 40
1.5
 41
1.5
280
     0
281
     0
  7
Standard
140
4.5
170
     2
 62
     0
 63
     7
283
     0
274
    -2
284
     1
 64
     0
275
    -2
285
     1
 65
     0
276
    -2
286
     1
 66
     0
277
    -2
287
     1
 67
     0
278
    -2
288
     1
 68
     0
279
    -2
289
     1
 69
     0
  7
Standard
140
6.0
170
     5
 62
     0
 63
     7
283
     0
274
    -2
284
     1
 64
     0
275
    -2
285
     1
 65
     0
276
    -2
286
     1
 66
     0
277
    -2
287
     1
 67
     0
278
    -2
288
     1
 68
     0
279
    -2
289
     1
 69
     0
  7
Standard
140
4.5
170
     5
 62
     0
 63
     7
283
     0
274
    -2
284
     1
 64
     0
275
    -2
285
     1
 65
     0
276
    -2
286
     1
 66
     0
277
    -2
287
     1
 67
     0
278
    -2
288
     1
 68
     0
279
    -2
289
     1
 69
     0
  0
VISUALSTYLE
  5
316B
102
{ACAD_REACTORS
330
3165
102
}
330
3165
100
AcDbVisualStyle
  2
2dWireframe
 70
     4
 71
     0
 72
     2
 73
     0
 90
        0
 40
-0.6
 41
-30.0
 62
     5
 63
     7
 74
     1
 91
        4
 64
     7
 65
   257
 75
     1
175
     1
 42
1.0
 92
        0
 66
   257
 43
1.0
 76
     1
 77
     6
 78
     2
 67
     7
 79
     5
170
     0
171
     0
290
     0
174
     0
 93
        1
 44
0.0
173
     0
291
     0
 45
0.0
1001
ACAD
1000
AcDbSavedByObjectVersion
1070
     0
1000
AcDbSavedByObjectVersion
1070
     0
  0
VISUALSTYLE
  5
316D
102
{ACAD_REACTORS
330
3165
102
}
330
3165
100
AcDbVisualStyle
  2
3D Hidden
 70
     6
 71
     1
 72
     2
 73
     2
 90
        0
 40
-0.6
 41
-30.0
 62
     5
 63
     7
 74
     2
 91
        2
 64
     7
 65
   257
 75
     2
175
     1
 42
40.0
 92
        0
 66
   257
 43
1.0
 76
     1
 77
     6
 78
     2
 67
     7
 79
     3
170
     0
171
     0
290
     0
174
     0
 93
        1
 44
0.0
173
     0
291
     0
 45
0.0
1001
ACAD
1000
AcDbSavedByObjectVersion
1070
     0
1000
AcDbSavedByObjectVersion
1070
     0
  0
VISUALSTYLE
  5
316C
102
{ACAD_REACTORS
330
3165
102
}
330
3165
100
AcDbVisualStyle
  2
3dWireframe
 70
     5
 71
     0
 72
     2
 73
     0
 90
        0
 40
-0.6
 41
-30.0
 62
     5
 63
     7
 74
     1
 91
        4
 64
     7
 65
   257
 75
     1
175
     1
 42
1.0
 92
        0
 66
   257
 43
1.0
 76
     1
 77
     6
 78
     2
 67
     7
 79
     5
170
     0
171
     0
290
     0
174
     0
 93
        1
 44
0.0
173
     0
291
     0
 45
0.0
1001
ACAD
1000
AcDbSavedByObjectVersion
1070
     0
1000
AcDbSavedByObjectVersion
1070
     0
  0
VISUALSTYLE
  5
316A
102
{ACAD_REACTORS
330
3165
102
}
330
3165
100
AcDbVisualStyle
  2
Basic
 70
     7
 71
     1
 72
     0
 73
     1
 90
        0
 40
-0.6
 41
-30.0
 62
     5
 63
     7
 74
     0
 91
        4
 64
     7
 65
   257
 75
     1
175
     1
 42
1.0
 92
        8
 66
     7
 43
1.0
 76
     1
 77
     6
 78
     2
 67
     7
 79
     5
170
     0
171
     0
290
     0
174
     0
 93
        1
 44
0.0
173
     0
291
     1
 45
0.0
1001
ACAD
1000
AcDbSavedByObjectVersion
1070
     0
1000
AcDbSavedByObjectVersion
1070
     0
  0
VISUALSTYLE
  5
3171
102
{ACAD_REACTORS
330
3165
102
}
330
3165
100
AcDbVisualStyle
  2
Brighten
 70
    12
 71
     2
 72
     2
 73
     0
 90
        0
 40
-0.6
 41
-30.0
 62
     5
 63
     7
 74
     1
 91
        4
 64
     7
 65
   257
 75
     1
175
     1
 42
1.0
 92
        8
 66
     7
 43
1.0
 76
     1
 77
     6
 78
     2
 67
     7
 79
     5
170
     0
171
     0
290
     0
174
     0
 93
        1
 44
50.0
173
     0
291
     1
 45
0.0
1001
ACAD
1000
AcDbSavedByObjectVersion
1070
     0
1000
AcDbSavedByObjectVersion
1070
     0
  0
VISUALSTYLE
  5
3175
102
{ACAD_REACTORS
330
3165
102
}
330
3165
100
AcDbVisualStyle
  2
ColorChange
 70
    16
 71
     2
 72
     2
 73
     3
 90
        0
 40
-0.6
 41
-30.0
 62
     5
 63
     8
 74
     1
 91
        4
 64
     7
 65
   257
 75
     1
175
     1
 42
1.0
 92
        8
 66
     8
 43
1.0
 76
     1
 77
     6
 78
     2
 67
     7
 79
     5
170
     0
171
     0
290
     0
174
     0
 93
        1
 44
0.0
173
     0
291
     1
 45
0.0
1001
ACAD
1000
AcDbSavedByObjectVersion
1070
     0
1000
AcDbSavedByObjectVersion
1070
     0
  0
VISUALSTYLE
  5
316E
102
{ACAD_REACTORS
330
3165
102
}
330
3165
100
AcDbVisualStyle
  2
Conceptual
 70
     9
 71
     3
 72
     2
 73
     0
 90
        0
 40
-0.6
 41
-30.0
 62
     5
 63
     7
 74
     2
 91
        2
 64
     7
 65
   257
 75
     1
175
     1
 42
40.0
 92
        8
 66
     7
 43
1.0
 76
     1
 77
     6
 78
     2
 67
     7
 79
     3
170
     0
171
     0
290
     0
174
     0
 93
        1
 44
0.0
173
     0
291
     0
 45
0.0
1001
ACAD
1000
AcDbSavedByObjectVersion
1070
     0
1000
AcDbSavedByObjectVersion
1070
     0
  0
VISUALSTYLE
  5
3170
102
{ACAD_REACTORS
330
3165
102
}
330
3165
100
AcDbVisualStyle
  2
Dim
 70
    11
 71
     2
 72
     2
 73
     0
 90
        0
 40
-0.6
 41
-30.0
 62
     5
 63
     7
 74
     1
 91
        4
 64
     7
 65
   257
 75
     1
175
     1
 42
1.0
 92
        8
 66
     7
 43
1.0
 76
     1
 77
     6
 78
     2
 67
     7
 79
     5
170
     0
171
     0
290
     0
174
     0
 93
        1
 44
-50.0
173
     0
291
     1
 45
0.0
1001
ACAD
1000
AcDbSavedByObjectVersion
1070
     0
1000
AcDbSavedByObjectVersion
1070
     0
  0
VISUALSTYLE
  5
3174
102
{ACAD_REACTORS
330
3165
102
}
330
3165
100
AcDbVisualStyle
  2
Facepattern
 70
    15
 71
     2
 72
     2
 73
     0
 90
        0
 40
-0.6
 41
-30.0
 62
     5
 63
     7
 74
     1
 91
        4
 64
     7
 65
   257
 75
     1
175
     1
 42
1.0
 92
        8
 66
     7
 43
1.0
 76
     1
 77
     6
 78
     2
 67
     7
 79
     5
170
     0
171
     0
290
     0
174
     0
 93
        1
 44
0.0
173
     0
291
     1
 45
0.0
1001
ACAD
1000
AcDbSavedByObjectVersion
1070
     0
1000
AcDbSavedByObjectVersion
1070
     0
  0
VISUALSTYLE
  5
3166
102
{ACAD_REACTORS
330
3165
102
}
330
3165
100
AcDbVisualStyle
  2
Flat
 70
     0
 71
     2
 72
     1
 73
     1
 90
        2
 40
-0.6
 41
30.0
 62
     5
 63
     7
 74
     0
 91
        4
 64
     7
 65
   257
 75
     1
175
     1
 42
1.0
 92
        8
 66
     7
 43
1.0
 76
     1
 77
     6
 78
     2
 67
     7
 79
     5
170
     0
171
     0
290
     0
174
     0
 93
       13
 44
0.0
173
     0
291
     1
 45
0.0
1001
ACAD
1000
AcDbSavedByObjectVersion
1070
     0
1000
AcDbSavedByObjectVersion
1070
     0
  0
VISUALSTYLE
  5
3167
102
{ACAD_REACTORS
330
3165
102
}
330
3165
100
AcDbVisualStyle
  2
FlatWithEdges
 70
     1
 71
     2
 72
     1
 73
     1
 90
        2
 40
-0.6
 41
30.0
 62
     5
 63
     7
 74
     1
 91
        4
 64
     7
 65
   257
 75
     1
175
     1
 42
1.0
 92
        0
 66
   257
 43
1.0
 76
     1
 77
     6
 78
     2
 67
     7
 79
     5
170
     0
171
     0
290
     0
174
     0
 93
       13
 44
0.0
173
     0
291
     1
 45
0.0
1001
ACAD
1000
AcDbSavedByObjectVersion
1070
     0
1000
AcDbSavedByObjectVersion
1070
     0
  0
VISUALSTYLE
  5
3168
102
{ACAD_REACTORS
330
3165
102
}
330
3165
100
AcDbVisualStyle
  2
Gouraud
 70
     2
 71
     2
 72
     2
 73
     1
 90
        2
 40
-0.6
 41
30.0
 62
     5
 63
     7
 74
     0
 91
        4
 64
     7
 65
   257
 75
     1
175
     1
 42
1.0
 92
        0
 66
     7
 43
1.0
 76
     1
 77
     6
 78
     2
 67
     7
 79
     5
170
     0
171
     0
290
     0
174
     0
 93
       13
 44
0.0
173
     0
291
     1
 45
0.0
1001
ACAD
1000
AcDbSavedByObjectVersion
1070
     0
1000
AcDbSavedByObjectVersion
1070
     0
  0
VISUALSTYLE
  5
3169
102
{ACAD_REACTORS
330
3165
102
}
330
3165
100
AcDbVisualStyle
  2
GouraudWithEdges
 70
     3
 71
     2
 72
     2
 73
     1
 90
        2
 40
-0.6
 41
30.0
 62
     5
 63
     7
 74
     1
 91
        4
 64
     7
 65
   257
 75
     1
175
     1
 42
1.0
 92
        0
 66
   257
 43
1.0
 76
     1
 77
     6
 78
     2
 67
     7
 79
     5
170
     0
171
     0
290
     0
174
     0
 93
       13
 44
0.0
173
     0
291
     1
 45
0.0
1001
ACAD
1000
AcDbSavedByObjectVersion
1070
     0
1000
AcDbSavedByObjectVersion
1070
     0
  0
VISUALSTYLE
  5
3173
102
{ACAD_REACTORS
330
3165
102
}
330
3165
100
AcDbVisualStyle
  2
Linepattern
 70
    14
 71
     2
 72
     2
 73
     0
 90
        0
 40
-0.6
 41
-30.0
 62
     5
 63
     7
 74
     1
 91
        4
 64
     7
 65
   257
 75
     7
175
     7
 42
1.0
 92
        8
 66
     7
 43
1.0
 76
     1
 77
     6
 78
     2
 67
     7
 79
     5
170
     0
171
     0
290
     0
174
     0
 93
        1
 44
0.0
173
     0
291
     1
 45
0.0
1001
ACAD
1000
AcDbSavedByObjectVersion
1070
     0
1000
AcDbSavedByObjectVersion
1070
     0
  0
VISUALSTYLE
  5
316F
102
{ACAD_REACTORS
330
3165
102
}
330
3165
100
AcDbVisualStyle
  2
Realistic
 70
     8
 71
     2
 72
     2
 73
     0
 90
        0
 40
-0.6
 41
-30.0
 62
     5
 63
     7
 74
     1
 91
        0
 64
     7
 65
   257
 75
     1
175
     1
 42
1.0
 92
        8
 66
     8
 43
1.0
 76
     1
 77
     6
 78
     2
 67
     7
 79
     5
170
     0
171
     0
290
     0
174
     0
 93
       13
 44
0.0
173
     0
291
     0
 45
0.0
1001
ACAD
1000
AcDbSavedByObjectVersion
1070
     0
1000
AcDbSavedByObjectVersion
1070
     0
  0
VISUALSTYLE
  5
3172
102
{ACAD_REACTORS
330
3165
102
}
330
3165
100
AcDbVisualStyle
  2
Thicken
 70
    13
 71
     2
 72
     2
 73
     0
 90
        0
 40
-0.6
 41
-30.0
 62
     5
 63
     7
 74
     1
 91
        4
 64
     7
 65
   257
 75
     1
175
     1
 42
1.0
 92
       12
 66
     7
 43
1.0
 76
     1
 77
     6
 78
     2
 67
     7
 79
     5
170
     0
171
     0
290
     0
174
     0
 93
        1
 44
0.0
173
     0
291
     1
 45
0.0
1001
ACAD
1000
AcDbSavedByObjectVersion
1070
     0
1000
AcDbSavedByObjectVersion
1070
     0
  0
DICTIONARYVAR
  5
630F
102
{ACAD_REACTORS
330
630B
102
}
330
630B
100
DictionaryVariables
280
     0
  1
1:1
  0
DICTIONARYVAR
  5
630D
102
{ACAD_REACTORS
330
630B
102
}
330
630B
100
DictionaryVariables
280
     0
  1
STANDARD
  0
DICTIONARYVAR
  5
630C
102
{ACAD_REACTORS
330
630B
102
}
330
630B
100
DictionaryVariables
280
     0
  1
STANDARD
  0
DICTIONARYVAR
  5
6318
102
{ACAD_REACTORS
330
630B
102
}
330
630B
100
DictionaryVariables
280
     0
  1
1
  0
DICTIONARYVAR
  5
6317
102
{ACAD_REACTORS
330
630B
102
}
330
630B
100
DictionaryVariables
280
     0
  1
0
  0
DICTIONARYVAR
  5
6310
102
{ACAD_REACTORS
330
630B
102
}
330
630B
100
DictionaryVariables
280
     0
  1
0
  0
DICTIONARYVAR
  5
630E
102
{ACAD_REACTORS
330
630B
102
}
330
630B
100
DictionaryVariables
280
     0
  1
0
  0
DICTIONARYVAR
  5
6316
102
{ACAD_REACTORS
330
630B
102
}
330
630B
100
DictionaryVariables
280
     0
  1
127
  0
XRECORD
  5
5E46
102
{ACAD_REACTORS
330
5E44
102
}
330
5E44
100
AcDbXrecord
280
     1
  0
DICTIONARY
  5
63B1
330
21
100
AcDbDictionary
280
     1
281
     1
  3
ACAD_XREC_ROUNDTRIP
360
63B2
  0
DICTIONARY
  5
63AF
330
20
100
AcDbDictionary
280
     1
281
     1
  3
ACAD_XREC_ROUNDTRIP
360
63B0
  0
DICTIONARY
  5
3156
330
3155
100
AcDbDictionary
280
     1
281
     1
  3
ACAD_XREC_ROUNDTRIP
360
6320
  3
BUMPTILE
360
3158
  3
DIFFUSETILE
360
3157
  3
OPACITYTILE
360
315B
  3
REFLECTIONTILE
360
315A
  3
REFRACTIONTILE
360
315C
  3
SPECULARTILE
360
3159
  0
DICTIONARY
  5
314E
330
314D
100
AcDbDictionary
280
     1
281
     1
  3
ACAD_XREC_ROUNDTRIP
360
631F
  3
BUMPTILE
360
3150
  3
DIFFUSETILE
360
314F
  3
OPACITYTILE
360
3153
  3
REFLECTIONTILE
360
3152
  3
REFRACTIONTILE
360
3154
  3
SPECULARTILE
360
3151
  0
DICTIONARY
  5
315E
330
315D
100
AcDbDictionary
280
     1
281
     1
  3
ACAD_XREC_ROUNDTRIP
360
6321
  3
BUMPTILE
360
3160
  3
DIFFUSETILE
360
315F
  3
OPACITYTILE
360
3163
  3
REFLECTIONTILE
360
3162
  3
REFRACTIONTILE
360
3164
  3
SPECULARTILE
360
3161
  0
DICTIONARY
  5
6308
330
3178
100
AcDbDictionary
280
     1
281
     1
  3
ACAD_ROUNDTRIP_2008_TABLESTYLE_CELLSTYLEMAP
360
63AD
  3
ACAD_XREC_ROUNDTRIP
360
63B3
  0
XRECORD
  5
63B2
102
{ACAD_REACTORS
330
63B1
102
}
330
63B1
100
AcDbXrecord
280
     1
102
SHADEPLOT
 70
     0
102
SHADEPLOTRESLEVEL
 70
     2
102
SHADEPLOTCUSTOMDPI
 70
   300
  0
XRECORD
  5
63B0
102
{ACAD_REACTORS
330
63AF
102
}
330
63AF
100
AcDbXrecord
280
     1
102
SHADEPLOT
 70
     0
102
SHADEPLOTRESLEVEL
 70
     2
102
SHADEPLOTCUSTOMDPI
 70
   300
  0
XRECORD
  5
6320
102
{ACAD_REACTORS
330
3156
102
}
330
3156
100
AcDbXrecord
280
     1
102
MATERIAL
148
0.0
149
0.0
149
0.0
 93
        0
 94
      127
282
     0
 72
     0
 77
     0
171
     0
175
     0
179
     0
273
     0
  0
XRECORD
  5
3158
102
{ACAD_REACTORS
330
3156
102
}
330
3156
100
AcDbXrecord
280
     1
270
     1
271
     1
  0
XRECORD
  5
3157
102
{ACAD_REACTORS
330
3156
102
}
330
3156
100
AcDbXrecord
280
     1
270
     1
271
     1
  0
XRECORD
  5
315B
102
{ACAD_REACTORS
330
3156
102
}
330
3156
100
AcDbXrecord
280
     1
270
     1
271
     1
  0
XRECORD
  5
315A
102
{ACAD_REACTORS
330
3156
102
}
330
3156
100
AcDbXrecord
280
     1
270
     1
271
     1
  0
XRECORD
  5
315C
102
{ACAD_REACTORS
330
3156
102
}
330
3156
100
AcDbXrecord
280
     1
270
     1
271
     1
  0
XRECORD
  5
3159
102
{ACAD_REACTORS
330
3156
102
}
330
3156
100
AcDbXrecord
280
     1
270
     1
271
     1
  0
XRECORD
  5
631F
102
{ACAD_REACTORS
330
314E
102
}
330
314E
100
AcDbXrecord
280
     1
102
MATERIAL
148
0.0
149
0.0
149
0.0
 93
        0
 94
      127
282
     0
 72
     0
 77
     0
171
     0
175
     0
179
     0
273
     0
  0
XRECORD
  5
3150
102
{ACAD_REACTORS
330
314E
102
}
330
314E
100
AcDbXrecord
280
     1
270
     1
271
     1
  0
XRECORD
  5
314F
102
{ACAD_REACTORS
330
314E
102
}
330
314E
100
AcDbXrecord
280
     1
270
     1
271
     1
  0
XRECORD
  5
3153
102
{ACAD_REACTORS
330
314E
102
}
330
314E
100
AcDbXrecord
280
     1
270
     1
271
     1
  0
XRECORD
  5
3152
102
{ACAD_REACTORS
330
314E
102
}
330
314E
100
AcDbXrecord
280
     1
270
     1
271
     1
  0
XRECORD
  5
3154
102
{ACAD_REACTORS
330
314E
102
}
330
314E
100
AcDbXrecord
280
     1
270
     1
271
     1
  0
XRECORD
  5
3151
102
{ACAD_REACTORS
330
314E
102
}
330
314E
100
AcDbXrecord
280
     1
270
     1
271
     1
  0
XRECORD
  5
6321
102
{ACAD_REACTORS
330
315E
102
}
330
315E
100
AcDbXrecord
280
     1
102
MATERIAL
148
0.0
149
0.0
149
0.0
 93
        0
 94
      127
282
     0
 72
     0
 77
     0
171
     0
175
     0
179
     0
273
     0
  0
XRECORD
  5
3160
102
{ACAD_REACTORS
330
315E
102
}
330
315E
100
AcDbXrecord
280
     1
270
     1
271
     1
  0
XRECORD
  5
315F
102
{ACAD_REACTORS
330
315E
102
}
330
315E
100
AcDbXrecord
280
     1
270
     1
271
     1
  0
XRECORD
  5
3163
102
{ACAD_REACTORS
330
315E
102
}
330
315E
100
AcDbXrecord
280
     1
270
     1
271
     1
  0
XRECORD
  5
3162
102
{ACAD_REACTORS
330
315E
102
}
330
315E
100
AcDbXrecord
280
     1
270
     1
271
     1
  0
XRECORD
  5
3164
102
{ACAD_REACTORS
330
315E
102
}
330
315E
100
AcDbXrecord
280
     1
270
     1
271
     1
  0
XRECORD
  5
3161
102
{ACAD_REACTORS
330
315E
102
}
330
315E
100
AcDbXrecord
280
     1
270
     1
271
     1
  0
CELLSTYLEMAP
  5
63AD
102
{ACAD_REACTORS
330
6308
102
}
330
6308
100
AcDbCellStyleMap
 90
        3
300
CELLSTYLE
  1
TABLEFORMAT_BEGIN
 90
        5
170
     1
 91
        0
 92
    32768
 62
   257
 93
        1
300
CONTENTFORMAT
  1
CONTENTFORMAT_BEGIN
 90
        0
 91
        0
 92
      512
 93
        0
300

 40
0.0
140
1.0
 94
        5
 62
     0
340
17
144
6.0
309
CONTENTFORMAT_END
171
     1
301
MARGIN
  1
CELLMARGIN_BEGIN
 40
1.5
 40
1.5
 40
1.5
 40
1.5
 40
0.18
 40
0.18
309
CELLMARGIN_END
 94
        6
 95
        1
302
GRIDFORMAT
  1
GRIDFORMAT_BEGIN
 90
        0
 91
        1
 62
     0
 92
       -2
340
0
 93
        0
 40
1.125
309
GRIDFORMAT_END
 95
        2
302
GRIDFORMAT
  1
GRIDFORMAT_BEGIN
 90
        0
 91
        1
 62
     0
 92
       -2
340
0
 93
        0
 40
1.125
309
GRIDFORMAT_END
 95
        4
302
GRIDFORMAT
  1
GRIDFORMAT_BEGIN
 90
        0
 91
        1
 62
     0
 92
       -2
340
0
 93
        0
 40
1.125
309
GRIDFORMAT_END
 95
        8
302
GRIDFORMAT
  1
GRIDFORMAT_BEGIN
 90
        0
 91
        1
 62
     0
 92
       -2
340
0
 93
        0
 40
1.125
309
GRIDFORMAT_END
 95
       16
302
GRIDFORMAT
  1
GRIDFORMAT_BEGIN
 90
        0
 91
        1
 62
     0
 92
       -2
340
0
 93
        0
 40
1.125
309
GRIDFORMAT_END
 95
       32
302
GRIDFORMAT
  1
GRIDFORMAT_BEGIN
 90
        0
 91
        1
 62
     0
 92
       -2
340
0
 93
        0
 40
1.125
309
GRIDFORMAT_END
309
TABLEFORMAT_END
  1
CELLSTYLE_BEGIN
 90
        1
 91
        1
300
_TITLE
309
CELLSTYLE_END
300
CELLSTYLE
  1
TABLEFORMAT_BEGIN
 90
        5
170
     1
 91
        0
 92
        0
 62
   257
 93
        1
300
CONTENTFORMAT
  1
CONTENTFORMAT_BEGIN
 90
        0
 91
        0
 92
      512
 93
        0
300

 40
0.0
140
1.0
 94
        5
 62
     0
340
17
144
4.5
309
CONTENTFORMAT_END
171
     1
301
MARGIN
  1
CELLMARGIN_BEGIN
 40
1.5
 40
1.5
 40
1.5
 40
1.5
 40
0.18
 40
0.18
309
CELLMARGIN_END
 94
        6
 95
        1
302
GRIDFORMAT
  1
GRIDFORMAT_BEGIN
 90
        0
 91
        1
 62
     0
 92
       -2
340
0
 93
        0
 40
1.125
309
GRIDFORMAT_END
 95
        2
302
GRIDFORMAT
  1
GRIDFORMAT_BEGIN
 90
        0
 91
        1
 62
     0
 92
       -2
340
0
 93
        0
 40
1.125
309
GRIDFORMAT_END
 95
        4
302
GRIDFORMAT
  1
GRIDFORMAT_BEGIN
 90
        0
 91
        1
 62
     0
 92
       -2
340
0
 93
        0
 40
1.125
309
GRIDFORMAT_END
 95
        8
302
GRIDFORMAT
  1
GRIDFORMAT_BEGIN
 90
        0
 91
        1
 62
     0
 92
       -2
340
0
 93
        0
 40
1.125
309
GRIDFORMAT_END
 95
       16
302
GRIDFORMAT
  1
GRIDFORMAT_BEGIN
 90
        0
 91
        1
 62
     0
 92
       -2
340
0
 93
        0
 40
1.125
309
GRIDFORMAT_END
 95
       32
302
GRIDFORMAT
  1
GRIDFORMAT_BEGIN
 90
        0
 91
        1
 62
     0
 92
       -2
340
0
 93
        0
 40
1.125
309
GRIDFORMAT_END
309
TABLEFORMAT_END
  1
CELLSTYLE_BEGIN
 90
        2
 91
        1
300
_HEADER
309
CELLSTYLE_END
300
CELLSTYLE
  1
TABLEFORMAT_BEGIN
 90
        5
170
     1
 91
        0
 92
        0
 62
   257
 93
        1
300
CONTENTFORMAT
  1
CONTENTFORMAT_BEGIN
 90
        0
 91
        0
 92
      512
 93
        0
300

 40
0.0
140
1.0
 94
        2
 62
     0
340
17
144
4.5
309
CONTENTFORMAT_END
171
     1
301
MARGIN
  1
CELLMARGIN_BEGIN
 40
1.5
 40
1.5
 40
1.5
 40
1.5
 40
0.18
 40
0.18
309
CELLMARGIN_END
 94
        6
 95
        1
302
GRIDFORMAT
  1
GRIDFORMAT_BEGIN
 90
        0
 91
        1
 62
     0
 92
       -2
340
0
 93
        0
 40
1.125
309
GRIDFORMAT_END
 95
        2
302
GRIDFORMAT
  1
GRIDFORMAT_BEGIN
 90
        0
 91
        1
 62
     0
 92
       -2
340
0
 93
        0
 40
1.125
309
GRIDFORMAT_END
 95
        4
302
GRIDFORMAT
  1
GRIDFORMAT_BEGIN
 90
        0
 91
        1
 62
     0
 92
       -2
340
0
 93
        0
 40
1.125
309
GRIDFORMAT_END
 95
        8
302
GRIDFORMAT
  1
GRIDFORMAT_BEGIN
 90
        0
 91
        1
 62
     0
 92
       -2
340
0
 93
        0
 40
1.125
309
GRIDFORMAT_END
 95
       16
302
GRIDFORMAT
  1
GRIDFORMAT_BEGIN
 90
        0
 91
        1
 62
     0
 92
       -2
340
0
 93
        0
 40
1.125
309
GRIDFORMAT_END
 95
       32
302
GRIDFORMAT
  1
GRIDFORMAT_BEGIN
 90
        0
 91
        1
 62
     0
 92
       -2
340
0
 93
        0
 40
1.125
309
GRIDFORMAT_END
309
TABLEFORMAT_END
  1
CELLSTYLE_BEGIN
 90
        3
 91
        2
300
_DATA
309
CELLSTYLE_END
  0
XRECORD
  5
63B3
102
{ACAD_REACTORS
330
6308
102
}
330
6308
100
AcDbXrecord
280
     1
102
ACAD_ROUNDTRIP_PRE2007_TABLESTYLE
 90
      512
 91
        0
  1

 92
      512
 93
        0
  2

 94
      512
 95
        0
  3

  0
ENDSEC
  0
EOF
