  0
SECTION
  2
HEADER
  9
$ACADVER
  1
AC1015
  9
$ACADMAINTVER
 70
    20
  9
$DWGCODEPAGE
  3
ANSI_1252
  9
$INSBASE
 10
0.0
 20
0.0
 30
0.0
  9
$EXTMIN
 10
-122.7202365777557
 20
-107.4245375897435
 30
-0.0000000000000043
  9
$EXTMAX
 10
102.586758466482
 20
110.0434927579408
 30
0.0000000000000113
  9
$LIMMIN
 10
-66.34999999999982
 20
-2008.85
  9
$LIMMAX
 10
3734.350000000001
 20
346.85
  9
$ORTHOMODE
 70
     1
  9
$REGENMODE
 70
     1
  9
$FILLMODE
 70
     1
  9
$QTEXTMODE
 70
     0
  9
$MIRRTEXT
 70
     1
  9
$LTSCALE
 40
10.0
  9
$ATTMODE
 70
     1
  9
$TEXTSIZE
 40
0.0
  9
$TRACEWID
 40
0.05
  9
$TEXTSTYLE
  7
Standard
  9
$CLAYER
  8
0
  9
$CELTYPE
  6
Continuous
  9
$CECOLOR
 62
   256
  9
$CELTSCALE
 40
1.0
  9
$DISPSILH
 70
     0
  9
$DIMSCALE
 40
1.0
  9
$DIMASZ
 40
1.25
  9
$DIMEXO
 40
0.0
  9
$DIMDLI
 40
0.38
  9
$DIMRND
 40
0.0
  9
$DIMDLE
 40
0.0
  9
$DIMEXE
 40
0.75
  9
$DIMTP
 40
0.0
  9
$DIMTM
 40
0.0
  9
$DIMTXT
 40
2.5
  9
$DIMCEN
 40
0.09
  9
$DIMTSZ
 40
0.0
  9
$DIMTOL
 70
     0
  9
$DIMLIM
 70
     0
  9
$DIMTIH
 70
     0
  9
$DIMTOH
 70
     0
  9
$DIMSE1
 70
     0
  9
$DIMSE2
 70
     0
  9
$DIMTAD
 70
     1
  9
$DIMZIN
 70
     0
  9
$DIMBLK
  1

  9
$DIMASO
 70
     1
  9
$DIMSHO
 70
     1
  9
$DIMPOST
  1

  9
$DIMAPOST
  1

  9
$DIMALT
 70
     0
  9
$DIMALTD
 70
     2
  9
$DIMALTF
 40
25.4
  9
$DIMLFAC
 40
1.0
  9
$DIMTOFL
 70
     0
  9
$DIMTVP
 40
0.0
  9
$DIMTIX
 70
     0
  9
$DIMSOXD
 70
     0
  9
$DIMSAH
 70
     0
  9
$DIMBLK1
  1

  9
$DIMBLK2
  1

  9
$DIMSTYLE
  2
Standard
  9
$DIMCLRD
 70
     7
  9
$DIMCLRE
 70
     7
  9
$DIMCLRT
 70
     7
  9
$DIMTFAC
 40
0.8
  9
$DIMGAP
 40
1.25
  9
$DIMJUST
 70
     0
  9
$DIMSD1
 70
     0
  9
$DIMSD2
 70
     0
  9
$DIMTOLJ
 70
     1
  9
$DIMTZIN
 70
     0
  9
$DIMALTZ
 70
     0
  9
$DIMALTTZ
 70
     0
  9
$DIMUPT
 70
     0
  9
$DIMDEC
 70
     2
  9
$DIMTDEC
 70
     4
  9
$DIMALTU
 70
     2
  9
$DIMALTTD
 70
     2
  9
$DIMTXSTY
  7
Standard
  9
$DIMAUNIT
 70
     0
  9
$DIMADEC
 70
     0
  9
$DIMALTRND
 40
0.0
  9
$DIMAZIN
 70
     0
  9
$DIMDSEP
 70
     0
  9
$DIMATFIT
 70
     3
  9
$DIMFRAC
 70
     0
  9
$DIMLDRBLK
  1

  9
$DIMLUNIT
 70
     2
  9
$DIMLWD
 70
     0
  9
$DIMLWE
 70
     0
  9
$DIMTMOVE
 70
     0
  9
$LUNITS
 70
     2
  9
$LUPREC
 70
     4
  9
$SKETCHINC
 40
0.1
  9
$FILLETRAD
 40
0.0
  9
$AUNITS
 70
     0
  9
$AUPREC
 70
     0
  9
$MENU
  1
acad
  9
$ELEVATION
 40
0.0
  9
$PELEVATION
 40
0.0
  9
$THICKNESS
 40
0.0
  9
$LIMCHECK
 70
     0
  9
$CHAMFERA
 40
0.0
  9
$CHAMFERB
 40
0.0
  9
$CHAMFERC
 40
0.0
  9
$CHAMFERD
 40
0.0
  9
$SKPOLY
 70
     0
  9
$TDCREATE
 40
2455303.727916667
  9
$TDUCREATE
 40
2455303.644583334
  9
$TDUPDATE
 40
2455306.425157836
  9
$TDUUPDATE
 40
2455306.341824502
  9
$TDINDWG
 40
0.0029660532
  9
$TDUSRTIMER
 40
0.0029658796
  9
$USRTIMER
 70
     1
  9
$ANGBASE
 50
0.0
  9
$ANGDIR
 70
     0
  9
$PDMODE
 70
     0
  9
$PDSIZE
 40
0.0
  9
$PLINEWID
 40
0.0
  9
$SPLFRAME
 70
     0
  9
$SPLINETYPE
 70
     6
  9
$SPLINESEGS
 70
     8
  9
$HANDSEED
  5
63BD
  9
$SURFTAB1
 70
     6
  9
$SURFTAB2
 70
     6
  9
$SURFTYPE
 70
     6
  9
$SURFU
 70
     6
  9
$SURFV
 70
     6
  9
$UCSBASE
  2

  9
$UCSNAME
  2

  9
$UCSORG
 10
0.0
 20
0.0
 30
0.0
  9
$UCSXDIR
 10
1.0
 20
0.0
 30
0.0
  9
$UCSYDIR
 10
0.0
 20
1.0
 30
0.0
  9
$UCSORTHOREF
  2

  9
$UCSORTHOVIEW
 70
     0
  9
$UCSORGTOP
 10
0.0
 20
0.0
 30
0.0
  9
$UCSORGBOTTOM
 10
0.0
 20
0.0
 30
0.0
  9
$UCSORGLEFT
 10
0.0
 20
0.0
 30
0.0
  9
$UCSORGRIGHT
 10
0.0
 20
0.0
 30
0.0
  9
$UCSORGFRONT
 10
0.0
 20
0.0
 30
0.0
  9
$UCSORGBACK
 10
0.0
 20
0.0
 30
0.0
  9
$PUCSBASE
  2

  9
$PUCSNAME
  2

  9
$PUCSORG
 10
0.0
 20
0.0
 30
0.0
  9
$PUCSXDIR
 10
1.0
 20
0.0
 30
0.0
  9
$PUCSYDIR
 10
0.0
 20
1.0
 30
0.0
  9
$PUCSORTHOREF
  2

  9
$PUCSORTHOVIEW
 70
     0
  9
$PUCSORGTOP
 10
0.0
 20
0.0
 30
0.0
  9
$PUCSORGBOTTOM
 10
0.0
 20
0.0
 30
0.0
  9
$PUCSORGLEFT
 10
0.0
 20
0.0
 30
0.0
  9
$PUCSORGRIGHT
 10
0.0
 20
0.0
 30
0.0
  9
$PUCSORGFRONT
 10
0.0
 20
0.0
 30
0.0
  9
$PUCSORGBACK
 10
0.0
 20
0.0
 30
0.0
  9
$USERI1
 70
     0
  9
$USERI2
 70
     0
  9
$USERI3
 70
     0
  9
$USERI4
 70
     0
  9
$USERI5
 70
     0
  9
$USERR1
 40
0.0
  9
$USERR2
 40
0.0
  9
$USERR3
 40
0.0
  9
$USERR4
 40
0.0
  9
$USERR5
 40
0.0
  9
$WORLDVIEW
 70
     1
  9
$SHADEDGE
 70
     3
  9
$SHADEDIF
 70
    70
  9
$TILEMODE
 70
     1
  9
$MAXACTVP
 70
    16
  9
$PINSBASE
 10
0.0
 20
0.0
 30
0.0
  9
$PLIMCHECK
 70
     0
  9
$PEXTMIN
 10
1.000000000000000E+20
 20
1.000000000000000E+20
 30
1.000000000000000E+20
  9
$PEXTMAX
 10
-1.000000000000000E+20
 20
-1.000000000000000E+20
 30
-1.000000000000000E+20
  9
$PLIMMIN
 10
0.0
 20
0.0
  9
$PLIMMAX
 10
12.0
 20
9.0
  9
$UNITMODE
 70
     0
  9
$VISRETAIN
 70
     0
  9
$PLINEGEN
 70
     1
  9
$PSLTSCALE
 70
     0
  9
$TREEDEPTH
 70
  3020
  9
$CMLSTYLE
  2
Standard
  9
$CMLJUST
 70
     0
  9
$CMLSCALE
 40
1.0
  9
$PROXYGRAPHICS
 70
     0
  9
$MEASUREMENT
 70
     1
  9
$CELWEIGHT
370
     0
  9
$ENDCAPS
280
     0
  9
$JOINSTYLE
280
     0
  9
$LWDISPLAY
290
     0
  9
$INSUNITS
 70
     0
  9
$HYPERLINKBASE
  1

  9
$STYLESHEET
  1

  9
$XEDIT
290
     1
  9
$CEPSNTYPE
380
     0
  9
$PSTYLEMODE
290
     1
  9
$FINGERPRINTGUID
  2

  9
$VERSIONGUID
  2
{34A8456E-A804-449B-A50C-C34874C7868C}
  9
$EXTNAMES
290
     1
  9
$PSVPSCALE
 40
0.0
  9
$OLESTARTUP
290
     0
  0
ENDSEC
  0
SECTION
  2
CLASSES
  0
CLASS
  1
IMAGE
  2
AcDbRasterImage
  3
ISM
 90
    34943
280
     0
281
     1
  0
CLASS
  1
DICTIONARYVAR
  2
AcDbDictionaryVar
  3
ObjectDBX Classes
 90
        0
280
     0
281
     0
  0
CLASS
  1
RASTERVARIABLES
  2
AcDbRasterVariables
  3
ISM
 90
    32768
280
     0
281
     0
  0
CLASS
  1
IMAGEDEF
  2
AcDbRasterImageDef
  3
ISM
 90
    32768
280
     0
281
     0
  0
CLASS
  1
IMAGEDEF_REACTOR
  2
AcDbRasterImageDefReactor
  3
ISM
 90
    32769
280
     0
281
     0
  0
CLASS
  1
IDBUFFER
  2
AcDbIdBuffer
  3
ObjectDBX Classes
 90
    32768
280
     0
281
     0
  0
CLASS
  1
SPATIAL_FILTER
  2
AcDbSpatialFilter
  3
ObjectDBX Classes
 90
    32768
280
     0
281
     0
  0
CLASS
  1
SORTENTSTABLE
  2
AcDbSortentsTable
  3
ObjectDBX Classes
 90
        0
280
     0
281
     0
  0
CLASS
  1
LAYER_INDEX
  2
AcDbLayerIndex
  3
ObjectDBX Classes
 90
    32768
280
     0
281
     0
  0
CLASS
  1
SPATIAL_INDEX
  2
AcDbSpatialIndex
  3
ObjectDBX Classes
 90
    32768
280
     0
281
     0
  0
CLASS
  1
OBJECT_PTR
  2
CAseDLPNTableRecord
  3
ASE-LPNTableRecord
 90
    32769
280
     0
281
     0
  0
CLASS
  1
LAYOUT
  2
AcDbLayout
  3
ObjectDBX Classes
 90
        0
280
     0
281
     0
  0
CLASS
  1
PLOTSETTINGS
  2
AcDbPlotSettings
  3
ObjectDBX Classes
 90
    32768
280
     0
281
     0
  0
CLASS
  1
ACDBDICTIONARYWDFLT
  2
AcDbDictionaryWithDefault
  3
ObjectDBX Classes
 90
        0
280
     0
281
     0
  0
CLASS
  1
ACDBPLACEHOLDER
  2
AcDbPlaceHolder
  3
ObjectDBX Classes
 90
        0
280
     0
281
     0
  0
CLASS
  1
VBA_PROJECT
  2
AcDbVbaProject
  3
acad
 90
    32768
280
     0
281
     0
  0
CLASS
  1
WIPEOUT
  2
AcDbWipeout
  3
"WipeOut|Product Desc: Object Enabler for WipeOut entity                        |Company: Autodesk, Inc.                        |WEB Address: www.autodesk.com"
 90
    34943
280
     0
281
     1
  0
CLASS
  1
WIPEOUTVARIABLES
  2
AcDbWipeoutVariables
  3
"WipeOut|Product Desc:     WipeOut Dbx Application|Company:          Autodesk, Inc.|WEB Address:      www.autodesk.com"
 90
        0
280
     0
281
     0
  0
CLASS
  1
RTEXT
  2
RText
  3
RText|AutoCAD Express Tool|expresstools@autodesk.com
 90
    35839
280
     0
281
     1
  0
CLASS
  1
ARCALIGNEDTEXT
  2
AcDbArcAlignedText
  3
ATEXT|AutoCAD Express Tool|expresstools@autodesk.com
 90
    32768
280
     0
281
     1
  0
CLASS
  1
MATERIAL
  2
AcDbMaterial
  3
ObjectDBX Classes
 90
     1153
280
     0
281
     0
  0
CLASS
  1
VISUALSTYLE
  2
AcDbVisualStyle
  3
ObjectDBX Classes
 90
     4095
280
     0
281
     0
  0
CLASS
  1
TABLESTYLE
  2
AcDbTableStyle
  3
ObjectDBX Classes
 90
     4095
280
     0
281
     0
  0
CLASS
  1
SCALE
  2
AcDbScale
  3
ObjectDBX Classes
 90
     1153
280
     0
281
     0
  0
CLASS
  1
MLEADERSTYLE
  2
AcDbMLeaderStyle
  3
ACDB_MLEADERSTYLE_CLASS
 90
     4095
280
     0
281
     0
  0
CLASS
  1
CELLSTYLEMAP
  2
AcDbCellStyleMap
  3
ObjectDBX Classes
 90
     1152
280
     0
281
     0
  0
ENDSEC
  0
SECTION
  2
TABLES
  0
TABLE
  2
VPORT
  5
7
330
0
100
AcDbSymbolTable
 70
     1
  0
VPORT
  5
15
330
7
100
AcDbSymbolTableRecord
100
AcDbViewportTableRecord
  2
*ACTIVE
 70
     0
 10
0.0
 20
0.0
 11
1.0
 21
1.0
 12
-6.743777667696463
 22
5.117233553775918
 13
0.0
 23
0.0
 14
1.0
 24
1.0
 15
0.0
 25
0.0
 16
0.0
 26
0.0
 36
1.0
 17
0.0
 27
0.0
 37
0.0
 40
246.0460152007806
 41
1.611330698287219
 42
50.0
 43
0.0
 44
0.0
 50
0.0
 51
0.0
 71
     0
 72
   100
 73
     1
 74
     1
 75
     0
 76
     0
 77
     0
 78
     0
281
     0
 65
     0
110
0.0
120
0.0
130
0.0
111
1.0
121
0.0
131
0.0
112
0.0
122
1.0
132
0.0
 79
     0
146
0.0
  0
ENDTAB
  0
TABLE
  2
LTYPE
  5
4
330
0
100
AcDbSymbolTable
 70
     4
  0
LTYPE
  5
11
330
4
100
AcDbSymbolTableRecord
100
AcDbLinetypeTableRecord
  2
ByBlock
 70
     0
  3

 72
    65
 73
     0
 40
0.0
  0
LTYPE
  5
12
330
4
100
AcDbSymbolTableRecord
100
AcDbLinetypeTableRecord
  2
ByLayer
 70
     0
  3

 72
    65
 73
     0
 40
0.0
  0
LTYPE
  5
13
330
4
100
AcDbSymbolTableRecord
100
AcDbLinetypeTableRecord
  2
Continuous
 70
     0
  3
Solid line
 72
    65
 73
     0
 40
0.0
  0
LTYPE
  5
1E4
330
4
100
AcDbSymbolTableRecord
100
AcDbLinetypeTableRecord
  2
CENTER
 70
     0
  3
____ _ ____ _ ____ _ ____ _ ____ _ ____ _ ____
 72
    65
 73
     4
 40
2.0
 49
1.25
 74
     0
 49
-0.25
 74
     0
 49
0.25
 74
     0
 49
-0.25
 74
     0
  0
ENDTAB
  0
TABLE
  2
LAYER
  5
2
330
0
100
AcDbSymbolTable
 70
     1
  0
LAYER
  5
14
102
{ACAD_XDICTIONARY
360
5E41
102
}
330
2
100
AcDbSymbolTableRecord
100
AcDbLayerTableRecord
  2
0
 70
     0
 62
     7
  6
Continuous
370
    -3
390
1D
  0
ENDTAB
  0
TABLE
  2
STYLE
  5
3
330
0
100
AcDbSymbolTable
 70
     1
  0
STYLE
  5
17
330
3
100
AcDbSymbolTableRecord
100
AcDbTextStyleTableRecord
  2
Standard
 70
     0
 40
0.0
 41
1.0
 50
0.0
 71
     0
 42
0.0
  3
I011000D.TTF
  4

1001
ACAD
1000
IsonormD
1071
        0
  0
ENDTAB
  0
TABLE
  2
VIEW
  5
5
330
0
100
AcDbSymbolTable
 70
     0
  0
ENDTAB
  0
TABLE
  2
UCS
  5
6
330
0
100
AcDbSymbolTable
 70
     0
  0
ENDTAB
  0
TABLE
  2
APPID
  5
8
330
0
100
AcDbSymbolTable
 70
     5
  0
APPID
  5
16
330
8
100
AcDbSymbolTableRecord
100
AcDbRegAppTableRecord
  2
ACAD
 70
     0
  0
APPID
  5
26
330
8
100
AcDbSymbolTableRecord
100
AcDbRegAppTableRecord
  2
TopSolid'Draft
 70
     0
  0
APPID
  5
319D
330
8
100
AcDbSymbolTableRecord
100
AcDbRegAppTableRecord
  2
ACAD_MLEADERVER
 70
     0
  0
APPID
  5
5E45
330
8
100
AcDbSymbolTableRecord
100
AcDbRegAppTableRecord
  2
DCO15
 70
     0
  0
APPID
  5
638E
330
8
100
AcDbSymbolTableRecord
100
AcDbRegAppTableRecord
  2
ACAD_EXEMPT_FROM_CAD_STANDARDS
 70
     0
  0
ENDTAB
  0
TABLE
  2
DIMSTYLE
  5
9
330
0
100
AcDbSymbolTable
 70
     2
100
AcDbDimStyleTable
 71
     1
340
18
  0
DIMSTYLE
105
18
330
9
100
AcDbSymbolTableRecord
100
AcDbDimStyleTableRecord
  2
Standard
 70
     0
 41
1.25
 42
0.0
 44
0.75
 73
     0
 74
     0
 77
     1
140
2.5
146
0.8
147
1.25
176
     7
177
     7
178
     7
271
     2
340
17
  0
ENDTAB
  0
TABLE
  2
BLOCK_RECORD
  5
1
330
0
100
AcDbSymbolTable
 70
     2
  0
BLOCK_RECORD
  5
A
102
{ACAD_XDICTIONARY
360
31A7
102
}
330
1
100
AcDbSymbolTableRecord
100
AcDbBlockTableRecord
  2
*MODEL_SPACE
340
20
  0
BLOCK_RECORD
  5
B
330
1
100
AcDbSymbolTableRecord
100
AcDbBlockTableRecord
  2
*PAPER_SPACE
340
21
  0
ENDTAB
  0
ENDSEC
  0
SECTION
  2
BLOCKS
  0
BLOCK
  5
D
330
A
100
AcDbEntity
  8
0
100
AcDbBlockBegin
  2
*MODEL_SPACE
 70
     0
 10
0.0
 20
0.0
 30
0.0
  3
*MODEL_SPACE
  1

  0
ENDBLK
  5
E
330
A
100
AcDbEntity
  8
0
100
AcDbBlockEnd
  0
BLOCK
  5
F
330
B
100
AcDbEntity
 67
     1
  8
0
100
AcDbBlockBegin
  2
*PAPER_SPACE
 70
     0
 10
0.0
 20
0.0
 30
0.0
  3
*PAPER_SPACE
  1

  0
ENDBLK
  5
10
330
B
100
AcDbEntity
 67
     1
  8
0
100
AcDbBlockEnd
  0
ENDSEC
  0
SECTION
  2
ENTITIES
  0
LINE
  5
13F6
330
A
100
AcDbEntity
  8
0
  6
CENTER
 62
     1
100
AcDbLine
 10
-32.99999999996464
 20
85.00000014890321
 30
0.0
 11
-16.99999999996464
 21
85.00000014890321
 31
0.0
  0
LINE
  5
13F7
330
A
100
AcDbEntity
  8
0
  6
CENTER
 62
     1
100
AcDbLine
 10
-24.99999999996465
 20
77.00000014890321
 30
0.0
 11
-24.99999999996465
 21
93.00000014890322
 31
0.0
  0
LINE
  5
13F8
330
A
100
AcDbEntity
  8
0
  6
CENTER
 62
     1
100
AcDbLine
 10
0.0000000001060698
 20
106.999999851002
 30
0.0
 11
0.0
 21
92.7370099537023
 31
0.0
  0
LINE
  5
13F9
330
A
100
AcDbEntity
  8
0
  6
CENTER
 62
     1
100
AcDbLine
 10
77.50000014897671
 20
21.99999999999481
 30
0.0
 11
77.50000014897671
 21
-2.000000000005186
 31
0.0
  0
LINE
  5
13FA
330
A
100
AcDbEntity
  8
0
  6
CENTER
 62
     1
100
AcDbLine
 10
47.8500001489765
 20
-0.000000000005187
 30
0.0
 11
57.15000014897668
 21
-0.000000000005187
 31
0.0
  0
LINE
  5
13FB
330
A
100
AcDbEntity
  8
0
  6
CENTER
 62
     1
100
AcDbLine
 10
52.50000014897671
 20
-4.650000000005249
 30
0.0
 11
52.50000014897671
 21
4.649999999994861
 31
0.0
  0
LINE
  5
13FC
330
A
100
AcDbEntity
  8
0
  6
CENTER
 62
     1
100
AcDbLine
 10
99.49999985107547
 20
-0.0000000000000142
 30
0.0
 11
85.23700995377556
 21
-0.0000000000000142
 31
0.0
  0
LINE
  5
13FD
330
A
100
AcDbEntity
  8
0
  6
CENTER
 62
     1
100
AcDbLine
 10
-97.50000014883505
 20
-22.00000000000512
 30
0.0
 11
-97.50000014883505
 21
1.999999999994813
 31
0.0
  0
LINE
  5
13FE
330
A
100
AcDbEntity
  8
0
  6
CENTER
 62
     1
100
AcDbLine
 10
-79.50000020791174
 20
-0.0007686114220604
 30
0.0
 11
-65.5000433931134
 21
-0.0007686114220604
 31
0.0
  0
LINE
  5
13FF
330
A
100
AcDbEntity
  8
0
  6
CENTER
 62
     1
100
AcDbLine
 10
-72.50002180051239
 20
-7.000747018821201
 30
0.0
 11
-72.50002180051239
 21
6.999209795977108
 31
0.0
  0
LINE
  5
1400
330
A
100
AcDbEntity
  8
0
  6
CENTER
 62
     1
100
AcDbLine
 10
-77.15000014883504
 20
-0.000000000005187
 30
0.0
 11
-67.85000014883497
 21
-0.000000000005187
 31
0.0
  0
LINE
  5
1401
330
A
100
AcDbEntity
  8
0
  6
CENTER
 62
     1
100
AcDbLine
 10
-72.50000014883505
 20
-4.650000000005249
 30
0.0
 11
-72.50000014883505
 21
4.649999999994861
 31
0.0
  0
LINE
  5
1402
330
A
100
AcDbEntity
  8
0
  6
CENTER
 62
     1
100
AcDbLine
 10
-119.4999998509339
 20
-0.0000000000000142
 30
0.0
 11
-105.2370099536342
 21
-0.0000000000000142
 31
0.0
  0
LINE
  5
1403
330
A
100
AcDbEntity
  8
0
  6
CENTER
 62
     1
100
AcDbLine
 10
-32.99999999996464
 20
-80.00000014890829
 30
0.0
 11
-16.99999999996464
 21
-80.00000014890829
 31
0.0
  0
LINE
  5
1404
330
A
100
AcDbEntity
  8
0
  6
CENTER
 62
     1
100
AcDbLine
 10
-24.99999999996465
 20
-88.0000001489083
 30
0.0
 11
-24.99999999996465
 21
-72.0000001489083
 31
0.0
  0
LINE
  5
1405
330
A
100
AcDbEntity
  8
0
  6
CENTER
 62
     1
100
AcDbLine
 10
0.0000000001060698
 20
-101.9999998510071
 30
0.0
 11
0.0
 21
-87.73700995370743
 31
0.0
  0
LINE
  5
4C38
330
A
100
AcDbEntity
  8
0
  6
Continuous
 62
     7
370
     0
100
AcDbLine
 10
56.07803445864772
 20
-66.01543721869211
 30
0.0
 11
54.07252278429393
 21
-66.48292273671441
 31
0.0
  0
LINE
  5
4C39
330
A
100
AcDbEntity
  8
0
  6
Continuous
 62
     7
370
     0
100
AcDbLine
 10
56.08910375612447
 20
-65.07263900733872
 30
0.0
 11
56.07803445864772
 21
-66.01543721869211
 31
0.0
  0
LINE
  5
4C3A
330
A
100
AcDbEntity
  8
0
  6
Continuous
 62
     7
370
     0
100
AcDbLine
 10
54.09466137924756
 20
-64.5973263140076
 30
0.0
 11
56.08910375612447
 21
-65.07263900733872
 31
0.0
  0
LINE
  5
4C3B
330
A
100
AcDbEntity
  8
0
  6
Continuous
 62
     7
370
     0
100
AcDbLine
 10
52.08914970489343
 20
-65.06481183202993
 30
0.0
 11
54.09466137924756
 21
-64.5973263140076
 31
0.0
  0
LINE
  5
4C3C
330
A
100
AcDbEntity
  8
0
  6
Continuous
 62
     7
370
     0
100
AcDbLine
 10
52.07808040741657
 20
-66.0076100433833
 30
0.0
 11
52.08914970489343
 21
-65.06481183202993
 31
0.0
  0
LINE
  5
4C3D
330
A
100
AcDbEntity
  8
0
  6
Continuous
 62
     7
370
     0
100
AcDbLine
 10
54.07252278429393
 20
-66.48292273671441
 30
0.0
 11
52.07808040741657
 21
-66.0076100433833
 31
0.0
  0
ELLIPSE
  5
4C3E
330
A
100
AcDbEntity
  8
0
  6
Continuous
 62
     7
370
     0
100
AcDbEllipse
 10
54.08359208177057
 20
-65.54012452536102
 30
0.0
 11
4.000000000000002
 21
0.0
 31
0.0
210
0.0
220
0.0000000000000001
230
1.0
 40
0.4082482904638633
 41
0.0447362800055124
 42
3.096856373482313
  0
LINE
  5
4C3F
330
A
100
AcDbEntity
  8
0
  6
Continuous
 62
     7
370
     0
100
AcDbLine
 10
52.08914970489343
 20
-65.06481183202993
 30
0.0
 11
52.08914970489343
 21
-66.01024806274043
 31
0.0
  0
LINE
  5
4C40
330
A
100
AcDbEntity
  8
0
  6
Continuous
 62
     7
370
     0
100
AcDbLine
 10
54.09466137924756
 20
-64.5973263140076
 30
0.0
 11
54.09466137924756
 21
-66.47776222198761
 31
0.0
  0
ELLIPSE
  5
4C41
330
A
100
AcDbEntity
  8
0
  6
Continuous
 62
     7
370
     0
100
AcDbEllipse
 10
72.68767776123389
 20
-77.22487233176252
 30
0.0
 11
2.399999999999957
 21
0.0
 31
-0.0000000000000001
210
0.0
220
0.0
230
1.0
 40
0.4082482904638634
 41
4.248741371391351
 42
5.819537698186257
  0
LINE
  5
4C42
330
A
100
AcDbEntity
  8
0
  6
Continuous
 62
     7
370
     0
100
AcDbLine
 10
71.61436513204989
 20
-78.1012284237741
 30
0.0
 11
54.44136306478753
 21
-74.5958040557933
 31
0.0
  0
ELLIPSE
  5
4C43
330
A
100
AcDbEntity
  8
0
  6
Continuous
 62
     7
370
     0
100
AcDbEllipse
 10
55.51467569397153
 20
-73.71944796378179
 30
0.0
 11
2.399999999999957
 21
0.0
 31
0.0
210
0.0
220
0.0000000000000001
230
1.0
 40
0.4082482904638636
 41
3.141592653589792
 42
4.248741371391351
  0
LINE
  5
4C44
330
A
100
AcDbEntity
  8
0
  6
Continuous
 62
     7
370
     0
100
AcDbLine
 10
53.36805043556342
 20
-73.28126991778422
 30
0.0
 11
54.0835921883529
 21
-72.69703252310981
 31
0.0
  0
LINE
  5
4C45
330
A
100
AcDbEntity
  8
0
  6
Continuous
 62
     7
370
     0
100
AcDbLine
 10
54.0835921883529
 20
-72.69703252310981
 30
0.0
 11
75.5498447724309
 21
-77.07881298308581
 31
0.0
  0
LINE
  5
4C46
330
A
100
AcDbEntity
  8
0
  6
Continuous
 62
     7
370
     0
100
AcDbLine
 10
75.5498447724309
 20
-77.07881298308581
 30
0.0
 11
74.83430301964165
 21
-77.6630503777601
 31
0.0
  0
LINE
  5
4C47
330
A
100
AcDbEntity
  8
0
  6
Continuous
 62
     9
370
     0
100
AcDbLine
 10
71.61436513204989
 20
-78.1012284237741
 30
0.0
 11
71.61436513204979
 21
-107.3130981573829
 31
0.0
  0
LINE
  5
4C48
330
A
100
AcDbEntity
  8
0
  6
Continuous
 62
     9
370
     0
100
AcDbLine
 10
74.83430301964165
 20
-77.6630503777601
 30
0.0
 11
74.83430301964165
 21
-106.874920111369
 31
0.0
  0
ELLIPSE
  5
4C49
330
A
100
AcDbEntity
  8
0
  6
Continuous
 62
     7
370
     0
100
AcDbEllipse
 10
72.68767776123389
 20
-106.4367420653714
 30
0.0
 11
2.399999999999957
 21
0.0
 31
-0.0000000000000001
210
0.0
220
0.0
230
1.0
 40
0.4082482904638634
 41
4.248741371391308
 42
5.819537698186257
  0
LINE
  5
4C4A
330
A
100
AcDbEntity
  8
0
  6
Continuous
 62
     9
370
     0
100
AcDbLine
 10
54.44136306478753
 20
-74.5958040557933
 30
0.0
 11
54.44136306478753
 21
-103.8076737894022
 31
0.0
  0
LINE
  5
4C4B
330
A
100
AcDbEntity
  8
0
  6
Continuous
 62
     7
370
     0
100
AcDbLine
 10
71.61436513204979
 20
-107.3130981573829
 30
0.0
 11
54.44136306478753
 21
-103.8076737894022
 31
0.0
  0
LINE
  5
4C4C
330
A
100
AcDbEntity
  8
0
  6
Continuous
 62
     7
370
     0
100
AcDbLine
 10
75.5498447724309
 20
-77.07881298308581
 30
0.0
 11
75.5498447724309
 21
-106.2906827166946
 31
0.0
  0
LINE
  5
4C4D
330
A
100
AcDbEntity
  8
0
  6
Continuous
 62
     7
370
     0
100
AcDbLine
 10
75.5498447724309
 20
-106.2906827166946
 30
0.0
 11
74.83430301964165
 21
-106.874920111369
 31
0.0
  0
ELLIPSE
  5
4C4E
330
A
100
AcDbEntity
  8
0
  6
Continuous
 62
     7
370
     0
100
AcDbEllipse
 10
55.51467569397153
 20
-73.71944796378179
 30
0.0
 11
2.399999999999957
 21
0.0
 31
0.0
210
0.0
220
0.0000000000000001
230
1.0
 40
0.4082482904638634
 41
2.677945044596433
 42
3.141592653589792
  0
ELLIPSE
  5
4C4F
330
A
100
AcDbEntity
  8
0
  6
Continuous
 62
     7
370
     0
100
AcDbEllipse
 10
55.51467569397153
 20
-102.9313176973906
 30
0.0
 11
2.399999999999957
 21
0.0
 31
0.0
210
0.0
220
0.0000000000000001
230
1.0
 40
0.4082482904638636
 41
3.141592653589792
 42
4.24874137139131
  0
LINE
  5
4C50
330
A
100
AcDbEntity
  8
0
  6
Continuous
 62
     7
370
     0
100
AcDbLine
 10
78.05424080057014
 20
-101.3246649490319
 30
0.0
 11
78.05424080057014
 21
-76.49457567546443
 31
0.0
  0
ELLIPSE
  5
4C51
330
A
100
AcDbEntity
  8
0
  6
Continuous
 62
     7
370
     0
100
AcDbEllipse
 10
76.62315729497016
 20
-101.0325462516958
 30
0.0
 11
1.011928851253895
 21
-1.239354670786367
 31
0.0000000000000001
210
0.0
220
0.0
230
1.0
 40
0.8164965809277251
 41
5.497787143782124
 42
6.283185307179585
  0
LINE
  5
4C52
330
A
100
AcDbEntity
  8
0
  6
Continuous
 62
     7
370
     0
100
AcDbLine
 10
75.5498447724309
 20
-102.2740507371462
 30
0.0
 11
76.62315729497016
 21
-102.4931397383762
 31
0.0
  0
LINE
  5
4C53
330
A
100
AcDbEntity
  8
0
  6
Continuous
 62
     7
370
     0
100
AcDbLine
 10
58.01907172217204
 20
-72.40491391275921
 30
0.0
 11
58.01907172217204
 21
-73.50035891901342
 31
0.0
  0
ELLIPSE
  5
4C54
330
A
100
AcDbEntity
  8
0
  6
Continuous
 62
     7
370
     0
100
AcDbEllipse
 10
59.4501552277718
 20
-72.69703261009522
 30
0.0
 11
1.011928851253895
 21
-1.239354670786396
 31
0.0000000000000001
210
0.0
220
0.0
230
1.0
 40
0.816496580927725
 41
2.356194490192343
 42
3.141592653589802
  0
LINE
  5
4C55
330
A
100
AcDbEntity
  8
0
  6
Continuous
 62
     7
370
     0
100
AcDbLine
 10
76.62315729497016
 20
-74.74186349144793
 30
0.0
 11
59.4501552277718
 21
-71.23643912341481
 31
0.0
  0
ELLIPSE
  5
4C56
330
A
100
AcDbEntity
  8
0
  6
Continuous
 62
     7
370
     0
100
AcDbEllipse
 10
76.62315729497016
 20
-76.20245697812831
 30
0.0
 11
1.011928851253895
 21
-1.239354670786367
 31
0.0000000000000001
210
0.0
220
0.0
230
1.0
 40
0.8164965809277251
 41
0.7853981633974425
 42
2.356194490192331
  0
LINE
  5
4C57
330
A
100
AcDbEntity
  8
0
  6
Continuous
 62
     9
370
     0
100
AcDbLine
 10
76.98092817137013
 20
-74.44974479411181
 30
0.0
 11
76.62315729497016
 21
-74.74186349144793
 31
0.0
  0
ELLIPSE
  5
4C58
330
A
100
AcDbEntity
  8
0
  6
Continuous
 62
     7
370
     0
100
AcDbEllipse
 10
76.98092817137013
 20
-75.91033828079218
 30
0.0
 11
1.011928851253895
 21
-1.239354670786367
 31
0.0000000000000001
210
0.0
220
0.0
230
1.0
 40
0.8164965809277251
 41
0.7853981633974425
 42
2.356194490192335
  0
LINE
  5
4C59
330
A
100
AcDbEntity
  8
0
  6
Continuous
 62
     9
370
     0
100
AcDbLine
 10
78.41201167697022
 20
-76.20245697812831
 30
0.0
 11
78.05424080057014
 21
-76.49457567546443
 31
0.0
  0
LINE
  5
4C5A
330
A
100
AcDbEntity
  8
0
  6
Continuous
 62
     9
370
     0
100
AcDbLine
 10
59.807926104172
 20
-70.94432042607869
 30
0.0
 11
59.4501552277718
 21
-71.23643912341481
 31
0.0
  0
LINE
  5
4C5B
330
A
100
AcDbEntity
  8
0
  6
Continuous
 62
     7
370
     0
100
AcDbLine
 10
76.98092817137013
 20
-74.44974479411181
 30
0.0
 11
59.807926104172
 21
-70.94432042607869
 31
0.0
  0
LINE
  5
4C5C
330
A
100
AcDbEntity
  8
0
  6
Continuous
 62
     9
370
     0
100
AcDbLine
 10
78.41201167697022
 20
-101.0325462516958
 30
0.0
 11
78.05424080057014
 21
-101.3246649490319
 31
0.0
  0
LINE
  5
4C5D
330
A
100
AcDbEntity
  8
0
  6
Continuous
 62
     7
370
     0
100
AcDbLine
 10
78.41201167697022
 20
-101.0325462516958
 30
0.0
 11
78.41201167697022
 21
-76.20245697812831
 31
0.0
  0
ELLIPSE
  5
4C5E
330
A
100
AcDbEntity
  8
0
  6
Continuous
 62
     7
370
     0
100
AcDbEllipse
 10
59.4501552277718
 20
-72.69703261009522
 30
0.0
 11
1.011928851253895
 21
-1.239354670786396
 31
0.0000000000000001
210
0.0000000000000001
220
0.0000000000000001
230
1.0
 40
0.8164965809277259
 41
3.141592653589802
 42
3.926990816987246
  0
ELLIPSE
  5
4C5F
330
A
100
AcDbEntity
  8
0
  6
Continuous
 62
     7
370
     0
100
AcDbEllipse
 10
59.807926104172
 20
-72.40491391275921
 30
0.0
 11
1.011928851253895
 21
-1.23935467078634
 31
0.0000000000000001
210
0.0
220
0.0
230
1.0
 40
0.816496580927725
 41
2.356194490192395
 42
3.141592653589857
  0
ELLIPSE
  5
4C60
330
A
100
AcDbEntity
  8
0
  6
Continuous
 62
     7
370
     0
100
AcDbEllipse
 10
76.98092817137013
 20
-100.7404275543597
 30
0.0
 11
1.011928851253895
 21
-1.239354670786367
 31
0.0000000000000001
210
0.0
220
0.0
230
1.0
 40
0.8164965809277253
 41
6.283185307179585
 42
7.068583470577027
  0
ELLIPSE
  5
4C61
330
A
100
AcDbEntity
  8
0
  6
Continuous
 62
     7
370
     0
100
AcDbEllipse
 10
76.62315729497016
 20
-101.0325462516958
 30
0.0
 11
1.011928851253895
 21
-1.239354670786367
 31
0.0000000000000001
210
0.0
220
0.0
230
1.0
 40
0.8164965809277253
 41
6.283185307179585
 42
7.068583470577027
  0
LINE
  5
4C62
330
A
100
AcDbEntity
  8
0
  6
Continuous
 62
     7
370
     0
100
AcDbLine
 10
79.12755342976993
 20
-103.3694958303846
 30
0.0
 11
79.12755342976993
 21
-74.15762609677571
 31
0.0
  0
LINE
  5
4C63
330
A
100
AcDbEntity
  8
0
  6
Continuous
 62
     7
370
     0
100
AcDbLine
 10
75.5498447724309
 20
-102.6391991088163
 30
0.0
 11
79.12755342976993
 21
-103.3694958303846
 31
0.0
  0
LINE
  5
4C64
330
A
100
AcDbEntity
  8
0
  6
Continuous
 62
     7
370
     0
100
AcDbLine
 10
56.58798821657206
 20
-73.20824022168278
 30
0.0
 11
56.58798821657206
 21
-69.55675661373229
 31
0.0
  0
LINE
  5
4C65
330
A
100
AcDbEntity
  8
0
  6
Continuous
 62
     7
370
     0
100
AcDbLine
 10
56.58798821657206
 20
-69.55675661373229
 30
0.0
 11
79.12755342976993
 21
-74.15762609677571
 31
0.0
  0
LINE
  5
4C66
330
A
100
AcDbEntity
  8
0
  6
Continuous
 62
     7
370
     0
100
AcDbLine
 10
79.84309518256998
 20
-102.7852584357123
 30
0.0
 11
79.84309518256998
 21
-73.57338870210353
 31
0.0
  0
LINE
  5
4C67
330
A
100
AcDbEntity
  8
0
  6
Continuous
 62
     7
370
     0
100
AcDbLine
 10
79.12755342976993
 20
-103.3694958303846
 30
0.0
 11
79.84309518256998
 21
-102.7852584357123
 31
0.0
  0
LINE
  5
4C68
330
A
100
AcDbEntity
  8
0
  6
Continuous
 62
     7
370
     0
100
AcDbLine
 10
79.12755342976993
 20
-74.15762609677571
 30
0.0
 11
79.84309518256998
 21
-73.57338870210353
 31
0.0
  0
ELLIPSE
  5
4C69
330
A
100
AcDbEntity
  8
0
  6
Continuous
 62
     7
370
     0
100
AcDbEllipse
 10
10.18985785175698
 20
-100.543824767474
 30
0.0
 11
-96.00000000000008
 21
0.0
 31
0.0
210
0.0
220
0.0000000000000001
230
1.0
 40
0.4082482904638633
 41
3.90054908089642
 42
4.183163925491495
  0
LINE
  5
4C6A
330
A
100
AcDbEntity
  8
0
  6
Continuous
 62
     7
370
     0
100
AcDbLine
 10
56.76687365477198
 20
-69.41069726506421
 30
0.0
 11
56.58798821657206
 21
-69.55675661373229
 31
0.0
  0
ELLIPSE
  5
4C6B
330
A
100
AcDbEntity
  8
0
  6
Continuous
 62
     7
370
     0
100
AcDbEllipse
 10
56.40910277837213
 20
-69.3376675907302
 30
0.0
 11
0.400000000000067
 21
0.0
 31
0.0
210
0.0
220
0.0000000000000001
230
1.0
 40
0.4082482904638633
 41
0.0
 42
1.107148717794152
  0
LINE
  5
4C6C
330
A
100
AcDbEntity
  8
0
  6
Continuous
 62
     7
370
     0
100
AcDbLine
 10
51.57919594697261
 20
-68.16919280138581
 30
0.0
 11
56.58798821657206
 21
-69.19160824206222
 31
0.0
  0
LINE
  5
4C6D
330
A
100
AcDbEntity
  8
0
  6
Continuous
 62
     7
370
     0
100
AcDbLine
 10
52.32042449299967
 20
-67.56398222786882
 30
0.0
 11
51.57919594697261
 21
-68.16919280138581
 31
0.0
  0
ELLIPSE
  5
4C6E
330
A
100
AcDbEntity
  8
0
  6
Continuous
 62
     7
370
     0
100
AcDbEllipse
 10
54.08359208177251
 20
-65.39406517669303
 30
0.0
 11
-5.600000000000048
 21
0.0
 31
0.0
210
0.0
220
0.0000000000000001
230
1.0
 40
0.4082482904638631
 41
1.250496286699455
 42
2.526386045309951
  0
ELLIPSE
  5
4C6F
330
A
100
AcDbEntity
  8
0
  6
Continuous
 62
     7
370
     0
100
AcDbEllipse
 10
56.40910277837213
 20
-69.3376675907302
 30
0.0
 11
0.400000000000067
 21
0.0
 31
0.0
210
0.0
220
0.0000000000000001
230
1.0
 40
0.4082482904638633
 41
5.819537698178902
 42
6.283185307179585
  0
LINE
  5
4C70
330
A
100
AcDbEntity
  8
0
  6
Continuous
 62
     9
370
     0
100
AcDbLine
 10
56.58798821657206
 20
-69.55675661373229
 30
0.0
 11
56.58798821657206
 21
-69.19160824206222
 31
0.0
  0
LINE
  5
4C71
330
A
100
AcDbEntity
  8
0
  6
Continuous
 62
     7
370
     0
100
AcDbLine
 10
51.57919594697261
 20
-97.38106253499474
 30
0.0
 11
53.11467569397132
 21
-97.69449102587181
 31
0.0
  0
LINE
  5
4C72
330
A
100
AcDbEntity
  8
0
  6
Continuous
 62
     7
370
     0
100
AcDbLine
 10
51.57919594697261
 20
-97.38106253499474
 30
0.0
 11
51.57919594697261
 21
-68.16919280138581
 31
0.0
  0
ELLIPSE
  5
4C73
330
A
100
AcDbEntity
  8
0
  6
Continuous
 62
     7
370
     0
100
AcDbEllipse
 10
54.08359208177251
 20
-94.60593491030193
 30
0.0
 11
-4.800000000000026
 21
0.0
 31
0.0
210
0.0
220
0.0000000000000001
230
1.0
 40
0.408248290463863
 41
0.0
 42
1.021896257834333
  0
ELLIPSE
  5
4C74
330
A
100
AcDbEntity
  8
0
  6
Continuous
 62
     7
370
     0
100
AcDbEllipse
 10
54.08359208177251
 20
-80.00000004349743
 30
0.0
 11
-4.800000000000026
 21
0.0
 31
0.0
210
0.0
220
0.0000000000000001
230
1.0
 40
0.408248290463863
 41
0.0
 42
1.021896257834333
  0
ELLIPSE
  5
4C75
330
A
100
AcDbEntity
  8
0
  6
Continuous
 62
     7
370
     0
100
AcDbEllipse
 10
54.08359208177251
 20
-65.39406517669303
 30
0.0
 11
4.799999999999914
 21
0.0
 31
0.0
210
0.0
220
0.0000000000000001
230
1.0
 40
0.4082482904638628
 41
2.677945044588991
 42
3.141592653589792
  0
ELLIPSE
  5
4C76
330
A
100
AcDbEntity
  8
0
  6
Continuous
 62
     7
370
     0
100
AcDbEllipse
 10
54.08359208177251
 20
-65.39406517669303
 30
0.0
 11
4.799999999999914
 21
0.0
 31
0.0
210
0.0
220
0.0000000000000001
230
1.0
 40
0.408248290463863
 41
3.141592653589792
 42
6.283185307179585
  0
ELLIPSE
  5
4C77
330
A
100
AcDbEntity
  8
0
  6
Continuous
 62
     7
370
     0
100
AcDbEllipse
 10
54.08359208177251
 20
-80.00000004349743
 30
0.0
 11
4.799999999999914
 21
0.0
 31
0.0
210
0.0
220
0.0000000000000001
230
1.0
 40
0.4082482904638633
 41
3.141592653589792
 42
4.163488911424126
  0
ELLIPSE
  5
4C78
330
A
100
AcDbEntity
  8
0
  6
Continuous
 62
     7
370
     0
100
AcDbEllipse
 10
54.08359208177251
 20
-65.39406517669303
 30
0.0
 11
4.799999999999914
 21
0.0
 31
0.0
210
0.0
220
0.0000000000000001
230
1.0
 40
0.4082482904638633
 41
0.0
 42
1.10714871779411
  0
LINE
  5
4C79
330
A
100
AcDbEntity
  8
0
  6
Continuous
 62
     7
370
     0
100
AcDbLine
 10
49.79034156497289
 20
-64.51770908468472
 30
0.0
 11
49.96922700317282
 21
-64.37164973601671
 31
0.0
  0
ELLIPSE
  5
4C7A
330
A
100
AcDbEntity
  8
0
  6
Continuous
 62
     7
370
     0
100
AcDbEllipse
 10
49.61145612677285
 20
-64.29862006168261
 30
0.0
 11
-0.3999999999999559
 21
0.0
 31
0.0
210
0.0
220
0.0000000000000001
230
1.0
 40
0.4082482904638633
 41
2.677945044588923
 42
3.141592653589792
  0
LINE
  5
4C7B
330
A
100
AcDbEntity
  8
0
  6
Continuous
 62
     7
370
     0
100
AcDbLine
 10
49.79034156497289
 20
-64.15256071301462
 30
0.0
 11
48.00148718297293
 21
-63.78741234134452
 31
0.0
  0
LINE
  5
4C7C
330
A
100
AcDbEntity
  8
0
  6
Continuous
 62
     7
370
     0
100
AcDbLine
 10
48.00148718297293
 20
-63.78741234134452
 30
0.0
 11
50.5058833177726
 21
-61.74258145999193
 31
0.0
  0
ELLIPSE
  5
4C7D
330
A
100
AcDbEntity
  8
0
  6
Continuous
 62
     7
370
     0
100
AcDbEllipse
 10
50.14811244137286
 20
-61.66955178565792
 30
0.0
 11
-0.400000000000067
 21
0.0
 31
0.0
210
0.0
220
0.0000000000000001
230
1.0
 40
0.4082482904638633
 41
2.677945044588986
 42
3.141592653589794
  0
LINE
  5
4C7E
330
A
100
AcDbEntity
  8
0
  6
Continuous
 62
     7
370
     0
100
AcDbLine
 10
50.32699787957267
 20
-61.52349243698981
 30
0.0
 11
49.96922700317282
 21
-61.4504627626558
 31
0.0
  0
LINE
  5
4C7F
330
A
100
AcDbEntity
  8
0
  6
Continuous
 62
     7
370
     0
100
AcDbLine
 10
49.96922700317282
 20
-61.4504627626558
 30
0.0
 11
61.23900960977164
 21
-52.24872379656904
 31
0.0
  0
LINE
  5
4C80
330
A
100
AcDbEntity
  8
0
  6
Continuous
 62
     7
370
     0
100
AcDbLine
 10
61.23900960977164
 20
-52.24872379656904
 30
0.0
 11
62.67009311537163
 21
-52.5408424939051
 31
0.0
  0
ELLIPSE
  5
4C81
330
A
100
AcDbEntity
  8
0
  6
Continuous
 62
     7
370
     0
100
AcDbEllipse
 10
-32.69078064958762
 20
-48.02598268095562
 30
0.0
 11
95.99999999999996
 21
0.0
 31
0.0
210
0.0
220
0.0000000000000001
230
1.0
 40
0.4082482904638633
 41
5.881352128721068
 42
6.167729988666242
  0
ELLIPSE
  5
4C82
330
A
100
AcDbEntity
  8
0
  6
Continuous
 62
     7
370
     0
100
AcDbEllipse
 10
56.03053263138019
 20
-63.41801833634344
 30
0.0
 11
-0.400000000000067
 21
0.0
 31
0.0
210
0.0
220
0.0000000000000001
230
1.0
 40
0.4082482904638631
 41
5.881352128720925
 42
6.283185307179585
  0
LINE
  5
4C83
330
A
100
AcDbEntity
  8
0
  6
Continuous
 62
     7
370
     0
100
AcDbLine
 10
55.85164719318027
 20
-63.56407768501142
 30
0.0
 11
56.2302173401722
 21
-63.64135299267653
 31
0.0
  0
ELLIPSE
  5
4C84
330
A
100
AcDbEntity
  8
0
  6
Continuous
 62
     7
370
     0
100
AcDbEllipse
 10
54.08359208177251
 20
-65.39406517669303
 30
0.0
 11
4.000000000000002
 21
0.0
 31
0.0
210
0.0
220
0.0000000000000001
230
1.0
 40
0.4082482904638633
 41
3.141592653589792
 42
4.248741371383862
  0
ELLIPSE
  5
4C85
330
A
100
AcDbEntity
  8
0
  6
Continuous
 62
     7
370
     0
100
AcDbEllipse
 10
54.08359208177251
 20
-65.39406517669303
 30
0.0
 11
4.000000000000002
 21
0.0
 31
0.0
210
0.0
220
0.0000000000000001
230
1.0
 40
0.4082482904638636
 41
4.248741371383862
 42
6.283185307179585
  0
ELLIPSE
  5
4C86
330
A
100
AcDbEntity
  8
0
  6
Continuous
 62
     7
370
     0
100
AcDbEllipse
 10
54.08359208177251
 20
-65.39406517669303
 30
0.0
 11
4.000000000000002
 21
0.0
 31
0.0
210
0.0
220
0.0000000000000001
230
1.0
 40
0.4082482904638636
 41
0.0
 42
3.141592653589792
  0
ELLIPSE
  5
4C87
330
A
100
AcDbEntity
  8
0
  6
Continuous
 62
     7
370
     0
100
AcDbEllipse
 10
49.61145612677285
 20
-64.29862006168261
 30
0.0
 11
-0.3999999999999559
 21
0.0
 31
0.0
210
0.0
220
0.0000000000000001
230
1.0
 40
0.4082482904638635
 41
3.141592653589792
 42
4.248741371383851
  0
LINE
  5
4C88
330
A
100
AcDbEntity
  8
0
  6
Continuous
 62
     9
370
     0
100
AcDbLine
 10
49.79034156497289
 20
-64.15256071301462
 30
0.0
 11
49.79034156497289
 21
-64.51770908468472
 31
0.0
  0
LINE
  5
4C89
330
A
100
AcDbEntity
  8
0
  6
Continuous
 62
     7
370
     0
100
AcDbLine
 10
49.28359208177255
 20
-93.26099064151852
 30
0.0
 11
48.00148718297293
 21
-92.99928207495344
 31
0.0
  0
LINE
  5
4C8A
330
A
100
AcDbEntity
  8
0
  6
Continuous
 62
     7
370
     0
100
AcDbLine
 10
48.00148718297293
 20
-63.78741234134452
 30
0.0
 11
48.00148718297293
 21
-92.99928207495344
 31
0.0
  0
ELLIPSE
  5
4C8B
330
A
100
AcDbEntity
  8
0
  6
Continuous
 62
     7
370
     0
100
AcDbEllipse
 10
56.03053263138019
 20
-63.41801833634344
 30
0.0
 11
-0.400000000000067
 21
0.0
 31
0.0
210
0.0
220
0.0000000000000001
230
1.0
 40
0.4082482904638635
 41
0.0
 42
1.107148717794059
  0
LINE
  5
4C8C
330
A
100
AcDbEntity
  8
0
  6
Continuous
 62
     9
370
     0
100
AcDbLine
 10
55.66239440199854
 20
-63.35415096847871
 30
0.0
 11
55.66239440199854
 21
-63.48188570420802
 31
0.0
  0
LINE
  5
4C8D
330
A
100
AcDbEntity
  8
0
  6
Continuous
 62
     7
370
     0
100
AcDbLine
 10
62.67009311537163
 20
-52.5408424939051
 30
0.0
 11
62.67009311537163
 21
-67.72659121893622
 31
0.0
  0
ELLIPSE
  5
4C8E
330
A
100
AcDbEntity
  8
0
  6
Continuous
 62
     7
370
     0
100
AcDbEllipse
 10
50.14811244137286
 20
-61.66955178565792
 30
0.0
 11
-0.400000000000067
 21
0.0
 31
0.0
210
0.0
220
0.0000000000000001
230
1.0
 40
0.4082482904638635
 41
3.141592653589792
 42
4.248741371383851
  0
LINE
  5
4C8F
330
A
100
AcDbEntity
  8
0
  6
Continuous
 62
     9
370
     0
100
AcDbLine
 10
50.32699787957267
 20
-61.52349243698981
 30
0.0
 11
50.32699787957267
 21
-61.88864080866
 31
0.0
  0
LINE
  5
4C90
330
A
100
AcDbEntity
  8
0
  6
Continuous
 62
     7
370
     0
100
AcDbLine
 10
49.96922700317282
 20
-61.4504627626558
 30
0.0
 11
49.96922700317282
 21
-62.18075950599601
 31
0.0
  0
LINE
  5
4C91
330
A
100
AcDbEntity
  8
0
  6
Continuous
 62
     7
370
     0
100
AcDbLine
 10
53.11467569397132
 20
-73.71944796378179
 30
0.0
 11
53.11467569397132
 21
-102.9313176973906
 31
0.0
  0
LINE
  5
4C92
330
A
100
AcDbEntity
  8
0
  6
Continuous
 62
     7
370
     0
100
AcDbLine
 10
58.79599725291803
 20
-71.1655592419728
 30
0.0
 11
58.43822637651817
 21
-71.45767793930892
 31
0.0
  0
LINE
  5
4C93
330
A
100
AcDbEntity
  8
0
  6
Continuous
 62
     7
370
     0
100
AcDbLine
 10
77.63508614622413
 20
-102.2719009224822
 30
0.0
 11
77.99285702262409
 21
-101.9797822251461
 31
0.0
  0
LINE
  5
4C94
330
A
100
AcDbEntity
  8
0
  6
Continuous
 62
     7
370
     0
100
AcDbLine
 10
49.28359208177255
 20
-80.00000004349743
 30
0.0
 11
49.28359208177255
 21
-94.60593491030193
 31
0.0
  0
LINE
  5
4C95
330
A
100
AcDbEntity
  8
0
  6
Continuous
 62
     7
370
     0
100
AcDbLine
 10
58.88359208177234
 20
-66.76779715730692
 30
0.0
 11
58.88359208177234
 21
-65.39406517669303
 31
0.0
  0
LINE
  5
4C96
330
A
100
AcDbEntity
  8
0
  6
Continuous
 62
     7
370
     0
100
AcDbLine
 10
49.28359208177255
 20
-65.39406517669303
 30
0.0
 11
49.28359208177255
 21
-80.00000004349743
 31
0.0
  0
LINE
  5
4C97
330
A
100
AcDbEntity
  8
0
  6
Continuous
 62
     7
370
     0
100
AcDbLine
 10
-5.999999999953502
 20
-94.00000005918119
 30
0.0
 11
-0.6713568088124476
 21
-94.00000005912932
 31
0.0
  0
LINE
  5
4C98
330
A
100
AcDbEntity
  8
0
  6
Continuous
 62
     7
370
     0
100
AcDbLine
 10
-0.6713568088124476
 20
-94.00000005912932
 30
0.0
 11
6.000000000046497
 21
-94.00000005906443
 31
0.0
  0
LINE
  5
4C99
330
A
100
AcDbEntity
  8
0
  6
Continuous
 62
     7
370
     0
100
AcDbLine
 10
-22.11929692400008
 20
-80.18677038596342
 30
0.0
 11
-23.72139623194312
 21
-82.58814731198354
 31
0.0
  0
LINE
  5
4C9A
330
A
100
AcDbEntity
  8
0
  6
Continuous
 62
     7
370
     0
100
AcDbLine
 10
-23.39790069202365
 20
-77.59862322288921
 30
0.0
 11
-22.11929692400008
 21
-80.18677038596342
 31
0.0
  0
LINE
  5
4C9B
330
A
100
AcDbEntity
  8
0
  6
Continuous
 62
     7
370
     0
100
AcDbLine
 10
-26.27860376799038
 20
-77.41185298583523
 30
0.0
 11
-23.39790069202365
 21
-77.59862322288921
 31
0.0
  0
LINE
  5
4C9C
330
A
100
AcDbEntity
  8
0
  6
Continuous
 62
     7
370
     0
100
AcDbLine
 10
-27.88070307593353
 20
-79.8132299118553
 30
0.0
 11
-26.27860376799038
 21
-77.41185298583523
 31
0.0
  0
LINE
  5
4C9D
330
A
100
AcDbEntity
  8
0
  6
Continuous
 62
     7
370
     0
100
AcDbLine
 10
-26.60209930790961
 20
-82.40137707492952
 30
0.0
 11
-27.88070307593353
 21
-79.8132299118553
 31
0.0
  0
LINE
  5
4C9E
330
A
100
AcDbEntity
  8
0
  6
Continuous
 62
     7
370
     0
100
AcDbLine
 10
-23.72139623194312
 20
-82.58814731198354
 30
0.0
 11
-26.60209930790961
 21
-82.40137707492952
 31
0.0
  0
ARC
  5
4C9F
330
A
100
AcDbEntity
  8
0
  6
Continuous
 62
     7
370
     0
100
AcDbCircle
 10
12.00000000010607
 20
-101.9999998509176
 30
0.0
 40
3.000000000000001
100
AcDbArc
 50
270.0000000004299
 51
0.0000000004274665
  0
LINE
  5
4CA0
330
A
100
AcDbEntity
  8
0
  6
Continuous
 62
     7
370
     0
100
AcDbLine
 10
12.00000000012869
 20
-104.9999998509176
 30
0.0
 11
-11.99999999987142
 21
-104.9999998510968
 31
0.0
  0
LINE
  5
4CA1
330
A
100
AcDbEntity
  8
0
  6
Continuous
 62
     7
370
     0
100
AcDbLine
 10
15.00000000009151
 20
-99.99999985089523
 30
0.0
 11
15.00000000010607
 21
-101.9999998508952
 31
0.0
  0
LINE
  5
4CA2
330
A
100
AcDbEntity
  8
0
  6
Continuous
 62
     7
370
     0
100
AcDbLine
 10
-14.99999999990871
 20
-99.99999985111921
 30
0.0
 11
15.00000000009151
 21
-99.99999985089523
 31
0.0
  0
LINE
  5
4CA3
330
A
100
AcDbEntity
  8
0
  6
Continuous
 62
     7
370
     0
100
AcDbLine
 10
-14.99999999989393
 20
-101.9999998511192
 30
0.0
 11
-14.99999999990871
 21
-99.99999985111921
 31
0.0
  0
ARC
  5
4CA4
330
A
100
AcDbEntity
  8
0
  6
Continuous
 62
     7
370
     0
100
AcDbCircle
 10
-11.99999999989382
 20
-101.9999998510967
 30
0.0
 40
3.000000000000001
100
AcDbArc
 50
180.0000000004283
 51
270.0000000004299
  0
LINE
  5
4CA5
330
A
100
AcDbEntity
  8
0
  6
Continuous
 62
     7
370
     0
100
AcDbLine
 10
-4.899999999957231
 20
-93.4999998510438
 30
0.0
 11
4.900000000042723
 21
-93.49999985097062
 31
0.0
  0
LINE
  5
4CA6
330
A
100
AcDbEntity
  8
0
  6
Continuous
 62
     9
370
     0
100
AcDbLine
 10
-11.9999999999635
 20
-100.0000001489083
 30
0.0
 11
-11.9999999999635
 21
-99.0000001489083
 31
0.0
  0
LINE
  5
4CA7
330
A
100
AcDbEntity
  8
0
  6
Continuous
 62
     7
370
     0
100
AcDbLine
 10
-13.99999999996351
 20
-100.0000001489083
 30
0.0
 11
-13.99999999996351
 21
-99.0000001489083
 31
0.0
  0
LINE
  5
4CA8
330
A
100
AcDbEntity
  8
0
  6
Continuous
 62
     7
370
     0
100
AcDbLine
 10
-13.99999999996373
 20
-99.0000001489083
 30
0.0
 11
-11.9999999999635
 21
-99.0000001489083
 31
0.0
  0
LINE
  5
4CA9
330
A
100
AcDbEntity
  8
0
  6
Continuous
 62
     9
370
     0
100
AcDbLine
 10
12.00000000003422
 20
-100.0000001489083
 30
0.0
 11
12.00000000003422
 21
-99.0000001489083
 31
0.0
  0
LINE
  5
4CAA
330
A
100
AcDbEntity
  8
0
  6
Continuous
 62
     7
370
     0
100
AcDbLine
 10
-11.9999999999635
 20
-99.0000001489083
 30
0.0
 11
12.00000000003422
 21
-99.0000001489083
 31
0.0
  0
LINE
  5
4CAB
330
A
100
AcDbEntity
  8
0
  6
Continuous
 62
     7
370
     0
100
AcDbLine
 10
14.00000000003422
 20
-100.0000001489083
 30
0.0
 11
14.00000000003422
 21
-99.0000001489083
 31
0.0
  0
LINE
  5
4CAC
330
A
100
AcDbEntity
  8
0
  6
Continuous
 62
     7
370
     0
100
AcDbLine
 10
12.00000000003422
 20
-99.0000001489083
 30
0.0
 11
14.00000000003433
 21
-99.0000001489083
 31
0.0
  0
LINE
  5
4CAD
330
A
100
AcDbEntity
  8
0
  6
Continuous
 62
     9
370
     0
100
AcDbLine
 10
-11.99999999996464
 20
-90.00000014890829
 30
0.0
 11
-11.99999999996464
 21
-91.00000014890829
 31
0.0
  0
LINE
  5
4CAE
330
A
100
AcDbEntity
  8
0
  6
Continuous
 62
     7
370
     0
100
AcDbLine
 10
12.00000000003524
 20
-91.00000014890829
 30
0.0
 11
-11.99999999996464
 21
-91.00000014890829
 31
0.0
  0
LINE
  5
4CAF
330
A
100
AcDbEntity
  8
0
  6
Continuous
 62
     7
370
     0
100
AcDbLine
 10
-13.99999999996464
 20
-90.00000014890829
 30
0.0
 11
-13.99999999996464
 21
-91.00000014890829
 31
0.0
  0
LINE
  5
4CB0
330
A
100
AcDbEntity
  8
0
  6
Continuous
 62
     7
370
     0
100
AcDbLine
 10
-11.99999999996464
 20
-91.00000014890829
 30
0.0
 11
-13.99999999996464
 21
-91.00000014890829
 31
0.0
  0
LINE
  5
4CB1
330
A
100
AcDbEntity
  8
0
  6
Continuous
 62
     9
370
     0
100
AcDbLine
 10
12.00000000003524
 20
-90.00000014890829
 30
0.0
 11
12.00000000003524
 21
-91.00000014890829
 31
0.0
  0
LINE
  5
4CB2
330
A
100
AcDbEntity
  8
0
  6
Continuous
 62
     7
370
     0
100
AcDbLine
 10
14.00000000003524
 20
-90.00000014890829
 30
0.0
 11
14.00000000003524
 21
-91.00000014890829
 31
0.0
  0
LINE
  5
4CB3
330
A
100
AcDbEntity
  8
0
  6
Continuous
 62
     7
370
     0
100
AcDbLine
 10
14.00000000003524
 20
-91.00000014890829
 30
0.0
 11
12.00000000003524
 21
-91.00000014890829
 31
0.0
  0
ARC
  5
4CB4
330
A
100
AcDbEntity
  8
0
  6
Continuous
 62
     7
370
     0
100
AcDbCircle
 10
-25.94389621539097
 20
-200.7989246238359
 30
0.0
 40
120.0
100
AcDbArc
 50
70.05005129607315
 51
86.24268911911975
  0
LINE
  5
4CB5
330
A
100
AcDbEntity
  8
0
  6
Continuous
 62
     7
370
     0
100
AcDbLine
 10
15.00000000003524
 20
-90.00000014890829
 30
0.0
 11
15.00000000003524
 21
-88.0000001489083
 31
0.0
  0
LINE
  5
4CB6
330
A
100
AcDbEntity
  8
0
  6
Continuous
 62
     7
370
     0
100
AcDbLine
 10
-16.49999999996464
 20
-90.00000014890829
 30
0.0
 11
15.00000000003524
 21
-90.00000014890829
 31
0.0
  0
LINE
  5
4CB7
330
A
100
AcDbEntity
  8
0
  6
Continuous
 62
     7
370
     0
100
AcDbLine
 10
-16.49999999996464
 20
-89.50000014890845
 30
0.0
 11
-16.49999999996464
 21
-90.00000014890829
 31
0.0
  0
ARC
  5
4CB8
330
A
100
AcDbEntity
  8
0
  6
Continuous
 62
     7
370
     0
100
AcDbCircle
 10
-16.99999999996464
 20
-89.50000014890845
 30
0.0
 40
0.5000000000000006
100
AcDbArc
 50
0.0
 51
90.0
  0
LINE
  5
4CB9
330
A
100
AcDbEntity
  8
0
  6
Continuous
 62
     7
370
     0
100
AcDbLine
 10
-23.99999999996464
 20
-89.0000001489083
 30
0.0
 11
-16.99999999996464
 21
-89.0000001489083
 31
0.0
  0
LINE
  5
4CBA
330
A
100
AcDbEntity
  8
0
  6
Continuous
 62
     7
370
     0
100
AcDbLine
 10
-23.99999999996464
 20
-86.9282033791838
 30
0.0
 11
-23.99999999996464
 21
-89.0000001489083
 31
0.0
  0
ARC
  5
4CBB
330
A
100
AcDbEntity
  8
0
  6
Continuous
 62
     7
370
     0
100
AcDbCircle
 10
-24.99999999996465
 20
-80.00000014890829
 30
0.0
 40
7.000000000000004
100
AcDbArc
 50
278.2132107017363
 51
351.3163089940852
  0
ARC
  5
4CBC
330
A
100
AcDbEntity
  8
0
  6
Continuous
 62
     7
370
     0
100
AcDbCircle
 10
-24.49999999996464
 20
-86.5000001489083
 30
0.0
 40
0.5000000000000006
100
AcDbArc
 50
0.0
 51
90.0
  0
LINE
  5
4CBD
330
A
100
AcDbEntity
  8
0
  6
Continuous
 62
     7
370
     0
100
AcDbLine
 10
-24.99999999996465
 20
-86.00000014890841
 30
0.0
 11
-24.49999999996464
 21
-86.00000014890841
 31
0.0
  0
LINE
  5
4CBE
330
A
100
AcDbEntity
  8
0
  6
Continuous
 62
     7
370
     0
100
AcDbLine
 10
-18.99999999996464
 20
-80.5290680132372
 30
0.0
 11
-18.99999999996464
 21
-80.00000014890829
 31
0.0
  0
ARC
  5
4CBF
330
A
100
AcDbEntity
  8
0
  6
Continuous
 62
     7
370
     0
100
AcDbCircle
 10
-18.49999999996464
 20
-80.5290680132372
 30
0.0
 40
0.4999999999999825
100
AcDbArc
 50
180.0000000000049
 51
266.458294016926
  0
ARC
  5
4CC0
330
A
100
AcDbEntity
  8
0
  6
Continuous
 62
     7
370
     0
100
AcDbCircle
 10
-25.94389621539097
 20
-200.7989246238359
 30
0.0
 40
120.0
100
AcDbArc
 50
86.24268911911975
 51
86.45829401691953
  0
LINE
  5
4CC1
330
A
100
AcDbEntity
  8
0
  6
Continuous
 62
     7
370
     0
100
AcDbLine
 10
-23.99999999996464
 20
-86.5000001489083
 30
0.0
 11
-23.99999999996464
 21
-86.9282033791838
 31
0.0
  0
LINE
  5
4CC2
330
A
100
AcDbEntity
  8
0
  6
Continuous
 62
     7
370
     0
100
AcDbLine
 10
-34.49999999996464
 20
-71.5000001489083
 30
0.0
 11
-34.99999999996465
 21
-71.5000001489083
 31
0.0
  0
LINE
  5
4CC3
330
A
100
AcDbEntity
  8
0
  6
Continuous
 62
     7
370
     0
100
AcDbLine
 10
-34.99999999996465
 20
-71.5000001489083
 30
0.0
 11
-34.99999999996465
 21
-40.00000014890831
 31
0.0
  0
ARC
  5
4CC4
330
A
100
AcDbEntity
  8
0
  6
Continuous
 62
     7
370
     0
100
AcDbCircle
 10
-145.7989244748922
 20
-80.94389636433461
 30
0.0
 40
120.0
100
AcDbArc
 50
3.541705983078092
 51
19.94994870392456
  0
ARC
  5
4CC5
330
A
100
AcDbEntity
  8
0
  6
Continuous
 62
     7
370
     0
100
AcDbCircle
 10
-25.52906786429355
 20
-73.5000001489083
 30
0.0
 40
0.5000000000000135
100
AcDbArc
 50
183.5417059830772
 51
270.0
  0
CIRCLE
  5
4CC6
330
A
100
AcDbEntity
  8
0
  6
Continuous
 62
     7
370
     0
100
AcDbCircle
 10
-24.99999999996465
 20
-80.00000014890829
 30
0.0
 40
5.000000000000004
  0
LINE
  5
4CC7
330
A
100
AcDbEntity
  8
0
  6
Continuous
 62
     7
370
     0
100
AcDbLine
 10
-25.52906786429355
 20
-74.0000001489083
 30
0.0
 11
-24.99999999996465
 21
-74.0000001489083
 31
0.0
  0
LINE
  5
4CC8
330
A
100
AcDbEntity
  8
0
  6
Continuous
 62
     7
370
     0
100
AcDbLine
 10
-31.49999999996464
 20
-79.0000001489083
 30
0.0
 11
-33.99999999996464
 21
-79.0000001489083
 31
0.0
  0
ARC
  5
4CC9
330
A
100
AcDbEntity
  8
0
  6
Continuous
 62
     7
370
     0
100
AcDbCircle
 10
-31.49999999996464
 20
-79.5000001489083
 30
0.0
 40
0.5000000000000561
100
AcDbArc
 50
0.0
 51
90.0
  0
LINE
  5
4CCA
330
A
100
AcDbEntity
  8
0
  6
Continuous
 62
     7
370
     0
100
AcDbLine
 10
-30.99999999996465
 20
-80.00000014890829
 30
0.0
 11
-30.99999999996465
 21
-79.5000001489083
 31
0.0
  0
ARC
  5
4CCB
330
A
100
AcDbEntity
  8
0
  6
Continuous
 62
     7
370
     0
100
AcDbCircle
 10
-24.99999999996465
 20
-80.00000014890829
 30
0.0
 40
6.000000000000004
100
AcDbArc
 50
180.0
 51
90.0
  0
ARC
  5
4CCC
330
A
100
AcDbEntity
  8
0
  6
Continuous
 62
     7
370
     0
100
AcDbCircle
 10
-34.49999999996464
 20
-72.0000001489083
 30
0.0
 40
0.5000000000000561
100
AcDbArc
 50
0.0
 51
90.0
  0
LINE
  5
4CCD
330
A
100
AcDbEntity
  8
0
  6
Continuous
 62
     7
370
     0
100
AcDbLine
 10
-33.99999999996464
 20
-79.0000001489083
 30
0.0
 11
-33.99999999996464
 21
-72.0000001489083
 31
0.0
  0
LINE
  5
4CCE
330
A
100
AcDbEntity
  8
0
  6
Continuous
 62
     7
370
     0
100
AcDbLine
 10
-34.99999999996465
 20
-40.00000014890831
 30
0.0
 11
-32.99999999996464
 21
-40.00000014890831
 31
0.0
  0
LINE
  5
4CCF
330
A
100
AcDbEntity
  8
0
  6
Continuous
 62
     9
370
     0
100
AcDbLine
 10
2.100000000136219
 20
-93.49999985099154
 30
0.0
 11
2.100000000047998
 21
-91.00000014890829
 31
0.0
  0
LINE
  5
4CD0
330
A
100
AcDbEntity
  8
0
  6
Continuous
 62
     9
370
     0
100
AcDbLine
 10
-2.099999999952046
 20
-91.00000014890829
 30
0.0
 11
-2.099999999864053
 21
-93.49999985102291
 31
0.0
  0
LINE
  5
4CD1
330
A
100
AcDbEntity
  8
0
  6
Continuous
 62
     7
370
     0
100
AcDbLine
 10
2.500000000136083
 20
-93.49999985089523
 30
0.0
 11
2.500000000047975
 21
-91.00000014890829
 31
0.0
  0
LINE
  5
4CD2
330
A
100
AcDbEntity
  8
0
  6
Continuous
 62
     7
370
     0
100
AcDbLine
 10
-2.49999999995191
 20
-91.00000014890829
 30
0.0
 11
-2.499999999863803
 21
-93.49999985111921
 31
0.0
  0
LINE
  5
4CD3
330
A
100
AcDbEntity
  8
0
  6
Continuous
 62
     7
370
     0
100
AcDbLine
 10
-5.999999999953502
 20
-94.00000005918119
 30
0.0
 11
-5.999999999904844
 21
-99.00000005918119
 31
0.0
  0
LINE
  5
4CD4
330
A
100
AcDbEntity
  8
0
  6
Continuous
 62
     7
370
     0
100
AcDbLine
 10
6.000000000095155
 20
-99.00000005906443
 30
0.0
 11
6.000000000046497
 21
-94.00000005906443
 31
0.0
  0
LINE
  5
4CD5
330
A
100
AcDbEntity
  8
0
  6
Continuous
 62
     7
370
     0
100
AcDbLine
 10
-4.899999999957231
 20
-93.4999998510438
 30
0.0
 11
-4.899999999953593
 21
-94.0000000591705
 31
0.0
  0
LINE
  5
4CD6
330
A
100
AcDbEntity
  8
0
  6
Continuous
 62
     7
370
     0
100
AcDbLine
 10
4.900000000046475
 20
-94.00000005907513
 30
0.0
 11
4.900000000042723
 21
-93.49999985097062
 31
0.0
  0
LINE
  5
4CD7
330
A
100
AcDbEntity
  8
0
  6
Continuous
 62
     7
370
     0
100
AcDbLine
 10
91.50000005919094
 20
-5.999999999999985
 30
0.0
 11
91.50000005919094
 21
5.962321698398937
 31
0.0
  0
LINE
  5
4CD8
330
A
100
AcDbEntity
  8
0
  6
Continuous
 62
     7
370
     0
100
AcDbLine
 10
91.50000005919094
 20
5.962321698398937
 30
0.0
 11
91.50000005919094
 21
5.999999999999985
 31
0.0
  0
LINE
  5
4CD9
330
A
100
AcDbEntity
  8
0
  6
Continuous
 62
     7
370
     0
100
AcDbLine
 10
97.49999985118734
 20
20.00000000000003
 30
0.0
 11
97.49999985118734
 21
-19.9999999999999
 31
0.0
  0
LINE
  5
4CDA
330
A
100
AcDbEntity
  8
0
  6
Continuous
 62
     7
370
     0
100
AcDbLine
 10
99.49999985118735
 20
20.00000000000003
 30
0.0
 11
97.49999985118734
 21
20.00000000000003
 31
0.0
  0
LINE
  5
4CDB
330
A
100
AcDbEntity
  8
0
  6
Continuous
 62
     9
370
     0
100
AcDbLine
 10
99.49999985118735
 20
20.00000000000003
 30
0.0
 11
99.49999985118735
 21
-19.9999999999999
 31
0.0
  0
LINE
  5
4CDC
330
A
100
AcDbEntity
  8
0
  6
Continuous
 62
     7
370
     0
100
AcDbLine
 10
99.49999985118735
 20
-19.9999999999999
 30
0.0
 11
97.49999985118734
 21
-19.9999999999999
 31
0.0
  0
LINE
  5
4CDD
330
A
100
AcDbEntity
  8
0
  6
Continuous
 62
     7
370
     0
100
AcDbLine
 10
102.4999998511649
 20
20.00000000000003
 30
0.0
 11
102.4999998511649
 21
-19.9999999999999
 31
0.0
  0
LINE
  5
4CDE
330
A
100
AcDbEntity
  8
0
  6
Continuous
 62
     7
370
     0
100
AcDbLine
 10
102.4999998511649
 20
20.00000000000003
 30
0.0
 11
99.49999985118735
 21
20.00000000000003
 31
0.0
  0
LINE
  5
4CDF
330
A
100
AcDbEntity
  8
0
  6
Continuous
 62
     7
370
     0
100
AcDbLine
 10
102.4999998511649
 20
-19.9999999999999
 30
0.0
 11
99.49999985118735
 21
-19.9999999999999
 31
0.0
  0
LINE
  5
4CE0
330
A
100
AcDbEntity
  8
0
  6
Continuous
 62
     7
370
     0
100
AcDbLine
 10
90.99999985107535
 20
-4.899999999999977
 30
0.0
 11
90.99999985107535
 21
0.0000000000000142
 31
0.0
  0
LINE
  5
4CE1
330
A
100
AcDbEntity
  8
0
  6
Continuous
 62
     7
370
     0
100
AcDbLine
 10
90.99999985107535
 20
0.0000000000000142
 30
0.0
 11
90.99999985107535
 21
4.900000000000005
 31
0.0
  0
LINE
  5
4CE2
330
A
100
AcDbEntity
  8
0
  6
Continuous
 62
     9
370
     0
100
AcDbLine
 10
97.50000014897672
 20
-17.00000000000371
 30
0.0
 11
96.50000014897649
 21
-17.00000000000371
 31
0.0
  0
LINE
  5
4CE3
330
A
100
AcDbEntity
  8
0
  6
Continuous
 62
     7
370
     0
100
AcDbLine
 10
97.50000014897672
 20
-19.00000000000361
 30
0.0
 11
96.50000014897649
 21
-19.00000000000361
 31
0.0
  0
LINE
  5
4CE4
330
A
100
AcDbEntity
  8
0
  6
Continuous
 62
     7
370
     0
100
AcDbLine
 10
96.50000014897649
 20
-19.00000000000371
 30
0.0
 11
96.50000014897649
 21
-17.00000000000371
 31
0.0
  0
LINE
  5
4CE5
330
A
100
AcDbEntity
  8
0
  6
Continuous
 62
     9
370
     0
100
AcDbLine
 10
97.50000014897672
 20
16.99999999999339
 30
0.0
 11
96.50000014897649
 21
16.99999999999339
 31
0.0
  0
LINE
  5
4CE6
330
A
100
AcDbEntity
  8
0
  6
Continuous
 62
     7
370
     0
100
AcDbLine
 10
96.50000014897649
 20
-17.00000000000371
 30
0.0
 11
96.50000014897649
 21
16.99999999999339
 31
0.0
  0
LINE
  5
4CE7
330
A
100
AcDbEntity
  8
0
  6
Continuous
 62
     7
370
     0
100
AcDbLine
 10
97.50000014897672
 20
18.99999999999321
 30
0.0
 11
96.50000014897649
 21
18.99999999999321
 31
0.0
  0
LINE
  5
4CE8
330
A
100
AcDbEntity
  8
0
  6
Continuous
 62
     7
370
     0
100
AcDbLine
 10
96.50000014897649
 20
16.99999999999339
 30
0.0
 11
96.50000014897649
 21
18.99999999999339
 31
0.0
  0
LINE
  5
4CE9
330
A
100
AcDbEntity
  8
0
  6
Continuous
 62
     7
370
     0
100
AcDbLine
 10
87.50000014897649
 20
-19.00000000000511
 30
0.0
 11
88.50000014897672
 21
-19.00000000000511
 31
0.0
  0
LINE
  5
4CEA
330
A
100
AcDbEntity
  8
0
  6
Continuous
 62
     9
370
     0
100
AcDbLine
 10
87.50000014897649
 20
-17.00000000000511
 30
0.0
 11
88.50000014897672
 21
-17.00000000000511
 31
0.0
  0
LINE
  5
4CEB
330
A
100
AcDbEntity
  8
0
  6
Continuous
 62
     7
370
     0
100
AcDbLine
 10
88.50000014897672
 20
-17.00000000000511
 30
0.0
 11
88.50000014897672
 21
-19.00000000000511
 31
0.0
  0
LINE
  5
4CEC
330
A
100
AcDbEntity
  8
0
  6
Continuous
 62
     9
370
     0
100
AcDbLine
 10
87.50000014897649
 20
16.99999999999477
 30
0.0
 11
88.50000014897672
 21
16.99999999999477
 31
0.0
  0
LINE
  5
4CED
330
A
100
AcDbEntity
  8
0
  6
Continuous
 62
     7
370
     0
100
AcDbLine
 10
88.50000014897672
 20
16.99999999999477
 30
0.0
 11
88.50000014897672
 21
-17.00000000000511
 31
0.0
  0
LINE
  5
4CEE
330
A
100
AcDbEntity
  8
0
  6
Continuous
 62
     7
370
     0
100
AcDbLine
 10
87.50000014897649
 20
18.99999999999477
 30
0.0
 11
88.50000014897672
 21
18.99999999999477
 31
0.0
  0
LINE
  5
4CEF
330
A
100
AcDbEntity
  8
0
  6
Continuous
 62
     7
370
     0
100
AcDbLine
 10
88.50000014897672
 20
18.99999999999477
 30
0.0
 11
88.50000014897672
 21
16.99999999999477
 31
0.0
  0
LINE
  5
4CF0
330
A
100
AcDbEntity
  8
0
  6
Continuous
 62
     7
370
     0
100
AcDbLine
 10
76.50000014897671
 20
-20.00000000000512
 30
0.0
 11
83.50000014897648
 21
-20.00000000000512
 31
0.0
  0
LINE
  5
4CF1
330
A
100
AcDbEntity
  8
0
  6
Continuous
 62
     7
370
     0
100
AcDbLine
 10
77.00000014897671
 20
-0.000000000005187
 30
0.0
 11
77.50000014897671
 21
-0.000000000005187
 31
0.0
  0
LINE
  5
4CF2
330
A
100
AcDbEntity
  8
0
  6
Continuous
 62
     7
370
     0
100
AcDbLine
 10
77.50000014897671
 20
-0.000000000005187
 30
0.0
 11
83.50000014897648
 21
-0.000000000005187
 31
0.0
  0
LINE
  5
4CF3
330
A
100
AcDbEntity
  8
0
  6
Continuous
 62
     7
370
     0
100
AcDbLine
 10
83.50000014897648
 20
-20.00000000000512
 30
0.0
 11
83.50000014897648
 21
-0.000000000005187
 31
0.0
  0
LINE
  5
4CF4
330
A
100
AcDbEntity
  8
0
  6
Continuous
 62
     9
370
     0
100
AcDbLine
 10
84.00000014897671
 20
-20.00000000000512
 30
0.0
 11
84.00000014897671
 21
-0.000000000005187
 31
0.0
  0
LINE
  5
4CF5
330
A
100
AcDbEntity
  8
0
  6
Continuous
 62
     7
370
     0
100
AcDbLine
 10
84.00000014897671
 20
-0.000000000005187
 30
0.0
 11
83.50000014897648
 21
-0.000000000005187
 31
0.0
  0
LINE
  5
4CF6
330
A
100
AcDbEntity
  8
0
  6
Continuous
 62
     7
370
     0
100
AcDbLine
 10
84.00000014897671
 20
-20.00000000000512
 30
0.0
 11
83.50000014897648
 21
-20.00000000000512
 31
0.0
  0
LINE
  5
4CF7
330
A
100
AcDbEntity
  8
0
  6
Continuous
 62
     7
370
     0
100
AcDbLine
 10
84.42820337925207
 20
19.99999999999481
 30
0.0
 11
86.50000014897647
 21
19.99999999999481
 31
0.0
  0
LINE
  5
4CF8
330
A
100
AcDbEntity
  8
0
  6
Continuous
 62
     7
370
     0
100
AcDbLine
 10
84.42820337925207
 20
-0.000000000005187
 30
0.0
 11
84.42820337925207
 21
19.99999999999481
 31
0.0
  0
LINE
  5
4CF9
330
A
100
AcDbEntity
  8
0
  6
Continuous
 62
     7
370
     0
100
AcDbLine
 10
86.50000014897647
 20
-20.00000000000512
 30
0.0
 11
86.50000014897647
 21
19.99999999999481
 31
0.0
  0
LINE
  5
4CFA
330
A
100
AcDbEntity
  8
0
  6
Continuous
 62
     7
370
     0
100
AcDbLine
 10
84.00000014897671
 20
-0.000000000005187
 30
0.0
 11
84.42820337925207
 21
-0.000000000005187
 31
0.0
  0
LINE
  5
4CFB
330
A
100
AcDbEntity
  8
0
  6
Continuous
 62
     7
370
     0
100
AcDbLine
 10
84.00000014897671
 20
-20.00000000000512
 30
0.0
 11
86.50000014897647
 21
-20.00000000000512
 31
0.0
  0
LINE
  5
4CFC
330
A
100
AcDbEntity
  8
0
  6
Continuous
 62
     7
370
     0
100
AcDbLine
 10
83.50000014897648
 20
19.99999999999481
 30
0.0
 11
84.42820337925207
 21
19.99999999999481
 31
0.0
  0
LINE
  5
4CFD
330
A
100
AcDbEntity
  8
0
  6
Continuous
 62
     9
370
     0
100
AcDbLine
 10
87.00000014897671
 20
-20.00000000000512
 30
0.0
 11
87.00000014897671
 21
19.99999999999481
 31
0.0
  0
LINE
  5
4CFE
330
A
100
AcDbEntity
  8
0
  6
Continuous
 62
     7
370
     0
100
AcDbLine
 10
87.00000014897671
 20
19.99999999999481
 30
0.0
 11
86.50000014897647
 21
19.99999999999481
 31
0.0
  0
LINE
  5
4CFF
330
A
100
AcDbEntity
  8
0
  6
Continuous
 62
     7
370
     0
100
AcDbLine
 10
87.00000014897671
 20
-20.00000000000512
 30
0.0
 11
86.50000014897647
 21
-20.00000000000512
 31
0.0
  0
LINE
  5
4D00
330
A
100
AcDbEntity
  8
0
  6
Continuous
 62
     7
370
     0
100
AcDbLine
 10
87.50000014897649
 20
-20.00000000000512
 30
0.0
 11
87.50000014897649
 21
19.99999999999481
 31
0.0
  0
LINE
  5
4D01
330
A
100
AcDbEntity
  8
0
  6
Continuous
 62
     7
370
     0
100
AcDbLine
 10
87.00000014897671
 20
19.99999999999481
 30
0.0
 11
87.50000014897649
 21
19.99999999999481
 31
0.0
  0
LINE
  5
4D02
330
A
100
AcDbEntity
  8
0
  6
Continuous
 62
     7
370
     0
100
AcDbLine
 10
87.00000014897671
 20
-20.00000000000512
 30
0.0
 11
87.50000014897649
 21
-20.00000000000512
 31
0.0
  0
LINE
  5
4D03
330
A
100
AcDbEntity
  8
0
  6
Continuous
 62
     7
370
     0
100
AcDbLine
 10
37.50000014897648
 20
19.99999999999481
 30
0.0
 11
37.50000014897648
 21
-20.00000000000512
 31
0.0
  0
LINE
  5
4D04
330
A
100
AcDbEntity
  8
0
  6
Continuous
 62
     7
370
     0
100
AcDbLine
 10
69.00000014897671
 20
19.99999999999481
 30
0.0
 11
37.50000014897648
 21
19.99999999999481
 31
0.0
  0
CIRCLE
  5
4D05
330
A
100
AcDbEntity
  8
0
  6
Continuous
 62
     7
370
     0
100
AcDbCircle
 10
52.50000014897671
 20
-0.000000000005187
 30
0.0
 40
2.650000000000041
  0
LINE
  5
4D06
330
A
100
AcDbEntity
  8
0
  6
Continuous
 62
     7
370
     0
100
AcDbLine
 10
69.00000014897671
 20
19.99999999999481
 30
0.0
 11
69.00000014897671
 21
-20.00000000000512
 31
0.0
  0
LINE
  5
4D07
330
A
100
AcDbEntity
  8
0
  6
Continuous
 62
     7
370
     0
100
AcDbLine
 10
69.00000014897671
 20
-20.00000000000512
 30
0.0
 11
37.50000014897648
 21
-20.00000000000512
 31
0.0
  0
LINE
  5
4D08
330
A
100
AcDbEntity
  8
0
  6
Continuous
 62
     9
370
     0
100
AcDbLine
 10
69.50000014897648
 20
19.99999999999481
 30
0.0
 11
69.50000014897648
 21
-20.00000000000512
 31
0.0
  0
LINE
  5
4D09
330
A
100
AcDbEntity
  8
0
  6
Continuous
 62
     7
370
     0
100
AcDbLine
 10
69.00000014897671
 20
19.99999999999481
 30
0.0
 11
69.50000014897648
 21
19.99999999999481
 31
0.0
  0
LINE
  5
4D0A
330
A
100
AcDbEntity
  8
0
  6
Continuous
 62
     7
370
     0
100
AcDbLine
 10
69.00000014897671
 20
-20.00000000000512
 30
0.0
 11
69.50000014897648
 21
-20.00000000000512
 31
0.0
  0
LINE
  5
4D0B
330
A
100
AcDbEntity
  8
0
  6
Continuous
 62
     7
370
     0
100
AcDbLine
 10
76.50000014897671
 20
19.99999999999481
 30
0.0
 11
76.50000014897671
 21
-20.00000000000512
 31
0.0
  0
LINE
  5
4D0C
330
A
100
AcDbEntity
  8
0
  6
Continuous
 62
     7
370
     0
100
AcDbLine
 10
76.50000014897671
 20
19.99999999999481
 30
0.0
 11
69.50000014897648
 21
19.99999999999481
 31
0.0
  0
LINE
  5
4D0D
330
A
100
AcDbEntity
  8
0
  6
Continuous
 62
     7
370
     0
100
AcDbLine
 10
76.50000014897671
 20
-20.00000000000512
 30
0.0
 11
69.50000014897648
 21
-20.00000000000512
 31
0.0
  0
LINE
  5
4D0E
330
A
100
AcDbEntity
  8
0
  6
Continuous
 62
     9
370
     0
100
AcDbLine
 10
77.00000014897671
 20
19.99999999999481
 30
0.0
 11
77.00000014897671
 21
-0.000000000005187
 31
0.0
  0
LINE
  5
4D0F
330
A
100
AcDbEntity
  8
0
  6
Continuous
 62
     7
370
     0
100
AcDbLine
 10
76.50000014897671
 20
-0.000000000005187
 30
0.0
 11
77.00000014897671
 21
-0.000000000005187
 31
0.0
  0
LINE
  5
4D10
330
A
100
AcDbEntity
  8
0
  6
Continuous
 62
     7
370
     0
100
AcDbLine
 10
76.50000014897671
 20
19.99999999999481
 30
0.0
 11
77.00000014897671
 21
19.99999999999481
 31
0.0
  0
LINE
  5
4D11
330
A
100
AcDbEntity
  8
0
  6
Continuous
 62
     7
370
     0
100
AcDbLine
 10
83.50000014897648
 20
19.99999999999481
 30
0.0
 11
77.50000014897671
 21
19.99999999999481
 31
0.0
  0
LINE
  5
4D12
330
A
100
AcDbEntity
  8
0
  6
Continuous
 62
     7
370
     0
100
AcDbLine
 10
83.50000014897648
 20
-0.000000000005187
 30
0.0
 11
77.50000014897671
 21
-0.000000000005187
 31
0.0
  0
LINE
  5
4D13
330
A
100
AcDbEntity
  8
0
  6
Continuous
 62
     9
370
     0
100
AcDbLine
 10
77.50000014897671
 20
19.99999999999481
 30
0.0
 11
77.50000014897671
 21
-0.000000000005187
 31
0.0
  0
LINE
  5
4D14
330
A
100
AcDbEntity
  8
0
  6
Continuous
 62
     7
370
     0
100
AcDbLine
 10
77.50000014897671
 20
-0.000000000005187
 30
0.0
 11
77.00000014897671
 21
-0.000000000005187
 31
0.0
  0
LINE
  5
4D15
330
A
100
AcDbEntity
  8
0
  6
Continuous
 62
     7
370
     0
100
AcDbLine
 10
77.50000014897671
 20
19.99999999999481
 30
0.0
 11
77.00000014897671
 21
19.99999999999481
 31
0.0
  0
LINE
  5
4D16
330
A
100
AcDbEntity
  8
0
  6
Continuous
 62
     9
370
     0
100
AcDbLine
 10
90.99999985110844
 20
2.099999999894066
 30
0.0
 11
88.50000014897672
 21
2.099999999982017
 31
0.0
  0
LINE
  5
4D17
330
A
100
AcDbEntity
  8
0
  6
Continuous
 62
     9
370
     0
100
AcDbLine
 10
88.50000014897672
 20
-2.100000000017956
 30
0.0
 11
90.99999985110844
 21
-2.100000000105922
 31
0.0
  0
LINE
  5
4D18
330
A
100
AcDbEntity
  8
0
  6
Continuous
 62
     7
370
     0
100
AcDbLine
 10
90.99999985118143
 20
2.499999999894072
 30
0.0
 11
88.50000014897672
 21
2.499999999982023
 31
0.0
  0
LINE
  5
4D19
330
A
100
AcDbEntity
  8
0
  6
Continuous
 62
     7
370
     0
100
AcDbLine
 10
88.50000014897672
 20
-2.50000000001799
 30
0.0
 11
90.99999985096941
 21
-2.500000000105913
 31
0.0
  0
LINE
  5
4D1A
330
A
100
AcDbEntity
  8
0
  6
Continuous
 62
     7
370
     0
100
AcDbLine
 10
91.50000005919094
 20
-5.999999999999985
 30
0.0
 11
96.50000005919094
 21
-5.999999999999985
 31
0.0
  0
LINE
  5
4D1B
330
A
100
AcDbEntity
  8
0
  6
Continuous
 62
     7
370
     0
100
AcDbLine
 10
96.50000005919094
 20
6.000000000000014
 30
0.0
 11
91.50000005919094
 21
6.000000000000014
 31
0.0
  0
LINE
  5
4D1C
330
A
100
AcDbEntity
  8
0
  6
Continuous
 62
     7
370
     0
100
AcDbLine
 10
90.99999985107535
 20
-4.899999999999977
 30
0.0
 11
91.50000005922482
 21
-4.899999999999977
 31
0.0
  0
LINE
  5
4D1D
330
A
100
AcDbEntity
  8
0
  6
Continuous
 62
     7
370
     0
100
AcDbLine
 10
91.50000005922482
 20
4.900000000000005
 30
0.0
 11
90.99999985107535
 21
4.900000000000005
 31
0.0
  0
LINE
  5
4D1E
330
A
100
AcDbEntity
  8
0
  6
Continuous
 62
     7
370
     0
100
AcDbLine
 10
83.50000014897648
 20
-0.000000000005187
 30
0.0
 11
83.50000014897648
 21
19.99999999999481
 31
0.0
  0
LINE
  5
4D1F
330
A
100
AcDbEntity
  8
0
  6
Continuous
 62
     7
370
     0
100
AcDbLine
 10
-111.5000000590495
 20
6.000000000000014
 30
0.0
 11
-111.5000000590495
 21
-5.999999999999985
 31
0.0
  0
LINE
  5
4D20
330
A
100
AcDbEntity
  8
0
  6
Continuous
 62
     7
370
     0
100
AcDbLine
 10
-122.4999998508442
 20
20.0
 30
0.0
 11
-122.4999998508442
 21
-20.00000000000001
 31
0.0
  0
LINE
  5
4D21
330
A
100
AcDbEntity
  8
0
  6
Continuous
 62
     7
370
     0
100
AcDbLine
 10
-119.4999998508219
 20
20.0
 30
0.0
 11
-122.4999998508442
 21
20.0
 31
0.0
  0
LINE
  5
4D22
330
A
100
AcDbEntity
  8
0
  6
Continuous
 62
     9
370
     0
100
AcDbLine
 10
-119.4999998508219
 20
20.0
 30
0.0
 11
-119.4999998508219
 21
-20.00000000000001
 31
0.0
  0
LINE
  5
4D23
330
A
100
AcDbEntity
  8
0
  6
Continuous
 62
     7
370
     0
100
AcDbLine
 10
-119.4999998508219
 20
-20.00000000000001
 30
0.0
 11
-122.4999998508442
 21
-20.00000000000001
 31
0.0
  0
LINE
  5
4D24
330
A
100
AcDbEntity
  8
0
  6
Continuous
 62
     7
370
     0
100
AcDbLine
 10
-117.4999998508219
 20
20.0
 30
0.0
 11
-117.4999998508217
 21
-20.00000000000001
 31
0.0
  0
LINE
  5
4D25
330
A
100
AcDbEntity
  8
0
  6
Continuous
 62
     7
370
     0
100
AcDbLine
 10
-117.4999998508217
 20
-20.00000000000001
 30
0.0
 11
-119.4999998508219
 21
-20.00000000000001
 31
0.0
  0
LINE
  5
4D26
330
A
100
AcDbEntity
  8
0
  6
Continuous
 62
     7
370
     0
100
AcDbLine
 10
-117.4999998508219
 20
20.0
 30
0.0
 11
-119.4999998508219
 21
20.0
 31
0.0
  0
LINE
  5
4D27
330
A
100
AcDbEntity
  8
0
  6
Continuous
 62
     7
370
     0
100
AcDbLine
 10
-110.9999998509339
 20
4.900000000000005
 30
0.0
 11
-110.9999998509339
 21
-4.899999999999977
 31
0.0
  0
LINE
  5
4D28
330
A
100
AcDbEntity
  8
0
  6
Continuous
 62
     9
370
     0
100
AcDbLine
 10
-117.500000148835
 20
-17.00000000000371
 30
0.0
 11
-116.500000148835
 21
-17.00000000000371
 31
0.0
  0
LINE
  5
4D29
330
A
100
AcDbEntity
  8
0
  6
Continuous
 62
     9
370
     0
100
AcDbLine
 10
-117.500000148835
 20
16.99999999999339
 30
0.0
 11
-116.500000148835
 21
16.99999999999339
 31
0.0
  0
LINE
  5
4D2A
330
A
100
AcDbEntity
  8
0
  6
Continuous
 62
     7
370
     0
100
AcDbLine
 10
-116.500000148835
 20
16.99999999999339
 30
0.0
 11
-116.500000148835
 21
-17.00000000000371
 31
0.0
  0
LINE
  5
4D2B
330
A
100
AcDbEntity
  8
0
  6
Continuous
 62
     7
370
     0
100
AcDbLine
 10
-117.500000148835
 20
18.99999999999319
 30
0.0
 11
-116.500000148835
 21
18.99999999999319
 31
0.0
  0
LINE
  5
4D2C
330
A
100
AcDbEntity
  8
0
  6
Continuous
 62
     7
370
     0
100
AcDbLine
 10
-116.500000148835
 20
18.99999999999336
 30
0.0
 11
-116.500000148835
 21
16.99999999999339
 31
0.0
  0
LINE
  5
4D2D
330
A
100
AcDbEntity
  8
0
  6
Continuous
 62
     7
370
     0
100
AcDbLine
 10
-117.500000148835
 20
-19.00000000000361
 30
0.0
 11
-116.500000148835
 21
-19.00000000000361
 31
0.0
  0
LINE
  5
4D2E
330
A
100
AcDbEntity
  8
0
  6
Continuous
 62
     7
370
     0
100
AcDbLine
 10
-116.500000148835
 20
-17.00000000000371
 30
0.0
 11
-116.500000148835
 21
-19.00000000000371
 31
0.0
  0
LINE
  5
4D2F
330
A
100
AcDbEntity
  8
0
  6
Continuous
 62
     9
370
     0
100
AcDbLine
 10
-107.500000148835
 20
16.99999999999477
 30
0.0
 11
-108.500000148835
 21
16.99999999999477
 31
0.0
  0
LINE
  5
4D30
330
A
100
AcDbEntity
  8
0
  6
Continuous
 62
     9
370
     0
100
AcDbLine
 10
-107.500000148835
 20
-17.00000000000511
 30
0.0
 11
-108.500000148835
 21
-17.00000000000511
 31
0.0
  0
LINE
  5
4D31
330
A
100
AcDbEntity
  8
0
  6
Continuous
 62
     7
370
     0
100
AcDbLine
 10
-108.500000148835
 20
-17.00000000000511
 30
0.0
 11
-108.500000148835
 21
16.99999999999477
 31
0.0
  0
LINE
  5
4D32
330
A
100
AcDbEntity
  8
0
  6
Continuous
 62
     7
370
     0
100
AcDbLine
 10
-107.500000148835
 20
18.99999999999477
 30
0.0
 11
-108.500000148835
 21
18.99999999999477
 31
0.0
  0
LINE
  5
4D33
330
A
100
AcDbEntity
  8
0
  6
Continuous
 62
     7
370
     0
100
AcDbLine
 10
-108.500000148835
 20
16.99999999999477
 30
0.0
 11
-108.500000148835
 21
18.99999999999475
 31
0.0
  0
LINE
  5
4D34
330
A
100
AcDbEntity
  8
0
  6
Continuous
 62
     7
370
     0
100
AcDbLine
 10
-107.500000148835
 20
-19.00000000000511
 30
0.0
 11
-108.500000148835
 21
-19.00000000000511
 31
0.0
  0
LINE
  5
4D35
330
A
100
AcDbEntity
  8
0
  6
Continuous
 62
     7
370
     0
100
AcDbLine
 10
-108.500000148835
 20
-19.00000000000511
 30
0.0
 11
-108.500000148835
 21
-17.00000000000511
 31
0.0
  0
LINE
  5
4D36
330
A
100
AcDbEntity
  8
0
  6
Continuous
 62
     7
370
     0
100
AcDbLine
 10
-98.55685625434126
 20
-0.000000000005187
 30
0.0
 11
-98.52811306134061
 21
-0.000000000005187
 31
0.0
  0
LINE
  5
4D37
330
A
100
AcDbEntity
  8
0
  6
Continuous
 62
     9
370
     0
100
AcDbLine
 10
-98.52811306134061
 20
-20.00000000000512
 30
0.0
 11
-98.52811306134061
 21
-0.000000000005187
 31
0.0
  0
LINE
  5
4D38
330
A
100
AcDbEntity
  8
0
  6
Continuous
 62
     7
370
     0
100
AcDbLine
 10
-105.500000148835
 20
-20.00000000000512
 30
0.0
 11
-98.52811306134061
 21
-20.00000000000512
 31
0.0
  0
LINE
  5
4D39
330
A
100
AcDbEntity
  8
0
  6
Continuous
 62
     7
370
     0
100
AcDbLine
 10
-105.500000148835
 20
-20.00000000000522
 30
0.0
 11
-105.500000148835
 21
19.99999999999481
 31
0.0
  0
LINE
  5
4D3A
330
A
100
AcDbEntity
  8
0
  6
Continuous
 62
     7
370
     0
100
AcDbLine
 10
-98.55685625434114
 20
19.99999999999481
 30
0.0
 11
-98.55685625434114
 21
-0.000000000005187
 31
0.0
  0
LINE
  5
4D42
330
A
100
AcDbEntity
  8
0
  6
Continuous
 62
     7
370
     0
100
AcDbLine
 10
-105.500000148835
 20
19.99999999999481
 30
0.0
 11
-98.55685625434114
 21
19.99999999999481
 31
0.0
  0
LINE
  5
4D43
330
A
100
AcDbEntity
  8
0
  6
Continuous
 62
     7
370
     0
100
AcDbLine
 10
-107.500000148835
 20
-20.00000000000522
 30
0.0
 11
-105.500000148835
 21
-20.00000000000522
 31
0.0
  0
LINE
  5
4D44
330
A
100
AcDbEntity
  8
0
  6
Continuous
 62
     7
370
     0
100
AcDbLine
 10
-107.500000148835
 20
19.99999999999481
 30
0.0
 11
-105.500000148835
 21
19.99999999999481
 31
0.0
  0
LINE
  5
4D45
330
A
100
AcDbEntity
  8
0
  6
Continuous
 62
     7
370
     0
100
AcDbLine
 10
-107.500000148835
 20
-20.00000000000522
 30
0.0
 11
-107.500000148835
 21
19.99999999999481
 31
0.0
  0
LINE
  5
4D59
330
A
100
AcDbEntity
  8
0
  6
Continuous
 62
     9
370
     0
100
AcDbLine
 10
-98.02906801316396
 20
-20.00000000000512
 30
0.0
 11
-98.02906801316396
 21
-0.000000000005187
 31
0.0
  0
LINE
  5
4D5A
330
A
100
AcDbEntity
  8
0
  6
Continuous
 62
     7
370
     0
100
AcDbLine
 10
-98.02906801316396
 20
-0.000000000005187
 30
0.0
 11
-98.52811306134061
 21
-0.000000000005187
 31
0.0
  0
LINE
  5
4D5B
330
A
100
AcDbEntity
  8
0
  6
Continuous
 62
     7
370
     0
100
AcDbLine
 10
-98.02906801316396
 20
-20.00000000000512
 30
0.0
 11
-98.52811306134061
 21
-20.00000000000512
 31
0.0
  0
LINE
  5
4D5C
330
A
100
AcDbEntity
  8
0
  6
Continuous
 62
     9
370
     0
100
AcDbLine
 10
-97.50000014883505
 20
-20.00000000000512
 30
0.0
 11
-97.50000014883505
 21
-0.000000000005187
 31
0.0
  0
LINE
  5
4D5D
330
A
100
AcDbEntity
  8
0
  6
Continuous
 62
     7
370
     0
100
AcDbLine
 10
-98.02906801316396
 20
-0.000000000005187
 30
0.0
 11
-97.50000014883505
 21
-0.000000000005187
 31
0.0
  0
LINE
  5
4D5E
330
A
100
AcDbEntity
  8
0
  6
Continuous
 62
     7
370
     0
100
AcDbLine
 10
-98.02906801316396
 20
-20.00000000000512
 30
0.0
 11
-97.50000014883505
 21
-20.00000000000512
 31
0.0
  0
LINE
  5
4D5F
330
A
100
AcDbEntity
  8
0
  6
Continuous
 62
     7
370
     0
100
AcDbLine
 10
-97.50000014883505
 20
-0.000000000005187
 30
0.0
 11
-91.50000014883506
 21
-0.000000000005187
 31
0.0
  0
LINE
  5
4D60
330
A
100
AcDbEntity
  8
0
  6
Continuous
 62
     7
370
     0
100
AcDbLine
 10
-97.50000014883505
 20
-20.00000000000512
 30
0.0
 11
-91.50000014883506
 21
-20.00000000000512
 31
0.0
  0
LINE
  5
4D61
330
A
100
AcDbEntity
  8
0
  6
Continuous
 62
     7
370
     0
100
AcDbLine
 10
-91.50000014883506
 20
19.99999999999481
 30
0.0
 11
-98.55685625434114
 21
19.99999999999481
 31
0.0
  0
LINE
  5
4D62
330
A
100
AcDbEntity
  8
0
  6
Continuous
 62
     7
370
     0
100
AcDbLine
 10
-91.50000014883506
 20
19.99999999999481
 30
0.0
 11
-91.50000014883506
 21
-0.000000000005187
 31
0.0
  0
LINE
  5
4D63
330
A
100
AcDbEntity
  8
0
  6
Continuous
 62
     7
370
     0
100
AcDbLine
 10
-91.50000014883506
 20
-0.000000000005187
 30
0.0
 11
-97.50000014883505
 21
-0.000000000005187
 31
0.0
  0
LINE
  5
4D64
330
A
100
AcDbEntity
  8
0
  6
Continuous
 62
     7
370
     0
100
AcDbLine
 10
-97.50000014883505
 20
-0.000000000005187
 30
0.0
 11
-98.02906801316408
 21
-0.000000000005187
 31
0.0
  0
LINE
  5
4D65
330
A
100
AcDbEntity
  8
0
  6
Continuous
 62
     9
370
     0
100
AcDbLine
 10
-91.03088768499867
 20
19.99999999999481
 30
0.0
 11
-91.03088768499867
 21
-0.000000000005187
 31
0.0
  0
LINE
  5
4D66
330
A
100
AcDbEntity
  8
0
  6
Continuous
 62
     7
370
     0
100
AcDbLine
 10
-91.50000014883506
 20
-0.000000000005187
 30
0.0
 11
-91.03088768499867
 21
-0.000000000005187
 31
0.0
  0
LINE
  5
4D67
330
A
100
AcDbEntity
  8
0
  6
Continuous
 62
     7
370
     0
100
AcDbLine
 10
-91.50000014883506
 20
19.99999999999481
 30
0.0
 11
-91.03088768499867
 21
19.99999999999481
 31
0.0
  0
LINE
  5
4D68
330
A
100
AcDbEntity
  8
0
  6
Continuous
 62
     7
370
     0
100
AcDbLine
 10
-57.50000014883505
 20
19.99999999999481
 30
0.0
 11
-57.50000014883505
 21
-20.00000000000512
 31
0.0
  0
LINE
  5
4D69
330
A
100
AcDbEntity
  8
0
  6
Continuous
 62
     7
370
     0
100
AcDbLine
 10
-57.50000014883505
 20
-20.00000000000512
 30
0.0
 11
-90.58024183136081
 21
-20.00000000000512
 31
0.0
  0
LINE
  5
4D6A
330
A
100
AcDbEntity
  8
0
  6
Continuous
 62
     7
370
     0
100
AcDbLine
 10
-90.58024183136058
 20
-20.00000000000512
 30
0.0
 11
-90.58024183136081
 21
-0.000000000005187
 31
0.0
  0
CIRCLE
  5
4D6B
330
A
100
AcDbEntity
  8
0
  6
Continuous
 62
     7
370
     0
100
AcDbCircle
 10
-72.50002180051239
 20
-0.0007686114220604
 30
0.0
 40
4.99997840739916
  0
LINE
  5
4D6C
330
A
100
AcDbEntity
  8
0
  6
Continuous
 62
     7
370
     0
100
AcDbLine
 10
-90.58024183136081
 20
-0.0000000000051585
 30
0.0
 11
-91.03088768499867
 21
-0.0000000000051585
 31
0.0
  0
LINE
  5
4D6D
330
A
100
AcDbEntity
  8
0
  6
Continuous
 62
     7
370
     0
100
AcDbLine
 10
-57.50000014883505
 20
19.99999999999482
 30
0.0
 11
-91.03088768499867
 21
19.99999999999481
 31
0.0
  0
LINE
  5
4D6E
330
A
100
AcDbEntity
  8
0
  6
Continuous
 62
     7
370
     0
100
AcDbLine
 10
-90.58024183136081
 20
-20.00000000000512
 30
0.0
 11
-91.50000014883506
 21
-20.00000000000512
 31
0.0
  0
CIRCLE
  5
4D6F
330
A
100
AcDbEntity
  8
0
  6
Continuous
 62
     7
370
     0
100
AcDbCircle
 10
-72.50000014883505
 20
-0.000000000005187
 30
0.0
 40
2.650000000000041
  0
LINE
  5
4D70
330
A
100
AcDbEntity
  8
0
  6
Continuous
 62
     9
370
     0
100
AcDbLine
 10
-110.9999998509008
 20
-2.100000000105922
 30
0.0
 11
-108.500000148835
 21
-2.100000000017956
 31
0.0
  0
LINE
  5
4D71
330
A
100
AcDbEntity
  8
0
  6
Continuous
 62
     9
370
     0
100
AcDbLine
 10
-108.500000148835
 20
2.099999999982017
 30
0.0
 11
-110.9999998509008
 21
2.099999999894066
 31
0.0
  0
LINE
  5
4D72
330
A
100
AcDbEntity
  8
0
  6
Continuous
 62
     7
370
     0
100
AcDbLine
 10
-110.9999998508278
 20
-2.500000000105941
 30
0.0
 11
-108.500000148835
 21
-2.500000000017962
 31
0.0
  0
LINE
  5
4D73
330
A
100
AcDbEntity
  8
0
  6
Continuous
 62
     7
370
     0
100
AcDbLine
 10
-108.500000148835
 20
2.499999999982023
 30
0.0
 11
-110.9999998510399
 21
2.499999999894072
 31
0.0
  0
LINE
  5
4D74
330
A
100
AcDbEntity
  8
0
  6
Continuous
 62
     7
370
     0
100
AcDbLine
 10
-111.5000000590495
 20
6.000000000000014
 30
0.0
 11
-116.5000000590494
 21
6.000000000000014
 31
0.0
  0
LINE
  5
4D75
330
A
100
AcDbEntity
  8
0
  6
Continuous
 62
     7
370
     0
100
AcDbLine
 10
-116.5000000590494
 20
-5.999999999999985
 30
0.0
 11
-111.5000000590495
 21
-5.999999999999985
 31
0.0
  0
LINE
  5
4D76
330
A
100
AcDbEntity
  8
0
  6
Continuous
 62
     7
370
     0
100
AcDbLine
 10
-110.9999998509339
 20
4.900000000000005
 30
0.0
 11
-111.5000000590158
 21
4.900000000000005
 31
0.0
  0
LINE
  5
4D77
330
A
100
AcDbEntity
  8
0
  6
Continuous
 62
     7
370
     0
100
AcDbLine
 10
-111.5000000590158
 20
-4.899999999999977
 30
0.0
 11
-110.9999998509339
 21
-4.899999999999977
 31
0.0
  0
LINE
  5
4D78
330
A
100
AcDbEntity
  8
0
  6
Continuous
 62
     7
370
     0
100
AcDbLine
 10
-91.50000014883506
 20
-20.00000000000512
 30
0.0
 11
-91.50000014883506
 21
-0.000000000005187
 31
0.0
  0
LINE
  5
4D79
330
A
100
AcDbEntity
  8
0
  6
Continuous
 62
     7
370
     0
100
AcDbLine
 10
6.000000000046497
 20
99.00000005905926
 30
0.0
 11
-5.999999999953502
 21
99.00000005917604
 31
0.0
  0
LINE
  5
4D7A
330
A
100
AcDbEntity
  8
0
  6
Continuous
 62
     7
370
     0
100
AcDbLine
 10
-14.99999999989393
 20
106.999999851114
 30
0.0
 11
-14.99999999990871
 21
104.999999851114
 31
0.0
  0
ARC
  5
4D7B
330
A
100
AcDbEntity
  8
0
  6
Continuous
 62
     7
370
     0
100
AcDbCircle
 10
-11.99999999989382
 20
106.9999998510916
 30
0.0
 40
3.000000000000001
100
AcDbArc
 50
89.9999999995701
 51
179.9999999995717
  0
LINE
  5
4D7C
330
A
100
AcDbEntity
  8
0
  6
Continuous
 62
     7
370
     0
100
AcDbLine
 10
12.00000000012858
 20
109.9999998509125
 30
0.0
 11
-11.99999999987142
 21
109.9999998510916
 31
0.0
  0
ARC
  5
4D7D
330
A
100
AcDbEntity
  8
0
  6
Continuous
 62
     7
370
     0
100
AcDbCircle
 10
12.00000000010607
 20
106.9999998509125
 30
0.0
 40
3.000000000000001
100
AcDbArc
 50
359.9999999995725
 51
89.9999999995701
  0
LINE
  5
4D7E
330
A
100
AcDbEntity
  8
0
  6
Continuous
 62
     7
370
     0
100
AcDbLine
 10
15.00000000009129
 20
104.9999998508901
 30
0.0
 11
15.00000000010607
 21
106.9999998508901
 31
0.0
  0
LINE
  5
4D7F
330
A
100
AcDbEntity
  8
0
  6
Continuous
 62
     7
370
     0
100
AcDbLine
 10
-14.99999999990871
 20
104.999999851114
 30
0.0
 11
15.00000000009129
 21
104.9999998508901
 31
0.0
  0
LINE
  5
4D80
330
A
100
AcDbEntity
  8
0
  6
Continuous
 62
     7
370
     0
100
AcDbLine
 10
4.900000000042723
 20
98.4999998509655
 30
0.0
 11
-4.899999999957231
 21
98.49999985103863
 31
0.0
  0
LINE
  5
4D81
330
A
100
AcDbEntity
  8
0
  6
Continuous
 62
     9
370
     0
100
AcDbLine
 10
12.00000000003422
 20
105.0000001489031
 30
0.0
 11
12.00000000003422
 21
104.0000001489032
 31
0.0
  0
LINE
  5
4D82
330
A
100
AcDbEntity
  8
0
  6
Continuous
 62
     7
370
     0
100
AcDbLine
 10
14.00000000003422
 20
105.0000001489031
 30
0.0
 11
14.00000000003422
 21
104.0000001489032
 31
0.0
  0
LINE
  5
4D83
330
A
100
AcDbEntity
  8
0
  6
Continuous
 62
     7
370
     0
100
AcDbLine
 10
14.00000000003433
 20
104.0000001489032
 30
0.0
 11
12.00000000003422
 21
104.0000001489032
 31
0.0
  0
LINE
  5
4D84
330
A
100
AcDbEntity
  8
0
  6
Continuous
 62
     9
370
     0
100
AcDbLine
 10
-11.9999999999635
 20
105.0000001489031
 30
0.0
 11
-11.9999999999635
 21
104.0000001489032
 31
0.0
  0
LINE
  5
4D85
330
A
100
AcDbEntity
  8
0
  6
Continuous
 62
     7
370
     0
100
AcDbLine
 10
12.00000000003422
 20
104.0000001489032
 30
0.0
 11
-11.9999999999635
 21
104.0000001489032
 31
0.0
  0
LINE
  5
4D86
330
A
100
AcDbEntity
  8
0
  6
Continuous
 62
     7
370
     0
100
AcDbLine
 10
-13.99999999996351
 20
105.0000001489031
 30
0.0
 11
-13.99999999996351
 21
104.0000001489032
 31
0.0
  0
LINE
  5
4D87
330
A
100
AcDbEntity
  8
0
  6
Continuous
 62
     7
370
     0
100
AcDbLine
 10
-11.9999999999635
 20
104.0000001489032
 30
0.0
 11
-13.99999999996373
 21
104.0000001489032
 31
0.0
  0
LINE
  5
4D88
330
A
100
AcDbEntity
  8
0
  6
Continuous
 62
     7
370
     0
100
AcDbLine
 10
14.00000000003524
 20
95.00000014890321
 30
0.0
 11
14.00000000003524
 21
96.00000014890321
 31
0.0
  0
LINE
  5
4D89
330
A
100
AcDbEntity
  8
0
  6
Continuous
 62
     7
370
     0
100
AcDbLine
 10
12.00000000003524
 20
96.00000014890321
 30
0.0
 11
14.00000000003524
 21
96.00000014890321
 31
0.0
  0
LINE
  5
4D8A
330
A
100
AcDbEntity
  8
0
  6
Continuous
 62
     9
370
     0
100
AcDbLine
 10
12.00000000003524
 20
95.00000014890321
 30
0.0
 11
12.00000000003524
 21
96.00000014890321
 31
0.0
  0
LINE
  5
4D8B
330
A
100
AcDbEntity
  8
0
  6
Continuous
 62
     7
370
     0
100
AcDbLine
 10
-11.99999999996475
 20
96.00000014890321
 30
0.0
 11
12.00000000003524
 21
96.00000014890321
 31
0.0
  0
LINE
  5
4D8C
330
A
100
AcDbEntity
  8
0
  6
Continuous
 62
     9
370
     0
100
AcDbLine
 10
-11.99999999996475
 20
95.00000014890321
 30
0.0
 11
-11.99999999996475
 21
96.00000014890321
 31
0.0
  0
LINE
  5
4D8D
330
A
100
AcDbEntity
  8
0
  6
Continuous
 62
     7
370
     0
100
AcDbLine
 10
-13.99999999996464
 20
95.00000014890321
 30
0.0
 11
-13.99999999996464
 21
96.00000014890321
 31
0.0
  0
LINE
  5
4D8E
330
A
100
AcDbEntity
  8
0
  6
Continuous
 62
     7
370
     0
100
AcDbLine
 10
-13.99999999996464
 20
96.00000014890321
 30
0.0
 11
-11.99999999996475
 21
96.00000014890321
 31
0.0
  0
LINE
  5
4D8F
330
A
100
AcDbEntity
  8
0
  6
Continuous
 62
     7
370
     0
100
AcDbLine
 10
-24.99999999996465
 20
91.00000014890321
 30
0.0
 11
-24.49999999996464
 21
91.00000014890321
 31
0.0
  0
ARC
  5
4D90
330
A
100
AcDbEntity
  8
0
  6
Continuous
 62
     7
370
     0
100
AcDbCircle
 10
-24.49999999996464
 20
91.50000014890322
 30
0.0
 40
0.5000000000000006
100
AcDbArc
 50
270.0
 51
0.0
  0
LINE
  5
4D91
330
A
100
AcDbEntity
  8
0
  6
Continuous
 62
     7
370
     0
100
AcDbLine
 10
-23.99999999996464
 20
91.50000014890322
 30
0.0
 11
-23.99999999996464
 21
94.00000014890322
 31
0.0
  0
LINE
  5
4D92
330
A
100
AcDbEntity
  8
0
  6
Continuous
 62
     7
370
     0
100
AcDbLine
 10
-23.99999999996464
 20
94.00000014890322
 30
0.0
 11
-16.99999999996464
 21
94.00000014890322
 31
0.0
  0
ARC
  5
4D93
330
A
100
AcDbEntity
  8
0
  6
Continuous
 62
     7
370
     0
100
AcDbCircle
 10
-16.99999999996464
 20
94.50000014890321
 30
0.0
 40
0.5000000000000006
100
AcDbArc
 50
270.0
 51
0.0
  0
LINE
  5
4D94
330
A
100
AcDbEntity
  8
0
  6
Continuous
 62
     7
370
     0
100
AcDbLine
 10
-16.49999999996464
 20
94.50000014890321
 30
0.0
 11
-16.49999999996464
 21
95.00000014890321
 31
0.0
  0
LINE
  5
4D95
330
A
100
AcDbEntity
  8
0
  6
Continuous
 62
     7
370
     0
100
AcDbLine
 10
-16.49999999996464
 20
95.00000014890321
 30
0.0
 11
15.00000000003524
 21
95.00000014890321
 31
0.0
  0
ARC
  5
4D96
330
A
100
AcDbEntity
  8
0
  6
Continuous
 62
     7
370
     0
100
AcDbCircle
 10
-25.94389621539097
 20
205.7989246238307
 30
0.0
 40
120.0
100
AcDbArc
 50
273.5417059830805
 51
289.9499487039268
  0
ARC
  5
4D97
330
A
100
AcDbEntity
  8
0
  6
Continuous
 62
     7
370
     0
100
AcDbCircle
 10
-18.49999999996464
 20
85.52906801323208
 30
0.0
 40
0.4999999999999955
100
AcDbArc
 50
93.54170598307398
 51
179.9999999999951
  0
LINE
  5
4D98
330
A
100
AcDbEntity
  8
0
  6
Continuous
 62
     7
370
     0
100
AcDbLine
 10
-18.99999999996464
 20
85.52906801323208
 30
0.0
 11
-18.99999999996464
 21
85.00000014890321
 31
0.0
  0
ARC
  5
4D99
330
A
100
AcDbEntity
  8
0
  6
Continuous
 62
     7
370
     0
100
AcDbCircle
 10
-24.99999999996465
 20
85.00000014890321
 30
0.0
 40
6.000000000000004
100
AcDbArc
 50
90.0
 51
0.0
  0
LINE
  5
4D9A
330
A
100
AcDbEntity
  8
0
  6
Continuous
 62
     7
370
     0
100
AcDbLine
 10
15.00000000003524
 20
95.00000014890321
 30
0.0
 11
15.00000000003524
 21
93.0000001489032
 31
0.0
  0
LINE
  5
4D9B
330
A
100
AcDbEntity
  8
0
  6
Continuous
 62
     7
370
     0
100
AcDbLine
 10
-34.99999999996465
 20
45.0000001489032
 30
0.0
 11
-32.99999999996464
 21
45.0000001489032
 31
0.0
  0
LINE
  5
4D9C
330
A
100
AcDbEntity
  8
0
  6
Continuous
 62
     7
370
     0
100
AcDbLine
 10
-34.99999999996465
 20
76.50000014890321
 30
0.0
 11
-34.99999999996465
 21
45.0000001489032
 31
0.0
  0
LINE
  5
4D9D
330
A
100
AcDbEntity
  8
0
  6
Continuous
 62
     7
370
     0
100
AcDbLine
 10
-34.49999999996464
 20
76.50000014890321
 30
0.0
 11
-34.99999999996465
 21
76.50000014890321
 31
0.0
  0
ARC
  5
4D9E
330
A
100
AcDbEntity
  8
0
  6
Continuous
 62
     7
370
     0
100
AcDbCircle
 10
-34.49999999996464
 20
77.00000014890321
 30
0.0
 40
0.5000000000000561
100
AcDbArc
 50
270.0
 51
0.0
  0
LINE
  5
4D9F
330
A
100
AcDbEntity
  8
0
  6
Continuous
 62
     7
370
     0
100
AcDbLine
 10
-33.99999999996464
 20
84.00000014890322
 30
0.0
 11
-33.99999999996464
 21
77.00000014890321
 31
0.0
  0
LINE
  5
4DA0
330
A
100
AcDbEntity
  8
0
  6
Continuous
 62
     7
370
     0
100
AcDbLine
 10
-31.92820323024023
 20
84.00000014890322
 30
0.0
 11
-33.99999999996464
 21
84.00000014890322
 31
0.0
  0
ARC
  5
4DA1
330
A
100
AcDbEntity
  8
0
  6
Continuous
 62
     7
370
     0
100
AcDbCircle
 10
-24.99999999996465
 20
85.00000014890321
 30
0.0
 40
7.000000000000031
100
AcDbArc
 50
188.2132107017382
 51
261.3163089940884
  0
ARC
  5
4DA2
330
A
100
AcDbEntity
  8
0
  6
Continuous
 62
     7
370
     0
100
AcDbCircle
 10
-145.7989244748922
 20
85.94389636432946
 30
0.0
 40
120.0
100
AcDbArc
 50
340.0500512960754
 51
356.242689119119
  0
ARC
  5
4DA3
330
A
100
AcDbEntity
  8
0
  6
Continuous
 62
     7
370
     0
100
AcDbCircle
 10
-31.49999999996464
 20
84.50000014890321
 30
0.0
 40
0.5000000000000561
100
AcDbArc
 50
270.0
 51
0.0
  0
LINE
  5
4DA4
330
A
100
AcDbEntity
  8
0
  6
Continuous
 62
     7
370
     0
100
AcDbLine
 10
-30.99999999996465
 20
85.00000014890321
 30
0.0
 11
-30.99999999996465
 21
84.50000014890321
 31
0.0
  0
LINE
  5
4DA5
330
A
100
AcDbEntity
  8
0
  6
Continuous
 62
     7
370
     0
100
AcDbLine
 10
-25.52906786429355
 20
79.00000014890321
 30
0.0
 11
-24.99999999996465
 21
79.00000014890321
 31
0.0
  0
ARC
  5
4DA6
330
A
100
AcDbEntity
  8
0
  6
Continuous
 62
     7
370
     0
100
AcDbCircle
 10
-25.52906786429355
 20
78.50000014890321
 30
0.0
 40
0.5000000000000128
100
AcDbArc
 50
90.0
 51
176.4582940169243
  0
LINE
  5
4DA7
330
A
100
AcDbEntity
  8
0
  6
Continuous
 62
     7
370
     0
100
AcDbLine
 10
-31.49999999996464
 20
84.00000014890322
 30
0.0
 11
-31.92820323024023
 21
84.00000014890322
 31
0.0
  0
ARC
  5
4DA8
330
A
100
AcDbEntity
  8
0
  6
Continuous
 62
     7
370
     0
100
AcDbCircle
 10
-145.7989244748922
 20
85.94389636432946
 30
0.0
 40
119.9999999999999
100
AcDbArc
 50
356.2426891191182
 51
356.4582940169219
  0
LINE
  5
4DA9
330
A
100
AcDbEntity
  8
0
  6
Continuous
 62
     9
370
     0
100
AcDbLine
 10
-2.099999999864053
 20
98.49999985101774
 30
0.0
 11
-2.099999999952046
 21
96.00000014890321
 31
0.0
  0
LINE
  5
4DAA
330
A
100
AcDbEntity
  8
0
  6
Continuous
 62
     9
370
     0
100
AcDbLine
 10
2.100000000047998
 20
96.00000014890321
 30
0.0
 11
2.100000000136219
 21
98.49999985098639
 31
0.0
  0
LINE
  5
4DAB
330
A
100
AcDbEntity
  8
0
  6
Continuous
 62
     7
370
     0
100
AcDbLine
 10
-2.499999999863803
 20
98.49999985111407
 30
0.0
 11
-2.49999999995191
 21
96.00000014890321
 31
0.0
  0
LINE
  5
4DAC
330
A
100
AcDbEntity
  8
0
  6
Continuous
 62
     7
370
     0
100
AcDbLine
 10
2.500000000047975
 20
96.00000014890321
 30
0.0
 11
2.500000000136083
 21
98.49999985089006
 31
0.0
  0
LINE
  5
4DAD
330
A
100
AcDbEntity
  8
0
  6
Continuous
 62
     7
370
     0
100
AcDbLine
 10
6.000000000046497
 20
99.00000005905926
 30
0.0
 11
6.000000000095155
 21
104.0000000590592
 31
0.0
  0
LINE
  5
4DAE
330
A
100
AcDbEntity
  8
0
  6
Continuous
 62
     7
370
     0
100
AcDbLine
 10
-5.999999999904844
 20
104.000000059176
 30
0.0
 11
-5.999999999953502
 21
99.00000005917604
 31
0.0
  0
LINE
  5
4DAF
330
A
100
AcDbEntity
  8
0
  6
Continuous
 62
     7
370
     0
100
AcDbLine
 10
4.900000000042723
 20
98.4999998509655
 30
0.0
 11
4.900000000046475
 21
99.00000005906996
 31
0.0
  0
LINE
  5
4DB0
330
A
100
AcDbEntity
  8
0
  6
Continuous
 62
     7
370
     0
100
AcDbLine
 10
-4.899999999953593
 20
99.00000005916535
 30
0.0
 11
-4.899999999957231
 21
98.49999985103863
 31
0.0
  0
LINE
  5
4DB1
330
A
100
AcDbEntity
  8
0
  6
Continuous
 62
     7
370
     0
100
AcDbLine
 10
-14.99999999989393
 20
20.00000000000003
 30
0.0
 11
-14.99999999989393
 21
-19.9999999999999
 31
0.0
  0
LINE
  5
4DB2
330
A
100
AcDbEntity
  8
0
  6
Continuous
 62
     7
370
     0
100
AcDbLine
 10
-11.99999999987142
 20
20.00000000000003
 30
0.0
 11
-14.99999999989393
 21
20.00000000000003
 31
0.0
  0
LINE
  5
4DB3
330
A
100
AcDbEntity
  8
0
  6
Continuous
 62
     9
370
     0
100
AcDbLine
 10
-11.99999999987142
 20
20.00000000000003
 30
0.0
 11
-11.99999999987142
 21
-19.9999999999999
 31
0.0
  0
LINE
  5
4DB4
330
A
100
AcDbEntity
  8
0
  6
Continuous
 62
     7
370
     0
100
AcDbLine
 10
-11.99999999987142
 20
-19.9999999999999
 30
0.0
 11
-14.99999999989393
 21
-19.9999999999999
 31
0.0
  0
LINE
  5
4DB5
330
A
100
AcDbEntity
  8
0
  6
Continuous
 62
     9
370
     0
100
AcDbLine
 10
12.00000000012869
 20
20.0
 30
0.0
 11
12.00000000012858
 21
-20.00000000000001
 31
0.0
  0
LINE
  5
4DB6
330
A
100
AcDbEntity
  8
0
  6
Continuous
 62
     7
370
     0
100
AcDbLine
 10
12.00000000012858
 20
-20.00000000000001
 30
0.0
 11
-11.99999999987142
 21
-19.9999999999999
 31
0.0
  0
LINE
  5
4DB7
330
A
100
AcDbEntity
  8
0
  6
Continuous
 62
     7
370
     0
100
AcDbLine
 10
12.00000000012869
 20
20.0
 30
0.0
 11
-11.99999999987142
 21
20.00000000000003
 31
0.0
  0
LINE
  5
4DB8
330
A
100
AcDbEntity
  8
0
  6
Continuous
 62
     7
370
     0
100
AcDbLine
 10
15.00000000010607
 20
20.0
 30
0.0
 11
15.00000000010607
 21
-20.00000000000001
 31
0.0
  0
LINE
  5
4DB9
330
A
100
AcDbEntity
  8
0
  6
Continuous
 62
     7
370
     0
100
AcDbLine
 10
15.00000000010607
 20
-20.00000000000001
 30
0.0
 11
12.00000000012858
 21
-20.00000000000001
 31
0.0
  0
LINE
  5
4DBA
330
A
100
AcDbEntity
  8
0
  6
Continuous
 62
     7
370
     0
100
AcDbLine
 10
15.00000000010607
 20
20.0
 30
0.0
 11
12.00000000012869
 21
20.0
 31
0.0
  0
LINE
  5
4DBB
330
A
100
AcDbEntity
  8
0
  6
Continuous
 62
     7
370
     0
100
AcDbLine
 10
-16.49999999996464
 20
-20.00000000000512
 30
0.0
 11
-14.99999999989393
 21
-20.00000000000262
 31
0.0
  0
LINE
  5
4DBC
330
A
100
AcDbEntity
  8
0
  6
Continuous
 62
     7
370
     0
100
AcDbLine
 10
-16.49999999996464
 20
-20.00000000000512
 30
0.0
 11
-16.49999999996464
 21
19.99999999999481
 31
0.0
  0
LINE
  5
4DBD
330
A
100
AcDbEntity
  8
0
  6
Continuous
 62
     7
370
     0
100
AcDbLine
 10
-16.49999999996464
 20
19.99999999999481
 30
0.0
 11
-14.99999999989393
 21
19.99999999999741
 31
0.0
  0
LINE
  5
4DBE
330
A
100
AcDbEntity
  8
0
  6
Continuous
 62
     9
370
     0
100
AcDbLine
 10
-16.99999999996464
 20
-20.00000000000512
 30
0.0
 11
-16.99999999996464
 21
19.99999999999481
 31
0.0
  0
LINE
  5
4DBF
330
A
100
AcDbEntity
  8
0
  6
Continuous
 62
     7
370
     0
100
AcDbLine
 10
-16.49999999996464
 20
-20.00000000000512
 30
0.0
 11
-16.99999999996464
 21
-20.00000000000512
 31
0.0
  0
LINE
  5
4DC0
330
A
100
AcDbEntity
  8
0
  6
Continuous
 62
     7
370
     0
100
AcDbLine
 10
-16.49999999996464
 20
19.99999999999481
 30
0.0
 11
-16.99999999996464
 21
19.99999999999481
 31
0.0
  0
LINE
  5
4DC1
330
A
100
AcDbEntity
  8
0
  6
Continuous
 62
     7
370
     0
100
AcDbLine
 10
-23.99999999996464
 20
-20.00000000000512
 30
0.0
 11
-23.99999999996464
 21
19.99999999999481
 31
0.0
  0
LINE
  5
4DC2
330
A
100
AcDbEntity
  8
0
  6
Continuous
 62
     7
370
     0
100
AcDbLine
 10
-23.99999999996464
 20
-20.00000000000512
 30
0.0
 11
-16.99999999996464
 21
-20.00000000000512
 31
0.0
  0
LINE
  5
4DC3
330
A
100
AcDbEntity
  8
0
  6
Continuous
 62
     7
370
     0
100
AcDbLine
 10
-23.99999999996464
 20
19.99999999999481
 30
0.0
 11
-16.99999999996464
 21
19.99999999999481
 31
0.0
  0
LINE
  5
4DC4
330
A
100
AcDbEntity
  8
0
  6
Continuous
 62
     9
370
     0
100
AcDbLine
 10
-24.49999999996464
 20
-20.00000000000512
 30
0.0
 11
-24.49999999996464
 21
-0.000000000005187
 31
0.0
  0
LINE
  5
4DC5
330
A
100
AcDbEntity
  8
0
  6
Continuous
 62
     7
370
     0
100
AcDbLine
 10
-23.99999999996464
 20
-0.000000000005187
 30
0.0
 11
-24.49999999996464
 21
-0.000000000005187
 31
0.0
  0
LINE
  5
4DC6
330
A
100
AcDbEntity
  8
0
  6
Continuous
 62
     7
370
     0
100
AcDbLine
 10
-23.99999999996464
 20
-20.00000000000512
 30
0.0
 11
-24.49999999996464
 21
-20.00000000000512
 31
0.0
  0
LINE
  5
4DC7
330
A
100
AcDbEntity
  8
0
  6
Continuous
 62
     9
370
     0
100
AcDbLine
 10
-24.99999999996465
 20
-20.00000000000512
 30
0.0
 11
-24.99999999996465
 21
-0.000000000005187
 31
0.0
  0
LINE
  5
4DC8
330
A
100
AcDbEntity
  8
0
  6
Continuous
 62
     7
370
     0
100
AcDbLine
 10
-24.99999999996465
 20
-0.000000000005187
 30
0.0
 11
-24.49999999996464
 21
-0.000000000005187
 31
0.0
  0
LINE
  5
4DC9
330
A
100
AcDbEntity
  8
0
  6
Continuous
 62
     7
370
     0
100
AcDbLine
 10
-24.99999999996465
 20
-20.00000000000512
 30
0.0
 11
-24.49999999996464
 21
-20.00000000000512
 31
0.0
  0
LINE
  5
4DCA
330
A
100
AcDbEntity
  8
0
  6
Continuous
 62
     7
370
     0
100
AcDbLine
 10
-30.99999999996465
 20
-20.00000000000512
 30
0.0
 11
-24.99999999996465
 21
-20.00000000000512
 31
0.0
  0
LINE
  5
4DCB
330
A
100
AcDbEntity
  8
0
  6
Continuous
 62
     7
370
     0
100
AcDbLine
 10
-30.99999999996465
 20
-0.000000000005187
 30
0.0
 11
-24.99999999996465
 21
-0.000000000005187
 31
0.0
  0
LINE
  5
4DCC
330
A
100
AcDbEntity
  8
0
  6
Continuous
 62
     7
370
     0
100
AcDbLine
 10
-23.99999999996464
 20
19.99999999999481
 30
0.0
 11
-30.99999999996465
 21
19.99999999999481
 31
0.0
  0
LINE
  5
4DCD
330
A
100
AcDbEntity
  8
0
  6
Continuous
 62
     7
370
     0
100
AcDbLine
 10
-24.49999999996464
 20
-0.000000000005187
 30
0.0
 11
-24.99999999996465
 21
-0.000000000005187
 31
0.0
  0
LINE
  5
4DCE
330
A
100
AcDbEntity
  8
0
  6
Continuous
 62
     7
370
     0
100
AcDbLine
 10
-24.99999999996465
 20
-0.000000000005187
 30
0.0
 11
-30.99999999996465
 21
-0.000000000005187
 31
0.0
  0
LINE
  5
4DCF
330
A
100
AcDbEntity
  8
0
  6
Continuous
 62
     7
370
     0
100
AcDbLine
 10
-30.99999999996465
 20
19.99999999999481
 30
0.0
 11
-30.99999999996465
 21
-0.000000000005187
 31
0.0
  0
LINE
  5
4DD0
330
A
100
AcDbEntity
  8
0
  6
Continuous
 62
     9
370
     0
100
AcDbLine
 10
-31.49999999996464
 20
19.99999999999481
 30
0.0
 11
-31.49999999996464
 21
-0.000000000005187
 31
0.0
  0
LINE
  5
4DD1
330
A
100
AcDbEntity
  8
0
  6
Continuous
 62
     7
370
     0
100
AcDbLine
 10
-31.49999999996464
 20
-0.000000000005187
 30
0.0
 11
-30.99999999996465
 21
-0.000000000005187
 31
0.0
  0
LINE
  5
4DD2
330
A
100
AcDbEntity
  8
0
  6
Continuous
 62
     7
370
     0
100
AcDbLine
 10
-31.49999999996464
 20
19.99999999999481
 30
0.0
 11
-30.99999999996465
 21
19.99999999999481
 31
0.0
  0
LINE
  5
4DD3
330
A
100
AcDbEntity
  8
0
  6
Continuous
 62
     7
370
     0
100
AcDbLine
 10
-31.92820323024023
 20
-20.00000000000512
 30
0.0
 11
-33.99999999996464
 21
-20.00000000000512
 31
0.0
  0
LINE
  5
4DD4
330
A
100
AcDbEntity
  8
0
  6
Continuous
 62
     7
370
     0
100
AcDbLine
 10
-33.99999999996464
 20
19.99999999999481
 30
0.0
 11
-33.99999999996464
 21
-20.00000000000512
 31
0.0
  0
LINE
  5
4DD5
330
A
100
AcDbEntity
  8
0
  6
Continuous
 62
     7
370
     0
100
AcDbLine
 10
-31.92820323024023
 20
-0.000000000005187
 30
0.0
 11
-31.92820323024023
 21
-20.00000000000512
 31
0.0
  0
LINE
  5
4DD6
330
A
100
AcDbEntity
  8
0
  6
Continuous
 62
     7
370
     0
100
AcDbLine
 10
-31.49999999996464
 20
-0.000000000005187
 30
0.0
 11
-31.92820323024023
 21
-0.000000000005187
 31
0.0
  0
LINE
  5
4DD7
330
A
100
AcDbEntity
  8
0
  6
Continuous
 62
     7
370
     0
100
AcDbLine
 10
-31.49999999996464
 20
19.99999999999481
 30
0.0
 11
-33.99999999996464
 21
19.99999999999481
 31
0.0
  0
LINE
  5
4DD8
330
A
100
AcDbEntity
  8
0
  6
Continuous
 62
     7
370
     0
100
AcDbLine
 10
-30.99999999996465
 20
-20.00000000000512
 30
0.0
 11
-31.92820323024023
 21
-20.00000000000512
 31
0.0
  0
LINE
  5
4DD9
330
A
100
AcDbEntity
  8
0
  6
Continuous
 62
     9
370
     0
100
AcDbLine
 10
-34.49999999996464
 20
19.99999999999481
 30
0.0
 11
-34.49999999996464
 21
-20.00000000000512
 31
0.0
  0
LINE
  5
4DDA
330
A
100
AcDbEntity
  8
0
  6
Continuous
 62
     7
370
     0
100
AcDbLine
 10
-34.49999999996464
 20
-20.00000000000512
 30
0.0
 11
-33.99999999996464
 21
-20.00000000000512
 31
0.0
  0
LINE
  5
4DDB
330
A
100
AcDbEntity
  8
0
  6
Continuous
 62
     7
370
     0
100
AcDbLine
 10
-34.49999999996464
 20
19.99999999999481
 30
0.0
 11
-33.99999999996464
 21
19.99999999999481
 31
0.0
  0
LINE
  5
4DDC
330
A
100
AcDbEntity
  8
0
  6
Continuous
 62
     7
370
     0
100
AcDbLine
 10
-34.99999999996465
 20
19.99999999999481
 30
0.0
 11
-34.99999999996465
 21
-20.00000000000512
 31
0.0
  0
LINE
  5
4DDD
330
A
100
AcDbEntity
  8
0
  6
Continuous
 62
     7
370
     0
100
AcDbLine
 10
-34.49999999996464
 20
-20.00000000000512
 30
0.0
 11
-34.99999999996465
 21
-20.00000000000512
 31
0.0
  0
LINE
  5
4DDE
330
A
100
AcDbEntity
  8
0
  6
Continuous
 62
     7
370
     0
100
AcDbLine
 10
-34.49999999996464
 20
19.99999999999481
 30
0.0
 11
-34.99999999996465
 21
19.99999999999481
 31
0.0
  0
LINE
  5
4DDF
330
A
100
AcDbEntity
  8
0
  6
Continuous
 62
     7
370
     0
100
AcDbLine
 10
-30.99999999996465
 20
-0.000000000005187
 30
0.0
 11
-30.99999999996465
 21
-20.00000000000512
 31
0.0
  0
TEXT
  5
61A2
330
A
100
AcDbEntity
  8
0
  6
Continuous
 62
     7
370
     0
100
AcDbText
 10
-18.94838007276019
 20
52.5073206442141
 30
0.0
 40
10.0
  1
4428
100
AcDbText
  0
LINE
  5
61A3
330
A
100
AcDbEntity
  8
0
  6
Continuous
 62
     7
370
     0
100
AcDbLine
 10
-101.1370139505833
 20
4.999999999962213
 30
0.0
 11
-101.2474138462377
 21
4.975571338838847
 31
0.0
  0
LINE
  5
61A4
330
A
100
AcDbEntity
  8
0
  6
Continuous
 62
     7
370
     0
100
AcDbLine
 10
-101.2474138462377
 20
4.975571338838847
 30
0.0
 11
-101.3429283425165
 21
4.915902057892381
 31
0.0
  0
LINE
  5
61A5
330
A
100
AcDbEntity
  8
0
  6
Continuous
 62
     7
370
     0
100
AcDbLine
 10
-101.3429283425165
 20
4.915902057892381
 30
0.0
 11
-101.4384912844215
 21
4.821008069623673
 31
0.0
  0
LINE
  5
61A6
330
A
100
AcDbEntity
  8
0
  6
Continuous
 62
     7
370
     0
100
AcDbLine
 10
-101.4384912844215
 20
4.821008069623673
 30
0.0
 11
-101.536084408799
 21
4.687166918965999
 31
0.0
  0
ARC
  5
61A7
330
A
100
AcDbEntity
  8
0
  6
Continuous
 62
     7
370
     0
100
AcDbCircle
 10
-88.93243243923427
 20
0.0615752904228515
 30
0.0
 40
13.4256523448196
100
AcDbArc
 50
159.8466574421337
 51
201.3230718221241
  0
LINE
  5
61A8
330
A
100
AcDbEntity
  8
0
  6
Continuous
 62
     7
370
     0
100
AcDbLine
 10
-101.4390301190954
 20
-4.82034598690771
 30
0.0
 11
-101.3439183593464
 21
-4.915126681406391
 31
0.0
  0
LINE
  5
61A9
330
A
100
AcDbEntity
  8
0
  6
Continuous
 62
     7
370
     0
100
AcDbLine
 10
-101.3439183593464
 20
-4.915126681406391
 30
0.0
 11
-101.2461534280496
 21
-4.976091144478786
 31
0.0
  0
LINE
  5
61AA
330
A
100
AcDbEntity
  8
0
  6
Continuous
 62
     7
370
     0
100
AcDbLine
 10
-101.2461534280496
 20
-4.976091144478786
 30
0.0
 11
-101.1370137991247
 21
-4.999999999975031
 31
0.0
  0
LINE
  5
61AB
330
A
100
AcDbEntity
  8
0
  6
Continuous
 62
     7
370
     0
100
AcDbLine
 10
-101.1370137991247
 20
-4.999999999975031
 30
0.0
 11
-101.0093225513513
 21
-4.965816965388853
 31
0.0
  0
LINE
  5
61AC
330
A
100
AcDbEntity
  8
0
  6
Continuous
 62
     7
370
     0
100
AcDbLine
 10
-101.0093225513513
 20
-4.965816965388853
 30
0.0
 11
-100.917704233497
 21
-4.896698383392816
 31
0.0
  0
LINE
  5
61AD
330
A
100
AcDbEntity
  8
0
  6
Continuous
 62
     7
370
     0
100
AcDbLine
 10
-100.917704233497
 20
-4.896698383392816
 30
0.0
 11
-100.8278231321287
 21
-4.788738278086412
 31
0.0
  0
LINE
  5
61AE
330
A
100
AcDbEntity
  8
0
  6
Continuous
 62
     7
370
     0
100
AcDbLine
 10
-100.8278231321287
 20
-4.788738278086412
 30
0.0
 11
-100.7433272218205
 21
-4.646504897219813
 31
0.0
  0
ARC
  5
61AF
330
A
100
AcDbEntity
  8
0
  6
Continuous
 62
     7
370
     0
100
AcDbCircle
 10
-113.0909688642534
 20
-0.6829009214926743
 30
0.0
 40
12.96820768673705
100
AcDbArc
 50
342.2033234862833
 51
3.018570319198055
  0
ARC
  5
61B0
330
A
100
AcDbEntity
  8
0
  6
Continuous
 62
     7
370
     0
100
AcDbCircle
 10
-111.9584822649855
 20
0.7371960810879728
 30
0.0
 40
11.84069896679025
100
AcDbArc
 50
356.4304844187762
 51
20.07968442896995
  0
LINE
  5
61B1
330
A
100
AcDbEntity
  8
0
  6
Continuous
 62
     7
370
     0
100
AcDbLine
 10
-100.8375078028836
 20
4.802424123329259
 30
0.0
 11
-100.9235325962315
 21
4.902284823150523
 31
0.0
  0
LINE
  5
61B2
330
A
100
AcDbEntity
  8
0
  6
Continuous
 62
     7
370
     0
100
AcDbLine
 10
-100.9235325962315
 20
4.902284823150523
 30
0.0
 11
-101.0121028340918
 21
4.967311880922167
 31
0.0
  0
LINE
  5
61B3
330
A
100
AcDbEntity
  8
0
  6
Continuous
 62
     7
370
     0
100
AcDbLine
 10
-101.0121028340918
 20
4.967311880922167
 30
0.0
 11
-101.1370139505833
 21
4.999999999962213
 31
0.0
  0
LINE
  5
6396
330
A
100
AcDbEntity
  8
0
  6
CENTER
 62
     1
100
AcDbLine
 10
-9.0
 20
0.0
 30
0.0
 11
9.0
 21
0.0
 31
0.0
  0
LINE
  5
6397
330
A
100
AcDbEntity
  8
0
  6
CENTER
 62
     1
100
AcDbLine
 10
0.0
 20
-9.0
 30
0.0
 11
0.0
 21
9.0
 31
0.0
  0
CIRCLE
  5
6398
330
A
100
AcDbEntity
  8
0
  6
CENTER
 62
     1
100
AcDbCircle
 10
0.0
 20
0.0
 30
0.0
 40
7.0
  0
ENDSEC
  0
SECTION
  2
OBJECTS
  0
DICTIONARY
  5
19
330
0
100
AcDbDictionary
281
     1
  3
ACAD_COLOR
350
3176
  3
ACAD_GROUP
350
1A
  3
ACAD_LAYOUT
350
1E
  3
ACAD_MATERIAL
350
314C
  3
ACAD_MLEADERSTYLE
350
319B
  3
ACAD_MLINESTYLE
350
1B
  3
ACAD_PLOTSETTINGS
350
22
  3
ACAD_PLOTSTYLENAME
350
1F
  3
ACAD_SCALELIST
350
3179
  3
ACAD_TABLESTYLE
350
3177
  3
ACAD_VISUALSTYLE
350
3165
  3
ACAD_WIPEOUT_VARS
350
23
  3
ACDB_RECOMPOSE_DATA
350
630A
  3
AcDbVariableDictionary
350
630B
  3
ASE_INDEX_DICTIONARY
350
5E44
  3
DWGPROPS
350
63B7
  0
DICTIONARY
  5
5E41
330
14
100
AcDbDictionary
280
     1
281
     1
  3
ADSK_XREC_LAYER_RECONCILED
360
5E42
  0
DICTIONARY
  5
31A7
330
A
100
AcDbDictionary
280
     1
281
     1
  3
ACAD_SORTENTS
360
31A8
  0
DICTIONARY
  5
3176
102
{ACAD_REACTORS
330
19
102
}
330
19
100
AcDbDictionary
281
     1
  0
DICTIONARY
  5
1A
102
{ACAD_REACTORS
330
19
102
}
330
19
100
AcDbDictionary
281
     1
  0
DICTIONARY
  5
1E
102
{ACAD_REACTORS
330
19
102
}
330
19
100
AcDbDictionary
281
     1
  3
Layout1
350
21
  3
Model
350
20
  0
DICTIONARY
  5
314C
102
{ACAD_REACTORS
330
19
102
}
330
19
100
AcDbDictionary
281
     1
  3
ByBlock
350
3155
  3
ByLayer
350
314D
  3
Global
350
315D
  0
DICTIONARY
  5
319B
102
{ACAD_REACTORS
330
19
102
}
330
19
100
AcDbDictionary
281
     1
  3
Standard
350
319C
  0
DICTIONARY
  5
1B
102
{ACAD_REACTORS
330
19
102
}
330
19
100
AcDbDictionary
281
     1
  3
Standard
350
1C
  0
DICTIONARY
  5
22
102
{ACAD_REACTORS
330
19
102
}
330
19
100
AcDbDictionary
281
     1
  0
ACDBDICTIONARYWDFLT
  5
1F
102
{ACAD_REACTORS
330
19
102
}
330
19
100
AcDbDictionary
281
     1
  3
Normal
350
1D
100
AcDbDictionaryWithDefault
340
1D
  0
DICTIONARY
  5
3179
102
{ACAD_REACTORS
330
19
102
}
330
19
100
AcDbDictionary
281
     1
  3
A0
350
317A
  3
A1
350
317B
  3
A2
350
317C
  3
A3
350
317D
  3
A4
350
317E
  3
A5
350
317F
  3
A6
350
3180
  3
A7
350
3181
  3
A8
350
3182
  3
A9
350
3183
  3
B0
350
3184
  3
B1
350
3185
  3
B2
350
3186
  3
B3
350
3187
  3
B4
350
3188
  3
B5
350
3189
  3
B6
350
318A
  3
B7
350
318B
  3
B8
350
318C
  3
B9
350
318D
  3
C0
350
318E
  3
C1
350
318F
  3
C2
350
3190
  3
C3
350
3191
  3
C4
350
3192
  3
C5
350
3193
  3
C6
350
3194
  3
C7
350
3195
  3
C8
350
3196
  3
C9
350
3197
  3
D0
350
3198
  3
D1
350
3199
  3
D2
350
319A
  0
DICTIONARY
  5
3177
102
{ACAD_REACTORS
330
19
102
}
330
19
100
AcDbDictionary
281
     1
  3
Standard
350
3178
  0
DICTIONARY
  5
3165
102
{ACAD_REACTORS
330
19
102
}
330
19
100
AcDbDictionary
281
     1
  3
2dWireframe
350
316B
  3
3D Hidden
350
316D
  3
3dWireframe
350
316C
  3
Basic
350
316A
  3
Brighten
350
3171
  3
ColorChange
350
3175
  3
Conceptual
350
316E
  3
Dim
350
3170
  3
Facepattern
350
3174
  3
Flat
350
3166
  3
FlatWithEdges
350
3167
  3
Gouraud
350
3168
  3
GouraudWithEdges
350
3169
  3
Linepattern
350
3173
  3
Realistic
350
316F
  3
Thicken
350
3172
  0
WIPEOUTVARIABLES
  5
23
330
19
100
AcDbWipeoutVariables
 70
     1
  0
XRECORD
  5
630A
102
{ACAD_REACTORS
330
19
102
}
330
19
100
AcDbXrecord
280
     1
 90
        1
330
3178
  0
DICTIONARY
  5
630B
102
{ACAD_REACTORS
330
19
102
}
330
19
100
AcDbDictionary
281
     1
  3
CANNOSCALE
350
630F
  3
CMLEADERSTYLE
350
630D
  3
CTABLESTYLE
350
630C
  3
DIMASSOC
350
6318
  3
INDEXCTL
350
6317
  3
LIGHTINGUNITS
350
6310
  3
MSLTSCALE
350
630E
  3
SORTENTS
350
6316
  0
DICTIONARY
  5
5E44
102
{ACAD_REACTORS
330
19
102
}
330
19
100
AcDbDictionary
281
     1
  3
ASEBlockHierarchyIndexRecord
350
5E46
1001
DCO15
1040
1685075681.336
  0
XRECORD
  5
63B7
102
{ACAD_REACTORS
330
19
102
}
330
19
100
AcDbXrecord
280
     1
  1
DWGPROPS COOKIE
  2

  3

  4

  6

  7

  8
renzo.ceresoli
  9

300
=
301
=
302
=
303
=
304
=
305
=
306
=
307
=
308
=
309
=
 40
0.0029660532407407
 41
2455303.727916667
 42
2455306.425157836
  1

 90
        0
  0
XRECORD
  5
5E42
102
{ACAD_REACTORS
330
5E41
102
}
330
5E41
100
AcDbXrecord
280
     1
290
     1
  0
SORTENTSTABLE
  5
31A8
102
{ACAD_REACTORS
330
31A7
102
}
330
31A7
100
AcDbSortentsTable
330
A
331
4DB1
  5
41B1
331
4D60
  5
4242
331
4D7B
  5
41E2
331
4D07
  5
428B
331
4D22
  5
421B
331
4D96
  5
41FD
331
4DAF
  5
4216
331
4DDC
  5
41DC
331
13FE
  5
4385
331
4C41
  5
42EC
331
4C54
  5
42FF
331
4CEC
  5
4270
331
4C88
  5
4361
331
4CA3
  5
42AF
331
4CBE
  5
42CA
331
4C6D
  5
4318
331
4CD1
  5
42DD
331
4D5E
  5
4240
331
4D79
  5
41E0
331
4D05
  5
4289
331
4D20
  5
4219
331
4D94
  5
41FB
331
4DAD
  5
4214
331
4DDA
  5
41DA
331
13FC
  5
4383
331
4C3F
  5
42EA
331
4C52
  5
42FD
331
4CEA
  5
426E
331
4CA1
  5
42AD
331
4CBC
  5
42C8
331
4CCF
  5
42DB
331
4C6B
  5
4316
331
4C86
  5
435F
331
4D5C
  5
423E
331
4D77
  5
4259
331
4D92
  5
41F9
331
4D03
  5
4287
331
4D1E
  5
42A2
331
4D39
  5
4232
331
4DAB
  5
4212
331
4DC6
  5
41C6
331
4DD8
  5
41D8
331
13FA
  5
4381
331
4C3D
  5
42E8
331
4C50
  5
42FB
331
4CE8
  5
426C
331
4C9F
  5
42AB
331
4CBA
  5
42C6
331
4CCD
  5
42D9
331
4C69
  5
4314
331
4C84
  5
4359
331
4D5A
  5
423C
331
4D75
  5
4257
331
4D90
  5
41F7
331
4CE6
  5
426A
331
4D01
  5
4285
331
4D1C
  5
42A0
331
4D37
  5
4230
331
4DA9
  5
4210
331
4DC4
  5
41C4
331
4D8E
  5
41F5
331
4DD6
  5
41D6
331
13F8
  5
437F
331
4C3B
  5
42E6
331
4C9D
  5
42A9
331
4CB8
  5
42C4
331
4CCB
  5
42D7
331
4C67
  5
4312
331
4C82
  5
4357
331
4D73
  5
4255
331
4CFF
  5
4283
331
4D1A
  5
429E
331
4D35
  5
422E
331
4CE4
  5
4268
331
4DC2
  5
41C2
331
4D8C
  5
41F3
331
4DA7
  5
420E
331
4DD4
  5
41D4
331
13F6
  5
437D
331
4C39
  5
42E4
331
4C9B
  5
42A7
331
4CB6
  5
42C2
331
4CC9
  5
42D5
331
4C65
  5
4310
331
4C80
  5
4355
331
4D71
  5
4253
331
4CFD
  5
4281
331
4D18
  5
429C
331
4D33
  5
422C
331
4CE2
  5
4266
331
4DC0
  5
41C0
331
4D6F
  5
4251
331
4D8A
  5
41F1
331
4DA5
  5
420C
331
4DD2
  5
41D2
331
4C99
  5
42A5
331
4CB4
  5
42C0
331
4C63
  5
430E
331
4C7E
  5
4353
331
4D44
  5
4237
331
4CFB
  5
427F
331
4D16
  5
429A
331
4D31
  5
422A
331
4CE0
  5
4264
331
4DBE
  5
41BE
331
4D6D
  5
424F
331
4D88
  5
41EF
331
4DA3
  5
420A
331
4DD0
  5
41D0
331
4CB2
  5
42BE
331
4C4E
  5
42F9
331
4C61
  5
430C
331
4C7C
  5
4351
331
4C97
  5
42A3
331
4CF9
  5
427D
331
4D14
  5
4298
331
4D2F
  5
4228
331
4CDE
  5
4262
331
4D42
  5
4235
331
4DBC
  5
41BC
331
4D6B
  5
424D
331
4D86
  5
41ED
331
4DA1
  5
4208
331
4DCE
  5
41CE
331
4CB0
  5
42BC
331
4C4C
  5
42F7
331
4C5F
  5
430A
331
4C7A
  5
434F
331
4C95
  5
4377
331
4CF7
  5
427B
331
4D12
  5
4296
331
4D2D
  5
4226
331
4CAE
  5
42BA
331
4CDC
  5
4260
331
4DBA
  5
41BA
331
4D69
  5
424B
331
4D84
  5
41EB
331
4D9F
  5
4206
331
4DCC
  5
41CC
331
4C5D
  5
4308
331
4C78
  5
434D
331
4C93
  5
4375
331
4C4A
  5
42F5
331
4D10
  5
4294
331
4D2B
  5
4224
331
4CAC
  5
42B8
331
4CC7
  5
42D3
331
4CDA
  5
425E
331
4CF5
  5
4279
331
4D67
  5
4249
331
4D82
  5
41E9
331
4D9D
  5
4204
331
4DB8
  5
41B8
331
4DCA
  5
41CA
331
1405
  5
438C
331
4C5B
  5
4306
331
4C76
  5
432E
331
4C91
  5
4373
331
4C48
  5
42F3
331
4D0E
  5
4292
331
4D29
  5
4222
331
4CAA
  5
42B6
331
4CC5
  5
42D1
331
4CD8
  5
425C
331
4C8F
  5
4371
331
4CF3
  5
4277
331
4D65
  5
4247
331
4D80
  5
41E7
331
4D27
  5
4220
331
4D9B
  5
4202
331
4DB6
  5
41B6
331
4DC8
  5
41C8
331
1403
  5
438A
331
4C59
  5
4304
331
4C74
  5
4328
331
4C46
  5
42F1
331
4D0C
  5
4290
331
4CC3
  5
42CF
331
4CD6
  5
42E2
331
4CF1
  5
4275
331
4C8D
  5
436F
331
4CA8
  5
42B4
331
4D7E
  5
41E5
331
4D99
  5
4200
331
4DB4
  5
41B4
331
4D25
  5
421E
331
4D63
  5
4245
331
4DDF
  5
41DF
331
1401
  5
4388
331
4C57
  5
4302
331
4C72
  5
4322
331
4C44
  5
42EF
331
4D0A
  5
428E
331
4CC1
  5
42CD
331
4CD4
  5
42E0
331
4CEF
  5
4273
331
4C8B
  5
4368
331
4CA6
  5
42B2
331
4D7C
  5
41E3
331
4D97
  5
41FE
331
4DB2
  5
41B2
331
4D23
  5
421C
331
4D61
  5
4243
331
4DDD
  5
41DD
331
13FF
  5
4386
331
4C55
  5
4300
331
4C70
  5
4320
331
4C42
  5
42ED
331
4D08
  5
428C
331
4CBF
  5
42CB
331
4CD2
  5
42DE
331
4CED
  5
4271
331
4C6E
  5
431E
331
4C89
  5
4362
331
4CA4
  5
42B0
331
4D7A
  5
41E1
331
4D95
  5
41FC
331
4DB0
  5
4217
331
4D21
  5
421A
331
4D5F
  5
4241
331
4D06
  5
428A
331
4DAE
  5
4215
331
4DDB
  5
41DB
331
13FD
  5
4384
331
4C40
  5
42EB
331
4C53
  5
42FE
331
4CBD
  5
42C9
331
4CD0
  5
42DC
331
4CEB
  5
426F
331
4C6C
  5
4317
331
4C87
  5
4360
331
4CA2
  5
42AE
331
4D78
  5
425A
331
4D93
  5
41FA
331
4D1F
  5
4218
331
4D3A
  5
4233
331
4D5D
  5
423F
331
4D04
  5
4288
331
4DAC
  5
4213
331
4DC7
  5
41C7
331
4DD9
  5
41D9
331
13FB
  5
4382
331
4C3E
  5
42E9
331
4C51
  5
42FC
331
4CBB
  5
42C7
331
4CCE
  5
42DA
331
4CE9
  5
426D
331
4C6A
  5
4315
331
4C85
  5
435A
331
4CA0
  5
42AC
331
4D76
  5
4258
331
4D91
  5
41F8
331
4D1D
  5
42A1
331
4D38
  5
4231
331
4D5B
  5
423D
331
4CE7
  5
426B
331
4D02
  5
4286
331
4D8F
  5
41F6
331
4DAA
  5
4211
331
4DC5
  5
41C5
331
4DD7
  5
41D7
331
13F9
  5
4380
331
4C3C
  5
42E7
331
4CCC
  5
42D8
331
4C68
  5
4313
331
4C83
  5
4358
331
4C9E
  5
42AA
331
4CB9
  5
42C5
331
4D1B
  5
429F
331
4D36
  5
422F
331
4D59
  5
423B
331
4CE5
  5
4269
331
4D00
  5
4284
331
4D74
  5
4256
331
4D8D
  5
41F4
331
4DA8
  5
420F
331
4DC3
  5
41C3
331
4DD5
  5
41D5
331
13F7
  5
437E
331
4C3A
  5
42E5
331
4CCA
  5
42D6
331
4C66
  5
4311
331
4C81
  5
4356
331
4C9C
  5
42A8
331
4CB7
  5
42C3
331
4D19
  5
429D
331
4D34
  5
422D
331
4CE3
  5
4267
331
4CFE
  5
4282
331
4D72
  5
4254
331
4D8B
  5
41F2
331
4DA6
  5
420D
331
4DC1
  5
41C1
331
4DD3
  5
41D3
331
4C38
  5
42E3
331
4CC8
  5
42D4
331
4C7F
  5
4354
331
4C9A
  5
42A6
331
4CB5
  5
42C1
331
4C64
  5
430F
331
4D32
  5
422B
331
4D45
  5
4238
331
4D70
  5
4252
331
4CE1
  5
4265
331
4CFC
  5
4280
331
4D17
  5
429B
331
4D89
  5
41F0
331
4DA4
  5
420B
331
4DBF
  5
41BF
331
4D6E
  5
4250
331
4DD1
  5
41D1
331
4C7D
  5
4352
331
4C98
  5
42A4
331
4CB3
  5
42BF
331
4C4F
  5
42FA
331
4C62
  5
430D
331
4D30
  5
4229
331
4D43
  5
4236
331
4CDF
  5
4263
331
4CFA
  5
427E
331
4D15
  5
4299
331
4D87
  5
41EE
331
4DA2
  5
4209
331
4DBD
  5
41BD
331
4D6C
  5
424E
331
4DCF
  5
41CF
331
4C7B
  5
4350
331
4C96
  5
437C
331
4CB1
  5
42BD
331
4C4D
  5
42F8
331
4C60
  5
430B
331
4D2E
  5
4227
331
4CDD
  5
4261
331
4CF8
  5
427C
331
4CAF
  5
42BB
331
4D13
  5
4297
331
4DA0
  5
4207
331
4DBB
  5
41BB
331
4D6A
  5
424C
331
4D85
  5
41EC
331
4DCD
  5
41CD
331
4C79
  5
434E
331
4C94
  5
4376
331
4C4B
  5
42F6
331
4C5E
  5
4309
331
4D2C
  5
4225
331
4CDB
  5
425F
331
4CF6
  5
427A
331
4CAD
  5
42B9
331
4D11
  5
4295
331
4D9E
  5
4205
331
4DB9
  5
41B9
331
4D68
  5
424A
331
4D83
  5
41EA
331
4DCB
  5
41CB
331
4C77
  5
4341
331
4C92
  5
4374
331
4C49
  5
42F4
331
4C5C
  5
4307
331
4D2A
  5
4223
331
4CD9
  5
425D
331
4CF4
  5
4278
331
4D0F
  5
4293
331
4CAB
  5
42B7
331
4CC6
  5
42D2
331
4D9C
  5
4203
331
4DB7
  5
41B7
331
4D66
  5
4248
331
4D81
  5
41E8
331
4DC9
  5
41C9
331
1404
  5
438B
331
4C90
  5
4372
331
4C47
  5
42F2
331
4C5A
  5
4305
331
4C75
  5
4329
331
4CD7
  5
425B
331
4CF2
  5
4276
331
4D0D
  5
4291
331
4C8E
  5
4370
331
4CA9
  5
42B5
331
4CC4
  5
42D0
331
4D28
  5
4221
331
4D9A
  5
4201
331
4DB5
  5
41B5
331
4D64
  5
4246
331
4D7F
  5
41E6
331
4D26
  5
421F
331
1402
  5
4389
331
4C45
  5
42F0
331
4C58
  5
4303
331
4C73
  5
4327
331
4CD5
  5
42E1
331
4CF0
  5
4274
331
4D0B
  5
428F
331
4C8C
  5
4369
331
4CA7
  5
42B3
331
4CC2
  5
42CE
331
4D98
  5
41FF
331
4DB3
  5
41B3
331
4D62
  5
4244
331
4D7D
  5
41E4
331
4D24
  5
421D
331
4DDE
  5
41DE
331
1400
  5
4387
331
4C43
  5
42EE
331
4C56
  5
4301
331
4C71
  5
4321
331
4CEE
  5
4272
331
4D09
  5
428D
331
4C8A
  5
4367
331
4CA5
  5
42B1
331
4CC0
  5
42CC
331
4C6F
  5
431F
331
4CD3
  5
42DF
  0
LAYOUT
  5
21
102
{ACAD_XDICTIONARY
360
63BA
102
}
102
{ACAD_REACTORS
330
1E
102
}
330
1E
100
AcDbPlotSettings
  1

  2

  4

  6

 40
0.0
 41
0.0
 42
0.0
 43
0.0
 44
0.0
 45
0.0
 46
0.0
 47
0.0
 48
0.0
 49
0.0
140
0.0
141
0.0
142
1.0
143
1.0
 70
     0
 72
     0
 73
     0
 74
     0
  7

 75
     0
147
1.0
148
0.0
149
0.0
100
AcDbLayout
  1
Layout1
 70
     0
 71
     1
 10
0.0
 20
0.0
 11
12.0
 21
9.0
 12
0.0
 22
0.0
 32
0.0
 14
1.000000000000000E+20
 24
1.000000000000000E+20
 34
1.000000000000000E+20
 15
-1.000000000000000E+20
 25
-1.000000000000000E+20
 35
-1.000000000000000E+20
146
0.0
 13
0.0
 23
0.0
 33
0.0
 16
1.0
 26
0.0
 36
0.0
 17
0.0
 27
1.0
 37
0.0
 76
     0
330
B
  0
LAYOUT
  5
20
102
{ACAD_XDICTIONARY
360
63B8
102
}
102
{ACAD_REACTORS
330
1E
102
}
330
1E
100
AcDbPlotSettings
  1

  2

  4

  6

 40
0.0
 41
0.0
 42
0.0
 43
0.0
 44
0.0
 45
0.0
 46
0.0
 47
0.0
 48
0.0
 49
0.0
140
0.0
141
0.0
142
1.0
143
1.0
 70
  1024
 72
     0
 73
     0
 74
     0
  7

 75
     0
147
1.0
148
0.0
149
0.0
100
AcDbLayout
  1
Model
 70
     0
 71
     0
 10
0.0
 20
0.0
 11
0.0
 21
0.0
 12
0.0
 22
0.0
 32
0.0
 14
0.0
 24
0.0
 34
0.0
 15
0.0
 25
0.0
 35
0.0
146
0.0
 13
0.0
 23
0.0
 33
0.0
 16
0.0
 26
0.0
 36
0.0
 17
0.0
 27
0.0
 37
0.0
 76
     0
330
A
331
15
  0
MATERIAL
  5
3155
102
{ACAD_XDICTIONARY
360
3156
102
}
102
{ACAD_REACTORS
330
314C
102
}
330
314C
100
AcDbMaterial
  1
ByBlock
 72
     0
 43
0.0208333333333333
 43
0.0
 43
0.0
 43
0.0
 43
0.0
 43
0.0208333333333333
 43
0.0
 43
0.0
 43
0.0
 43
0.0
 43
1.0
 43
0.0
 43
0.0
 43
0.0
 43
0.0
 43
1.0
 77
     0
 47
0.0208333333333333
 47
0.0
 47
0.0
 47
0.0
 47
0.0
 47
0.0208333333333333
 47
0.0
 47
0.0
 47
0.0
 47
0.0
 47
1.0
 47
0.0
 47
0.0
 47
0.0
 47
0.0
 47
1.0
171
     0
 49
0.0208333333333333
 49
0.0
 49
0.0
 49
0.0
 49
0.0
 49
0.0208333333333333
 49
0.0
 49
0.0
 49
0.0
 49
0.0
 49
1.0
 49
0.0
 49
0.0
 49
0.0
 49
0.0
 49
1.0
175
     0
142
0.0208333333333333
142
0.0
142
0.0
142
0.0
142
0.0
142
0.0208333333333333
142
0.0
142
0.0
142
0.0
142
0.0
142
1.0
142
0.0
142
0.0
142
0.0
142
0.0
142
1.0
179
     0
144
0.0208333333333333
144
0.0
144
0.0
144
0.0
144
0.0
144
0.0208333333333333
144
0.0
144
0.0
144
0.0
144
0.0
144
1.0
144
0.0
144
0.0
144
0.0
144
0.0
144
1.0
147
0.0208333333333333
147
0.0
147
0.0
147
0.0
147
0.0
147
0.0208333333333333
147
0.0
147
0.0
147
0.0
147
0.0
147
1.0
147
0.0
147
0.0
147
0.0
147
0.0
147
1.0
  0
MATERIAL
  5
314D
102
{ACAD_XDICTIONARY
360
314E
102
}
102
{ACAD_REACTORS
330
314C
102
}
330
314C
100
AcDbMaterial
  1
ByLayer
 72
     0
 43
0.0208333333333333
 43
0.0
 43
0.0
 43
0.0
 43
0.0
 43
0.0208333333333333
 43
0.0
 43
0.0
 43
0.0
 43
0.0
 43
1.0
 43
0.0
 43
0.0
 43
0.0
 43
0.0
 43
1.0
 77
     0
 47
0.0208333333333333
 47
0.0
 47
0.0
 47
0.0
 47
0.0
 47
0.0208333333333333
 47
0.0
 47
0.0
 47
0.0
 47
0.0
 47
1.0
 47
0.0
 47
0.0
 47
0.0
 47
0.0
 47
1.0
171
     0
 49
0.0208333333333333
 49
0.0
 49
0.0
 49
0.0
 49
0.0
 49
0.0208333333333333
 49
0.0
 49
0.0
 49
0.0
 49
0.0
 49
1.0
 49
0.0
 49
0.0
 49
0.0
 49
0.0
 49
1.0
175
     0
142
0.0208333333333333
142
0.0
142
0.0
142
0.0
142
0.0
142
0.0208333333333333
142
0.0
142
0.0
142
0.0
142
0.0
142
1.0
142
0.0
142
0.0
142
0.0
142
0.0
142
1.0
179
     0
144
0.0208333333333333
144
0.0
144
0.0
144
0.0
144
0.0
144
0.0208333333333333
144
0.0
144
0.0
144
0.0
144
0.0
144
1.0
144
0.0
144
0.0
144
0.0
144
0.0
144
1.0
147
0.0208333333333333
147
0.0
147
0.0
147
0.0
147
0.0
147
0.0208333333333333
147
0.0
147
0.0
147
0.0
147
0.0
147
1.0
147
0.0
147
0.0
147
0.0
147
0.0
147
1.0
  0
MATERIAL
  5
315D
102
{ACAD_XDICTIONARY
360
315E
102
}
102
{ACAD_REACTORS
330
314C
102
}
330
314C
100
AcDbMaterial
  1
Global
 72
     0
 43
0.0208333333333333
 43
0.0
 43
0.0
 43
0.0
 43
0.0
 43
0.0208333333333333
 43
0.0
 43
0.0
 43
0.0
 43
0.0
 43
1.0
 43
0.0
 43
0.0
 43
0.0
 43
0.0
 43
1.0
 77
     0
 47
0.0208333333333333
 47
0.0
 47
0.0
 47
0.0
 47
0.0
 47
0.0208333333333333
 47
0.0
 47
0.0
 47
0.0
 47
0.0
 47
1.0
 47
0.0
 47
0.0
 47
0.0
 47
0.0
 47
1.0
171
     0
 49
0.0208333333333333
 49
0.0
 49
0.0
 49
0.0
 49
0.0
 49
0.0208333333333333
 49
0.0
 49
0.0
 49
0.0
 49
0.0
 49
1.0
 49
0.0
 49
0.0
 49
0.0
 49
0.0
 49
1.0
175
     0
142
0.0208333333333333
142
0.0
142
0.0
142
0.0
142
0.0
142
0.0208333333333333
142
0.0
142
0.0
142
0.0
142
0.0
142
1.0
142
0.0
142
0.0
142
0.0
142
0.0
142
1.0
179
     0
144
0.0208333333333333
144
0.0
144
0.0
144
0.0
144
0.0
144
0.0208333333333333
144
0.0
144
0.0
144
0.0
144
0.0
144
1.0
144
0.0
144
0.0
144
0.0
144
0.0
144
1.0
147
0.0208333333333333
147
0.0
147
0.0
147
0.0
147
0.0
147
0.0208333333333333
147
0.0
147
0.0
147
0.0
147
0.0
147
1.0
147
0.0
147
0.0
147
0.0
147
0.0
147
1.0
  0
MLEADERSTYLE
  5
319C
102
{ACAD_REACTORS
330
319B
102
}
330
319B
100
AcDbMLeaderStyle
170
     2
171
     1
172
     0
 90
        2
 40
0.0
 41
0.0
173
     1
 91
-1056964608
340
11
 92
       -2
290
     1
 42
2.0
291
     1
 43
0.36
  3
Standard
 44
4.0
300

342
17
174
     1
178
     6
175
     1
176
     0
 93
-1056964608
 45
4.0
292
     0
297
     0
 46
4.0
 94
-1056964608
 47
1.0
 49
1.0
140
1.0
293
     1
141
0.0
294
     1
177
     0
142
1.0
295
     0
296
     0
143
0.125
1001
ACAD_MLEADERVER
1070
     2
  0
MLINESTYLE
  5
1C
102
{ACAD_REACTORS
330
1B
102
}
330
1B
100
AcDbMlineStyle
  2
STANDARD
 70
     0
  3

 62
     0
 51
90.0
 52
90.0
 71
     2
 49
0.5
 62
   256
  6
BYLAYER
 49
-0.5
 62
   256
  6
BYLAYER
  0
ACDBPLACEHOLDER
  5
1D
102
{ACAD_REACTORS
330
1F
102
}
330
1F
  0
SCALE
  5
317A
102
{ACAD_REACTORS
330
3179
102
}
330
3179
100
AcDbScale
 70
     0
300
1:1
140
1.0
141
1.0
290
     1
  0
SCALE
  5
317B
102
{ACAD_REACTORS
330
3179
102
}
330
3179
100
AcDbScale
 70
     0
300
1:2
140
1.0
141
2.0
290
     0
  0
SCALE
  5
317C
102
{ACAD_REACTORS
330
3179
102
}
330
3179
100
AcDbScale
 70
     0
300
1:4
140
1.0
141
4.0
290
     0
  0
SCALE
  5
317D
102
{ACAD_REACTORS
330
3179
102
}
330
3179
100
AcDbScale
 70
     0
300
1:5
140
1.0
141
5.0
290
     0
  0
SCALE
  5
317E
102
{ACAD_REACTORS
330
3179
102
}
330
3179
100
AcDbScale
 70
     0
300
1:8
140
1.0
141
8.0
290
     0
  0
SCALE
  5
317F
102
{ACAD_REACTORS
330
3179
102
}
330
3179
100
AcDbScale
 70
     0
300
1:10
140
1.0
141
10.0
290
     0
  0
SCALE
  5
3180
102
{ACAD_REACTORS
330
3179
102
}
330
3179
100
AcDbScale
 70
     0
300
1:16
140
1.0
141
16.0
290
     0
  0
SCALE
  5
3181
102
{ACAD_REACTORS
330
3179
102
}
330
3179
100
AcDbScale
 70
     0
300
1:20
140
1.0
141
20.0
290
     0
  0
SCALE
  5
3182
102
{ACAD_REACTORS
330
3179
102
}
330
3179
100
AcDbScale
 70
     0
300
1:30
140
1.0
141
30.0
290
     0
  0
SCALE
  5
3183
102
{ACAD_REACTORS
330
3179
102
}
330
3179
100
AcDbScale
 70
     0
300
1:40
140
1.0
141
40.0
290
     0
  0
SCALE
  5
3184
102
{ACAD_REACTORS
330
3179
102
}
330
3179
100
AcDbScale
 70
     0
300
1:50
140
1.0
141
50.0
290
     0
  0
SCALE
  5
3185
102
{ACAD_REACTORS
330
3179
102
}
330
3179
100
AcDbScale
 70
     0
300
1:100
140
1.0
141
100.0
290
     0
  0
SCALE
  5
3186
102
{ACAD_REACTORS
330
3179
102
}
330
3179
100
AcDbScale
 70
     0
300
2:1
140
2.0
141
1.0
290
     0
  0
SCALE
  5
3187
102
{ACAD_REACTORS
330
3179
102
}
330
3179
100
AcDbScale
 70
     0
300
4:1
140
4.0
141
1.0
290
     0
  0
SCALE
  5
3188
102
{ACAD_REACTORS
330
3179
102
}
330
3179
100
AcDbScale
 70
     0
300
8:1
140
8.0
141
1.0
290
     0
  0
SCALE
  5
3189
102
{ACAD_REACTORS
330
3179
102
}
330
3179
100
AcDbScale
 70
     0
300
10:1
140
10.0
141
1.0
290
     0
  0
SCALE
  5
318A
102
{ACAD_REACTORS
330
3179
102
}
330
3179
100
AcDbScale
 70
     0
300
100:1
140
100.0
141
1.0
290
     0
  0
SCALE
  5
318B
102
{ACAD_REACTORS
330
3179
102
}
330
3179
100
AcDbScale
 70
     0
300
1/128" = 1'-0"
140
0.0078125
141
12.0
290
     0
  0
SCALE
  5
318C
102
{ACAD_REACTORS
330
3179
102
}
330
3179
100
AcDbScale
 70
     0
300
1/64" = 1'-0"
140
0.015625
141
12.0
290
     0
  0
SCALE
  5
318D
102
{ACAD_REACTORS
330
3179
102
}
330
3179
100
AcDbScale
 70
     0
300
1/32" = 1'-0"
140
0.03125
141
12.0
290
     0
  0
SCALE
  5
318E
102
{ACAD_REACTORS
330
3179
102
}
330
3179
100
AcDbScale
 70
     0
300
1/16" = 1'-0"
140
0.0625
141
12.0
290
     0
  0
SCALE
  5
318F
102
{ACAD_REACTORS
330
3179
102
}
330
3179
100
AcDbScale
 70
     0
300
3/32" = 1'-0"
140
0.09375
141
12.0
290
     0
  0
SCALE
  5
3190
102
{ACAD_REACTORS
330
3179
102
}
330
3179
100
AcDbScale
 70
     0
300
1/8" = 1'-0"
140
0.125
141
12.0
290
     0
  0
SCALE
  5
3191
102
{ACAD_REACTORS
330
3179
102
}
330
3179
100
AcDbScale
 70
     0
300
3/16" = 1'-0"
140
0.1875
141
12.0
290
     0
  0
SCALE
  5
3192
102
{ACAD_REACTORS
330
3179
102
}
330
3179
100
AcDbScale
 70
     0
300
1/4" = 1'-0"
140
0.25
141
12.0
290
     0
  0
SCALE
  5
3193
102
{ACAD_REACTORS
330
3179
102
}
330
3179
100
AcDbScale
 70
     0
300
3/8" = 1'-0"
140
0.375
141
12.0
290
     0
  0
SCALE
  5
3194
102
{ACAD_REACTORS
330
3179
102
}
330
3179
100
AcDbScale
 70
     0
300
1/2" = 1'-0"
140
0.5
141
12.0
290
     0
  0
SCALE
  5
3195
102
{ACAD_REACTORS
330
3179
102
}
330
3179
100
AcDbScale
 70
     0
300
3/4" = 1'-0"
140
0.75
141
12.0
290
     0
  0
SCALE
  5
3196
102
{ACAD_REACTORS
330
3179
102
}
330
3179
100
AcDbScale
 70
     0
300
1" = 1'-0"
140
1.0
141
12.0
290
     0
  0
SCALE
  5
3197
102
{ACAD_REACTORS
330
3179
102
}
330
3179
100
AcDbScale
 70
     0
300
1-1/2" = 1'-0"
140
1.5
141
12.0
290
     0
  0
SCALE
  5
3198
102
{ACAD_REACTORS
330
3179
102
}
330
3179
100
AcDbScale
 70
     0
300
3" = 1'-0"
140
3.0
141
12.0
290
     0
  0
SCALE
  5
3199
102
{ACAD_REACTORS
330
3179
102
}
330
3179
100
AcDbScale
 70
     0
300
6" = 1'-0"
140
6.0
141
12.0
290
     0
  0
SCALE
  5
319A
102
{ACAD_REACTORS
330
3179
102
}
330
3179
100
AcDbScale
 70
     0
300
1'-0" = 1'-0"
140
12.0
141
12.0
290
     0
  0
TABLESTYLE
  5
3178
102
{ACAD_XDICTIONARY
360
6308
102
}
102
{ACAD_REACTORS
330
3177
102
}
330
3177
100
AcDbTableStyle
  3
Standard
 70
     0
 71
     0
 40
1.5
 41
1.5
280
     0
281
     0
  7
Standard
140
4.5
170
     2
 62
     0
 63
     7
283
     0
274
    -2
284
     1
 64
     0
275
    -2
285
     1
 65
     0
276
    -2
286
     1
 66
     0
277
    -2
287
     1
 67
     0
278
    -2
288
     1
 68
     0
279
    -2
289
     1
 69
     0
  7
Standard
140
6.0
170
     5
 62
     0
 63
     7
283
     0
274
    -2
284
     1
 64
     0
275
    -2
285
     1
 65
     0
276
    -2
286
     1
 66
     0
277
    -2
287
     1
 67
     0
278
    -2
288
     1
 68
     0
279
    -2
289
     1
 69
     0
  7
Standard
140
4.5
170
     5
 62
     0
 63
     7
283
     0
274
    -2
284
     1
 64
     0
275
    -2
285
     1
 65
     0
276
    -2
286
     1
 66
     0
277
    -2
287
     1
 67
     0
278
    -2
288
     1
 68
     0
279
    -2
289
     1
 69
     0
  0
VISUALSTYLE
  5
316B
102
{ACAD_REACTORS
330
3165
102
}
330
3165
100
AcDbVisualStyle
  2
2dWireframe
 70
     4
 71
     0
 72
     2
 73
     0
 90
        0
 40
-0.6
 41
-30.0
 62
     5
 63
     7
 74
     1
 91
        4
 64
     7
 65
   257
 75
     1
175
     1
 42
1.0
 92
        0
 66
   257
 43
1.0
 76
     1
 77
     6
 78
     2
 67
     7
 79
     5
170
     0
171
     0
290
     0
174
     0
 93
        1
 44
0.0
173
     0
291
     0
 45
0.0
1001
ACAD
1000
AcDbSavedByObjectVersion
1070
     0
1000
AcDbSavedByObjectVersion
1070
     0
  0
VISUALSTYLE
  5
316D
102
{ACAD_REACTORS
330
3165
102
}
330
3165
100
AcDbVisualStyle
  2
3D Hidden
 70
     6
 71
     1
 72
     2
 73
     2
 90
        0
 40
-0.6
 41
-30.0
 62
     5
 63
     7
 74
     2
 91
        2
 64
     7
 65
   257
 75
     2
175
     1
 42
40.0
 92
        0
 66
   257
 43
1.0
 76
     1
 77
     6
 78
     2
 67
     7
 79
     3
170
     0
171
     0
290
     0
174
     0
 93
        1
 44
0.0
173
     0
291
     0
 45
0.0
1001
ACAD
1000
AcDbSavedByObjectVersion
1070
     0
1000
AcDbSavedByObjectVersion
1070
     0
  0
VISUALSTYLE
  5
316C
102
{ACAD_REACTORS
330
3165
102
}
330
3165
100
AcDbVisualStyle
  2
3dWireframe
 70
     5
 71
     0
 72
     2
 73
     0
 90
        0
 40
-0.6
 41
-30.0
 62
     5
 63
     7
 74
     1
 91
        4
 64
     7
 65
   257
 75
     1
175
     1
 42
1.0
 92
        0
 66
   257
 43
1.0
 76
     1
 77
     6
 78
     2
 67
     7
 79
     5
170
     0
171
     0
290
     0
174
     0
 93
        1
 44
0.0
173
     0
291
     0
 45
0.0
1001
ACAD
1000
AcDbSavedByObjectVersion
1070
     0
1000
AcDbSavedByObjectVersion
1070
     0
  0
VISUALSTYLE
  5
316A
102
{ACAD_REACTORS
330
3165
102
}
330
3165
100
AcDbVisualStyle
  2
Basic
 70
     7
 71
     1
 72
     0
 73
     1
 90
        0
 40
-0.6
 41
-30.0
 62
     5
 63
     7
 74
     0
 91
        4
 64
     7
 65
   257
 75
     1
175
     1
 42
1.0
 92
        8
 66
     7
 43
1.0
 76
     1
 77
     6
 78
     2
 67
     7
 79
     5
170
     0
171
     0
290
     0
174
     0
 93
        1
 44
0.0
173
     0
291
     1
 45
0.0
1001
ACAD
1000
AcDbSavedByObjectVersion
1070
     0
1000
AcDbSavedByObjectVersion
1070
     0
  0
VISUALSTYLE
  5
3171
102
{ACAD_REACTORS
330
3165
102
}
330
3165
100
AcDbVisualStyle
  2
Brighten
 70
    12
 71
     2
 72
     2
 73
     0
 90
        0
 40
-0.6
 41
-30.0
 62
     5
 63
     7
 74
     1
 91
        4
 64
     7
 65
   257
 75
     1
175
     1
 42
1.0
 92
        8
 66
     7
 43
1.0
 76
     1
 77
     6
 78
     2
 67
     7
 79
     5
170
     0
171
     0
290
     0
174
     0
 93
        1
 44
50.0
173
     0
291
     1
 45
0.0
1001
ACAD
1000
AcDbSavedByObjectVersion
1070
     0
1000
AcDbSavedByObjectVersion
1070
     0
  0
VISUALSTYLE
  5
3175
102
{ACAD_REACTORS
330
3165
102
}
330
3165
100
AcDbVisualStyle
  2
ColorChange
 70
    16
 71
     2
 72
     2
 73
     3
 90
        0
 40
-0.6
 41
-30.0
 62
     5
 63
     8
 74
     1
 91
        4
 64
     7
 65
   257
 75
     1
175
     1
 42
1.0
 92
        8
 66
     8
 43
1.0
 76
     1
 77
     6
 78
     2
 67
     7
 79
     5
170
     0
171
     0
290
     0
174
     0
 93
        1
 44
0.0
173
     0
291
     1
 45
0.0
1001
ACAD
1000
AcDbSavedByObjectVersion
1070
     0
1000
AcDbSavedByObjectVersion
1070
     0
  0
VISUALSTYLE
  5
316E
102
{ACAD_REACTORS
330
3165
102
}
330
3165
100
AcDbVisualStyle
  2
Conceptual
 70
     9
 71
     3
 72
     2
 73
     0
 90
        0
 40
-0.6
 41
-30.0
 62
     5
 63
     7
 74
     2
 91
        2
 64
     7
 65
   257
 75
     1
175
     1
 42
40.0
 92
        8
 66
     7
 43
1.0
 76
     1
 77
     6
 78
     2
 67
     7
 79
     3
170
     0
171
     0
290
     0
174
     0
 93
        1
 44
0.0
173
     0
291
     0
 45
0.0
1001
ACAD
1000
AcDbSavedByObjectVersion
1070
     0
1000
AcDbSavedByObjectVersion
1070
     0
  0
VISUALSTYLE
  5
3170
102
{ACAD_REACTORS
330
3165
102
}
330
3165
100
AcDbVisualStyle
  2
Dim
 70
    11
 71
     2
 72
     2
 73
     0
 90
        0
 40
-0.6
 41
-30.0
 62
     5
 63
     7
 74
     1
 91
        4
 64
     7
 65
   257
 75
     1
175
     1
 42
1.0
 92
        8
 66
     7
 43
1.0
 76
     1
 77
     6
 78
     2
 67
     7
 79
     5
170
     0
171
     0
290
     0
174
     0
 93
        1
 44
-50.0
173
     0
291
     1
 45
0.0
1001
ACAD
1000
AcDbSavedByObjectVersion
1070
     0
1000
AcDbSavedByObjectVersion
1070
     0
  0
VISUALSTYLE
  5
3174
102
{ACAD_REACTORS
330
3165
102
}
330
3165
100
AcDbVisualStyle
  2
Facepattern
 70
    15
 71
     2
 72
     2
 73
     0
 90
        0
 40
-0.6
 41
-30.0
 62
     5
 63
     7
 74
     1
 91
        4
 64
     7
 65
   257
 75
     1
175
     1
 42
1.0
 92
        8
 66
     7
 43
1.0
 76
     1
 77
     6
 78
     2
 67
     7
 79
     5
170
     0
171
     0
290
     0
174
     0
 93
        1
 44
0.0
173
     0
291
     1
 45
0.0
1001
ACAD
1000
AcDbSavedByObjectVersion
1070
     0
1000
AcDbSavedByObjectVersion
1070
     0
  0
VISUALSTYLE
  5
3166
102
{ACAD_REACTORS
330
3165
102
}
330
3165
100
AcDbVisualStyle
  2
Flat
 70
     0
 71
     2
 72
     1
 73
     1
 90
        2
 40
-0.6
 41
30.0
 62
     5
 63
     7
 74
     0
 91
        4
 64
     7
 65
   257
 75
     1
175
     1
 42
1.0
 92
        8
 66
     7
 43
1.0
 76
     1
 77
     6
 78
     2
 67
     7
 79
     5
170
     0
171
     0
290
     0
174
     0
 93
       13
 44
0.0
173
     0
291
     1
 45
0.0
1001
ACAD
1000
AcDbSavedByObjectVersion
1070
     0
1000
AcDbSavedByObjectVersion
1070
     0
  0
VISUALSTYLE
  5
3167
102
{ACAD_REACTORS
330
3165
102
}
330
3165
100
AcDbVisualStyle
  2
FlatWithEdges
 70
     1
 71
     2
 72
     1
 73
     1
 90
        2
 40
-0.6
 41
30.0
 62
     5
 63
     7
 74
     1
 91
        4
 64
     7
 65
   257
 75
     1
175
     1
 42
1.0
 92
        0
 66
   257
 43
1.0
 76
     1
 77
     6
 78
     2
 67
     7
 79
     5
170
     0
171
     0
290
     0
174
     0
 93
       13
 44
0.0
173
     0
291
     1
 45
0.0
1001
ACAD
1000
AcDbSavedByObjectVersion
1070
     0
1000
AcDbSavedByObjectVersion
1070
     0
  0
VISUALSTYLE
  5
3168
102
{ACAD_REACTORS
330
3165
102
}
330
3165
100
AcDbVisualStyle
  2
Gouraud
 70
     2
 71
     2
 72
     2
 73
     1
 90
        2
 40
-0.6
 41
30.0
 62
     5
 63
     7
 74
     0
 91
        4
 64
     7
 65
   257
 75
     1
175
     1
 42
1.0
 92
        0
 66
     7
 43
1.0
 76
     1
 77
     6
 78
     2
 67
     7
 79
     5
170
     0
171
     0
290
     0
174
     0
 93
       13
 44
0.0
173
     0
291
     1
 45
0.0
1001
ACAD
1000
AcDbSavedByObjectVersion
1070
     0
1000
AcDbSavedByObjectVersion
1070
     0
  0
VISUALSTYLE
  5
3169
102
{ACAD_REACTORS
330
3165
102
}
330
3165
100
AcDbVisualStyle
  2
GouraudWithEdges
 70
     3
 71
     2
 72
     2
 73
     1
 90
        2
 40
-0.6
 41
30.0
 62
     5
 63
     7
 74
     1
 91
        4
 64
     7
 65
   257
 75
     1
175
     1
 42
1.0
 92
        0
 66
   257
 43
1.0
 76
     1
 77
     6
 78
     2
 67
     7
 79
     5
170
     0
171
     0
290
     0
174
     0
 93
       13
 44
0.0
173
     0
291
     1
 45
0.0
1001
ACAD
1000
AcDbSavedByObjectVersion
1070
     0
1000
AcDbSavedByObjectVersion
1070
     0
  0
VISUALSTYLE
  5
3173
102
{ACAD_REACTORS
330
3165
102
}
330
3165
100
AcDbVisualStyle
  2
Linepattern
 70
    14
 71
     2
 72
     2
 73
     0
 90
        0
 40
-0.6
 41
-30.0
 62
     5
 63
     7
 74
     1
 91
        4
 64
     7
 65
   257
 75
     7
175
     7
 42
1.0
 92
        8
 66
     7
 43
1.0
 76
     1
 77
     6
 78
     2
 67
     7
 79
     5
170
     0
171
     0
290
     0
174
     0
 93
        1
 44
0.0
173
     0
291
     1
 45
0.0
1001
ACAD
1000
AcDbSavedByObjectVersion
1070
     0
1000
AcDbSavedByObjectVersion
1070
     0
  0
VISUALSTYLE
  5
316F
102
{ACAD_REACTORS
330
3165
102
}
330
3165
100
AcDbVisualStyle
  2
Realistic
 70
     8
 71
     2
 72
     2
 73
     0
 90
        0
 40
-0.6
 41
-30.0
 62
     5
 63
     7
 74
     1
 91
        0
 64
     7
 65
   257
 75
     1
175
     1
 42
1.0
 92
        8
 66
     8
 43
1.0
 76
     1
 77
     6
 78
     2
 67
     7
 79
     5
170
     0
171
     0
290
     0
174
     0
 93
       13
 44
0.0
173
     0
291
     0
 45
0.0
1001
ACAD
1000
AcDbSavedByObjectVersion
1070
     0
1000
AcDbSavedByObjectVersion
1070
     0
  0
VISUALSTYLE
  5
3172
102
{ACAD_REACTORS
330
3165
102
}
330
3165
100
AcDbVisualStyle
  2
Thicken
 70
    13
 71
     2
 72
     2
 73
     0
 90
        0
 40
-0.6
 41
-30.0
 62
     5
 63
     7
 74
     1
 91
        4
 64
     7
 65
   257
 75
     1
175
     1
 42
1.0
 92
       12
 66
     7
 43
1.0
 76
     1
 77
     6
 78
     2
 67
     7
 79
     5
170
     0
171
     0
290
     0
174
     0
 93
        1
 44
0.0
173
     0
291
     1
 45
0.0
1001
ACAD
1000
AcDbSavedByObjectVersion
1070
     0
1000
AcDbSavedByObjectVersion
1070
     0
  0
DICTIONARYVAR
  5
630F
102
{ACAD_REACTORS
330
630B
102
}
330
630B
100
DictionaryVariables
280
     0
  1
1:1
  0
DICTIONARYVAR
  5
630D
102
{ACAD_REACTORS
330
630B
102
}
330
630B
100
DictionaryVariables
280
     0
  1
STANDARD
  0
DICTIONARYVAR
  5
630C
102
{ACAD_REACTORS
330
630B
102
}
330
630B
100
DictionaryVariables
280
     0
  1
STANDARD
  0
DICTIONARYVAR
  5
6318
102
{ACAD_REACTORS
330
630B
102
}
330
630B
100
DictionaryVariables
280
     0
  1
1
  0
DICTIONARYVAR
  5
6317
102
{ACAD_REACTORS
330
630B
102
}
330
630B
100
DictionaryVariables
280
     0
  1
0
  0
DICTIONARYVAR
  5
6310
102
{ACAD_REACTORS
330
630B
102
}
330
630B
100
DictionaryVariables
280
     0
  1
0
  0
DICTIONARYVAR
  5
630E
102
{ACAD_REACTORS
330
630B
102
}
330
630B
100
DictionaryVariables
280
     0
  1
0
  0
DICTIONARYVAR
  5
6316
102
{ACAD_REACTORS
330
630B
102
}
330
630B
100
DictionaryVariables
280
     0
  1
127
  0
XRECORD
  5
5E46
102
{ACAD_REACTORS
330
5E44
102
}
330
5E44
100
AcDbXrecord
280
     1
  0
DICTIONARY
  5
63BA
330
21
100
AcDbDictionary
280
     1
281
     1
  3
ACAD_XREC_ROUNDTRIP
360
63BB
  0
DICTIONARY
  5
63B8
330
20
100
AcDbDictionary
280
     1
281
     1
  3
ACAD_XREC_ROUNDTRIP
360
63B9
  0
DICTIONARY
  5
3156
330
3155
100
AcDbDictionary
280
     1
281
     1
  3
ACAD_XREC_ROUNDTRIP
360
6320
  3
BUMPTILE
360
3158
  3
DIFFUSETILE
360
3157
  3
OPACITYTILE
360
315B
  3
REFLECTIONTILE
360
315A
  3
REFRACTIONTILE
360
315C
  3
SPECULARTILE
360
3159
  0
DICTIONARY
  5
314E
330
314D
100
AcDbDictionary
280
     1
281
     1
  3
ACAD_XREC_ROUNDTRIP
360
631F
  3
BUMPTILE
360
3150
  3
DIFFUSETILE
360
314F
  3
OPACITYTILE
360
3153
  3
REFLECTIONTILE
360
3152
  3
REFRACTIONTILE
360
3154
  3
SPECULARTILE
360
3151
  0
DICTIONARY
  5
315E
330
315D
100
AcDbDictionary
280
     1
281
     1
  3
ACAD_XREC_ROUNDTRIP
360
6321
  3
BUMPTILE
360
3160
  3
DIFFUSETILE
360
315F
  3
OPACITYTILE
360
3163
  3
REFLECTIONTILE
360
3162
  3
REFRACTIONTILE
360
3164
  3
SPECULARTILE
360
3161
  0
DICTIONARY
  5
6308
330
3178
100
AcDbDictionary
280
     1
281
     1
  3
ACAD_ROUNDTRIP_2008_TABLESTYLE_CELLSTYLEMAP
360
63B6
  3
ACAD_XREC_ROUNDTRIP
360
63BC
  0
XRECORD
  5
63BB
102
{ACAD_REACTORS
330
63BA
102
}
330
63BA
100
AcDbXrecord
280
     1
102
SHADEPLOT
 70
     0
102
SHADEPLOTRESLEVEL
 70
     2
102
SHADEPLOTCUSTOMDPI
 70
   300
  0
XRECORD
  5
63B9
102
{ACAD_REACTORS
330
63B8
102
}
330
63B8
100
AcDbXrecord
280
     1
102
SHADEPLOT
 70
     0
102
SHADEPLOTRESLEVEL
 70
     2
102
SHADEPLOTCUSTOMDPI
 70
   300
  0
XRECORD
  5
6320
102
{ACAD_REACTORS
330
3156
102
}
330
3156
100
AcDbXrecord
280
     1
102
MATERIAL
148
0.0
149
0.0
149
0.0
 93
        0
 94
      127
282
     0
 72
     0
 77
     0
171
     0
175
     0
179
     0
273
     0
  0
XRECORD
  5
3158
102
{ACAD_REACTORS
330
3156
102
}
330
3156
100
AcDbXrecord
280
     1
270
     1
271
     1
  0
XRECORD
  5
3157
102
{ACAD_REACTORS
330
3156
102
}
330
3156
100
AcDbXrecord
280
     1
270
     1
271
     1
  0
XRECORD
  5
315B
102
{ACAD_REACTORS
330
3156
102
}
330
3156
100
AcDbXrecord
280
     1
270
     1
271
     1
  0
XRECORD
  5
315A
102
{ACAD_REACTORS
330
3156
102
}
330
3156
100
AcDbXrecord
280
     1
270
     1
271
     1
  0
XRECORD
  5
315C
102
{ACAD_REACTORS
330
3156
102
}
330
3156
100
AcDbXrecord
280
     1
270
     1
271
     1
  0
XRECORD
  5
3159
102
{ACAD_REACTORS
330
3156
102
}
330
3156
100
AcDbXrecord
280
     1
270
     1
271
     1
  0
XRECORD
  5
631F
102
{ACAD_REACTORS
330
314E
102
}
330
314E
100
AcDbXrecord
280
     1
102
MATERIAL
148
0.0
149
0.0
149
0.0
 93
        0
 94
      127
282
     0
 72
     0
 77
     0
171
     0
175
     0
179
     0
273
     0
  0
XRECORD
  5
3150
102
{ACAD_REACTORS
330
314E
102
}
330
314E
100
AcDbXrecord
280
     1
270
     1
271
     1
  0
XRECORD
  5
314F
102
{ACAD_REACTORS
330
314E
102
}
330
314E
100
AcDbXrecord
280
     1
270
     1
271
     1
  0
XRECORD
  5
3153
102
{ACAD_REACTORS
330
314E
102
}
330
314E
100
AcDbXrecord
280
     1
270
     1
271
     1
  0
XRECORD
  5
3152
102
{ACAD_REACTORS
330
314E
102
}
330
314E
100
AcDbXrecord
280
     1
270
     1
271
     1
  0
XRECORD
  5
3154
102
{ACAD_REACTORS
330
314E
102
}
330
314E
100
AcDbXrecord
280
     1
270
     1
271
     1
  0
XRECORD
  5
3151
102
{ACAD_REACTORS
330
314E
102
}
330
314E
100
AcDbXrecord
280
     1
270
     1
271
     1
  0
XRECORD
  5
6321
102
{ACAD_REACTORS
330
315E
102
}
330
315E
100
AcDbXrecord
280
     1
102
MATERIAL
148
0.0
149
0.0
149
0.0
 93
        0
 94
      127
282
     0
 72
     0
 77
     0
171
     0
175
     0
179
     0
273
     0
  0
XRECORD
  5
3160
102
{ACAD_REACTORS
330
315E
102
}
330
315E
100
AcDbXrecord
280
     1
270
     1
271
     1
  0
XRECORD
  5
315F
102
{ACAD_REACTORS
330
315E
102
}
330
315E
100
AcDbXrecord
280
     1
270
     1
271
     1
  0
XRECORD
  5
3163
102
{ACAD_REACTORS
330
315E
102
}
330
315E
100
AcDbXrecord
280
     1
270
     1
271
     1
  0
XRECORD
  5
3162
102
{ACAD_REACTORS
330
315E
102
}
330
315E
100
AcDbXrecord
280
     1
270
     1
271
     1
  0
XRECORD
  5
3164
102
{ACAD_REACTORS
330
315E
102
}
330
315E
100
AcDbXrecord
280
     1
270
     1
271
     1
  0
XRECORD
  5
3161
102
{ACAD_REACTORS
330
315E
102
}
330
315E
100
AcDbXrecord
280
     1
270
     1
271
     1
  0
CELLSTYLEMAP
  5
63B6
102
{ACAD_REACTORS
330
6308
102
}
330
6308
100
AcDbCellStyleMap
 90
        3
300
CELLSTYLE
  1
TABLEFORMAT_BEGIN
 90
        5
170
     1
 91
        0
 92
    32768
 62
   257
 93
        1
300
CONTENTFORMAT
  1
CONTENTFORMAT_BEGIN
 90
        0
 91
        0
 92
      512
 93
        0
300

 40
0.0
140
1.0
 94
        5
 62
     0
340
17
144
6.0
309
CONTENTFORMAT_END
171
     1
301
MARGIN
  1
CELLMARGIN_BEGIN
 40
1.5
 40
1.5
 40
1.5
 40
1.5
 40
0.18
 40
0.18
309
CELLMARGIN_END
 94
        6
 95
        1
302
GRIDFORMAT
  1
GRIDFORMAT_BEGIN
 90
        0
 91
        1
 62
     0
 92
       -2
340
0
 93
        0
 40
1.125
309
GRIDFORMAT_END
 95
        2
302
GRIDFORMAT
  1
GRIDFORMAT_BEGIN
 90
        0
 91
        1
 62
     0
 92
       -2
340
0
 93
        0
 40
1.125
309
GRIDFORMAT_END
 95
        4
302
GRIDFORMAT
  1
GRIDFORMAT_BEGIN
 90
        0
 91
        1
 62
     0
 92
       -2
340
0
 93
        0
 40
1.125
309
GRIDFORMAT_END
 95
        8
302
GRIDFORMAT
  1
GRIDFORMAT_BEGIN
 90
        0
 91
        1
 62
     0
 92
       -2
340
0
 93
        0
 40
1.125
309
GRIDFORMAT_END
 95
       16
302
GRIDFORMAT
  1
GRIDFORMAT_BEGIN
 90
        0
 91
        1
 62
     0
 92
       -2
340
0
 93
        0
 40
1.125
309
GRIDFORMAT_END
 95
       32
302
GRIDFORMAT
  1
GRIDFORMAT_BEGIN
 90
        0
 91
        1
 62
     0
 92
       -2
340
0
 93
        0
 40
1.125
309
GRIDFORMAT_END
309
TABLEFORMAT_END
  1
CELLSTYLE_BEGIN
 90
        1
 91
        1
300
_TITLE
309
CELLSTYLE_END
300
CELLSTYLE
  1
TABLEFORMAT_BEGIN
 90
        5
170
     1
 91
        0
 92
        0
 62
   257
 93
        1
300
CONTENTFORMAT
  1
CONTENTFORMAT_BEGIN
 90
        0
 91
        0
 92
      512
 93
        0
300

 40
0.0
140
1.0
 94
        5
 62
     0
340
17
144
4.5
309
CONTENTFORMAT_END
171
     1
301
MARGIN
  1
CELLMARGIN_BEGIN
 40
1.5
 40
1.5
 40
1.5
 40
1.5
 40
0.18
 40
0.18
309
CELLMARGIN_END
 94
        6
 95
        1
302
GRIDFORMAT
  1
GRIDFORMAT_BEGIN
 90
        0
 91
        1
 62
     0
 92
       -2
340
0
 93
        0
 40
1.125
309
GRIDFORMAT_END
 95
        2
302
GRIDFORMAT
  1
GRIDFORMAT_BEGIN
 90
        0
 91
        1
 62
     0
 92
       -2
340
0
 93
        0
 40
1.125
309
GRIDFORMAT_END
 95
        4
302
GRIDFORMAT
  1
GRIDFORMAT_BEGIN
 90
        0
 91
        1
 62
     0
 92
       -2
340
0
 93
        0
 40
1.125
309
GRIDFORMAT_END
 95
        8
302
GRIDFORMAT
  1
GRIDFORMAT_BEGIN
 90
        0
 91
        1
 62
     0
 92
       -2
340
0
 93
        0
 40
1.125
309
GRIDFORMAT_END
 95
       16
302
GRIDFORMAT
  1
GRIDFORMAT_BEGIN
 90
        0
 91
        1
 62
     0
 92
       -2
340
0
 93
        0
 40
1.125
309
GRIDFORMAT_END
 95
       32
302
GRIDFORMAT
  1
GRIDFORMAT_BEGIN
 90
        0
 91
        1
 62
     0
 92
       -2
340
0
 93
        0
 40
1.125
309
GRIDFORMAT_END
309
TABLEFORMAT_END
  1
CELLSTYLE_BEGIN
 90
        2
 91
        1
300
_HEADER
309
CELLSTYLE_END
300
CELLSTYLE
  1
TABLEFORMAT_BEGIN
 90
        5
170
     1
 91
        0
 92
        0
 62
   257
 93
        1
300
CONTENTFORMAT
  1
CONTENTFORMAT_BEGIN
 90
        0
 91
        0
 92
      512
 93
        0
300

 40
0.0
140
1.0
 94
        2
 62
     0
340
17
144
4.5
309
CONTENTFORMAT_END
171
     1
301
MARGIN
  1
CELLMARGIN_BEGIN
 40
1.5
 40
1.5
 40
1.5
 40
1.5
 40
0.18
 40
0.18
309
CELLMARGIN_END
 94
        6
 95
        1
302
GRIDFORMAT
  1
GRIDFORMAT_BEGIN
 90
        0
 91
        1
 62
     0
 92
       -2
340
0
 93
        0
 40
1.125
309
GRIDFORMAT_END
 95
        2
302
GRIDFORMAT
  1
GRIDFORMAT_BEGIN
 90
        0
 91
        1
 62
     0
 92
       -2
340
0
 93
        0
 40
1.125
309
GRIDFORMAT_END
 95
        4
302
GRIDFORMAT
  1
GRIDFORMAT_BEGIN
 90
        0
 91
        1
 62
     0
 92
       -2
340
0
 93
        0
 40
1.125
309
GRIDFORMAT_END
 95
        8
302
GRIDFORMAT
  1
GRIDFORMAT_BEGIN
 90
        0
 91
        1
 62
     0
 92
       -2
340
0
 93
        0
 40
1.125
309
GRIDFORMAT_END
 95
       16
302
GRIDFORMAT
  1
GRIDFORMAT_BEGIN
 90
        0
 91
        1
 62
     0
 92
       -2
340
0
 93
        0
 40
1.125
309
GRIDFORMAT_END
 95
       32
302
GRIDFORMAT
  1
GRIDFORMAT_BEGIN
 90
        0
 91
        1
 62
     0
 92
       -2
340
0
 93
        0
 40
1.125
309
GRIDFORMAT_END
309
TABLEFORMAT_END
  1
CELLSTYLE_BEGIN
 90
        3
 91
        2
300
_DATA
309
CELLSTYLE_END
  0
XRECORD
  5
63BC
102
{ACAD_REACTORS
330
6308
102
}
330
6308
100
AcDbXrecord
280
     1
102
ACAD_ROUNDTRIP_PRE2007_TABLESTYLE
 90
      512
 91
        0
  1

 92
      512
 93
        0
  2

 94
      512
 95
        0
  3

  0
ENDSEC
  0
EOF
