  0
SECTION
  2
HEADER
  9
$ACADVER
  1
AC1015
  9
$ACADMAINTVER
 70
    20
  9
$DWGCODEPAGE
  3
ANSI_1252
  9
$INSBASE
 10
0.0
 20
0.0
 30
0.0
  9
$EXTMIN
 10
-132.6972304311321
 20
-104.3692015876522
 30
-0.0000000000000158
  9
$EXTMAX
 10
102.7313485348613
 20
110.0434927579408
 30
0.0000000000000147
  9
$LIMMIN
 10
-66.34999999999982
 20
-2008.85
  9
$LIMMAX
 10
3734.350000000001
 20
346.85
  9
$ORTHOMODE
 70
     0
  9
$REGENMODE
 70
     1
  9
$FILLMODE
 70
     1
  9
$QTEXTMODE
 70
     0
  9
$MIRRTEXT
 70
     1
  9
$LTSCALE
 40
10.0
  9
$ATTMODE
 70
     1
  9
$TEXTSIZE
 40
0.0
  9
$TRACEWID
 40
0.05
  9
$TEXTSTYLE
  7
Standard
  9
$CLAYER
  8
0
  9
$CELTYPE
  6
Continuous
  9
$CECOLOR
 62
   256
  9
$CELTSCALE
 40
1.0
  9
$DISPSILH
 70
     0
  9
$DIMSCALE
 40
1.0
  9
$DIMASZ
 40
1.25
  9
$DIMEXO
 40
0.0
  9
$DIMDLI
 40
0.38
  9
$DIMRND
 40
0.0
  9
$DIMDLE
 40
0.0
  9
$DIMEXE
 40
0.75
  9
$DIMTP
 40
0.0
  9
$DIMTM
 40
0.0
  9
$DIMTXT
 40
2.5
  9
$DIMCEN
 40
0.09
  9
$DIMTSZ
 40
0.0
  9
$DIMTOL
 70
     0
  9
$DIMLIM
 70
     0
  9
$DIMTIH
 70
     0
  9
$DIMTOH
 70
     0
  9
$DIMSE1
 70
     0
  9
$DIMSE2
 70
     0
  9
$DIMTAD
 70
     1
  9
$DIMZIN
 70
     0
  9
$DIMBLK
  1

  9
$DIMASO
 70
     1
  9
$DIMSHO
 70
     1
  9
$DIMPOST
  1

  9
$DIMAPOST
  1

  9
$DIMALT
 70
     0
  9
$DIMALTD
 70
     2
  9
$DIMALTF
 40
25.4
  9
$DIMLFAC
 40
1.0
  9
$DIMTOFL
 70
     0
  9
$DIMTVP
 40
0.0
  9
$DIMTIX
 70
     0
  9
$DIMSOXD
 70
     0
  9
$DIMSAH
 70
     0
  9
$DIMBLK1
  1

  9
$DIMBLK2
  1

  9
$DIMSTYLE
  2
Standard
  9
$DIMCLRD
 70
     7
  9
$DIMCLRE
 70
     7
  9
$DIMCLRT
 70
     7
  9
$DIMTFAC
 40
0.8
  9
$DIMGAP
 40
1.25
  9
$DIMJUST
 70
     0
  9
$DIMSD1
 70
     0
  9
$DIMSD2
 70
     0
  9
$DIMTOLJ
 70
     1
  9
$DIMTZIN
 70
     0
  9
$DIMALTZ
 70
     0
  9
$DIMALTTZ
 70
     0
  9
$DIMUPT
 70
     0
  9
$DIMDEC
 70
     2
  9
$DIMTDEC
 70
     4
  9
$DIMALTU
 70
     2
  9
$DIMALTTD
 70
     2
  9
$DIMTXSTY
  7
Standard
  9
$DIMAUNIT
 70
     0
  9
$DIMADEC
 70
     0
  9
$DIMALTRND
 40
0.0
  9
$DIMAZIN
 70
     0
  9
$DIMDSEP
 70
     0
  9
$DIMATFIT
 70
     3
  9
$DIMFRAC
 70
     0
  9
$DIMLDRBLK
  1

  9
$DIMLUNIT
 70
     2
  9
$DIMLWD
 70
     0
  9
$DIMLWE
 70
     0
  9
$DIMTMOVE
 70
     0
  9
$LUNITS
 70
     2
  9
$LUPREC
 70
     4
  9
$SKETCHINC
 40
0.1
  9
$FILLETRAD
 40
0.0
  9
$AUNITS
 70
     0
  9
$AUPREC
 70
     0
  9
$MENU
  1
acad
  9
$ELEVATION
 40
0.0
  9
$PELEVATION
 40
0.0
  9
$THICKNESS
 40
0.0
  9
$LIMCHECK
 70
     0
  9
$CHAMFERA
 40
0.0
  9
$CHAMFERB
 40
0.0
  9
$CHAMFERC
 40
0.0
  9
$CHAMFERD
 40
0.0
  9
$SKPOLY
 70
     0
  9
$TDCREATE
 40
2455303.727916667
  9
$TDUCREATE
 40
2455303.644583334
  9
$TDUPDATE
 40
2455306.419101308
  9
$TDUUPDATE
 40
2455306.335767975
  9
$TDINDWG
 40
0.0028154398
  9
$TDUSRTIMER
 40
0.0028150926
  9
$USRTIMER
 70
     1
  9
$ANGBASE
 50
0.0
  9
$ANGDIR
 70
     0
  9
$PDMODE
 70
     0
  9
$PDSIZE
 40
0.0
  9
$PLINEWID
 40
0.0
  9
$SPLFRAME
 70
     0
  9
$SPLINETYPE
 70
     6
  9
$SPLINESEGS
 70
     8
  9
$HANDSEED
  5
6396
  9
$SURFTAB1
 70
     6
  9
$SURFTAB2
 70
     6
  9
$SURFTYPE
 70
     6
  9
$SURFU
 70
     6
  9
$SURFV
 70
     6
  9
$UCSBASE
  2

  9
$UCSNAME
  2

  9
$UCSORG
 10
0.0
 20
0.0
 30
0.0
  9
$UCSXDIR
 10
1.0
 20
0.0
 30
0.0
  9
$UCSYDIR
 10
0.0
 20
1.0
 30
0.0
  9
$UCSORTHOREF
  2

  9
$UCSORTHOVIEW
 70
     0
  9
$UCSORGTOP
 10
0.0
 20
0.0
 30
0.0
  9
$UCSORGBOTTOM
 10
0.0
 20
0.0
 30
0.0
  9
$UCSORGLEFT
 10
0.0
 20
0.0
 30
0.0
  9
$UCSORGRIGHT
 10
0.0
 20
0.0
 30
0.0
  9
$UCSORGFRONT
 10
0.0
 20
0.0
 30
0.0
  9
$UCSORGBACK
 10
0.0
 20
0.0
 30
0.0
  9
$PUCSBASE
  2

  9
$PUCSNAME
  2

  9
$PUCSORG
 10
0.0
 20
0.0
 30
0.0
  9
$PUCSXDIR
 10
1.0
 20
0.0
 30
0.0
  9
$PUCSYDIR
 10
0.0
 20
1.0
 30
0.0
  9
$PUCSORTHOREF
  2

  9
$PUCSORTHOVIEW
 70
     0
  9
$PUCSORGTOP
 10
0.0
 20
0.0
 30
0.0
  9
$PUCSORGBOTTOM
 10
0.0
 20
0.0
 30
0.0
  9
$PUCSORGLEFT
 10
0.0
 20
0.0
 30
0.0
  9
$PUCSORGRIGHT
 10
0.0
 20
0.0
 30
0.0
  9
$PUCSORGFRONT
 10
0.0
 20
0.0
 30
0.0
  9
$PUCSORGBACK
 10
0.0
 20
0.0
 30
0.0
  9
$USERI1
 70
     0
  9
$USERI2
 70
     0
  9
$USERI3
 70
     0
  9
$USERI4
 70
     0
  9
$USERI5
 70
     0
  9
$USERR1
 40
0.0
  9
$USERR2
 40
0.0
  9
$USERR3
 40
0.0
  9
$USERR4
 40
0.0
  9
$USERR5
 40
0.0
  9
$WORLDVIEW
 70
     1
  9
$SHADEDGE
 70
     3
  9
$SHADEDIF
 70
    70
  9
$TILEMODE
 70
     1
  9
$MAXACTVP
 70
    16
  9
$PINSBASE
 10
0.0
 20
0.0
 30
0.0
  9
$PLIMCHECK
 70
     0
  9
$PEXTMIN
 10
1.000000000000000E+20
 20
1.000000000000000E+20
 30
1.000000000000000E+20
  9
$PEXTMAX
 10
-1.000000000000000E+20
 20
-1.000000000000000E+20
 30
-1.000000000000000E+20
  9
$PLIMMIN
 10
0.0
 20
0.0
  9
$PLIMMAX
 10
12.0
 20
9.0
  9
$UNITMODE
 70
     0
  9
$VISRETAIN
 70
     0
  9
$PLINEGEN
 70
     1
  9
$PSLTSCALE
 70
     0
  9
$TREEDEPTH
 70
  3020
  9
$CMLSTYLE
  2
Standard
  9
$CMLJUST
 70
     0
  9
$CMLSCALE
 40
1.0
  9
$PROXYGRAPHICS
 70
     0
  9
$MEASUREMENT
 70
     1
  9
$CELWEIGHT
370
     0
  9
$ENDCAPS
280
     0
  9
$JOINSTYLE
280
     0
  9
$LWDISPLAY
290
     0
  9
$INSUNITS
 70
     0
  9
$HYPERLINKBASE
  1

  9
$STYLESHEET
  1

  9
$XEDIT
290
     1
  9
$CEPSNTYPE
380
     0
  9
$PSTYLEMODE
290
     1
  9
$FINGERPRINTGUID
  2

  9
$VERSIONGUID
  2
{FF14ABA8-43E0-4831-85F1-A40DE657760E}
  9
$EXTNAMES
290
     1
  9
$PSVPSCALE
 40
0.0
  9
$OLESTARTUP
290
     0
  0
ENDSEC
  0
SECTION
  2
CLASSES
  0
CLASS
  1
IMAGE
  2
AcDbRasterImage
  3
ISM
 90
    34943
280
     0
281
     1
  0
CLASS
  1
DICTIONARYVAR
  2
AcDbDictionaryVar
  3
ObjectDBX Classes
 90
        0
280
     0
281
     0
  0
CLASS
  1
RASTERVARIABLES
  2
AcDbRasterVariables
  3
ISM
 90
    32768
280
     0
281
     0
  0
CLASS
  1
IMAGEDEF
  2
AcDbRasterImageDef
  3
ISM
 90
    32768
280
     0
281
     0
  0
CLASS
  1
IMAGEDEF_REACTOR
  2
AcDbRasterImageDefReactor
  3
ISM
 90
    32769
280
     0
281
     0
  0
CLASS
  1
IDBUFFER
  2
AcDbIdBuffer
  3
ObjectDBX Classes
 90
    32768
280
     0
281
     0
  0
CLASS
  1
SPATIAL_FILTER
  2
AcDbSpatialFilter
  3
ObjectDBX Classes
 90
    32768
280
     0
281
     0
  0
CLASS
  1
SORTENTSTABLE
  2
AcDbSortentsTable
  3
ObjectDBX Classes
 90
        0
280
     0
281
     0
  0
CLASS
  1
LAYER_INDEX
  2
AcDbLayerIndex
  3
ObjectDBX Classes
 90
    32768
280
     0
281
     0
  0
CLASS
  1
SPATIAL_INDEX
  2
AcDbSpatialIndex
  3
ObjectDBX Classes
 90
    32768
280
     0
281
     0
  0
CLASS
  1
OBJECT_PTR
  2
CAseDLPNTableRecord
  3
ASE-LPNTableRecord
 90
    32769
280
     0
281
     0
  0
CLASS
  1
LAYOUT
  2
AcDbLayout
  3
ObjectDBX Classes
 90
        0
280
     0
281
     0
  0
CLASS
  1
PLOTSETTINGS
  2
AcDbPlotSettings
  3
ObjectDBX Classes
 90
    32768
280
     0
281
     0
  0
CLASS
  1
ACDBDICTIONARYWDFLT
  2
AcDbDictionaryWithDefault
  3
ObjectDBX Classes
 90
        0
280
     0
281
     0
  0
CLASS
  1
ACDBPLACEHOLDER
  2
AcDbPlaceHolder
  3
ObjectDBX Classes
 90
        0
280
     0
281
     0
  0
CLASS
  1
VBA_PROJECT
  2
AcDbVbaProject
  3
acad
 90
    32768
280
     0
281
     0
  0
CLASS
  1
WIPEOUT
  2
AcDbWipeout
  3
"WipeOut|Product Desc: Object Enabler for WipeOut entity                        |Company: Autodesk, Inc.                        |WEB Address: www.autodesk.com"
 90
    34943
280
     0
281
     1
  0
CLASS
  1
WIPEOUTVARIABLES
  2
AcDbWipeoutVariables
  3
"WipeOut|Product Desc:     WipeOut Dbx Application|Company:          Autodesk, Inc.|WEB Address:      www.autodesk.com"
 90
        0
280
     0
281
     0
  0
CLASS
  1
RTEXT
  2
RText
  3
RText|AutoCAD Express Tool|expresstools@autodesk.com
 90
    35839
280
     0
281
     1
  0
CLASS
  1
ARCALIGNEDTEXT
  2
AcDbArcAlignedText
  3
ATEXT|AutoCAD Express Tool|expresstools@autodesk.com
 90
    32768
280
     0
281
     1
  0
CLASS
  1
MATERIAL
  2
AcDbMaterial
  3
ObjectDBX Classes
 90
     1153
280
     0
281
     0
  0
CLASS
  1
VISUALSTYLE
  2
AcDbVisualStyle
  3
ObjectDBX Classes
 90
     4095
280
     0
281
     0
  0
CLASS
  1
TABLESTYLE
  2
AcDbTableStyle
  3
ObjectDBX Classes
 90
     4095
280
     0
281
     0
  0
CLASS
  1
SCALE
  2
AcDbScale
  3
ObjectDBX Classes
 90
     1153
280
     0
281
     0
  0
CLASS
  1
MLEADERSTYLE
  2
AcDbMLeaderStyle
  3
ACDB_MLEADERSTYLE_CLASS
 90
     4095
280
     0
281
     0
  0
CLASS
  1
CELLSTYLEMAP
  2
AcDbCellStyleMap
  3
ObjectDBX Classes
 90
     1152
280
     0
281
     0
  0
ENDSEC
  0
SECTION
  2
TABLES
  0
TABLE
  2
VPORT
  5
7
330
0
100
AcDbSymbolTable
 70
     1
  0
VPORT
  5
15
330
7
100
AcDbSymbolTableRecord
100
AcDbViewportTableRecord
  2
*ACTIVE
 70
     0
 10
0.0
 20
0.0
 11
1.0
 21
1.0
 12
-22.78301751965469
 22
0.2110528455613121
 13
0.0
 23
0.0
 14
1.0
 24
1.0
 15
0.0
 25
0.0
 16
0.0
 26
0.0
 36
1.0
 17
0.0
 27
0.0
 37
0.0
 40
242.5891701710757
 41
1.611330698287219
 42
50.0
 43
0.0
 44
0.0
 50
0.0
 51
0.0
 71
     0
 72
   100
 73
     1
 74
     1
 75
     0
 76
     0
 77
     0
 78
     0
281
     0
 65
     0
110
0.0
120
0.0
130
0.0
111
1.0
121
0.0
131
0.0
112
0.0
122
1.0
132
0.0
 79
     0
146
0.0
  0
ENDTAB
  0
TABLE
  2
LTYPE
  5
4
330
0
100
AcDbSymbolTable
 70
     4
  0
LTYPE
  5
11
330
4
100
AcDbSymbolTableRecord
100
AcDbLinetypeTableRecord
  2
ByBlock
 70
     0
  3

 72
    65
 73
     0
 40
0.0
  0
LTYPE
  5
12
330
4
100
AcDbSymbolTableRecord
100
AcDbLinetypeTableRecord
  2
ByLayer
 70
     0
  3

 72
    65
 73
     0
 40
0.0
  0
LTYPE
  5
13
330
4
100
AcDbSymbolTableRecord
100
AcDbLinetypeTableRecord
  2
Continuous
 70
     0
  3
Solid line
 72
    65
 73
     0
 40
0.0
  0
LTYPE
  5
1E4
330
4
100
AcDbSymbolTableRecord
100
AcDbLinetypeTableRecord
  2
CENTER
 70
     0
  3
____ _ ____ _ ____ _ ____ _ ____ _ ____ _ ____
 72
    65
 73
     4
 40
2.0
 49
1.25
 74
     0
 49
-0.25
 74
     0
 49
0.25
 74
     0
 49
-0.25
 74
     0
  0
ENDTAB
  0
TABLE
  2
LAYER
  5
2
330
0
100
AcDbSymbolTable
 70
     1
  0
LAYER
  5
14
102
{ACAD_XDICTIONARY
360
5E41
102
}
330
2
100
AcDbSymbolTableRecord
100
AcDbLayerTableRecord
  2
0
 70
     0
 62
     7
  6
Continuous
370
    -3
390
1D
  0
ENDTAB
  0
TABLE
  2
STYLE
  5
3
330
0
100
AcDbSymbolTable
 70
     1
  0
STYLE
  5
17
330
3
100
AcDbSymbolTableRecord
100
AcDbTextStyleTableRecord
  2
Standard
 70
     0
 40
0.0
 41
1.0
 50
0.0
 71
     0
 42
0.0
  3
I011000D.TTF
  4

1001
ACAD
1000
IsonormD
1071
        0
  0
ENDTAB
  0
TABLE
  2
VIEW
  5
5
330
0
100
AcDbSymbolTable
 70
     0
  0
ENDTAB
  0
TABLE
  2
UCS
  5
6
330
0
100
AcDbSymbolTable
 70
     0
  0
ENDTAB
  0
TABLE
  2
APPID
  5
8
330
0
100
AcDbSymbolTable
 70
     5
  0
APPID
  5
16
330
8
100
AcDbSymbolTableRecord
100
AcDbRegAppTableRecord
  2
ACAD
 70
     0
  0
APPID
  5
26
330
8
100
AcDbSymbolTableRecord
100
AcDbRegAppTableRecord
  2
TopSolid'Draft
 70
     0
  0
APPID
  5
319D
330
8
100
AcDbSymbolTableRecord
100
AcDbRegAppTableRecord
  2
ACAD_MLEADERVER
 70
     0
  0
APPID
  5
5E45
330
8
100
AcDbSymbolTableRecord
100
AcDbRegAppTableRecord
  2
DCO15
 70
     0
  0
APPID
  5
6374
330
8
100
AcDbSymbolTableRecord
100
AcDbRegAppTableRecord
  2
ACAD_EXEMPT_FROM_CAD_STANDARDS
 70
     0
  0
ENDTAB
  0
TABLE
  2
DIMSTYLE
  5
9
330
0
100
AcDbSymbolTable
 70
     2
100
AcDbDimStyleTable
 71
     1
340
18
  0
DIMSTYLE
105
18
330
9
100
AcDbSymbolTableRecord
100
AcDbDimStyleTableRecord
  2
Standard
 70
     0
 41
1.25
 42
0.0
 44
0.75
 73
     0
 74
     0
 77
     1
140
2.5
146
0.8
147
1.25
176
     7
177
     7
178
     7
271
     2
340
17
  0
ENDTAB
  0
TABLE
  2
BLOCK_RECORD
  5
1
330
0
100
AcDbSymbolTable
 70
     2
  0
BLOCK_RECORD
  5
A
102
{ACAD_XDICTIONARY
360
31A7
102
}
330
1
100
AcDbSymbolTableRecord
100
AcDbBlockTableRecord
  2
*MODEL_SPACE
340
20
  0
BLOCK_RECORD
  5
B
330
1
100
AcDbSymbolTableRecord
100
AcDbBlockTableRecord
  2
*PAPER_SPACE
340
21
  0
ENDTAB
  0
ENDSEC
  0
SECTION
  2
BLOCKS
  0
BLOCK
  5
D
330
A
100
AcDbEntity
  8
0
100
AcDbBlockBegin
  2
*MODEL_SPACE
 70
     0
 10
0.0
 20
0.0
 30
0.0
  3
*MODEL_SPACE
  1

  0
ENDBLK
  5
E
330
A
100
AcDbEntity
  8
0
100
AcDbBlockEnd
  0
BLOCK
  5
F
330
B
100
AcDbEntity
 67
     1
  8
0
100
AcDbBlockBegin
  2
*PAPER_SPACE
 70
     0
 10
0.0
 20
0.0
 30
0.0
  3
*PAPER_SPACE
  1

  0
ENDBLK
  5
10
330
B
100
AcDbEntity
 67
     1
  8
0
100
AcDbBlockEnd
  0
ENDSEC
  0
SECTION
  2
ENTITIES
  0
LINE
  5
DD2
330
A
100
AcDbEntity
  8
0
  6
CENTER
 62
     1
100
AcDbLine
 10
-9.0
 20
0.0000000000000568
 30
0.0
 11
9.0
 21
0.0000000000000568
 31
0.0
  0
LINE
  5
DD3
330
A
100
AcDbEntity
  8
0
  6
CENTER
 62
     1
100
AcDbLine
 10
0.0
 20
-9.00000000000017
 30
0.0
 11
0.0
 21
9.000000000000142
 31
0.0
  0
LINE
  5
DD4
330
A
100
AcDbEntity
  8
0
  6
CENTER
 62
     1
100
AcDbLine
 10
-108.4500000000032
 20
-0.000000000012335
 30
0.0
 11
-113.900000000003
 21
-0.000000000012335
 31
0.0
  0
LINE
  5
DD5
330
A
100
AcDbEntity
  8
0
  6
CENTER
 62
     1
100
AcDbLine
 10
-100.5001296407129
 20
-0.0000190571440726
 30
0.0
 11
-84.50016775129098
 21
-0.0000190571440726
 31
0.0
  0
LINE
  5
DD6
330
A
100
AcDbEntity
  8
0
  6
CENTER
 62
     1
100
AcDbLine
 10
-92.50014869600205
 20
-8.000000001854971
 30
0.0
 11
-92.50014869600205
 21
7.999961887566911
 31
0.0
  0
LINE
  5
DD7
330
A
100
AcDbEntity
  8
0
  6
CENTER
 62
     1
100
AcDbLine
 10
-99.91284210923414
 20
-0.0000000000387388
 30
0.0
 11
-85.08715788988411
 21
-0.0000000000387388
 31
0.0
  0
LINE
  5
DD8
330
A
100
AcDbEntity
  8
0
  6
CENTER
 62
     1
100
AcDbLine
 10
-92.49999999955912
 20
-7.412842109713835
 30
0.0
 11
-92.49999999955912
 21
7.412842109636329
 31
0.0
  0
LINE
  5
DD9
330
A
100
AcDbEntity
  8
0
  6
CENTER
 62
     1
100
AcDbLine
 10
-129.4999999999961
 20
0.000000000006537
 30
0.0
 11
-116.1999999999961
 21
0.000000000006537
 31
0.0
  0
LINE
  5
DDA
330
A
100
AcDbEntity
  8
0
  6
CENTER
 62
     1
100
AcDbLine
 10
-9.0
 20
0.0000000000000568
 30
0.0
 11
9.0
 21
0.0000000000000568
 31
0.0
  0
LINE
  5
DDB
330
A
100
AcDbEntity
  8
0
  6
CENTER
 62
     1
100
AcDbLine
 10
0.0
 20
-9.00000000000017
 30
0.0
 11
0.0
 21
9.000000000000142
 31
0.0
  0
LINE
  5
DDC
330
A
100
AcDbEntity
  8
0
  6
CENTER
 62
     1
100
AcDbLine
 10
-24.830277316089
 20
-0.0000000000073612
 30
0.0
 11
-50.99999999999091
 21
-0.0000000000073612
 31
0.0
  0
LINE
  5
DDD
330
A
100
AcDbEntity
  8
0
  6
CENTER
 62
     1
100
AcDbLine
 10
-0.0000000000050022
 20
85.95000000000624
 30
0.0
 11
-0.0000000000050022
 21
91.40000000000624
 31
0.0
  0
LINE
  5
DDE
330
A
100
AcDbEntity
  8
0
  6
CENTER
 62
     1
100
AcDbLine
 10
-33.70000000028904
 20
69.99999999993065
 30
0.0
 11
-44.95000000029086
 21
70.00000000064813
 31
0.0
  0
LINE
  5
DDF
330
A
100
AcDbEntity
  8
0
  6
CENTER
 62
     1
100
AcDbLine
 10
-25.95000000029086
 20
69.99999999943492
 30
0.0
 11
-31.4000000002909
 21
69.99999999978263
 31
0.0
  0
LINE
  5
DE0
330
A
100
AcDbEntity
  8
0
  6
CENTER
 62
     1
100
AcDbLine
 10
-0.0000000000050022
 20
106.9999999999988
 30
0.0
 11
-0.0000000000050022
 21
93.69999999999976
 31
0.0
  0
LINE
  5
DE1
330
A
100
AcDbEntity
  8
0
  6
CENTER
 62
     1
100
AcDbLine
 10
-0.0000000000050022
 20
-78.45000000000485
 30
0.0
 11
-0.0000000000050022
 21
-83.90000000000474
 31
0.0
  0
LINE
  5
DE2
330
A
100
AcDbEntity
  8
0
  6
CENTER
 62
     1
100
AcDbLine
 10
-33.70000000028904
 20
-62.49999999992926
 30
0.0
 11
-44.95000000029086
 21
-62.50000000064677
 31
0.0
  0
LINE
  5
DE3
330
A
100
AcDbEntity
  8
0
  6
CENTER
 62
     1
100
AcDbLine
 10
-25.95000000029086
 20
-62.49999999943359
 30
0.0
 11
-31.4000000002909
 21
-62.49999999978118
 31
0.0
  0
LINE
  5
DE4
330
A
100
AcDbEntity
  8
0
  6
CENTER
 62
     1
100
AcDbLine
 10
-0.0000000000050022
 20
-99.49999999999747
 30
0.0
 11
-0.0000000000050022
 21
-86.19999999999834
 31
0.0
  0
ELLIPSE
  5
51D0
330
A
100
AcDbEntity
  8
0
  6
Continuous
 62
     7
370
     0
100
AcDbEllipse
 10
57.8085084825741
 20
-71.30398482547557
 30
0.0
 11
-4.480000000000039
 21
-21.94742809533728
 31
0.0000000000000016
210
0.0
220
0.0000000000000001
230
1.0
 40
0.4082482904636649
 41
0.4636476090010511
 42
0.5360089380973862
  0
LINE
  5
51D1
330
A
100
AcDbEntity
  8
0
  6
Continuous
 62
     7
370
     0
100
AcDbLine
 10
56.92817460700712
 20
-92.47108323847685
 30
0.0
 11
57.8085084825741
 21
-91.75229363900166
 31
0.0
  0
LINE
  5
51D2
330
A
100
AcDbEntity
  8
0
  6
Continuous
 62
     7
370
     0
100
AcDbLine
 10
56.92817460700712
 20
-92.47108323847685
 30
0.0
 11
56.92817460700712
 21
-55.95624607146587
 31
0.0
  0
LINE
  5
51D3
330
A
100
AcDbEntity
  8
0
  6
Continuous
 62
     7
370
     0
100
AcDbLine
 10
56.92817460700712
 20
-55.95624607146575
 30
0.0
 11
57.8085084825741
 21
-55.23745647199067
 31
0.0
  0
ELLIPSE
  5
51D4
330
A
100
AcDbEntity
  8
0
  6
Continuous
 62
     7
370
     0
100
AcDbEllipse
 10
57.8085084825741
 20
-75.68576528551677
 30
0.0
 11
-4.480000000000039
 21
-21.94742809533728
 31
0.0000000000000016
210
0.0
220
0.0000000000000001
230
1.0
 40
0.4082482904636647
 41
3.141592653589984
 42
3.605240262590791
  0
LINE
  5
51D5
330
A
100
AcDbEntity
  8
0
  6
Continuous
 62
     7
370
     0
100
AcDbLine
 10
55.49709110140793
 20
-55.66412737412986
 30
0.0
 11
56.92817460700712
 21
-55.95624607146575
 31
0.0
  0
LINE
  5
51D6
330
A
100
AcDbEntity
  8
0
  6
Continuous
 62
     9
370
     0
100
AcDbLine
 10
56.37742497697491
 20
-54.94533777465466
 30
0.0
 11
55.49709110140793
 21
-55.66412737412986
 31
0.0
  0
LINE
  5
51D7
330
A
100
AcDbEntity
  8
0
  6
Continuous
 62
     9
370
     0
100
AcDbLine
 10
56.37742497697491
 20
-54.94533777465466
 30
0.0
 11
57.8085084825741
 21
-55.23745647199067
 31
0.0
  0
LINE
  5
51D8
330
A
100
AcDbEntity
  8
0
  6
Continuous
 62
     7
370
     0
100
AcDbLine
 10
55.49709110140793
 20
-92.17896454114095
 30
0.0
 11
56.92817460700712
 21
-92.47108323847685
 31
0.0
  0
LINE
  5
51D9
330
A
100
AcDbEntity
  8
0
  6
Continuous
 62
     9
370
     0
100
AcDbLine
 10
55.49709110140793
 20
-55.66412737412986
 30
0.0
 11
55.49709110140793
 21
-92.17896454114095
 31
0.0
  0
ELLIPSE
  5
51DA
330
A
100
AcDbEntity
  8
0
  6
Continuous
 62
     7
370
     0
100
AcDbEllipse
 10
56.57040373060681
 20
-56.97866151214276
 30
0.0
 11
-2.369009898329776
 21
1.124090145574019
 31
0.0
210
0.0
220
0.0
230
1.0
 40
0.3419987131198563
 41
6.122310029981217
 42
6.444060584377662
  0
ELLIPSE
  5
51DB
330
A
100
AcDbEntity
  8
0
  6
Continuous
 62
     7
370
     0
100
AcDbEllipse
 10
56.57040373060681
 20
-89.11171821911246
 30
0.0
 11
1.403304683192495
 21
2.957452031713769
 31
0.0
210
0.0
220
0.0
230
1.0
 40
0.6583306249918342
 41
2.195319212994168
 42
3.302467930788068
  0
ELLIPSE
  5
51DC
330
A
100
AcDbEntity
  8
0
  6
Continuous
 62
     7
370
     0
100
AcDbEllipse
 10
56.57040373060681
 20
-56.97866151214276
 30
0.0
 11
-2.369009898329776
 21
1.124090145574019
 31
0.0
210
0.0
220
0.0
230
1.0
 40
0.3419987131198563
 41
5.336911866583761
 42
6.122310029981217
  0
ELLIPSE
  5
51DD
330
A
100
AcDbEntity
  8
0
  6
Continuous
 62
     9
370
     0
100
AcDbEllipse
 10
56.37742497697491
 20
-57.13622800467536
 30
0.0
 11
-1.517893276880899
 21
1.85903200617962
 31
-0.0000000000000001
210
0.0
220
0.0
230
1.0
 40
0.8164965809273294
 41
5.497787143782188
 42
6.283185307179584
  0
ELLIPSE
  5
51DE
330
A
100
AcDbEntity
  8
0
  6
Continuous
 62
     7
370
     0
100
AcDbEllipse
 10
57.8085084825741
 20
-75.68576528551677
 30
0.0
 11
-4.480000000000039
 21
-21.94742809533728
 31
0.0000000000000016
210
0.0
220
0.0000000000000001
230
1.0
 40
0.4082482904636647
 41
2.721142832177326
 42
3.141592653589792
  0
ELLIPSE
  5
51DF
330
A
100
AcDbEntity
  8
0
  6
Continuous
 62
     9
370
     0
100
AcDbEllipse
 10
56.37742497697491
 20
-75.39364658818076
 30
0.0
 11
4.480000000000039
 21
21.94742809533725
 31
-0.0000000000000016
210
0.0
220
0.0000000000000001
230
1.0
 40
0.4082482904636647
 41
0.00000000000001
 42
0.4636476090008081
  0
ELLIPSE
  5
51E0
330
A
100
AcDbEntity
  8
0
  6
Continuous
 62
     7
370
     0
100
AcDbEllipse
 10
62.29473775300403
 20
-69.83188419493217
 30
0.0
 11
0.7840000000001178
 21
3.840799916684066
 31
-0.0000000000000003
210
0.0
220
0.0000000000000001
230
1.0
 40
0.408248290463665
 41
6.283185307179527
 42
6.33980175898765
  0
ELLIPSE
  5
51E1
330
A
100
AcDbEntity
  8
0
  6
Continuous
 62
     7
370
     0
100
AcDbEllipse
 10
62.29473775300403
 20
-69.83188419493217
 30
0.0
 11
0.7840000000001178
 21
3.840799916684066
 31
-0.0000000000000003
210
0.0
220
0.0000000000000001
230
1.0
 40
0.4082482904636647
 41
3.084976201785003
 42
3.141592653589905
  0
ELLIPSE
  5
51E2
330
A
100
AcDbEntity
  8
0
  6
Continuous
 62
     7
370
     0
100
AcDbEllipse
 10
58.71702898900299
 20
-57.42108955819557
 30
0.0
 11
0.320000000000098
 21
1.56767343538122
 31
0.0
210
0.0
220
0.0
230
1.0
 40
0.4082482904638633
 41
0.4420702541340389
 42
2.034443935795585
  0
ELLIPSE
  5
51E3
330
A
100
AcDbEntity
  8
0
  6
Continuous
 62
     7
370
     0
100
AcDbEllipse
 10
58.52405023537108
 20
-75.83182463418316
 30
0.0
 11
4.320000000000101
 21
21.16359137764662
 31
0.0
210
0.0
220
0.0
230
1.0
 40
0.4082482904638631
 41
5.945536759032022
 42
6.283185307179584
  0
ELLIPSE
  5
51E4
330
A
100
AcDbEntity
  8
0
  6
Continuous
 62
     7
370
     0
100
AcDbEllipse
 10
58.52405023537108
 20
-71.45004417414185
 30
0.0
 11
4.320000000000101
 21
21.16359137764662
 31
-0.0000000000000015
210
0.0
220
0.0000000000000001
230
1.0
 40
0.4082482904638635
 41
3.626817617457274
 42
4.173891460629521
  0
ELLIPSE
  5
51E5
330
A
100
AcDbEntity
  8
0
  6
Continuous
 62
     7
370
     0
100
AcDbEllipse
 10
58.71702898900299
 20
-89.54564626506416
 30
0.0
 11
0.320000000000098
 21
1.567673435381208
 31
0.0
210
0.0
220
0.0
230
1.0
 40
0.4082482904638633
 41
2.034443935795585
 42
3.141592653589516
  0
LINE
  5
51E6
330
A
100
AcDbEntity
  8
0
  6
Continuous
 62
     7
370
     0
100
AcDbLine
 10
58.00148723620281
 20
-58.00532695286776
 30
0.0
 11
58.00148723620281
 21
-90.12988365973635
 31
0.0
  0
ELLIPSE
  5
51E7
330
A
100
AcDbEntity
  8
0
  6
Continuous
 62
     7
370
     0
100
AcDbEllipse
 10
63.01027950580283
 20
-69.97794354359687
 30
0.0
 11
-0.879999999999992
 21
-4.311101947298388
 31
0.0
210
0.0
220
0.0
230
1.0
 40
0.4082482904638633
 41
3.233071728630734
 42
3.605240262590573
  0
LINE
  5
51E8
330
A
100
AcDbEntity
  8
0
  6
Continuous
 62
     9
370
     0
100
AcDbLine
 10
58.016925536494
 20
-55.80217140344846
 30
0.0
 11
58.73246728929394
 21
-55.94823075211656
 31
0.0
  0
LINE
  5
51E9
330
A
100
AcDbEntity
  8
0
  6
Continuous
 62
     9
370
     0
100
AcDbLine
 10
58.00148723620281
 20
-58.00532695286776
 30
0.0
 11
57.28594548340288
 21
-57.85926760419966
 31
0.0
  0
ELLIPSE
  5
51EA
330
A
100
AcDbEntity
  8
0
  6
Continuous
 62
     7
370
     0
100
AcDbEllipse
 10
58.00148723620281
 20
-57.27503020952744
 30
0.0
 11
-0.320000000000098
 21
-1.567673435381249
 31
0.0
210
0.0
220
0.0
230
1.0
 40
0.4082482904638633
 41
3.583662907723971
 42
5.176036589385518
  0
LINE
  5
51EB
330
A
100
AcDbEntity
  8
0
  6
Continuous
 62
     9
370
     0
100
AcDbLine
 10
57.28594548340288
 20
-89.98382431106824
 30
0.0
 11
58.00148723620281
 21
-90.12988365973635
 31
0.0
  0
LINE
  5
51EC
330
A
100
AcDbEntity
  8
0
  6
Continuous
 62
     7
370
     0
100
AcDbLine
 10
57.28594548340288
 20
-57.85926760419966
 30
0.0
 11
57.28594548340288
 21
-89.98382431106824
 31
0.0
  0
ELLIPSE
  5
51ED
330
A
100
AcDbEntity
  8
0
  6
Continuous
 62
     7
370
     0
100
AcDbEllipse
 10
58.52405023537108
 20
-75.83182463418316
 30
0.0
 11
4.320000000000101
 21
21.16359137764662
 31
-0.0000000000000015
210
0.0
220
0.0000000000000001
230
1.0
 40
0.4082482904638635
 41
0.0000000000000003
 42
0.442070254134119
  0
ELLIPSE
  5
51EE
330
A
100
AcDbEntity
  8
0
  6
Continuous
 62
     7
370
     0
100
AcDbEllipse
 10
57.80850848257092
 20
-75.68576528551517
 30
0.0
 11
4.320000000000101
 21
21.16359137764668
 31
-0.0000000000000015
210
0.0
220
0.0000000000000001
230
1.0
 40
0.4082482904638635
 41
6.283185307179576
 42
6.725255561313716
  0
ELLIPSE
  5
51EF
330
A
100
AcDbEntity
  8
0
  6
Continuous
 62
     7
370
     0
100
AcDbEllipse
 10
63.01027950580283
 20
-69.97794354359687
 30
0.0
 11
-0.879999999999992
 21
-4.311101947298388
 31
0.0000000000000003
210
0.0
220
0.0000000000000001
230
1.0
 40
0.4082482904638634
 41
3.605240262590573
 42
6.283185307179584
  0
ELLIPSE
  5
51F0
330
A
100
AcDbEntity
  8
0
  6
Continuous
 62
     7
370
     0
100
AcDbEllipse
 10
63.01027950580283
 20
-69.97794354359687
 30
0.0
 11
-0.879999999999992
 21
-4.311101947298388
 31
0.0000000000000003
210
0.0
220
0.0000000000000001
230
1.0
 40
0.4082482904638634
 41
0.0
 42
0.4714534680973756
  0
ELLIPSE
  5
51F1
330
A
100
AcDbEntity
  8
0
  6
Continuous
 62
     7
370
     0
100
AcDbEllipse
 10
62.29473775300289
 20
-69.83188419492868
 30
0.0
 11
-0.879999999999992
 21
-4.311101947298388
 31
0.0
210
0.0
220
0.0
230
1.0
 40
0.4082482904638633
 41
2.790900320464643
 42
2.93688706225876
  0
ELLIPSE
  5
51F2
330
A
100
AcDbEntity
  8
0
  6
Continuous
 62
     7
370
     0
100
AcDbEllipse
 10
62.29473775300289
 20
-69.83188419492868
 30
0.0
 11
-0.879999999999992
 21
-4.311101947298388
 31
0.0000000000000003
210
0.0
220
0.0000000000000001
230
1.0
 40
0.4082482904638634
 41
0.2047055913311094
 42
0.4714534680973776
  0
ELLIPSE
  5
51F3
330
A
100
AcDbEntity
  8
0
  6
Continuous
 62
     7
370
     0
100
AcDbEllipse
 10
58.71702898900299
 20
-89.54564626506416
 30
0.0
 11
0.320000000000098
 21
1.567673435381208
 31
0.0
210
0.0
220
0.0
230
1.0
 40
0.4082482904638633
 41
3.141592653589516
 42
3.626817617457193
  0
ELLIPSE
  5
51F4
330
A
100
AcDbEntity
  8
0
  6
Continuous
 62
     7
370
     0
100
AcDbEllipse
 10
58.00148723620281
 20
-89.39958691639604
 30
0.0
 11
-0.320000000000098
 21
-1.567673435381249
 31
0.0
210
0.0
220
0.0
230
1.0
 40
0.4082482904638633
 41
5.176036589385516
 42
6.283185307179445
  0
ELLIPSE
  5
51F5
330
A
100
AcDbEntity
  8
0
  6
Continuous
 62
     7
370
     0
100
AcDbEllipse
 10
65.15690476420195
 20
-58.73562369621044
 30
0.0
 11
0.320000000000098
 21
1.567673435381195
 31
0.0
210
0.0
220
0.0
230
1.0
 40
0.4082482904638633
 41
0.4420702541340427
 42
2.034443935795589
  0
ELLIPSE
  5
51F6
330
A
100
AcDbEntity
  8
0
  6
Continuous
 62
     7
370
     0
100
AcDbEllipse
 10
64.96392601056914
 20
-72.76457831215677
 30
0.0
 11
4.320000000000101
 21
21.16359137764662
 31
0.0
210
0.0
220
0.0
230
1.0
 40
0.4082482904638633
 41
3.626817617457276
 42
3.650976218022305
  0
ELLIPSE
  5
51F7
330
A
100
AcDbEntity
  8
0
  6
Continuous
 62
     7
370
     0
100
AcDbEllipse
 10
65.15690476420195
 20
-90.86018040307905
 30
0.0
 11
0.320000000000098
 21
1.567673435381208
 31
0.0
210
0.0
220
0.0
230
1.0
 40
0.4082482904638633
 41
2.034443935795585
 42
3.141592653589516
  0
LINE
  5
51F8
330
A
100
AcDbEntity
  8
0
  6
Continuous
 62
     7
370
     0
100
AcDbLine
 10
64.44136301140179
 20
-59.31986109088256
 30
0.0
 11
64.44136301140179
 21
-91.44441779775117
 31
0.0
  0
LINE
  5
51F9
330
A
100
AcDbEntity
  8
0
  6
Continuous
 62
     9
370
     0
100
AcDbLine
 10
64.45680131169297
 20
-57.11670554146337
 30
0.0
 11
65.172343064492
 21
-57.26276489013145
 31
0.0
  0
LINE
  5
51FA
330
A
100
AcDbEntity
  8
0
  6
Continuous
 62
     9
370
     0
100
AcDbLine
 10
64.44136301140179
 20
-59.31986109088256
 30
0.0
 11
63.72582125860185
 21
-59.17380174221458
 31
0.0
  0
ELLIPSE
  5
51FB
330
A
100
AcDbEntity
  8
0
  6
Continuous
 62
     7
370
     0
100
AcDbEllipse
 10
64.44136301140179
 20
-58.58956434754233
 30
0.0
 11
-0.320000000000098
 21
-1.567673435381277
 31
0.0
210
0.0
220
0.0
230
1.0
 40
0.4082482904638633
 41
3.583662907723967
 42
5.176036589385512
  0
LINE
  5
51FC
330
A
100
AcDbEntity
  8
0
  6
Continuous
 62
     9
370
     0
100
AcDbLine
 10
63.72582125860185
 20
-91.29835844908317
 30
0.0
 11
64.44136301140179
 21
-91.44441779775117
 31
0.0
  0
LINE
  5
51FD
330
A
100
AcDbEntity
  8
0
  6
Continuous
 62
     7
370
     0
100
AcDbLine
 10
63.72582125860185
 20
-59.17380174221458
 30
0.0
 11
63.72582125860185
 21
-91.29835844908317
 31
0.0
  0
ELLIPSE
  5
51FE
330
A
100
AcDbEntity
  8
0
  6
Continuous
 62
     7
370
     0
100
AcDbEllipse
 10
64.96392601056914
 20
-77.14635877219805
 30
0.0
 11
4.320000000000101
 21
21.16359137764665
 31
-0.0000000000000015
210
0.0
220
0.0000000000000001
230
1.0
 40
0.4082482904638633
 41
0.3593411616034217
 42
0.4420702541341194
  0
ELLIPSE
  5
51FF
330
A
100
AcDbEntity
  8
0
  6
Continuous
 62
     7
370
     0
100
AcDbEllipse
 10
64.24838425776897
 20
-77.00029942352998
 30
0.0
 11
4.320000000000101
 21
21.16359137764662
 31
-0.0000000000000015
210
0.0
220
0.0000000000000001
230
1.0
 40
0.4082482904638635
 41
0.2570177019611965
 42
0.4420702541341197
  0
ELLIPSE
  5
5200
330
A
100
AcDbEntity
  8
0
  6
Continuous
 62
     7
370
     0
100
AcDbEllipse
 10
65.15690476420195
 20
-90.86018040307905
 30
0.0
 11
0.320000000000098
 21
1.567673435381208
 31
-0.0000000000000001
210
0.0
220
0.0000000000000001
230
1.0
 40
0.4082482904638635
 41
3.141592653589516
 42
3.626817617457193
  0
ELLIPSE
  5
5201
330
A
100
AcDbEntity
  8
0
  6
Continuous
 62
     7
370
     0
100
AcDbEllipse
 10
64.44136301140179
 20
-90.71412105441096
 30
0.0
 11
-0.320000000000098
 21
-1.567673435381249
 31
0.0000000000000001
210
0.0
220
0.0000000000000001
230
1.0
 40
0.4082482904638633
 41
5.176036589385516
 42
6.283185307179445
  0
ELLIPSE
  5
5202
330
A
100
AcDbEntity
  8
0
  6
Continuous
 62
     9
370
     0
100
AcDbEllipse
 10
72.2841356613319
 20
-87.57234148615685
 30
0.0
 11
-14.16700391755431
 21
17.3509653910092
 31
-0.0000000000000008
210
0.0
220
0.0
230
1.0
 40
0.8164965809281008
 41
4.231683471002352
 42
5.497787143782361
  0
ELLIPSE
  5
5203
330
A
100
AcDbEntity
  8
0
  6
Continuous
 62
     9
370
     0
100
AcDbEllipse
 10
89.34871886749602
 20
-85.57840937180106
 30
0.0
 11
2.305092925928287
 21
0.6682414255608507
 31
0.0
210
0.0
220
0.0
230
1.0
 40
0.266969561045828
 41
4.152374576559727
 42
5.723170903354897
  0
ELLIPSE
  5
5204
330
A
100
AcDbEntity
  8
0
  6
Continuous
 62
     9
370
     0
100
AcDbEllipse
 10
71.21082303213097
 20
-88.44869757816555
 30
0.0
 11
12.64911064067364
 21
-15.49193338482974
 31
0.0000000000000007
210
0.0000000000000001
220
0.0000000000000001
230
1.0
 40
0.8164965809281012
 41
1.090090817412685
 42
2.334617135326029
  0
LINE
  5
5205
330
A
100
AcDbEntity
  8
0
  6
Continuous
 62
     7
370
     0
100
AcDbLine
 10
71.228314085193
 20
-69.78308137830947
 30
0.0
 11
71.59678053939592
 21
-70.27431224097154
 31
0.0
  0
ELLIPSE
  5
5206
330
A
100
AcDbEntity
  8
0
  6
Continuous
 62
     9
370
     0
100
AcDbEllipse
 10
72.2841356613319
 20
-69.31492290264606
 30
0.0
 11
0.4800000000000361
 21
2.351510153071831
 31
-0.0000000000000002
210
0.0
220
0.0000000000000001
230
1.0
 40
0.4082482904639321
 41
0.4636476090007327
 42
1.853663507733038
  0
ELLIPSE
  5
5207
330
A
100
AcDbEntity
  8
0
  6
Continuous
 62
     9
370
     0
100
AcDbEllipse
 10
78.03665631459717
 20
-87.65112473242316
 30
0.0
 11
7.589466384404051
 21
-9.295160030897763
 31
0.0000000000000004
210
0.0000000000000001
220
0.0000000000000001
230
1.0
 40
0.8164965809281012
 41
0.4807055093818187
 42
1.09009081741291
  0
ELLIPSE
  5
5208
330
A
100
AcDbEntity
  8
0
  6
Continuous
 62
     9
370
     0
100
AcDbEllipse
 10
71.21082303213097
 20
-84.06691711812296
 30
0.0
 11
12.64911064067364
 21
-15.49193338482974
 31
0.0000000000000021
210
0.0
220
0.0000000000000001
230
1.0
 40
0.8164965809281003
 41
5.519364498649037
 42
6.763890816561549
  0
LINE
  5
5209
330
A
100
AcDbEntity
  8
0
  6
Continuous
 62
     9
370
     0
100
AcDbLine
 10
71.59678053939592
 20
-102.3988689478495
 30
0.0
 11
71.59678053939592
 21
-70.27431224097154
 31
0.0
  0
ELLIPSE
  5
520A
330
A
100
AcDbEntity
  8
0
  6
Continuous
 62
     7
370
     0
100
AcDbEllipse
 10
72.99967741413206
 20
-86.98810409148446
 30
0.0
 11
14.16700391755432
 21
-17.35096539100922
 31
0.0000000000000008
210
0.0000000000000001
220
0.0000000000000001
230
1.0
 40
0.8164965809281014
 41
1.090090817412694
 42
2.356194490192708
  0
LINE
  5
520B
330
A
100
AcDbEntity
  8
0
  6
Continuous
 62
     9
370
     0
100
AcDbLine
 10
91.39646885223511
 20
-85.33913751807835
 30
0.0
 11
92.11201060503503
 21
-84.75490012340596
 31
0.0
  0
LINE
  5
520C
330
A
100
AcDbEntity
  8
0
  6
Continuous
 62
     9
370
     0
100
AcDbLine
 10
72.2841356613319
 20
-67.12403267262477
 30
0.0
 11
72.99967741413206
 21
-66.53979527795226
 31
0.0
  0
ELLIPSE
  5
520D
330
A
100
AcDbEntity
  8
0
  6
Continuous
 62
     9
370
     0
100
AcDbEllipse
 10
79.10996894379696
 20
-86.77476864041457
 30
0.0
 11
-9.107359661284952
 21
11.15419203707737
 31
0.0
210
0.0
220
0.0
230
1.0
 40
0.8164965809281003
 41
3.622298162971403
 42
4.231683471002486
  0
ELLIPSE
  5
520E
330
A
100
AcDbEntity
  8
0
  6
Continuous
 62
     9
370
     0
100
AcDbEllipse
 10
89.34871886749602
 20
-92.15108006186497
 30
0.0
 11
2.279912858593968
 21
-0.7496648299187561
 31
-0.0000000000000002
210
0.0000000000000001
220
0.0
230
1.0
 40
0.5119185353242426
 41
4.396376677497156
 42
5.967173004292192
  0
LINE
  5
520F
330
A
100
AcDbEntity
  8
0
  6
Continuous
 62
     9
370
     0
100
AcDbLine
 10
91.39646885223511
 20
-93.22634234615504
 30
0.0
 11
92.11201060503503
 21
-92.64210495148255
 31
0.0
  0
ELLIPSE
  5
5210
330
A
100
AcDbEntity
  8
0
  6
Continuous
 62
     7
370
     0
100
AcDbEllipse
 10
79.82551069659689
 20
-86.19053124574206
 30
0.0
 11
9.107359661284952
 21
-11.15419203707737
 31
0.0
210
0.0
220
0.0
230
1.0
 40
0.8164965809281012
 41
0.4807055093818289
 42
1.090090817412905
  0
ELLIPSE
  5
5211
330
A
100
AcDbEntity
  8
0
  6
Continuous
 62
     7
370
     0
100
AcDbEllipse
 10
72.67009316859708
 20
-69.39370614891237
 30
0.0
 11
2.146625258400145
 21
-2.629068276025519
 31
0.0
210
0.0
220
0.0
230
1.0
 40
0.4082482904637696
 41
3.605240262590691
 42
4.531608552322007
  0
LINE
  5
5212
330
A
100
AcDbEntity
  8
0
  6
Continuous
 62
     7
370
     0
100
AcDbLine
 10
71.59678053939592
 20
-102.3988689478495
 30
0.0
 11
71.22831408518891
 21
-102.7039705479428
 31
0.0
  0
LINE
  5
5213
330
A
100
AcDbEntity
  8
0
  6
Continuous
 62
     7
370
     0
100
AcDbLine
 10
71.22831408519096
 20
-102.7039705479452
 30
0.0
 11
70.27009316859494
 21
-103.4863546501193
 31
0.0
  0
ELLIPSE
  5
5214
330
A
100
AcDbEntity
  8
0
  6
Continuous
 62
     7
370
     0
100
AcDbEllipse
 10
72.67009316859708
 20
-69.39370614891237
 30
0.0
 11
2.146625258400145
 21
-2.629068276025519
 31
0.0
210
0.0
220
0.0
230
1.0
 40
0.4082482904637696
 41
3.141592653589813
 42
3.605240262590691
  0
LINE
  5
5215
330
A
100
AcDbEntity
  8
0
  6
Continuous
 62
     9
370
     0
100
AcDbLine
 10
70.52346791019704
 20
-66.76463787288685
 30
0.0
 11
72.2841356613319
 21
-67.12403267262477
 31
0.0
  0
ELLIPSE
  5
5216
330
A
100
AcDbEntity
  8
0
  6
Continuous
 62
     9
370
     0
100
AcDbEllipse
 10
72.2841356613319
 20
-83.19056102611424
 30
0.0
 11
-14.16700391755432
 21
17.35096539100922
 31
-0.0000000000000008
210
0.0000000000000001
220
0.0000000000000001
230
1.0
 40
0.8164965809281014
 41
3.141306982515667
 42
3.622298162971623
  0
ELLIPSE
  5
5217
330
A
100
AcDbEntity
  8
0
  6
Continuous
 62
     9
370
     0
100
AcDbEllipse
 10
72.2841356613319
 20
-101.4479796096251
 30
0.0
 11
0.4800000000000359
 21
2.351510153071845
 31
-0.0000000000000002
210
0.0
220
0.0000000000000001
230
1.0
 40
0.4082482904639319
 41
2.215224363858582
 42
3.141593808718895
  0
LINE
  5
5218
330
A
100
AcDbEntity
  8
0
  6
Continuous
 62
     7
370
     0
100
AcDbLine
 10
70.52346791019704
 20
-66.76463787288685
 30
0.0
 11
71.23900966299697
 21
-66.18040047821446
 31
0.0
  0
LINE
  5
5219
330
A
100
AcDbEntity
  8
0
  6
Continuous
 62
     7
370
     0
100
AcDbLine
 10
71.23900966299697
 20
-66.18040047821446
 30
0.0
 11
72.99967741413206
 21
-66.53979527795226
 31
0.0
  0
ELLIPSE
  5
521A
330
A
100
AcDbEntity
  8
0
  6
Continuous
 62
     7
370
     0
100
AcDbEllipse
 10
72.99967741413206
 20
-82.60632363144184
 30
0.0
 11
14.16700391755432
 21
-17.35096539100922
 31
0.0000000000000008
210
0.0
220
0.0
230
1.0
 40
0.8164965809281014
 41
0.0
 42
0.4807055093820166
  0
ELLIPSE
  5
521B
330
A
100
AcDbEntity
  8
0
  6
Continuous
 62
     7
370
     0
100
AcDbEllipse
 10
83.04544858419786
 20
-83.56146296973706
 30
0.0
 11
-8.601395235657838
 21
10.53451470168409
 31
-0.0000000000000005
210
0.0
220
0.0
230
1.0
 40
0.8164965809277259
 41
3.622298162971865
 42
4.231683471002646
  0
ELLIPSE
  5
521C
330
A
100
AcDbEntity
  8
0
  6
Continuous
 62
     7
370
     0
100
AcDbEllipse
 10
76.21961530173393
 20
-79.97725535543776
 30
0.0
 11
-13.66103949192743
 21
16.73128805561605
 31
0.0
210
0.0
220
0.0
230
1.0
 40
0.8164965809277266
 41
3.183798797702208
 42
3.62229816297185
  0
LINE
  5
521D
330
A
100
AcDbEntity
  8
0
  6
Continuous
 62
     7
370
     0
100
AcDbLine
 10
75.17448930339901
 20
-67.10455550900104
 30
0.0
 11
75.17448930339901
 21
-65.89253178095436
 31
0.0
  0
ELLIPSE
  5
521E
330
A
100
AcDbEntity
  8
0
  6
Continuous
 62
     7
370
     0
100
AcDbEllipse
 10
76.60557280899798
 20
-66.18465047829037
 30
0.0
 11
1.011928851254007
 21
-1.239354670786452
 31
0.0
210
0.0
220
0.0
230
1.0
 40
0.8164965809277264
 41
2.334617135325685
 42
3.141592653589696
  0
ELLIPSE
  5
521F
330
A
100
AcDbEntity
  8
0
  6
Continuous
 62
     7
370
     0
100
AcDbEllipse
 10
76.21961530173393
 20
-84.35903581547895
 30
0.0
 11
-13.66103949192743
 21
16.73128805561606
 31
-0.0000000000000007
210
0.0000000000000001
220
0.0000000000000001
230
1.0
 40
0.8164965809277269
 41
4.231683471002636
 42
5.476209788915452
  0
LINE
  5
5220
330
A
100
AcDbEntity
  8
0
  6
Continuous
 62
     9
370
     0
100
AcDbLine
 10
94.64936516438797
 20
-82.20558913197576
 30
0.0
 11
95.00713604078782
 21
-81.91347043463967
 31
0.0
  0
LINE
  5
5221
330
A
100
AcDbEntity
  8
0
  6
Continuous
 62
     9
370
     0
100
AcDbLine
 10
76.99422028597973
 20
-64.43858095397925
 30
0.0
 11
76.63644940957988
 21
-64.73069965131526
 31
0.0
  0
ELLIPSE
  5
5222
330
A
100
AcDbEntity
  8
0
  6
Continuous
 62
     7
370
     0
100
AcDbEllipse
 10
76.57738617813402
 20
-84.06691711814286
 30
0.0
 11
-13.66103949192743
 21
16.73128805561606
 31
-0.0000000000000007
210
0.0000000000000001
220
0.0000000000000001
230
1.0
 40
0.8164965809277269
 41
4.231683471002636
 42
5.476209788915452
  0
LINE
  5
5223
330
A
100
AcDbEntity
  8
0
  6
Continuous
 62
     9
370
     0
100
AcDbLine
 10
94.64936516438797
 20
-89.65461591404606
 30
0.0
 11
95.00713604078782
 21
-89.36249721670996
 31
0.0
  0
ELLIPSE
  5
5224
330
A
100
AcDbEntity
  8
0
  6
Continuous
 62
     7
370
     0
100
AcDbEllipse
 10
83.40321946059793
 20
-83.26934427240095
 30
0.0
 11
-8.601395235657838
 21
10.53451470168408
 31
-0.0000000000000005
210
0.0
220
0.0
230
1.0
 40
0.8164965809277259
 41
3.622298162971856
 42
4.231683471002646
  0
ELLIPSE
  5
5225
330
A
100
AcDbEntity
  8
0
  6
Continuous
 62
     7
370
     0
100
AcDbEllipse
 10
76.96334368539897
 20
-65.89253178095427
 30
0.0
 11
-1.011928851253784
 21
1.239354670786311
 31
0.0
210
0.0
220
0.0
230
1.0
 40
0.8164965809277262
 41
6.021385919381192
 42
6.283185307179584
  0
ELLIPSE
  5
5226
330
A
100
AcDbEntity
  8
0
  6
Continuous
 62
     7
370
     0
100
AcDbEllipse
 10
76.96334368539897
 20
-65.89253178095427
 30
0.0
 11
-1.011928851253784
 21
1.239354670786311
 31
0.0
210
0.0
220
0.0
230
1.0
 40
0.8164965809277262
 41
5.476209788915575
 42
6.021385919381192
  0
ELLIPSE
  5
5227
330
A
100
AcDbEntity
  8
0
  6
Continuous
 62
     7
370
     0
100
AcDbEllipse
 10
76.60557280899798
 20
-66.18465047829037
 30
0.0
 11
1.011928851254007
 21
-1.239354670786452
 31
0.0
210
0.0
220
0.0
230
1.0
 40
0.8164965809277264
 41
3.141592653589696
 42
3.926990816987187
  0
ELLIPSE
  5
5228
330
A
100
AcDbEntity
  8
0
  6
Continuous
 62
     7
370
     0
100
AcDbEllipse
 10
76.57738617813402
 20
-79.68513665810156
 30
0.0
 11
-13.66103949192743
 21
16.73128805561605
 31
0.0
210
0.0
220
0.0
230
1.0
 40
0.8164965809277264
 41
3.154687597856943
 42
3.622298162971848
  0
ELLIPSE
  5
5229
330
A
100
AcDbEntity
  8
0
  6
Continuous
 62
     7
370
     0
100
AcDbEllipse
 10
83.40321946059679
 20
-83.26934427239516
 30
0.0
 11
-9.107359661284952
 21
11.1541920370774
 31
-0.000000000000001
210
0.0
220
0.0000000000000001
230
1.0
 40
0.8164965809277251
 41
3.622298162971838
 42
4.231683471002638
  0
ELLIPSE
  5
522A
330
A
100
AcDbEntity
  8
0
  6
Continuous
 62
     7
370
     0
100
AcDbEllipse
 10
76.57738617813311
 20
-79.68513665809577
 30
0.0
 11
-14.16700391755432
 21
17.35096539100925
 31
-0.0000000000000023
210
0.0
220
0.0000000000000001
230
1.0
 40
0.8164965809277259
 41
3.141592653589792
 42
3.622298162971841
  0
LINE
  5
522B
330
A
100
AcDbEntity
  8
0
  6
Continuous
 62
     7
370
     0
100
AcDbLine
 10
76.24780193259789
 20
-63.55133220220918
 30
0.0
 11
76.24780193259789
 21
-64.48156136821925
 31
0.0
  0
LINE
  5
522C
330
A
100
AcDbEntity
  8
0
  6
Continuous
 62
     7
370
     0
100
AcDbLine
 10
76.24780193259789
 20
-63.55133220220918
 30
0.0
 11
76.57738617813311
 21
-63.61860830461086
 31
0.0
  0
ELLIPSE
  5
522D
330
A
100
AcDbEntity
  8
0
  6
Continuous
 62
     7
370
     0
100
AcDbEllipse
 10
76.57738617813311
 20
-84.06691711813705
 30
0.0
 11
-14.16700391755432
 21
17.35096539100918
 31
-0.0000000000000008
210
0.0
220
0.0
230
1.0
 40
0.8164965809277253
 41
4.231683471002638
 42
5.497787143782135
  0
LINE
  5
5233
330
A
100
AcDbEntity
  8
0
  6
Continuous
 62
     9
370
     0
100
AcDbLine
 10
95.68971936903313
 20
-81.83371315005967
 30
0.0
 11
96.87117199306999
 21
-80.86906112200546
 31
0.0
  0
LINE
  5
5234
330
A
100
AcDbEntity
  8
0
  6
Continuous
 62
     9
370
     0
100
AcDbLine
 10
76.57738617813311
 20
-63.61860830461086
 30
0.0
 11
79.77820810972502
 21
-61.00514814130736
 31
0.0
  0
LINE
  5
5235
330
A
100
AcDbEntity
  8
0
  6
Continuous
 62
     9
370
     0
100
AcDbLine
 10
95.68971936903313
 20
-89.72091797813407
 30
0.0
 11
96.87117199306999
 21
-88.75626595007984
 31
0.0
  0
LINE
  5
5236
330
A
100
AcDbEntity
  8
0
  6
Continuous
 62
     7
370
     0
100
AcDbLine
 10
97.10615208305512
 20
-85.22628801759966
 30
0.0
 11
97.19061027620909
 21
-83.65981465994407
 31
0.0
  0
ARC
  5
5237
330
A
100
AcDbEntity
  8
0
  6
Continuous
 62
     7
370
     0
100
AcDbCircle
 10
89.38244001068506
 20
-86.54024706089925
 30
0.0
 40
7.808269569152047
100
AcDbArc
 50
346.3567472835345
 51
0.2889662332041016
  0
LINE
  5
5238
330
A
100
AcDbEntity
  8
0
  6
Continuous
 62
     7
370
     0
100
AcDbLine
 10
96.87117199306999
 20
-88.75626595007984
 30
0.0
 11
96.97038531088105
 21
-88.38202874877135
 31
0.0
  0
LINE
  5
5239
330
A
100
AcDbEntity
  8
0
  6
Continuous
 62
     7
370
     0
100
AcDbLine
 10
96.97038531088105
 20
-81.32834639523547
 30
0.0
 11
96.87117199306999
 21
-80.86906112200546
 31
0.0
  0
ARC
  5
523A
330
A
100
AcDbEntity
  8
0
  6
Continuous
 62
     7
370
     0
100
AcDbCircle
 10
85.42291792692891
 20
-83.59522788643976
 30
0.0
 40
11.76786958963278
100
AcDbArc
 50
359.6855362744672
 51
11.10649038820695
  0
LINE
  5
523B
330
A
100
AcDbEntity
  8
0
  6
Continuous
 62
     7
370
     0
100
AcDbLine
 10
97.19061027444992
 20
-86.50086690586675
 30
0.0
 11
97.10615208305512
 21
-85.22628801759966
 31
0.0
  0
ELLIPSE
  5
523C
330
A
100
AcDbEntity
  8
0
  6
Continuous
 62
     7
370
     0
100
AcDbEllipse
 10
77.4217549002899
 20
-57.87533513531295
 30
0.0
 11
5.600000000000047
 21
0.0
 31
0.0
210
0.0
220
0.0000000000000001
230
1.0
 40
0.408248290463863
 41
3.141592653589792
 42
4.246815440740106
  0
ELLIPSE
  5
523D
330
A
100
AcDbEntity
  8
0
  6
Continuous
 62
     7
370
     0
100
AcDbEllipse
 10
75.53226017979795
 20
-63.40527285354117
 30
0.0
 11
0.8000000000001339
 21
0.0
 31
0.0
210
0.0
220
0.0000000000000001
230
1.0
 40
0.4082482904638633
 41
0.0
 42
1.107148717794057
  0
LINE
  5
523E
330
A
100
AcDbEntity
  8
0
  6
Continuous
 62
     7
370
     0
100
AcDbLine
 10
71.5967805393982
 20
-62.23679806419676
 30
0.0
 11
75.89003105619804
 21
-63.11315415620507
 31
0.0
  0
ELLIPSE
  5
523F
330
A
100
AcDbEntity
  8
0
  6
Continuous
 62
     7
370
     0
100
AcDbEllipse
 10
76.60557280899798
 20
-58.14713630149157
 30
0.0
 11
-11.2000000000001
 21
0.0
 31
0.0
210
0.0
220
0.0000000000000001
230
1.0
 40
0.4082482904638631
 41
5.819537698178776
 42
6.283185307179584
  0
LINE
  5
5240
330
A
100
AcDbEntity
  8
0
  6
Continuous
 62
     7
370
     0
100
AcDbLine
 10
66.5879882697991
 20
-56.10230542013894
 30
0.0
 11
72.05764088607679
 21
-57.21879358515235
 31
0.0
  0
ELLIPSE
  5
5241
330
A
100
AcDbEntity
  8
0
  6
Continuous
 62
     7
370
     0
100
AcDbEllipse
 10
38.99288724825487
 20
-89.10187868131547
 30
0.0
 11
-80.00000000000007
 21
-0.0000000000000139
 31
0.0000000000000032
210
0.0
220
0.0
230
0.9999999999999998
 40
0.4082482904638633
 41
4.177417492935592
 42
4.246815440740093
  0
ELLIPSE
  5
5242
330
A
100
AcDbEntity
  8
0
  6
Continuous
 62
     7
370
     0
100
AcDbEllipse
 10
75.53226017979795
 20
-63.40527285354117
 30
0.0
 11
0.8000000000001339
 21
0.0
 31
0.0
210
0.0
220
0.0000000000000001
230
1.0
 40
0.408248290463863
 41
5.819537698178811
 42
6.283185307179584
  0
LINE
  5
5243
330
A
100
AcDbEntity
  8
0
  6
Continuous
 62
     9
370
     0
100
AcDbLine
 10
75.89003105619804
 20
-63.11315415620507
 30
0.0
 11
75.89003105619804
 21
-64.70329675498607
 31
0.0
  0
LINE
  5
5244
330
A
100
AcDbEntity
  8
0
  6
Continuous
 62
     9
370
     0
100
AcDbLine
 10
71.5967805393982
 20
-62.23679806419676
 30
0.0
 11
71.5967805393982
 21
-66.25343015254876
 31
0.0
  0
ARC
  5
5245
330
A
100
AcDbEntity
  8
0
  6
Continuous
 62
     7
370
     0
100
AcDbCircle
 10
84.40062334621392
 20
-85.61680562149696
 30
0.0
 40
12.85965764351259
100
AcDbArc
 50
310.2812659276639
 51
345.8694272072376
  0
ELLIPSE
  5
5246
330
A
100
AcDbEntity
  8
0
  6
Continuous
 62
     7
370
     0
100
AcDbEllipse
 10
76.57738617813311
 20
-79.68513665809577
 30
0.0
 11
-14.16700391755432
 21
17.35096539100922
 31
-0.0000000000000008
210
0.0000000000000001
220
0.0000000000000001
230
1.0
 40
0.8164965809277264
 41
3.01498561860829
 42
3.141592653589792
  0
ELLIPSE
  5
5247
330
A
100
AcDbEntity
  8
0
  6
Continuous
 62
     7
370
     0
100
AcDbEllipse
 10
76.60557280899798
 20
-58.14713630149157
 30
0.0
 11
-11.2000000000001
 21
0.0
 31
0.0
210
0.0
220
0.0000000000000001
230
1.0
 40
0.4082482904638633
 41
6.283185307179584
 42
7.390334024973667
  0
ELLIPSE
  5
5248
330
A
100
AcDbEntity
  8
0
  6
Continuous
 62
     7
370
     0
100
AcDbEllipse
 10
76.60557280899798
 20
-94.66197346850266
 30
0.0
 11
-11.2000000000001
 21
0.0
 31
0.0
210
0.0
220
0.0000000000000001
230
1.0
 40
0.4082482904638633
 41
6.283185307179584
 42
7.252738760169049
  0
ELLIPSE
  5
5249
330
A
100
AcDbEntity
  8
0
  6
Continuous
 62
     7
370
     0
100
AcDbEllipse
 10
77.4217549002899
 20
-57.87533513531295
 30
0.0
 11
5.600000000000047
 21
0.0
 31
0.0
210
0.0
220
0.0000000000000001
230
1.0
 40
0.4082482904638633
 41
2.850314153590058
 42
3.141592653589792
  0
LINE
  5
524A
330
A
100
AcDbEntity
  8
0
  6
Continuous
 62
     9
370
     0
100
AcDbLine
 10
72.19204628515012
 20
-57.12672555964985
 30
0.0
 11
72.19204628515012
 21
-58.69286676576416
 31
0.0
  0
ELLIPSE
  5
524B
330
A
100
AcDbEntity
  8
0
  6
Continuous
 62
     7
370
     0
100
AcDbEllipse
 10
77.4217549002899
 20
-58.03569392308308
 30
0.0
 11
5.598813393930646
 21
-0.4478787326509249
 31
0.0
210
0.0
220
0.0
230
1.0
 40
0.2573823999227921
 41
2.796487153485303
 42
2.870900626068062
  0
LINE
  5
5267
330
A
100
AcDbEntity
  8
0
  6
Continuous
 62
     7
370
     0
100
AcDbLine
 10
66.76614352735191
 20
-55.56018182394746
 30
0.0
 11
66.23021739339901
 21
-55.79769093331376
 31
0.0
  0
LINE
  5
5268
330
A
100
AcDbEntity
  8
0
  6
Continuous
 62
     9
370
     0
100
AcDbLine
 10
72.74747536580594
 20
-56.78111607282025
 30
0.0
 11
66.76614352735191
 21
-55.56018182394746
 31
0.0
  0
ELLIPSE
  5
5269
330
A
100
AcDbEntity
  8
0
  6
Continuous
 62
     7
370
     0
100
AcDbEllipse
 10
-2.518076788280041
 20
-44.14146322489057
 30
0.0
 11
79.98304848472414
 21
-6.398267609299067
 31
0.0
210
0.0
220
0.0
230
1.0
 40
0.2573823999227921
 41
5.938079807075097
 42
5.958015469580799
  0
ELLIPSE
  5
527A
330
A
100
AcDbEntity
  8
0
  6
Continuous
 62
     7
370
     0
100
AcDbEllipse
 10
64.96392601056595
 20
-77.14635877220195
 30
0.0
 11
4.480000000000039
 21
21.94742809533725
 31
-0.0000000000000016
210
0.0
220
0.0000000000000001
230
1.0
 40
0.4082482904638631
 41
6.283185307179584
 42
6.565942638614576
  0
LINE
  5
527B
330
A
100
AcDbEntity
  8
0
  6
Continuous
 62
     7
370
     0
100
AcDbLine
 10
66.67244651699888
 20
-56.01597751099908
 30
0.0
 11
66.5879882697991
 21
-56.10230542013894
 31
0.0
  0
LINE
  5
527C
330
A
100
AcDbEntity
  8
0
  6
Continuous
 62
     7
370
     0
100
AcDbLine
 10
66.23021739339901
 20
-55.79769093331376
 30
0.0
 11
66.23021739339901
 21
-56.42512197712216
 31
0.0
  0
LINE
  5
527D
330
A
100
AcDbEntity
  8
0
  6
Continuous
 62
     7
370
     0
100
AcDbLine
 10
54.17040373060785
 20
-55.99886561502945
 30
0.0
 11
54.17040373060785
 21
-90.09151411622577
 31
0.0
  0
LINE
  5
527E
330
A
100
AcDbEntity
  8
0
  6
Continuous
 62
     7
370
     0
100
AcDbLine
 10
54.85953170009475
 20
-55.27719599849627
 30
0.0
 11
54.29356381528714
 21
-55.73930684135635
 31
0.0
  0
LINE
  5
527F
330
A
100
AcDbEntity
  8
0
  6
Continuous
 62
     7
370
     0
100
AcDbLine
 10
62.28850848257412
 20
-53.73833719018165
 30
0.0
 11
60.85742497697402
 21
-53.44621849284568
 31
0.0
  0
ARC
  5
5280
330
A
100
AcDbEntity
  8
0
  6
Continuous
 62
     7
370
     0
100
AcDbCircle
 10
59.73817127733082
 20
-60.51941007865176
 30
0.0
 40
7.161140452941761
100
AcDbArc
 50
80.99764326879052
 51
132.942630989334
  0
LINE
  5
5281
330
A
100
AcDbEntity
  8
0
  6
Continuous
 62
     7
370
     0
100
AcDbLine
 10
63.72582125860185
 20
-66.12316964572236
 30
0.0
 11
63.07873775300413
 21
-65.99108427824848
 31
0.0
  0
LINE
  5
5282
330
A
100
AcDbEntity
  8
0
  6
Continuous
 62
     7
370
     0
100
AcDbLine
 10
61.51073775300415
 20
-73.67268411161586
 30
0.0
 11
63.72582125860185
 21
-74.12483613881335
 31
0.0
  0
LINE
  5
5283
330
A
100
AcDbEntity
  8
0
  6
Continuous
 62
     7
370
     0
100
AcDbLine
 10
62.84405023537101
 20
-54.66823325653655
 30
0.0
 11
62.12850848257017
 21
-54.52217390786845
 31
0.0
  0
LINE
  5
5284
330
A
100
AcDbEntity
  8
0
  6
Continuous
 62
     7
370
     0
100
AcDbLine
 10
57.68148723620289
 20
-90.96726035177736
 30
0.0
 11
58.39702898900282
 21
-91.11331970044535
 31
0.0
  0
LINE
  5
5285
330
A
100
AcDbEntity
  8
0
  6
Continuous
 62
     7
370
     0
100
AcDbLine
 10
64.12136301140185
 20
-92.28179448979226
 30
0.0
 11
64.83690476420088
 21
-92.42785383846026
 31
0.0
  0
LINE
  5
5286
330
A
100
AcDbEntity
  8
0
  6
Continuous
 62
     7
370
     0
100
AcDbLine
 10
70.27009316859608
 20
-67.43411435468516
 30
0.0
 11
70.27009316859608
 21
-103.4863546501186
 31
0.0
  0
ARC
  5
5287
330
A
100
AcDbEntity
  8
0
  6
Continuous
 62
     7
370
     0
100
AcDbCircle
 10
75.71933496807696
 20
-86.84703672732567
 30
0.0
 40
17.39869102915628
100
AcDbArc
 50
256.9954528158683
 51
308.0664910127141
  0
LINE
  5
5288
330
A
100
AcDbEntity
  8
0
  6
Continuous
 62
     7
370
     0
100
AcDbLine
 10
86.45113957888908
 20
-100.5415264171274
 30
0.0
 11
87.166681331689
 21
-99.95728902245504
 31
0.0
  0
LINE
  5
5289
330
A
100
AcDbEntity
  8
0
  6
Continuous
 62
     7
370
     0
100
AcDbLine
 10
70.27009316859608
 20
-103.4863546501186
 30
0.0
 11
71.80413566133097
 21
-103.7994897626977
 31
0.0
  0
LINE
  5
528A
330
A
100
AcDbEntity
  8
0
  6
Continuous
 62
     7
370
     0
100
AcDbLine
 10
75.951414834145
 20
-64.65317711016794
 30
0.0
 11
75.59364395774491
 21
-64.94529580750406
 31
0.0
  0
LINE
  5
528B
330
A
100
AcDbEntity
  8
0
  6
Continuous
 62
     7
370
     0
100
AcDbLine
 10
97.19061033025514
 20
-86.50066137070496
 30
0.0
 11
97.19061033025514
 21
-83.65977807120597
 31
0.0
  0
LINE
  5
528C
330
A
100
AcDbEntity
  8
0
  6
Continuous
 62
     7
370
     0
100
AcDbLine
 10
90.74439009568687
 20
-97.03610204910496
 30
0.0
 11
92.71491933876792
 21
-95.42717165951176
 31
0.0
  0
LINE
  5
528D
330
A
100
AcDbEntity
  8
0
  6
Continuous
 62
     7
370
     0
100
AcDbLine
 10
65.40557280899793
 20
-58.14713630149157
 30
0.0
 11
65.40557280899793
 21
-94.66197346850266
 31
0.0
  0
LINE
  5
528E
330
A
100
AcDbEntity
  8
0
  6
Continuous
 62
     7
370
     0
100
AcDbLine
 10
74.58352061211076
 20
-56.24804603174357
 30
0.0
 11
69.44392601056688
 21
-55.19893067686467
 31
0.0
  0
LINE
  5
528F
330
A
100
AcDbEntity
  8
0
  6
Continuous
 62
     9
370
     0
100
AcDbLine
 10
-27.95000000033315
 20
-61.85428360316717
 30
0.0
 11
-27.95000000063601
 21
-57.08715788988607
 31
0.0
  0
LINE
  5
5290
330
A
100
AcDbEntity
  8
0
  6
Continuous
 62
     7
370
     0
100
AcDbLine
 10
-27.70000000060895
 20
-57.52017059176236
 30
0.0
 11
-27.70000000025084
 21
-63.12475212381326
 31
0.0
  0
ELLIPSE
  5
5291
330
A
100
AcDbEntity
  8
0
  6
Continuous
 62
     9
370
     0
100
AcDbEllipse
 10
-46.99999999999704
 20
-51.19091197874965
 30
0.0
 11
3.000000000000113
 21
0.0
 31
0.0
210
0.0
220
0.0
230
1.0
 40
0.9539392014168623
 41
1.570796326794896
 42
3.141592653589783
  0
LINE
  5
5292
330
A
100
AcDbEntity
  8
0
  6
Continuous
 62
     9
370
     0
100
AcDbLine
 10
-46.99999999999704
 20
-48.32909437451426
 30
0.0
 11
-46.99999999999704
 21
-75.03939201415775
 31
0.0
  0
LINE
  5
5293
330
A
100
AcDbEntity
  8
0
  6
Continuous
 62
     9
370
     0
100
AcDbLine
 10
-49.95111102044984
 20
-75.03939201416168
 30
0.0
 11
-46.99999999999795
 21
-75.03939201416168
 31
0.0
  0
LINE
  5
5294
330
A
100
AcDbEntity
  8
0
  6
Continuous
 62
     7
370
     0
100
AcDbLine
 10
-49.99999999999613
 20
-74.49999999999255
 30
0.0
 11
-49.95111102045211
 21
-75.03939201416168
 31
0.0
  0
LINE
  5
5295
330
A
100
AcDbEntity
  8
0
  6
Continuous
 62
     7
370
     0
100
AcDbLine
 10
-49.99999999999613
 20
-74.49999999999306
 30
0.0
 11
-49.99999999999613
 21
-51.19091197877366
 31
0.0
  0
LINE
  5
5296
330
A
100
AcDbEntity
  8
0
  6
Continuous
 62
     7
370
     0
100
AcDbLine
 10
-44.99999999999795
 20
-75.03939201416168
 30
0.0
 11
-44.99999999999795
 21
-48.32909437452727
 31
0.0
  0
LINE
  5
5297
330
A
100
AcDbEntity
  8
0
  6
Continuous
 62
     9
370
     0
100
AcDbLine
 10
-46.99999999999704
 20
-75.03939201416168
 30
0.0
 11
-44.99999999999795
 21
-75.03939201416168
 31
0.0
  0
LINE
  5
5298
330
A
100
AcDbEntity
  8
0
  6
Continuous
 62
     9
370
     0
100
AcDbLine
 10
-46.99999999999704
 20
-48.32909437450016
 30
0.0
 11
-44.99999999999795
 21
-48.32909437450016
 31
0.0
  0
LINE
  5
5299
330
A
100
AcDbEntity
  8
0
  6
Continuous
 62
     9
370
     0
100
AcDbLine
 10
-46.99999999999704
 20
-75.03939201416168
 30
0.0
 11
-46.99999999999704
 21
-77.49999999999104
 31
0.0
  0
ARC
  5
529A
330
A
100
AcDbEntity
  8
0
  6
Continuous
 62
     7
370
     0
100
AcDbCircle
 10
-46.99999999999704
 20
-74.49999999999255
 30
0.0
 40
2.99999999999999
100
AcDbArc
 50
190.3579555466186
 51
270.0
  0
LINE
  5
529B
330
A
100
AcDbEntity
  8
0
  6
Continuous
 62
     7
370
     0
100
AcDbLine
 10
-44.99999999999795
 20
-77.49999999999104
 30
0.0
 11
-44.99999999999795
 21
-75.03939201416168
 31
0.0
  0
LINE
  5
529C
330
A
100
AcDbEntity
  8
0
  6
Continuous
 62
     7
370
     0
100
AcDbLine
 10
-46.99999999999704
 20
-77.49999999999104
 30
0.0
 11
-44.99999999999795
 21
-77.49999999999104
 31
0.0
  0
LINE
  5
529D
330
A
100
AcDbEntity
  8
0
  6
Continuous
 62
     9
370
     0
100
AcDbLine
 10
-46.99999999999704
 20
-47.50000000001435
 30
0.0
 11
-46.99999999999704
 21
-48.32909437450926
 31
0.0
  0
LINE
  5
529E
330
A
100
AcDbEntity
  8
0
  6
Continuous
 62
     7
370
     0
100
AcDbLine
 10
-49.99999999999613
 20
-51.19091197875724
 30
0.0
 11
-49.99999999999613
 21
-50.50000000001208
 31
0.0
  0
LINE
  5
529F
330
A
100
AcDbEntity
  8
0
  6
Continuous
 62
     7
370
     0
100
AcDbLine
 10
-44.99999999999795
 20
-48.32909437450926
 30
0.0
 11
-44.99999999999795
 21
-47.50000000001517
 31
0.0
  0
LINE
  5
52A0
330
A
100
AcDbEntity
  8
0
  6
Continuous
 62
     7
370
     0
100
AcDbLine
 10
-38.50000000000182
 20
-57.60000000000307
 30
0.0
 11
-38.50000000000182
 21
-67.39999999999355
 31
0.0
  0
LINE
  5
52A1
330
A
100
AcDbEntity
  8
0
  6
Continuous
 62
     9
370
     0
100
AcDbLine
 10
-45.0
 20
-74.45684863886484
 30
0.0
 11
-44.0
 21
-74.45684863886484
 31
0.0
  0
LINE
  5
52A2
330
A
100
AcDbEntity
  8
0
  6
Continuous
 62
     7
370
     0
100
AcDbLine
 10
-44.0
 20
-74.45684863886484
 30
0.0
 11
-44.0
 21
-76.49999999999835
 31
0.0
  0
LINE
  5
52A3
330
A
100
AcDbEntity
  8
0
  6
Continuous
 62
     7
370
     0
100
AcDbLine
 10
-44.0
 20
-76.49999999999835
 30
0.0
 11
-45.0
 21
-76.49999999999835
 31
0.0
  0
LINE
  5
52A4
330
A
100
AcDbEntity
  8
0
  6
Continuous
 62
     9
370
     0
100
AcDbLine
 10
-45.0
 20
-49.28303357591037
 30
0.0
 11
-44.0
 21
-49.28303357591037
 31
0.0
  0
LINE
  5
52A5
330
A
100
AcDbEntity
  8
0
  6
Continuous
 62
     7
370
     0
100
AcDbLine
 10
-44.0
 20
-49.28303357591037
 30
0.0
 11
-44.0
 21
-74.45684863886484
 31
0.0
  0
LINE
  5
52A6
330
A
100
AcDbEntity
  8
0
  6
Continuous
 62
     7
370
     0
100
AcDbLine
 10
-44.0
 20
-48.49999999999835
 30
0.0
 11
-44.0
 21
-49.28303357591037
 31
0.0
  0
LINE
  5
52A7
330
A
100
AcDbEntity
  8
0
  6
Continuous
 62
     9
370
     0
100
AcDbLine
 10
-36.00000000000091
 20
-74.45684863886484
 30
0.0
 11
-35.00000000000091
 21
-74.45684863886484
 31
0.0
  0
LINE
  5
52A8
330
A
100
AcDbEntity
  8
0
  6
Continuous
 62
     7
370
     0
100
AcDbLine
 10
-35.00000000000091
 20
-74.45684863886484
 30
0.0
 11
-35.00000000000091
 21
-76.49999999999835
 31
0.0
  0
LINE
  5
52A9
330
A
100
AcDbEntity
  8
0
  6
Continuous
 62
     7
370
     0
100
AcDbLine
 10
-35.00000000000091
 20
-76.49999999999835
 30
0.0
 11
-36.00000000000091
 21
-76.49999999999835
 31
0.0
  0
LINE
  5
52AA
330
A
100
AcDbEntity
  8
0
  6
Continuous
 62
     7
370
     0
100
AcDbLine
 10
-36.00000000000091
 20
-76.49999999999835
 30
0.0
 11
-36.00000000000091
 21
-74.45684863886484
 31
0.0
  0
LINE
  5
52AB
330
A
100
AcDbEntity
  8
0
  6
Continuous
 62
     9
370
     0
100
AcDbLine
 10
-36.00000000000091
 20
-49.28303357591037
 30
0.0
 11
-35.00000000000091
 21
-49.28303357591037
 31
0.0
  0
LINE
  5
52AC
330
A
100
AcDbEntity
  8
0
  6
Continuous
 62
     7
370
     0
100
AcDbLine
 10
-35.00000000000091
 20
-71.49999999999835
 30
0.0
 11
-35.00000000000091
 21
-74.45684863886484
 31
0.0
  0
LINE
  5
52AD
330
A
100
AcDbEntity
  8
0
  6
Continuous
 62
     7
370
     0
100
AcDbLine
 10
-36.00000000000091
 20
-49.28303357591037
 30
0.0
 11
-36.00000000000091
 21
-74.45684863886484
 31
0.0
  0
LINE
  5
52AE
330
A
100
AcDbEntity
  8
0
  6
Continuous
 62
     7
370
     0
100
AcDbLine
 10
-36.00000000000091
 20
-48.49999999999835
 30
0.0
 11
-36.00000000000091
 21
-49.28303357591037
 31
0.0
  0
LINE
  5
52AF
330
A
100
AcDbEntity
  8
0
  6
Continuous
 62
     7
370
     0
100
AcDbLine
 10
6.999999999994997
 20
-91.49999999999547
 30
0.0
 11
-7.000000000005002
 21
-91.49999999999547
 31
0.0
  0
LINE
  5
52B0
330
A
100
AcDbEntity
  8
0
  6
Continuous
 62
     9
370
     0
100
AcDbLine
 10
5.412842109670009
 20
-80.45000000000475
 30
0.0
 11
0.9589881024969599
 21
-80.45000000000475
 31
0.0
  0
LINE
  5
52B1
330
A
100
AcDbEntity
  8
0
  6
Continuous
 62
     7
370
     0
100
AcDbLine
 10
-0.267832139300026
 20
-80.20000000000484
 30
0.0
 11
4.97982940777797
 21
-80.20000000000484
 31
0.0
  0
LINE
  5
52B2
330
A
100
AcDbEntity
  8
0
  6
Continuous
 62
     9
370
     0
100
AcDbLine
 10
-12.5393920141762
 20
-99.49999999999896
 30
0.0
 11
14.17090562553494
 21
-99.49999999999896
 31
0.0
  0
ELLIPSE
  5
52B3
330
A
100
AcDbEntity
  8
0
  6
Continuous
 62
     9
370
     0
100
AcDbEllipse
 10
11.30908802125077
 20
-99.49999999999896
 30
0.0
 11
0.0
 21
3.000000000000001
 31
0.0
210
0.0
220
0.0
230
1.0
 40
0.9539392014172015
 41
3.141592653589792
 42
4.712388980384688
  0
LINE
  5
52B4
330
A
100
AcDbEntity
  8
0
  6
Continuous
 62
     7
370
     0
100
AcDbLine
 10
11.30908802126782
 20
-102.5000000000002
 30
0.0
 11
-12.00000000001023
 21
-102.5000000000002
 31
0.0
  0
LINE
  5
52B5
330
A
100
AcDbEntity
  8
0
  6
Continuous
 62
     7
370
     0
100
AcDbLine
 10
-12.53939201417097
 20
-102.4511110204562
 30
0.0
 11
-12.00000000000705
 21
-102.5000000000002
 31
0.0
  0
LINE
  5
52B6
330
A
100
AcDbEntity
  8
0
  6
Continuous
 62
     9
370
     0
100
AcDbLine
 10
-12.5393920141762
 20
-99.49999999999896
 30
0.0
 11
-12.5393920141762
 21
-102.4511110204563
 31
0.0
  0
LINE
  5
52B7
330
A
100
AcDbEntity
  8
0
  6
Continuous
 62
     7
370
     0
100
AcDbLine
 10
14.17090562552198
 20
-97.49999999999797
 30
0.0
 11
-12.53939201418006
 21
-97.49999999999797
 31
0.0
  0
LINE
  5
52B8
330
A
100
AcDbEntity
  8
0
  6
Continuous
 62
     9
370
     0
100
AcDbLine
 10
14.17090562550288
 20
-99.49999999999896
 30
0.0
 11
14.17090562550288
 21
-97.49999999999797
 31
0.0
  0
LINE
  5
52B9
330
A
100
AcDbEntity
  8
0
  6
Continuous
 62
     9
370
     0
100
AcDbLine
 10
-12.5393920141762
 20
-99.49999999999896
 30
0.0
 11
-12.5393920141762
 21
-97.49999999999797
 31
0.0
  0
ARC
  5
52BA
330
A
100
AcDbEntity
  8
0
  6
Continuous
 62
     7
370
     0
100
AcDbCircle
 10
-12.00000000000705
 20
-99.49999999999896
 30
0.0
 40
3.000000000000555
100
AcDbArc
 50
180.0
 51
259.6420444534416
  0
LINE
  5
52BB
330
A
100
AcDbEntity
  8
0
  6
Continuous
 62
     9
370
     0
100
AcDbLine
 10
-15.00000000000795
 20
-99.49999999999887
 30
0.0
 11
-12.5393920141762
 21
-99.49999999999896
 31
0.0
  0
LINE
  5
52BC
330
A
100
AcDbEntity
  8
0
  6
Continuous
 62
     7
370
     0
100
AcDbLine
 10
-15.00000000000795
 20
-97.49999999999797
 30
0.0
 11
-12.5393920141762
 21
-97.49999999999797
 31
0.0
  0
LINE
  5
52BD
330
A
100
AcDbEntity
  8
0
  6
Continuous
 62
     7
370
     0
100
AcDbLine
 10
-15.00000000000795
 20
-99.49999999999887
 30
0.0
 11
-15.00000000000795
 21
-97.49999999999797
 31
0.0
  0
LINE
  5
52BE
330
A
100
AcDbEntity
  8
0
  6
Continuous
 62
     7
370
     0
100
AcDbLine
 10
12.00000000000773
 20
-102.5000000000002
 30
0.0
 11
11.30908802126191
 21
-102.5000000000002
 31
0.0
  0
LINE
  5
52BF
330
A
100
AcDbEntity
  8
0
  6
Continuous
 62
     9
370
     0
100
AcDbLine
 10
14.17090562551493
 20
-99.49999999999896
 30
0.0
 11
15.00000000001182
 21
-99.49999999999896
 31
0.0
  0
LINE
  5
52C0
330
A
100
AcDbEntity
  8
0
  6
Continuous
 62
     7
370
     0
100
AcDbLine
 10
15.00000000001091
 20
-97.49999999999797
 30
0.0
 11
14.17090562551493
 21
-97.49999999999797
 31
0.0
  0
LINE
  5
52C1
330
A
100
AcDbEntity
  8
0
  6
Continuous
 62
     7
370
     0
100
AcDbLine
 10
-4.900000000010095
 20
-90.99999999999496
 30
0.0
 11
-0.0000000000050022
 21
-90.99999999999496
 31
0.0
  0
LINE
  5
52C2
330
A
100
AcDbEntity
  8
0
  6
Continuous
 62
     7
370
     0
100
AcDbLine
 10
-0.0000000000050022
 20
-90.99999999999496
 30
0.0
 11
4.900000000002137
 21
-90.99999999999496
 31
0.0
  0
LINE
  5
52C3
330
A
100
AcDbEntity
  8
0
  6
Continuous
 62
     7
370
     0
100
AcDbLine
 10
-14.000000000005
 20
-97.49999999999547
 30
0.0
 11
-14.000000000005
 21
-96.49999999999547
 31
0.0
  0
LINE
  5
52C4
330
A
100
AcDbEntity
  8
0
  6
Continuous
 62
     9
370
     0
100
AcDbLine
 10
-11.95684863887095
 20
-96.49999999999547
 30
0.0
 11
-11.95684863887095
 21
-97.49999999999547
 31
0.0
  0
LINE
  5
52C5
330
A
100
AcDbEntity
  8
0
  6
Continuous
 62
     7
370
     0
100
AcDbLine
 10
-14.000000000005
 20
-96.49999999999547
 30
0.0
 11
-11.95684863887095
 21
-96.49999999999547
 31
0.0
  0
LINE
  5
52C6
330
A
100
AcDbEntity
  8
0
  6
Continuous
 62
     9
370
     0
100
AcDbLine
 10
13.21696642408324
 20
-97.49999999999547
 30
0.0
 11
13.21696642408324
 21
-96.49999999999547
 31
0.0
  0
LINE
  5
52C7
330
A
100
AcDbEntity
  8
0
  6
Continuous
 62
     7
370
     0
100
AcDbLine
 10
-11.95684863887095
 20
-96.49999999999547
 30
0.0
 11
13.21696642408324
 21
-96.49999999999547
 31
0.0
  0
LINE
  5
52C8
330
A
100
AcDbEntity
  8
0
  6
Continuous
 62
     7
370
     0
100
AcDbLine
 10
13.21696642408324
 20
-96.49999999999547
 30
0.0
 11
13.999999999995
 21
-96.49999999999547
 31
0.0
  0
LINE
  5
52C9
330
A
100
AcDbEntity
  8
0
  6
Continuous
 62
     7
370
     0
100
AcDbLine
 10
-14.000000000005
 20
-88.49999999999557
 30
0.0
 11
-14.000000000005
 21
-87.49999999999557
 31
0.0
  0
LINE
  5
52CA
330
A
100
AcDbEntity
  8
0
  6
Continuous
 62
     9
370
     0
100
AcDbLine
 10
-11.95684863887095
 20
-87.49999999999557
 30
0.0
 11
-11.95684863887095
 21
-88.49999999999557
 31
0.0
  0
LINE
  5
52CB
330
A
100
AcDbEntity
  8
0
  6
Continuous
 62
     7
370
     0
100
AcDbLine
 10
-14.000000000005
 20
-87.49999999999557
 30
0.0
 11
-13.000000000005
 21
-87.49999999999557
 31
0.0
  0
LINE
  5
52CC
330
A
100
AcDbEntity
  8
0
  6
Continuous
 62
     7
370
     0
100
AcDbLine
 10
-11.95684863887095
 20
-88.49999999999557
 30
0.0
 11
-14.000000000005
 21
-88.49999999999557
 31
0.0
  0
LINE
  5
52CD
330
A
100
AcDbEntity
  8
0
  6
Continuous
 62
     9
370
     0
100
AcDbLine
 10
13.21696642408324
 20
-88.49999999999557
 30
0.0
 11
13.21696642408324
 21
-87.49999999999557
 31
0.0
  0
LINE
  5
52CE
330
A
100
AcDbEntity
  8
0
  6
Continuous
 62
     7
370
     0
100
AcDbLine
 10
-11.95684863887095
 20
-88.49999999999557
 30
0.0
 11
13.21696642408324
 21
-88.49999999999557
 31
0.0
  0
LINE
  5
52CF
330
A
100
AcDbEntity
  8
0
  6
Continuous
 62
     7
370
     0
100
AcDbLine
 10
13.21696642408324
 20
-88.49999999999557
 30
0.0
 11
13.999999999995
 21
-88.49999999999557
 31
0.0
  0
ARC
  5
52D0
330
A
100
AcDbEntity
  8
0
  6
Continuous
 62
     7
370
     0
100
AcDbCircle
 10
-19.66581635787611
 20
-178.2995725067467
 30
0.0
 40
100.0003936242125
100
AcDbArc
 50
70.22265362943173
 51
85.91341171063646
  0
LINE
  5
52D1
330
A
100
AcDbEntity
  8
0
  6
Continuous
 62
     9
370
     0
100
AcDbLine
 10
14.17090562550015
 20
-87.49999999999834
 30
0.0
 11
14.17090562550015
 21
-84.19773952557084
 31
0.0
  0
LINE
  5
52D2
330
A
100
AcDbEntity
  8
0
  6
Continuous
 62
     7
370
     0
100
AcDbLine
 10
-12.53939201417393
 20
-87.49999999999834
 30
0.0
 11
14.17090562550015
 21
-87.49999999999834
 31
0.0
  0
LINE
  5
52D3
330
A
100
AcDbEntity
  8
0
  6
Continuous
 62
     9
370
     0
100
AcDbLine
 10
-12.53939201417393
 20
-87.49999999999834
 30
0.0
 11
-12.53939201417393
 21
-78.55343072135777
 31
0.0
  0
LINE
  5
52D4
330
A
100
AcDbEntity
  8
0
  6
Continuous
 62
     7
370
     0
100
AcDbLine
 10
-34.000000000005
 20
-72.49999999999835
 30
0.0
 11
-26.3559280854372
 21
-72.49999999999835
 31
0.0
  0
ARC
  5
52D5
330
A
100
AcDbEntity
  8
0
  6
Continuous
 62
     7
370
     0
100
AcDbCircle
 10
-35.000000000005
 20
-72.49999999999835
 30
0.0
 40
1.0
100
AcDbArc
 50
0.0
 51
90.0
  0
LINE
  5
52D6
330
A
100
AcDbEntity
  8
0
  6
Continuous
 62
     7
370
     0
100
AcDbLine
 10
-35.000000000005
 20
-70.00204091695036
 30
0.0
 11
-35.000000000005
 21
-71.49999999999835
 31
0.0
  0
LINE
  5
52D7
330
A
100
AcDbEntity
  8
0
  6
Continuous
 62
     9
370
     0
100
AcDbLine
 10
-26.6408346332762
 20
-70.00204091695036
 30
0.0
 11
-35.000000000005
 21
-70.00204091695036
 31
0.0
  0
ARC
  5
52D8
330
A
100
AcDbEntity
  8
0
  6
Continuous
 62
     7
370
     0
100
AcDbCircle
 10
-125.94672119392
 20
-81.76388152140125
 30
0.0
 40
100.0000000000001
100
AcDbArc
 50
5.612444546287859
 51
6.754673869661036
  0
ARC
  5
52D9
330
A
100
AcDbEntity
  8
0
  6
Continuous
 62
     7
370
     0
100
AcDbCircle
 10
-19.45965975561193
 20
-71.29938219110005
 30
0.0
 40
7.000000000000062
100
AcDbArc
 50
185.6124445462878
 51
189.8760224641931
  0
ARC
  5
52DA
330
A
100
AcDbEntity
  8
0
  6
Continuous
 62
     7
370
     0
100
AcDbCircle
 10
-14.000000000005
 20
-87.49999999999834
 30
0.0
 40
1.0
100
AcDbArc
 50
0.0
 51
90.0
  0
ARC
  5
52DB
330
A
100
AcDbEntity
  8
0
  6
Continuous
 62
     7
370
     0
100
AcDbCircle
 10
-20.000000000005
 20
-72.49999999999835
 30
0.0
 40
14.00000000000001
100
AcDbArc
 50
180.0
 51
270.0
  0
ARC
  5
52DC
330
A
100
AcDbEntity
  8
0
  6
Continuous
 62
     7
370
     0
100
AcDbCircle
 10
-19.66573420710097
 20
-178.2991837484882
 30
0.0
 40
100.0
100
AcDbArc
 50
85.91344278641335
 51
89.88965230247824
  0
LINE
  5
52DD
330
A
100
AcDbEntity
  8
0
  6
Continuous
 62
     7
370
     0
100
AcDbLine
 10
-13.000000000005
 20
-87.49999999999834
 30
0.0
 11
-12.53939201417393
 21
-87.49999999999834
 31
0.0
  0
LINE
  5
52DE
330
A
100
AcDbEntity
  8
0
  6
Continuous
 62
     7
370
     0
100
AcDbLine
 10
-20.000000000005
 20
-86.49999999999835
 30
0.0
 11
-14.000000000005
 21
-86.49999999999835
 31
0.0
  0
ARC
  5
52DF
330
A
100
AcDbEntity
  8
0
  6
Continuous
 62
     7
370
     0
100
AcDbCircle
 10
-19.45965975561193
 20
-71.29938219110005
 30
0.0
 40
7.000000000000017
100
AcDbArc
 50
189.8760224641915
 51
269.8896523024782
  0
LINE
  5
52E0
330
A
100
AcDbEntity
  8
0
  6
Continuous
 62
     9
370
     0
100
AcDbLine
 10
-31.70174780838124
 20
-48.32909437449337
 30
0.0
 11
-35.000000000005
 21
-48.32909437449337
 31
0.0
  0
LINE
  5
52E1
330
A
100
AcDbEntity
  8
0
  6
Continuous
 62
     7
370
     0
100
AcDbLine
 10
-35.000000000005
 20
-48.32909437449337
 30
0.0
 11
-35.000000000005
 21
-70.00204091695036
 31
0.0
  0
ARC
  5
52E2
330
A
100
AcDbEntity
  8
0
  6
Continuous
 62
     7
370
     0
100
AcDbCircle
 10
-125.9499384350379
 20
-81.76463278879017
 30
0.0
 40
100.0032832733633
100
AcDbArc
 50
6.754884508369459
 51
19.53267659400289
  0
LINE
  5
52EF
330
A
100
AcDbEntity
  8
0
  6
Continuous
 62
     7
370
     0
100
AcDbLine
 10
14.34005792127891
 20
-84.25873446350546
 30
0.0
 11
14.17090562550015
 21
-84.19773952557084
 31
0.0
  0
LINE
  5
52F0
330
A
100
AcDbEntity
  8
0
  6
Continuous
 62
     7
370
     0
100
AcDbLine
 10
14.17090562550015
 20
-87.49999999999834
 30
0.0
 11
14.999999999995
 21
-87.49999999999834
 31
0.0
  0
LINE
  5
52F1
330
A
100
AcDbEntity
  8
0
  6
Continuous
 62
     7
370
     0
100
AcDbLine
 10
-35.000000000005
 20
-47.49999999999835
 30
0.0
 11
-35.000000000005
 21
-48.32909437449337
 31
0.0
  0
LINE
  5
52FE
330
A
100
AcDbEntity
  8
0
  6
Continuous
 62
     7
370
     0
100
AcDbLine
 10
-31.70174780838124
 20
-48.32909437449337
 30
0.0
 11
-31.76047993666816
 21
-48.16400119675174
 31
0.0
  0
LINE
  5
52FF
330
A
100
AcDbEntity
  8
0
  6
Continuous
 62
     9
370
     0
100
AcDbLine
 10
-38.50000000000182
 20
-65.00000000023536
 30
0.0
 11
-36.00000000000091
 21
-65.00000000007594
 31
0.0
  0
LINE
  5
5300
330
A
100
AcDbEntity
  8
0
  6
Continuous
 62
     9
370
     0
100
AcDbLine
 10
-36.00000000000091
 20
-60.00000000007594
 30
0.0
 11
-38.50000000000182
 21
-60.00000000023536
 31
0.0
  0
LINE
  5
5301
330
A
100
AcDbEntity
  8
0
  6
Continuous
 62
     9
370
     0
100
AcDbLine
 10
2.499999999994997
 20
-90.99997999999507
 30
0.0
 11
2.499999999994997
 21
-88.49999999999557
 31
0.0
  0
LINE
  5
5302
330
A
100
AcDbEntity
  8
0
  6
Continuous
 62
     9
370
     0
100
AcDbLine
 10
-2.500000000005002
 20
-88.49999999999557
 30
0.0
 11
-2.500000000005002
 21
-90.99997999999507
 31
0.0
  0
LINE
  5
5303
330
A
100
AcDbEntity
  8
0
  6
Continuous
 62
     7
370
     0
100
AcDbLine
 10
-27.95000000063601
 20
-57.08715788988607
 30
0.0
 11
-29.23092099852602
 21
-56.34761780705275
 31
0.0
  0
ARC
  5
5304
330
A
100
AcDbEntity
  8
0
  6
Continuous
 62
     7
370
     0
100
AcDbCircle
 10
-28.20000000060804
 20
-57.52017059179426
 30
0.0
 40
0.4999999999999451
100
AcDbArc
 50
0.0000000036542283
 51
60.00000000365541
  0
ARC
  5
5305
330
A
100
AcDbEntity
  8
0
  6
Continuous
 62
     7
370
     0
100
AcDbCircle
 10
-46.99999999999704
 20
-50.50000000000415
 30
0.0
 40
3.000000000000001
100
AcDbArc
 50
90.0
 51
180.0
  0
LINE
  5
5306
330
A
100
AcDbEntity
  8
0
  6
Continuous
 62
     7
370
     0
100
AcDbLine
 10
-44.99999999999795
 20
-47.50000000000565
 30
0.0
 11
-46.99999999999704
 21
-47.50000000000565
 31
0.0
  0
LINE
  5
5307
330
A
100
AcDbEntity
  8
0
  6
Continuous
 62
     7
370
     0
100
AcDbLine
 10
-38.50000000000182
 20
-57.60000000000068
 30
0.0
 11
-44.0000000000009
 21
-57.60000000000068
 31
0.0
  0
LINE
  5
5308
330
A
100
AcDbEntity
  8
0
  6
Continuous
 62
     7
370
     0
100
AcDbLine
 10
-44.0000000000009
 20
-67.39999999999596
 30
0.0
 11
-38.50000000000182
 21
-67.39999999999596
 31
0.0
  0
LINE
  5
5309
330
A
100
AcDbEntity
  8
0
  6
Continuous
 62
     7
370
     0
100
AcDbLine
 10
-44.0
 20
-48.49999999999835
 30
0.0
 11
-45.0
 21
-48.49999999999835
 31
0.0
  0
LINE
  5
530A
330
A
100
AcDbEntity
  8
0
  6
Continuous
 62
     7
370
     0
100
AcDbLine
 10
-35.00000000000091
 20
-48.49999999999835
 30
0.0
 11
-36.00000000000091
 21
-48.49999999999835
 31
0.0
  0
LINE
  5
530B
330
A
100
AcDbEntity
  8
0
  6
Continuous
 62
     7
370
     0
100
AcDbLine
 10
-38.50000000000409
 20
-65.50000000023456
 30
0.0
 11
-36.00000000000501
 21
-65.50000000007518
 31
0.0
  0
LINE
  5
530C
330
A
100
AcDbEntity
  8
0
  6
Continuous
 62
     7
370
     0
100
AcDbLine
 10
-36.00000000000501
 20
-59.50000000007676
 30
0.0
 11
-38.50000000000409
 21
-59.50000000023627
 31
0.0
  0
LINE
  5
530D
330
A
100
AcDbEntity
  8
0
  6
Continuous
 62
     7
370
     0
100
AcDbLine
 10
6.999999999994997
 20
-96.49999999999547
 30
0.0
 11
6.999999999994997
 21
-91.49999999999547
 31
0.0
  0
LINE
  5
530E
330
A
100
AcDbEntity
  8
0
  6
Continuous
 62
     7
370
     0
100
AcDbLine
 10
-7.000000000005002
 20
-91.49999999999547
 30
0.0
 11
-7.000000000005002
 21
-96.49999999999547
 31
0.0
  0
LINE
  5
530F
330
A
100
AcDbEntity
  8
0
  6
Continuous
 62
     7
370
     0
100
AcDbLine
 10
6.124463913254885
 20
-81.68256511958736
 30
0.0
 11
5.412842109670009
 21
-80.45000000000475
 31
0.0
  0
ARC
  5
5310
330
A
100
AcDbEntity
  8
0
  6
Continuous
 62
     7
370
     0
100
AcDbCircle
 10
4.97982940777797
 20
-80.70000000000474
 30
0.0
 40
0.4999999999998783
100
AcDbArc
 50
29.99999999999729
 51
90.0
  0
LINE
  5
5311
330
A
100
AcDbEntity
  8
0
  6
Continuous
 62
     7
370
     0
100
AcDbLine
 10
2.999999999994997
 20
-90.99998063766305
 30
0.0
 11
2.999999999994997
 21
-88.49999999999557
 31
0.0
  0
LINE
  5
5312
330
A
100
AcDbEntity
  8
0
  6
Continuous
 62
     7
370
     0
100
AcDbLine
 10
-3.000000000005002
 20
-88.49999999999557
 30
0.0
 11
-3.000000000005002
 21
-90.99998063766305
 31
0.0
  0
ARC
  5
5313
330
A
100
AcDbEntity
  8
0
  6
Continuous
 62
     7
370
     0
100
AcDbCircle
 10
12.00000000000204
 20
-99.49999999999896
 30
0.0
 40
2.999999999999986
100
AcDbArc
 50
269.9999999999609
 51
0.0
  0
LINE
  5
5314
330
A
100
AcDbEntity
  8
0
  6
Continuous
 62
     7
370
     0
100
AcDbLine
 10
14.99999999999682
 20
-99.49999999999887
 30
0.0
 11
14.99999999999682
 21
-97.49999999999797
 31
0.0
  0
LINE
  5
5315
330
A
100
AcDbEntity
  8
0
  6
Continuous
 62
     7
370
     0
100
AcDbLine
 10
-4.900000000006002
 20
-90.99999999999496
 30
0.0
 11
-4.900000000006002
 21
-91.49999999998996
 31
0.0
  0
LINE
  5
5316
330
A
100
AcDbEntity
  8
0
  6
Continuous
 62
     7
370
     0
100
AcDbLine
 10
4.899999999995998
 20
-91.49999999998996
 30
0.0
 11
4.899999999995998
 21
-90.99999999999496
 31
0.0
  0
LINE
  5
5317
330
A
100
AcDbEntity
  8
0
  6
Continuous
 62
     7
370
     0
100
AcDbLine
 10
13.999999999995
 20
-97.49999999999547
 30
0.0
 11
13.999999999995
 21
-96.49999999999547
 31
0.0
  0
LINE
  5
5318
330
A
100
AcDbEntity
  8
0
  6
Continuous
 62
     7
370
     0
100
AcDbLine
 10
13.999999999995
 20
-88.49999999999557
 30
0.0
 11
13.999999999995
 21
-87.49999999999557
 31
0.0
  0
LINE
  5
5319
330
A
100
AcDbEntity
  8
0
  6
Continuous
 62
     7
370
     0
100
AcDbLine
 10
14.999999999995
 20
-87.49999999999834
 30
0.0
 11
14.999999999995
 21
-85.19913895635525
 31
0.0
  0
LINE
  5
531A
330
A
100
AcDbEntity
  8
0
  6
Continuous
 62
     7
370
     0
100
AcDbLine
 10
-32.70234234924124
 20
-47.49999999999835
 30
0.0
 11
-35.000000000005
 21
-47.49999999999835
 31
0.0
  0
LINE
  5
531B
330
A
100
AcDbEntity
  8
0
  6
Continuous
 62
     9
370
     0
100
AcDbLine
 10
-27.95000000063601
 20
64.58715788988758
 30
0.0
 11
-27.95000000033315
 21
69.35520364090496
 31
0.0
  0
LINE
  5
531C
330
A
100
AcDbEntity
  8
0
  6
Continuous
 62
     7
370
     0
100
AcDbLine
 10
-27.70000000025084
 20
70.62768393452518
 30
0.0
 11
-27.70000000029086
 21
69.99999999957407
 31
0.0
  0
LINE
  5
531D
330
A
100
AcDbEntity
  8
0
  6
Continuous
 62
     7
370
     0
100
AcDbLine
 10
-27.70000000029086
 20
69.99999999957407
 30
0.0
 11
-27.70000000060895
 21
65.02017059176376
 31
0.0
  0
LINE
  5
531E
330
A
100
AcDbEntity
  8
0
  6
Continuous
 62
     9
370
     0
100
AcDbLine
 10
-46.99999999999704
 20
82.53939201416306
 30
0.0
 11
-46.99999999999704
 21
55.82909437452861
 31
0.0
  0
ELLIPSE
  5
531F
330
A
100
AcDbEntity
  8
0
  6
Continuous
 62
     9
370
     0
100
AcDbEllipse
 10
-46.99999999999704
 20
58.69091197875093
 30
0.0
 11
3.000000000000113
 21
0.0
 31
0.0
210
0.0
220
0.0
230
1.0
 40
0.9539392014168626
 41
3.141592653589773
 42
4.712388980384688
  0
LINE
  5
5320
330
A
100
AcDbEntity
  8
0
  6
Continuous
 62
     7
370
     0
100
AcDbLine
 10
-49.99999999999613
 20
58.69091197876355
 30
0.0
 11
-49.99999999999613
 21
81.99999999999107
 31
0.0
  0
LINE
  5
5321
330
A
100
AcDbEntity
  8
0
  6
Continuous
 62
     7
370
     0
100
AcDbLine
 10
-49.95111102045211
 20
82.53939201415732
 30
0.0
 11
-49.99999999999613
 21
81.99999999999391
 31
0.0
  0
LINE
  5
5322
330
A
100
AcDbEntity
  8
0
  6
Continuous
 62
     9
370
     0
100
AcDbLine
 10
-46.99999999999704
 20
82.53939201416306
 30
0.0
 11
-49.95111102044893
 21
82.53939201416306
 31
0.0
  0
LINE
  5
5323
330
A
100
AcDbEntity
  8
0
  6
Continuous
 62
     7
370
     0
100
AcDbLine
 10
-44.99999999999795
 20
55.82909437451576
 30
0.0
 11
-44.99999999999795
 21
82.53939201415926
 31
0.0
  0
LINE
  5
5324
330
A
100
AcDbEntity
  8
0
  6
Continuous
 62
     9
370
     0
100
AcDbLine
 10
-46.99999999999704
 20
55.82909437450166
 30
0.0
 11
-44.99999999999795
 21
55.82909437450166
 31
0.0
  0
LINE
  5
5325
330
A
100
AcDbEntity
  8
0
  6
Continuous
 62
     9
370
     0
100
AcDbLine
 10
-46.99999999999704
 20
82.53939201416306
 30
0.0
 11
-44.99999999999795
 21
82.53939201416306
 31
0.0
  0
ARC
  5
5326
330
A
100
AcDbEntity
  8
0
  6
Continuous
 62
     7
370
     0
100
AcDbCircle
 10
-46.99999999999704
 20
81.99999999999391
 30
0.0
 40
3.000000000000001
100
AcDbArc
 50
90.0
 51
169.6420444534326
  0
LINE
  5
5327
330
A
100
AcDbEntity
  8
0
  6
Continuous
 62
     9
370
     0
100
AcDbLine
 10
-46.99999999999704
 20
84.99999999999245
 30
0.0
 11
-46.99999999999704
 21
82.53939201416306
 31
0.0
  0
LINE
  5
5328
330
A
100
AcDbEntity
  8
0
  6
Continuous
 62
     7
370
     0
100
AcDbLine
 10
-44.99999999999795
 20
84.99999999999245
 30
0.0
 11
-44.99999999999795
 21
82.53939201416306
 31
0.0
  0
LINE
  5
5329
330
A
100
AcDbEntity
  8
0
  6
Continuous
 62
     7
370
     0
100
AcDbLine
 10
-46.99999999999704
 20
84.99999999999245
 30
0.0
 11
-44.99999999999795
 21
84.99999999999245
 31
0.0
  0
LINE
  5
532A
330
A
100
AcDbEntity
  8
0
  6
Continuous
 62
     7
370
     0
100
AcDbLine
 10
-49.99999999999613
 20
58.00000000001285
 30
0.0
 11
-49.99999999999613
 21
58.69091197875866
 31
0.0
  0
LINE
  5
532B
330
A
100
AcDbEntity
  8
0
  6
Continuous
 62
     9
370
     0
100
AcDbLine
 10
-46.99999999999704
 20
55.82909437451076
 30
0.0
 11
-46.99999999999704
 21
55.00000000001666
 31
0.0
  0
LINE
  5
532C
330
A
100
AcDbEntity
  8
0
  6
Continuous
 62
     7
370
     0
100
AcDbLine
 10
-44.99999999999795
 20
55.00000000001586
 30
0.0
 11
-44.99999999999795
 21
55.82909437451076
 31
0.0
  0
LINE
  5
532D
330
A
100
AcDbEntity
  8
0
  6
Continuous
 62
     7
370
     0
100
AcDbLine
 10
-38.50000000000182
 20
74.89999999999503
 30
0.0
 11
-38.50000000000182
 21
69.99999999999977
 31
0.0
  0
LINE
  5
532E
330
A
100
AcDbEntity
  8
0
  6
Continuous
 62
     7
370
     0
100
AcDbLine
 10
-38.50000000000182
 20
69.99999999999977
 30
0.0
 11
-38.50000000000182
 21
65.10000000000684
 31
0.0
  0
LINE
  5
532F
330
A
100
AcDbEntity
  8
0
  6
Continuous
 62
     7
370
     0
100
AcDbLine
 10
-45.0
 20
83.99999999999977
 30
0.0
 11
-44.0
 21
83.99999999999977
 31
0.0
  0
LINE
  5
5330
330
A
100
AcDbEntity
  8
0
  6
Continuous
 62
     9
370
     0
100
AcDbLine
 10
-44.0
 20
81.95684863886624
 30
0.0
 11
-45.0
 21
81.95684863886624
 31
0.0
  0
LINE
  5
5331
330
A
100
AcDbEntity
  8
0
  6
Continuous
 62
     7
370
     0
100
AcDbLine
 10
-44.0
 20
83.99999999999977
 30
0.0
 11
-44.0
 21
81.95684863886624
 31
0.0
  0
LINE
  5
5332
330
A
100
AcDbEntity
  8
0
  6
Continuous
 62
     9
370
     0
100
AcDbLine
 10
-45.0
 20
56.7830335759117
 30
0.0
 11
-44.0
 21
56.7830335759117
 31
0.0
  0
LINE
  5
5333
330
A
100
AcDbEntity
  8
0
  6
Continuous
 62
     7
370
     0
100
AcDbLine
 10
-44.0
 20
81.95684863886624
 30
0.0
 11
-44.0
 21
56.78303357591165
 31
0.0
  0
LINE
  5
5334
330
A
100
AcDbEntity
  8
0
  6
Continuous
 62
     7
370
     0
100
AcDbLine
 10
-44.0
 20
56.7830335759117
 30
0.0
 11
-44.0
 21
55.99999999999983
 31
0.0
  0
LINE
  5
5335
330
A
100
AcDbEntity
  8
0
  6
Continuous
 62
     7
370
     0
100
AcDbLine
 10
-36.00000000000091
 20
83.99999999999977
 30
0.0
 11
-35.00000000000091
 21
83.99999999999977
 31
0.0
  0
LINE
  5
5336
330
A
100
AcDbEntity
  8
0
  6
Continuous
 62
     9
370
     0
100
AcDbLine
 10
-35.00000000000091
 20
81.95684863886624
 30
0.0
 11
-36.00000000000091
 21
81.95684863886624
 31
0.0
  0
LINE
  5
5337
330
A
100
AcDbEntity
  8
0
  6
Continuous
 62
     7
370
     0
100
AcDbLine
 10
-36.00000000000091
 20
81.95684863886624
 30
0.0
 11
-36.00000000000091
 21
83.99999999999977
 31
0.0
  0
LINE
  5
5338
330
A
100
AcDbEntity
  8
0
  6
Continuous
 62
     7
370
     0
100
AcDbLine
 10
-35.00000000000091
 20
83.99999999999977
 30
0.0
 11
-35.00000000000091
 21
81.95684863886624
 31
0.0
  0
LINE
  5
5339
330
A
100
AcDbEntity
  8
0
  6
Continuous
 62
     9
370
     0
100
AcDbLine
 10
-36.00000000000091
 20
56.7830335759117
 30
0.0
 11
-35.00000000000091
 21
56.7830335759117
 31
0.0
  0
LINE
  5
533A
330
A
100
AcDbEntity
  8
0
  6
Continuous
 62
     7
370
     0
100
AcDbLine
 10
-36.00000000000091
 20
81.95684863886624
 30
0.0
 11
-36.00000000000091
 21
56.78303357591165
 31
0.0
  0
LINE
  5
533B
330
A
100
AcDbEntity
  8
0
  6
Continuous
 62
     7
370
     0
100
AcDbLine
 10
-35.00000000000091
 20
81.95684863886624
 30
0.0
 11
-35.00000000000091
 21
78.99999999999977
 31
0.0
  0
LINE
  5
533C
330
A
100
AcDbEntity
  8
0
  6
Continuous
 62
     7
370
     0
100
AcDbLine
 10
-36.00000000000091
 20
56.7830335759117
 30
0.0
 11
-36.00000000000091
 21
55.99999999999983
 31
0.0
  0
LINE
  5
533D
330
A
100
AcDbEntity
  8
0
  6
Continuous
 62
     7
370
     0
100
AcDbLine
 10
-7.000000000005002
 20
98.99999999999687
 30
0.0
 11
6.999999999994997
 21
98.99999999999687
 31
0.0
  0
LINE
  5
533E
330
A
100
AcDbEntity
  8
0
  6
Continuous
 62
     9
370
     0
100
AcDbLine
 10
0.9594315643660138
 20
87.95000000000625
 30
0.0
 11
5.412842109670009
 21
87.95000000000625
 31
0.0
  0
LINE
  5
533F
330
A
100
AcDbEntity
  8
0
  6
Continuous
 62
     7
370
     0
100
AcDbLine
 10
4.97982940777797
 20
87.70000000000612
 30
0.0
 11
-0.047945972494972
 21
87.70000000000612
 31
0.0
  0
ELLIPSE
  5
5340
330
A
100
AcDbEntity
  8
0
  6
Continuous
 62
     9
370
     0
100
AcDbEllipse
 10
11.30908802125077
 20
107.0000000000002
 30
0.0
 11
0.0
 21
-3.000000000000001
 31
0.0
210
0.0
220
0.0
230
1.0
 40
0.9539392014172019
 41
1.570796326794896
 42
3.141592653589792
  0
LINE
  5
5341
330
A
100
AcDbEntity
  8
0
  6
Continuous
 62
     9
370
     0
100
AcDbLine
 10
14.17090562552198
 20
107.0000000000002
 30
0.0
 11
-12.53939201418006
 21
107.0000000000002
 31
0.0
  0
LINE
  5
5342
330
A
100
AcDbEntity
  8
0
  6
Continuous
 62
     9
370
     0
100
AcDbLine
 10
-12.5393920141762
 20
109.9511110204572
 30
0.0
 11
-12.5393920141762
 21
107.0000000000002
 31
0.0
  0
LINE
  5
5343
330
A
100
AcDbEntity
  8
0
  6
Continuous
 62
     7
370
     0
100
AcDbLine
 10
-12.00000000000705
 20
110.0000000000017
 30
0.0
 11
-12.5393920141762
 21
109.9511110204576
 31
0.0
  0
LINE
  5
5344
330
A
100
AcDbEntity
  8
0
  6
Continuous
 62
     7
370
     0
100
AcDbLine
 10
-12.00000000000591
 20
110.0000000000017
 30
0.0
 11
11.30908802127897
 21
110.0000000000017
 31
0.0
  0
LINE
  5
5345
330
A
100
AcDbEntity
  8
0
  6
Continuous
 62
     7
370
     0
100
AcDbLine
 10
-12.5393920141762
 20
104.9999999999994
 30
0.0
 11
14.17090562553494
 21
104.9999999999994
 31
0.0
  0
LINE
  5
5346
330
A
100
AcDbEntity
  8
0
  6
Continuous
 62
     9
370
     0
100
AcDbLine
 10
-12.5393920141762
 20
107.0000000000002
 30
0.0
 11
-12.5393920141762
 21
104.9999999999994
 31
0.0
  0
LINE
  5
5347
330
A
100
AcDbEntity
  8
0
  6
Continuous
 62
     9
370
     0
100
AcDbLine
 10
14.17090562550288
 20
107.0000000000002
 30
0.0
 11
14.17090562550288
 21
104.9999999999994
 31
0.0
  0
LINE
  5
5348
330
A
100
AcDbEntity
  8
0
  6
Continuous
 62
     9
370
     0
100
AcDbLine
 10
-12.5393920141762
 20
107.0000000000002
 30
0.0
 11
-15.00000000000795
 21
107.0000000000002
 31
0.0
  0
ARC
  5
5349
330
A
100
AcDbEntity
  8
0
  6
Continuous
 62
     7
370
     0
100
AcDbCircle
 10
-12.00000000000705
 20
107.0000000000002
 30
0.0
 40
3.000000000000461
100
AcDbArc
 50
100.3579555466115
 51
179.9999999999984
  0
LINE
  5
534A
330
A
100
AcDbEntity
  8
0
  6
Continuous
 62
     7
370
     0
100
AcDbLine
 10
-15.00000000000795
 20
104.9999999999994
 30
0.0
 11
-12.5393920141762
 21
104.9999999999994
 31
0.0
  0
LINE
  5
534B
330
A
100
AcDbEntity
  8
0
  6
Continuous
 62
     7
370
     0
100
AcDbLine
 10
-15.00000000000795
 20
107.0000000000002
 30
0.0
 11
-15.00000000000795
 21
104.9999999999994
 31
0.0
  0
LINE
  5
534C
330
A
100
AcDbEntity
  8
0
  6
Continuous
 62
     9
370
     0
100
AcDbLine
 10
15.00000000001091
 20
107.0000000000002
 30
0.0
 11
14.17090562551493
 21
107.0000000000002
 31
0.0
  0
LINE
  5
534D
330
A
100
AcDbEntity
  8
0
  6
Continuous
 62
     7
370
     0
100
AcDbLine
 10
14.17090562551493
 20
104.9999999999994
 30
0.0
 11
15.00000000001182
 21
104.9999999999994
 31
0.0
  0
LINE
  5
534E
330
A
100
AcDbEntity
  8
0
  6
Continuous
 62
     7
370
     0
100
AcDbLine
 10
11.30908802126191
 20
110.0000000000017
 30
0.0
 11
12.00000000000909
 21
110.0000000000017
 31
0.0
  0
LINE
  5
534F
330
A
100
AcDbEntity
  8
0
  6
Continuous
 62
     7
370
     0
100
AcDbLine
 10
4.899999999998954
 20
98.49999999999642
 30
0.0
 11
-4.900000000010095
 21
98.49999999999642
 31
0.0
  0
LINE
  5
5350
330
A
100
AcDbEntity
  8
0
  6
Continuous
 62
     9
370
     0
100
AcDbLine
 10
-11.95684863887095
 20
104.9999999999969
 30
0.0
 11
-11.95684863887095
 21
103.9999999999968
 31
0.0
  0
LINE
  5
5351
330
A
100
AcDbEntity
  8
0
  6
Continuous
 62
     7
370
     0
100
AcDbLine
 10
-14.000000000005
 20
103.9999999999968
 30
0.0
 11
-14.000000000005
 21
104.9999999999969
 31
0.0
  0
LINE
  5
5352
330
A
100
AcDbEntity
  8
0
  6
Continuous
 62
     7
370
     0
100
AcDbLine
 10
-11.95684863887095
 20
103.9999999999968
 30
0.0
 11
-14.000000000005
 21
103.9999999999968
 31
0.0
  0
LINE
  5
5353
330
A
100
AcDbEntity
  8
0
  6
Continuous
 62
     9
370
     0
100
AcDbLine
 10
13.21696642408324
 20
104.9999999999969
 30
0.0
 11
13.21696642408324
 21
103.9999999999968
 31
0.0
  0
LINE
  5
5354
330
A
100
AcDbEntity
  8
0
  6
Continuous
 62
     7
370
     0
100
AcDbLine
 10
13.21696642408324
 20
103.9999999999968
 30
0.0
 11
-11.95684863887095
 21
103.9999999999968
 31
0.0
  0
LINE
  5
5355
330
A
100
AcDbEntity
  8
0
  6
Continuous
 62
     7
370
     0
100
AcDbLine
 10
13.999999999995
 20
103.9999999999968
 30
0.0
 11
13.21696642408324
 21
103.9999999999968
 31
0.0
  0
LINE
  5
5356
330
A
100
AcDbEntity
  8
0
  6
Continuous
 62
     9
370
     0
100
AcDbLine
 10
-11.95684863887095
 20
95.99999999999704
 30
0.0
 11
-11.95684863887095
 21
94.99999999999692
 31
0.0
  0
LINE
  5
5357
330
A
100
AcDbEntity
  8
0
  6
Continuous
 62
     7
370
     0
100
AcDbLine
 10
-14.000000000005
 20
94.99999999999692
 30
0.0
 11
-14.000000000005
 21
95.99999999999704
 31
0.0
  0
LINE
  5
5358
330
A
100
AcDbEntity
  8
0
  6
Continuous
 62
     7
370
     0
100
AcDbLine
 10
-13.000000000005
 20
94.99999999999692
 30
0.0
 11
-14.000000000005
 21
94.99999999999692
 31
0.0
  0
LINE
  5
5359
330
A
100
AcDbEntity
  8
0
  6
Continuous
 62
     7
370
     0
100
AcDbLine
 10
-14.000000000005
 20
95.99999999999704
 30
0.0
 11
-11.95684863887095
 21
95.99999999999704
 31
0.0
  0
LINE
  5
535A
330
A
100
AcDbEntity
  8
0
  6
Continuous
 62
     9
370
     0
100
AcDbLine
 10
13.21696642408324
 20
95.99999999999704
 30
0.0
 11
13.21696642408324
 21
94.99999999999692
 31
0.0
  0
LINE
  5
535B
330
A
100
AcDbEntity
  8
0
  6
Continuous
 62
     7
370
     0
100
AcDbLine
 10
13.21696642408324
 20
95.99999999999704
 30
0.0
 11
-11.95684863887095
 21
95.99999999999704
 31
0.0
  0
LINE
  5
535C
330
A
100
AcDbEntity
  8
0
  6
Continuous
 62
     7
370
     0
100
AcDbLine
 10
13.999999999995
 20
95.99999999999704
 30
0.0
 11
13.21696642408324
 21
95.99999999999704
 31
0.0
  0
ARC
  5
535D
330
A
100
AcDbEntity
  8
0
  6
Continuous
 62
     7
370
     0
100
AcDbCircle
 10
-19.99999999998386
 20
79.9999999999971
 30
0.0
 40
14.00000000002155
100
AcDbArc
 50
169.5495490836547
 51
179.9999999999886
  0
LINE
  5
535E
330
A
100
AcDbEntity
  8
0
  6
Continuous
 62
     9
370
     0
100
AcDbLine
 10
-25.37678122836792
 20
82.53939201416926
 30
0.0
 11
-33.76776990650615
 21
82.53939201416926
 31
0.0
  0
ARC
  5
535F
330
A
100
AcDbEntity
  8
0
  6
Continuous
 62
     7
370
     0
100
AcDbCircle
 10
-19.45798132758318
 20
78.79880576848575
 30
0.0
 40
7.001726767515116
100
AcDbArc
 50
147.7077726714092
 51
174.384204389933
  0
ARC
  5
5360
330
A
100
AcDbEntity
  8
0
  6
Continuous
 62
     7
370
     0
100
AcDbCircle
 10
-125.950209595401
 20
89.26465952433989
 30
0.0
 40
100.0035477676113
100
AcDbArc
 50
340.4673609127811
 51
354.3873073082221
  0
LINE
  5
5361
330
A
100
AcDbEntity
  8
0
  6
Continuous
 62
     9
370
     0
100
AcDbLine
 10
-31.70174780838124
 20
55.82909437449472
 30
0.0
 11
-35.000000000005
 21
55.82909437449472
 31
0.0
  0
LINE
  5
5362
330
A
100
AcDbEntity
  8
0
  6
Continuous
 62
     7
370
     0
100
AcDbLine
 10
-35.000000000005
 20
78.99999999999977
 30
0.0
 11
-35.000000000005
 21
55.82909437449472
 31
0.0
  0
ARC
  5
538B
330
A
100
AcDbEntity
  8
0
  6
Continuous
 62
     7
370
     0
100
AcDbCircle
 10
-20.000000000005
 20
79.99999999999977
 30
0.0
 40
13.99999999999988
100
AcDbArc
 50
90.0
 51
169.5495490836499
  0
LINE
  5
538C
330
A
100
AcDbEntity
  8
0
  6
Continuous
 62
     7
370
     0
100
AcDbLine
 10
-20.000000000005
 20
93.99999999999989
 30
0.0
 11
-14.000000000005
 21
93.99999999999989
 31
0.0
  0
LINE
  5
538D
330
A
100
AcDbEntity
  8
0
  6
Continuous
 62
     7
370
     0
100
AcDbLine
 10
-13.000000000005
 20
94.99999999999976
 30
0.0
 11
-12.53939201417393
 21
94.99999999999976
 31
0.0
  0
LINE
  5
538E
330
A
100
AcDbEntity
  8
0
  6
Continuous
 62
     9
370
     0
100
AcDbLine
 10
-12.53939201417393
 20
94.99999999999976
 30
0.0
 11
-12.53939201417393
 21
86.05343072135923
 31
0.0
  0
ARC
  5
538F
330
A
100
AcDbEntity
  8
0
  6
Continuous
 62
     7
370
     0
100
AcDbCircle
 10
-19.66573420710097
 20
185.7991837484896
 30
0.0
 40
100.0
100
AcDbArc
 50
270.1103476975218
 51
274.0865572135866
  0
ARC
  5
5390
330
A
100
AcDbEntity
  8
0
  6
Continuous
 62
     7
370
     0
100
AcDbCircle
 10
-19.45965975561193
 20
78.79938219110141
 30
0.0
 40
6.999999999999986
100
AcDbArc
 50
90.11034769752175
 51
147.7044216076246
  0
ARC
  5
5391
330
A
100
AcDbEntity
  8
0
  6
Continuous
 62
     7
370
     0
100
AcDbCircle
 10
-14.000000000005
 20
94.99999999999976
 30
0.0
 40
1.0
100
AcDbArc
 50
270.0
 51
0.0
  0
LINE
  5
5392
330
A
100
AcDbEntity
  8
0
  6
Continuous
 62
     9
370
     0
100
AcDbLine
 10
14.17090562550015
 20
94.99999999999976
 30
0.0
 11
14.17090562550015
 21
91.69773952557227
 31
0.0
  0
ARC
  5
5393
330
A
100
AcDbEntity
  8
0
  6
Continuous
 62
     7
370
     0
100
AcDbCircle
 10
-19.66581384529104
 20
185.79956061656
 30
0.0
 40
100.0003815851985
100
AcDbArc
 50
274.086587338906
 51
289.7773473210241
  0
LINE
  5
5394
330
A
100
AcDbEntity
  8
0
  6
Continuous
 62
     7
370
     0
100
AcDbLine
 10
14.17090562550015
 20
94.99999999999976
 30
0.0
 11
-12.53939201417393
 21
94.99999999999976
 31
0.0
  0
LINE
  5
53A1
330
A
100
AcDbEntity
  8
0
  6
Continuous
 62
     7
370
     0
100
AcDbLine
 10
-35.000000000005
 20
55.82909437449472
 30
0.0
 11
-35.000000000005
 21
54.99999999999977
 31
0.0
  0
LINE
  5
53A2
330
A
100
AcDbEntity
  8
0
  6
Continuous
 62
     7
370
     0
100
AcDbLine
 10
-31.76047993666816
 20
55.66400119675313
 30
0.0
 11
-31.70174780838124
 21
55.82909437449472
 31
0.0
  0
LINE
  5
53A3
330
A
100
AcDbEntity
  8
0
  6
Continuous
 62
     7
370
     0
100
AcDbLine
 10
14.999999999995
 20
94.99999999999976
 30
0.0
 11
14.17090562550015
 21
94.99999999999976
 31
0.0
  0
LINE
  5
53B0
330
A
100
AcDbEntity
  8
0
  6
Continuous
 62
     7
370
     0
100
AcDbLine
 10
14.17090562550015
 20
91.69773952557227
 30
0.0
 11
14.34005792127891
 21
91.75873446350676
 31
0.0
  0
LINE
  5
53B1
330
A
100
AcDbEntity
  8
0
  6
Continuous
 62
     9
370
     0
100
AcDbLine
 10
-38.50000000000182
 20
67.50000000023675
 30
0.0
 11
-36.00000000000091
 21
67.50000000007736
 31
0.0
  0
LINE
  5
53B2
330
A
100
AcDbEntity
  8
0
  6
Continuous
 62
     9
370
     0
100
AcDbLine
 10
-36.00000000000091
 20
72.50000000007736
 30
0.0
 11
-38.50000000000182
 21
72.50000000023681
 31
0.0
  0
LINE
  5
53B3
330
A
100
AcDbEntity
  8
0
  6
Continuous
 62
     9
370
     0
100
AcDbLine
 10
-2.500000000005002
 20
98.49997999999642
 30
0.0
 11
-2.500000000005002
 21
95.99999999999704
 31
0.0
  0
LINE
  5
53B4
330
A
100
AcDbEntity
  8
0
  6
Continuous
 62
     9
370
     0
100
AcDbLine
 10
2.499999999994997
 20
95.99999999999704
 30
0.0
 11
2.499999999994997
 21
98.49997999999642
 31
0.0
  0
LINE
  5
53B5
330
A
100
AcDbEntity
  8
0
  6
Continuous
 62
     7
370
     0
100
AcDbLine
 10
-29.23137883020786
 20
63.84735347780935
 30
0.0
 11
-27.95000000063601
 21
64.58715788988758
 31
0.0
  0
ARC
  5
53B6
330
A
100
AcDbEntity
  8
0
  6
Continuous
 62
     7
370
     0
100
AcDbCircle
 10
-28.20000000060804
 20
65.02017059179576
 30
0.0
 40
0.4999999999999631
100
AcDbArc
 50
299.9999999963438
 51
359.9999999963409
  0
ARC
  5
53B7
330
A
100
AcDbEntity
  8
0
  6
Continuous
 62
     7
370
     0
100
AcDbCircle
 10
-46.99999999999704
 20
58.00000000000557
 30
0.0
 40
2.99999999999989
100
AcDbArc
 50
180.0
 51
270.0
  0
LINE
  5
53B8
330
A
100
AcDbEntity
  8
0
  6
Continuous
 62
     7
370
     0
100
AcDbLine
 10
-46.99999999999704
 20
55.00000000000705
 30
0.0
 11
-44.99999999999795
 21
55.00000000000705
 31
0.0
  0
LINE
  5
53B9
330
A
100
AcDbEntity
  8
0
  6
Continuous
 62
     7
370
     0
100
AcDbLine
 10
-38.50000000000182
 20
74.89999999999742
 30
0.0
 11
-44.0000000000009
 21
74.89999999999742
 31
0.0
  0
LINE
  5
53BA
330
A
100
AcDbEntity
  8
0
  6
Continuous
 62
     7
370
     0
100
AcDbLine
 10
-44.0000000000009
 20
65.10000000000212
 30
0.0
 11
-38.50000000000182
 21
65.10000000000212
 31
0.0
  0
LINE
  5
53BB
330
A
100
AcDbEntity
  8
0
  6
Continuous
 62
     7
370
     0
100
AcDbLine
 10
-45.0
 20
55.99999999999983
 30
0.0
 11
-44.0
 21
55.99999999999983
 31
0.0
  0
LINE
  5
53BC
330
A
100
AcDbEntity
  8
0
  6
Continuous
 62
     7
370
     0
100
AcDbLine
 10
-36.00000000000091
 20
55.99999999999983
 30
0.0
 11
-35.00000000000091
 21
55.99999999999983
 31
0.0
  0
LINE
  5
53BD
330
A
100
AcDbEntity
  8
0
  6
Continuous
 62
     7
370
     0
100
AcDbLine
 10
-38.50000000000409
 20
67.00000000023755
 30
0.0
 11
-36.00000000000501
 21
67.00000000007816
 31
0.0
  0
LINE
  5
53BE
330
A
100
AcDbEntity
  8
0
  6
Continuous
 62
     7
370
     0
100
AcDbLine
 10
-36.00000000000501
 20
73.00000000007651
 30
0.0
 11
-38.50000000000409
 21
73.0000000002359
 31
0.0
  0
LINE
  5
53BF
330
A
100
AcDbEntity
  8
0
  6
Continuous
 62
     7
370
     0
100
AcDbLine
 10
-7.000000000005002
 20
103.9999999999968
 30
0.0
 11
-7.000000000005002
 21
98.99999999999687
 31
0.0
  0
LINE
  5
53C0
330
A
100
AcDbEntity
  8
0
  6
Continuous
 62
     7
370
     0
100
AcDbLine
 10
6.999999999994997
 20
98.99999999999693
 30
0.0
 11
6.999999999994997
 21
103.9999999999968
 31
0.0
  0
LINE
  5
53C1
330
A
100
AcDbEntity
  8
0
  6
Continuous
 62
     7
370
     0
100
AcDbLine
 10
5.412842109670009
 20
87.95000000000625
 30
0.0
 11
6.124815842028965
 21
89.18317467810544
 31
0.0
  0
ARC
  5
53C2
330
A
100
AcDbEntity
  8
0
  6
Continuous
 62
     7
370
     0
100
AcDbCircle
 10
4.97982940777797
 20
88.20000000000623
 30
0.0
 40
0.5000000000000006
100
AcDbArc
 50
270.0
 51
330.0000000000027
  0
LINE
  5
53C3
330
A
100
AcDbEntity
  8
0
  6
Continuous
 62
     7
370
     0
100
AcDbLine
 10
-3.000000000005002
 20
98.49998063766442
 30
0.0
 11
-3.000000000005002
 21
95.99999999999704
 31
0.0
  0
LINE
  5
53C4
330
A
100
AcDbEntity
  8
0
  6
Continuous
 62
     7
370
     0
100
AcDbLine
 10
2.999999999994997
 20
95.99999999999704
 30
0.0
 11
2.999999999994997
 21
98.49998063766442
 31
0.0
  0
LINE
  5
53C5
330
A
100
AcDbEntity
  8
0
  6
Continuous
 62
     7
370
     0
100
AcDbLine
 10
14.99999999999682
 20
104.9999999999994
 30
0.0
 11
14.99999999999682
 21
107.0000000000002
 31
0.0
  0
ARC
  5
53C6
330
A
100
AcDbEntity
  8
0
  6
Continuous
 62
     7
370
     0
100
AcDbCircle
 10
12.00000000000204
 20
107.0000000000002
 30
0.0
 40
2.99999999999989
100
AcDbArc
 50
0.0
 51
90.00000000003907
  0
LINE
  5
53C7
330
A
100
AcDbEntity
  8
0
  6
Continuous
 62
     7
370
     0
100
AcDbLine
 10
4.899999999995998
 20
98.49999999999642
 30
0.0
 11
4.899999999995998
 21
98.99999999999137
 31
0.0
  0
LINE
  5
53C8
330
A
100
AcDbEntity
  8
0
  6
Continuous
 62
     7
370
     0
100
AcDbLine
 10
-4.900000000006002
 20
98.99999999999137
 30
0.0
 11
-4.900000000006002
 21
98.49999999999642
 31
0.0
  0
LINE
  5
53C9
330
A
100
AcDbEntity
  8
0
  6
Continuous
 62
     7
370
     0
100
AcDbLine
 10
13.999999999995
 20
103.9999999999968
 30
0.0
 11
13.999999999995
 21
104.9999999999969
 31
0.0
  0
LINE
  5
53CA
330
A
100
AcDbEntity
  8
0
  6
Continuous
 62
     7
370
     0
100
AcDbLine
 10
13.999999999995
 20
94.99999999999692
 30
0.0
 11
13.999999999995
 21
95.99999999999704
 31
0.0
  0
LINE
  5
53CB
330
A
100
AcDbEntity
  8
0
  6
Continuous
 62
     7
370
     0
100
AcDbLine
 10
-35.000000000005
 20
54.99999999999977
 30
0.0
 11
-32.70234234924124
 21
54.99999999999977
 31
0.0
  0
LINE
  5
53CC
330
A
100
AcDbEntity
  8
0
  6
Continuous
 62
     7
370
     0
100
AcDbLine
 10
14.999999999995
 20
92.69913895635676
 30
0.0
 11
14.999999999995
 21
94.99999999999976
 31
0.0
  0
CIRCLE
  5
53CD
330
A
100
AcDbEntity
  8
0
  6
Continuous
 62
     9
370
     0
100
AcDbCircle
 10
-92.49999999954297
 20
-0.0000000000222542
 30
0.0
 40
4.979829407782743
  0
CIRCLE
  5
53CE
330
A
100
AcDbEntity
  8
0
  6
Continuous
 62
     9
370
     0
100
AcDbCircle
 10
-92.49999999955912
 20
-0.0000000000387388
 30
0.0
 40
5.412842109675073
  0
LINE
  5
53CF
330
A
100
AcDbEntity
  8
0
  6
Continuous
 62
     7
370
     0
100
AcDbLine
 10
-121.4999999999932
 20
-7.000000000004945
 30
0.0
 11
-121.4999999999932
 21
-0.0000000000049454
 31
0.0
  0
LINE
  5
53D0
330
A
100
AcDbEntity
  8
0
  6
Continuous
 62
     7
370
     0
100
AcDbLine
 10
-121.4999999999932
 20
-0.0000000000049454
 30
0.0
 11
-121.4999999999932
 21
6.999999999995054
 31
0.0
  0
LINE
  5
53D1
330
A
100
AcDbEntity
  8
0
  6
Continuous
 62
     9
370
     0
100
AcDbLine
 10
-110.4500000000032
 20
-5.41284210968746
 30
0.0
 11
-110.4500000000032
 21
5.412842109662648
 31
0.0
  0
LINE
  5
53D2
330
A
100
AcDbEntity
  8
0
  6
Continuous
 62
     7
370
     0
100
AcDbLine
 10
-110.2000000000032
 20
4.979829407770438
 30
0.0
 11
-110.2000000000032
 21
-4.979829407795165
 31
0.0
  0
LINE
  5
53D3
330
A
100
AcDbEntity
  8
0
  6
Continuous
 62
     9
370
     0
100
AcDbLine
 10
-129.499999999997
 20
5.400000000012056
 30
0.0
 11
-129.499999999997
 21
-5.400000000003558
 31
0.0
  0
ELLIPSE
  5
53D4
330
A
100
AcDbEntity
  8
0
  6
Continuous
 62
     9
370
     0
100
AcDbEllipse
 10
-129.499999999997
 20
-4.49999999999477
 30
0.0
 11
2.99999999999989
 21
0.0
 31
0.0
210
0.0
220
0.0
230
1.0
 40
0.3000000000001173
 41
3.141592653589792
 42
4.712388980384688
  0
LINE
  5
53D5
330
A
100
AcDbEntity
  8
0
  6
Continuous
 62
     7
370
     0
100
AcDbLine
 10
-132.4999999999979
 20
-4.499999999998067
 30
0.0
 11
-132.4999999999979
 21
4.500000000014807
 31
0.0
  0
ELLIPSE
  5
53D6
330
A
100
AcDbEntity
  8
0
  6
Continuous
 62
     9
370
     0
100
AcDbEllipse
 10
-129.499999999997
 20
4.500000000007844
 30
0.0
 11
2.99999999999989
 21
0.0
 31
0.0
210
0.0
220
0.0
230
1.0
 40
0.300000000000118
 41
1.570796326794896
 42
3.141592653589821
  0
LINE
  5
53D7
330
A
100
AcDbEntity
  8
0
  6
Continuous
 62
     9
370
     0
100
AcDbLine
 10
-129.499999999997
 20
-5.39999999999506
 30
0.0
 11
-127.4999999999961
 21
-5.39999999999506
 31
0.0
  0
LINE
  5
53D8
330
A
100
AcDbEntity
  8
0
  6
Continuous
 62
     9
370
     0
100
AcDbLine
 10
-129.499999999997
 20
5.400000000008049
 30
0.0
 11
-127.4999999999961
 21
5.400000000008049
 31
0.0
  0
LINE
  5
53D9
330
A
100
AcDbEntity
  8
0
  6
Continuous
 62
     7
370
     0
100
AcDbLine
 10
-127.4999999999961
 20
-5.399999999999067
 30
0.0
 11
-127.4999999999961
 21
5.400000000016575
 31
0.0
  0
LINE
  5
53DA
330
A
100
AcDbEntity
  8
0
  6
Continuous
 62
     9
370
     0
100
AcDbLine
 10
-129.499999999997
 20
25.00000000003132
 30
0.0
 11
-129.499999999997
 21
5.40000000001433
 31
0.0
  0
LINE
  5
53DB
330
A
100
AcDbEntity
  8
0
  6
Continuous
 62
     7
370
     0
100
AcDbLine
 10
-132.4999999999979
 20
4.500000000013329
 30
0.0
 11
-132.4999999999979
 21
21.99418044779623
 31
0.0
  0
LINE
  5
53DC
330
A
100
AcDbEntity
  8
0
  6
Continuous
 62
     7
370
     0
100
AcDbLine
 10
-132.4511110204539
 20
22.53939201417671
 30
0.0
 11
-132.4999999999979
 21
21.99418044777013
 31
0.0
  0
ARC
  5
53DD
330
A
100
AcDbEntity
  8
0
  6
Continuous
 62
     7
370
     0
100
AcDbCircle
 10
-129.499999999997
 20
22.00000000001282
 30
0.0
 40
3.000000000000001
100
AcDbArc
 50
90.0
 51
169.6420444534342
  0
LINE
  5
53DE
330
A
100
AcDbEntity
  8
0
  6
Continuous
 62
     7
370
     0
100
AcDbLine
 10
-129.499999999997
 20
-25.00000000000074
 30
0.0
 11
-127.4999999999961
 21
-25.00000000000074
 31
0.0
  0
LINE
  5
53DF
330
A
100
AcDbEntity
  8
0
  6
Continuous
 62
     9
370
     0
100
AcDbLine
 10
-129.499999999997
 20
-5.400000000001256
 30
0.0
 11
-129.499999999997
 21
-25.00000000003007
 31
0.0
  0
LINE
  5
53E0
330
A
100
AcDbEntity
  8
0
  6
Continuous
 62
     7
370
     0
100
AcDbLine
 10
-127.4999999999961
 20
-25.00000000001836
 30
0.0
 11
-127.4999999999961
 21
-5.400000000001256
 31
0.0
  0
ARC
  5
53E1
330
A
100
AcDbEntity
  8
0
  6
Continuous
 62
     7
370
     0
100
AcDbCircle
 10
-129.499999999997
 20
-21.99999999999994
 30
0.0
 40
2.999999999999907
100
AcDbArc
 50
190.3579555465657
 51
270.0
  0
LINE
  5
53E2
330
A
100
AcDbEntity
  8
0
  6
Continuous
 62
     7
370
     0
100
AcDbLine
 10
-132.4999999999979
 20
-21.99418044775717
 30
0.0
 11
-132.4511110204539
 21
-22.53939201416364
 31
0.0
  0
LINE
  5
53E3
330
A
100
AcDbEntity
  8
0
  6
Continuous
 62
     7
370
     0
100
AcDbLine
 10
-132.4999999999979
 20
-21.99418044777286
 30
0.0
 11
-132.4999999999979
 21
-4.500000000000056
 31
0.0
  0
LINE
  5
53E4
330
A
100
AcDbEntity
  8
0
  6
Continuous
 62
     7
370
     0
100
AcDbLine
 10
-129.499999999997
 20
25.00000000001376
 30
0.0
 11
-127.4999999999961
 21
25.00000000001376
 31
0.0
  0
LINE
  5
53E5
330
A
100
AcDbEntity
  8
0
  6
Continuous
 62
     7
370
     0
100
AcDbLine
 10
-127.4999999999961
 20
5.40000000001433
 30
0.0
 11
-127.4999999999961
 21
25.00000000004317
 31
0.0
  0
LINE
  5
53E6
330
A
100
AcDbEntity
  8
0
  6
Continuous
 62
     7
370
     0
100
AcDbLine
 10
-120.9999999999932
 20
4.900000000011033
 30
0.0
 11
-120.9999999999932
 21
-4.899999999998073
 31
0.0
  0
LINE
  5
53E7
330
A
100
AcDbEntity
  8
0
  6
Continuous
 62
     9
370
     0
100
AcDbLine
 10
-127.4999999999931
 20
-5.099999999997663
 30
0.0
 11
-126.4999999999931
 21
-5.099999999997663
 31
0.0
  0
LINE
  5
53E8
330
A
100
AcDbEntity
  8
0
  6
Continuous
 62
     9
370
     0
100
AcDbLine
 10
-127.4999999999931
 20
5.100000000002353
 30
0.0
 11
-126.4999999999931
 21
5.100000000002353
 31
0.0
  0
LINE
  5
53E9
330
A
100
AcDbEntity
  8
0
  6
Continuous
 62
     7
370
     0
100
AcDbLine
 10
-126.4999999999931
 20
5.100000000002353
 30
0.0
 11
-126.4999999999931
 21
-5.099999999997663
 31
0.0
  0
LINE
  5
53EA
330
A
100
AcDbEntity
  8
0
  6
Continuous
 62
     9
370
     0
100
AcDbLine
 10
-127.4999999999931
 20
-23.99371488357559
 30
0.0
 11
-126.4999999999931
 21
-23.99371488357559
 31
0.0
  0
LINE
  5
53EB
330
A
100
AcDbEntity
  8
0
  6
Continuous
 62
     7
370
     0
100
AcDbLine
 10
-126.4999999999931
 20
-5.099999999997663
 30
0.0
 11
-126.4999999999931
 21
-23.99371488357559
 31
0.0
  0
LINE
  5
53EC
330
A
100
AcDbEntity
  8
0
  6
Continuous
 62
     9
370
     0
100
AcDbLine
 10
-126.4999999999931
 20
23.99371488358014
 30
0.0
 11
-127.4999999999931
 21
23.99371488358014
 31
0.0
  0
LINE
  5
53ED
330
A
100
AcDbEntity
  8
0
  6
Continuous
 62
     7
370
     0
100
AcDbLine
 10
-126.4999999999931
 20
23.99371488358022
 30
0.0
 11
-126.4999999999931
 21
5.100000000002353
 31
0.0
  0
LINE
  5
53EE
330
A
100
AcDbEntity
  8
0
  6
Continuous
 62
     7
370
     0
100
AcDbLine
 10
-126.4999999999931
 20
-23.99371488357559
 30
0.0
 11
-126.4999999999931
 21
-23.99418044775496
 31
0.0
  0
LINE
  5
53EF
330
A
100
AcDbEntity
  8
0
  6
Continuous
 62
     7
370
     0
100
AcDbLine
 10
-126.4999999999931
 20
23.99418044775956
 30
0.0
 11
-126.4999999999931
 21
23.99371488358014
 31
0.0
  0
LINE
  5
53F0
330
A
100
AcDbEntity
  8
0
  6
Continuous
 62
     9
370
     0
100
AcDbLine
 10
-118.4999999999941
 20
-5.100000000021452
 30
0.0
 11
-117.4999999999932
 21
-5.100000000021452
 31
0.0
  0
LINE
  5
53F1
330
A
100
AcDbEntity
  8
0
  6
Continuous
 62
     7
370
     0
100
AcDbLine
 10
-118.4999999999941
 20
5.099999999978535
 30
0.0
 11
-118.4999999999941
 21
-5.100000000021452
 31
0.0
  0
LINE
  5
53F2
330
A
100
AcDbEntity
  8
0
  6
Continuous
 62
     9
370
     0
100
AcDbLine
 10
-118.4999999999941
 20
5.099999999978535
 30
0.0
 11
-117.4999999999932
 21
5.099999999978535
 31
0.0
  0
LINE
  5
53F3
330
A
100
AcDbEntity
  8
0
  6
Continuous
 62
     9
370
     0
100
AcDbLine
 10
-118.4999999999941
 20
-23.99371488359935
 30
0.0
 11
-117.4999999999932
 21
-23.99371488359935
 31
0.0
  0
LINE
  5
53F4
330
A
100
AcDbEntity
  8
0
  6
Continuous
 62
     7
370
     0
100
AcDbLine
 10
-118.4999999999941
 20
-5.100000000021452
 30
0.0
 11
-118.4999999999941
 21
-23.99371488359935
 31
0.0
  0
LINE
  5
53F5
330
A
100
AcDbEntity
  8
0
  6
Continuous
 62
     9
370
     0
100
AcDbLine
 10
-117.4999999999932
 20
23.99371488355641
 30
0.0
 11
-118.4999999999941
 21
23.99371488355641
 31
0.0
  0
LINE
  5
53F6
330
A
100
AcDbEntity
  8
0
  6
Continuous
 62
     7
370
     0
100
AcDbLine
 10
-118.4999999999941
 20
23.99371488355641
 30
0.0
 11
-118.4999999999941
 21
5.099999999978535
 31
0.0
  0
LINE
  5
53F7
330
A
100
AcDbEntity
  8
0
  6
Continuous
 62
     7
370
     0
100
AcDbLine
 10
-118.4999999999941
 20
-23.99418044777878
 30
0.0
 11
-118.4999999999941
 21
-23.99371488359935
 31
0.0
  0
LINE
  5
53F8
330
A
100
AcDbEntity
  8
0
  6
Continuous
 62
     7
370
     0
100
AcDbLine
 10
-118.4999999999941
 20
23.99371488355641
 30
0.0
 11
-118.4999999999941
 21
23.99418044773583
 31
0.0
  0
ARC
  5
53F9
330
A
100
AcDbEntity
  8
0
  6
Continuous
 62
     7
370
     0
100
AcDbCircle
 10
-151.1689652754842
 20
9.510552938281847
 30
0.0
 40
37.2059003737382
100
AcDbArc
 50
345.1897046073196
 51
352.7719182549601
  0
LINE
  5
53FA
330
A
100
AcDbEntity
  8
0
  6
Continuous
 62
     9
370
     0
100
AcDbLine
 10
-114.2587344635028
 20
4.82932617312224
 30
0.0
 11
-114.2587344635028
 21
-4.82932617314708
 31
0.0
  0
ARC
  5
53FB
330
A
100
AcDbEntity
  8
0
  6
Continuous
 62
     7
370
     0
100
AcDbCircle
 10
-151.1689652754851
 20
-9.510552938306744
 30
0.0
 40
37.20590037373954
100
AcDbArc
 50
7.228081745039918
 51
14.81029539268042
  0
LINE
  5
53FC
330
A
100
AcDbEntity
  8
0
  6
Continuous
 62
     7
370
     0
100
AcDbLine
 10
-114.197739525568
 20
-5.40000000001234
 30
0.0
 11
-114.2587344635028
 21
-4.82932617314708
 31
0.0
  0
LINE
  5
53FD
330
A
100
AcDbEntity
  8
0
  6
Continuous
 62
     9
370
     0
100
AcDbLine
 10
-117.4999999999961
 20
-5.40000000001234
 30
0.0
 11
-114.197739525568
 21
-5.40000000001234
 31
0.0
  0
LINE
  5
53FE
330
A
100
AcDbEntity
  8
0
  6
Continuous
 62
     7
370
     0
100
AcDbLine
 10
-117.4999999999961
 20
5.399999999987642
 30
0.0
 11
-117.4999999999961
 21
-5.40000000001234
 31
0.0
  0
LINE
  5
53FF
330
A
100
AcDbEntity
  8
0
  6
Continuous
 62
     9
370
     0
100
AcDbLine
 10
-117.4999999999961
 20
5.399999999987642
 30
0.0
 11
-114.1977395255689
 21
5.399999999987642
 31
0.0
  0
LINE
  5
5400
330
A
100
AcDbEntity
  8
0
  6
Continuous
 62
     7
370
     0
100
AcDbLine
 10
-114.2587344635028
 20
4.82932617312224
 30
0.0
 11
-114.1977395255689
 21
5.399999999987642
 31
0.0
  0
LINE
  5
5401
330
A
100
AcDbEntity
  8
0
  6
Continuous
 62
     7
370
     0
100
AcDbLine
 10
-108.5534307213559
 20
24.99999999998767
 30
0.0
 11
-108.2993692088709
 21
24.99999999998767
 31
0.0
  0
LINE
  5
5402
330
A
100
AcDbEntity
  8
0
  6
Continuous
 62
     9
370
     0
100
AcDbLine
 10
-108.2993692088709
 20
24.99999999998767
 30
0.0
 11
-108.2993692088709
 21
-25.00000000001245
 31
0.0
  0
LINE
  5
5403
330
A
100
AcDbEntity
  8
0
  6
Continuous
 62
     7
370
     0
100
AcDbLine
 10
-108.5534307213559
 20
-25.00000000001234
 30
0.0
 11
-108.2993692088709
 21
-25.00000000001234
 31
0.0
  0
LINE
  5
541F
330
A
100
AcDbEntity
  8
0
  6
Continuous
 62
     7
370
     0
100
AcDbLine
 10
-117.4999999999961
 20
-25.00000000001245
 30
0.0
 11
-108.5534307213559
 21
-25.00000000001234
 31
0.0
  0
LINE
  5
5420
330
A
100
AcDbEntity
  8
0
  6
Continuous
 62
     7
370
     0
100
AcDbLine
 10
-117.4999999999961
 20
-5.40000000001234
 30
0.0
 11
-117.4999999999961
 21
-25.00000000001234
 31
0.0
  0
LINE
  5
5421
330
A
100
AcDbEntity
  8
0
  6
Continuous
 62
     7
370
     0
100
AcDbLine
 10
-117.4999999999961
 20
24.99999999998767
 30
0.0
 11
-108.5534307213559
 21
24.99999999998767
 31
0.0
  0
LINE
  5
5422
330
A
100
AcDbEntity
  8
0
  6
Continuous
 62
     7
370
     0
100
AcDbLine
 10
-117.4999999999961
 20
24.99999999998767
 30
0.0
 11
-117.4999999999961
 21
5.399999999987642
 31
0.0
  0
LINE
  5
542E
330
A
100
AcDbEntity
  8
0
  6
Continuous
 62
     9
370
     0
100
AcDbLine
 10
-101.9839756052299
 20
24.90562458969484
 30
0.0
 11
-101.9839756052299
 21
-24.83279415669034
 31
0.0
  0
LINE
  5
542F
330
A
100
AcDbEntity
  8
0
  6
Continuous
 62
     7
370
     0
100
AcDbLine
 10
-101.9839756052299
 20
-24.83279415669034
 30
0.0
 11
-105.0393920141659
 21
-25.00000000001245
 31
0.0
  0
LINE
  5
5430
330
A
100
AcDbEntity
  8
0
  6
Continuous
 62
     7
370
     0
100
AcDbLine
 10
-101.9839756052299
 20
24.90562458969484
 30
0.0
 11
-102.4999999999961
 21
24.99999999998767
 31
0.0
  0
LINE
  5
5431
330
A
100
AcDbEntity
  8
0
  6
Continuous
 62
     7
370
     0
100
AcDbLine
 10
-102.4999999999961
 20
24.99999999998767
 30
0.0
 11
-108.2993692088709
 21
24.99999999998767
 31
0.0
  0
LINE
  5
5432
330
A
100
AcDbEntity
  8
0
  6
Continuous
 62
     7
370
     0
100
AcDbLine
 10
-105.0393920141659
 20
-25.00000000001245
 30
0.0
 11
-108.2993692088709
 21
-25.00000000001245
 31
0.0
  0
LINE
  5
5433
330
A
100
AcDbEntity
  8
0
  6
Continuous
 62
     7
370
     0
100
AcDbLine
 10
-78.32909437449098
 20
5.399999999987642
 30
0.0
 11
-78.16400119674995
 21
4.843877113812226
 31
0.0
  0
LINE
  5
5434
330
A
100
AcDbEntity
  8
0
  6
Continuous
 62
     9
370
     0
100
AcDbLine
 10
-78.16400119674995
 20
4.843877113812339
 30
0.0
 11
-78.16400119674995
 21
-4.843877113837152
 31
0.0
  0
LINE
  5
5435
330
A
100
AcDbEntity
  8
0
  6
Continuous
 62
     7
370
     0
100
AcDbLine
 10
-78.16400119674995
 20
-4.843877113837066
 30
0.0
 11
-78.32909437449098
 21
-5.400000000012454
 31
0.0
  0
CIRCLE
  5
5436
330
A
100
AcDbEntity
  8
0
  6
Continuous
 62
     7
370
     0
100
AcDbCircle
 10
-92.50014869600205
 20
-0.0000190571440726
 30
0.0
 40
5.999980944710928
  0
LINE
  5
5437
330
A
100
AcDbEntity
  8
0
  6
Continuous
 62
     7
370
     0
100
AcDbLine
 10
-101.9839756052299
 20
24.90562458969484
 30
0.0
 11
-100.0020409169481
 21
24.54314967324322
 31
0.0
  0
ARC
  5
5438
330
A
100
AcDbEntity
  8
0
  6
Continuous
 62
     7
370
     0
100
AcDbCircle
 10
-105.0397809026269
 20
-3.00044028068595
 30
0.0
 40
28.00050306179327
100
AcDbArc
 50
17.45822381914354
 51
79.63512984510813
  0
ARC
  5
5439
330
A
100
AcDbEntity
  8
0
  6
Continuous
 62
     7
370
     0
100
AcDbCircle
 10
-105.0397181544501
 20
3.000396999494768
 30
0.0
 40
28.00043021926364
100
AcDbArc
 50
276.2652807763064
 51
342.5418221443766
  0
ARC
  5
543A
330
A
100
AcDbEntity
  8
0
  6
Continuous
 62
     7
370
     0
100
AcDbCircle
 10
-95.49999999999
 20
-0.0000000000136708
 30
0.0
 40
17.99999999999424
100
AcDbArc
 50
344.3890265026385
 51
0.0000000000032569
  0
ARC
  5
543B
330
A
100
AcDbEntity
  8
0
  6
Continuous
 62
     7
370
     0
100
AcDbCircle
 10
-95.49999999999
 20
-0.0000000000111697
 30
0.0
 40
17.99999999999403
100
AcDbArc
 50
359.9999999999968
 51
15.61097349736152
  0
LINE
  5
543C
330
A
100
AcDbEntity
  8
0
  6
Continuous
 62
     9
370
     0
100
AcDbLine
 10
-120.999979999993
 20
-2.500000000012335
 30
0.0
 11
-118.4999999999941
 21
-2.500000000012335
 31
0.0
  0
LINE
  5
543D
330
A
100
AcDbEntity
  8
0
  6
Continuous
 62
     9
370
     0
100
AcDbLine
 10
-118.4999999999941
 20
2.499999999987664
 30
0.0
 11
-120.999979999993
 21
2.499999999987664
 31
0.0
  0
LINE
  5
543E
330
A
100
AcDbEntity
  8
0
  6
Continuous
 62
     7
370
     0
100
AcDbLine
 10
-126.4999999999931
 20
-7.000000000004945
 30
0.0
 11
-121.4999999999932
 21
-7.000000000004945
 31
0.0
  0
LINE
  5
543F
330
A
100
AcDbEntity
  8
0
  6
Continuous
 62
     7
370
     0
100
AcDbLine
 10
-121.4999999999932
 20
6.999999999995054
 30
0.0
 11
-126.4999999999931
 21
6.999999999995054
 31
0.0
  0
LINE
  5
5440
330
A
100
AcDbEntity
  8
0
  6
Continuous
 62
     7
370
     0
100
AcDbLine
 10
-110.7246553149939
 20
-5.571414429732072
 30
0.0
 11
-110.4500000000032
 21
-5.41284210968746
 31
0.0
  0
LINE
  5
5441
330
A
100
AcDbEntity
  8
0
  6
Continuous
 62
     7
370
     0
100
AcDbLine
 10
-110.4500000000032
 20
5.412842109662648
 30
0.0
 11
-110.7244650763489
 21
5.571304595374527
 31
0.0
  0
ARC
  5
5442
330
A
100
AcDbEntity
  8
0
  6
Continuous
 62
     7
370
     0
100
AcDbCircle
 10
-110.7000000000018
 20
4.979829407770438
 30
0.0
 40
0.4999999999999451
100
AcDbArc
 50
0.0
 51
60.00000000000028
  0
ARC
  5
5443
330
A
100
AcDbEntity
  8
0
  6
Continuous
 62
     7
370
     0
100
AcDbCircle
 10
-110.7000000000018
 20
-4.979829407795165
 30
0.0
 40
0.4999999999998845
100
AcDbArc
 50
299.999999999986
 51
359.9999999999902
  0
LINE
  5
5444
330
A
100
AcDbEntity
  8
0
  6
Continuous
 62
     7
370
     0
100
AcDbLine
 10
-120.9999806376661
 20
-3.000000000012335
 30
0.0
 11
-118.4999999999941
 21
-3.000000000012335
 31
0.0
  0
LINE
  5
5445
330
A
100
AcDbEntity
  8
0
  6
Continuous
 62
     7
370
     0
100
AcDbLine
 10
-118.4999999999941
 20
2.999999999987664
 30
0.0
 11
-120.9999806376561
 21
2.999999999987664
 31
0.0
  0
LINE
  5
5446
330
A
100
AcDbEntity
  8
0
  6
Continuous
 62
     7
370
     0
100
AcDbLine
 10
-120.9999999999932
 20
4.900000000007906
 30
0.0
 11
-121.4999999999881
 21
4.900000000007906
 31
0.0
  0
LINE
  5
5447
330
A
100
AcDbEntity
  8
0
  6
Continuous
 62
     7
370
     0
100
AcDbLine
 10
-121.4999999999881
 20
-4.899999999994946
 30
0.0
 11
-120.9999999999932
 21
-4.899999999994946
 31
0.0
  0
LINE
  5
5448
330
A
100
AcDbEntity
  8
0
  6
Continuous
 62
     7
370
     0
100
AcDbLine
 10
-127.4999999999931
 20
-23.99418044775496
 30
0.0
 11
-126.4999999999931
 21
-23.99418044775496
 31
0.0
  0
LINE
  5
5449
330
A
100
AcDbEntity
  8
0
  6
Continuous
 62
     7
370
     0
100
AcDbLine
 10
-126.4999999999931
 20
23.99418044775956
 30
0.0
 11
-127.4999999999931
 21
23.99418044775956
 31
0.0
  0
LINE
  5
544A
330
A
100
AcDbEntity
  8
0
  6
Continuous
 62
     7
370
     0
100
AcDbLine
 10
-118.4999999999941
 20
-23.99418044777878
 30
0.0
 11
-117.4999999999932
 21
-23.99418044777878
 31
0.0
  0
LINE
  5
544B
330
A
100
AcDbEntity
  8
0
  6
Continuous
 62
     7
370
     0
100
AcDbLine
 10
-117.4999999999932
 20
23.99418044773583
 30
0.0
 11
-118.4999999999941
 21
23.99418044773583
 31
0.0
  0
ARC
  5
544C
330
A
100
AcDbEntity
  8
0
  6
Continuous
 62
     7
370
     0
100
AcDbCircle
 10
65.50000000000091
 20
-0.000000000007077
 30
0.0
 40
18.00000000000001
100
AcDbArc
 50
162.5423968762705
 51
180.0
  0
ARC
  5
544D
330
A
100
AcDbEntity
  8
0
  6
Continuous
 62
     7
370
     0
100
AcDbCircle
 10
65.50000000000091
 20
-0.000000000007077
 30
0.0
 40
18.0
100
AcDbArc
 50
180.0
 51
197.4576031237294
  0
LINE
  5
544E
330
A
100
AcDbEntity
  8
0
  6
Continuous
 62
     9
370
     0
100
AcDbLine
 10
48.32909437450303
 20
5.399999999993212
 30
0.0
 11
51.19091197875286
 21
4.499999999992922
 31
0.0
  0
ARC
  5
544F
330
A
100
AcDbEntity
  8
0
  6
Continuous
 62
     9
370
     0
100
AcDbCircle
 10
65.50000000000091
 20
-0.000000000007077
 30
0.0
 40
14.99999999999996
100
AcDbArc
 50
162.5423968762705
 51
197.4576031237294
  0
LINE
  5
5450
330
A
100
AcDbEntity
  8
0
  6
Continuous
 62
     9
370
     0
100
AcDbLine
 10
48.32909437450303
 20
-5.400000000007338
 30
0.0
 11
51.19091197875286
 21
-4.500000000007077
 31
0.0
  0
LINE
  5
5451
330
A
100
AcDbEntity
  8
0
  6
Continuous
 62
     7
370
     0
100
AcDbLine
 10
75.03939201415892
 20
-22.53939201417066
 30
0.0
 11
74.4999999999959
 21
-21.99418044776434
 31
0.0
  0
LINE
  5
5452
330
A
100
AcDbEntity
  8
0
  6
Continuous
 62
     9
370
     0
100
AcDbLine
 10
74.4999999999959
 20
21.99418044775021
 30
0.0
 11
74.4999999999959
 21
-21.99418044776434
 31
0.0
  0
LINE
  5
5453
330
A
100
AcDbEntity
  8
0
  6
Continuous
 62
     7
370
     0
100
AcDbLine
 10
74.4999999999959
 20
21.99418044775021
 30
0.0
 11
75.03939201416483
 21
22.53939201415653
 31
0.0
  0
LINE
  5
5454
330
A
100
AcDbEntity
  8
0
  6
Continuous
 62
     7
370
     0
100
AcDbLine
 10
75.03939201416187
 20
22.53939201415932
 30
0.0
 11
77.49999999999295
 21
24.99999999999156
 31
0.0
  0
LINE
  5
5455
330
A
100
AcDbEntity
  8
0
  6
Continuous
 62
     7
370
     0
100
AcDbLine
 10
77.49999999999499
 20
24.99999999999293
 30
0.0
 11
77.49999999999499
 21
-25.00000000000708
 31
0.0
  0
LINE
  5
5456
330
A
100
AcDbEntity
  8
0
  6
Continuous
 62
     7
370
     0
100
AcDbLine
 10
77.49999999999295
 20
-25.00000000000566
 30
0.0
 11
75.03939201415892
 21
-22.53939201417066
 31
0.0
  0
ARC
  5
5457
330
A
100
AcDbEntity
  8
0
  6
Continuous
 62
     7
370
     0
100
AcDbCircle
 10
75.03939201416483
 20
2.999999999992922
 30
0.0
 40
28.0
100
AcDbArc
 50
197.4576031237294
 51
270.0
  0
ARC
  5
5458
330
A
100
AcDbEntity
  8
0
  6
Continuous
 62
     9
370
     0
100
AcDbCircle
 10
75.03939201416483
 20
2.999999999992922
 30
0.0
 40
25.0
100
AcDbArc
 50
197.4576031237294
 51
268.7637086330885
  0
LINE
  5
5459
330
A
100
AcDbEntity
  8
0
  6
Continuous
 62
     9
370
     0
100
AcDbLine
 10
75.03939201416483
 20
-25.00000000000418
 30
0.0
 11
75.03939201416483
 21
-22.53939201417043
 31
0.0
  0
ARC
  5
545A
330
A
100
AcDbEntity
  8
0
  6
Continuous
 62
     7
370
     0
100
AcDbCircle
 10
75.03939201416483
 20
-3.000000000007077
 30
0.0
 40
28.00000000000006
100
AcDbArc
 50
90.0
 51
162.5423968762705
  0
LINE
  5
545B
330
A
100
AcDbEntity
  8
0
  6
Continuous
 62
     9
370
     0
100
AcDbLine
 10
75.03939201416483
 20
22.53939201415631
 30
0.0
 11
75.03939201416483
 21
24.99999999998866
 31
0.0
  0
ARC
  5
545C
330
A
100
AcDbEntity
  8
0
  6
Continuous
 62
     9
370
     0
100
AcDbCircle
 10
75.03939201416483
 20
-3.000000000007077
 30
0.0
 40
25.00000000000001
100
AcDbArc
 50
91.23629136691153
 51
162.5423968762705
  0
LINE
  5
545D
330
A
100
AcDbEntity
  8
0
  6
Continuous
 62
     7
370
     0
100
AcDbLine
 10
75.03939201416483
 20
24.99999999999293
 30
0.0
 11
77.49999999999499
 21
24.99999999999293
 31
0.0
  0
LINE
  5
545E
330
A
100
AcDbEntity
  8
0
  6
Continuous
 62
     7
370
     0
100
AcDbLine
 10
77.49999999999499
 20
-25.00000000000708
 30
0.0
 11
75.03939201416483
 21
-25.00000000000708
 31
0.0
  0
LINE
  5
545F
330
A
100
AcDbEntity
  8
0
  6
Continuous
 62
     7
370
     0
100
AcDbLine
 10
91.49999999999909
 20
6.999999999995054
 30
0.0
 11
91.49999999999909
 21
-7.000000000004945
 31
0.0
  0
LINE
  5
5460
330
A
100
AcDbEntity
  8
0
  6
Continuous
 62
     7
370
     0
100
AcDbLine
 10
102.4511110204598
 20
22.53939201417671
 30
0.0
 11
102.5000000000038
 21
21.99418044777013
 31
0.0
  0
LINE
  5
5461
330
A
100
AcDbEntity
  8
0
  6
Continuous
 62
     7
370
     0
100
AcDbLine
 10
102.5000000000038
 20
-21.99418044775717
 30
0.0
 11
102.5000000000038
 21
21.99418044777013
 31
0.0
  0
LINE
  5
5462
330
A
100
AcDbEntity
  8
0
  6
Continuous
 62
     7
370
     0
100
AcDbLine
 10
102.5000000000038
 20
-21.99418044775717
 30
0.0
 11
102.4511110204598
 21
-22.53939201416364
 31
0.0
  0
ARC
  5
5463
330
A
100
AcDbEntity
  8
0
  6
Continuous
 62
     7
370
     0
100
AcDbCircle
 10
99.50000000000295
 20
-21.99999999999994
 30
0.0
 40
3.000000000000883
100
AcDbArc
 50
270.0
 51
349.6420444533814
  0
LINE
  5
5464
330
A
100
AcDbEntity
  8
0
  6
Continuous
 62
     9
370
     0
100
AcDbLine
 10
99.50000000000295
 20
-25.00000000000074
 30
0.0
 11
99.50000000000295
 21
25.00000000001376
 31
0.0
  0
ARC
  5
5465
330
A
100
AcDbEntity
  8
0
  6
Continuous
 62
     7
370
     0
100
AcDbCircle
 10
99.50000000000295
 20
22.00000000001282
 30
0.0
 40
3.000000000000861
100
AcDbArc
 50
10.35795554656418
 51
90.0
  0
LINE
  5
5466
330
A
100
AcDbEntity
  8
0
  6
Continuous
 62
     7
370
     0
100
AcDbLine
 10
97.50000000000206
 20
25.00000000001376
 30
0.0
 11
97.50000000000206
 21
-25.00000000000074
 31
0.0
  0
LINE
  5
5467
330
A
100
AcDbEntity
  8
0
  6
Continuous
 62
     7
370
     0
100
AcDbLine
 10
99.50000000000295
 20
25.00000000001376
 30
0.0
 11
97.50000000000206
 21
25.00000000001376
 31
0.0
  0
LINE
  5
5468
330
A
100
AcDbEntity
  8
0
  6
Continuous
 62
     7
370
     0
100
AcDbLine
 10
99.50000000000295
 20
-25.00000000000074
 30
0.0
 11
97.50000000000206
 21
-25.00000000000074
 31
0.0
  0
LINE
  5
5469
330
A
100
AcDbEntity
  8
0
  6
Continuous
 62
     7
370
     0
100
AcDbLine
 10
90.99999999999818
 20
-4.899999999998073
 30
0.0
 11
90.99999999999818
 21
4.900000000011033
 31
0.0
  0
LINE
  5
546A
330
A
100
AcDbEntity
  8
0
  6
Continuous
 62
     7
370
     0
100
AcDbLine
 10
96.49999999999909
 20
-23.99418044775496
 30
0.0
 11
96.49999999999909
 21
-21.99418044775496
 31
0.0
  0
LINE
  5
546B
330
A
100
AcDbEntity
  8
0
  6
Continuous
 62
     9
370
     0
100
AcDbLine
 10
96.49999999999909
 20
-21.99418044775496
 30
0.0
 11
97.49999999999909
 21
-21.99418044775496
 31
0.0
  0
LINE
  5
546C
330
A
100
AcDbEntity
  8
0
  6
Continuous
 62
     9
370
     0
100
AcDbLine
 10
97.49999999999909
 20
21.99418044775956
 30
0.0
 11
96.49999999999909
 21
21.99418044775956
 31
0.0
  0
LINE
  5
546D
330
A
100
AcDbEntity
  8
0
  6
Continuous
 62
     7
370
     0
100
AcDbLine
 10
96.49999999999909
 20
21.99418044775956
 30
0.0
 11
96.49999999999909
 21
23.99418044775956
 31
0.0
  0
LINE
  5
546E
330
A
100
AcDbEntity
  8
0
  6
Continuous
 62
     7
370
     0
100
AcDbLine
 10
96.49999999999909
 20
-21.99418044775496
 30
0.0
 11
96.49999999999909
 21
21.99418044775956
 31
0.0
  0
LINE
  5
546F
330
A
100
AcDbEntity
  8
0
  6
Continuous
 62
     7
370
     0
100
AcDbLine
 10
88.49999999999909
 20
23.99418044773583
 30
0.0
 11
88.49999999999909
 21
21.99418044773583
 31
0.0
  0
LINE
  5
5470
330
A
100
AcDbEntity
  8
0
  6
Continuous
 62
     9
370
     0
100
AcDbLine
 10
88.49999999999909
 20
21.99418044773583
 30
0.0
 11
87.49999999999909
 21
21.99418044773583
 31
0.0
  0
LINE
  5
5471
330
A
100
AcDbEntity
  8
0
  6
Continuous
 62
     7
370
     0
100
AcDbLine
 10
87.49999999999909
 20
21.99418044773583
 30
0.0
 11
87.49999999999909
 21
23.72623125530473
 31
0.0
  0
LINE
  5
5472
330
A
100
AcDbEntity
  8
0
  6
Continuous
 62
     7
370
     0
100
AcDbLine
 10
87.49999999999909
 20
23.72623125530473
 30
0.0
 11
87.49999999999909
 21
23.99418044773583
 31
0.0
  0
LINE
  5
5473
330
A
100
AcDbEntity
  8
0
  6
Continuous
 62
     7
370
     0
100
AcDbLine
 10
87.49999999999909
 20
-23.99418044777878
 30
0.0
 11
87.49999999999909
 21
-23.72623125534767
 31
0.0
  0
LINE
  5
5474
330
A
100
AcDbEntity
  8
0
  6
Continuous
 62
     7
370
     0
100
AcDbLine
 10
87.49999999999909
 20
-23.72623125534767
 30
0.0
 11
87.49999999999909
 21
-21.99418044777866
 31
0.0
  0
LINE
  5
5475
330
A
100
AcDbEntity
  8
0
  6
Continuous
 62
     9
370
     0
100
AcDbLine
 10
87.49999999999909
 20
-21.99418044777877
 30
0.0
 11
88.49999999999909
 21
-21.99418044777877
 31
0.0
  0
LINE
  5
5476
330
A
100
AcDbEntity
  8
0
  6
Continuous
 62
     7
370
     0
100
AcDbLine
 10
88.49999999999909
 20
-21.99418044777877
 30
0.0
 11
88.49999999999909
 21
-23.99418044777878
 31
0.0
  0
LINE
  5
5477
330
A
100
AcDbEntity
  8
0
  6
Continuous
 62
     7
370
     0
100
AcDbLine
 10
88.49999999999909
 20
-21.99418044777877
 30
0.0
 11
88.49999999999909
 21
21.99418044773583
 31
0.0
  0
LINE
  5
5478
330
A
100
AcDbEntity
  8
0
  6
Continuous
 62
     7
370
     0
100
AcDbLine
 10
87.49999999999909
 20
-21.99418044777877
 30
0.0
 11
87.49999999999909
 21
21.99418044773583
 31
0.0
  0
LINE
  5
5479
330
A
100
AcDbEntity
  8
0
  6
Continuous
 62
     7
370
     0
100
AcDbLine
 10
71.50000000000204
 20
24.81711056443007
 30
0.0
 11
71.50000000000204
 21
24.77539746195672
 31
0.0
  0
LINE
  5
547A
330
A
100
AcDbEntity
  8
0
  6
Continuous
 62
     7
370
     0
100
AcDbLine
 10
70.002040916954
 20
24.54314967324322
 30
0.0
 11
71.50000000000204
 21
24.81711056443007
 31
0.0
  0
LINE
  5
547B
330
A
100
AcDbEntity
  8
0
  6
Continuous
 62
     9
370
     0
100
AcDbLine
 10
72.50000000000205
 20
24.99999999998767
 30
0.0
 11
72.50000000000205
 21
24.88461023930594
 31
0.0
  0
LINE
  5
547C
330
A
100
AcDbEntity
  8
0
  6
Continuous
 62
     7
370
     0
100
AcDbLine
 10
72.50000000000205
 20
24.99999999998767
 30
0.0
 11
71.50000000000204
 21
24.81711056443007
 31
0.0
  0
LINE
  5
547D
330
A
100
AcDbEntity
  8
0
  6
Continuous
 62
     7
370
     0
100
AcDbLine
 10
86.50000000000204
 20
24.99999999998767
 30
0.0
 11
86.50000000000204
 21
-25.00000000001245
 31
0.0
  0
LINE
  5
547E
330
A
100
AcDbEntity
  8
0
  6
Continuous
 62
     7
370
     0
100
AcDbLine
 10
77.49999999999499
 20
-25.00000000001245
 30
0.0
 11
86.50000000000204
 21
-25.00000000001245
 31
0.0
  0
LINE
  5
547F
330
A
100
AcDbEntity
  8
0
  6
Continuous
 62
     7
370
     0
100
AcDbLine
 10
72.50000000000205
 20
24.99999999998767
 30
0.0
 11
75.03939201416483
 21
24.99999999998767
 31
0.0
  0
LINE
  5
5480
330
A
100
AcDbEntity
  8
0
  6
Continuous
 62
     7
370
     0
100
AcDbLine
 10
77.49999999999499
 20
24.99999999998767
 30
0.0
 11
86.50000000000204
 21
24.99999999998767
 31
0.0
  0
LINE
  5
5481
330
A
100
AcDbEntity
  8
0
  6
Continuous
 62
     7
370
     0
100
AcDbLine
 10
87.50000000000204
 20
24.99999999998767
 30
0.0
 11
87.49999999999909
 21
23.72623125530473
 31
0.0
  0
LINE
  5
5482
330
A
100
AcDbEntity
  8
0
  6
Continuous
 62
     7
370
     0
100
AcDbLine
 10
87.49999999999909
 20
23.72623125530473
 30
0.0
 11
87.5000000000009
 21
21.99418044773583
 31
0.0
  0
LINE
  5
5483
330
A
100
AcDbEntity
  8
0
  6
Continuous
 62
     7
370
     0
100
AcDbLine
 10
87.50000000000204
 20
-21.99418044777866
 30
0.0
 11
87.49999999999909
 21
-23.72623125534767
 31
0.0
  0
LINE
  5
5484
330
A
100
AcDbEntity
  8
0
  6
Continuous
 62
     7
370
     0
100
AcDbLine
 10
87.49999999999909
 20
-23.72623125534767
 30
0.0
 11
87.50000000000204
 21
-25.00000000001245
 31
0.0
  0
LINE
  5
5485
330
A
100
AcDbEntity
  8
0
  6
Continuous
 62
     7
370
     0
100
AcDbLine
 10
87.50000000000204
 20
-25.00000000001245
 30
0.0
 11
86.50000000000204
 21
-25.00000000001245
 31
0.0
  0
LINE
  5
5486
330
A
100
AcDbEntity
  8
0
  6
Continuous
 62
     7
370
     0
100
AcDbLine
 10
87.50000000000204
 20
24.99999999998767
 30
0.0
 11
86.50000000000204
 21
24.99999999998767
 31
0.0
  0
LINE
  5
5487
330
A
100
AcDbEntity
  8
0
  6
Continuous
 62
     9
370
     0
100
AcDbLine
 10
90.99997999999891
 20
2.499999999987664
 30
0.0
 11
88.49999999999909
 21
2.499999999987664
 31
0.0
  0
LINE
  5
5488
330
A
100
AcDbEntity
  8
0
  6
Continuous
 62
     9
370
     0
100
AcDbLine
 10
88.49999999999909
 20
-2.500000000012335
 30
0.0
 11
90.99997999999891
 21
-2.500000000012335
 31
0.0
  0
LINE
  5
5489
330
A
100
AcDbEntity
  8
0
  6
Continuous
 62
     7
370
     0
100
AcDbLine
 10
96.49999999999909
 20
6.999999999995054
 30
0.0
 11
91.49999999999909
 21
6.999999999995054
 31
0.0
  0
LINE
  5
548A
330
A
100
AcDbEntity
  8
0
  6
Continuous
 62
     7
370
     0
100
AcDbLine
 10
91.49999999999909
 20
-7.000000000004945
 30
0.0
 11
96.49999999999909
 21
-7.000000000004945
 31
0.0
  0
LINE
  5
548B
330
A
100
AcDbEntity
  8
0
  6
Continuous
 62
     7
370
     0
100
AcDbLine
 10
90.99998063766202
 20
2.999999999987664
 30
0.0
 11
88.49999999999909
 21
2.999999999987664
 31
0.0
  0
LINE
  5
548C
330
A
100
AcDbEntity
  8
0
  6
Continuous
 62
     7
370
     0
100
AcDbLine
 10
88.49999999999909
 20
-3.000000000012335
 30
0.0
 11
90.99998063767202
 21
-3.000000000012335
 31
0.0
  0
LINE
  5
548D
330
A
100
AcDbEntity
  8
0
  6
Continuous
 62
     7
370
     0
100
AcDbLine
 10
90.99999999999818
 20
-4.899999999994946
 30
0.0
 11
91.49999999999408
 21
-4.899999999994946
 31
0.0
  0
LINE
  5
548E
330
A
100
AcDbEntity
  8
0
  6
Continuous
 62
     7
370
     0
100
AcDbLine
 10
91.49999999999408
 20
4.900000000007906
 30
0.0
 11
90.99999999999818
 21
4.900000000007906
 31
0.0
  0
LINE
  5
548F
330
A
100
AcDbEntity
  8
0
  6
Continuous
 62
     7
370
     0
100
AcDbLine
 10
96.49999999999909
 20
-23.99418044775496
 30
0.0
 11
97.49999999999909
 21
-23.99418044775496
 31
0.0
  0
LINE
  5
5490
330
A
100
AcDbEntity
  8
0
  6
Continuous
 62
     7
370
     0
100
AcDbLine
 10
97.49999999999909
 20
23.99418044775956
 30
0.0
 11
96.49999999999909
 21
23.99418044775956
 31
0.0
  0
LINE
  5
5491
330
A
100
AcDbEntity
  8
0
  6
Continuous
 62
     7
370
     0
100
AcDbLine
 10
88.49999999999909
 20
23.99418044773583
 30
0.0
 11
87.49999999999909
 21
23.99418044773583
 31
0.0
  0
LINE
  5
5492
330
A
100
AcDbEntity
  8
0
  6
Continuous
 62
     7
370
     0
100
AcDbLine
 10
87.49999999999909
 20
-23.99418044777878
 30
0.0
 11
88.49999999999909
 21
-23.99418044777878
 31
0.0
  0
LINE
  5
5493
330
A
100
AcDbEntity
  8
0
  6
Continuous
 62
     7
370
     0
100
AcDbLine
 10
-49.95111102044711
 20
-22.53939201416574
 30
0.0
 11
-49.9999999999909
 21
-21.99418044775933
 31
0.0
  0
LINE
  5
5494
330
A
100
AcDbEntity
  8
0
  6
Continuous
 62
     7
370
     0
100
AcDbLine
 10
-49.9999999999909
 20
21.99418044775513
 30
0.0
 11
-49.9999999999909
 21
-21.99418044775933
 31
0.0
  0
LINE
  5
5495
330
A
100
AcDbEntity
  8
0
  6
Continuous
 62
     7
370
     0
100
AcDbLine
 10
-49.9999999999909
 20
21.99418044775513
 30
0.0
 11
-49.95111102044711
 21
22.53939201416153
 31
0.0
  0
ARC
  5
5496
330
A
100
AcDbEntity
  8
0
  6
Continuous
 62
     7
370
     0
100
AcDbCircle
 10
-46.99999999999227
 20
21.99999999999793
 30
0.0
 40
3.000000000000038
100
AcDbArc
 50
90.0
 51
169.6420444533742
  0
LINE
  5
5497
330
A
100
AcDbEntity
  8
0
  6
Continuous
 62
     9
370
     0
100
AcDbLine
 10
-46.99999999999227
 20
24.99999999999793
 30
0.0
 11
-46.99999999999227
 21
-25.00000000000208
 31
0.0
  0
ARC
  5
5498
330
A
100
AcDbEntity
  8
0
  6
Continuous
 62
     7
370
     0
100
AcDbCircle
 10
-46.99999999999227
 20
-22.00000000000208
 30
0.0
 40
3.000000000000001
100
AcDbArc
 50
190.3579555465722
 51
270.0
  0
LINE
  5
5499
330
A
100
AcDbEntity
  8
0
  6
Continuous
 62
     7
370
     0
100
AcDbLine
 10
-44.99999999999317
 20
-25.00000000000208
 30
0.0
 11
-44.99999999999317
 21
24.99999999999793
 31
0.0
  0
LINE
  5
549A
330
A
100
AcDbEntity
  8
0
  6
Continuous
 62
     7
370
     0
100
AcDbLine
 10
-46.99999999999227
 20
-25.00000000000208
 30
0.0
 11
-44.99999999999317
 21
-25.00000000000208
 31
0.0
  0
LINE
  5
549B
330
A
100
AcDbEntity
  8
0
  6
Continuous
 62
     7
370
     0
100
AcDbLine
 10
-46.99999999999227
 20
24.99999999999793
 30
0.0
 11
-44.99999999999317
 21
24.99999999999793
 31
0.0
  0
LINE
  5
549C
330
A
100
AcDbEntity
  8
0
  6
Continuous
 62
     7
370
     0
100
AcDbLine
 10
-38.49999999999614
 20
4.899999999993156
 30
0.0
 11
-38.49999999999614
 21
-4.899999999997362
 31
0.0
  0
LINE
  5
549D
330
A
100
AcDbEntity
  8
0
  6
Continuous
 62
     7
370
     0
100
AcDbLine
 10
-43.999999999995
 20
23.99418044775956
 30
0.0
 11
-43.999999999995
 21
21.99418044775942
 31
0.0
  0
LINE
  5
549E
330
A
100
AcDbEntity
  8
0
  6
Continuous
 62
     9
370
     0
100
AcDbLine
 10
-43.999999999995
 20
21.99418044775942
 30
0.0
 11
-44.99999999999499
 21
21.99418044775942
 31
0.0
  0
LINE
  5
549F
330
A
100
AcDbEntity
  8
0
  6
Continuous
 62
     9
370
     0
100
AcDbLine
 10
-44.99999999999499
 20
-21.99418044775507
 30
0.0
 11
-43.999999999995
 21
-21.99418044775507
 31
0.0
  0
LINE
  5
54A0
330
A
100
AcDbEntity
  8
0
  6
Continuous
 62
     7
370
     0
100
AcDbLine
 10
-43.999999999995
 20
21.99418044775942
 30
0.0
 11
-43.999999999995
 21
-21.99418044775507
 31
0.0
  0
LINE
  5
54A1
330
A
100
AcDbEntity
  8
0
  6
Continuous
 62
     7
370
     0
100
AcDbLine
 10
-43.999999999995
 20
-21.99418044775507
 30
0.0
 11
-43.999999999995
 21
-23.99418044775507
 31
0.0
  0
LINE
  5
54A2
330
A
100
AcDbEntity
  8
0
  6
Continuous
 62
     7
370
     0
100
AcDbLine
 10
-34.99999999999614
 20
23.99418044775595
 30
0.0
 11
-34.99999999999614
 21
21.99418044775595
 31
0.0
  0
LINE
  5
54A3
330
A
100
AcDbEntity
  8
0
  6
Continuous
 62
     9
370
     0
100
AcDbLine
 10
-34.99999999999614
 20
21.99418044775595
 30
0.0
 11
-35.99999999999614
 21
21.99418044775595
 31
0.0
  0
LINE
  5
54A4
330
A
100
AcDbEntity
  8
0
  6
Continuous
 62
     7
370
     0
100
AcDbLine
 10
-35.99999999999614
 20
21.99418044775595
 30
0.0
 11
-35.99999999999614
 21
23.99418044775595
 31
0.0
  0
LINE
  5
54A5
330
A
100
AcDbEntity
  8
0
  6
Continuous
 62
     9
370
     0
100
AcDbLine
 10
-35.99999999999614
 20
-21.9941804477586
 30
0.0
 11
-34.99999999999614
 21
-21.9941804477586
 31
0.0
  0
LINE
  5
54A6
330
A
100
AcDbEntity
  8
0
  6
Continuous
 62
     7
370
     0
100
AcDbLine
 10
-34.99999999999614
 20
21.99418044775595
 30
0.0
 11
-34.99999999999614
 21
-21.9941804477586
 31
0.0
  0
LINE
  5
54A7
330
A
100
AcDbEntity
  8
0
  6
Continuous
 62
     7
370
     0
100
AcDbLine
 10
-35.99999999999614
 20
21.99418044775595
 30
0.0
 11
-35.99999999999614
 21
-21.9941804477586
 31
0.0
  0
LINE
  5
54A8
330
A
100
AcDbEntity
  8
0
  6
Continuous
 62
     7
370
     0
100
AcDbLine
 10
-35.99999999999614
 20
-23.99418044775865
 30
0.0
 11
-35.99999999999614
 21
-21.9941804477586
 31
0.0
  0
LINE
  5
54A9
330
A
100
AcDbEntity
  8
0
  6
Continuous
 62
     7
370
     0
100
AcDbLine
 10
-34.99999999999614
 20
-21.9941804477586
 30
0.0
 11
-34.99999999999614
 21
-23.99418044775865
 31
0.0
  0
LINE
  5
54AA
330
A
100
AcDbEntity
  8
0
  6
Continuous
 62
     7
370
     0
100
AcDbLine
 10
-12.53939201416506
 20
22.53939201418166
 30
0.0
 11
-12.00000000000182
 21
21.99418044777514
 31
0.0
  0
LINE
  5
54AB
330
A
100
AcDbEntity
  8
0
  6
Continuous
 62
     9
370
     0
100
AcDbLine
 10
-12.00000000000182
 20
-21.99418044775226
 30
0.0
 11
-12.00000000000182
 21
21.99418044777514
 31
0.0
  0
LINE
  5
54AC
330
A
100
AcDbEntity
  8
0
  6
Continuous
 62
     7
370
     0
100
AcDbLine
 10
-12.00000000000182
 20
-21.99418044775226
 30
0.0
 11
-12.53939201417097
 21
-22.53939201415878
 31
0.0
  0
LINE
  5
54AD
330
A
100
AcDbEntity
  8
0
  6
Continuous
 62
     7
370
     0
100
AcDbLine
 10
-12.53939201416824
 20
-22.53939201416168
 30
0.0
 11
-15.00000000000409
 21
-24.99999999999727
 31
0.0
  0
LINE
  5
54AE
330
A
100
AcDbEntity
  8
0
  6
Continuous
 62
     7
370
     0
100
AcDbLine
 10
-15.00000000000182
 20
-24.99999999999577
 30
0.0
 11
-15.00000000000182
 21
25.00000000001876
 31
0.0
  0
LINE
  5
54AF
330
A
100
AcDbEntity
  8
0
  6
Continuous
 62
     7
370
     0
100
AcDbLine
 10
-15.00000000000409
 20
25.00000000002015
 30
0.0
 11
-12.53939201416506
 21
22.53939201418166
 31
0.0
  0
ARC
  5
54B0
330
A
100
AcDbEntity
  8
0
  6
Continuous
 62
     7
370
     0
100
AcDbCircle
 10
-12.53939201417097
 20
-2.999999999989341
 30
0.0
 40
27.99999999999997
100
AcDbArc
 50
17.45760312372479
 51
90.0
  0
LINE
  5
54B1
330
A
100
AcDbEntity
  8
0
  6
Continuous
 62
     9
370
     0
100
AcDbLine
 10
14.17090562550902
 20
5.400000000013335
 30
0.0
 11
11.309088021256
 21
4.500000000012761
 31
0.0
  0
ARC
  5
54B2
330
A
100
AcDbEntity
  8
0
  6
Continuous
 62
     9
370
     0
100
AcDbCircle
 10
-12.53939201417097
 20
-2.999999999989341
 30
0.0
 40
24.99999999999989
100
AcDbArc
 50
17.45760312372479
 51
88.76370863308848
  0
LINE
  5
54B3
330
A
100
AcDbEntity
  8
0
  6
Continuous
 62
     9
370
     0
100
AcDbLine
 10
-12.53939201417097
 20
25.00000000001893
 30
0.0
 11
-12.53939201417097
 21
22.53939201418166
 31
0.0
  0
ARC
  5
54B4
330
A
100
AcDbEntity
  8
0
  6
Continuous
 62
     9
370
     0
100
AcDbCircle
 10
-3.0
 20
0.0000000000114255
 30
0.0
 40
15.00000000000016
100
AcDbArc
 50
342.5423968762752
 51
17.45760312372479
  0
ARC
  5
54B5
330
A
100
AcDbEntity
  8
0
  6
Continuous
 62
     9
370
     0
100
AcDbCircle
 10
-12.53939201417097
 20
3.000000000012335
 30
0.0
 40
24.99999999999999
100
AcDbArc
 50
271.2362913669115
 51
342.5423968762752
  0
ARC
  5
54B6
330
A
100
AcDbEntity
  8
0
  6
Continuous
 62
     7
370
     0
100
AcDbCircle
 10
-3.0
 20
0.0000000000114255
 30
0.0
 40
18.00000000000011
100
AcDbArc
 50
342.5423968762752
 51
17.45760312372479
  0
LINE
  5
54B7
330
A
100
AcDbEntity
  8
0
  6
Continuous
 62
     9
370
     0
100
AcDbLine
 10
14.17090562550902
 20
-5.399999999990455
 30
0.0
 11
11.309088021256
 21
-4.499999999989768
 31
0.0
  0
ARC
  5
54B8
330
A
100
AcDbEntity
  8
0
  6
Continuous
 62
     7
370
     0
100
AcDbCircle
 10
-12.53939201417097
 20
3.000000000012335
 30
0.0
 40
27.99999999999983
100
AcDbArc
 50
270.0
 51
342.5423968762752
  0
LINE
  5
54B9
330
A
100
AcDbEntity
  8
0
  6
Continuous
 62
     9
370
     0
100
AcDbLine
 10
-12.53939201417097
 20
-22.53939201415867
 30
0.0
 11
-12.53939201417097
 21
-24.99999999999645
 31
0.0
  0
LINE
  5
54BA
330
A
100
AcDbEntity
  8
0
  6
Continuous
 62
     7
370
     0
100
AcDbLine
 10
-15.00000000000182
 20
25.00000000001876
 30
0.0
 11
-12.53939201417097
 21
25.00000000001876
 31
0.0
  0
LINE
  5
54BB
330
A
100
AcDbEntity
  8
0
  6
Continuous
 62
     7
370
     0
100
AcDbLine
 10
-12.53939201417097
 20
-24.99999999999577
 30
0.0
 11
-15.00000000000182
 21
-24.99999999999577
 31
0.0
  0
LINE
  5
54BC
330
A
100
AcDbEntity
  8
0
  6
Continuous
 62
     7
370
     0
100
AcDbLine
 10
-34.0
 20
24.99999999999253
 30
0.0
 11
-34.0
 21
-24.88461023931993
 31
0.0
  0
LINE
  5
54BD
330
A
100
AcDbEntity
  8
0
  6
Continuous
 62
     9
370
     0
100
AcDbLine
 10
-20.0
 20
24.99999999999253
 30
0.0
 11
-20.0
 21
-25.00000000000759
 31
0.0
  0
LINE
  5
54C4
330
A
100
AcDbEntity
  8
0
  6
Continuous
 62
     7
370
     0
100
AcDbLine
 10
-33.76776990650092
 20
-25.00000000000759
 30
0.0
 11
-20.0
 21
-25.00000000000759
 31
0.0
  0
LINE
  5
54C5
330
A
100
AcDbEntity
  8
0
  6
Continuous
 62
     7
370
     0
100
AcDbLine
 10
-34.0
 20
24.99999999999253
 30
0.0
 11
-20.0
 21
24.99999999999253
 31
0.0
  0
LINE
  5
54C6
330
A
100
AcDbEntity
  8
0
  6
Continuous
 62
     7
370
     0
100
AcDbLine
 10
-20.0
 20
-25.00000000000759
 30
0.0
 11
-15.00000000000182
 21
-25.00000000000759
 31
0.0
  0
LINE
  5
54C7
330
A
100
AcDbEntity
  8
0
  6
Continuous
 62
     7
370
     0
100
AcDbLine
 10
-20.0
 20
24.99999999999253
 30
0.0
 11
-15.00000000000182
 21
24.99999999999253
 31
0.0
  0
LINE
  5
54C8
330
A
100
AcDbEntity
  8
0
  6
Continuous
 62
     7
370
     0
100
AcDbLine
 10
-34.0
 20
-24.88461023931993
 30
0.0
 11
-35.0
 21
-24.77539746197067
 31
0.0
  0
LINE
  5
54C9
330
A
100
AcDbEntity
  8
0
  6
Continuous
 62
     7
370
     0
100
AcDbLine
 10
-35.0
 20
24.81711056443507
 30
0.0
 11
-35.0
 21
23.99418044775595
 31
0.0
  0
LINE
  5
54CA
330
A
100
AcDbEntity
  8
0
  6
Continuous
 62
     7
370
     0
100
AcDbLine
 10
-35.0
 20
-23.99418044775865
 30
0.0
 11
-35.0
 21
-24.77539746197067
 31
0.0
  0
LINE
  5
54D1
330
A
100
AcDbEntity
  8
0
  6
Continuous
 62
     9
370
     0
100
AcDbLine
 10
-38.49997999999619
 20
-2.500000000007474
 30
0.0
 11
-35.99999999999614
 21
-2.500000000007474
 31
0.0
  0
LINE
  5
54D2
330
A
100
AcDbEntity
  8
0
  6
Continuous
 62
     9
370
     0
100
AcDbLine
 10
-35.99999999999614
 20
2.499999999992525
 30
0.0
 11
-38.49997999999619
 21
2.499999999992525
 31
0.0
  0
LINE
  5
54D3
330
A
100
AcDbEntity
  8
0
  6
Continuous
 62
     7
370
     0
100
AcDbLine
 10
-38.49999999999614
 20
4.899999999997845
 30
0.0
 11
-43.999999999995
 21
4.899999999997845
 31
0.0
  0
LINE
  5
54D4
330
A
100
AcDbEntity
  8
0
  6
Continuous
 62
     7
370
     0
100
AcDbLine
 10
-43.999999999995
 20
-4.90000000000208
 30
0.0
 11
-38.49999999999614
 21
-4.90000000000208
 31
0.0
  0
LINE
  5
54D5
330
A
100
AcDbEntity
  8
0
  6
Continuous
 62
     7
370
     0
100
AcDbLine
 10
-43.999999999995
 20
23.99418044775956
 30
0.0
 11
-44.99999999999499
 21
23.99418044775956
 31
0.0
  0
LINE
  5
54D6
330
A
100
AcDbEntity
  8
0
  6
Continuous
 62
     7
370
     0
100
AcDbLine
 10
-44.99999999999499
 20
-23.99418044775507
 30
0.0
 11
-43.999999999995
 21
-23.99418044775507
 31
0.0
  0
LINE
  5
54D7
330
A
100
AcDbEntity
  8
0
  6
Continuous
 62
     7
370
     0
100
AcDbLine
 10
-34.99999999999614
 20
23.99418044775595
 30
0.0
 11
-35.99999999999614
 21
23.99418044775595
 31
0.0
  0
LINE
  5
54D8
330
A
100
AcDbEntity
  8
0
  6
Continuous
 62
     7
370
     0
100
AcDbLine
 10
-35.99999999999614
 20
-23.99418044775865
 30
0.0
 11
-34.99999999999614
 21
-23.99418044775865
 31
0.0
  0
LINE
  5
54D9
330
A
100
AcDbEntity
  8
0
  6
Continuous
 62
     7
370
     0
100
AcDbLine
 10
-38.49998063766611
 20
-3.000000000007474
 30
0.0
 11
-35.99999999999614
 21
-3.000000000007474
 31
0.0
  0
LINE
  5
54DA
330
A
100
AcDbEntity
  8
0
  6
Continuous
 62
     7
370
     0
100
AcDbLine
 10
-35.99999999999614
 20
2.999999999992525
 30
0.0
 11
-38.49998063766316
 21
2.999999999992525
 31
0.0
  0
TEXT
  5
61BA
330
A
100
AcDbEntity
  8
0
  6
Continuous
 62
     7
370
     0
100
AcDbText
 10
-13.1132152376631
 20
57.50732064421743
 30
0.0
 40
10.0
  1
4419
100
AcDbText
  0
LINE
  5
61BB
330
A
100
AcDbEntity
  8
0
  6
Continuous
 62
     7
370
     0
100
AcDbLine
 10
74.58417840323114
 20
-56.24818030333958
 30
0.0
 11
74.87538836236399
 21
-56.34295181921515
 31
0.0
  0
LINE
  5
61BC
330
A
100
AcDbEntity
  8
0
  6
Continuous
 62
     7
370
     0
100
AcDbLine
 10
74.87538836236399
 20
-56.34295181921515
 30
0.0
 11
75.07751236249692
 21
-56.45648008934216
 31
0.0
  0
LINE
  5
61BD
330
A
100
AcDbEntity
  8
0
  6
Continuous
 62
     7
370
     0
100
AcDbLine
 10
75.07751236249692
 20
-56.45648008934216
 30
0.0
 11
75.26715104083996
 21
-56.60650834758917
 31
0.0
  0
LINE
  5
61BE
330
A
100
AcDbEntity
  8
0
  6
Continuous
 62
     7
370
     0
100
AcDbLine
 10
75.26715104083996
 20
-56.60650834758917
 30
0.0
 11
75.44444323831999
 21
-56.79269066550228
 31
0.0
  0
LINE
  5
61BF
330
A
100
AcDbEntity
  8
0
  6
Continuous
 62
     7
370
     0
100
AcDbLine
 10
75.44444323831999
 20
-56.79269066550228
 30
0.0
 11
75.60952779587092
 21
-57.01468111462808
 31
0.0
  0
ARC
  5
61C0
330
A
100
AcDbEntity
  8
0
  6
Continuous
 62
     7
370
     0
100
AcDbCircle
 10
68.37066215530899
 20
-60.93213798267735
 30
0.0
 40
8.230895703089743
100
AcDbArc
 50
4.596440442420428
 51
28.42092215872188
  0
ARC
  5
61C1
330
A
100
AcDbEntity
  8
0
  6
Continuous
 62
     7
370
     0
100
AcDbCircle
 10
74.76808700870993
 20
-59.73628664797425
 30
0.0
 40
3.579930800964511
100
AcDbArc
 50
103.9614425485841
 51
124.3625501899478
  0
LINE
  5
61C2
330
A
100
AcDbEntity
  8
0
  6
Continuous
 62
     7
370
     0
100
AcDbLine
 10
73.90436112814814
 20
-56.26211305660866
 30
0.0
 11
74.16798261245685
 21
-56.22382052199316
 31
0.0
  0
LINE
  5
61C3
330
A
100
AcDbEntity
  8
0
  6
Continuous
 62
     7
370
     0
100
AcDbLine
 10
74.16798261245685
 20
-56.22382052199316
 30
0.0
 11
74.41777539065606
 21
-56.22459004003644
 31
0.0
  0
LINE
  5
61C4
330
A
100
AcDbEntity
  8
0
  6
Continuous
 62
     7
370
     0
100
AcDbLine
 10
74.41777539065606
 20
-56.22459004003644
 30
0.0
 11
74.58417840323114
 21
-56.24818030333958
 31
0.0
  0
LINE
  5
61C5
330
A
100
AcDbEntity
  8
0
  6
Continuous
 62
     7
370
     0
100
AcDbLine
 10
66.23021739339901
 20
-55.79769093331376
 30
0.0
 11
66.26283386797695
 21
-55.80459511595996
 31
0.0
  0
LINE
  5
61C6
330
A
100
AcDbEntity
  8
0
  6
Continuous
 62
     7
370
     0
100
AcDbLine
 10
66.26283386797695
 20
-55.80459511595996
 30
0.0
 11
66.29461971151386
 21
-55.81182196784965
 31
0.0
  0
LINE
  5
61C7
330
A
100
AcDbEntity
  8
0
  6
Continuous
 62
     7
370
     0
100
AcDbLine
 10
66.29461971151386
 20
-55.81182196784965
 30
0.0
 11
66.32550729295189
 21
-55.81935611233845
 31
0.0
  0
LINE
  5
61C8
330
A
100
AcDbEntity
  8
0
  6
Continuous
 62
     7
370
     0
100
AcDbLine
 10
66.32550729295189
 20
-55.81935611233845
 30
0.0
 11
66.35543089248017
 21
-55.82718151895244
 31
0.0
  0
LINE
  5
61C9
330
A
100
AcDbEntity
  8
0
  6
Continuous
 62
     7
370
     0
100
AcDbLine
 10
66.35543089248017
 20
-55.82718151895244
 30
0.0
 11
66.38432684135705
 21
-55.83528153749617
 31
0.0
  0
LINE
  5
61CA
330
A
100
AcDbEntity
  8
0
  6
Continuous
 62
     7
370
     0
100
AcDbLine
 10
66.38432684135705
 20
-55.83528153749617
 30
0.0
 11
66.41213365738599
 21
-55.84363893347966
 31
0.0
  0
LINE
  5
61CB
330
A
100
AcDbEntity
  8
0
  6
Continuous
 62
     7
370
     0
100
AcDbLine
 10
66.41213365738599
 20
-55.84363893347966
 30
0.0
 11
66.43879217572794
 21
-55.85223592478858
 31
0.0
  0
LINE
  5
61CC
330
A
100
AcDbEntity
  8
0
  6
Continuous
 62
     7
370
     0
100
AcDbLine
 10
66.43879217572794
 20
-55.85223592478858
 30
0.0
 11
66.46424567478994
 21
-55.86105421951924
 31
0.0
  0
LINE
  5
61CD
330
A
100
AcDbEntity
  8
0
  6
Continuous
 62
     7
370
     0
100
AcDbLine
 10
66.46424567478994
 20
-55.86105421951924
 30
0.0
 11
66.4884399969078
 21
-55.87007505489836
 31
0.0
  0
LINE
  5
61CE
330
A
100
AcDbEntity
  8
0
  6
Continuous
 62
     7
370
     0
100
AcDbLine
 10
66.4884399969078
 20
-55.87007505489836
 30
0.0
 11
66.51132366358388
 21
-55.87927923720497
 31
0.0
  0
LINE
  5
61CF
330
A
100
AcDbEntity
  8
0
  6
Continuous
 62
     7
370
     0
100
AcDbLine
 10
66.51132366358388
 20
-55.87927923720497
 30
0.0
 11
66.53284798501181
 21
-55.88864718260897
 31
0.0
  0
LINE
  5
61D0
330
A
100
AcDbEntity
  8
0
  6
Continuous
 62
     7
370
     0
100
AcDbLine
 10
66.53284798501181
 20
-55.88864718260897
 30
0.0
 11
66.55296716368093
 21
-55.89815895883987
 31
0.0
  0
LINE
  5
61D1
330
A
100
AcDbEntity
  8
0
  6
Continuous
 62
     7
370
     0
100
AcDbLine
 10
66.55296716368093
 20
-55.89815895883987
 30
0.0
 11
66.57163839181293
 21
-55.90779432759695
 31
0.0
  0
LINE
  5
61D2
330
A
100
AcDbEntity
  8
0
  6
Continuous
 62
     7
370
     0
100
AcDbLine
 10
66.57163839181293
 20
-55.90779432759695
 30
0.0
 11
66.58882194245189
 21
-55.91753278761067
 31
0.0
  0
LINE
  5
61D3
330
A
100
AcDbEntity
  8
0
  6
Continuous
 62
     7
370
     0
100
AcDbLine
 10
66.58882194245189
 20
-55.91753278761067
 30
0.0
 11
66.60448125398488
 21
-55.92735361826257
 31
0.0
  0
LINE
  5
61D4
330
A
100
AcDbEntity
  8
0
  6
Continuous
 62
     7
370
     0
100
AcDbLine
 10
66.60448125398488
 20
-55.92735361826257
 30
0.0
 11
66.61858300794211
 21
-55.93723592367417
 31
0.0
  0
LINE
  5
61D5
330
A
100
AcDbEntity
  8
0
  6
Continuous
 62
     7
370
     0
100
AcDbLine
 10
66.61858300794211
 20
-55.93723592367417
 30
0.0
 11
66.63109719987915
 21
-55.94715867716584
 31
0.0
  0
LINE
  5
61D6
330
A
100
AcDbEntity
  8
0
  6
Continuous
 62
     7
370
     0
100
AcDbLine
 10
66.63109719987915
 20
-55.94715867716584
 30
0.0
 11
66.64199720322585
 21
-55.95710076599676
 31
0.0
  0
LINE
  5
61D7
330
A
100
AcDbEntity
  8
0
  6
Continuous
 62
     7
370
     0
100
AcDbLine
 10
66.64199720322585
 20
-55.95710076599676
 30
0.0
 11
66.65125982593804
 21
-55.96704103628545
 31
0.0
  0
LINE
  5
61D8
330
A
100
AcDbEntity
  8
0
  6
Continuous
 62
     7
370
     0
100
AcDbLine
 10
66.65125982593804
 20
-55.96704103628545
 30
0.0
 11
66.658865359841
 21
-55.97695833802067
 31
0.0
  0
LINE
  5
61D9
330
A
100
AcDbEntity
  8
0
  6
Continuous
 62
     7
370
     0
100
AcDbLine
 10
66.658865359841
 20
-55.97695833802067
 30
0.0
 11
66.66479762256495
 21
-55.98683157006036
 31
0.0
  0
LINE
  5
61DA
330
A
100
AcDbEntity
  8
0
  6
Continuous
 62
     7
370
     0
100
AcDbLine
 10
66.66479762256495
 20
-55.98683157006036
 30
0.0
 11
66.66904399197415
 21
-55.99663972503117
 31
0.0
  0
LINE
  5
61DB
330
A
100
AcDbEntity
  8
0
  6
Continuous
 62
     7
370
     0
100
AcDbLine
 10
66.66904399197415
 20
-55.99663972503117
 30
0.0
 11
66.67159543302796
 21
-56.00636193402426
 31
0.0
  0
LINE
  5
61DC
330
A
100
AcDbEntity
  8
0
  6
Continuous
 62
     7
370
     0
100
AcDbLine
 10
66.67159543302796
 20
-56.00636193402426
 30
0.0
 11
66.67244651699888
 21
-56.01597751099908
 31
0.0
  0
ARC
  5
61DD
330
A
100
AcDbEntity
  8
0
  6
Continuous
 62
     7
370
     0
100
AcDbCircle
 10
69.730409649605
 20
-86.29389931968097
 30
0.0
 40
27.6776055694029
100
AcDbArc
 50
11.3032047918415
 51
57.81345266022118
  0
ARC
  5
61DE
330
A
100
AcDbEntity
  8
0
  6
Continuous
 62
     7
370
     0
100
AcDbCircle
 10
75.37448828829997
 20
-78.93818646980347
 30
0.0
 40
18.46582280747128
100
AcDbArc
 50
60.47805468016132
 51
76.20318459017823
  0
LINE
  5
61DF
330
A
100
AcDbEntity
  8
0
  6
Continuous
 62
     7
370
     0
100
AcDbLine
 10
-31.76047993666816
 20
-48.16400119675185
 30
0.0
 11
-31.81604958352091
 21
-48.03687460290436
 31
0.0
  0
LINE
  5
61E0
330
A
100
AcDbEntity
  8
0
  6
Continuous
 62
     7
370
     0
100
AcDbLine
 10
-31.81604958352091
 20
-48.03687460290436
 30
0.0
 11
-31.88541030088686
 21
-47.92326606795256
 31
0.0
  0
LINE
  5
61E1
330
A
100
AcDbEntity
  8
0
  6
Continuous
 62
     7
370
     0
100
AcDbLine
 10
-31.88541030088686
 20
-47.92326606795256
 30
0.0
 11
-31.96640092762482
 21
-47.82295478441025
 31
0.0
  0
LINE
  5
61E2
330
A
100
AcDbEntity
  8
0
  6
Continuous
 62
     7
370
     0
100
AcDbLine
 10
-31.96640092762482
 20
-47.82295478441025
 30
0.0
 11
-32.05682367750183
 21
-47.73625551102535
 31
0.0
  0
LINE
  5
61E3
330
A
100
AcDbEntity
  8
0
  6
Continuous
 62
     7
370
     0
100
AcDbLine
 10
-32.05682367750183
 20
-47.73625551102535
 30
0.0
 11
-32.20257195273712
 21
-47.63384207514945
 31
0.0
  0
LINE
  5
61E4
330
A
100
AcDbEntity
  8
0
  6
Continuous
 62
     7
370
     0
100
AcDbLine
 10
-32.20257195273712
 20
-47.63384207514945
 30
0.0
 11
-32.36020264306308
 21
-47.56035090514626
 31
0.0
  0
LINE
  5
61E5
330
A
100
AcDbEntity
  8
0
  6
Continuous
 62
     7
370
     0
100
AcDbLine
 10
-32.36020264306308
 20
-47.56035090514626
 30
0.0
 11
-32.52617928556492
 21
-47.51563900168676
 31
0.0
  0
LINE
  5
61E6
330
A
100
AcDbEntity
  8
0
  6
Continuous
 62
     7
370
     0
100
AcDbLine
 10
-32.52617928556492
 20
-47.51563900168676
 30
0.0
 11
-32.69618650521489
 21
-47.50001894738566
 31
0.0
  0
LINE
  5
61E7
330
A
100
AcDbEntity
  8
0
  6
Continuous
 62
     7
370
     0
100
AcDbLine
 10
-32.69618650521489
 20
-47.50001894738566
 30
0.0
 11
-32.70234234924124
 21
-47.49999999999835
 31
0.0
  0
LINE
  5
61E8
330
A
100
AcDbEntity
  8
0
  6
Continuous
 62
     7
370
     0
100
AcDbLine
 10
14.999999999995
 20
-85.19913895635525
 30
0.0
 11
14.99998105260783
 21
-85.19298311232926
 31
0.0
  0
LINE
  5
61E9
330
A
100
AcDbEntity
  8
0
  6
Continuous
 62
     7
370
     0
100
AcDbLine
 10
14.99998105260783
 20
-85.19298311232926
 30
0.0
 11
14.9847561702029
 21
-85.02519849171717
 31
0.0
  0
LINE
  5
61EA
330
A
100
AcDbEntity
  8
0
  6
Continuous
 62
     7
370
     0
100
AcDbLine
 10
14.9847561702029
 20
-85.02519849171717
 30
0.0
 11
14.94102307024013
 21
-84.86079655394688
 31
0.0
  0
LINE
  5
61EB
330
A
100
AcDbEntity
  8
0
  6
Continuous
 62
     7
370
     0
100
AcDbLine
 10
14.94102307024013
 20
-84.86079655394688
 30
0.0
 11
14.8682405722509
 21
-84.70299552075607
 31
0.0
  0
LINE
  5
61EC
330
A
100
AcDbEntity
  8
0
  6
Continuous
 62
     7
370
     0
100
AcDbLine
 10
14.8682405722509
 20
-84.70299552075607
 30
0.0
 11
14.76613886719678
 21
-84.55646389369684
 31
0.0
  0
LINE
  5
61ED
330
A
100
AcDbEntity
  8
0
  6
Continuous
 62
     7
370
     0
100
AcDbLine
 10
14.76613886719678
 20
-84.55646389369684
 30
0.0
 11
14.68042784863292
 21
-84.46632387544966
 31
0.0
  0
LINE
  5
61EE
330
A
100
AcDbEntity
  8
0
  6
Continuous
 62
     7
370
     0
100
AcDbLine
 10
14.68042784863292
 20
-84.46632387544966
 30
0.0
 11
14.58104609145903
 21
-84.38526830349047
 31
0.0
  0
LINE
  5
61EF
330
A
100
AcDbEntity
  8
0
  6
Continuous
 62
     7
370
     0
100
AcDbLine
 10
14.58104609145903
 20
-84.38526830349047
 30
0.0
 11
14.46756295478781
 21
-84.31517918164505
 31
0.0
  0
LINE
  5
61F0
330
A
100
AcDbEntity
  8
0
  6
Continuous
 62
     7
370
     0
100
AcDbLine
 10
14.46756295478781
 20
-84.31517918164505
 30
0.0
 11
14.34005792127891
 21
-84.25873446350546
 31
0.0
  0
LINE
  5
61F1
330
A
100
AcDbEntity
  8
0
  6
Continuous
 62
     7
370
     0
100
AcDbLine
 10
14.34005792127891
 20
91.75873446350676
 30
0.0
 11
14.46676869574207
 21
91.81475952157086
 31
0.0
  0
LINE
  5
61F2
330
A
100
AcDbEntity
  8
0
  6
Continuous
 62
     7
370
     0
100
AcDbLine
 10
14.46676869574207
 20
91.81475952157086
 30
0.0
 11
14.57996082965496
 21
91.88449459465045
 31
0.0
  0
LINE
  5
61F3
330
A
100
AcDbEntity
  8
0
  6
Continuous
 62
     7
370
     0
100
AcDbLine
 10
14.57996082965496
 20
91.88449459465045
 30
0.0
 11
14.67985451321283
 21
91.96579194377795
 31
0.0
  0
LINE
  5
61F4
330
A
100
AcDbEntity
  8
0
  6
Continuous
 62
     7
370
     0
100
AcDbLine
 10
14.67985451321283
 20
91.96579194377795
 30
0.0
 11
14.76613886719678
 21
92.05646389369837
 31
0.0
  0
LINE
  5
61F5
330
A
100
AcDbEntity
  8
0
  6
Continuous
 62
     7
370
     0
100
AcDbLine
 10
14.76613886719678
 20
92.05646389369837
 30
0.0
 11
14.86751255531612
 21
92.20172367074439
 31
0.0
  0
LINE
  5
61F6
330
A
100
AcDbEntity
  8
0
  6
Continuous
 62
     7
370
     0
100
AcDbLine
 10
14.86751255531612
 20
92.20172367074439
 30
0.0
 11
14.94025814319298
 21
92.35867658817255
 31
0.0
  0
LINE
  5
61F7
330
A
100
AcDbEntity
  8
0
  6
Continuous
 62
     7
370
     0
100
AcDbLine
 10
14.94025814319298
 20
92.35867658817255
 30
0.0
 11
14.98451621500999
 21
92.52384542432082
 31
0.0
  0
LINE
  5
61F8
330
A
100
AcDbEntity
  8
0
  6
Continuous
 62
     7
370
     0
100
AcDbLine
 10
14.98451621500999
 20
92.52384542432082
 30
0.0
 11
14.99998105260783
 21
92.6929831123307
 31
0.0
  0
LINE
  5
61F9
330
A
100
AcDbEntity
  8
0
  6
Continuous
 62
     7
370
     0
100
AcDbLine
 10
14.99998105260783
 20
92.6929831123307
 30
0.0
 11
14.999999999995
 21
92.69913895635676
 31
0.0
  0
LINE
  5
61FA
330
A
100
AcDbEntity
  8
0
  6
Continuous
 62
     7
370
     0
100
AcDbLine
 10
-32.70234234924124
 20
54.99999999999977
 30
0.0
 11
-32.69618650521489
 21
55.00001894738705
 31
0.0
  0
LINE
  5
61FB
330
A
100
AcDbEntity
  8
0
  6
Continuous
 62
     7
370
     0
100
AcDbLine
 10
-32.69618650521489
 20
55.00001894738705
 30
0.0
 11
-32.52755420609811
 21
55.01539393409496
 31
0.0
  0
LINE
  5
61FC
330
A
100
AcDbEntity
  8
0
  6
Continuous
 62
     7
370
     0
100
AcDbLine
 10
-32.52755420609811
 20
55.01539393409496
 30
0.0
 11
-32.36235636079823
 21
55.05956949875991
 31
0.0
  0
LINE
  5
61FD
330
A
100
AcDbEntity
  8
0
  6
Continuous
 62
     7
370
     0
100
AcDbLine
 10
-32.36235636079823
 20
55.05956949875991
 30
0.0
 11
-32.20386342288089
 21
55.13309818319783
 31
0.0
  0
LINE
  5
61FE
330
A
100
AcDbEntity
  8
0
  6
Continuous
 62
     7
370
     0
100
AcDbLine
 10
-32.20386342288089
 20
55.13309818319783
 30
0.0
 11
-32.05682367750183
 21
55.23625551102674
 31
0.0
  0
LINE
  5
61FF
330
A
100
AcDbEntity
  8
0
  6
Continuous
 62
     7
370
     0
100
AcDbLine
 10
-32.05682367750183
 20
55.23625551102674
 30
0.0
 11
-31.9669338170811
 21
55.32237599597454
 31
0.0
  0
LINE
  5
6200
330
A
100
AcDbEntity
  8
0
  6
Continuous
 62
     7
370
     0
100
AcDbLine
 10
-31.9669338170811
 20
55.32237599597454
 30
0.0
 11
-31.88618457220196
 21
55.42217088773617
 31
0.0
  0
LINE
  5
6201
330
A
100
AcDbEntity
  8
0
  6
Continuous
 62
     7
370
     0
100
AcDbLine
 10
-31.88618457220196
 20
55.42217088773617
 30
0.0
 11
-31.81646878086804
 21
55.53607325916772
 31
0.0
  0
LINE
  5
6202
330
A
100
AcDbEntity
  8
0
  6
Continuous
 62
     7
370
     0
100
AcDbLine
 10
-31.81646878086804
 20
55.53607325916772
 30
0.0
 11
-31.76047993666816
 21
55.66400119675325
 31
0.0
  0
LINE
  5
6203
330
A
100
AcDbEntity
  8
0
  6
Continuous
 62
     7
370
     0
100
AcDbLine
 10
-34.000000000005
 20
79.99999999999977
 30
0.0
 11
-34.00087456813526
 21
79.95826681976803
 31
0.0
  0
LINE
  5
6204
330
A
100
AcDbEntity
  8
0
  6
Continuous
 62
     7
370
     0
100
AcDbLine
 10
-34.00087456813526
 20
79.95826681976803
 30
0.0
 11
-34.00349188662108
 21
79.91657554843107
 31
0.0
  0
LINE
  5
6205
330
A
100
AcDbEntity
  8
0
  6
Continuous
 62
     7
370
     0
100
AcDbLine
 10
-34.00349188662108
 20
79.91657554843107
 30
0.0
 11
-34.00784237660719
 21
79.87503386142714
 31
0.0
  0
LINE
  5
6206
330
A
100
AcDbEntity
  8
0
  6
Continuous
 62
     7
370
     0
100
AcDbLine
 10
-34.00784237660719
 20
79.87503386142714
 30
0.0
 11
-34.013916459239
 21
79.83374943419443
 31
0.0
  0
LINE
  5
6207
330
A
100
AcDbEntity
  8
0
  6
Continuous
 62
     7
370
     0
100
AcDbLine
 10
-34.013916459239
 20
79.83374943419443
 30
0.0
 11
-34.02196592280416
 21
79.79157288886125
 31
0.0
  0
LINE
  5
6208
330
A
100
AcDbEntity
  8
0
  6
Continuous
 62
     7
370
     0
100
AcDbLine
 10
-34.02196592280416
 20
79.79157288886125
 30
0.0
 11
-34.03182693490794
 21
79.74974491818585
 31
0.0
  0
LINE
  5
6209
330
A
100
AcDbEntity
  8
0
  6
Continuous
 62
     7
370
     0
100
AcDbLine
 10
-34.03182693490794
 20
79.74974491818585
 30
0.0
 11
-34.04346992059004
 21
79.70837914436805
 31
0.0
  0
LINE
  5
620A
330
A
100
AcDbEntity
  8
0
  6
Continuous
 62
     7
370
     0
100
AcDbLine
 10
-34.04346992059004
 20
79.70837914436805
 30
0.0
 11
-34.0568653048872
 21
79.66758918960795
 31
0.0
  0
LINE
  5
620B
330
A
100
AcDbEntity
  8
0
  6
Continuous
 62
     7
370
     0
100
AcDbLine
 10
-34.0568653048872
 20
79.66758918960795
 30
0.0
 11
-34.07155476104004
 21
79.62853967348173
 31
0.0
  0
LINE
  5
620C
330
A
100
AcDbEntity
  8
0
  6
Continuous
 62
     7
370
     0
100
AcDbLine
 10
-34.07155476104004
 20
79.62853967348173
 30
0.0
 11
-34.08787489422889
 21
79.59010252540292
 31
0.0
  0
LINE
  5
620D
330
A
100
AcDbEntity
  8
0
  6
Continuous
 62
     7
370
     0
100
AcDbLine
 10
-34.08787489422889
 20
79.59010252540292
 30
0.0
 11
-34.10578182143422
 21
79.55237606657471
 31
0.0
  0
LINE
  5
620E
330
A
100
AcDbEntity
  8
0
  6
Continuous
 62
     7
370
     0
100
AcDbLine
 10
-34.10578182143422
 20
79.55237606657471
 30
0.0
 11
-34.12523165962898
 21
79.51545861820034
 31
0.0
  0
LINE
  5
620F
330
A
100
AcDbEntity
  8
0
  6
Continuous
 62
     7
370
     0
100
AcDbLine
 10
-34.12523165962898
 20
79.51545861820034
 30
0.0
 11
-34.14684495600295
 21
79.47834976953413
 31
0.0
  0
LINE
  5
6210
330
A
100
AcDbEntity
  8
0
  6
Continuous
 62
     7
370
     0
100
AcDbLine
 10
-34.14684495600295
 20
79.47834976953413
 30
0.0
 11
-34.17005582208913
 21
79.44216551745404
 31
0.0
  0
LINE
  5
6211
330
A
100
AcDbEntity
  8
0
  6
Continuous
 62
     7
370
     0
100
AcDbLine
 10
-34.17005582208913
 20
79.44216551745404
 30
0.0
 11
-34.19479929750901
 21
79.40700394352802
 31
0.0
  0
LINE
  5
6212
330
A
100
AcDbEntity
  8
0
  6
Continuous
 62
     7
370
     0
100
AcDbLine
 10
-34.19479929750901
 20
79.40700394352802
 30
0.0
 11
-34.22101042188911
 21
79.37296312932414
 31
0.0
  0
LINE
  5
6213
330
A
100
AcDbEntity
  8
0
  6
Continuous
 62
     7
370
     0
100
AcDbLine
 10
-34.22101042188911
 20
79.37296312932414
 30
0.0
 11
-34.24785869174912
 21
79.34100326473219
 31
0.0
  0
LINE
  5
6214
330
A
100
AcDbEntity
  8
0
  6
Continuous
 62
     7
370
     0
100
AcDbLine
 10
-34.24785869174912
 20
79.34100326473219
 30
0.0
 11
-34.27604751293711
 21
79.31015887020288
 31
0.0
  0
LINE
  5
6215
330
A
100
AcDbEntity
  8
0
  6
Continuous
 62
     7
370
     0
100
AcDbLine
 10
-34.27604751293711
 20
79.31015887020288
 30
0.0
 11
-34.30550285729987
 21
79.28050923122123
 31
0.0
  0
LINE
  5
6216
330
A
100
AcDbEntity
  8
0
  6
Continuous
 62
     7
370
     0
100
AcDbLine
 10
-34.30550285729987
 20
79.28050923122123
 30
0.0
 11
-34.33615069668508
 21
79.25213363327305
 31
0.0
  0
LINE
  5
6217
330
A
100
AcDbEntity
  8
0
  6
Continuous
 62
     7
370
     0
100
AcDbLine
 10
-34.33615069668508
 20
79.25213363327305
 30
0.0
 11
-34.36891914760213
 21
79.22428790192242
 31
0.0
  0
LINE
  5
6218
330
A
100
AcDbEntity
  8
0
  6
Continuous
 62
     7
370
     0
100
AcDbLine
 10
-34.36891914760213
 20
79.22428790192242
 30
0.0
 11
-34.40289461699513
 21
79.19784573036793
 31
0.0
  0
LINE
  5
6219
330
A
100
AcDbEntity
  8
0
  6
Continuous
 62
     7
370
     0
100
AcDbLine
 10
-34.40289461699513
 20
79.19784573036793
 30
0.0
 11
-34.43798225365004
 21
79.17287947790294
 31
0.0
  0
LINE
  5
621A
330
A
100
AcDbEntity
  8
0
  6
Continuous
 62
     7
370
     0
100
AcDbLine
 10
-34.43798225365004
 20
79.17287947790294
 30
0.0
 11
-34.47408720636122
 21
79.14946150382093
 31
0.0
  0
LINE
  5
621B
330
A
100
AcDbEntity
  8
0
  6
Continuous
 62
     7
370
     0
100
AcDbLine
 10
-34.47408720636122
 20
79.14946150382093
 30
0.0
 11
-34.50992773323901
 21
79.12832211308273
 31
0.0
  0
LINE
  5
621C
330
A
100
AcDbEntity
  8
0
  6
Continuous
 62
     7
370
     0
100
AcDbLine
 10
-34.50992773323901
 20
79.12832211308273
 30
0.0
 11
-34.5466578176231
 21
79.10867025603977
 31
0.0
  0
LINE
  5
621D
330
A
100
AcDbEntity
  8
0
  6
Continuous
 62
     7
370
     0
100
AcDbLine
 10
-34.5466578176231
 20
79.10867025603977
 30
0.0
 11
-34.58418106769409
 21
79.09055633275193
 31
0.0
  0
LINE
  5
621E
330
A
100
AcDbEntity
  8
0
  6
Continuous
 62
     7
370
     0
100
AcDbLine
 10
-34.58418106769409
 20
79.09055633275193
 30
0.0
 11
-34.6224010916269
 21
79.07403074327902
 31
0.0
  0
LINE
  5
621F
330
A
100
AcDbEntity
  8
0
  6
Continuous
 62
     7
370
     0
100
AcDbLine
 10
-34.6224010916269
 20
79.07403074327902
 30
0.0
 11
-34.66244207219802
 21
79.05869938131303
 31
0.0
  0
LINE
  5
6220
330
A
100
AcDbEntity
  8
0
  6
Continuous
 62
     7
370
     0
100
AcDbLine
 10
-34.66244207219802
 20
79.05869938131303
 30
0.0
 11
-34.70314979563
 21
79.04508319615775
 31
0.0
  0
LINE
  5
6221
330
A
100
AcDbEntity
  8
0
  6
Continuous
 62
     7
370
     0
100
AcDbLine
 10
-34.70314979563
 20
79.04508319615775
 30
0.0
 11
-34.744410308336
 21
79.03321867950126
 31
0.0
  0
LINE
  5
6222
330
A
100
AcDbEntity
  8
0
  6
Continuous
 62
     7
370
     0
100
AcDbLine
 10
-34.744410308336
 20
79.03321867950126
 30
0.0
 11
-34.78610965672487
 21
79.02314232303161
 31
0.0
  0
LINE
  5
6223
330
A
100
AcDbEntity
  8
0
  6
Continuous
 62
     7
370
     0
100
AcDbLine
 10
-34.78610965672487
 20
79.02314232303161
 30
0.0
 11
-34.8283622897643
 21
79.01484707095676
 31
0.0
  0
LINE
  5
6224
330
A
100
AcDbEntity
  8
0
  6
Continuous
 62
     7
370
     0
100
AcDbLine
 10
-34.8283622897643
 20
79.01484707095676
 30
0.0
 11
-34.87099857494082
 21
79.00837171853487
 31
0.0
  0
LINE
  5
6225
330
A
100
AcDbEntity
  8
0
  6
Continuous
 62
     7
370
     0
100
AcDbLine
 10
-34.87099857494082
 20
79.00837171853487
 30
0.0
 11
-34.91389757792604
 21
79.00372975984726
 31
0.0
  0
LINE
  5
6226
330
A
100
AcDbEntity
  8
0
  6
Continuous
 62
     7
370
     0
100
AcDbLine
 10
-34.91389757792604
 20
79.00372975984726
 30
0.0
 11
-34.95693836439091
 21
79.00093468897512
 31
0.0
  0
LINE
  5
6227
330
A
100
AcDbEntity
  8
0
  6
Continuous
 62
     7
370
     0
100
AcDbLine
 10
-34.95693836439091
 20
79.00093468897512
 30
0.0
 11
-35.000000000005
 21
78.99999999999977
 31
0.0
  0
LINE
  5
6228
330
A
100
AcDbEntity
  8
0
  6
Continuous
 62
     7
370
     0
100
AcDbLine
 10
-110.251958415459
 20
5.999999999974022
 30
0.0
 11
-110.1284685214689
 21
5.967226569167138
 31
0.0
  0
LINE
  5
6229
330
A
100
AcDbEntity
  8
0
  6
Continuous
 62
     7
370
     0
100
AcDbLine
 10
-110.1284685214689
 20
5.967226569167138
 30
0.0
 11
-110.0289212364459
 21
5.889381338282333
 31
0.0
  0
LINE
  5
622A
330
A
100
AcDbEntity
  8
0
  6
Continuous
 62
     7
370
     0
100
AcDbLine
 10
-110.0289212364459
 20
5.889381338282333
 30
0.0
 11
-109.9354554778558
 21
5.76872108242432
 31
0.0
  0
ARC
  5
622B
330
A
100
AcDbEntity
  8
0
  6
Continuous
 62
     7
370
     0
100
AcDbCircle
 10
-133.1883704333531
 20
-0.2031411237027498
 30
0.0
 40
24.00752365689915
100
AcDbArc
 50
352.7800866931406
 51
14.40353303196233
  0
ARC
  5
622C
330
A
100
AcDbEntity
  8
0
  6
Continuous
 62
     7
370
     0
100
AcDbCircle
 10
-116.6289942003182
 20
-2.964304151754049
 30
0.0
 40
7.262309146991483
100
AcDbArc
 50
337.5128495992096
 51
357.9794391146716
  0
LINE
  5
622D
330
A
100
AcDbEntity
  8
0
  6
Continuous
 62
     7
370
     0
100
AcDbLine
 10
-109.9188723120333
 20
-5.741964748520672
 30
0.0
 11
-110.0096445828221
 21
-5.868504690949151
 31
0.0
  0
LINE
  5
622E
330
A
100
AcDbEntity
  8
0
  6
Continuous
 62
     7
370
     0
100
AcDbLine
 10
-110.0096445828221
 20
-5.868504690949151
 30
0.0
 11
-110.128178224973
 21
-5.96700283070524
 31
0.0
  0
LINE
  5
622F
330
A
100
AcDbEntity
  8
0
  6
Continuous
 62
     7
370
     0
100
AcDbLine
 10
-110.128178224973
 20
-5.96700283070524
 30
0.0
 11
-110.251955852457
 21
-6.000000000012335
 31
0.0
  0
LINE
  5
6230
330
A
100
AcDbEntity
  8
0
  6
Continuous
 62
     7
370
     0
100
AcDbLine
 10
-110.251955852457
 20
-6.000000000012335
 30
0.0
 11
-110.3553931823401
 21
-5.978349689657363
 31
0.0
  0
LINE
  5
6231
330
A
100
AcDbEntity
  8
0
  6
Continuous
 62
     7
370
     0
100
AcDbLine
 10
-110.3553931823401
 20
-5.978349689657363
 30
0.0
 11
-110.4607227287601
 21
-5.91376205215235
 31
0.0
  0
LINE
  5
6232
330
A
100
AcDbEntity
  8
0
  6
Continuous
 62
     7
370
     0
100
AcDbLine
 10
-110.4607227287601
 20
-5.91376205215235
 30
0.0
 11
-110.570252778079
 21
-5.80287305256607
 31
0.0
  0
ARC
  5
6233
330
A
100
AcDbEntity
  8
0
  6
Continuous
 62
     7
370
     0
100
AcDbCircle
 10
-95.72439849764714
 20
0.1128507105453309
 30
0.0
 40
15.98108810304435
100
AcDbArc
 50
169.2344200511506
 51
201.7261189070574
  0
ARC
  5
6234
330
A
100
AcDbEntity
  8
0
  6
Continuous
 62
     7
370
     0
100
AcDbCircle
 10
-104.3331523285701
 20
2.368927823290334
 30
0.0
 40
7.128440528045548
100
AcDbArc
 50
151.5682237243435
 51
174.1299074636025
  0
LINE
  5
6235
330
A
100
AcDbEntity
  8
0
  6
Continuous
 62
     7
370
     0
100
AcDbLine
 10
-110.6017935509271
 20
5.762863825522629
 30
0.0
 11
-110.49321357499
 21
5.885431467578825
 31
0.0
  0
LINE
  5
6236
330
A
100
AcDbEntity
  8
0
  6
Continuous
 62
     7
370
     0
100
AcDbLine
 10
-110.49321357499
 20
5.885431467578825
 30
0.0
 11
-110.3854930145851
 21
5.964203078776819
 31
0.0
  0
LINE
  5
6237
330
A
100
AcDbEntity
  8
0
  6
Continuous
 62
     7
370
     0
100
AcDbLine
 10
-110.3854930145851
 20
5.964203078776819
 30
0.0
 11
-110.281337606774
 21
5.998189532084438
 31
0.0
  0
LINE
  5
6238
330
A
100
AcDbEntity
  8
0
  6
Continuous
 62
     7
370
     0
100
AcDbLine
 10
-110.281337606774
 20
5.998189532084438
 30
0.0
 11
-110.251958415459
 21
5.999999999974022
 31
0.0
  0
ARC
  5
6239
330
A
100
AcDbEntity
  8
0
  6
Continuous
 62
     7
370
     0
100
AcDbCircle
 10
-58.26274399815202
 20
0.6193705487242199
 30
0.0
 40
56.13891825286951
100
AcDbArc
 50
154.818487343452
 51
175.1149391848714
  0
LINE
  5
623A
330
A
100
AcDbEntity
  8
0
  6
Continuous
 62
     7
370
     0
100
AcDbLine
 10
-109.0664658788159
 20
24.50576805179205
 30
0.0
 11
-108.9300179579761
 21
24.69990371996417
 31
0.0
  0
LINE
  5
623B
330
A
100
AcDbEntity
  8
0
  6
Continuous
 62
     7
370
     0
100
AcDbLine
 10
-108.9300179579761
 20
24.69990371996417
 30
0.0
 11
-108.8061030312619
 21
24.84627059683592
 31
0.0
  0
LINE
  5
623C
330
A
100
AcDbEntity
  8
0
  6
Continuous
 62
     7
370
     0
100
AcDbLine
 10
-108.8061030312619
 20
24.84627059683592
 30
0.0
 11
-108.6952695000729
 21
24.94430033637013
 31
0.0
  0
LINE
  5
623D
330
A
100
AcDbEntity
  8
0
  6
Continuous
 62
     7
370
     0
100
AcDbLine
 10
-108.6952695000729
 20
24.94430033637013
 30
0.0
 11
-108.5534307213559
 21
24.99999999998767
 31
0.0
  0
LINE
  5
623E
330
A
100
AcDbEntity
  8
0
  6
Continuous
 62
     7
370
     0
100
AcDbLine
 10
-108.5534307213559
 20
-25.00000000001234
 30
0.0
 11
-108.7440585892011
 21
-24.90572040732326
 31
0.0
  0
LINE
  5
623F
330
A
100
AcDbEntity
  8
0
  6
Continuous
 62
     7
370
     0
100
AcDbLine
 10
-108.7440585892011
 20
-24.90572040732326
 30
0.0
 11
-108.858689628975
 21
-24.78822598180836
 31
0.0
  0
ARC
  5
6240
330
A
100
AcDbEntity
  8
0
  6
Continuous
 62
     7
370
     0
100
AcDbCircle
 10
-71.23185995400217
 20
-4.915520559114071
 30
0.0
 40
42.55235283984382
100
AcDbArc
 50
188.2696400958919
 51
207.8408877598997
  0
ARC
  5
6241
330
A
100
AcDbEntity
  8
0
  6
Continuous
 62
     7
370
     0
100
AcDbCircle
 10
-40.03757388050394
 20
2.980476816932338
 30
0.0
 40
74.63218179969501
100
AcDbArc
 50
186.4473634372867
 51
190.8247798963502
  0
ARC
  5
6242
330
A
100
AcDbEntity
  8
0
  6
Continuous
 62
     7
370
     0
100
AcDbCircle
 10
-34.92492773068489
 20
28.20324578446875
 30
0.0
 40
3.386967312209048
100
AcDbArc
 50
268.7299326888973
 51
283.7816053754043
  0
LINE
  5
6243
330
A
100
AcDbEntity
  8
0
  6
Continuous
 62
     7
370
     0
100
AcDbLine
 10
-34.11807873565113
 20
24.91378651687083
 30
0.0
 11
-34.01921471959691
 21
24.96432004111634
 31
0.0
  0
LINE
  5
6244
330
A
100
AcDbEntity
  8
0
  6
Continuous
 62
     7
370
     0
100
AcDbLine
 10
-34.01921471959691
 20
24.96432004111634
 30
0.0
 11
-34.0
 21
24.99999999999253
 31
0.0
  0
LINE
  5
6245
330
A
100
AcDbEntity
  8
0
  6
Continuous
 62
     7
370
     0
100
AcDbLine
 10
-33.76776990650092
 20
-25.00000000000759
 30
0.0
 11
-33.86885970530307
 21
-24.99295428179508
 31
0.0
  0
LINE
  5
6246
330
A
100
AcDbEntity
  8
0
  6
Continuous
 62
     7
370
     0
100
AcDbLine
 10
-33.86885970530307
 20
-24.99295428179508
 30
0.0
 11
-33.98533767863728
 21
-24.93551559850286
 31
0.0
  0
LINE
  5
6247
330
A
100
AcDbEntity
  8
0
  6
Continuous
 62
     7
370
     0
100
AcDbLine
 10
-33.98533767863728
 20
-24.93551559850286
 30
0.0
 11
-34.0
 21
-24.88461023931993
 31
0.0
  0
CIRCLE
  5
636E
330
A
100
AcDbEntity
  8
0
  6
CENTER
 62
     1
100
AcDbCircle
 10
0.0
 20
0.0
 30
0.0
 40
7.0
  0
CIRCLE
  5
6370
330
A
100
AcDbEntity
  8
0
  6
CENTER
 62
     1
100
AcDbCircle
 10
-92.50014869600205
 20
-0.0000000000387388
 30
0.0
 40
7.0
  0
ENDSEC
  0
SECTION
  2
OBJECTS
  0
DICTIONARY
  5
19
330
0
100
AcDbDictionary
281
     1
  3
ACAD_COLOR
350
3176
  3
ACAD_GROUP
350
1A
  3
ACAD_LAYOUT
350
1E
  3
ACAD_MATERIAL
350
314C
  3
ACAD_MLEADERSTYLE
350
319B
  3
ACAD_MLINESTYLE
350
1B
  3
ACAD_PLOTSETTINGS
350
22
  3
ACAD_PLOTSTYLENAME
350
1F
  3
ACAD_SCALELIST
350
3179
  3
ACAD_TABLESTYLE
350
3177
  3
ACAD_VISUALSTYLE
350
3165
  3
ACAD_WIPEOUT_VARS
350
23
  3
ACDB_RECOMPOSE_DATA
350
630A
  3
AcDbVariableDictionary
350
630B
  3
ASE_INDEX_DICTIONARY
350
5E44
  3
DWGPROPS
350
6390
  0
DICTIONARY
  5
5E41
330
14
100
AcDbDictionary
280
     1
281
     1
  3
ADSK_XREC_LAYER_RECONCILED
360
5E42
  0
DICTIONARY
  5
31A7
330
A
100
AcDbDictionary
280
     1
281
     1
  3
ACAD_SORTENTS
360
31A8
  0
DICTIONARY
  5
3176
102
{ACAD_REACTORS
330
19
102
}
330
19
100
AcDbDictionary
281
     1
  0
DICTIONARY
  5
1A
102
{ACAD_REACTORS
330
19
102
}
330
19
100
AcDbDictionary
281
     1
  0
DICTIONARY
  5
1E
102
{ACAD_REACTORS
330
19
102
}
330
19
100
AcDbDictionary
281
     1
  3
Layout1
350
21
  3
Model
350
20
  0
DICTIONARY
  5
314C
102
{ACAD_REACTORS
330
19
102
}
330
19
100
AcDbDictionary
281
     1
  3
ByBlock
350
3155
  3
ByLayer
350
314D
  3
Global
350
315D
  0
DICTIONARY
  5
319B
102
{ACAD_REACTORS
330
19
102
}
330
19
100
AcDbDictionary
281
     1
  3
Standard
350
319C
  0
DICTIONARY
  5
1B
102
{ACAD_REACTORS
330
19
102
}
330
19
100
AcDbDictionary
281
     1
  3
Standard
350
1C
  0
DICTIONARY
  5
22
102
{ACAD_REACTORS
330
19
102
}
330
19
100
AcDbDictionary
281
     1
  0
ACDBDICTIONARYWDFLT
  5
1F
102
{ACAD_REACTORS
330
19
102
}
330
19
100
AcDbDictionary
281
     1
  3
Normal
350
1D
100
AcDbDictionaryWithDefault
340
1D
  0
DICTIONARY
  5
3179
102
{ACAD_REACTORS
330
19
102
}
330
19
100
AcDbDictionary
281
     1
  3
A0
350
317A
  3
A1
350
317B
  3
A2
350
317C
  3
A3
350
317D
  3
A4
350
317E
  3
A5
350
317F
  3
A6
350
3180
  3
A7
350
3181
  3
A8
350
3182
  3
A9
350
3183
  3
B0
350
3184
  3
B1
350
3185
  3
B2
350
3186
  3
B3
350
3187
  3
B4
350
3188
  3
B5
350
3189
  3
B6
350
318A
  3
B7
350
318B
  3
B8
350
318C
  3
B9
350
318D
  3
C0
350
318E
  3
C1
350
318F
  3
C2
350
3190
  3
C3
350
3191
  3
C4
350
3192
  3
C5
350
3193
  3
C6
350
3194
  3
C7
350
3195
  3
C8
350
3196
  3
C9
350
3197
  3
D0
350
3198
  3
D1
350
3199
  3
D2
350
319A
  0
DICTIONARY
  5
3177
102
{ACAD_REACTORS
330
19
102
}
330
19
100
AcDbDictionary
281
     1
  3
Standard
350
3178
  0
DICTIONARY
  5
3165
102
{ACAD_REACTORS
330
19
102
}
330
19
100
AcDbDictionary
281
     1
  3
2dWireframe
350
316B
  3
3D Hidden
350
316D
  3
3dWireframe
350
316C
  3
Basic
350
316A
  3
Brighten
350
3171
  3
ColorChange
350
3175
  3
Conceptual
350
316E
  3
Dim
350
3170
  3
Facepattern
350
3174
  3
Flat
350
3166
  3
FlatWithEdges
350
3167
  3
Gouraud
350
3168
  3
GouraudWithEdges
350
3169
  3
Linepattern
350
3173
  3
Realistic
350
316F
  3
Thicken
350
3172
  0
WIPEOUTVARIABLES
  5
23
330
19
100
AcDbWipeoutVariables
 70
     1
  0
XRECORD
  5
630A
102
{ACAD_REACTORS
330
19
102
}
330
19
100
AcDbXrecord
280
     1
 90
        1
330
3178
  0
DICTIONARY
  5
630B
102
{ACAD_REACTORS
330
19
102
}
330
19
100
AcDbDictionary
281
     1
  3
CANNOSCALE
350
630F
  3
CMLEADERSTYLE
350
630D
  3
CTABLESTYLE
350
630C
  3
DIMASSOC
350
6318
  3
INDEXCTL
350
6317
  3
LIGHTINGUNITS
350
6310
  3
MSLTSCALE
350
630E
  3
SORTENTS
350
6316
  0
DICTIONARY
  5
5E44
102
{ACAD_REACTORS
330
19
102
}
330
19
100
AcDbDictionary
281
     1
  3
ASEBlockHierarchyIndexRecord
350
5E46
1001
DCO15
1040
1685075681.336
  0
XRECORD
  5
6390
102
{ACAD_REACTORS
330
19
102
}
330
19
100
AcDbXrecord
280
     1
  1
DWGPROPS COOKIE
  2

  3

  4

  6

  7

  8
renzo.ceresoli
  9

300
=
301
=
302
=
303
=
304
=
305
=
306
=
307
=
308
=
309
=
 40
0.0028154398148148
 41
2455303.727916667
 42
2455306.419101308
  1

 90
        0
  0
XRECORD
  5
5E42
102
{ACAD_REACTORS
330
5E41
102
}
330
5E41
100
AcDbXrecord
280
     1
290
     1
  0
SORTENTSTABLE
  5
31A8
102
{ACAD_REACTORS
330
31A7
102
}
330
31A7
100
AcDbSortentsTable
330
A
331
53DC
  5
3B08
331
53F7
  5
3B38
331
5422
  5
3B4B
331
53C1
  5
3BD4
331
549F
  5
3A70
331
54B2
  5
3A83
331
544E
  5
3AA4
331
5469
  5
3ABF
331
5484
  5
3AE0
331
DDA
  5
3D1E
331
51EE
  5
3C81
331
5201
  5
3C94
331
51D3
  5
3C66
331
52B1
  5
3C02
331
5283
  5
3CFF
331
5296
  5
3BE7
331
521A
  5
3CB6
331
5235
  5
3CD9
331
5313
  5
3C5B
331
532E
  5
3B7E
331
5349
  5
3B99
331
52CA
  5
3C23
331
5300
  5
3C48
331
52AF
  5
3C00
331
5347
  5
3B97
331
5362
  5
3BB2
331
53DA
  5
3B06
331
53F5
  5
3B36
331
5420
  5
3B49
331
53BF
  5
3BD2
331
549D
  5
3A6E
331
54B0
  5
3A81
331
544C
  5
3AA2
331
5467
  5
3ABD
331
5482
  5
3ADE
331
54C9
  5
3A95
331
DD8
  5
3D1C
331
51D1
  5
3C64
331
51EC
  5
3C7F
331
5281
  5
3CFD
331
5294
  5
3BE5
331
5218
  5
3CB4
331
5233
  5
3CD3
331
5311
  5
3C59
331
532C
  5
3B7C
331
52C8
  5
3C21
331
52FE
  5
3C46
331
52AD
  5
3BFE
331
53A3
  5
3BC1
331
5345
  5
3B95
331
5360
  5
3BB0
331
53D8
  5
3B04
331
53F3
  5
3B2F
331
53BD
  5
3BD0
331
549B
  5
3A6C
331
544A
  5
3B69
331
5465
  5
3ABB
331
5480
  5
3ADC
331
5437
  5
3B56
331
54C7
  5
3A93
331
51EA
  5
3C7D
331
527F
  5
3CFB
331
5216
  5
3CB2
331
5292
  5
3BE3
331
530F
  5
3C57
331
532A
  5
3B7A
331
52C6
  5
3C1B
331
52E1
  5
3C3F
331
52AB
  5
3BFC
331
53A1
  5
3BBF
331
5343
  5
3B93
331
535E
  5
3BAE
331
53D6
  5
3B02
331
53F1
  5
3B2D
331
53BB
  5
3BCE
331
5499
  5
3A6A
331
5448
  5
3B67
331
5463
  5
3AB9
331
547E
  5
3ADA
331
53EF
  5
3B2B
331
5435
  5
3B54
331
5497
  5
3A68
331
54C5
  5
3A91
331
51E8
  5
3C7B
331
527D
  5
3CF9
331
5290
  5
3BE1
331
5214
  5
3CB0
331
51E6
  5
3C79
331
524A
  5
3CEE
331
5328
  5
3B78
331
52C4
  5
3C19
331
52DF
  5
3C3D
331
52A9
  5
3BFA
331
530D
  5
3C55
331
5326
  5
3B76
331
5341
  5
3B91
331
535C
  5
3BAC
331
53D4
  5
3B00
331
53B9
  5
3BCC
331
5446
  5
3B65
331
5461
  5
3AB7
331
547C
  5
3AD2
331
53ED
  5
3B25
331
5433
  5
3B52
331
5495
  5
3A66
331
527B
  5
3CF7
331
51FF
  5
3C92
331
5212
  5
3CAE
331
522D
  5
3CD1
331
51E4
  5
3C77
331
5248
  5
3CEC
331
52C2
  5
3C13
331
52DD
  5
3C36
331
52A7
  5
3BF8
331
530B
  5
3C53
331
5324
  5
3B74
331
533F
  5
3B8F
331
535A
  5
3BAA
331
53B7
  5
3BCA
331
53D2
  5
3AFA
331
5444
  5
3B63
331
545F
  5
3AB5
331
547A
  5
3AD0
331
53EB
  5
3B23
331
5431
  5
3B50
331
54AE
  5
3A7F
331
5493
  5
3A64
331
DD6
  5
3D1A
331
5210
  5
3CAC
331
522B
  5
3CCF
331
5246
  5
3CEA
331
51E2
  5
3C75
331
51FD
  5
3C90
331
52DB
  5
3C34
331
5309
  5
3C51
331
52A5
  5
3BF6
331
52C0
  5
3C11
331
5322
  5
3B72
331
533D
  5
3B8D
331
5358
  5
3BA8
331
5393
  5
3BBC
331
53B5
  5
3BC8
331
53D0
  5
3AF2
331
5442
  5
3B61
331
545D
  5
3AB3
331
5478
  5
3ACE
331
53E9
  5
3B21
331
542F
  5
3B4E
331
53CE
  5
3AF0
331
54AC
  5
3A7D
331
54DA
  5
3AA1
331
5476
  5
3ACC
331
5491
  5
3AED
331
DD4
  5
3D18
331
520E
  5
3CAA
331
5229
  5
3CC9
331
5244
  5
3CE8
331
51E0
  5
3C73
331
51FB
  5
3C8E
331
52D9
  5
3C32
331
52A3
  5
3BF4
331
52BE
  5
3C0F
331
5320
  5
3B70
331
533B
  5
3B8B
331
5356
  5
3BA6
331
5391
  5
3BBA
331
53B3
  5
3BC6
331
545B
  5
3AB1
331
53E7
  5
3B1F
331
5402
  5
3B43
331
53CC
  5
3BDF
331
5440
  5
3B5F
331
54AA
  5
3A7B
331
54BD
  5
3A8E
331
54D8
  5
3A9F
331
5474
  5
3ACA
331
548F
  5
3AEB
331
DD2
  5
3D16
331
520C
  5
3CA8
331
5227
  5
3CC7
331
5242
  5
3CE6
331
51DE
  5
3C71
331
51F9
  5
3C8C
331
52D7
  5
3C30
331
528E
  5
3D0A
331
52A1
  5
3BF2
331
52BC
  5
3C0D
331
5339
  5
3B89
331
5354
  5
3BA4
331
538F
  5
3BB8
331
531E
  5
3B6E
331
53B1
  5
3BC4
331
5459
  5
3AAF
331
53E5
  5
3B19
331
5400
  5
3B41
331
53CA
  5
3BDD
331
543E
  5
3B5D
331
54A8
  5
3A79
331
54BB
  5
3A8C
331
54D6
  5
3A9D
331
5457
  5
3AAD
331
5472
  5
3AC8
331
548D
  5
3AE9
331
DE3
  5
3D27
331
520A
  5
3CA6
331
5225
  5
3CC5
331
5240
  5
3CE4
331
51DC
  5
3C6F
331
51F7
  5
3C8A
331
52D5
  5
3C2E
331
52F0
  5
3C43
331
528C
  5
3D08
331
529F
  5
3BF0
331
52BA
  5
3C0B
331
523E
  5
3CE2
331
5269
  5
3CF3
331
5337
  5
3B87
331
5352
  5
3BA2
331
538D
  5
3BB6
331
531C
  5
3B6C
331
53FE
  5
3B3F
331
543C
  5
3B5B
331
53C8
  5
3BDB
331
53E3
  5
3B17
331
54B9
  5
3A8A
331
54D4
  5
3A9B
331
5455
  5
3AAB
331
5470
  5
3AC6
331
548B
  5
3AE7
331
54A6
  5
3A77
331
DE1
  5
3D25
331
5208
  5
3CA4
331
5223
  5
3CC3
331
51DA
  5
3C6D
331
51F5
  5
3C88
331
52D3
  5
3C2C
331
528A
  5
3D06
331
529D
  5
3BEE
331
52B8
  5
3C09
331
523C
  5
3CE0
331
5267
  5
3CF1
331
5335
  5
3B85
331
5350
  5
3BA0
331
538B
  5
3BB4
331
5307
  5
3C4F
331
531A
  5
3C62
331
53FC
  5
3B3D
331
543A
  5
3B59
331
53C6
  5
3BD9
331
53E1
  5
3B15
331
54B7
  5
3A88
331
54D2
  5
3A99
331
5453
  5
3AA9
331
546E
  5
3AC4
331
5489
  5
3AE5
331
54A4
  5
3A75
331
DDF
  5
3D23
331
5221
  5
3CC1
331
51D8
  5
3C6B
331
51F3
  5
3C86
331
5206
  5
3CA2
331
5288
  5
3D04
331
529B
  5
3BEC
331
521F
  5
3CBB
331
523A
  5
3CDE
331
52B6
  5
3C07
331
52D1
  5
3C2A
331
5333
  5
3B83
331
534E
  5
3B9E
331
5305
  5
3C4D
331
5318
  5
3C60
331
52CF
  5
3C28
331
53FA
  5
3B3B
331
5438
  5
3B57
331
53C4
  5
3BD7
331
53DF
  5
3B0F
331
54B5
  5
3A86
331
546C
  5
3AC2
331
5487
  5
3AE3
331
54A2
  5
3A73
331
5451
  5
3AA7
331
DDD
  5
3D21
331
51D6
  5
3C69
331
51F1
  5
3C84
331
5204
  5
3C9C
331
5286
  5
3D02
331
5299
  5
3BEA
331
521D
  5
3CB9
331
5238
  5
3CDC
331
52B4
  5
3C05
331
5331
  5
3B81
331
534C
  5
3B9C
331
5303
  5
3C4B
331
5316
  5
3C5E
331
52CD
  5
3C26
331
53F8
  5
3B39
331
53C2
  5
3BD5
331
53DD
  5
3B09
331
54B3
  5
3A84
331
546A
  5
3AC0
331
5485
  5
3AE1
331
54A0
  5
3A71
331
544F
  5
3AA5
331
DDB
  5
3D1F
331
51D4
  5
3C67
331
51EF
  5
3C82
331
5202
  5
3C95
331
5297
  5
3BE8
331
52B2
  5
3C03
331
521B
  5
3CB7
331
5236
  5
3CDA
331
5284
  5
3D00
331
534A
  5
3B9A
331
5301
  5
3C49
331
5314
  5
3C5C
331
52CB
  5
3C24
331
532F
  5
3B7F
331
53F6
  5
3B37
331
5421
  5
3B4A
331
53C0
  5
3BD3
331
53DB
  5
3B07
331
54B1
  5
3A82
331
5468
  5
3ABE
331
5483
  5
3ADF
331
549E
  5
3A6F
331
541F
  5
3B48
331
544D
  5
3AA3
331
54CA
  5
3A96
331
DD9
  5
3D1D
331
51D2
  5
3C65
331
51ED
  5
3C80
331
5200
  5
3C93
331
5295
  5
3BE6
331
52B0
  5
3C01
331
5219
  5
3CB5
331
5234
  5
3CD4
331
5282
  5
3CFE
331
5348
  5
3B98
331
52FF
  5
3C47
331
5312
  5
3C5A
331
52AE
  5
3BFF
331
52C9
  5
3C22
331
532D
  5
3B7D
331
5346
  5
3B96
331
5361
  5
3BB1
331
53BE
  5
3BD1
331
53D9
  5
3B05
331
53F4
  5
3B30
331
5466
  5
3ABC
331
5481
  5
3ADD
331
549C
  5
3A6D
331
544B
  5
3B6A
331
54C8
  5
3A94
331
51D0
  5
3C63
331
51EB
  5
3C7E
331
5293
  5
3BE4
331
5280
  5
3CFC
331
5217
  5
3CB3
331
5310
  5
3C58
331
532B
  5
3B7B
331
52AC
  5
3BFD
331
52C7
  5
3C1C
331
52E2
  5
3C40
331
5344
  5
3B94
331
535F
  5
3BAF
331
53A2
  5
3BC0
331
53BC
  5
3BCF
331
53D7
  5
3B03
331
53F2
  5
3B2E
331
5464
  5
3ABA
331
547F
  5
3ADB
331
549A
  5
3A6B
331
5436
  5
3B55
331
5449
  5
3B68
331
54C6
  5
3A92
331
51E9
  5
3C7C
331
5291
  5
3BE2
331
524B
  5
3CEF
331
527E
  5
3CFA
331
51E7
  5
3C7A
331
5215
  5
3CB1
331
530E
  5
3C56
331
5329
  5
3B79
331
52AA
  5
3BFB
331
52C5
  5
3C1A
331
52E0
  5
3C3E
331
5342
  5
3B92
331
535D
  5
3BAD
331
5327
  5
3B77
331
53BA
  5
3BCD
331
53D5
  5
3B01
331
53F0
  5
3B2C
331
547D
  5
3AD3
331
5498
  5
3A69
331
5434
  5
3B53
331
5447
  5
3B66
331
53EE
  5
3B2A
331
5462
  5
3AB8
331
54C4
  5
3A90
331
5496
  5
3A67
331
5249
  5
3CED
331
527C
  5
3CF8
331
51E5
  5
3C78
331
5213
  5
3CAF
331
530C
  5
3C54
331
52A8
  5
3BF9
331
52C3
  5
3C14
331
52DE
  5
3C3C
331
535B
  5
3BAB
331
5325
  5
3B75
331
5340
  5
3B90
331
53B8
  5
3BCB
331
53D3
  5
3AFF
331
547B
  5
3AD1
331
5432
  5
3B51
331
5445
  5
3B64
331
53EC
  5
3B24
331
5460
  5
3AB6
331
5494
  5
3A65
331
54AF
  5
3A80
331
DD7
  5
3D1B
331
522C
  5
3CD0
331
5247
  5
3CEB
331
527A
  5
3CF6
331
51E3
  5
3C76
331
51FE
  5
3C91
331
5211
  5
3CAD
331
530A
  5
3C52
331
52A6
  5
3BF7
331
52C1
  5
3C12
331
52DC
  5
3C35
331
5359
  5
3BA9
331
5394
  5
3BBD
331
5323
  5
3B73
331
533E
  5
3B8E
331
53B6
  5
3BC9
331
53D1
  5
3AF3
331
5479
  5
3ACF
331
5430
  5
3B4F
331
5443
  5
3B62
331
53CF
  5
3AF1
331
53EA
  5
3B22
331
545E
  5
3AB4
331
5477
  5
3ACD
331
5492
  5
3AEE
331
54AD
  5
3A7E
331
DD5
  5
3D19
331
522A
  5
3CCA
331
5245
  5
3CE9
331
51E1
  5
3C74
331
51FC
  5
3C8F
331
520F
  5
3CAB
331
5308
  5
3C50
331
52A4
  5
3BF5
331
52BF
  5
3C10
331
52DA
  5
3C33
331
5357
  5
3BA7
331
5392
  5
3BBB
331
5321
  5
3B71
331
533C
  5
3B8C
331
53B4
  5
3BC7
331
542E
  5
3B4D
331
5441
  5
3B60
331
545C
  5
3AB2
331
53CD
  5
3AEF
331
53E8
  5
3B20
331
5403
  5
3B44
331
54D9
  5
3AA0
331
5475
  5
3ACB
331
5490
  5
3AEC
331
54AB
  5
3A7C
331
DD3
  5
3D17
331
5243
  5
3CE7
331
51DF
  5
3C72
331
51FA
  5
3C8D
331
520D
  5
3CA9
331
5228
  5
3CC8
331
52A2
  5
3BF3
331
52BD
  5
3C0E
331
52D8
  5
3C31
331
528F
  5
3BE0
331
5355
  5
3BA5
331
5390
  5
3BB9
331
531F
  5
3B6F
331
533A
  5
3B8A
331
53B2
  5
3BC5
331
543F
  5
3B5E
331
545A
  5
3AB0
331
53CB
  5
3BDE
331
53E6
  5
3B1E
331
5401
  5
3B42
331
54D7
  5
3A9E
331
548E
  5
3AEA
331
54A9
  5
3A7A
331
54BC
  5
3A8D
331
5473
  5
3AC9
331
DE4
  5
3D28
331
5241
  5
3CE5
331
51DD
  5
3C70
331
51F8
  5
3C8B
331
520B
  5
3CA7
331
5226
  5
3CC6
331
52A0
  5
3BF1
331
52BB
  5
3C0C
331
52D6
  5
3C2F
331
523F
  5
3CE3
331
528D
  5
3D09
331
52F1
  5
3C44
331
5353
  5
3BA3
331
538E
  5
3BB7
331
531D
  5
3B6D
331
5338
  5
3B88
331
52EF
  5
3C42
331
53B0
  5
3BC3
331
543D
  5
3B5C
331
5458
  5
3AAE
331
53C9
  5
3BDC
331
53E4
  5
3B18
331
53FF
  5
3B40
331
54D5
  5
3A9C
331
548C
  5
3AE8
331
54A7
  5
3A78
331
54BA
  5
3A8B
331
5456
  5
3AAC
331
5471
  5
3AC7
331
DE2
  5
3D26
331
51F6
  5
3C89
331
5209
  5
3CA5
331
5224
  5
3CC4
331
51DB
  5
3C6E
331
52B9
  5
3C0A
331
52D4
  5
3C2D
331
523D
  5
3CE1
331
5268
  5
3CF2
331
528B
  5
3D07
331
529E
  5
3BEF
331
538C
  5
3BB5
331
531B
  5
3B6B
331
5336
  5
3B86
331
5351
  5
3BA1
331
543B
  5
3B5A
331
53C7
  5
3BDA
331
53E2
  5
3B16
331
53FD
  5
3B3E
331
54D3
  5
3A9A
331
548A
  5
3AE6
331
54A5
  5
3A76
331
54B8
  5
3A89
331
5454
  5
3AAA
331
546F
  5
3AC5
331
DE0
  5
3D24
331
51F4
  5
3C87
331
5207
  5
3CA3
331
5222
  5
3CC2
331
51D9
  5
3C6C
331
52B7
  5
3C08
331
52D2
  5
3C2B
331
523B
  5
3CDF
331
5289
  5
3D05
331
529C
  5
3BED
331
5306
  5
3C4E
331
5319
  5
3C61
331
5334
  5
3B84
331
534F
  5
3B9F
331
5439
  5
3B58
331
53C5
  5
3BD8
331
53E0
  5
3B14
331
53FB
  5
3B3C
331
5488
  5
3AE4
331
54A3
  5
3A74
331
54B6
  5
3A87
331
5452
  5
3AA8
331
546D
  5
3AC3
331
54D1
  5
3A98
331
DDE
  5
3D22
331
51F2
  5
3C85
331
5205
  5
3CA1
331
5220
  5
3CBC
331
51D7
  5
3C6A
331
52B5
  5
3C06
331
52D0
  5
3C29
331
5287
  5
3D03
331
529A
  5
3BEB
331
521E
  5
3CBA
331
5239
  5
3CDD
331
5317
  5
3C5F
331
5332
  5
3B82
331
534D
  5
3B9D
331
52CE
  5
3C27
331
5304
  5
3C4C
331
53C3
  5
3BD6
331
53DE
  5
3B0A
331
53F9
  5
3B3A
331
5486
  5
3AE2
331
54A1
  5
3A72
331
54B4
  5
3A85
331
5450
  5
3AA6
331
546B
  5
3AC1
331
DDC
  5
3D20
331
51F0
  5
3C83
331
5203
  5
3C96
331
51D5
  5
3C68
331
52B3
  5
3C04
331
5285
  5
3D01
331
5298
  5
3BE9
331
521C
  5
3CB8
331
5237
  5
3CDB
331
5315
  5
3C5D
331
5330
  5
3B80
331
534B
  5
3B9B
331
52CC
  5
3C25
331
5302
  5
3C4A
  0
LAYOUT
  5
21
102
{ACAD_XDICTIONARY
360
6393
102
}
102
{ACAD_REACTORS
330
1E
102
}
330
1E
100
AcDbPlotSettings
  1

  2

  4

  6

 40
0.0
 41
0.0
 42
0.0
 43
0.0
 44
0.0
 45
0.0
 46
0.0
 47
0.0
 48
0.0
 49
0.0
140
0.0
141
0.0
142
1.0
143
1.0
 70
     0
 72
     0
 73
     0
 74
     0
  7

 75
     0
147
1.0
148
0.0
149
0.0
100
AcDbLayout
  1
Layout1
 70
     0
 71
     1
 10
0.0
 20
0.0
 11
12.0
 21
9.0
 12
0.0
 22
0.0
 32
0.0
 14
1.000000000000000E+20
 24
1.000000000000000E+20
 34
1.000000000000000E+20
 15
-1.000000000000000E+20
 25
-1.000000000000000E+20
 35
-1.000000000000000E+20
146
0.0
 13
0.0
 23
0.0
 33
0.0
 16
1.0
 26
0.0
 36
0.0
 17
0.0
 27
1.0
 37
0.0
 76
     0
330
B
  0
LAYOUT
  5
20
102
{ACAD_XDICTIONARY
360
6391
102
}
102
{ACAD_REACTORS
330
1E
102
}
330
1E
100
AcDbPlotSettings
  1

  2

  4

  6

 40
0.0
 41
0.0
 42
0.0
 43
0.0
 44
0.0
 45
0.0
 46
0.0
 47
0.0
 48
0.0
 49
0.0
140
0.0
141
0.0
142
1.0
143
1.0
 70
  1024
 72
     0
 73
     0
 74
     0
  7

 75
     0
147
1.0
148
0.0
149
0.0
100
AcDbLayout
  1
Model
 70
     0
 71
     0
 10
0.0
 20
0.0
 11
0.0
 21
0.0
 12
0.0
 22
0.0
 32
0.0
 14
0.0
 24
0.0
 34
0.0
 15
0.0
 25
0.0
 35
0.0
146
0.0
 13
0.0
 23
0.0
 33
0.0
 16
0.0
 26
0.0
 36
0.0
 17
0.0
 27
0.0
 37
0.0
 76
     0
330
A
331
15
  0
MATERIAL
  5
3155
102
{ACAD_XDICTIONARY
360
3156
102
}
102
{ACAD_REACTORS
330
314C
102
}
330
314C
100
AcDbMaterial
  1
ByBlock
 72
     0
 43
0.0208333333333333
 43
0.0
 43
0.0
 43
0.0
 43
0.0
 43
0.0208333333333333
 43
0.0
 43
0.0
 43
0.0
 43
0.0
 43
1.0
 43
0.0
 43
0.0
 43
0.0
 43
0.0
 43
1.0
 77
     0
 47
0.0208333333333333
 47
0.0
 47
0.0
 47
0.0
 47
0.0
 47
0.0208333333333333
 47
0.0
 47
0.0
 47
0.0
 47
0.0
 47
1.0
 47
0.0
 47
0.0
 47
0.0
 47
0.0
 47
1.0
171
     0
 49
0.0208333333333333
 49
0.0
 49
0.0
 49
0.0
 49
0.0
 49
0.0208333333333333
 49
0.0
 49
0.0
 49
0.0
 49
0.0
 49
1.0
 49
0.0
 49
0.0
 49
0.0
 49
0.0
 49
1.0
175
     0
142
0.0208333333333333
142
0.0
142
0.0
142
0.0
142
0.0
142
0.0208333333333333
142
0.0
142
0.0
142
0.0
142
0.0
142
1.0
142
0.0
142
0.0
142
0.0
142
0.0
142
1.0
179
     0
144
0.0208333333333333
144
0.0
144
0.0
144
0.0
144
0.0
144
0.0208333333333333
144
0.0
144
0.0
144
0.0
144
0.0
144
1.0
144
0.0
144
0.0
144
0.0
144
0.0
144
1.0
147
0.0208333333333333
147
0.0
147
0.0
147
0.0
147
0.0
147
0.0208333333333333
147
0.0
147
0.0
147
0.0
147
0.0
147
1.0
147
0.0
147
0.0
147
0.0
147
0.0
147
1.0
  0
MATERIAL
  5
314D
102
{ACAD_XDICTIONARY
360
314E
102
}
102
{ACAD_REACTORS
330
314C
102
}
330
314C
100
AcDbMaterial
  1
ByLayer
 72
     0
 43
0.0208333333333333
 43
0.0
 43
0.0
 43
0.0
 43
0.0
 43
0.0208333333333333
 43
0.0
 43
0.0
 43
0.0
 43
0.0
 43
1.0
 43
0.0
 43
0.0
 43
0.0
 43
0.0
 43
1.0
 77
     0
 47
0.0208333333333333
 47
0.0
 47
0.0
 47
0.0
 47
0.0
 47
0.0208333333333333
 47
0.0
 47
0.0
 47
0.0
 47
0.0
 47
1.0
 47
0.0
 47
0.0
 47
0.0
 47
0.0
 47
1.0
171
     0
 49
0.0208333333333333
 49
0.0
 49
0.0
 49
0.0
 49
0.0
 49
0.0208333333333333
 49
0.0
 49
0.0
 49
0.0
 49
0.0
 49
1.0
 49
0.0
 49
0.0
 49
0.0
 49
0.0
 49
1.0
175
     0
142
0.0208333333333333
142
0.0
142
0.0
142
0.0
142
0.0
142
0.0208333333333333
142
0.0
142
0.0
142
0.0
142
0.0
142
1.0
142
0.0
142
0.0
142
0.0
142
0.0
142
1.0
179
     0
144
0.0208333333333333
144
0.0
144
0.0
144
0.0
144
0.0
144
0.0208333333333333
144
0.0
144
0.0
144
0.0
144
0.0
144
1.0
144
0.0
144
0.0
144
0.0
144
0.0
144
1.0
147
0.0208333333333333
147
0.0
147
0.0
147
0.0
147
0.0
147
0.0208333333333333
147
0.0
147
0.0
147
0.0
147
0.0
147
1.0
147
0.0
147
0.0
147
0.0
147
0.0
147
1.0
  0
MATERIAL
  5
315D
102
{ACAD_XDICTIONARY
360
315E
102
}
102
{ACAD_REACTORS
330
314C
102
}
330
314C
100
AcDbMaterial
  1
Global
 72
     0
 43
0.0208333333333333
 43
0.0
 43
0.0
 43
0.0
 43
0.0
 43
0.0208333333333333
 43
0.0
 43
0.0
 43
0.0
 43
0.0
 43
1.0
 43
0.0
 43
0.0
 43
0.0
 43
0.0
 43
1.0
 77
     0
 47
0.0208333333333333
 47
0.0
 47
0.0
 47
0.0
 47
0.0
 47
0.0208333333333333
 47
0.0
 47
0.0
 47
0.0
 47
0.0
 47
1.0
 47
0.0
 47
0.0
 47
0.0
 47
0.0
 47
1.0
171
     0
 49
0.0208333333333333
 49
0.0
 49
0.0
 49
0.0
 49
0.0
 49
0.0208333333333333
 49
0.0
 49
0.0
 49
0.0
 49
0.0
 49
1.0
 49
0.0
 49
0.0
 49
0.0
 49
0.0
 49
1.0
175
     0
142
0.0208333333333333
142
0.0
142
0.0
142
0.0
142
0.0
142
0.0208333333333333
142
0.0
142
0.0
142
0.0
142
0.0
142
1.0
142
0.0
142
0.0
142
0.0
142
0.0
142
1.0
179
     0
144
0.0208333333333333
144
0.0
144
0.0
144
0.0
144
0.0
144
0.0208333333333333
144
0.0
144
0.0
144
0.0
144
0.0
144
1.0
144
0.0
144
0.0
144
0.0
144
0.0
144
1.0
147
0.0208333333333333
147
0.0
147
0.0
147
0.0
147
0.0
147
0.0208333333333333
147
0.0
147
0.0
147
0.0
147
0.0
147
1.0
147
0.0
147
0.0
147
0.0
147
0.0
147
1.0
  0
MLEADERSTYLE
  5
319C
102
{ACAD_REACTORS
330
319B
102
}
330
319B
100
AcDbMLeaderStyle
170
     2
171
     1
172
     0
 90
        2
 40
0.0
 41
0.0
173
     1
 91
-1056964608
340
11
 92
       -2
290
     1
 42
2.0
291
     1
 43
0.36
  3
Standard
 44
4.0
300

342
17
174
     1
178
     6
175
     1
176
     0
 93
-1056964608
 45
4.0
292
     0
297
     0
 46
4.0
 94
-1056964608
 47
1.0
 49
1.0
140
1.0
293
     1
141
0.0
294
     1
177
     0
142
1.0
295
     0
296
     0
143
0.125
1001
ACAD_MLEADERVER
1070
     2
  0
MLINESTYLE
  5
1C
102
{ACAD_REACTORS
330
1B
102
}
330
1B
100
AcDbMlineStyle
  2
STANDARD
 70
     0
  3

 62
     0
 51
90.0
 52
90.0
 71
     2
 49
0.5
 62
   256
  6
BYLAYER
 49
-0.5
 62
   256
  6
BYLAYER
  0
ACDBPLACEHOLDER
  5
1D
102
{ACAD_REACTORS
330
1F
102
}
330
1F
  0
SCALE
  5
317A
102
{ACAD_REACTORS
330
3179
102
}
330
3179
100
AcDbScale
 70
     0
300
1:1
140
1.0
141
1.0
290
     1
  0
SCALE
  5
317B
102
{ACAD_REACTORS
330
3179
102
}
330
3179
100
AcDbScale
 70
     0
300
1:2
140
1.0
141
2.0
290
     0
  0
SCALE
  5
317C
102
{ACAD_REACTORS
330
3179
102
}
330
3179
100
AcDbScale
 70
     0
300
1:4
140
1.0
141
4.0
290
     0
  0
SCALE
  5
317D
102
{ACAD_REACTORS
330
3179
102
}
330
3179
100
AcDbScale
 70
     0
300
1:5
140
1.0
141
5.0
290
     0
  0
SCALE
  5
317E
102
{ACAD_REACTORS
330
3179
102
}
330
3179
100
AcDbScale
 70
     0
300
1:8
140
1.0
141
8.0
290
     0
  0
SCALE
  5
317F
102
{ACAD_REACTORS
330
3179
102
}
330
3179
100
AcDbScale
 70
     0
300
1:10
140
1.0
141
10.0
290
     0
  0
SCALE
  5
3180
102
{ACAD_REACTORS
330
3179
102
}
330
3179
100
AcDbScale
 70
     0
300
1:16
140
1.0
141
16.0
290
     0
  0
SCALE
  5
3181
102
{ACAD_REACTORS
330
3179
102
}
330
3179
100
AcDbScale
 70
     0
300
1:20
140
1.0
141
20.0
290
     0
  0
SCALE
  5
3182
102
{ACAD_REACTORS
330
3179
102
}
330
3179
100
AcDbScale
 70
     0
300
1:30
140
1.0
141
30.0
290
     0
  0
SCALE
  5
3183
102
{ACAD_REACTORS
330
3179
102
}
330
3179
100
AcDbScale
 70
     0
300
1:40
140
1.0
141
40.0
290
     0
  0
SCALE
  5
3184
102
{ACAD_REACTORS
330
3179
102
}
330
3179
100
AcDbScale
 70
     0
300
1:50
140
1.0
141
50.0
290
     0
  0
SCALE
  5
3185
102
{ACAD_REACTORS
330
3179
102
}
330
3179
100
AcDbScale
 70
     0
300
1:100
140
1.0
141
100.0
290
     0
  0
SCALE
  5
3186
102
{ACAD_REACTORS
330
3179
102
}
330
3179
100
AcDbScale
 70
     0
300
2:1
140
2.0
141
1.0
290
     0
  0
SCALE
  5
3187
102
{ACAD_REACTORS
330
3179
102
}
330
3179
100
AcDbScale
 70
     0
300
4:1
140
4.0
141
1.0
290
     0
  0
SCALE
  5
3188
102
{ACAD_REACTORS
330
3179
102
}
330
3179
100
AcDbScale
 70
     0
300
8:1
140
8.0
141
1.0
290
     0
  0
SCALE
  5
3189
102
{ACAD_REACTORS
330
3179
102
}
330
3179
100
AcDbScale
 70
     0
300
10:1
140
10.0
141
1.0
290
     0
  0
SCALE
  5
318A
102
{ACAD_REACTORS
330
3179
102
}
330
3179
100
AcDbScale
 70
     0
300
100:1
140
100.0
141
1.0
290
     0
  0
SCALE
  5
318B
102
{ACAD_REACTORS
330
3179
102
}
330
3179
100
AcDbScale
 70
     0
300
1/128" = 1'-0"
140
0.0078125
141
12.0
290
     0
  0
SCALE
  5
318C
102
{ACAD_REACTORS
330
3179
102
}
330
3179
100
AcDbScale
 70
     0
300
1/64" = 1'-0"
140
0.015625
141
12.0
290
     0
  0
SCALE
  5
318D
102
{ACAD_REACTORS
330
3179
102
}
330
3179
100
AcDbScale
 70
     0
300
1/32" = 1'-0"
140
0.03125
141
12.0
290
     0
  0
SCALE
  5
318E
102
{ACAD_REACTORS
330
3179
102
}
330
3179
100
AcDbScale
 70
     0
300
1/16" = 1'-0"
140
0.0625
141
12.0
290
     0
  0
SCALE
  5
318F
102
{ACAD_REACTORS
330
3179
102
}
330
3179
100
AcDbScale
 70
     0
300
3/32" = 1'-0"
140
0.09375
141
12.0
290
     0
  0
SCALE
  5
3190
102
{ACAD_REACTORS
330
3179
102
}
330
3179
100
AcDbScale
 70
     0
300
1/8" = 1'-0"
140
0.125
141
12.0
290
     0
  0
SCALE
  5
3191
102
{ACAD_REACTORS
330
3179
102
}
330
3179
100
AcDbScale
 70
     0
300
3/16" = 1'-0"
140
0.1875
141
12.0
290
     0
  0
SCALE
  5
3192
102
{ACAD_REACTORS
330
3179
102
}
330
3179
100
AcDbScale
 70
     0
300
1/4" = 1'-0"
140
0.25
141
12.0
290
     0
  0
SCALE
  5
3193
102
{ACAD_REACTORS
330
3179
102
}
330
3179
100
AcDbScale
 70
     0
300
3/8" = 1'-0"
140
0.375
141
12.0
290
     0
  0
SCALE
  5
3194
102
{ACAD_REACTORS
330
3179
102
}
330
3179
100
AcDbScale
 70
     0
300
1/2" = 1'-0"
140
0.5
141
12.0
290
     0
  0
SCALE
  5
3195
102
{ACAD_REACTORS
330
3179
102
}
330
3179
100
AcDbScale
 70
     0
300
3/4" = 1'-0"
140
0.75
141
12.0
290
     0
  0
SCALE
  5
3196
102
{ACAD_REACTORS
330
3179
102
}
330
3179
100
AcDbScale
 70
     0
300
1" = 1'-0"
140
1.0
141
12.0
290
     0
  0
SCALE
  5
3197
102
{ACAD_REACTORS
330
3179
102
}
330
3179
100
AcDbScale
 70
     0
300
1-1/2" = 1'-0"
140
1.5
141
12.0
290
     0
  0
SCALE
  5
3198
102
{ACAD_REACTORS
330
3179
102
}
330
3179
100
AcDbScale
 70
     0
300
3" = 1'-0"
140
3.0
141
12.0
290
     0
  0
SCALE
  5
3199
102
{ACAD_REACTORS
330
3179
102
}
330
3179
100
AcDbScale
 70
     0
300
6" = 1'-0"
140
6.0
141
12.0
290
     0
  0
SCALE
  5
319A
102
{ACAD_REACTORS
330
3179
102
}
330
3179
100
AcDbScale
 70
     0
300
1'-0" = 1'-0"
140
12.0
141
12.0
290
     0
  0
TABLESTYLE
  5
3178
102
{ACAD_XDICTIONARY
360
6308
102
}
102
{ACAD_REACTORS
330
3177
102
}
330
3177
100
AcDbTableStyle
  3
Standard
 70
     0
 71
     0
 40
1.5
 41
1.5
280
     0
281
     0
  7
Standard
140
4.5
170
     2
 62
     0
 63
     7
283
     0
274
    -2
284
     1
 64
     0
275
    -2
285
     1
 65
     0
276
    -2
286
     1
 66
     0
277
    -2
287
     1
 67
     0
278
    -2
288
     1
 68
     0
279
    -2
289
     1
 69
     0
  7
Standard
140
6.0
170
     5
 62
     0
 63
     7
283
     0
274
    -2
284
     1
 64
     0
275
    -2
285
     1
 65
     0
276
    -2
286
     1
 66
     0
277
    -2
287
     1
 67
     0
278
    -2
288
     1
 68
     0
279
    -2
289
     1
 69
     0
  7
Standard
140
4.5
170
     5
 62
     0
 63
     7
283
     0
274
    -2
284
     1
 64
     0
275
    -2
285
     1
 65
     0
276
    -2
286
     1
 66
     0
277
    -2
287
     1
 67
     0
278
    -2
288
     1
 68
     0
279
    -2
289
     1
 69
     0
  0
VISUALSTYLE
  5
316B
102
{ACAD_REACTORS
330
3165
102
}
330
3165
100
AcDbVisualStyle
  2
2dWireframe
 70
     4
 71
     0
 72
     2
 73
     0
 90
        0
 40
-0.6
 41
-30.0
 62
     5
 63
     7
 74
     1
 91
        4
 64
     7
 65
   257
 75
     1
175
     1
 42
1.0
 92
        0
 66
   257
 43
1.0
 76
     1
 77
     6
 78
     2
 67
     7
 79
     5
170
     0
171
     0
290
     0
174
     0
 93
        1
 44
0.0
173
     0
291
     0
 45
0.0
1001
ACAD
1000
AcDbSavedByObjectVersion
1070
     0
1000
AcDbSavedByObjectVersion
1070
     0
1000
AcDbSavedByObjectVersion
1070
     0
  0
VISUALSTYLE
  5
316D
102
{ACAD_REACTORS
330
3165
102
}
330
3165
100
AcDbVisualStyle
  2
3D Hidden
 70
     6
 71
     1
 72
     2
 73
     2
 90
        0
 40
-0.6
 41
-30.0
 62
     5
 63
     7
 74
     2
 91
        2
 64
     7
 65
   257
 75
     2
175
     1
 42
40.0
 92
        0
 66
   257
 43
1.0
 76
     1
 77
     6
 78
     2
 67
     7
 79
     3
170
     0
171
     0
290
     0
174
     0
 93
        1
 44
0.0
173
     0
291
     0
 45
0.0
1001
ACAD
1000
AcDbSavedByObjectVersion
1070
     0
1000
AcDbSavedByObjectVersion
1070
     0
1000
AcDbSavedByObjectVersion
1070
     0
  0
VISUALSTYLE
  5
316C
102
{ACAD_REACTORS
330
3165
102
}
330
3165
100
AcDbVisualStyle
  2
3dWireframe
 70
     5
 71
     0
 72
     2
 73
     0
 90
        0
 40
-0.6
 41
-30.0
 62
     5
 63
     7
 74
     1
 91
        4
 64
     7
 65
   257
 75
     1
175
     1
 42
1.0
 92
        0
 66
   257
 43
1.0
 76
     1
 77
     6
 78
     2
 67
     7
 79
     5
170
     0
171
     0
290
     0
174
     0
 93
        1
 44
0.0
173
     0
291
     0
 45
0.0
1001
ACAD
1000
AcDbSavedByObjectVersion
1070
     0
1000
AcDbSavedByObjectVersion
1070
     0
1000
AcDbSavedByObjectVersion
1070
     0
  0
VISUALSTYLE
  5
316A
102
{ACAD_REACTORS
330
3165
102
}
330
3165
100
AcDbVisualStyle
  2
Basic
 70
     7
 71
     1
 72
     0
 73
     1
 90
        0
 40
-0.6
 41
-30.0
 62
     5
 63
     7
 74
     0
 91
        4
 64
     7
 65
   257
 75
     1
175
     1
 42
1.0
 92
        8
 66
     7
 43
1.0
 76
     1
 77
     6
 78
     2
 67
     7
 79
     5
170
     0
171
     0
290
     0
174
     0
 93
        1
 44
0.0
173
     0
291
     1
 45
0.0
1001
ACAD
1000
AcDbSavedByObjectVersion
1070
     0
1000
AcDbSavedByObjectVersion
1070
     0
1000
AcDbSavedByObjectVersion
1070
     0
  0
VISUALSTYLE
  5
3171
102
{ACAD_REACTORS
330
3165
102
}
330
3165
100
AcDbVisualStyle
  2
Brighten
 70
    12
 71
     2
 72
     2
 73
     0
 90
        0
 40
-0.6
 41
-30.0
 62
     5
 63
     7
 74
     1
 91
        4
 64
     7
 65
   257
 75
     1
175
     1
 42
1.0
 92
        8
 66
     7
 43
1.0
 76
     1
 77
     6
 78
     2
 67
     7
 79
     5
170
     0
171
     0
290
     0
174
     0
 93
        1
 44
50.0
173
     0
291
     1
 45
0.0
1001
ACAD
1000
AcDbSavedByObjectVersion
1070
     0
1000
AcDbSavedByObjectVersion
1070
     0
1000
AcDbSavedByObjectVersion
1070
     0
  0
VISUALSTYLE
  5
3175
102
{ACAD_REACTORS
330
3165
102
}
330
3165
100
AcDbVisualStyle
  2
ColorChange
 70
    16
 71
     2
 72
     2
 73
     3
 90
        0
 40
-0.6
 41
-30.0
 62
     5
 63
     8
 74
     1
 91
        4
 64
     7
 65
   257
 75
     1
175
     1
 42
1.0
 92
        8
 66
     8
 43
1.0
 76
     1
 77
     6
 78
     2
 67
     7
 79
     5
170
     0
171
     0
290
     0
174
     0
 93
        1
 44
0.0
173
     0
291
     1
 45
0.0
1001
ACAD
1000
AcDbSavedByObjectVersion
1070
     0
1000
AcDbSavedByObjectVersion
1070
     0
1000
AcDbSavedByObjectVersion
1070
     0
  0
VISUALSTYLE
  5
316E
102
{ACAD_REACTORS
330
3165
102
}
330
3165
100
AcDbVisualStyle
  2
Conceptual
 70
     9
 71
     3
 72
     2
 73
     0
 90
        0
 40
-0.6
 41
-30.0
 62
     5
 63
     7
 74
     2
 91
        2
 64
     7
 65
   257
 75
     1
175
     1
 42
40.0
 92
        8
 66
     7
 43
1.0
 76
     1
 77
     6
 78
     2
 67
     7
 79
     3
170
     0
171
     0
290
     0
174
     0
 93
        1
 44
0.0
173
     0
291
     0
 45
0.0
1001
ACAD
1000
AcDbSavedByObjectVersion
1070
     0
1000
AcDbSavedByObjectVersion
1070
     0
1000
AcDbSavedByObjectVersion
1070
     0
  0
VISUALSTYLE
  5
3170
102
{ACAD_REACTORS
330
3165
102
}
330
3165
100
AcDbVisualStyle
  2
Dim
 70
    11
 71
     2
 72
     2
 73
     0
 90
        0
 40
-0.6
 41
-30.0
 62
     5
 63
     7
 74
     1
 91
        4
 64
     7
 65
   257
 75
     1
175
     1
 42
1.0
 92
        8
 66
     7
 43
1.0
 76
     1
 77
     6
 78
     2
 67
     7
 79
     5
170
     0
171
     0
290
     0
174
     0
 93
        1
 44
-50.0
173
     0
291
     1
 45
0.0
1001
ACAD
1000
AcDbSavedByObjectVersion
1070
     0
1000
AcDbSavedByObjectVersion
1070
     0
1000
AcDbSavedByObjectVersion
1070
     0
  0
VISUALSTYLE
  5
3174
102
{ACAD_REACTORS
330
3165
102
}
330
3165
100
AcDbVisualStyle
  2
Facepattern
 70
    15
 71
     2
 72
     2
 73
     0
 90
        0
 40
-0.6
 41
-30.0
 62
     5
 63
     7
 74
     1
 91
        4
 64
     7
 65
   257
 75
     1
175
     1
 42
1.0
 92
        8
 66
     7
 43
1.0
 76
     1
 77
     6
 78
     2
 67
     7
 79
     5
170
     0
171
     0
290
     0
174
     0
 93
        1
 44
0.0
173
     0
291
     1
 45
0.0
1001
ACAD
1000
AcDbSavedByObjectVersion
1070
     0
1000
AcDbSavedByObjectVersion
1070
     0
1000
AcDbSavedByObjectVersion
1070
     0
  0
VISUALSTYLE
  5
3166
102
{ACAD_REACTORS
330
3165
102
}
330
3165
100
AcDbVisualStyle
  2
Flat
 70
     0
 71
     2
 72
     1
 73
     1
 90
        2
 40
-0.6
 41
30.0
 62
     5
 63
     7
 74
     0
 91
        4
 64
     7
 65
   257
 75
     1
175
     1
 42
1.0
 92
        8
 66
     7
 43
1.0
 76
     1
 77
     6
 78
     2
 67
     7
 79
     5
170
     0
171
     0
290
     0
174
     0
 93
       13
 44
0.0
173
     0
291
     1
 45
0.0
1001
ACAD
1000
AcDbSavedByObjectVersion
1070
     0
1000
AcDbSavedByObjectVersion
1070
     0
1000
AcDbSavedByObjectVersion
1070
     0
  0
VISUALSTYLE
  5
3167
102
{ACAD_REACTORS
330
3165
102
}
330
3165
100
AcDbVisualStyle
  2
FlatWithEdges
 70
     1
 71
     2
 72
     1
 73
     1
 90
        2
 40
-0.6
 41
30.0
 62
     5
 63
     7
 74
     1
 91
        4
 64
     7
 65
   257
 75
     1
175
     1
 42
1.0
 92
        0
 66
   257
 43
1.0
 76
     1
 77
     6
 78
     2
 67
     7
 79
     5
170
     0
171
     0
290
     0
174
     0
 93
       13
 44
0.0
173
     0
291
     1
 45
0.0
1001
ACAD
1000
AcDbSavedByObjectVersion
1070
     0
1000
AcDbSavedByObjectVersion
1070
     0
1000
AcDbSavedByObjectVersion
1070
     0
  0
VISUALSTYLE
  5
3168
102
{ACAD_REACTORS
330
3165
102
}
330
3165
100
AcDbVisualStyle
  2
Gouraud
 70
     2
 71
     2
 72
     2
 73
     1
 90
        2
 40
-0.6
 41
30.0
 62
     5
 63
     7
 74
     0
 91
        4
 64
     7
 65
   257
 75
     1
175
     1
 42
1.0
 92
        0
 66
     7
 43
1.0
 76
     1
 77
     6
 78
     2
 67
     7
 79
     5
170
     0
171
     0
290
     0
174
     0
 93
       13
 44
0.0
173
     0
291
     1
 45
0.0
1001
ACAD
1000
AcDbSavedByObjectVersion
1070
     0
1000
AcDbSavedByObjectVersion
1070
     0
1000
AcDbSavedByObjectVersion
1070
     0
  0
VISUALSTYLE
  5
3169
102
{ACAD_REACTORS
330
3165
102
}
330
3165
100
AcDbVisualStyle
  2
GouraudWithEdges
 70
     3
 71
     2
 72
     2
 73
     1
 90
        2
 40
-0.6
 41
30.0
 62
     5
 63
     7
 74
     1
 91
        4
 64
     7
 65
   257
 75
     1
175
     1
 42
1.0
 92
        0
 66
   257
 43
1.0
 76
     1
 77
     6
 78
     2
 67
     7
 79
     5
170
     0
171
     0
290
     0
174
     0
 93
       13
 44
0.0
173
     0
291
     1
 45
0.0
1001
ACAD
1000
AcDbSavedByObjectVersion
1070
     0
1000
AcDbSavedByObjectVersion
1070
     0
1000
AcDbSavedByObjectVersion
1070
     0
  0
VISUALSTYLE
  5
3173
102
{ACAD_REACTORS
330
3165
102
}
330
3165
100
AcDbVisualStyle
  2
Linepattern
 70
    14
 71
     2
 72
     2
 73
     0
 90
        0
 40
-0.6
 41
-30.0
 62
     5
 63
     7
 74
     1
 91
        4
 64
     7
 65
   257
 75
     7
175
     7
 42
1.0
 92
        8
 66
     7
 43
1.0
 76
     1
 77
     6
 78
     2
 67
     7
 79
     5
170
     0
171
     0
290
     0
174
     0
 93
        1
 44
0.0
173
     0
291
     1
 45
0.0
1001
ACAD
1000
AcDbSavedByObjectVersion
1070
     0
1000
AcDbSavedByObjectVersion
1070
     0
1000
AcDbSavedByObjectVersion
1070
     0
  0
VISUALSTYLE
  5
316F
102
{ACAD_REACTORS
330
3165
102
}
330
3165
100
AcDbVisualStyle
  2
Realistic
 70
     8
 71
     2
 72
     2
 73
     0
 90
        0
 40
-0.6
 41
-30.0
 62
     5
 63
     7
 74
     1
 91
        0
 64
     7
 65
   257
 75
     1
175
     1
 42
1.0
 92
        8
 66
     8
 43
1.0
 76
     1
 77
     6
 78
     2
 67
     7
 79
     5
170
     0
171
     0
290
     0
174
     0
 93
       13
 44
0.0
173
     0
291
     0
 45
0.0
1001
ACAD
1000
AcDbSavedByObjectVersion
1070
     0
1000
AcDbSavedByObjectVersion
1070
     0
1000
AcDbSavedByObjectVersion
1070
     0
  0
VISUALSTYLE
  5
3172
102
{ACAD_REACTORS
330
3165
102
}
330
3165
100
AcDbVisualStyle
  2
Thicken
 70
    13
 71
     2
 72
     2
 73
     0
 90
        0
 40
-0.6
 41
-30.0
 62
     5
 63
     7
 74
     1
 91
        4
 64
     7
 65
   257
 75
     1
175
     1
 42
1.0
 92
       12
 66
     7
 43
1.0
 76
     1
 77
     6
 78
     2
 67
     7
 79
     5
170
     0
171
     0
290
     0
174
     0
 93
        1
 44
0.0
173
     0
291
     1
 45
0.0
1001
ACAD
1000
AcDbSavedByObjectVersion
1070
     0
1000
AcDbSavedByObjectVersion
1070
     0
1000
AcDbSavedByObjectVersion
1070
     0
  0
DICTIONARYVAR
  5
630F
102
{ACAD_REACTORS
330
630B
102
}
330
630B
100
DictionaryVariables
280
     0
  1
1:1
  0
DICTIONARYVAR
  5
630D
102
{ACAD_REACTORS
330
630B
102
}
330
630B
100
DictionaryVariables
280
     0
  1
STANDARD
  0
DICTIONARYVAR
  5
630C
102
{ACAD_REACTORS
330
630B
102
}
330
630B
100
DictionaryVariables
280
     0
  1
STANDARD
  0
DICTIONARYVAR
  5
6318
102
{ACAD_REACTORS
330
630B
102
}
330
630B
100
DictionaryVariables
280
     0
  1
1
  0
DICTIONARYVAR
  5
6317
102
{ACAD_REACTORS
330
630B
102
}
330
630B
100
DictionaryVariables
280
     0
  1
0
  0
DICTIONARYVAR
  5
6310
102
{ACAD_REACTORS
330
630B
102
}
330
630B
100
DictionaryVariables
280
     0
  1
0
  0
DICTIONARYVAR
  5
630E
102
{ACAD_REACTORS
330
630B
102
}
330
630B
100
DictionaryVariables
280
     0
  1
0
  0
DICTIONARYVAR
  5
6316
102
{ACAD_REACTORS
330
630B
102
}
330
630B
100
DictionaryVariables
280
     0
  1
127
  0
XRECORD
  5
5E46
102
{ACAD_REACTORS
330
5E44
102
}
330
5E44
100
AcDbXrecord
280
     1
  0
DICTIONARY
  5
6393
330
21
100
AcDbDictionary
280
     1
281
     1
  3
ACAD_XREC_ROUNDTRIP
360
6394
  0
DICTIONARY
  5
6391
330
20
100
AcDbDictionary
280
     1
281
     1
  3
ACAD_XREC_ROUNDTRIP
360
6392
  0
DICTIONARY
  5
3156
330
3155
100
AcDbDictionary
280
     1
281
     1
  3
ACAD_XREC_ROUNDTRIP
360
6320
  3
BUMPTILE
360
3158
  3
DIFFUSETILE
360
3157
  3
OPACITYTILE
360
315B
  3
REFLECTIONTILE
360
315A
  3
REFRACTIONTILE
360
315C
  3
SPECULARTILE
360
3159
  0
DICTIONARY
  5
314E
330
314D
100
AcDbDictionary
280
     1
281
     1
  3
ACAD_XREC_ROUNDTRIP
360
631F
  3
BUMPTILE
360
3150
  3
DIFFUSETILE
360
314F
  3
OPACITYTILE
360
3153
  3
REFLECTIONTILE
360
3152
  3
REFRACTIONTILE
360
3154
  3
SPECULARTILE
360
3151
  0
DICTIONARY
  5
315E
330
315D
100
AcDbDictionary
280
     1
281
     1
  3
ACAD_XREC_ROUNDTRIP
360
6321
  3
BUMPTILE
360
3160
  3
DIFFUSETILE
360
315F
  3
OPACITYTILE
360
3163
  3
REFLECTIONTILE
360
3162
  3
REFRACTIONTILE
360
3164
  3
SPECULARTILE
360
3161
  0
DICTIONARY
  5
6308
330
3178
100
AcDbDictionary
280
     1
281
     1
  3
ACAD_ROUNDTRIP_2008_TABLESTYLE_CELLSTYLEMAP
360
638F
  3
ACAD_XREC_ROUNDTRIP
360
6395
  0
XRECORD
  5
6394
102
{ACAD_REACTORS
330
6393
102
}
330
6393
100
AcDbXrecord
280
     1
102
SHADEPLOT
 70
     0
102
SHADEPLOTRESLEVEL
 70
     2
102
SHADEPLOTCUSTOMDPI
 70
   300
  0
XRECORD
  5
6392
102
{ACAD_REACTORS
330
6391
102
}
330
6391
100
AcDbXrecord
280
     1
102
SHADEPLOT
 70
     0
102
SHADEPLOTRESLEVEL
 70
     2
102
SHADEPLOTCUSTOMDPI
 70
   300
  0
XRECORD
  5
6320
102
{ACAD_REACTORS
330
3156
102
}
330
3156
100
AcDbXrecord
280
     1
102
MATERIAL
148
0.0
149
0.0
149
0.0
 93
        0
 94
      127
282
     0
 72
     0
 77
     0
171
     0
175
     0
179
     0
273
     0
  0
XRECORD
  5
3158
102
{ACAD_REACTORS
330
3156
102
}
330
3156
100
AcDbXrecord
280
     1
270
     1
271
     1
  0
XRECORD
  5
3157
102
{ACAD_REACTORS
330
3156
102
}
330
3156
100
AcDbXrecord
280
     1
270
     1
271
     1
  0
XRECORD
  5
315B
102
{ACAD_REACTORS
330
3156
102
}
330
3156
100
AcDbXrecord
280
     1
270
     1
271
     1
  0
XRECORD
  5
315A
102
{ACAD_REACTORS
330
3156
102
}
330
3156
100
AcDbXrecord
280
     1
270
     1
271
     1
  0
XRECORD
  5
315C
102
{ACAD_REACTORS
330
3156
102
}
330
3156
100
AcDbXrecord
280
     1
270
     1
271
     1
  0
XRECORD
  5
3159
102
{ACAD_REACTORS
330
3156
102
}
330
3156
100
AcDbXrecord
280
     1
270
     1
271
     1
  0
XRECORD
  5
631F
102
{ACAD_REACTORS
330
314E
102
}
330
314E
100
AcDbXrecord
280
     1
102
MATERIAL
148
0.0
149
0.0
149
0.0
 93
        0
 94
      127
282
     0
 72
     0
 77
     0
171
     0
175
     0
179
     0
273
     0
  0
XRECORD
  5
3150
102
{ACAD_REACTORS
330
314E
102
}
330
314E
100
AcDbXrecord
280
     1
270
     1
271
     1
  0
XRECORD
  5
314F
102
{ACAD_REACTORS
330
314E
102
}
330
314E
100
AcDbXrecord
280
     1
270
     1
271
     1
  0
XRECORD
  5
3153
102
{ACAD_REACTORS
330
314E
102
}
330
314E
100
AcDbXrecord
280
     1
270
     1
271
     1
  0
XRECORD
  5
3152
102
{ACAD_REACTORS
330
314E
102
}
330
314E
100
AcDbXrecord
280
     1
270
     1
271
     1
  0
XRECORD
  5
3154
102
{ACAD_REACTORS
330
314E
102
}
330
314E
100
AcDbXrecord
280
     1
270
     1
271
     1
  0
XRECORD
  5
3151
102
{ACAD_REACTORS
330
314E
102
}
330
314E
100
AcDbXrecord
280
     1
270
     1
271
     1
  0
XRECORD
  5
6321
102
{ACAD_REACTORS
330
315E
102
}
330
315E
100
AcDbXrecord
280
     1
102
MATERIAL
148
0.0
149
0.0
149
0.0
 93
        0
 94
      127
282
     0
 72
     0
 77
     0
171
     0
175
     0
179
     0
273
     0
  0
XRECORD
  5
3160
102
{ACAD_REACTORS
330
315E
102
}
330
315E
100
AcDbXrecord
280
     1
270
     1
271
     1
  0
XRECORD
  5
315F
102
{ACAD_REACTORS
330
315E
102
}
330
315E
100
AcDbXrecord
280
     1
270
     1
271
     1
  0
XRECORD
  5
3163
102
{ACAD_REACTORS
330
315E
102
}
330
315E
100
AcDbXrecord
280
     1
270
     1
271
     1
  0
XRECORD
  5
3162
102
{ACAD_REACTORS
330
315E
102
}
330
315E
100
AcDbXrecord
280
     1
270
     1
271
     1
  0
XRECORD
  5
3164
102
{ACAD_REACTORS
330
315E
102
}
330
315E
100
AcDbXrecord
280
     1
270
     1
271
     1
  0
XRECORD
  5
3161
102
{ACAD_REACTORS
330
315E
102
}
330
315E
100
AcDbXrecord
280
     1
270
     1
271
     1
  0
CELLSTYLEMAP
  5
638F
102
{ACAD_REACTORS
330
6308
102
}
330
6308
100
AcDbCellStyleMap
 90
        3
300
CELLSTYLE
  1
TABLEFORMAT_BEGIN
 90
        5
170
     1
 91
        0
 92
    32768
 62
   257
 93
        1
300
CONTENTFORMAT
  1
CONTENTFORMAT_BEGIN
 90
        0
 91
        0
 92
      512
 93
        0
300

 40
0.0
140
1.0
 94
        5
 62
     0
340
17
144
6.0
309
CONTENTFORMAT_END
171
     1
301
MARGIN
  1
CELLMARGIN_BEGIN
 40
1.5
 40
1.5
 40
1.5
 40
1.5
 40
0.18
 40
0.18
309
CELLMARGIN_END
 94
        6
 95
        1
302
GRIDFORMAT
  1
GRIDFORMAT_BEGIN
 90
        0
 91
        1
 62
     0
 92
       -2
340
0
 93
        0
 40
1.125
309
GRIDFORMAT_END
 95
        2
302
GRIDFORMAT
  1
GRIDFORMAT_BEGIN
 90
        0
 91
        1
 62
     0
 92
       -2
340
0
 93
        0
 40
1.125
309
GRIDFORMAT_END
 95
        4
302
GRIDFORMAT
  1
GRIDFORMAT_BEGIN
 90
        0
 91
        1
 62
     0
 92
       -2
340
0
 93
        0
 40
1.125
309
GRIDFORMAT_END
 95
        8
302
GRIDFORMAT
  1
GRIDFORMAT_BEGIN
 90
        0
 91
        1
 62
     0
 92
       -2
340
0
 93
        0
 40
1.125
309
GRIDFORMAT_END
 95
       16
302
GRIDFORMAT
  1
GRIDFORMAT_BEGIN
 90
        0
 91
        1
 62
     0
 92
       -2
340
0
 93
        0
 40
1.125
309
GRIDFORMAT_END
 95
       32
302
GRIDFORMAT
  1
GRIDFORMAT_BEGIN
 90
        0
 91
        1
 62
     0
 92
       -2
340
0
 93
        0
 40
1.125
309
GRIDFORMAT_END
309
TABLEFORMAT_END
  1
CELLSTYLE_BEGIN
 90
        1
 91
        1
300
_TITLE
309
CELLSTYLE_END
300
CELLSTYLE
  1
TABLEFORMAT_BEGIN
 90
        5
170
     1
 91
        0
 92
        0
 62
   257
 93
        1
300
CONTENTFORMAT
  1
CONTENTFORMAT_BEGIN
 90
        0
 91
        0
 92
      512
 93
        0
300

 40
0.0
140
1.0
 94
        5
 62
     0
340
17
144
4.5
309
CONTENTFORMAT_END
171
     1
301
MARGIN
  1
CELLMARGIN_BEGIN
 40
1.5
 40
1.5
 40
1.5
 40
1.5
 40
0.18
 40
0.18
309
CELLMARGIN_END
 94
        6
 95
        1
302
GRIDFORMAT
  1
GRIDFORMAT_BEGIN
 90
        0
 91
        1
 62
     0
 92
       -2
340
0
 93
        0
 40
1.125
309
GRIDFORMAT_END
 95
        2
302
GRIDFORMAT
  1
GRIDFORMAT_BEGIN
 90
        0
 91
        1
 62
     0
 92
       -2
340
0
 93
        0
 40
1.125
309
GRIDFORMAT_END
 95
        4
302
GRIDFORMAT
  1
GRIDFORMAT_BEGIN
 90
        0
 91
        1
 62
     0
 92
       -2
340
0
 93
        0
 40
1.125
309
GRIDFORMAT_END
 95
        8
302
GRIDFORMAT
  1
GRIDFORMAT_BEGIN
 90
        0
 91
        1
 62
     0
 92
       -2
340
0
 93
        0
 40
1.125
309
GRIDFORMAT_END
 95
       16
302
GRIDFORMAT
  1
GRIDFORMAT_BEGIN
 90
        0
 91
        1
 62
     0
 92
       -2
340
0
 93
        0
 40
1.125
309
GRIDFORMAT_END
 95
       32
302
GRIDFORMAT
  1
GRIDFORMAT_BEGIN
 90
        0
 91
        1
 62
     0
 92
       -2
340
0
 93
        0
 40
1.125
309
GRIDFORMAT_END
309
TABLEFORMAT_END
  1
CELLSTYLE_BEGIN
 90
        2
 91
        1
300
_HEADER
309
CELLSTYLE_END
300
CELLSTYLE
  1
TABLEFORMAT_BEGIN
 90
        5
170
     1
 91
        0
 92
        0
 62
   257
 93
        1
300
CONTENTFORMAT
  1
CONTENTFORMAT_BEGIN
 90
        0
 91
        0
 92
      512
 93
        0
300

 40
0.0
140
1.0
 94
        2
 62
     0
340
17
144
4.5
309
CONTENTFORMAT_END
171
     1
301
MARGIN
  1
CELLMARGIN_BEGIN
 40
1.5
 40
1.5
 40
1.5
 40
1.5
 40
0.18
 40
0.18
309
CELLMARGIN_END
 94
        6
 95
        1
302
GRIDFORMAT
  1
GRIDFORMAT_BEGIN
 90
        0
 91
        1
 62
     0
 92
       -2
340
0
 93
        0
 40
1.125
309
GRIDFORMAT_END
 95
        2
302
GRIDFORMAT
  1
GRIDFORMAT_BEGIN
 90
        0
 91
        1
 62
     0
 92
       -2
340
0
 93
        0
 40
1.125
309
GRIDFORMAT_END
 95
        4
302
GRIDFORMAT
  1
GRIDFORMAT_BEGIN
 90
        0
 91
        1
 62
     0
 92
       -2
340
0
 93
        0
 40
1.125
309
GRIDFORMAT_END
 95
        8
302
GRIDFORMAT
  1
GRIDFORMAT_BEGIN
 90
        0
 91
        1
 62
     0
 92
       -2
340
0
 93
        0
 40
1.125
309
GRIDFORMAT_END
 95
       16
302
GRIDFORMAT
  1
GRIDFORMAT_BEGIN
 90
        0
 91
        1
 62
     0
 92
       -2
340
0
 93
        0
 40
1.125
309
GRIDFORMAT_END
 95
       32
302
GRIDFORMAT
  1
GRIDFORMAT_BEGIN
 90
        0
 91
        1
 62
     0
 92
       -2
340
0
 93
        0
 40
1.125
309
GRIDFORMAT_END
309
TABLEFORMAT_END
  1
CELLSTYLE_BEGIN
 90
        3
 91
        2
300
_DATA
309
CELLSTYLE_END
  0
XRECORD
  5
6395
102
{ACAD_REACTORS
330
6308
102
}
330
6308
100
AcDbXrecord
280
     1
102
ACAD_ROUNDTRIP_PRE2007_TABLESTYLE
 90
      512
 91
        0
  1

 92
      512
 93
        0
  2

 94
      512
 95
        0
  3

  0
ENDSEC
  0
EOF
