  0
SECTION
  2
HEADER
  9
$ACADVER
  1
AC1015
  9
$ACADMAINTVER
 70
    20
  9
$DWGCODEPAGE
  3
ANSI_1252
  9
$INSBASE
 10
0.0
 20
0.0
 30
0.0
  9
$EXTMIN
 10
-122.7202365777557
 20
-105.1233637312589
 30
-0.0000000000000043
  9
$EXTMAX
 10
100.266995280187
 20
105.0886249680043
 30
0.0000000000000113
  9
$LIMMIN
 10
-66.34999999999982
 20
-2008.85
  9
$LIMMAX
 10
3734.350000000001
 20
346.85
  9
$ORTHOMODE
 70
     0
  9
$REGENMODE
 70
     1
  9
$FILLMODE
 70
     1
  9
$QTEXTMODE
 70
     0
  9
$MIRRTEXT
 70
     1
  9
$LTSCALE
 40
10.0
  9
$ATTMODE
 70
     1
  9
$TEXTSIZE
 40
0.0
  9
$TRACEWID
 40
0.05
  9
$TEXTSTYLE
  7
Standard
  9
$CLAYER
  8
0
  9
$CELTYPE
  6
Continuous
  9
$CECOLOR
 62
   256
  9
$CELTSCALE
 40
1.0
  9
$DISPSILH
 70
     0
  9
$DIMSCALE
 40
1.0
  9
$DIMASZ
 40
1.25
  9
$DIMEXO
 40
0.0
  9
$DIMDLI
 40
0.38
  9
$DIMRND
 40
0.0
  9
$DIMDLE
 40
0.0
  9
$DIMEXE
 40
0.75
  9
$DIMTP
 40
0.0
  9
$DIMTM
 40
0.0
  9
$DIMTXT
 40
2.5
  9
$DIMCEN
 40
0.09
  9
$DIMTSZ
 40
0.0
  9
$DIMTOL
 70
     0
  9
$DIMLIM
 70
     0
  9
$DIMTIH
 70
     0
  9
$DIMTOH
 70
     0
  9
$DIMSE1
 70
     0
  9
$DIMSE2
 70
     0
  9
$DIMTAD
 70
     1
  9
$DIMZIN
 70
     0
  9
$DIMBLK
  1

  9
$DIMASO
 70
     1
  9
$DIMSHO
 70
     1
  9
$DIMPOST
  1

  9
$DIMAPOST
  1

  9
$DIMALT
 70
     0
  9
$DIMALTD
 70
     2
  9
$DIMALTF
 40
25.4
  9
$DIMLFAC
 40
1.0
  9
$DIMTOFL
 70
     0
  9
$DIMTVP
 40
0.0
  9
$DIMTIX
 70
     0
  9
$DIMSOXD
 70
     0
  9
$DIMSAH
 70
     0
  9
$DIMBLK1
  1

  9
$DIMBLK2
  1

  9
$DIMSTYLE
  2
Standard
  9
$DIMCLRD
 70
     7
  9
$DIMCLRE
 70
     7
  9
$DIMCLRT
 70
     7
  9
$DIMTFAC
 40
0.8
  9
$DIMGAP
 40
1.25
  9
$DIMJUST
 70
     0
  9
$DIMSD1
 70
     0
  9
$DIMSD2
 70
     0
  9
$DIMTOLJ
 70
     1
  9
$DIMTZIN
 70
     0
  9
$DIMALTZ
 70
     0
  9
$DIMALTTZ
 70
     0
  9
$DIMUPT
 70
     0
  9
$DIMDEC
 70
     2
  9
$DIMTDEC
 70
     4
  9
$DIMALTU
 70
     2
  9
$DIMALTTD
 70
     2
  9
$DIMTXSTY
  7
Standard
  9
$DIMAUNIT
 70
     0
  9
$DIMADEC
 70
     0
  9
$DIMALTRND
 40
0.0
  9
$DIMAZIN
 70
     0
  9
$DIMDSEP
 70
     0
  9
$DIMATFIT
 70
     3
  9
$DIMFRAC
 70
     0
  9
$DIMLDRBLK
  1

  9
$DIMLUNIT
 70
     2
  9
$DIMLWD
 70
     0
  9
$DIMLWE
 70
     0
  9
$DIMTMOVE
 70
     0
  9
$LUNITS
 70
     2
  9
$LUPREC
 70
     4
  9
$SKETCHINC
 40
0.1
  9
$FILLETRAD
 40
0.0
  9
$AUNITS
 70
     0
  9
$AUPREC
 70
     0
  9
$MENU
  1
acad
  9
$ELEVATION
 40
0.0
  9
$PELEVATION
 40
0.0
  9
$THICKNESS
 40
0.0
  9
$LIMCHECK
 70
     0
  9
$CHAMFERA
 40
0.0
  9
$CHAMFERB
 40
0.0
  9
$CHAMFERC
 40
0.0
  9
$CHAMFERD
 40
0.0
  9
$SKPOLY
 70
     0
  9
$TDCREATE
 40
2455303.727916667
  9
$TDUCREATE
 40
2455303.644583334
  9
$TDUPDATE
 40
2455306.416858403
  9
$TDUUPDATE
 40
2455306.333525069
  9
$TDINDWG
 40
0.0020669676
  9
$TDUSRTIMER
 40
0.0020667824
  9
$USRTIMER
 70
     1
  9
$ANGBASE
 50
0.0
  9
$ANGDIR
 70
     0
  9
$PDMODE
 70
     0
  9
$PDSIZE
 40
0.0
  9
$PLINEWID
 40
0.0
  9
$SPLFRAME
 70
     0
  9
$SPLINETYPE
 70
     6
  9
$SPLINESEGS
 70
     8
  9
$HANDSEED
  5
6383
  9
$SURFTAB1
 70
     6
  9
$SURFTAB2
 70
     6
  9
$SURFTYPE
 70
     6
  9
$SURFU
 70
     6
  9
$SURFV
 70
     6
  9
$UCSBASE
  2

  9
$UCSNAME
  2

  9
$UCSORG
 10
0.0
 20
0.0
 30
0.0
  9
$UCSXDIR
 10
1.0
 20
0.0
 30
0.0
  9
$UCSYDIR
 10
0.0
 20
1.0
 30
0.0
  9
$UCSORTHOREF
  2

  9
$UCSORTHOVIEW
 70
     0
  9
$UCSORGTOP
 10
0.0
 20
0.0
 30
0.0
  9
$UCSORGBOTTOM
 10
0.0
 20
0.0
 30
0.0
  9
$UCSORGLEFT
 10
0.0
 20
0.0
 30
0.0
  9
$UCSORGRIGHT
 10
0.0
 20
0.0
 30
0.0
  9
$UCSORGFRONT
 10
0.0
 20
0.0
 30
0.0
  9
$UCSORGBACK
 10
0.0
 20
0.0
 30
0.0
  9
$PUCSBASE
  2

  9
$PUCSNAME
  2

  9
$PUCSORG
 10
0.0
 20
0.0
 30
0.0
  9
$PUCSXDIR
 10
1.0
 20
0.0
 30
0.0
  9
$PUCSYDIR
 10
0.0
 20
1.0
 30
0.0
  9
$PUCSORTHOREF
  2

  9
$PUCSORTHOVIEW
 70
     0
  9
$PUCSORGTOP
 10
0.0
 20
0.0
 30
0.0
  9
$PUCSORGBOTTOM
 10
0.0
 20
0.0
 30
0.0
  9
$PUCSORGLEFT
 10
0.0
 20
0.0
 30
0.0
  9
$PUCSORGRIGHT
 10
0.0
 20
0.0
 30
0.0
  9
$PUCSORGFRONT
 10
0.0
 20
0.0
 30
0.0
  9
$PUCSORGBACK
 10
0.0
 20
0.0
 30
0.0
  9
$USERI1
 70
     0
  9
$USERI2
 70
     0
  9
$USERI3
 70
     0
  9
$USERI4
 70
     0
  9
$USERI5
 70
     0
  9
$USERR1
 40
0.0
  9
$USERR2
 40
0.0
  9
$USERR3
 40
0.0
  9
$USERR4
 40
0.0
  9
$USERR5
 40
0.0
  9
$WORLDVIEW
 70
     1
  9
$SHADEDGE
 70
     3
  9
$SHADEDIF
 70
    70
  9
$TILEMODE
 70
     1
  9
$MAXACTVP
 70
    16
  9
$PINSBASE
 10
0.0
 20
0.0
 30
0.0
  9
$PLIMCHECK
 70
     0
  9
$PEXTMIN
 10
1.000000000000000E+20
 20
1.000000000000000E+20
 30
1.000000000000000E+20
  9
$PEXTMAX
 10
-1.000000000000000E+20
 20
-1.000000000000000E+20
 30
-1.000000000000000E+20
  9
$PLIMMIN
 10
0.0
 20
0.0
  9
$PLIMMAX
 10
12.0
 20
9.0
  9
$UNITMODE
 70
     0
  9
$VISRETAIN
 70
     0
  9
$PLINEGEN
 70
     1
  9
$PSLTSCALE
 70
     0
  9
$TREEDEPTH
 70
  3020
  9
$CMLSTYLE
  2
Standard
  9
$CMLJUST
 70
     0
  9
$CMLSCALE
 40
1.0
  9
$PROXYGRAPHICS
 70
     0
  9
$MEASUREMENT
 70
     1
  9
$CELWEIGHT
370
     0
  9
$ENDCAPS
280
     0
  9
$JOINSTYLE
280
     0
  9
$LWDISPLAY
290
     0
  9
$INSUNITS
 70
     0
  9
$HYPERLINKBASE
  1

  9
$STYLESHEET
  1

  9
$XEDIT
290
     1
  9
$CEPSNTYPE
380
     0
  9
$PSTYLEMODE
290
     1
  9
$FINGERPRINTGUID
  2

  9
$VERSIONGUID
  2
{A173E218-DE24-4EDD-A8A9-C1E50F5368A2}
  9
$EXTNAMES
290
     1
  9
$PSVPSCALE
 40
0.0
  9
$OLESTARTUP
290
     0
  0
ENDSEC
  0
SECTION
  2
CLASSES
  0
CLASS
  1
IMAGE
  2
AcDbRasterImage
  3
ISM
 90
    34943
280
     0
281
     1
  0
CLASS
  1
DICTIONARYVAR
  2
AcDbDictionaryVar
  3
ObjectDBX Classes
 90
        0
280
     0
281
     0
  0
CLASS
  1
RASTERVARIABLES
  2
AcDbRasterVariables
  3
ISM
 90
    32768
280
     0
281
     0
  0
CLASS
  1
IMAGEDEF
  2
AcDbRasterImageDef
  3
ISM
 90
    32768
280
     0
281
     0
  0
CLASS
  1
IMAGEDEF_REACTOR
  2
AcDbRasterImageDefReactor
  3
ISM
 90
    32769
280
     0
281
     0
  0
CLASS
  1
IDBUFFER
  2
AcDbIdBuffer
  3
ObjectDBX Classes
 90
    32768
280
     0
281
     0
  0
CLASS
  1
SPATIAL_FILTER
  2
AcDbSpatialFilter
  3
ObjectDBX Classes
 90
    32768
280
     0
281
     0
  0
CLASS
  1
SORTENTSTABLE
  2
AcDbSortentsTable
  3
ObjectDBX Classes
 90
        0
280
     0
281
     0
  0
CLASS
  1
LAYER_INDEX
  2
AcDbLayerIndex
  3
ObjectDBX Classes
 90
    32768
280
     0
281
     0
  0
CLASS
  1
SPATIAL_INDEX
  2
AcDbSpatialIndex
  3
ObjectDBX Classes
 90
    32768
280
     0
281
     0
  0
CLASS
  1
OBJECT_PTR
  2
CAseDLPNTableRecord
  3
ASE-LPNTableRecord
 90
    32769
280
     0
281
     0
  0
CLASS
  1
LAYOUT
  2
AcDbLayout
  3
ObjectDBX Classes
 90
        0
280
     0
281
     0
  0
CLASS
  1
PLOTSETTINGS
  2
AcDbPlotSettings
  3
ObjectDBX Classes
 90
    32768
280
     0
281
     0
  0
CLASS
  1
ACDBDICTIONARYWDFLT
  2
AcDbDictionaryWithDefault
  3
ObjectDBX Classes
 90
        0
280
     0
281
     0
  0
CLASS
  1
ACDBPLACEHOLDER
  2
AcDbPlaceHolder
  3
ObjectDBX Classes
 90
        0
280
     0
281
     0
  0
CLASS
  1
VBA_PROJECT
  2
AcDbVbaProject
  3
acad
 90
    32768
280
     0
281
     0
  0
CLASS
  1
WIPEOUT
  2
AcDbWipeout
  3
"WipeOut|Product Desc: Object Enabler for WipeOut entity                        |Company: Autodesk, Inc.                        |WEB Address: www.autodesk.com"
 90
    34943
280
     0
281
     1
  0
CLASS
  1
WIPEOUTVARIABLES
  2
AcDbWipeoutVariables
  3
"WipeOut|Product Desc:     WipeOut Dbx Application|Company:          Autodesk, Inc.|WEB Address:      www.autodesk.com"
 90
        0
280
     0
281
     0
  0
CLASS
  1
RTEXT
  2
RText
  3
RText|AutoCAD Express Tool|expresstools@autodesk.com
 90
    35839
280
     0
281
     1
  0
CLASS
  1
ARCALIGNEDTEXT
  2
AcDbArcAlignedText
  3
ATEXT|AutoCAD Express Tool|expresstools@autodesk.com
 90
    32768
280
     0
281
     1
  0
CLASS
  1
MATERIAL
  2
AcDbMaterial
  3
ObjectDBX Classes
 90
     1153
280
     0
281
     0
  0
CLASS
  1
VISUALSTYLE
  2
AcDbVisualStyle
  3
ObjectDBX Classes
 90
     4095
280
     0
281
     0
  0
CLASS
  1
TABLESTYLE
  2
AcDbTableStyle
  3
ObjectDBX Classes
 90
     4095
280
     0
281
     0
  0
CLASS
  1
SCALE
  2
AcDbScale
  3
ObjectDBX Classes
 90
     1153
280
     0
281
     0
  0
CLASS
  1
MLEADERSTYLE
  2
AcDbMLeaderStyle
  3
ACDB_MLEADERSTYLE_CLASS
 90
     4095
280
     0
281
     0
  0
CLASS
  1
CELLSTYLEMAP
  2
AcDbCellStyleMap
  3
ObjectDBX Classes
 90
     1152
280
     0
281
     0
  0
ENDSEC
  0
SECTION
  2
TABLES
  0
TABLE
  2
VPORT
  5
7
330
0
100
AcDbSymbolTable
 70
     1
  0
VPORT
  5
15
330
7
100
AcDbSymbolTableRecord
100
AcDbViewportTableRecord
  2
*ACTIVE
 70
     0
 10
0.0
 20
0.0
 11
1.0
 21
1.0
 12
-13.39385088548008
 22
-3.394963165062875
 13
0.0
 23
0.0
 14
1.0
 24
1.0
 15
0.0
 25
0.0
 16
0.0
 26
0.0
 36
1.0
 17
0.0
 27
0.0
 37
0.0
 40
237.8364398444578
 41
1.611330698287219
 42
50.0
 43
0.0
 44
0.0
 50
0.0
 51
0.0
 71
     0
 72
   100
 73
     1
 74
     1
 75
     0
 76
     0
 77
     0
 78
     0
281
     0
 65
     0
110
0.0
120
0.0
130
0.0
111
1.0
121
0.0
131
0.0
112
0.0
122
1.0
132
0.0
 79
     0
146
0.0
  0
ENDTAB
  0
TABLE
  2
LTYPE
  5
4
330
0
100
AcDbSymbolTable
 70
     4
  0
LTYPE
  5
11
330
4
100
AcDbSymbolTableRecord
100
AcDbLinetypeTableRecord
  2
ByBlock
 70
     0
  3

 72
    65
 73
     0
 40
0.0
  0
LTYPE
  5
12
330
4
100
AcDbSymbolTableRecord
100
AcDbLinetypeTableRecord
  2
ByLayer
 70
     0
  3

 72
    65
 73
     0
 40
0.0
  0
LTYPE
  5
13
330
4
100
AcDbSymbolTableRecord
100
AcDbLinetypeTableRecord
  2
Continuous
 70
     0
  3
Solid line
 72
    65
 73
     0
 40
0.0
  0
LTYPE
  5
1E4
330
4
100
AcDbSymbolTableRecord
100
AcDbLinetypeTableRecord
  2
CENTER
 70
     0
  3
____ _ ____ _ ____ _ ____ _ ____ _ ____ _ ____
 72
    65
 73
     4
 40
2.0
 49
1.25
 74
     0
 49
-0.25
 74
     0
 49
0.25
 74
     0
 49
-0.25
 74
     0
  0
ENDTAB
  0
TABLE
  2
LAYER
  5
2
330
0
100
AcDbSymbolTable
 70
     1
  0
LAYER
  5
14
102
{ACAD_XDICTIONARY
360
5E41
102
}
330
2
100
AcDbSymbolTableRecord
100
AcDbLayerTableRecord
  2
0
 70
     0
 62
     7
  6
Continuous
370
    -3
390
1D
  0
ENDTAB
  0
TABLE
  2
STYLE
  5
3
330
0
100
AcDbSymbolTable
 70
     1
  0
STYLE
  5
17
330
3
100
AcDbSymbolTableRecord
100
AcDbTextStyleTableRecord
  2
Standard
 70
     0
 40
0.0
 41
1.0
 50
0.0
 71
     0
 42
0.0
  3
I011000D.TTF
  4

1001
ACAD
1000
IsonormD
1071
        0
  0
ENDTAB
  0
TABLE
  2
VIEW
  5
5
330
0
100
AcDbSymbolTable
 70
     0
  0
ENDTAB
  0
TABLE
  2
UCS
  5
6
330
0
100
AcDbSymbolTable
 70
     0
  0
ENDTAB
  0
TABLE
  2
APPID
  5
8
330
0
100
AcDbSymbolTable
 70
     5
  0
APPID
  5
16
330
8
100
AcDbSymbolTableRecord
100
AcDbRegAppTableRecord
  2
ACAD
 70
     0
  0
APPID
  5
26
330
8
100
AcDbSymbolTableRecord
100
AcDbRegAppTableRecord
  2
TopSolid'Draft
 70
     0
  0
APPID
  5
319D
330
8
100
AcDbSymbolTableRecord
100
AcDbRegAppTableRecord
  2
ACAD_MLEADERVER
 70
     0
  0
APPID
  5
5E45
330
8
100
AcDbSymbolTableRecord
100
AcDbRegAppTableRecord
  2
DCO15
 70
     0
  0
APPID
  5
636E
330
8
100
AcDbSymbolTableRecord
100
AcDbRegAppTableRecord
  2
ACAD_EXEMPT_FROM_CAD_STANDARDS
 70
     0
  0
ENDTAB
  0
TABLE
  2
DIMSTYLE
  5
9
330
0
100
AcDbSymbolTable
 70
     2
100
AcDbDimStyleTable
 71
     1
340
18
  0
DIMSTYLE
105
18
330
9
100
AcDbSymbolTableRecord
100
AcDbDimStyleTableRecord
  2
Standard
 70
     0
 41
1.25
 42
0.0
 44
0.75
 73
     0
 74
     0
 77
     1
140
2.5
146
0.8
147
1.25
176
     7
177
     7
178
     7
271
     2
340
17
  0
ENDTAB
  0
TABLE
  2
BLOCK_RECORD
  5
1
330
0
100
AcDbSymbolTable
 70
     2
  0
BLOCK_RECORD
  5
A
102
{ACAD_XDICTIONARY
360
31A7
102
}
330
1
100
AcDbSymbolTableRecord
100
AcDbBlockTableRecord
  2
*MODEL_SPACE
340
20
  0
BLOCK_RECORD
  5
B
330
1
100
AcDbSymbolTableRecord
100
AcDbBlockTableRecord
  2
*PAPER_SPACE
340
21
  0
ENDTAB
  0
ENDSEC
  0
SECTION
  2
BLOCKS
  0
BLOCK
  5
D
330
A
100
AcDbEntity
  8
0
100
AcDbBlockBegin
  2
*MODEL_SPACE
 70
     0
 10
0.0
 20
0.0
 30
0.0
  3
*MODEL_SPACE
  1

  0
ENDBLK
  5
E
330
A
100
AcDbEntity
  8
0
100
AcDbBlockEnd
  0
BLOCK
  5
F
330
B
100
AcDbEntity
 67
     1
  8
0
100
AcDbBlockBegin
  2
*PAPER_SPACE
 70
     0
 10
0.0
 20
0.0
 30
0.0
  3
*PAPER_SPACE
  1

  0
ENDBLK
  5
10
330
B
100
AcDbEntity
 67
     1
  8
0
100
AcDbBlockEnd
  0
ENDSEC
  0
SECTION
  2
ENTITIES
  0
LINE
  5
A82
330
A
100
AcDbEntity
  8
0
  6
CENTER
 62
     1
100
AcDbLine
 10
-9.0
 20
0.0
 30
0.0
 11
9.0
 21
0.0
 31
0.0
  0
LINE
  5
A83
330
A
100
AcDbEntity
  8
0
  6
CENTER
 62
     1
100
AcDbLine
 10
0.0
 20
-9.000000000000142
 30
0.0
 11
0.0
 21
9.000000000000142
 31
0.0
  0
LINE
  5
A84
330
A
100
AcDbEntity
  8
0
  6
CENTER
 62
     1
100
AcDbLine
 10
-98.45000000000096
 20
0.0000000000147509
 30
0.0
 11
-103.9000000000019
 21
0.0000000000147509
 31
0.0
  0
LINE
  5
A85
330
A
100
AcDbEntity
  8
0
  6
CENTER
 62
     1
100
AcDbLine
 10
-89.50078262927581
 20
-0.0000246369122578
 30
0.0
 11
-75.50083177281476
 21
-0.0000246369122578
 31
0.0
  0
LINE
  5
A86
330
A
100
AcDbEntity
  8
0
  6
CENTER
 62
     1
100
AcDbLine
 10
-82.50080720104596
 20
-7.000000065142955
 30
0.0
 11
-82.50080720104596
 21
6.99995079131844
 31
0.0
  0
LINE
  5
A87
330
A
100
AcDbEntity
  8
0
  6
CENTER
 62
     1
100
AcDbLine
 10
-87.15000000000078
 20
0.0000000000147509
 30
0.0
 11
-77.85000000000081
 21
0.0000000000147509
 31
0.0
  0
LINE
  5
A88
330
A
100
AcDbEntity
  8
0
  6
CENTER
 62
     1
100
AcDbLine
 10
-82.5000000000009
 20
-4.649999999985254
 30
0.0
 11
-82.5000000000009
 21
4.650000000014841
 31
0.0
  0
LINE
  5
A89
330
A
100
AcDbEntity
  8
0
  6
CENTER
 62
     1
100
AcDbLine
 10
-119.4999999999988
 20
0.0000000000159162
 30
0.0
 11
-106.2000000000009
 21
0.0000000000159162
 31
0.0
  0
LINE
  5
A8A
330
A
100
AcDbEntity
  8
0
  6
CENTER
 62
     1
100
AcDbLine
 10
0.0
 20
80.95000000001125
 30
0.0
 11
0.0
 21
86.40000000001174
 31
0.0
  0
LINE
  5
A8B
330
A
100
AcDbEntity
  8
0
  6
CENTER
 62
     1
100
AcDbLine
 10
0.0
 20
102.0000000000095
 30
0.0
 11
0.0
 21
88.70000000001079
 31
0.0
  0
LINE
  5
A8C
330
A
100
AcDbEntity
  8
0
  6
CENTER
 62
     1
100
AcDbLine
 10
55.35000000000218
 20
0.0000000000147509
 30
0.0
 11
64.65000000000213
 21
0.0000000000147509
 31
0.0
  0
LINE
  5
A8D
330
A
100
AcDbEntity
  8
0
  6
CENTER
 62
     1
100
AcDbLine
 10
60.00000000000227
 20
-4.649999999985254
 30
0.0
 11
60.00000000000227
 21
4.650000000014841
 31
0.0
  0
LINE
  5
A8E
330
A
100
AcDbEntity
  8
0
  6
CENTER
 62
     1
100
AcDbLine
 10
97.00000000000114
 20
0.0000000000159162
 30
0.0
 11
83.70000000000208
 21
0.0000000000159162
 31
0.0
  0
LINE
  5
A8F
330
A
100
AcDbEntity
  8
0
  6
CENTER
 62
     1
100
AcDbLine
 10
0.0
 20
-80.94999999999247
 30
0.0
 11
0.0
 21
-86.39999999999297
 31
0.0
  0
LINE
  5
A90
330
A
100
AcDbEntity
  8
0
  6
CENTER
 62
     1
100
AcDbLine
 10
0.0
 20
-101.9999999999908
 30
0.0
 11
0.0
 21
-88.69999999999206
 31
0.0
  0
ELLIPSE
  5
54E2
330
A
100
AcDbEntity
  8
0
  6
Continuous
 62
     9
370
     0
100
AcDbEllipse
 10
66.91757251533409
 20
-83.97689637113897
 30
0.0
 11
-14.16700391755432
 21
17.35096539100922
 31
-0.0000000000000008
210
0.0
220
0.0
230
1.0
 40
0.8164965809281008
 41
4.231683471002353
 42
5.497787143782361
  0
ELLIPSE
  5
54E3
330
A
100
AcDbEntity
  8
0
  6
Continuous
 62
     9
370
     0
100
AcDbEllipse
 10
83.98215572149821
 20
-81.98296425678316
 30
0.0
 11
2.305092925928287
 21
0.6682414255608506
 31
0.0
210
0.0
220
0.0
230
1.0
 40
0.266969561045828
 41
4.152374576559717
 42
5.723170903354911
  0
ELLIPSE
  5
54E4
330
A
100
AcDbEntity
  8
0
  6
Continuous
 62
     9
370
     0
100
AcDbEllipse
 10
65.84425988613407
 20
-84.85325246314767
 30
0.0
 11
12.64911064067342
 21
-15.49193338482961
 31
0.0000000000000007
210
0.0000000000000001
220
0.0000000000000001
230
1.0
 40
0.8164965809281012
 41
1.090090817412693
 42
2.334617135326038
  0
LINE
  5
54E5
330
A
100
AcDbEntity
  8
0
  6
Continuous
 62
     7
370
     0
100
AcDbLine
 10
65.8617509391961
 20
-66.18763626329155
 30
0.0
 11
66.23021739339901
 21
-66.67886712595379
 31
0.0
  0
ELLIPSE
  5
54E6
330
A
100
AcDbEntity
  8
0
  6
Continuous
 62
     9
370
     0
100
AcDbEllipse
 10
66.91757251533409
 20
-65.71947778762816
 30
0.0
 11
0.4800000000000361
 21
2.351510153071861
 31
-0.0000000000000002
210
0.0
220
0.0000000000000001
230
1.0
 40
0.4082482904639319
 41
0.4636476090007302
 42
1.853663507733024
  0
ELLIPSE
  5
54E7
330
A
100
AcDbEntity
  8
0
  6
Continuous
 62
     9
370
     0
100
AcDbEllipse
 10
72.67009316860003
 20
-84.05567961740535
 30
0.0
 11
7.589466384404276
 21
-9.29516003089788
 31
0.0000000000000004
210
0.0000000000000001
220
0.0000000000000001
230
1.0
 40
0.8164965809281012
 41
0.4807055093818206
 42
1.090090817412892
  0
ELLIPSE
  5
54E8
330
A
100
AcDbEntity
  8
0
  6
Continuous
 62
     9
370
     0
100
AcDbEllipse
 10
65.84425988613407
 20
-80.47147200310504
 30
0.0
 11
12.64911064067342
 21
-15.49193338482961
 31
0.0000000000000021
210
0.0
220
0.0000000000000001
230
1.0
 40
0.8164965809281003
 41
5.519364498649045
 42
6.763890816561556
  0
LINE
  5
54E9
330
A
100
AcDbEntity
  8
0
  6
Continuous
 62
     9
370
     0
100
AcDbLine
 10
66.23021739339901
 20
-98.80342383283165
 30
0.0
 11
66.23021739339901
 21
-66.67886712595379
 31
0.0
  0
ELLIPSE
  5
54EA
330
A
100
AcDbEntity
  8
0
  6
Continuous
 62
     7
370
     0
100
AcDbEllipse
 10
67.63311426813515
 20
-83.39265897646656
 30
0.0
 11
14.16700391755432
 21
-17.35096539100922
 31
0.0000000000000008
210
0.0000000000000001
220
0.0000000000000001
230
1.0
 40
0.8164965809281012
 41
1.090090817412689
 42
2.356194490192708
  0
LINE
  5
54EB
330
A
100
AcDbEntity
  8
0
  6
Continuous
 62
     9
370
     0
100
AcDbLine
 10
86.0299057062382
 20
-81.74369240306047
 30
0.0
 11
86.74544745903814
 21
-81.15945500838806
 31
0.0
  0
LINE
  5
54EC
330
A
100
AcDbEntity
  8
0
  6
Continuous
 62
     9
370
     0
100
AcDbLine
 10
66.91757251533409
 20
-63.52858755760687
 30
0.0
 11
67.63311426813515
 21
-62.9443501629344
 31
0.0
  0
ELLIPSE
  5
54ED
330
A
100
AcDbEntity
  8
0
  6
Continuous
 62
     9
370
     0
100
AcDbEllipse
 10
73.74340579780028
 20
-83.17932352539665
 30
0.0
 11
-9.107359661284952
 21
11.15419203707737
 31
0.0
210
0.0
220
0.0
230
1.0
 40
0.8164965809281003
 41
3.622298162971408
 42
4.231683471002481
  0
ELLIPSE
  5
54EE
330
A
100
AcDbEntity
  8
0
  6
Continuous
 62
     9
370
     0
100
AcDbEllipse
 10
83.98215572149821
 20
-88.55563494684707
 30
0.0
 11
2.27991285859419
 21
-0.7496648299188113
 31
-0.0000000000000002
210
0.0000000000000001
220
0.0
230
1.0
 40
0.5119185353242426
 41
4.396376677497126
 42
5.96717300429217
  0
LINE
  5
54EF
330
A
100
AcDbEntity
  8
0
  6
Continuous
 62
     9
370
     0
100
AcDbLine
 10
86.0299057062382
 20
-89.63089723113716
 30
0.0
 11
86.74544745903814
 21
-89.04665983646465
 31
0.0
  0
ELLIPSE
  5
54F0
330
A
100
AcDbEntity
  8
0
  6
Continuous
 62
     7
370
     0
100
AcDbEllipse
 10
74.45894755060021
 20
-82.59508613072426
 30
0.0
 11
9.107359661284956
 21
-11.15419203707726
 31
0.0
210
0.0
220
0.0
230
1.0
 40
0.816496580928101
 41
0.4807055093818332
 42
1.090090817412919
  0
ELLIPSE
  5
54F1
330
A
100
AcDbEntity
  8
0
  6
Continuous
 62
     7
370
     0
100
AcDbEllipse
 10
67.30353002259903
 20
-65.79826103389447
 30
0.0
 11
2.146625258400146
 21
-2.629068276025519
 31
0.0
210
0.0
220
0.0
230
1.0
 40
0.4082482904637696
 41
3.605240262590688
 42
4.531608552322008
  0
LINE
  5
54F2
330
A
100
AcDbEntity
  8
0
  6
Continuous
 62
     7
370
     0
100
AcDbLine
 10
66.23021739339901
 20
-98.80342383283165
 30
0.0
 11
65.86175093919201
 21
-99.10852543292497
 31
0.0
  0
LINE
  5
54F3
330
A
100
AcDbEntity
  8
0
  6
Continuous
 62
     7
370
     0
100
AcDbLine
 10
65.86175093919405
 20
-99.10852543292737
 30
0.0
 11
64.90353002259826
 21
-99.89090953510148
 31
0.0
  0
ELLIPSE
  5
54F4
330
A
100
AcDbEntity
  8
0
  6
Continuous
 62
     7
370
     0
100
AcDbEllipse
 10
67.30353002259903
 20
-65.79826103389447
 30
0.0
 11
2.146625258400146
 21
-2.629068276025519
 31
0.0
210
0.0
220
0.0
230
1.0
 40
0.4082482904637696
 41
3.141592653589813
 42
3.605240262590688
  0
LINE
  5
54F5
330
A
100
AcDbEntity
  8
0
  6
Continuous
 62
     9
370
     0
100
AcDbLine
 10
65.15690476419923
 20
-63.16919275786895
 30
0.0
 11
66.91757251533409
 21
-63.52858755760687
 31
0.0
  0
ELLIPSE
  5
54F6
330
A
100
AcDbEntity
  8
0
  6
Continuous
 62
     9
370
     0
100
AcDbEllipse
 10
66.91757251533409
 20
-79.59511591109645
 30
0.0
 11
-14.16700391755432
 21
17.35096539100922
 31
-0.0000000000000008
210
0.0000000000000001
220
0.0000000000000001
230
1.0
 40
0.8164965809281014
 41
3.14130698251566
 42
3.622298162971623
  0
ELLIPSE
  5
54F7
330
A
100
AcDbEntity
  8
0
  6
Continuous
 62
     9
370
     0
100
AcDbEllipse
 10
66.91757251533409
 20
-97.85253449460727
 30
0.0
 11
0.4800000000000361
 21
2.351510153071861
 31
-0.0000000000000002
210
0.0
220
0.0000000000000001
230
1.0
 40
0.4082482904639319
 41
2.215224363858582
 42
3.141593808718895
  0
LINE
  5
54F8
330
A
100
AcDbEntity
  8
0
  6
Continuous
 62
     7
370
     0
100
AcDbLine
 10
65.15690476419923
 20
-63.16919275786895
 30
0.0
 11
65.8724465170003
 21
-62.58495536319657
 31
0.0
  0
LINE
  5
54F9
330
A
100
AcDbEntity
  8
0
  6
Continuous
 62
     7
370
     0
100
AcDbLine
 10
65.8724465170003
 20
-62.58495536319657
 30
0.0
 11
67.63311426813515
 21
-62.9443501629344
 31
0.0
  0
ELLIPSE
  5
54FA
330
A
100
AcDbEntity
  8
0
  6
Continuous
 62
     7
370
     0
100
AcDbEllipse
 10
67.63311426813515
 20
-79.01087851642397
 30
0.0
 11
14.16700391755431
 21
-17.3509653910092
 31
0.0000000000000008
210
0.0
220
0.0
230
1.0
 40
0.816496580928101
 41
0.0
 42
0.4807055093820166
  0
ELLIPSE
  5
54FB
330
A
100
AcDbEntity
  8
0
  6
Continuous
 62
     7
370
     0
100
AcDbEllipse
 10
77.67888543820117
 20
-79.96601785470686
 30
0.0
 11
-8.601395235657838
 21
10.53451470168409
 31
-0.0000000000000005
210
0.0000000000000001
220
0.0000000000000001
230
1.0
 40
0.8164965809275754
 41
3.622298162971963
 42
4.231683471002776
  0
ELLIPSE
  5
54FC
330
A
100
AcDbEntity
  8
0
  6
Continuous
 62
     7
370
     0
100
AcDbEllipse
 10
70.85305215573817
 20
-76.38181024040775
 30
0.0
 11
-13.66103949192743
 21
16.73128805561605
 31
-0.0000000000000007
210
0.0000000000000001
220
0.0000000000000001
230
1.0
 40
0.816496580927575
 41
3.183798797703853
 42
3.622298162971866
  0
LINE
  5
54FD
330
A
100
AcDbEntity
  8
0
  6
Continuous
 62
     7
370
     0
100
AcDbLine
 10
69.80792615740324
 20
-63.50911039398354
 30
0.0
 11
69.80792615740324
 21
-62.29708666592438
 31
0.0
  0
ELLIPSE
  5
54FE
330
A
100
AcDbEntity
  8
0
  6
Continuous
 62
     7
370
     0
100
AcDbEllipse
 10
71.23900966300311
 20
-62.58920536326048
 30
0.0
 11
1.011928851254007
 21
-1.239354670786424
 31
0.0000000000000001
210
0.0
220
0.0
230
1.0
 40
0.8164965809275763
 41
2.334617135325548
 42
3.14159265358936
  0
ELLIPSE
  5
54FF
330
A
100
AcDbEntity
  8
0
  6
Continuous
 62
     7
370
     0
100
AcDbEllipse
 10
70.85305215573817
 20
-80.76359070044906
 30
0.0
 11
-13.66103949192743
 21
16.73128805561605
 31
-0.0000000000000007
210
0.0000000000000001
220
0.0000000000000001
230
1.0
 40
0.8164965809275756
 41
4.231683471002819
 42
5.476209788915372
  0
LINE
  5
5500
330
A
100
AcDbEntity
  8
0
  6
Continuous
 62
     9
370
     0
100
AcDbLine
 10
89.28280201838925
 20
-78.61014401694515
 30
0.0
 11
89.64057289478819
 21
-78.31802531960907
 31
0.0
  0
LINE
  5
5501
330
A
100
AcDbEntity
  8
0
  6
Continuous
 62
     9
370
     0
100
AcDbLine
 10
71.62765713998419
 20
-60.84313583894925
 30
0.0
 11
71.26988626358411
 21
-61.13525453628537
 31
0.0
  0
ELLIPSE
  5
5502
330
A
100
AcDbEntity
  8
0
  6
Continuous
 62
     7
370
     0
100
AcDbEllipse
 10
71.21082303213711
 20
-80.47147200311297
 30
0.0
 11
-13.66103949192743
 21
16.73128805561596
 31
-0.0000000000000007
210
0.0000000000000001
220
0.0000000000000001
230
1.0
 40
0.8164965809275756
 41
4.231683471002828
 42
5.476209788915371
  0
LINE
  5
5503
330
A
100
AcDbEntity
  8
0
  6
Continuous
 62
     9
370
     0
100
AcDbLine
 10
89.28280201838925
 20
-86.05917079901535
 30
0.0
 11
89.64057289478819
 21
-85.76705210167936
 31
0.0
  0
ELLIPSE
  5
5504
330
A
100
AcDbEntity
  8
0
  6
Continuous
 62
     7
370
     0
100
AcDbEllipse
 10
78.03665631460126
 20
-79.67389915737085
 30
0.0
 11
-8.601395235658056
 21
10.5345147016842
 31
-0.0000000000000005
210
0.0000000000000001
220
0.0000000000000001
230
1.0
 40
0.8164965809275756
 41
3.622298162971951
 42
4.231683471002765
  0
ELLIPSE
  5
5505
330
A
100
AcDbEntity
  8
0
  6
Continuous
 62
     7
370
     0
100
AcDbEllipse
 10
71.5967805394032
 20
-62.29708666592438
 30
0.0
 11
-1.011928851253784
 21
1.23935467078634
 31
-0.0000000000000001
210
0.0
220
0.0
230
1.0
 40
0.8164965809275759
 41
6.021385919382108
 42
6.283185307179271
  0
ELLIPSE
  5
5506
330
A
100
AcDbEntity
  8
0
  6
Continuous
 62
     7
370
     0
100
AcDbEllipse
 10
71.5967805394032
 20
-62.29708666592438
 30
0.0
 11
-1.011928851253784
 21
1.23935467078634
 31
-0.0000000000000001
210
0.0000000000000001
220
0.0000000000000001
230
1.0
 40
0.8164965809275756
 41
5.47620978891532
 42
6.021385919382102
  0
ELLIPSE
  5
5507
330
A
100
AcDbEntity
  8
0
  6
Continuous
 62
     7
370
     0
100
AcDbEllipse
 10
71.23900966300311
 20
-62.58920536326048
 30
0.0
 11
1.011928851254007
 21
-1.239354670786424
 31
0.0000000000000001
210
0.0
220
0.0
230
1.0
 40
0.8164965809275759
 41
3.141592653589361
 42
3.926990816987174
  0
ELLIPSE
  5
5508
330
A
100
AcDbEntity
  8
0
  6
Continuous
 62
     7
370
     0
100
AcDbEllipse
 10
71.21082303213711
 20
-76.08969154307178
 30
0.0
 11
-13.66103949192743
 21
16.73128805561596
 31
-0.0000000000000007
210
0.0000000000000001
220
0.0000000000000001
230
1.0
 40
0.816496580927575
 41
3.154687597858431
 42
3.622298162971879
  0
ELLIPSE
  5
5509
330
A
100
AcDbEntity
  8
0
  6
Continuous
 62
     7
370
     0
100
AcDbEllipse
 10
78.03665631460012
 20
-79.67389915736447
 30
0.0
 11
-9.107359661284952
 21
11.1541920370774
 31
-0.0000000000000005
210
0.0000000000000001
220
0.0000000000000001
230
1.0
 40
0.8164965809277255
 41
3.622298162971841
 42
4.231683471002638
  0
ELLIPSE
  5
550A
330
A
100
AcDbEntity
  8
0
  6
Continuous
 62
     7
370
     0
100
AcDbEllipse
 10
71.21082303213507
 20
-76.08969154306504
 30
0.0
 11
-14.16700391755432
 21
17.35096539100925
 31
-0.0000000000000008
210
0.0
220
0.0
230
1.0
 40
0.816496580927726
 41
3.141592653589792
 42
3.622298162971841
  0
LINE
  5
550B
330
A
100
AcDbEntity
  8
0
  6
Continuous
 62
     7
370
     0
100
AcDbLine
 10
70.88123878660121
 20
-59.95588708717846
 30
0.0
 11
70.88123878660121
 21
-60.88611625318987
 31
0.0
  0
LINE
  5
550C
330
A
100
AcDbEntity
  8
0
  6
Continuous
 62
     7
370
     0
100
AcDbLine
 10
70.88123878660121
 20
-59.95588708717846
 30
0.0
 11
71.21082303213507
 21
-60.02316318958015
 31
0.0
  0
ELLIPSE
  5
550D
330
A
100
AcDbEntity
  8
0
  6
Continuous
 62
     7
370
     0
100
AcDbEllipse
 10
71.21082303213507
 20
-80.47147200310636
 30
0.0
 11
-14.16700391755432
 21
17.35096539100916
 31
-0.0000000000000008
210
0.0
220
0.0
230
1.0
 40
0.8164965809277251
 41
4.231683471002639
 42
5.497787143782135
  0
LINE
  5
5513
330
A
100
AcDbEntity
  8
0
  6
Continuous
 62
     9
370
     0
100
AcDbLine
 10
90.32315622303622
 20
-78.23826803502896
 30
0.0
 11
91.50460884707309
 21
-77.27361600697475
 31
0.0
  0
LINE
  5
5514
330
A
100
AcDbEntity
  8
0
  6
Continuous
 62
     9
370
     0
100
AcDbLine
 10
71.21082303213507
 20
-60.02316318958015
 30
0.0
 11
74.41164496372812
 21
-57.40970302627656
 31
0.0
  0
LINE
  5
5515
330
A
100
AcDbEntity
  8
0
  6
Continuous
 62
     9
370
     0
100
AcDbLine
 10
90.32315622303622
 20
-86.12547286310336
 30
0.0
 11
91.50460884707309
 21
-85.16082083504915
 31
0.0
  0
LINE
  5
5516
330
A
100
AcDbEntity
  8
0
  6
Continuous
 62
     7
370
     0
100
AcDbLine
 10
91.73958893705821
 20
-81.63084290256886
 30
0.0
 11
91.82404713021105
 21
-80.06436954491325
 31
0.0
  0
ARC
  5
5517
330
A
100
AcDbEntity
  8
0
  6
Continuous
 62
     7
370
     0
100
AcDbCircle
 10
84.01587686468815
 20
-82.94480194586855
 30
0.0
 40
7.808269569151824
100
AcDbArc
 50
346.3567472835345
 51
0.2889662332041016
  0
LINE
  5
5518
330
A
100
AcDbEntity
  8
0
  6
Continuous
 62
     7
370
     0
100
AcDbLine
 10
91.50460884707309
 20
-85.16082083504915
 30
0.0
 11
91.60382216488414
 21
-84.78658363374057
 31
0.0
  0
LINE
  5
5519
330
A
100
AcDbEntity
  8
0
  6
Continuous
 62
     7
370
     0
100
AcDbLine
 10
91.60382216488414
 20
-77.73290128020466
 30
0.0
 11
91.50460884707309
 21
-77.27361600697475
 31
0.0
  0
ARC
  5
551A
330
A
100
AcDbEntity
  8
0
  6
Continuous
 62
     7
370
     0
100
AcDbCircle
 10
80.056354780932
 20
-79.99978277140906
 30
0.0
 40
11.76786958963278
100
AcDbArc
 50
359.6855362744672
 51
11.10649038820695
  0
LINE
  5
551B
330
A
100
AcDbEntity
  8
0
  6
Continuous
 62
     7
370
     0
100
AcDbLine
 10
91.8240471284521
 20
-82.90542179083614
 30
0.0
 11
91.73958893705821
 21
-81.63084290256886
 31
0.0
  0
ELLIPSE
  5
551C
330
A
100
AcDbEntity
  8
0
  6
Continuous
 62
     7
370
     0
100
AcDbEllipse
 10
70.16569703380127
 20
-59.80982773851045
 30
0.0
 11
0.7999999999999119
 21
0.0
 31
0.0
210
0.0
220
0.0000000000000001
230
1.0
 40
0.4082482904638633
 41
0.0
 42
1.107148717794105
  0
LINE
  5
551D
330
A
100
AcDbEntity
  8
0
  6
Continuous
 62
     7
370
     0
100
AcDbLine
 10
66.23021739340106
 20
-58.64135294916605
 30
0.0
 11
70.52346791020113
 21
-59.51770904117438
 31
0.0
  0
ELLIPSE
  5
551E
330
A
100
AcDbEntity
  8
0
  6
Continuous
 62
     7
370
     0
100
AcDbEllipse
 10
71.23900966300107
 20
-54.55169118646089
 30
0.0
 11
-11.2000000000001
 21
0.0
 31
0.0
210
0.0
220
0.0000000000000001
230
1.0
 40
0.4082482904638631
 41
5.819537698178783
 42
6.283185307179585
  0
ELLIPSE
  5
551F
330
A
100
AcDbEntity
  8
0
  6
Continuous
 62
     7
370
     0
100
AcDbEllipse
 10
60.50588337100203
 20
-52.36080095644016
 30
0.0
 11
0.7999999999999119
 21
0.0
 31
0.0
210
0.0
220
0.0000000000000001
230
1.0
 40
0.4082482904638633
 41
0.0
 42
1.107148717794059
  0
LINE
  5
5520
330
A
100
AcDbEntity
  8
0
  6
Continuous
 62
     7
370
     0
100
AcDbLine
 10
69.45015528100111
 20
-45.05783352303796
 30
0.0
 11
60.86365424740211
 21
-52.06868225910406
 31
0.0
  0
LINE
  5
5521
330
A
100
AcDbEntity
  8
0
  6
Continuous
 62
     7
370
     0
100
AcDbLine
 10
71.09422526376329
 20
-45.39342790297067
 30
0.0
 11
69.45015528100111
 21
-45.05783352303796
 31
0.0
  0
ELLIPSE
  5
5522
330
A
100
AcDbEntity
  8
0
  6
Continuous
 62
     7
370
     0
100
AcDbEllipse
 10
70.73645438736207
 20
-45.68554660030673
 30
0.0
 11
-0.7999999999999119
 21
0.0
 31
0.0
210
0.0
220
0.0000000000000001
230
1.0
 40
0.4082482904638635
 41
3.020610529952391
 42
3.14159265358979
  0
ELLIPSE
  5
5523
330
A
100
AcDbEntity
  8
0
  6
Continuous
 62
     7
370
     0
100
AcDbEllipse
 10
-7.884639934276719
 20
-41.78333509767074
 30
0.0
 11
-80.00000000000007
 21
0.0
 31
0.0
210
0.0
220
0.0000000000000001
230
1.0
 40
0.4082482904638631
 41
2.775900681007297
 42
3.020610529952316
  0
ELLIPSE
  5
5524
330
A
100
AcDbEntity
  8
0
  6
Continuous
 62
     7
370
     0
100
AcDbEllipse
 10
72.05519175429322
 20
-54.27989002028215
 30
0.0
 11
5.600000000000048
 21
0.0
 31
0.0
210
0.0
220
0.0000000000000001
230
1.0
 40
0.408248290463863
 41
3.141592653589792
 42
4.246815440740109
  0
ELLIPSE
  5
5525
330
A
100
AcDbEntity
  8
0
  6
Continuous
 62
     7
370
     0
100
AcDbEllipse
 10
33.62632410225797
 20
-85.50643356628476
 30
0.0
 11
-80.00000000000007
 21
-0.0000000000000139
 31
0.0000000000000032
210
0.0
220
0.0
230
0.9999999999999998
 40
0.4082482904638631
 41
4.177417492935592
 42
4.246815440740098
  0
ELLIPSE
  5
5526
330
A
100
AcDbEntity
  8
0
  6
Continuous
 62
     7
370
     0
100
AcDbEllipse
 10
70.16569703380127
 20
-59.80982773851045
 30
0.0
 11
0.7999999999999119
 21
0.0
 31
0.0
210
0.0
220
0.0000000000000001
230
1.0
 40
0.4082482904638633
 41
5.819537698178811
 42
6.283185307179585
  0
LINE
  5
5527
330
A
100
AcDbEntity
  8
0
  6
Continuous
 62
     9
370
     0
100
AcDbLine
 10
70.52346791020113
 20
-59.51770904117438
 30
0.0
 11
70.52346791020113
 21
-61.10785163995723
 31
0.0
  0
LINE
  5
5528
330
A
100
AcDbEntity
  8
0
  6
Continuous
 62
     9
370
     0
100
AcDbLine
 10
66.23021739340106
 20
-58.64135294916605
 30
0.0
 11
66.23021739340106
 21
-62.65798503753089
 31
0.0
  0
ARC
  5
5529
330
A
100
AcDbEntity
  8
0
  6
Continuous
 62
     7
370
     0
100
AcDbCircle
 10
79.03406020022021
 20
-82.02136050646815
 30
0.0
 40
12.85965764350909
100
AcDbArc
 50
310.2812659276618
 51
345.8694272072423
  0
ELLIPSE
  5
552A
330
A
100
AcDbEntity
  8
0
  6
Continuous
 62
     7
370
     0
100
AcDbEllipse
 10
71.21082303213507
 20
-76.08969154306504
 30
0.0
 11
-14.16700391755432
 21
17.35096539100922
 31
0.0
210
0.0
220
0.0
230
1.0
 40
0.8164965809277264
 41
3.014985618609844
 42
3.141592653589792
  0
ELLIPSE
  5
552B
330
A
100
AcDbEntity
  8
0
  6
Continuous
 62
     7
370
     0
100
AcDbEllipse
 10
71.23900966300107
 20
-54.55169118646089
 30
0.0
 11
-11.2000000000001
 21
0.0
 31
0.0
210
0.0
220
0.0000000000000001
230
1.0
 40
0.4082482904638633
 41
6.283185307179585
 42
7.390334024973668
  0
ELLIPSE
  5
552C
330
A
100
AcDbEntity
  8
0
  6
Continuous
 62
     7
370
     0
100
AcDbEllipse
 10
71.23900966300107
 20
-91.06652835347196
 30
0.0
 11
-11.2000000000001
 21
0.0
 31
0.0
210
0.0
220
0.0000000000000001
230
1.0
 40
0.4082482904638633
 41
6.283185307179585
 42
7.252738760169058
  0
ELLIPSE
  5
552D
330
A
100
AcDbEntity
  8
0
  6
Continuous
 62
     7
370
     0
100
AcDbEllipse
 10
72.05519175429322
 20
-54.27989002028215
 30
0.0
 11
5.600000000000048
 21
0.0
 31
0.0
210
0.0
220
0.0000000000000001
230
1.0
 40
0.4082482904638633
 41
2.775900681007297
 42
3.141592653589792
  0
LINE
  5
552E
330
A
100
AcDbEntity
  8
0
  6
Continuous
 62
     9
370
     0
100
AcDbLine
 10
66.82548313915322
 20
-53.46235838983097
 30
0.0
 11
66.82548313915322
 21
-55.0974216507334
 31
0.0
  0
LINE
  5
552F
330
A
100
AcDbEntity
  8
0
  6
Continuous
 62
     9
370
     0
100
AcDbLine
 10
71.53060685525815
 20
-45.72496287811117
 30
0.0
 11
71.53060685525815
 21
-56.74515940298016
 31
0.0
  0
ELLIPSE
  5
5530
330
A
100
AcDbEntity
  8
0
  6
Continuous
 62
     7
370
     0
100
AcDbEllipse
 10
60.50588337100203
 20
-52.36080095644016
 30
0.0
 11
0.7999999999999119
 21
0.0
 31
0.0
210
0.0
220
0.0000000000000001
230
1.0
 40
0.408248290463863
 41
5.819537698178686
 42
6.283185307179585
  0
LINE
  5
5531
330
A
100
AcDbEntity
  8
0
  6
Continuous
 62
     7
370
     0
100
AcDbLine
 10
60.86365424740211
 20
-52.06868225910406
 30
0.0
 11
60.86365424740211
 21
-52.82967686209147
 31
0.0
  0
ELLIPSE
  5
5532
330
A
100
AcDbEntity
  8
0
  6
Continuous
 62
     7
370
     0
100
AcDbEllipse
 10
70.73645438736207
 20
-45.68554660030673
 30
0.0
 11
-0.7999999999999119
 21
0.0
 31
0.0
210
0.0
220
0.0000000000000001
230
1.0
 40
0.4082482904638635
 41
3.141592653589792
 42
4.248741371383898
  0
LINE
  5
5533
330
A
100
AcDbEntity
  8
0
  6
Continuous
 62
     7
370
     0
100
AcDbLine
 10
64.90353002259917
 20
-63.83866923966724
 30
0.0
 11
64.90353002259917
 21
-99.89090953510086
 31
0.0
  0
ARC
  5
5534
330
A
100
AcDbEntity
  8
0
  6
Continuous
 62
     7
370
     0
100
AcDbCircle
 10
70.35277182208005
 20
-83.25159161230748
 30
0.0
 40
17.39869102915651
100
AcDbArc
 50
256.9954528158683
 51
308.0664910127141
  0
LINE
  5
5535
330
A
100
AcDbEntity
  8
0
  6
Continuous
 62
     7
370
     0
100
AcDbLine
 10
81.08457643289217
 20
-96.94608130210966
 30
0.0
 11
81.80011818569211
 21
-96.36184390743716
 31
0.0
  0
LINE
  5
5536
330
A
100
AcDbEntity
  8
0
  6
Continuous
 62
     7
370
     0
100
AcDbLine
 10
64.90353002259917
 20
-99.89090953510086
 30
0.0
 11
66.43757251533407
 21
-100.2040446476798
 31
0.0
  0
LINE
  5
5537
330
A
100
AcDbEntity
  8
0
  6
Continuous
 62
     7
370
     0
100
AcDbLine
 10
70.58485168814923
 20
-61.05773199513797
 30
0.0
 11
70.22708081174915
 21
-61.34985069247398
 31
0.0
  0
LINE
  5
5538
330
A
100
AcDbEntity
  8
0
  6
Continuous
 62
     7
370
     0
100
AcDbLine
 10
91.8240471842571
 20
-82.90521625567436
 30
0.0
 11
91.8240471842571
 21
-80.06433295617517
 31
0.0
  0
LINE
  5
5539
330
A
100
AcDbEntity
  8
0
  6
Continuous
 62
     7
370
     0
100
AcDbLine
 10
85.37782694969019
 20
-93.44065693407427
 30
0.0
 11
87.3483561927701
 21
-91.83172654448098
 31
0.0
  0
LINE
  5
553A
330
A
100
AcDbEntity
  8
0
  6
Continuous
 62
     7
370
     0
100
AcDbLine
 10
60.03900966300012
 20
-54.55169118646089
 30
0.0
 11
60.03900966300012
 21
-91.06652835347185
 31
0.0
  0
LINE
  5
553B
330
A
100
AcDbEntity
  8
0
  6
Continuous
 62
     7
370
     0
100
AcDbLine
 10
71.53645438736316
 20
-56.74644393437197
 30
0.0
 11
71.53645438736316
 21
-45.68554660030673
 31
0.0
  0
LINE
  5
553C
330
A
100
AcDbEntity
  8
0
  6
Continuous
 62
     7
370
     0
100
AcDbLine
 10
-111.4999999999977
 20
-7.000000000000056
 30
0.0
 11
-111.4999999999977
 21
0.0
 31
0.0
  0
LINE
  5
553D
330
A
100
AcDbEntity
  8
0
  6
Continuous
 62
     7
370
     0
100
AcDbLine
 10
-111.4999999999977
 20
0.0
 30
0.0
 11
-111.4999999999977
 21
7.0
 31
0.0
  0
LINE
  5
553E
330
A
100
AcDbEntity
  8
0
  6
Continuous
 62
     9
370
     0
100
AcDbLine
 10
-100.4500000000009
 20
-5.412842109663444
 30
0.0
 11
-100.4500000000009
 21
5.412842109692917
 31
0.0
  0
LINE
  5
553F
330
A
100
AcDbEntity
  8
0
  6
Continuous
 62
     7
370
     0
100
AcDbLine
 10
-100.2000000000009
 20
4.979829407800423
 30
0.0
 11
-100.2000000000009
 21
-4.979829407770978
 31
0.0
  0
LINE
  5
5540
330
A
100
AcDbEntity
  8
0
  6
Continuous
 62
     9
370
     0
100
AcDbLine
 10
-119.5000000000009
 20
5.400000000021464
 30
0.0
 11
-119.5000000000009
 21
-5.39999999999415
 31
0.0
  0
ELLIPSE
  5
5541
330
A
100
AcDbEntity
  8
0
  6
Continuous
 62
     9
370
     0
100
AcDbEllipse
 10
-119.5000000000009
 20
-4.499999999985362
 30
0.0
 11
2.99999999999989
 21
0.0
 31
0.0
210
0.0
220
0.0
230
1.0
 40
0.3000000000001173
 41
3.141592653589792
 42
4.712388980384688
  0
LINE
  5
5542
330
A
100
AcDbEntity
  8
0
  6
Continuous
 62
     7
370
     0
100
AcDbLine
 10
-122.5000000000018
 20
-4.499999999988659
 30
0.0
 11
-122.5000000000018
 21
4.500000000024243
 31
0.0
  0
ELLIPSE
  5
5543
330
A
100
AcDbEntity
  8
0
  6
Continuous
 62
     9
370
     0
100
AcDbEllipse
 10
-119.5000000000009
 20
4.500000000017251
 30
0.0
 11
2.99999999999989
 21
0.0
 31
0.0
210
0.0
220
0.0
230
1.0
 40
0.300000000000118
 41
1.570796326794896
 42
3.141592653589821
  0
LINE
  5
5544
330
A
100
AcDbEntity
  8
0
  6
Continuous
 62
     7
370
     0
100
AcDbLine
 10
-117.5
 20
-5.39999999998966
 30
0.0
 11
-117.5
 21
5.400000000025954
 31
0.0
  0
LINE
  5
5545
330
A
100
AcDbEntity
  8
0
  6
Continuous
 62
     9
370
     0
100
AcDbLine
 10
-119.5000000000009
 20
-5.399999999985652
 30
0.0
 11
-117.5
 21
-5.399999999985652
 31
0.0
  0
LINE
  5
5546
330
A
100
AcDbEntity
  8
0
  6
Continuous
 62
     9
370
     0
100
AcDbLine
 10
-119.5000000000009
 20
5.400000000017456
 30
0.0
 11
-117.5
 21
5.400000000017456
 31
0.0
  0
LINE
  5
5547
330
A
100
AcDbEntity
  8
0
  6
Continuous
 62
     9
370
     0
100
AcDbLine
 10
-119.5000000000009
 20
25.00000000004076
 30
0.0
 11
-119.5000000000009
 21
5.400000000023624
 31
0.0
  0
LINE
  5
5548
330
A
100
AcDbEntity
  8
0
  6
Continuous
 62
     7
370
     0
100
AcDbLine
 10
-122.5000000000018
 20
4.500000000022737
 30
0.0
 11
-122.5000000000018
 21
21.99418044780561
 31
0.0
  0
LINE
  5
5549
330
A
100
AcDbEntity
  8
0
  6
Continuous
 62
     7
370
     0
100
AcDbLine
 10
-122.4511110204578
 20
22.53939201418612
 30
0.0
 11
-122.5000000000018
 21
21.99418044777951
 31
0.0
  0
ARC
  5
554A
330
A
100
AcDbEntity
  8
0
  6
Continuous
 62
     7
370
     0
100
AcDbCircle
 10
-119.5000000000009
 20
22.00000000002225
 30
0.0
 40
3.000000000000001
100
AcDbArc
 50
90.0
 51
169.6420444534342
  0
LINE
  5
554B
330
A
100
AcDbEntity
  8
0
  6
Continuous
 62
     7
370
     0
100
AcDbLine
 10
-119.5000000000009
 20
-24.99999999999136
 30
0.0
 11
-117.5
 21
-24.99999999999136
 31
0.0
  0
LINE
  5
554C
330
A
100
AcDbEntity
  8
0
  6
Continuous
 62
     9
370
     0
100
AcDbLine
 10
-119.5000000000009
 20
-5.399999999991848
 30
0.0
 11
-119.5000000000009
 21
-25.00000000002066
 31
0.0
  0
LINE
  5
554D
330
A
100
AcDbEntity
  8
0
  6
Continuous
 62
     7
370
     0
100
AcDbLine
 10
-117.5
 20
-25.00000000000898
 30
0.0
 11
-117.5
 21
-5.399999999991848
 31
0.0
  0
ARC
  5
554E
330
A
100
AcDbEntity
  8
0
  6
Continuous
 62
     7
370
     0
100
AcDbCircle
 10
-119.5000000000009
 20
-21.99999999999056
 30
0.0
 40
3.000000000000131
100
AcDbArc
 50
190.3579555465642
 51
270.0
  0
LINE
  5
554F
330
A
100
AcDbEntity
  8
0
  6
Continuous
 62
     7
370
     0
100
AcDbLine
 10
-122.5000000000018
 20
-21.99418044774774
 30
0.0
 11
-122.4511110204578
 21
-22.53939201415426
 31
0.0
  0
LINE
  5
5550
330
A
100
AcDbEntity
  8
0
  6
Continuous
 62
     7
370
     0
100
AcDbLine
 10
-122.5000000000018
 20
-21.9941804477634
 30
0.0
 11
-122.5000000000018
 21
-4.499999999990649
 31
0.0
  0
LINE
  5
5551
330
A
100
AcDbEntity
  8
0
  6
Continuous
 62
     7
370
     0
100
AcDbLine
 10
-119.5000000000009
 20
25.00000000002325
 30
0.0
 11
-117.5
 21
25.00000000002325
 31
0.0
  0
LINE
  5
5552
330
A
100
AcDbEntity
  8
0
  6
Continuous
 62
     7
370
     0
100
AcDbLine
 10
-117.5
 20
5.400000000023624
 30
0.0
 11
-117.5
 21
25.00000000005255
 31
0.0
  0
LINE
  5
5553
330
A
100
AcDbEntity
  8
0
  6
Continuous
 62
     7
370
     0
100
AcDbLine
 10
-110.9999999999968
 20
4.900000000020412
 30
0.0
 11
-110.9999999999968
 21
-4.89999999998858
 31
0.0
  0
LINE
  5
5554
330
A
100
AcDbEntity
  8
0
  6
Continuous
 62
     9
370
     0
100
AcDbLine
 10
-117.4999999999968
 20
-5.099999999988227
 30
0.0
 11
-116.4999999999968
 21
-5.099999999988227
 31
0.0
  0
LINE
  5
5555
330
A
100
AcDbEntity
  8
0
  6
Continuous
 62
     9
370
     0
100
AcDbLine
 10
-117.4999999999968
 20
5.10000000001176
 30
0.0
 11
-116.4999999999968
 21
5.10000000001176
 31
0.0
  0
LINE
  5
5556
330
A
100
AcDbEntity
  8
0
  6
Continuous
 62
     7
370
     0
100
AcDbLine
 10
-116.4999999999968
 20
5.100000000013636
 30
0.0
 11
-116.4999999999968
 21
-5.099999999993144
 31
0.0
  0
LINE
  5
5557
330
A
100
AcDbEntity
  8
0
  6
Continuous
 62
     9
370
     0
100
AcDbLine
 10
-117.4999999999968
 20
-23.99371488356615
 30
0.0
 11
-116.4999999999968
 21
-23.99371488356615
 31
0.0
  0
LINE
  5
5558
330
A
100
AcDbEntity
  8
0
  6
Continuous
 62
     7
370
     0
100
AcDbLine
 10
-116.4999999999968
 20
-5.09999999999124
 30
0.0
 11
-116.4999999999968
 21
-23.99371488359248
 31
0.0
  0
LINE
  5
5559
330
A
100
AcDbEntity
  8
0
  6
Continuous
 62
     9
370
     0
100
AcDbLine
 10
-116.4999999999968
 20
23.99371488358952
 30
0.0
 11
-117.4999999999968
 21
23.99371488358952
 31
0.0
  0
LINE
  5
555A
330
A
100
AcDbEntity
  8
0
  6
Continuous
 62
     7
370
     0
100
AcDbLine
 10
-116.4999999999968
 20
23.99371488360777
 30
0.0
 11
-116.4999999999968
 21
5.100000000014546
 31
0.0
  0
LINE
  5
555B
330
A
100
AcDbEntity
  8
0
  6
Continuous
 62
     7
370
     0
100
AcDbLine
 10
-116.4999999999968
 20
23.99418044777036
 30
0.0
 11
-116.4999999999968
 21
23.99371488359094
 31
0.0
  0
LINE
  5
555C
330
A
100
AcDbEntity
  8
0
  6
Continuous
 62
     7
370
     0
100
AcDbLine
 10
-116.4999999999968
 20
-23.99371488356746
 30
0.0
 11
-116.4999999999968
 21
-23.994180447747
 31
0.0
  0
LINE
  5
555D
330
A
100
AcDbEntity
  8
0
  6
Continuous
 62
     9
370
     0
100
AcDbLine
 10
-108.4999999999988
 20
-5.099999999994366
 30
0.0
 11
-107.4999999999988
 21
-5.099999999994366
 31
0.0
  0
LINE
  5
555E
330
A
100
AcDbEntity
  8
0
  6
Continuous
 62
     9
370
     0
100
AcDbLine
 10
-108.4999999999988
 20
5.100000000005621
 30
0.0
 11
-107.4999999999988
 21
5.100000000005621
 31
0.0
  0
LINE
  5
555F
330
A
100
AcDbEntity
  8
0
  6
Continuous
 62
     7
370
     0
100
AcDbLine
 10
-108.4999999999988
 20
5.100000000004627
 30
0.0
 11
-108.4999999999988
 21
-5.099999999991666
 31
0.0
  0
LINE
  5
5560
330
A
100
AcDbEntity
  8
0
  6
Continuous
 62
     9
370
     0
100
AcDbLine
 10
-108.4999999999988
 20
-23.99371488357227
 30
0.0
 11
-107.4999999999988
 21
-23.99371488357227
 31
0.0
  0
LINE
  5
5561
330
A
100
AcDbEntity
  8
0
  6
Continuous
 62
     7
370
     0
100
AcDbLine
 10
-108.4999999999988
 20
-5.099999999992746
 30
0.0
 11
-108.4999999999988
 21
-23.99371488355777
 31
0.0
  0
LINE
  5
5562
330
A
100
AcDbEntity
  8
0
  6
Continuous
 62
     9
370
     0
100
AcDbLine
 10
-107.4999999999988
 20
23.99371488358344
 30
0.0
 11
-108.4999999999988
 21
23.99371488358344
 31
0.0
  0
LINE
  5
5563
330
A
100
AcDbEntity
  8
0
  6
Continuous
 62
     7
370
     0
100
AcDbLine
 10
-108.4999999999988
 20
23.99371488357343
 30
0.0
 11
-108.4999999999988
 21
5.10000000000403
 31
0.0
  0
LINE
  5
5564
330
A
100
AcDbEntity
  8
0
  6
Continuous
 62
     7
370
     0
100
AcDbLine
 10
-108.4999999999988
 20
23.99371488358273
 30
0.0
 11
-108.4999999999988
 21
23.99418044776212
 31
0.0
  0
LINE
  5
5565
330
A
100
AcDbEntity
  8
0
  6
Continuous
 62
     7
370
     0
100
AcDbLine
 10
-108.4999999999988
 20
-23.99418044775095
 30
0.0
 11
-108.4999999999988
 21
-23.99371488357159
 31
0.0
  0
LINE
  5
5566
330
A
100
AcDbEntity
  8
0
  6
Continuous
 62
     7
370
     0
100
AcDbLine
 10
-104.1977395255728
 20
-5.399999999985141
 30
0.0
 11
-104.2587344635078
 21
-4.829326173119881
 31
0.0
  0
LINE
  5
5567
330
A
100
AcDbEntity
  8
0
  6
Continuous
 62
     9
370
     0
100
AcDbLine
 10
-107.5
 20
-5.399999999985141
 30
0.0
 11
-104.1977395255728
 21
-5.399999999985141
 31
0.0
  0
LINE
  5
5568
330
A
100
AcDbEntity
  8
0
  6
Continuous
 62
     9
370
     0
100
AcDbLine
 10
-107.5
 20
5.400000000014728
 30
0.0
 11
-104.1977395255728
 21
5.400000000014728
 31
0.0
  0
LINE
  5
5569
330
A
100
AcDbEntity
  8
0
  6
Continuous
 62
     7
370
     0
100
AcDbLine
 10
-104.2587344635078
 20
4.829326173149439
 30
0.0
 11
-104.1977395255728
 21
5.400000000014728
 31
0.0
  0
ARC
  5
556A
330
A
100
AcDbEntity
  8
0
  6
Continuous
 62
     7
370
     0
100
AcDbCircle
 10
-141.1689652754908
 20
9.510552938309331
 30
0.0
 40
37.20590037374088
100
AcDbArc
 50
345.1897046073196
 51
352.7719182549601
  0
ARC
  5
556B
330
A
100
AcDbEntity
  8
0
  6
Continuous
 62
     7
370
     0
100
AcDbCircle
 10
-141.1689652754919
 20
-9.510552938280056
 30
0.0
 40
37.20590037374222
100
AcDbArc
 50
7.228081745039918
 51
14.81029539267884
  0
LINE
  5
556C
330
A
100
AcDbEntity
  8
0
  6
Continuous
 62
     7
370
     0
100
AcDbLine
 10
-107.5
 20
5.400000000014728
 30
0.0
 11
-107.5
 21
-5.399999999985141
 31
0.0
  0
LINE
  5
556D
330
A
100
AcDbEntity
  8
0
  6
Continuous
 62
     9
370
     0
100
AcDbLine
 10
-104.2587344635078
 20
4.829326173149439
 30
0.0
 11
-104.2587344635078
 21
-4.829326173119881
 31
0.0
  0
LINE
  5
556E
330
A
100
AcDbEntity
  8
0
  6
Continuous
 62
     7
370
     0
100
AcDbLine
 10
-98.55343072135974
 20
25.00000000001487
 30
0.0
 11
-98.29936920887575
 21
25.00000000001487
 31
0.0
  0
LINE
  5
556F
330
A
100
AcDbEntity
  8
0
  6
Continuous
 62
     9
370
     0
100
AcDbLine
 10
-98.29936920887575
 20
25.00000000001475
 30
0.0
 11
-98.29936920887575
 21
-24.99999999998525
 31
0.0
  0
LINE
  5
5570
330
A
100
AcDbEntity
  8
0
  6
Continuous
 62
     7
370
     0
100
AcDbLine
 10
-98.55343072135974
 20
-24.99999999998525
 30
0.0
 11
-98.29936920887575
 21
-24.99999999998525
 31
0.0
  0
LINE
  5
558C
330
A
100
AcDbEntity
  8
0
  6
Continuous
 62
     7
370
     0
100
AcDbLine
 10
-107.5
 20
-24.99999999998525
 30
0.0
 11
-98.55343072135974
 21
-24.99999999998525
 31
0.0
  0
LINE
  5
558D
330
A
100
AcDbEntity
  8
0
  6
Continuous
 62
     7
370
     0
100
AcDbLine
 10
-107.5
 20
-5.399999999985141
 30
0.0
 11
-107.5
 21
-24.99999999998536
 31
0.0
  0
LINE
  5
558E
330
A
100
AcDbEntity
  8
0
  6
Continuous
 62
     7
370
     0
100
AcDbLine
 10
-107.5
 20
25.00000000001487
 30
0.0
 11
-98.55343072135974
 21
25.00000000001487
 31
0.0
  0
LINE
  5
558F
330
A
100
AcDbEntity
  8
0
  6
Continuous
 62
     7
370
     0
100
AcDbLine
 10
-107.5
 20
25.00000000001487
 30
0.0
 11
-107.5
 21
5.400000000014728
 31
0.0
  0
LINE
  5
559B
330
A
100
AcDbEntity
  8
0
  6
Continuous
 62
     9
370
     0
100
AcDbLine
 10
-91.9839756052338
 20
25.00000000001475
 30
0.0
 11
-91.9839756052338
 21
-24.99999999998525
 31
0.0
  0
LINE
  5
559C
330
A
100
AcDbEntity
  8
0
  6
Continuous
 62
     7
370
     0
100
AcDbLine
 10
-91.9839756052338
 20
25.00000000001475
 30
0.0
 11
-98.29936920887485
 21
25.00000000001475
 31
0.0
  0
LINE
  5
559D
330
A
100
AcDbEntity
  8
0
  6
Continuous
 62
     7
370
     0
100
AcDbLine
 10
-91.9839756052338
 20
-24.99999999998525
 30
0.0
 11
-98.29936920887485
 21
-24.99999999998525
 31
0.0
  0
LINE
  5
559E
330
A
100
AcDbEntity
  8
0
  6
Continuous
 62
     9
370
     0
100
AcDbLine
 10
-68.16400119675382
 20
25.00000000001475
 30
0.0
 11
-68.16400119675382
 21
-24.99999999998525
 31
0.0
  0
CIRCLE
  5
559F
330
A
100
AcDbEntity
  8
0
  6
Continuous
 62
     7
370
     0
100
AcDbCircle
 10
-82.50080720104596
 20
-0.0000246369122578
 30
0.0
 40
4.999975428230678
  0
LINE
  5
55A0
330
A
100
AcDbEntity
  8
0
  6
Continuous
 62
     7
370
     0
100
AcDbLine
 10
-91.9839756052338
 20
25.00000000001475
 30
0.0
 11
-68.16400119675382
 21
25.00000000001475
 31
0.0
  0
LINE
  5
55A1
330
A
100
AcDbEntity
  8
0
  6
Continuous
 62
     7
370
     0
100
AcDbLine
 10
-91.9839756052338
 20
-24.99999999998525
 30
0.0
 11
-68.16400119675382
 21
-24.99999999998525
 31
0.0
  0
CIRCLE
  5
55A2
330
A
100
AcDbEntity
  8
0
  6
Continuous
 62
     7
370
     0
100
AcDbCircle
 10
-82.5000000000009
 20
0.0000000000147509
 30
0.0
 40
2.650000000000041
  0
LINE
  5
55A3
330
A
100
AcDbEntity
  8
0
  6
Continuous
 62
     7
370
     0
100
AcDbLine
 10
-67.50000000000091
 20
25.00000000001475
 30
0.0
 11
-67.50000000000091
 21
-24.99999999998525
 31
0.0
  0
LINE
  5
55A4
330
A
100
AcDbEntity
  8
0
  6
Continuous
 62
     7
370
     0
100
AcDbLine
 10
-68.16400119675382
 20
25.00000000001475
 30
0.0
 11
-67.50000000000091
 21
25.00000000001475
 31
0.0
  0
LINE
  5
55A5
330
A
100
AcDbEntity
  8
0
  6
Continuous
 62
     7
370
     0
100
AcDbLine
 10
-68.16400119675382
 20
-24.99999999998525
 30
0.0
 11
-67.50000000000091
 21
-24.99999999998525
 31
0.0
  0
LINE
  5
55A6
330
A
100
AcDbEntity
  8
0
  6
Continuous
 62
     9
370
     0
100
AcDbLine
 10
-110.9999799999968
 20
-2.499999999985135
 30
0.0
 11
-108.4999999999988
 21
-2.499999999985135
 31
0.0
  0
LINE
  5
55A7
330
A
100
AcDbEntity
  8
0
  6
Continuous
 62
     9
370
     0
100
AcDbLine
 10
-108.4999999999988
 20
2.500000000014864
 30
0.0
 11
-110.9999799999968
 21
2.500000000014864
 31
0.0
  0
LINE
  5
55A8
330
A
100
AcDbEntity
  8
0
  6
Continuous
 62
     7
370
     0
100
AcDbLine
 10
-116.4999999999977
 20
-7.000000000000056
 30
0.0
 11
-111.4999999999977
 21
-7.000000000000056
 31
0.0
  0
LINE
  5
55A9
330
A
100
AcDbEntity
  8
0
  6
Continuous
 62
     7
370
     0
100
AcDbLine
 10
-111.4999999999977
 20
7.0
 30
0.0
 11
-116.4999999999977
 21
7.0
 31
0.0
  0
LINE
  5
55AA
330
A
100
AcDbEntity
  8
0
  6
Continuous
 62
     7
370
     0
100
AcDbLine
 10
-100.7246553149969
 20
-5.571414429707544
 30
0.0
 11
-100.4500000000009
 21
-5.412842109660374
 31
0.0
  0
LINE
  5
55AB
330
A
100
AcDbEntity
  8
0
  6
Continuous
 62
     7
370
     0
100
AcDbLine
 10
-100.4500000000009
 20
5.412842109689904
 30
0.0
 11
-100.7244650763518
 21
5.571304595404455
 31
0.0
  0
ARC
  5
55AC
330
A
100
AcDbEntity
  8
0
  6
Continuous
 62
     7
370
     0
100
AcDbCircle
 10
-100.7000000000009
 20
4.979829407799115
 30
0.0
 40
0.4999999999999451
100
AcDbArc
 50
359.9999999999137
 51
59.9999999999542
  0
ARC
  5
55AD
330
A
100
AcDbEntity
  8
0
  6
Continuous
 62
     7
370
     0
100
AcDbCircle
 10
-100.7000000000009
 20
-4.979829407769642
 30
0.0
 40
0.4999999999999382
100
AcDbArc
 50
300.000000000045
 51
0.0000000000830506
  0
LINE
  5
55AE
330
A
100
AcDbEntity
  8
0
  6
Continuous
 62
     7
370
     0
100
AcDbLine
 10
-110.999980637665
 20
-2.999999999985135
 30
0.0
 11
-108.4999999999988
 21
-2.999999999985135
 31
0.0
  0
LINE
  5
55AF
330
A
100
AcDbEntity
  8
0
  6
Continuous
 62
     7
370
     0
100
AcDbLine
 10
-108.4999999999988
 20
3.00000000001475
 30
0.0
 11
-110.9999806376638
 21
3.00000000001475
 31
0.0
  0
LINE
  5
55B0
330
A
100
AcDbEntity
  8
0
  6
Continuous
 62
     7
370
     0
100
AcDbLine
 10
-110.9999999999968
 20
4.900000000017342
 30
0.0
 11
-111.4999999999918
 21
4.900000000017342
 31
0.0
  0
LINE
  5
55B1
330
A
100
AcDbEntity
  8
0
  6
Continuous
 62
     7
370
     0
100
AcDbLine
 10
-111.4999999999918
 20
-4.899999999985453
 30
0.0
 11
-110.9999999999968
 21
-4.899999999985453
 31
0.0
  0
LINE
  5
55B2
330
A
100
AcDbEntity
  8
0
  6
Continuous
 62
     7
370
     0
100
AcDbLine
 10
-116.4999999999968
 20
23.99418044776902
 30
0.0
 11
-117.4999999999968
 21
23.99418044776902
 31
0.0
  0
LINE
  5
55B3
330
A
100
AcDbEntity
  8
0
  6
Continuous
 62
     7
370
     0
100
AcDbLine
 10
-117.4999999999968
 20
-23.99418044774558
 30
0.0
 11
-116.4999999999968
 21
-23.99418044774558
 31
0.0
  0
LINE
  5
55B4
330
A
100
AcDbEntity
  8
0
  6
Continuous
 62
     7
370
     0
100
AcDbLine
 10
-107.4999999999988
 20
23.99418044776286
 30
0.0
 11
-108.4999999999988
 21
23.99418044776286
 31
0.0
  0
LINE
  5
55B5
330
A
100
AcDbEntity
  8
0
  6
Continuous
 62
     7
370
     0
100
AcDbLine
 10
-108.4999999999988
 20
-23.99418044775174
 30
0.0
 11
-107.4999999999988
 21
-23.99418044775174
 31
0.0
  0
LINE
  5
55B6
330
A
100
AcDbEntity
  8
0
  6
Continuous
 62
     7
370
     0
100
AcDbLine
 10
89.0
 20
7.0
 30
0.0
 11
89.0
 21
-7.000000000000056
 31
0.0
  0
LINE
  5
55B7
330
A
100
AcDbEntity
  8
0
  6
Continuous
 62
     7
370
     0
100
AcDbLine
 10
99.95111102046008
 20
22.53939201418612
 30
0.0
 11
100.0000000000041
 21
21.99418044777951
 31
0.0
  0
LINE
  5
55B8
330
A
100
AcDbEntity
  8
0
  6
Continuous
 62
     7
370
     0
100
AcDbLine
 10
100.0000000000041
 20
-21.99418044774774
 30
0.0
 11
100.0000000000041
 21
21.99418044777951
 31
0.0
  0
LINE
  5
55B9
330
A
100
AcDbEntity
  8
0
  6
Continuous
 62
     7
370
     0
100
AcDbLine
 10
100.0000000000041
 20
-21.99418044774774
 30
0.0
 11
99.95111102046008
 21
-22.53939201415426
 31
0.0
  0
ARC
  5
55BA
330
A
100
AcDbEntity
  8
0
  6
Continuous
 62
     7
370
     0
100
AcDbCircle
 10
97.00000000000228
 20
-21.99999999999056
 30
0.0
 40
3.000000000000873
100
AcDbArc
 50
270.0
 51
349.6420444533829
  0
LINE
  5
55BB
330
A
100
AcDbEntity
  8
0
  6
Continuous
 62
     9
370
     0
100
AcDbLine
 10
97.00000000000228
 20
-24.99999999999136
 30
0.0
 11
97.00000000000228
 21
25.00000000002325
 31
0.0
  0
ARC
  5
55BC
330
A
100
AcDbEntity
  8
0
  6
Continuous
 62
     7
370
     0
100
AcDbCircle
 10
97.00000000000228
 20
22.00000000002225
 30
0.0
 40
3.000000000000862
100
AcDbArc
 50
10.35795554656418
 51
90.0
  0
LINE
  5
55BD
330
A
100
AcDbEntity
  8
0
  6
Continuous
 62
     7
370
     0
100
AcDbLine
 10
95.00000000000227
 20
25.00000000002325
 30
0.0
 11
95.00000000000227
 21
-24.99999999999136
 31
0.0
  0
LINE
  5
55BE
330
A
100
AcDbEntity
  8
0
  6
Continuous
 62
     7
370
     0
100
AcDbLine
 10
97.00000000000228
 20
25.00000000002325
 30
0.0
 11
95.00000000000227
 21
25.00000000002325
 31
0.0
  0
LINE
  5
55BF
330
A
100
AcDbEntity
  8
0
  6
Continuous
 62
     7
370
     0
100
AcDbLine
 10
97.00000000000228
 20
-24.99999999999136
 30
0.0
 11
95.00000000000227
 21
-24.99999999999136
 31
0.0
  0
LINE
  5
55C0
330
A
100
AcDbEntity
  8
0
  6
Continuous
 62
     7
370
     0
100
AcDbLine
 10
88.49999999999909
 20
-4.89999999998858
 30
0.0
 11
88.49999999999909
 21
4.900000000020412
 31
0.0
  0
LINE
  5
55C1
330
A
100
AcDbEntity
  8
0
  6
Continuous
 62
     7
370
     0
100
AcDbLine
 10
93.99999999999909
 20
-23.994180447747
 30
0.0
 11
93.99999999999909
 21
-21.99418044774558
 31
0.0
  0
LINE
  5
55C2
330
A
100
AcDbEntity
  8
0
  6
Continuous
 62
     9
370
     0
100
AcDbLine
 10
93.99999999999909
 20
-21.99418044774558
 30
0.0
 11
94.99999999999909
 21
-21.99418044774558
 31
0.0
  0
LINE
  5
55C3
330
A
100
AcDbEntity
  8
0
  6
Continuous
 62
     9
370
     0
100
AcDbLine
 10
94.99999999999909
 20
21.99418044776894
 30
0.0
 11
93.99999999999909
 21
21.99418044776894
 31
0.0
  0
LINE
  5
55C4
330
A
100
AcDbEntity
  8
0
  6
Continuous
 62
     7
370
     0
100
AcDbLine
 10
93.99999999999909
 20
21.99418044776894
 30
0.0
 11
93.99999999999909
 21
23.99418044777104
 31
0.0
  0
LINE
  5
55C5
330
A
100
AcDbEntity
  8
0
  6
Continuous
 62
     7
370
     0
100
AcDbLine
 10
93.99999999999909
 20
-21.99418044774558
 30
0.0
 11
93.99999999999909
 21
21.99418044776894
 31
0.0
  0
LINE
  5
55C6
330
A
100
AcDbEntity
  8
0
  6
Continuous
 62
     7
370
     0
100
AcDbLine
 10
85.00000000000113
 20
-23.99418044775095
 30
0.0
 11
85.00000000000113
 21
-23.72623125531891
 31
0.0
  0
LINE
  5
55C7
330
A
100
AcDbEntity
  8
0
  6
Continuous
 62
     7
370
     0
100
AcDbLine
 10
85.00000000000113
 20
-23.72623125531891
 30
0.0
 11
85.00000000000113
 21
-21.99418044775186
 31
0.0
  0
LINE
  5
55C8
330
A
100
AcDbEntity
  8
0
  6
Continuous
 62
     9
370
     0
100
AcDbLine
 10
85.00000000000113
 20
-21.99418044775163
 30
0.0
 11
86.00000000000113
 21
-21.99418044775163
 31
0.0
  0
LINE
  5
55C9
330
A
100
AcDbEntity
  8
0
  6
Continuous
 62
     7
370
     0
100
AcDbLine
 10
86.00000000000113
 20
-21.99418044775163
 30
0.0
 11
86.00000000000113
 21
-23.99418044775058
 31
0.0
  0
LINE
  5
55CA
330
A
100
AcDbEntity
  8
0
  6
Continuous
 62
     7
370
     0
100
AcDbLine
 10
86.00000000000113
 20
23.99418044776212
 30
0.0
 11
86.00000000000113
 21
21.99418044776286
 31
0.0
  0
LINE
  5
55CB
330
A
100
AcDbEntity
  8
0
  6
Continuous
 62
     9
370
     0
100
AcDbLine
 10
86.00000000000113
 20
21.99418044776286
 30
0.0
 11
85.00000000000113
 21
21.99418044776286
 31
0.0
  0
LINE
  5
55CC
330
A
100
AcDbEntity
  8
0
  6
Continuous
 62
     7
370
     0
100
AcDbLine
 10
85.00000000000113
 20
21.99418044776286
 30
0.0
 11
85.00000000000113
 21
23.72623125532976
 31
0.0
  0
LINE
  5
55CD
330
A
100
AcDbEntity
  8
0
  6
Continuous
 62
     7
370
     0
100
AcDbLine
 10
85.00000000000113
 20
23.72623125533002
 30
0.0
 11
85.00000000000113
 21
23.99418044776203
 31
0.0
  0
LINE
  5
55CE
330
A
100
AcDbEntity
  8
0
  6
Continuous
 62
     7
370
     0
100
AcDbLine
 10
86.00000000000113
 20
-21.99418044775163
 30
0.0
 11
86.00000000000113
 21
21.99418044776286
 31
0.0
  0
LINE
  5
55CF
330
A
100
AcDbEntity
  8
0
  6
Continuous
 62
     7
370
     0
100
AcDbLine
 10
85.00000000000113
 20
-21.99418044775163
 30
0.0
 11
85.00000000000113
 21
21.99418044776286
 31
0.0
  0
LINE
  5
55D0
330
A
100
AcDbEntity
  8
0
  6
Continuous
 62
     7
370
     0
100
AcDbLine
 10
45.00000000000227
 20
25.00000000001475
 30
0.0
 11
69.00000000000227
 21
25.00000000001475
 31
0.0
  0
LINE
  5
55D1
330
A
100
AcDbEntity
  8
0
  6
Continuous
 62
     7
370
     0
100
AcDbLine
 10
69.00000000000227
 20
25.00000000001475
 30
0.0
 11
69.00000000000227
 21
-24.99999999998525
 31
0.0
  0
LINE
  5
55D2
330
A
100
AcDbEntity
  8
0
  6
Continuous
 62
     7
370
     0
100
AcDbLine
 10
45.00000000000227
 20
-24.99999999998525
 30
0.0
 11
69.00000000000227
 21
-24.99999999998525
 31
0.0
  0
LINE
  5
55D3
330
A
100
AcDbEntity
  8
0
  6
Continuous
 62
     7
370
     0
100
AcDbLine
 10
45.00000000000227
 20
25.00000000001475
 30
0.0
 11
45.00000000000227
 21
-24.99999999998525
 31
0.0
  0
CIRCLE
  5
55D4
330
A
100
AcDbEntity
  8
0
  6
Continuous
 62
     7
370
     0
100
AcDbCircle
 10
60.00000000000227
 20
0.0000000000147509
 30
0.0
 40
2.650000000000041
  0
LINE
  5
55D5
330
A
100
AcDbEntity
  8
0
  6
Continuous
 62
     7
370
     0
100
AcDbLine
 10
70.00000000000227
 20
25.00000000001475
 30
0.0
 11
69.00000000000227
 21
25.00000000001475
 31
0.0
  0
LINE
  5
55D6
330
A
100
AcDbEntity
  8
0
  6
Continuous
 62
     9
370
     0
100
AcDbLine
 10
70.00000000000227
 20
25.00000000001475
 30
0.0
 11
70.00000000000227
 21
-24.99999999998525
 31
0.0
  0
LINE
  5
55D7
330
A
100
AcDbEntity
  8
0
  6
Continuous
 62
     7
370
     0
100
AcDbLine
 10
70.00000000000227
 20
-24.99999999998525
 30
0.0
 11
69.00000000000227
 21
-24.99999999998525
 31
0.0
  0
LINE
  5
55D8
330
A
100
AcDbEntity
  8
0
  6
Continuous
 62
     7
370
     0
100
AcDbLine
 10
84.00000000000227
 20
25.00000000001475
 30
0.0
 11
84.00000000000227
 21
-24.99999999998525
 31
0.0
  0
LINE
  5
55D9
330
A
100
AcDbEntity
  8
0
  6
Continuous
 62
     7
370
     0
100
AcDbLine
 10
70.00000000000227
 20
-24.99999999998525
 30
0.0
 11
84.00000000000227
 21
-24.99999999998525
 31
0.0
  0
LINE
  5
55DA
330
A
100
AcDbEntity
  8
0
  6
Continuous
 62
     7
370
     0
100
AcDbLine
 10
70.00000000000227
 20
25.00000000001475
 30
0.0
 11
84.00000000000227
 21
25.00000000001475
 31
0.0
  0
LINE
  5
55DB
330
A
100
AcDbEntity
  8
0
  6
Continuous
 62
     7
370
     0
100
AcDbLine
 10
85.00000000000317
 20
25.00000000001475
 30
0.0
 11
85.00000000000113
 21
23.72623125533053
 31
0.0
  0
LINE
  5
55DC
330
A
100
AcDbEntity
  8
0
  6
Continuous
 62
     7
370
     0
100
AcDbLine
 10
85.00000000000113
 20
23.72623125533053
 30
0.0
 11
85.00000000000227
 21
21.99418044776286
 31
0.0
  0
LINE
  5
55DD
330
A
100
AcDbEntity
  8
0
  6
Continuous
 62
     7
370
     0
100
AcDbLine
 10
85.00000000000317
 20
-21.99418044775163
 30
0.0
 11
85.00000000000113
 21
-23.72623125531939
 31
0.0
  0
LINE
  5
55DE
330
A
100
AcDbEntity
  8
0
  6
Continuous
 62
     7
370
     0
100
AcDbLine
 10
85.00000000000113
 20
-23.72623125531939
 30
0.0
 11
85.00000000000317
 21
-24.99999999998525
 31
0.0
  0
LINE
  5
55DF
330
A
100
AcDbEntity
  8
0
  6
Continuous
 62
     7
370
     0
100
AcDbLine
 10
85.00000000000317
 20
-24.99999999998525
 30
0.0
 11
84.00000000000227
 21
-24.99999999998525
 31
0.0
  0
LINE
  5
55E0
330
A
100
AcDbEntity
  8
0
  6
Continuous
 62
     7
370
     0
100
AcDbLine
 10
85.00000000000317
 20
25.00000000001475
 30
0.0
 11
84.00000000000227
 21
25.00000000001475
 31
0.0
  0
LINE
  5
55E1
330
A
100
AcDbEntity
  8
0
  6
Continuous
 62
     9
370
     0
100
AcDbLine
 10
88.49997999999914
 20
2.500000000014864
 30
0.0
 11
86.00000000000113
 21
2.500000000014864
 31
0.0
  0
LINE
  5
55E2
330
A
100
AcDbEntity
  8
0
  6
Continuous
 62
     9
370
     0
100
AcDbLine
 10
86.00000000000113
 20
-2.499999999985135
 30
0.0
 11
88.49997999999914
 21
-2.499999999985135
 31
0.0
  0
LINE
  5
55E3
330
A
100
AcDbEntity
  8
0
  6
Continuous
 62
     7
370
     0
100
AcDbLine
 10
94.0
 20
7.0
 30
0.0
 11
89.0
 21
7.0
 31
0.0
  0
LINE
  5
55E4
330
A
100
AcDbEntity
  8
0
  6
Continuous
 62
     7
370
     0
100
AcDbLine
 10
89.0
 20
-7.000000000000056
 30
0.0
 11
94.0
 21
-7.000000000000056
 31
0.0
  0
LINE
  5
55E5
330
A
100
AcDbEntity
  8
0
  6
Continuous
 62
     7
370
     0
100
AcDbLine
 10
88.4999806376661
 20
3.00000000001475
 30
0.0
 11
86.00000000000113
 21
3.00000000001475
 31
0.0
  0
LINE
  5
55E6
330
A
100
AcDbEntity
  8
0
  6
Continuous
 62
     7
370
     0
100
AcDbLine
 10
86.00000000000113
 20
-2.999999999985135
 30
0.0
 11
88.49998063766724
 21
-2.999999999985135
 31
0.0
  0
LINE
  5
55E7
330
A
100
AcDbEntity
  8
0
  6
Continuous
 62
     7
370
     0
100
AcDbLine
 10
88.49999999999909
 20
-4.899999999985453
 30
0.0
 11
88.99999999999408
 21
-4.899999999985453
 31
0.0
  0
LINE
  5
55E8
330
A
100
AcDbEntity
  8
0
  6
Continuous
 62
     7
370
     0
100
AcDbLine
 10
88.99999999999408
 20
4.900000000017342
 30
0.0
 11
88.49999999999909
 21
4.900000000017342
 31
0.0
  0
LINE
  5
55E9
330
A
100
AcDbEntity
  8
0
  6
Continuous
 62
     7
370
     0
100
AcDbLine
 10
93.99999999999909
 20
-23.99418044774558
 30
0.0
 11
94.99999999999909
 21
-23.99418044774558
 31
0.0
  0
LINE
  5
55EA
330
A
100
AcDbEntity
  8
0
  6
Continuous
 62
     7
370
     0
100
AcDbLine
 10
94.99999999999909
 20
23.99418044776902
 30
0.0
 11
93.99999999999909
 21
23.99418044776902
 31
0.0
  0
LINE
  5
55EB
330
A
100
AcDbEntity
  8
0
  6
Continuous
 62
     7
370
     0
100
AcDbLine
 10
85.00000000000113
 20
-23.99418044775174
 30
0.0
 11
86.00000000000113
 21
-23.99418044775174
 31
0.0
  0
LINE
  5
55EC
330
A
100
AcDbEntity
  8
0
  6
Continuous
 62
     7
370
     0
100
AcDbLine
 10
86.00000000000113
 20
23.99418044776286
 30
0.0
 11
85.00000000000113
 21
23.99418044776286
 31
0.0
  0
LINE
  5
55ED
330
A
100
AcDbEntity
  8
0
  6
Continuous
 62
     7
370
     0
100
AcDbLine
 10
7.000000000001136
 20
-93.99999999998916
 30
0.0
 11
-6.999999999998863
 21
-93.99999999998916
 31
0.0
  0
LINE
  5
55EE
330
A
100
AcDbEntity
  8
0
  6
Continuous
 62
     9
370
     0
100
AcDbLine
 10
5.412842109679104
 20
-82.94999999999246
 30
0.0
 11
0.9589881024742226
 21
-82.94999999999246
 31
0.0
  0
LINE
  5
55EF
330
A
100
AcDbEntity
  8
0
  6
Continuous
 62
     7
370
     0
100
AcDbLine
 10
-0.2678321393257192
 20
-82.69999999999235
 30
0.0
 11
4.979829407788201
 21
-82.69999999999235
 31
0.0
  0
LINE
  5
55F0
330
A
100
AcDbEntity
  8
0
  6
Continuous
 62
     7
370
     0
100
AcDbLine
 10
14.17090562552812
 20
-99.99999999999127
 30
0.0
 11
-12.53939201417483
 21
-99.99999999999127
 31
0.0
  0
LINE
  5
55F1
330
A
100
AcDbEntity
  8
0
  6
Continuous
 62
     9
370
     0
100
AcDbLine
 10
14.17090562550811
 20
-101.9999999999922
 30
0.0
 11
14.17090562550811
 21
-99.99999999999127
 31
0.0
  0
LINE
  5
55F2
330
A
100
AcDbEntity
  8
0
  6
Continuous
 62
     9
370
     0
100
AcDbLine
 10
-12.53939201417097
 20
-101.9999999999922
 30
0.0
 11
14.17090562554017
 21
-101.9999999999922
 31
0.0
  0
LINE
  5
55F3
330
A
100
AcDbEntity
  8
0
  6
Continuous
 62
     9
370
     0
100
AcDbLine
 10
-12.53939201417097
 20
-101.9999999999922
 30
0.0
 11
-12.53939201417097
 21
-99.99999999999127
 31
0.0
  0
ELLIPSE
  5
55F4
330
A
100
AcDbEntity
  8
0
  6
Continuous
 62
     9
370
     0
100
AcDbEllipse
 10
11.30908802125714
 20
-101.9999999999922
 30
0.0
 11
0.0
 21
3.000000000000001
 31
0.0
210
0.0
220
0.0
230
1.0
 40
0.9539392014172015
 41
3.141592653589792
 42
4.712388980384683
  0
LINE
  5
55F5
330
A
100
AcDbEntity
  8
0
  6
Continuous
 62
     7
370
     0
100
AcDbLine
 10
11.30908802127419
 20
-104.9999999999935
 30
0.0
 11
-12.00000000000386
 21
-104.9999999999935
 31
0.0
  0
LINE
  5
55F6
330
A
100
AcDbEntity
  8
0
  6
Continuous
 62
     7
370
     0
100
AcDbLine
 10
-12.53939201416483
 20
-104.9511110204494
 30
0.0
 11
-12.00000000000182
 21
-104.9999999999935
 31
0.0
  0
LINE
  5
55F7
330
A
100
AcDbEntity
  8
0
  6
Continuous
 62
     9
370
     0
100
AcDbLine
 10
-12.53939201417097
 20
-101.9999999999922
 30
0.0
 11
-12.53939201417097
 21
-104.9511110204496
 31
0.0
  0
ARC
  5
55F8
330
A
100
AcDbEntity
  8
0
  6
Continuous
 62
     7
370
     0
100
AcDbCircle
 10
-12.00000000000182
 20
-101.9999999999922
 30
0.0
 40
3.000000000000556
100
AcDbArc
 50
180.0
 51
259.6420444534416
  0
LINE
  5
55F9
330
A
100
AcDbEntity
  8
0
  6
Continuous
 62
     9
370
     0
100
AcDbLine
 10
-15.00000000000182
 20
-101.9999999999921
 30
0.0
 11
-12.53939201417097
 21
-101.9999999999922
 31
0.0
  0
LINE
  5
55FA
330
A
100
AcDbEntity
  8
0
  6
Continuous
 62
     7
370
     0
100
AcDbLine
 10
-15.00000000000182
 20
-99.99999999999127
 30
0.0
 11
-12.53939201417097
 21
-99.99999999999127
 31
0.0
  0
LINE
  5
55FB
330
A
100
AcDbEntity
  8
0
  6
Continuous
 62
     7
370
     0
100
AcDbLine
 10
-15.00000000000182
 20
-101.9999999999921
 30
0.0
 11
-15.00000000000182
 21
-99.99999999999127
 31
0.0
  0
LINE
  5
55FC
330
A
100
AcDbEntity
  8
0
  6
Continuous
 62
     7
370
     0
100
AcDbLine
 10
12.00000000001409
 20
-104.9999999999935
 30
0.0
 11
11.30908802126714
 21
-104.9999999999935
 31
0.0
  0
LINE
  5
55FD
330
A
100
AcDbEntity
  8
0
  6
Continuous
 62
     9
370
     0
100
AcDbLine
 10
14.17090562552016
 20
-101.9999999999922
 30
0.0
 11
15.00000000001705
 21
-101.9999999999922
 31
0.0
  0
LINE
  5
55FE
330
A
100
AcDbEntity
  8
0
  6
Continuous
 62
     7
370
     0
100
AcDbLine
 10
15.00000000001705
 20
-99.99999999999127
 30
0.0
 11
14.17090562552016
 21
-99.99999999999127
 31
0.0
  0
LINE
  5
55FF
330
A
100
AcDbEntity
  8
0
  6
Continuous
 62
     7
370
     0
100
AcDbLine
 10
-4.900000000003956
 20
-93.49999999998827
 30
0.0
 11
0.0
 21
-93.49999999998827
 31
0.0
  0
LINE
  5
5600
330
A
100
AcDbEntity
  8
0
  6
Continuous
 62
     7
370
     0
100
AcDbLine
 10
0.0
 20
-93.49999999998827
 30
0.0
 11
4.900000000007139
 21
-93.49999999998827
 31
0.0
  0
LINE
  5
5601
330
A
100
AcDbEntity
  8
0
  6
Continuous
 62
     7
370
     0
100
AcDbLine
 10
-14.00000000000386
 20
-99.99999999998877
 30
0.0
 11
-14.00000000000386
 21
-98.99999999998847
 31
0.0
  0
LINE
  5
5602
330
A
100
AcDbEntity
  8
0
  6
Continuous
 62
     9
370
     0
100
AcDbLine
 10
-11.95684863886981
 20
-98.99999999998847
 30
0.0
 11
-11.95684863886981
 21
-99.99999999998877
 31
0.0
  0
LINE
  5
5603
330
A
100
AcDbEntity
  8
0
  6
Continuous
 62
     7
370
     0
100
AcDbLine
 10
-14.00000000000477
 20
-98.99999999998847
 30
0.0
 11
-11.95684863886981
 21
-98.99999999998847
 31
0.0
  0
LINE
  5
5604
330
A
100
AcDbEntity
  8
0
  6
Continuous
 62
     9
370
     0
100
AcDbLine
 10
13.21696642409301
 20
-99.99999999998877
 30
0.0
 11
13.21696642409301
 21
-98.99999999998847
 31
0.0
  0
LINE
  5
5605
330
A
100
AcDbEntity
  8
0
  6
Continuous
 62
     7
370
     0
100
AcDbLine
 10
-11.95684863886981
 20
-98.99999999998847
 30
0.0
 11
13.21696642411098
 21
-98.99999999998847
 31
0.0
  0
LINE
  5
5606
330
A
100
AcDbEntity
  8
0
  6
Continuous
 62
     7
370
     0
100
AcDbLine
 10
13.21696642409915
 20
-98.99999999998847
 30
0.0
 11
14.00000000001114
 21
-98.99999999998847
 31
0.0
  0
LINE
  5
5607
330
A
100
AcDbEntity
  8
0
  6
Continuous
 62
     7
370
     0
100
AcDbLine
 10
-13.99999999999681
 20
-90.99999999999047
 30
0.0
 11
-13.99999999999681
 21
-89.99999999999067
 31
0.0
  0
LINE
  5
5608
330
A
100
AcDbEntity
  8
0
  6
Continuous
 62
     9
370
     0
100
AcDbLine
 10
-11.9568486388639
 20
-89.99999999999067
 30
0.0
 11
-11.9568486388639
 21
-90.99999999999047
 31
0.0
  0
LINE
  5
5609
330
A
100
AcDbEntity
  8
0
  6
Continuous
 62
     7
370
     0
100
AcDbLine
 10
-11.9568486388639
 20
-90.99999999999047
 30
0.0
 11
-13.99999999999591
 21
-90.99999999999047
 31
0.0
  0
LINE
  5
560A
330
A
100
AcDbEntity
  8
0
  6
Continuous
 62
     7
370
     0
100
AcDbLine
 10
-13.99999999999681
 20
-89.99999999999067
 30
0.0
 11
-12.99999999999886
 21
-89.99999999999067
 31
0.0
  0
LINE
  5
560B
330
A
100
AcDbEntity
  8
0
  6
Continuous
 62
     9
370
     0
100
AcDbLine
 10
13.21696642408596
 20
-90.99999999999047
 30
0.0
 11
13.21696642408596
 21
-89.99999999999067
 31
0.0
  0
LINE
  5
560C
330
A
100
AcDbEntity
  8
0
  6
Continuous
 62
     7
370
     0
100
AcDbLine
 10
-11.9568486388639
 20
-90.99999999999047
 30
0.0
 11
13.21696642407619
 21
-90.99999999999047
 31
0.0
  0
LINE
  5
560D
330
A
100
AcDbEntity
  8
0
  6
Continuous
 62
     7
370
     0
100
AcDbLine
 10
13.21696642408324
 20
-90.99999999999047
 30
0.0
 11
13.99999999999409
 21
-90.99999999999047
 31
0.0
  0
ARC
  5
560E
330
A
100
AcDbEntity
  8
0
  6
Continuous
 62
     7
370
     0
100
AcDbCircle
 10
-19.66581635787088
 20
-180.7995725067409
 30
0.0
 40
100.000393624213
100
AcDbArc
 50
70.22265362943173
 51
85.91341171063646
  0
LINE
  5
560F
330
A
100
AcDbEntity
  8
0
  6
Continuous
 62
     9
370
     0
100
AcDbLine
 10
14.17090562550515
 20
-89.99999999999207
 30
0.0
 11
14.17090562550515
 21
-86.69773952556447
 31
0.0
  0
LINE
  5
5610
330
A
100
AcDbEntity
  8
0
  6
Continuous
 62
     7
370
     0
100
AcDbLine
 10
-12.53939201416869
 20
-89.99999999999197
 30
0.0
 11
14.17090562550515
 21
-89.99999999999197
 31
0.0
  0
LINE
  5
5611
330
A
100
AcDbEntity
  8
0
  6
Continuous
 62
     9
370
     0
100
AcDbLine
 10
-12.53939201416869
 20
-89.99999999999207
 30
0.0
 11
-12.53939201416869
 21
-81.05343072135147
 31
0.0
  0
LINE
  5
5612
330
A
100
AcDbEntity
  8
0
  6
Continuous
 62
     7
370
     0
100
AcDbLine
 10
-19.99999999999886
 20
-88.99999999999197
 30
0.0
 11
-14.0
 21
-88.99999999999197
 31
0.0
  0
ARC
  5
5613
330
A
100
AcDbEntity
  8
0
  6
Continuous
 62
     7
370
     0
100
AcDbCircle
 10
-19.66573420709596
 20
-180.7991837484818
 30
0.0
 40
99.99999999999996
100
AcDbArc
 50
85.91344278641335
 51
89.88965230247824
  0
ARC
  5
5614
330
A
100
AcDbEntity
  8
0
  6
Continuous
 62
     7
370
     0
100
AcDbCircle
 10
-19.99999999999886
 20
-74.99999999999207
 30
0.0
 40
14.00000000000001
100
AcDbArc
 50
180.0
 51
270.0
  0
LINE
  5
5615
330
A
100
AcDbEntity
  8
0
  6
Continuous
 62
     7
370
     0
100
AcDbLine
 10
-12.99999999999886
 20
-89.99999999999197
 30
0.0
 11
-12.53939201416869
 21
-89.99999999999207
 31
0.0
  0
LINE
  5
5616
330
A
100
AcDbEntity
  8
0
  6
Continuous
 62
     7
370
     0
100
AcDbLine
 10
-34.99999999999886
 20
-49.99999999999198
 30
0.0
 11
-34.99999999999886
 21
-73.99999999999207
 31
0.0
  0
ARC
  5
5617
330
A
100
AcDbEntity
  8
0
  6
Continuous
 62
     7
370
     0
100
AcDbCircle
 10
-32.70234234923601
 20
-50.99999999999207
 30
0.0
 40
1.000000000000029
100
AcDbArc
 50
19.63328609611871
 51
90.0
  0
ARC
  5
5618
330
A
100
AcDbEntity
  8
0
  6
Continuous
 62
     7
370
     0
100
AcDbCircle
 10
-14.0
 20
-89.99999999999197
 30
0.0
 40
1.0
100
AcDbArc
 50
0.0
 51
90.0
  0
ARC
  5
5619
330
A
100
AcDbEntity
  8
0
  6
Continuous
 62
     7
370
     0
100
AcDbCircle
 10
-125.946721193915
 20
-84.26388152139496
 30
0.0
 40
100.0000000000001
100
AcDbArc
 50
5.612444546287859
 51
19.63328609611871
  0
LINE
  5
561A
330
A
100
AcDbEntity
  8
0
  6
Continuous
 62
     7
370
     0
100
AcDbLine
 10
-32.70234234923601
 20
-49.99999999999198
 30
0.0
 11
-34.99999999999886
 21
-49.99999999999198
 31
0.0
  0
ARC
  5
561B
330
A
100
AcDbEntity
  8
0
  6
Continuous
 62
     7
370
     0
100
AcDbCircle
 10
-34.99999999999886
 20
-74.99999999999207
 30
0.0
 40
1.0
100
AcDbArc
 50
0.0
 51
90.0
  0
ARC
  5
561C
330
A
100
AcDbEntity
  8
0
  6
Continuous
 62
     7
370
     0
100
AcDbCircle
 10
-19.4596597556058
 20
-73.79938219109376
 30
0.0
 40
7.000000000000016
100
AcDbArc
 50
185.6124445462878
 51
269.8896523024782
  0
LINE
  5
5629
330
A
100
AcDbEntity
  8
0
  6
Continuous
 62
     7
370
     0
100
AcDbLine
 10
14.34005792128414
 20
-86.75873446349905
 30
0.0
 11
14.17090562550515
 21
-86.69773952556447
 31
0.0
  0
LINE
  5
562A
330
A
100
AcDbEntity
  8
0
  6
Continuous
 62
     7
370
     0
100
AcDbLine
 10
14.17090562550515
 20
-89.99999999999207
 30
0.0
 11
15.00000000000113
 21
-89.99999999999207
 31
0.0
  0
LINE
  5
562B
330
A
100
AcDbEntity
  8
0
  6
Continuous
 62
     9
370
     0
100
AcDbLine
 10
2.500000003082277
 20
-93.49997999998857
 30
0.0
 11
2.500000003082277
 21
-90.99999999999047
 31
0.0
  0
LINE
  5
562C
330
A
100
AcDbEntity
  8
0
  6
Continuous
 62
     9
370
     0
100
AcDbLine
 10
-2.499999996918631
 20
-90.99999999999047
 30
0.0
 11
-2.499999996918631
 21
-93.49997999998857
 31
0.0
  0
LINE
  5
562D
330
A
100
AcDbEntity
  8
0
  6
Continuous
 62
     7
370
     0
100
AcDbLine
 10
7.000000000001136
 20
-98.99999999998916
 30
0.0
 11
7.000000000001136
 21
-93.99999999998916
 31
0.0
  0
LINE
  5
562E
330
A
100
AcDbEntity
  8
0
  6
Continuous
 62
     7
370
     0
100
AcDbLine
 10
-6.999999999998863
 20
-93.99999999998916
 30
0.0
 11
-6.999999999998863
 21
-98.99999999998916
 31
0.0
  0
LINE
  5
562F
330
A
100
AcDbEntity
  8
0
  6
Continuous
 62
     7
370
     0
100
AcDbLine
 10
6.124463913266254
 20
-84.18256511958267
 30
0.0
 11
5.412842109677285
 21
-82.94999999999246
 31
0.0
  0
ARC
  5
5630
330
A
100
AcDbEntity
  8
0
  6
Continuous
 62
     7
370
     0
100
AcDbCircle
 10
4.979829407785018
 20
-83.19999999999247
 30
0.0
 40
0.4999999999998919
100
AcDbArc
 50
30.00000000000662
 51
90.0
  0
LINE
  5
5631
330
A
100
AcDbEntity
  8
0
  6
Continuous
 62
     7
370
     0
100
AcDbLine
 10
3.000000003082277
 20
-93.49998063845378
 30
0.0
 11
3.000000003082277
 21
-90.99999999999047
 31
0.0
  0
LINE
  5
5632
330
A
100
AcDbEntity
  8
0
  6
Continuous
 62
     7
370
     0
100
AcDbLine
 10
-2.999999996917722
 20
-90.99999999999047
 30
0.0
 11
-2.999999996917722
 21
-93.49998063685935
 31
0.0
  0
ARC
  5
5633
330
A
100
AcDbEntity
  8
0
  6
Continuous
 62
     7
370
     0
100
AcDbCircle
 10
12.00000000000705
 20
-101.9999999999922
 30
0.0
 40
3.000000000000001
100
AcDbArc
 50
269.9999999999609
 51
0.0
  0
LINE
  5
5634
330
A
100
AcDbEntity
  8
0
  6
Continuous
 62
     7
370
     0
100
AcDbLine
 10
15.00000000000318
 20
-101.9999999999921
 30
0.0
 11
15.00000000000318
 21
-99.99999999999127
 31
0.0
  0
LINE
  5
5635
330
A
100
AcDbEntity
  8
0
  6
Continuous
 62
     7
370
     0
100
AcDbLine
 10
-4.899999999999863
 20
-93.49999999998827
 30
0.0
 11
-4.899999999999863
 21
-93.99999999998366
 31
0.0
  0
LINE
  5
5636
330
A
100
AcDbEntity
  8
0
  6
Continuous
 62
     7
370
     0
100
AcDbLine
 10
4.900000000001227
 20
-93.99999999998366
 30
0.0
 11
4.900000000001227
 21
-93.49999999998827
 31
0.0
  0
LINE
  5
5637
330
A
100
AcDbEntity
  8
0
  6
Continuous
 62
     7
370
     0
100
AcDbLine
 10
14.000000000005
 20
-99.99999999998877
 30
0.0
 11
14.000000000005
 21
-98.99999999998847
 31
0.0
  0
LINE
  5
5638
330
A
100
AcDbEntity
  8
0
  6
Continuous
 62
     7
370
     0
100
AcDbLine
 10
13.99999999999818
 20
-90.99999999999047
 30
0.0
 11
13.99999999999818
 21
-89.99999999999067
 31
0.0
  0
LINE
  5
5639
330
A
100
AcDbEntity
  8
0
  6
Continuous
 62
     7
370
     0
100
AcDbLine
 10
15.00000000000113
 20
-89.99999999999197
 30
0.0
 11
15.00000000000113
 21
-87.69913895634898
 31
0.0
  0
LINE
  5
563A
330
A
100
AcDbEntity
  8
0
  6
Continuous
 62
     7
370
     0
100
AcDbLine
 10
-6.999999999998863
 20
94.00000000000796
 30
0.0
 11
7.000000000001136
 21
94.00000000000796
 31
0.0
  0
LINE
  5
563B
330
A
100
AcDbEntity
  8
0
  6
Continuous
 62
     9
370
     0
100
AcDbLine
 10
0.9594315643432764
 20
82.95000000001124
 30
0.0
 11
5.412842109680013
 21
82.95000000001124
 31
0.0
  0
LINE
  5
563C
330
A
100
AcDbEntity
  8
0
  6
Continuous
 62
     7
370
     0
100
AcDbLine
 10
4.979829407786155
 20
82.70000000001124
 30
0.0
 11
-0.0479459724888329
 21
82.70000000001124
 31
0.0
  0
ELLIPSE
  5
563D
330
A
100
AcDbEntity
  8
0
  6
Continuous
 62
     9
370
     0
100
AcDbEllipse
 10
11.30908802125714
 20
102.0000000000109
 30
0.0
 11
0.0
 21
-3.000000000000001
 31
0.0
210
0.0
220
0.0
230
1.0
 40
0.9539392014172019
 41
1.570796326794896
 42
3.141592653589792
  0
LINE
  5
563E
330
A
100
AcDbEntity
  8
0
  6
Continuous
 62
     9
370
     0
100
AcDbLine
 10
14.17090562552812
 20
102.0000000000109
 30
0.0
 11
-12.53939201417483
 21
102.0000000000109
 31
0.0
  0
LINE
  5
563F
330
A
100
AcDbEntity
  8
0
  6
Continuous
 62
     9
370
     0
100
AcDbLine
 10
-12.53939201417097
 20
104.9511110204679
 30
0.0
 11
-12.53939201417097
 21
102.0000000000109
 31
0.0
  0
LINE
  5
5640
330
A
100
AcDbEntity
  8
0
  6
Continuous
 62
     7
370
     0
100
AcDbLine
 10
-12.00000000000182
 20
105.0000000000123
 30
0.0
 11
-12.53939201417097
 21
104.9511110204683
 31
0.0
  0
LINE
  5
5641
330
A
100
AcDbEntity
  8
0
  6
Continuous
 62
     7
370
     0
100
AcDbLine
 10
-12.00000000000091
 20
105.0000000000123
 30
0.0
 11
11.3090880212851
 21
105.0000000000123
 31
0.0
  0
LINE
  5
5642
330
A
100
AcDbEntity
  8
0
  6
Continuous
 62
     7
370
     0
100
AcDbLine
 10
-12.53939201417097
 20
100.0000000000101
 30
0.0
 11
14.17090562554017
 21
100.0000000000101
 31
0.0
  0
LINE
  5
5643
330
A
100
AcDbEntity
  8
0
  6
Continuous
 62
     9
370
     0
100
AcDbLine
 10
-12.53939201417097
 20
102.0000000000109
 30
0.0
 11
-12.53939201417097
 21
100.0000000000101
 31
0.0
  0
LINE
  5
5644
330
A
100
AcDbEntity
  8
0
  6
Continuous
 62
     9
370
     0
100
AcDbLine
 10
14.17090562550811
 20
102.0000000000109
 30
0.0
 11
14.17090562550811
 21
100.0000000000101
 31
0.0
  0
LINE
  5
5645
330
A
100
AcDbEntity
  8
0
  6
Continuous
 62
     9
370
     0
100
AcDbLine
 10
-12.53939201417097
 20
102.0000000000109
 30
0.0
 11
-15.00000000000182
 21
102.0000000000109
 31
0.0
  0
ARC
  5
5646
330
A
100
AcDbEntity
  8
0
  6
Continuous
 62
     7
370
     0
100
AcDbCircle
 10
-12.00000000000182
 20
102.0000000000109
 30
0.0
 40
3.000000000000461
100
AcDbArc
 50
100.3579555466115
 51
179.9999999999984
  0
LINE
  5
5647
330
A
100
AcDbEntity
  8
0
  6
Continuous
 62
     7
370
     0
100
AcDbLine
 10
-15.00000000000182
 20
100.0000000000101
 30
0.0
 11
-12.53939201417097
 21
100.0000000000101
 31
0.0
  0
LINE
  5
5648
330
A
100
AcDbEntity
  8
0
  6
Continuous
 62
     7
370
     0
100
AcDbLine
 10
-15.00000000000182
 20
102.0000000000109
 30
0.0
 11
-15.00000000000182
 21
100.0000000000101
 31
0.0
  0
LINE
  5
5649
330
A
100
AcDbEntity
  8
0
  6
Continuous
 62
     9
370
     0
100
AcDbLine
 10
15.00000000001705
 20
102.0000000000109
 30
0.0
 11
14.17090562552016
 21
102.0000000000109
 31
0.0
  0
LINE
  5
564A
330
A
100
AcDbEntity
  8
0
  6
Continuous
 62
     7
370
     0
100
AcDbLine
 10
11.30908802126714
 20
105.0000000000123
 30
0.0
 11
12.00000000001523
 21
105.0000000000123
 31
0.0
  0
LINE
  5
564B
330
A
100
AcDbEntity
  8
0
  6
Continuous
 62
     7
370
     0
100
AcDbLine
 10
14.17090562552016
 20
100.0000000000101
 30
0.0
 11
15.00000000001705
 21
100.0000000000101
 31
0.0
  0
LINE
  5
564C
330
A
100
AcDbEntity
  8
0
  6
Continuous
 62
     7
370
     0
100
AcDbLine
 10
4.900000000005093
 20
93.5000000000071
 30
0.0
 11
-4.900000000003956
 21
93.5000000000071
 31
0.0
  0
LINE
  5
564D
330
A
100
AcDbEntity
  8
0
  6
Continuous
 62
     9
370
     0
100
AcDbLine
 10
-11.95684863886981
 20
100.0000000000075
 30
0.0
 11
-11.95684863886981
 21
99.00000000000728
 31
0.0
  0
LINE
  5
564E
330
A
100
AcDbEntity
  8
0
  6
Continuous
 62
     7
370
     0
100
AcDbLine
 10
-11.95684863886981
 20
99.00000000000728
 30
0.0
 11
-14.00000000000477
 21
99.00000000000728
 31
0.0
  0
LINE
  5
564F
330
A
100
AcDbEntity
  8
0
  6
Continuous
 62
     7
370
     0
100
AcDbLine
 10
-14.00000000000386
 20
99.00000000000728
 30
0.0
 11
-14.00000000000386
 21
100.0000000000075
 31
0.0
  0
LINE
  5
5650
330
A
100
AcDbEntity
  8
0
  6
Continuous
 62
     9
370
     0
100
AcDbLine
 10
13.21696642409301
 20
100.0000000000075
 30
0.0
 11
13.21696642409301
 21
99.00000000000728
 31
0.0
  0
LINE
  5
5651
330
A
100
AcDbEntity
  8
0
  6
Continuous
 62
     7
370
     0
100
AcDbLine
 10
13.21696642410325
 20
99.00000000000728
 30
0.0
 11
-11.95684863887186
 21
99.00000000000728
 31
0.0
  0
LINE
  5
5652
330
A
100
AcDbEntity
  8
0
  6
Continuous
 62
     7
370
     0
100
AcDbLine
 10
14.00000000001114
 20
99.00000000000728
 30
0.0
 11
13.21696642409915
 21
99.00000000000728
 31
0.0
  0
LINE
  5
5653
330
A
100
AcDbEntity
  8
0
  6
Continuous
 62
     9
370
     0
100
AcDbLine
 10
-11.9568486388639
 20
91.00000000000926
 30
0.0
 11
-11.9568486388639
 21
90.00000000000943
 31
0.0
  0
LINE
  5
5654
330
A
100
AcDbEntity
  8
0
  6
Continuous
 62
     7
370
     0
100
AcDbLine
 10
-12.99999999999886
 20
90.00000000000943
 30
0.0
 11
-13.99999999999591
 21
90.00000000000943
 31
0.0
  0
LINE
  5
5655
330
A
100
AcDbEntity
  8
0
  6
Continuous
 62
     7
370
     0
100
AcDbLine
 10
-13.99999999999681
 20
90.00000000000943
 30
0.0
 11
-13.99999999999681
 21
91.00000000000926
 31
0.0
  0
LINE
  5
5656
330
A
100
AcDbEntity
  8
0
  6
Continuous
 62
     7
370
     0
100
AcDbLine
 10
-13.99999999999681
 20
91.00000000000926
 30
0.0
 11
-11.9568486388639
 21
91.00000000000926
 31
0.0
  0
LINE
  5
5657
330
A
100
AcDbEntity
  8
0
  6
Continuous
 62
     9
370
     0
100
AcDbLine
 10
13.21696642408596
 20
91.00000000000926
 30
0.0
 11
13.21696642408596
 21
90.00000000000943
 31
0.0
  0
LINE
  5
5658
330
A
100
AcDbEntity
  8
0
  6
Continuous
 62
     7
370
     0
100
AcDbLine
 10
13.21696642408119
 20
91.00000000000926
 30
0.0
 11
-11.95684863886276
 21
91.00000000000926
 31
0.0
  0
LINE
  5
5659
330
A
100
AcDbEntity
  8
0
  6
Continuous
 62
     7
370
     0
100
AcDbLine
 10
13.99999999999522
 20
91.00000000000926
 30
0.0
 11
13.21696642408324
 21
91.00000000000926
 31
0.0
  0
ARC
  5
565A
330
A
100
AcDbEntity
  8
0
  6
Continuous
 62
     7
370
     0
100
AcDbCircle
 10
-19.4596597556058
 20
73.79938219111244
 30
0.0
 40
7.000000000000045
100
AcDbArc
 50
90.11034769752175
 51
174.3875554537121
  0
ARC
  5
565B
330
A
100
AcDbEntity
  8
0
  6
Continuous
 62
     7
370
     0
100
AcDbCircle
 10
-125.946721193915
 20
84.26388152141379
 30
0.0
 40
100.0000000000001
100
AcDbArc
 50
340.3667139038813
 51
354.3875554537121
  0
ARC
  5
565C
330
A
100
AcDbEntity
  8
0
  6
Continuous
 62
     7
370
     0
100
AcDbCircle
 10
-32.70234234923601
 20
51.00000000001085
 30
0.0
 40
1.000000000000039
100
AcDbArc
 50
270.0
 51
340.3667139038798
  0
LINE
  5
565D
330
A
100
AcDbEntity
  8
0
  6
Continuous
 62
     7
370
     0
100
AcDbLine
 10
-32.70234234923601
 20
50.00000000001086
 30
0.0
 11
-34.99999999999886
 21
50.00000000001086
 31
0.0
  0
LINE
  5
565E
330
A
100
AcDbEntity
  8
0
  6
Continuous
 62
     7
370
     0
100
AcDbLine
 10
-34.99999999999886
 20
50.00000000001086
 30
0.0
 11
-34.99999999999886
 21
74.00000000001075
 31
0.0
  0
ARC
  5
565F
330
A
100
AcDbEntity
  8
0
  6
Continuous
 62
     7
370
     0
100
AcDbCircle
 10
-34.99999999999886
 20
75.0000000000108
 30
0.0
 40
1.0
100
AcDbArc
 50
270.0
 51
0.0
  0
ARC
  5
5660
330
A
100
AcDbEntity
  8
0
  6
Continuous
 62
     7
370
     0
100
AcDbCircle
 10
-19.99999999999886
 20
75.0000000000108
 30
0.0
 40
14.00000000000001
100
AcDbArc
 50
90.0
 51
180.0
  0
LINE
  5
5661
330
A
100
AcDbEntity
  8
0
  6
Continuous
 62
     7
370
     0
100
AcDbLine
 10
-19.99999999999886
 20
89.0000000000108
 30
0.0
 11
-14.0
 21
89.0000000000108
 31
0.0
  0
LINE
  5
5662
330
A
100
AcDbEntity
  8
0
  6
Continuous
 62
     9
370
     0
100
AcDbLine
 10
-12.53939201416869
 20
90.0000000000108
 30
0.0
 11
-12.53939201416869
 21
81.05343072137026
 31
0.0
  0
ARC
  5
5663
330
A
100
AcDbEntity
  8
0
  6
Continuous
 62
     7
370
     0
100
AcDbCircle
 10
-19.66573420709596
 20
180.7991837485007
 30
0.0
 40
100.0
100
AcDbArc
 50
270.1103476975218
 51
274.0865572135866
  0
LINE
  5
5664
330
A
100
AcDbEntity
  8
0
  6
Continuous
 62
     7
370
     0
100
AcDbLine
 10
-12.99999999999886
 20
90.0000000000108
 30
0.0
 11
-12.53939201416869
 21
90.0000000000108
 31
0.0
  0
ARC
  5
5665
330
A
100
AcDbEntity
  8
0
  6
Continuous
 62
     7
370
     0
100
AcDbCircle
 10
-14.0
 20
90.0000000000108
 30
0.0
 40
1.0
100
AcDbArc
 50
270.0
 51
0.0
  0
LINE
  5
5666
330
A
100
AcDbEntity
  8
0
  6
Continuous
 62
     9
370
     0
100
AcDbLine
 10
14.17090562550515
 20
90.0000000000108
 30
0.0
 11
14.17090562550515
 21
86.6977395255833
 31
0.0
  0
ARC
  5
5667
330
A
100
AcDbEntity
  8
0
  6
Continuous
 62
     7
370
     0
100
AcDbCircle
 10
-19.66581384528581
 20
180.7995606165711
 30
0.0
 40
100.0003815851985
100
AcDbArc
 50
274.086587338906
 51
289.7773473210241
  0
LINE
  5
5668
330
A
100
AcDbEntity
  8
0
  6
Continuous
 62
     7
370
     0
100
AcDbLine
 10
14.17090562550515
 20
90.0000000000108
 30
0.0
 11
-12.53939201416869
 21
90.0000000000108
 31
0.0
  0
LINE
  5
5669
330
A
100
AcDbEntity
  8
0
  6
Continuous
 62
     7
370
     0
100
AcDbLine
 10
15.00000000000113
 20
90.0000000000108
 30
0.0
 11
14.17090562550515
 21
90.0000000000108
 31
0.0
  0
LINE
  5
5676
330
A
100
AcDbEntity
  8
0
  6
Continuous
 62
     7
370
     0
100
AcDbLine
 10
14.17090562550515
 20
86.6977395255833
 30
0.0
 11
14.34005792128414
 21
86.75873446351795
 31
0.0
  0
LINE
  5
5677
330
A
100
AcDbEntity
  8
0
  6
Continuous
 62
     9
370
     0
100
AcDbLine
 10
-2.499999996918631
 20
93.49998000000733
 30
0.0
 11
-2.499999996918631
 21
91.00000000000926
 31
0.0
  0
LINE
  5
5678
330
A
100
AcDbEntity
  8
0
  6
Continuous
 62
     9
370
     0
100
AcDbLine
 10
2.500000003082277
 20
91.00000000000926
 30
0.0
 11
2.500000003082277
 21
93.49998000000733
 31
0.0
  0
LINE
  5
5679
330
A
100
AcDbEntity
  8
0
  6
Continuous
 62
     7
370
     0
100
AcDbLine
 10
-6.999999999998863
 20
99.00000000000796
 30
0.0
 11
-6.999999999998863
 21
94.00000000000796
 31
0.0
  0
LINE
  5
567A
330
A
100
AcDbEntity
  8
0
  6
Continuous
 62
     7
370
     0
100
AcDbLine
 10
7.000000000001136
 20
94.00000000000796
 30
0.0
 11
7.000000000001136
 21
99.00000000000796
 31
0.0
  0
LINE
  5
567B
330
A
100
AcDbEntity
  8
0
  6
Continuous
 62
     7
370
     0
100
AcDbLine
 10
5.412842109677285
 20
82.95000000001124
 30
0.0
 11
6.124815842040106
 21
84.18317467811823
 31
0.0
  0
ARC
  5
567C
330
A
100
AcDbEntity
  8
0
  6
Continuous
 62
     7
370
     0
100
AcDbCircle
 10
4.979829407785018
 20
83.2000000000113
 30
0.0
 40
0.5000000000000006
100
AcDbArc
 50
270.0
 51
330.0000000000055
  0
LINE
  5
567D
330
A
100
AcDbEntity
  8
0
  6
Continuous
 62
     7
370
     0
100
AcDbLine
 10
-2.999999996917722
 20
93.49998063687815
 30
0.0
 11
-2.999999996917722
 21
91.00000000000926
 31
0.0
  0
LINE
  5
567E
330
A
100
AcDbEntity
  8
0
  6
Continuous
 62
     7
370
     0
100
AcDbLine
 10
3.000000003082277
 20
91.00000000000926
 30
0.0
 11
3.000000003082277
 21
93.49998063847255
 31
0.0
  0
ARC
  5
567F
330
A
100
AcDbEntity
  8
0
  6
Continuous
 62
     7
370
     0
100
AcDbCircle
 10
12.00000000000705
 20
102.0000000000109
 30
0.0
 40
2.99999999999989
100
AcDbArc
 50
0.0
 51
90.00000000003907
  0
LINE
  5
5680
330
A
100
AcDbEntity
  8
0
  6
Continuous
 62
     7
370
     0
100
AcDbLine
 10
15.00000000000318
 20
100.0000000000101
 30
0.0
 11
15.00000000000318
 21
102.0000000000109
 31
0.0
  0
LINE
  5
5681
330
A
100
AcDbEntity
  8
0
  6
Continuous
 62
     7
370
     0
100
AcDbLine
 10
4.900000000001227
 20
93.5000000000071
 30
0.0
 11
4.900000000001227
 21
94.00000000000256
 31
0.0
  0
LINE
  5
5682
330
A
100
AcDbEntity
  8
0
  6
Continuous
 62
     7
370
     0
100
AcDbLine
 10
-4.899999999999863
 20
94.00000000000256
 30
0.0
 11
-4.899999999999863
 21
93.5000000000071
 31
0.0
  0
LINE
  5
5683
330
A
100
AcDbEntity
  8
0
  6
Continuous
 62
     7
370
     0
100
AcDbLine
 10
14.000000000005
 20
99.00000000000728
 30
0.0
 11
14.000000000005
 21
100.0000000000075
 31
0.0
  0
LINE
  5
5684
330
A
100
AcDbEntity
  8
0
  6
Continuous
 62
     7
370
     0
100
AcDbLine
 10
13.99999999999818
 20
90.00000000000943
 30
0.0
 11
13.99999999999818
 21
91.00000000000926
 31
0.0
  0
LINE
  5
5685
330
A
100
AcDbEntity
  8
0
  6
Continuous
 62
     7
370
     0
100
AcDbLine
 10
15.00000000000113
 20
87.69913895636774
 30
0.0
 11
15.00000000000113
 21
90.0000000000108
 31
0.0
  0
LINE
  5
5686
330
A
100
AcDbEntity
  8
0
  6
Continuous
 62
     7
370
     0
100
AcDbLine
 10
-12.53939201416483
 20
22.53939201418612
 30
0.0
 11
-12.00000000000182
 21
21.99418044777951
 31
0.0
  0
LINE
  5
5687
330
A
100
AcDbEntity
  8
0
  6
Continuous
 62
     9
370
     0
100
AcDbLine
 10
-12.00000000000182
 20
-21.99418044774774
 30
0.0
 11
-12.00000000000182
 21
21.99418044777951
 31
0.0
  0
LINE
  5
5688
330
A
100
AcDbEntity
  8
0
  6
Continuous
 62
     7
370
     0
100
AcDbLine
 10
-12.00000000000182
 20
-21.99418044774774
 30
0.0
 11
-12.53939201417097
 21
-22.53939201415426
 31
0.0
  0
LINE
  5
5689
330
A
100
AcDbEntity
  8
0
  6
Continuous
 62
     7
370
     0
100
AcDbLine
 10
-12.53939201416779
 20
-22.53939201415716
 30
0.0
 11
-15.00000000000273
 21
-24.99999999999275
 31
0.0
  0
LINE
  5
568A
330
A
100
AcDbEntity
  8
0
  6
Continuous
 62
     7
370
     0
100
AcDbLine
 10
-15.00000000000182
 20
-24.99999999999136
 30
0.0
 11
-15.00000000000182
 21
25.00000000002325
 31
0.0
  0
LINE
  5
568B
330
A
100
AcDbEntity
  8
0
  6
Continuous
 62
     7
370
     0
100
AcDbLine
 10
-15.00000000000273
 20
25.00000000002456
 30
0.0
 11
-12.53939201416483
 21
22.53939201418612
 31
0.0
  0
ARC
  5
568C
330
A
100
AcDbEntity
  8
0
  6
Continuous
 62
     7
370
     0
100
AcDbCircle
 10
-12.53939201417097
 20
-2.999999999984964
 30
0.0
 40
28.00000000000002
100
AcDbArc
 50
17.45760312372479
 51
90.0
  0
LINE
  5
568D
330
A
100
AcDbEntity
  8
0
  6
Continuous
 62
     9
370
     0
100
AcDbLine
 10
14.17090562550902
 20
5.400000000017826
 30
0.0
 11
11.30908802125714
 21
4.500000000017251
 31
0.0
  0
ARC
  5
568E
330
A
100
AcDbEntity
  8
0
  6
Continuous
 62
     9
370
     0
100
AcDbCircle
 10
-12.53939201417097
 20
-2.999999999984964
 30
0.0
 40
24.99999999999989
100
AcDbArc
 50
17.45760312372479
 51
88.76370863308848
  0
LINE
  5
568F
330
A
100
AcDbEntity
  8
0
  6
Continuous
 62
     9
370
     0
100
AcDbLine
 10
-12.53939201417097
 20
25.00000000002336
 30
0.0
 11
-12.53939201417097
 21
22.53939201418603
 31
0.0
  0
ARC
  5
5690
330
A
100
AcDbEntity
  8
0
  6
Continuous
 62
     7
370
     0
100
AcDbCircle
 10
-3.0
 20
0.0000000000159162
 30
0.0
 40
18.00000000000011
100
AcDbArc
 50
342.5423968762752
 51
17.45760312372479
  0
LINE
  5
5691
330
A
100
AcDbEntity
  8
0
  6
Continuous
 62
     9
370
     0
100
AcDbLine
 10
14.17090562550902
 20
-5.399999999985993
 30
0.0
 11
11.30908802125714
 21
-4.499999999985362
 31
0.0
  0
ARC
  5
5692
330
A
100
AcDbEntity
  8
0
  6
Continuous
 62
     9
370
     0
100
AcDbCircle
 10
-3.0
 20
0.0000000000159162
 30
0.0
 40
15.00000000000016
100
AcDbArc
 50
342.5423968762752
 51
17.45760312372479
  0
ARC
  5
5693
330
A
100
AcDbEntity
  8
0
  6
Continuous
 62
     7
370
     0
100
AcDbCircle
 10
-12.53939201417097
 20
3.000000000016768
 30
0.0
 40
27.99999999999983
100
AcDbArc
 50
270.0
 51
342.5423968762752
  0
LINE
  5
5694
330
A
100
AcDbEntity
  8
0
  6
Continuous
 62
     9
370
     0
100
AcDbLine
 10
-12.53939201417097
 20
-22.53939201415426
 30
0.0
 11
-12.53939201417097
 21
-24.99999999999199
 31
0.0
  0
ARC
  5
5695
330
A
100
AcDbEntity
  8
0
  6
Continuous
 62
     9
370
     0
100
AcDbCircle
 10
-12.53939201417097
 20
3.000000000016768
 30
0.0
 40
24.99999999999999
100
AcDbArc
 50
271.2362913669115
 51
342.5423968762752
  0
LINE
  5
5696
330
A
100
AcDbEntity
  8
0
  6
Continuous
 62
     7
370
     0
100
AcDbLine
 10
-15.00000000000182
 20
25.00000000002325
 30
0.0
 11
-12.53939201417097
 21
25.00000000002325
 31
0.0
  0
LINE
  5
5697
330
A
100
AcDbEntity
  8
0
  6
Continuous
 62
     7
370
     0
100
AcDbLine
 10
-12.53939201417097
 20
-24.99999999999136
 30
0.0
 11
-15.00000000000182
 21
-24.99999999999136
 31
0.0
  0
LINE
  5
5698
330
A
100
AcDbEntity
  8
0
  6
Continuous
 62
     7
370
     0
100
AcDbLine
 10
-34.0
 20
25.00000000001475
 30
0.0
 11
-34.0
 21
-24.99999999998525
 31
0.0
  0
LINE
  5
5699
330
A
100
AcDbEntity
  8
0
  6
Continuous
 62
     9
370
     0
100
AcDbLine
 10
-19.99999999999886
 20
25.00000000001475
 30
0.0
 11
-19.99999999999886
 21
-24.99999999998525
 31
0.0
  0
LINE
  5
569A
330
A
100
AcDbEntity
  8
0
  6
Continuous
 62
     7
370
     0
100
AcDbLine
 10
-34.0
 20
-24.99999999998525
 30
0.0
 11
-19.99999999999886
 21
-24.99999999998525
 31
0.0
  0
LINE
  5
569B
330
A
100
AcDbEntity
  8
0
  6
Continuous
 62
     7
370
     0
100
AcDbLine
 10
-34.0
 20
25.00000000001475
 30
0.0
 11
-19.99999999999886
 21
25.00000000001475
 31
0.0
  0
LINE
  5
569C
330
A
100
AcDbEntity
  8
0
  6
Continuous
 62
     7
370
     0
100
AcDbLine
 10
-19.99999999999886
 20
-24.99999999998525
 30
0.0
 11
-15.00000000000182
 21
-24.99999999998525
 31
0.0
  0
LINE
  5
569D
330
A
100
AcDbEntity
  8
0
  6
Continuous
 62
     7
370
     0
100
AcDbLine
 10
-19.99999999999886
 20
25.00000000001475
 30
0.0
 11
-15.00000000000182
 21
25.00000000001475
 31
0.0
  0
LINE
  5
569E
330
A
100
AcDbEntity
  8
0
  6
Continuous
 62
     7
370
     0
100
AcDbLine
 10
-34.99999999999886
 20
25.00000000001475
 30
0.0
 11
-34.99999999999886
 21
-24.99999999998525
 31
0.0
  0
LINE
  5
569F
330
A
100
AcDbEntity
  8
0
  6
Continuous
 62
     7
370
     0
100
AcDbLine
 10
-34.0
 20
-24.99999999998525
 30
0.0
 11
-34.99999999999886
 21
-24.99999999998525
 31
0.0
  0
LINE
  5
56A0
330
A
100
AcDbEntity
  8
0
  6
Continuous
 62
     7
370
     0
100
AcDbLine
 10
-34.0
 20
25.00000000001475
 30
0.0
 11
-34.99999999999886
 21
25.00000000001475
 31
0.0
  0
TEXT
  5
6248
330
A
100
AcDbEntity
  8
0
  6
Continuous
 62
     7
370
     0
100
AcDbText
 10
-15.64984527429487
 20
52.50732064422613
 30
0.0
 40
10.0
  1
4418
100
AcDbText
  0
ARC
  5
6249
330
A
100
AcDbEntity
  8
0
  6
Continuous
 62
     7
370
     0
100
AcDbCircle
 10
64.36384650360719
 20
-82.69845420465015
 30
0.0
 40
27.6776055694029
100
AcDbArc
 50
11.3032047918415
 51
57.81345266022118
  0
ARC
  5
624A
330
A
100
AcDbEntity
  8
0
  6
Continuous
 62
     7
370
     0
100
AcDbCircle
 10
70.00792514230216
 20
-75.34274135477414
 30
0.0
 40
18.46582280747274
100
AcDbArc
 50
60.47805468016132
 51
76.20318459017823
  0
LINE
  5
624B
330
A
100
AcDbEntity
  8
0
  6
Continuous
 62
     7
370
     0
100
AcDbLine
 10
-100.2519584154629
 20
6.000000000001108
 30
0.0
 11
-100.1284685214727
 21
5.967226569194224
 31
0.0
  0
LINE
  5
624C
330
A
100
AcDbEntity
  8
0
  6
Continuous
 62
     7
370
     0
100
AcDbLine
 10
-100.1284685214727
 20
5.967226569194224
 30
0.0
 11
-100.0289212364498
 21
5.889381338309448
 31
0.0
  0
LINE
  5
624D
330
A
100
AcDbEntity
  8
0
  6
Continuous
 62
     7
370
     0
100
AcDbLine
 10
-100.0289212364498
 20
5.889381338309448
 30
0.0
 11
-99.93545547785993
 21
5.76872108245152
 31
0.0
  0
ARC
  5
624E
330
A
100
AcDbEntity
  8
0
  6
Continuous
 62
     7
370
     0
100
AcDbCircle
 10
-123.1883704333568
 20
-0.2031411236756639
 30
0.0
 40
24.00752365689915
100
AcDbArc
 50
352.7800866931406
 51
14.40353303196233
  0
ARC
  5
624F
330
A
100
AcDbEntity
  8
0
  6
Continuous
 62
     7
370
     0
100
AcDbCircle
 10
-106.6289942003218
 20
-2.96430415172685
 30
0.0
 40
7.26230914699171
100
AcDbArc
 50
337.5128495992096
 51
357.9794391146716
  0
LINE
  5
6250
330
A
100
AcDbEntity
  8
0
  6
Continuous
 62
     7
370
     0
100
AcDbLine
 10
-99.91887231203691
 20
-5.741964748493558
 30
0.0
 11
-100.0096445828269
 21
-5.868504690921952
 31
0.0
  0
LINE
  5
6251
330
A
100
AcDbEntity
  8
0
  6
Continuous
 62
     7
370
     0
100
AcDbLine
 10
-100.0096445828269
 20
-5.868504690921952
 30
0.0
 11
-100.1281782249777
 21
-5.967002830678154
 31
0.0
  0
LINE
  5
6252
330
A
100
AcDbEntity
  8
0
  6
Continuous
 62
     7
370
     0
100
AcDbLine
 10
-100.1281782249777
 20
-5.967002830678154
 30
0.0
 11
-100.2519558524609
 21
-5.999999999985249
 31
0.0
  0
LINE
  5
6253
330
A
100
AcDbEntity
  8
0
  6
Continuous
 62
     7
370
     0
100
AcDbLine
 10
-100.2519558524609
 20
-5.999999999985249
 30
0.0
 11
-100.3553931823448
 21
-5.978349689630277
 31
0.0
  0
LINE
  5
6254
330
A
100
AcDbEntity
  8
0
  6
Continuous
 62
     7
370
     0
100
AcDbLine
 10
-100.3553931823448
 20
-5.978349689630277
 30
0.0
 11
-100.4607227287649
 21
-5.913762052125264
 31
0.0
  0
LINE
  5
6255
330
A
100
AcDbEntity
  8
0
  6
Continuous
 62
     7
370
     0
100
AcDbLine
 10
-100.4607227287649
 20
-5.913762052125264
 30
0.0
 11
-100.5702527780838
 21
-5.802873052538984
 31
0.0
  0
ARC
  5
6256
330
A
100
AcDbEntity
  8
0
  6
Continuous
 62
     7
370
     0
100
AcDbCircle
 10
-85.72439849765192
 20
0.1128507105720189
 30
0.0
 40
15.98108810304422
100
AcDbArc
 50
169.2344200511491
 51
201.7261189070574
  0
ARC
  5
6257
330
A
100
AcDbEntity
  8
0
  6
Continuous
 62
     7
370
     0
100
AcDbCircle
 10
-94.33315232857376
 20
2.368927823317534
 30
0.0
 40
7.128440528045548
100
AcDbArc
 50
151.5682237243435
 51
174.1299074636025
  0
LINE
  5
6258
330
A
100
AcDbEntity
  8
0
  6
Continuous
 62
     7
370
     0
100
AcDbLine
 10
-100.6017935509307
 20
5.762863825549828
 30
0.0
 11
-100.4932135749939
 21
5.885431467606025
 31
0.0
  0
LINE
  5
6259
330
A
100
AcDbEntity
  8
0
  6
Continuous
 62
     7
370
     0
100
AcDbLine
 10
-100.4932135749939
 20
5.885431467606025
 30
0.0
 11
-100.3854930145898
 21
5.964203078804018
 31
0.0
  0
LINE
  5
625A
330
A
100
AcDbEntity
  8
0
  6
Continuous
 62
     7
370
     0
100
AcDbLine
 10
-100.3854930145898
 20
5.964203078804018
 30
0.0
 11
-100.281337606779
 21
5.998189532111524
 31
0.0
  0
LINE
  5
625B
330
A
100
AcDbEntity
  8
0
  6
Continuous
 62
     7
370
     0
100
AcDbLine
 10
-100.281337606779
 20
5.998189532111524
 30
0.0
 11
-100.2519584154629
 21
6.000000000001108
 31
0.0
  0
ARC
  5
625C
330
A
100
AcDbEntity
  8
0
  6
Continuous
 62
     7
370
     0
100
AcDbCircle
 10
-48.26274399816293
 20
0.6193705487536363
 30
0.0
 40
56.13891825286343
100
AcDbArc
 50
154.8184873434505
 51
175.114939184873
  0
LINE
  5
625D
330
A
100
AcDbEntity
  8
0
  6
Continuous
 62
     7
370
     0
100
AcDbLine
 10
-99.06646587881983
 20
24.50576805181913
 30
0.0
 11
-98.93001795797978
 21
24.69990371999123
 31
0.0
  0
LINE
  5
625E
330
A
100
AcDbEntity
  8
0
  6
Continuous
 62
     7
370
     0
100
AcDbLine
 10
-98.93001795797978
 20
24.69990371999123
 30
0.0
 11
-98.80610303126582
 21
24.84627059686304
 31
0.0
  0
LINE
  5
625F
330
A
100
AcDbEntity
  8
0
  6
Continuous
 62
     7
370
     0
100
AcDbLine
 10
-98.80610303126582
 20
24.84627059686304
 30
0.0
 11
-98.69526950007685
 21
24.94430033639734
 31
0.0
  0
LINE
  5
6260
330
A
100
AcDbEntity
  8
0
  6
Continuous
 62
     7
370
     0
100
AcDbLine
 10
-98.69526950007685
 20
24.94430033639734
 30
0.0
 11
-98.55343072135974
 21
25.00000000001487
 31
0.0
  0
LINE
  5
6261
330
A
100
AcDbEntity
  8
0
  6
Continuous
 62
     7
370
     0
100
AcDbLine
 10
-98.55343072135974
 20
-24.99999999998525
 30
0.0
 11
-98.74405858920477
 21
-24.90572040729606
 31
0.0
  0
LINE
  5
6262
330
A
100
AcDbEntity
  8
0
  6
Continuous
 62
     7
370
     0
100
AcDbLine
 10
-98.74405858920477
 20
-24.90572040729606
 30
0.0
 11
-98.85868962897895
 21
-24.78822598178116
 31
0.0
  0
ARC
  5
6263
330
A
100
AcDbEntity
  8
0
  6
Continuous
 62
     7
370
     0
100
AcDbCircle
 10
-61.23185995400695
 20
-4.915520559086985
 30
0.0
 40
42.55235283984382
100
AcDbArc
 50
188.2696400958935
 51
207.8408877598997
  0
ARC
  5
6264
330
A
100
AcDbEntity
  8
0
  6
Continuous
 62
     7
370
     0
100
AcDbCircle
 10
-30.03757388062991
 20
2.980476816938022
 30
0.0
 40
74.6321817995722
100
AcDbArc
 50
186.4473634372802
 51
190.8247798963518
  0
LINE
  5
6265
330
A
100
AcDbEntity
  8
0
  6
Continuous
 62
     7
370
     0
100
AcDbLine
 10
15.00000000000113
 20
-87.69913895634898
 30
0.0
 11
14.99998105261306
 21
-87.69298311232466
 31
0.0
  0
LINE
  5
6266
330
A
100
AcDbEntity
  8
0
  6
Continuous
 62
     7
370
     0
100
AcDbLine
 10
14.99998105261306
 20
-87.69298311232466
 30
0.0
 11
14.98475617020813
 21
-87.52519849171097
 31
0.0
  0
LINE
  5
6267
330
A
100
AcDbEntity
  8
0
  6
Continuous
 62
     7
370
     0
100
AcDbLine
 10
14.98475617020813
 20
-87.52519849171097
 30
0.0
 11
14.94102307024514
 21
-87.36079655394076
 31
0.0
  0
LINE
  5
6268
330
A
100
AcDbEntity
  8
0
  6
Continuous
 62
     7
370
     0
100
AcDbLine
 10
14.94102307024514
 20
-87.36079655394076
 30
0.0
 11
14.86824057225703
 21
-87.20299552074987
 31
0.0
  0
LINE
  5
6269
330
A
100
AcDbEntity
  8
0
  6
Continuous
 62
     7
370
     0
100
AcDbLine
 10
14.86824057225703
 20
-87.20299552074987
 30
0.0
 11
14.76613886720201
 21
-87.05646389369057
 31
0.0
  0
LINE
  5
626A
330
A
100
AcDbEntity
  8
0
  6
Continuous
 62
     7
370
     0
100
AcDbLine
 10
14.76613886720201
 20
-87.05646389369057
 30
0.0
 11
14.68042784863814
 21
-86.96632387544337
 31
0.0
  0
LINE
  5
626B
330
A
100
AcDbEntity
  8
0
  6
Continuous
 62
     7
370
     0
100
AcDbLine
 10
14.68042784863814
 20
-86.96632387544337
 30
0.0
 11
14.58104609146426
 21
-86.88526830348406
 31
0.0
  0
LINE
  5
626C
330
A
100
AcDbEntity
  8
0
  6
Continuous
 62
     7
370
     0
100
AcDbLine
 10
14.58104609146426
 20
-86.88526830348406
 30
0.0
 11
14.46756295479326
 21
-86.81517918163875
 31
0.0
  0
LINE
  5
626D
330
A
100
AcDbEntity
  8
0
  6
Continuous
 62
     7
370
     0
100
AcDbLine
 10
14.46756295479326
 20
-86.81517918163875
 30
0.0
 11
14.34005792128414
 21
-86.75873446349905
 31
0.0
  0
LINE
  5
626E
330
A
100
AcDbEntity
  8
0
  6
Continuous
 62
     7
370
     0
100
AcDbLine
 10
14.34005792128414
 20
86.75873446351795
 30
0.0
 11
14.46676869574821
 21
86.81475952158194
 31
0.0
  0
LINE
  5
626F
330
A
100
AcDbEntity
  8
0
  6
Continuous
 62
     7
370
     0
100
AcDbLine
 10
14.46676869574821
 20
86.81475952158194
 30
0.0
 11
14.5799608296611
 21
86.88449459466141
 31
0.0
  0
LINE
  5
6270
330
A
100
AcDbEntity
  8
0
  6
Continuous
 62
     7
370
     0
100
AcDbLine
 10
14.5799608296611
 20
86.88449459466141
 30
0.0
 11
14.67985451321806
 21
86.96579194378911
 31
0.0
  0
LINE
  5
6271
330
A
100
AcDbEntity
  8
0
  6
Continuous
 62
     7
370
     0
100
AcDbLine
 10
14.67985451321806
 20
86.96579194378911
 30
0.0
 11
14.76613886720201
 21
87.05646389370929
 31
0.0
  0
LINE
  5
6272
330
A
100
AcDbEntity
  8
0
  6
Continuous
 62
     7
370
     0
100
AcDbLine
 10
14.76613886720201
 20
87.05646389370929
 30
0.0
 11
14.86751255532226
 21
87.20172367075543
 31
0.0
  0
LINE
  5
6273
330
A
100
AcDbEntity
  8
0
  6
Continuous
 62
     7
370
     0
100
AcDbLine
 10
14.86751255532226
 20
87.20172367075543
 30
0.0
 11
14.94025814319911
 21
87.35867658818358
 31
0.0
  0
LINE
  5
6274
330
A
100
AcDbEntity
  8
0
  6
Continuous
 62
     7
370
     0
100
AcDbLine
 10
14.94025814319911
 20
87.35867658818358
 30
0.0
 11
14.98451621501522
 21
87.5238454243318
 31
0.0
  0
LINE
  5
6275
330
A
100
AcDbEntity
  8
0
  6
Continuous
 62
     7
370
     0
100
AcDbLine
 10
14.98451621501522
 20
87.5238454243318
 30
0.0
 11
14.99998105261306
 21
87.69298311234342
 31
0.0
  0
LINE
  5
6276
330
A
100
AcDbEntity
  8
0
  6
Continuous
 62
     7
370
     0
100
AcDbLine
 10
14.99998105261306
 20
87.69298311234342
 30
0.0
 11
15.00000000000113
 21
87.69913895636774
 31
0.0
  0
CIRCLE
  5
636B
330
A
100
AcDbEntity
  8
0
  6
CENTER
 62
     1
100
AcDbCircle
 10
0.0
 20
0.0
 30
0.0
 40
7.0
  0
ENDSEC
  0
SECTION
  2
OBJECTS
  0
DICTIONARY
  5
19
330
0
100
AcDbDictionary
281
     1
  3
ACAD_COLOR
350
3176
  3
ACAD_GROUP
350
1A
  3
ACAD_LAYOUT
350
1E
  3
ACAD_MATERIAL
350
314C
  3
ACAD_MLEADERSTYLE
350
319B
  3
ACAD_MLINESTYLE
350
1B
  3
ACAD_PLOTSETTINGS
350
22
  3
ACAD_PLOTSTYLENAME
350
1F
  3
ACAD_SCALELIST
350
3179
  3
ACAD_TABLESTYLE
350
3177
  3
ACAD_VISUALSTYLE
350
3165
  3
ACAD_WIPEOUT_VARS
350
23
  3
ACDB_RECOMPOSE_DATA
350
630A
  3
AcDbVariableDictionary
350
630B
  3
ASE_INDEX_DICTIONARY
350
5E44
  3
DWGPROPS
350
637D
  0
DICTIONARY
  5
5E41
330
14
100
AcDbDictionary
280
     1
281
     1
  3
ADSK_XREC_LAYER_RECONCILED
360
5E42
  0
DICTIONARY
  5
31A7
330
A
100
AcDbDictionary
280
     1
281
     1
  3
ACAD_SORTENTS
360
31A8
  0
DICTIONARY
  5
3176
102
{ACAD_REACTORS
330
19
102
}
330
19
100
AcDbDictionary
281
     1
  0
DICTIONARY
  5
1A
102
{ACAD_REACTORS
330
19
102
}
330
19
100
AcDbDictionary
281
     1
  0
DICTIONARY
  5
1E
102
{ACAD_REACTORS
330
19
102
}
330
19
100
AcDbDictionary
281
     1
  3
Layout1
350
21
  3
Model
350
20
  0
DICTIONARY
  5
314C
102
{ACAD_REACTORS
330
19
102
}
330
19
100
AcDbDictionary
281
     1
  3
ByBlock
350
3155
  3
ByLayer
350
314D
  3
Global
350
315D
  0
DICTIONARY
  5
319B
102
{ACAD_REACTORS
330
19
102
}
330
19
100
AcDbDictionary
281
     1
  3
Standard
350
319C
  0
DICTIONARY
  5
1B
102
{ACAD_REACTORS
330
19
102
}
330
19
100
AcDbDictionary
281
     1
  3
Standard
350
1C
  0
DICTIONARY
  5
22
102
{ACAD_REACTORS
330
19
102
}
330
19
100
AcDbDictionary
281
     1
  0
ACDBDICTIONARYWDFLT
  5
1F
102
{ACAD_REACTORS
330
19
102
}
330
19
100
AcDbDictionary
281
     1
  3
Normal
350
1D
100
AcDbDictionaryWithDefault
340
1D
  0
DICTIONARY
  5
3179
102
{ACAD_REACTORS
330
19
102
}
330
19
100
AcDbDictionary
281
     1
  3
A0
350
317A
  3
A1
350
317B
  3
A2
350
317C
  3
A3
350
317D
  3
A4
350
317E
  3
A5
350
317F
  3
A6
350
3180
  3
A7
350
3181
  3
A8
350
3182
  3
A9
350
3183
  3
B0
350
3184
  3
B1
350
3185
  3
B2
350
3186
  3
B3
350
3187
  3
B4
350
3188
  3
B5
350
3189
  3
B6
350
318A
  3
B7
350
318B
  3
B8
350
318C
  3
B9
350
318D
  3
C0
350
318E
  3
C1
350
318F
  3
C2
350
3190
  3
C3
350
3191
  3
C4
350
3192
  3
C5
350
3193
  3
C6
350
3194
  3
C7
350
3195
  3
C8
350
3196
  3
C9
350
3197
  3
D0
350
3198
  3
D1
350
3199
  3
D2
350
319A
  0
DICTIONARY
  5
3177
102
{ACAD_REACTORS
330
19
102
}
330
19
100
AcDbDictionary
281
     1
  3
Standard
350
3178
  0
DICTIONARY
  5
3165
102
{ACAD_REACTORS
330
19
102
}
330
19
100
AcDbDictionary
281
     1
  3
2dWireframe
350
316B
  3
3D Hidden
350
316D
  3
3dWireframe
350
316C
  3
Basic
350
316A
  3
Brighten
350
3171
  3
ColorChange
350
3175
  3
Conceptual
350
316E
  3
Dim
350
3170
  3
Facepattern
350
3174
  3
Flat
350
3166
  3
FlatWithEdges
350
3167
  3
Gouraud
350
3168
  3
GouraudWithEdges
350
3169
  3
Linepattern
350
3173
  3
Realistic
350
316F
  3
Thicken
350
3172
  0
WIPEOUTVARIABLES
  5
23
330
19
100
AcDbWipeoutVariables
 70
     1
  0
XRECORD
  5
630A
102
{ACAD_REACTORS
330
19
102
}
330
19
100
AcDbXrecord
280
     1
 90
        1
330
3178
  0
DICTIONARY
  5
630B
102
{ACAD_REACTORS
330
19
102
}
330
19
100
AcDbDictionary
281
     1
  3
CANNOSCALE
350
630F
  3
CMLEADERSTYLE
350
630D
  3
CTABLESTYLE
350
630C
  3
DIMASSOC
350
6318
  3
INDEXCTL
350
6317
  3
LIGHTINGUNITS
350
6310
  3
MSLTSCALE
350
630E
  3
SORTENTS
350
6316
  0
DICTIONARY
  5
5E44
102
{ACAD_REACTORS
330
19
102
}
330
19
100
AcDbDictionary
281
     1
  3
ASEBlockHierarchyIndexRecord
350
5E46
1001
DCO15
1040
1685075681.336
  0
XRECORD
  5
637D
102
{ACAD_REACTORS
330
19
102
}
330
19
100
AcDbXrecord
280
     1
  1
DWGPROPS COOKIE
  2

  3

  4

  6

  7

  8
renzo.ceresoli
  9

300
=
301
=
302
=
303
=
304
=
305
=
306
=
307
=
308
=
309
=
 40
0.0020669675925926
 41
2455303.727916667
 42
2455306.416858403
  1

 90
        0
  0
XRECORD
  5
5E42
102
{ACAD_REACTORS
330
5E41
102
}
330
5E41
100
AcDbXrecord
280
     1
290
     1
  0
SORTENTSTABLE
  5
31A8
102
{ACAD_REACTORS
330
31A7
102
}
330
31A7
100
AcDbSortentsTable
330
A
331
A85
  5
3A57
331
561B
  5
3955
331
55CA
  5
397D
331
55E5
  5
3998
331
5600
  5
393A
331
5685
  5
3926
331
56A0
  5
38E5
331
564F
  5
38FB
331
554E
  5
39B2
331
5569
  5
39CD
331
5505
  5
3A1B
331
5520
  5
3A32
331
5533
  5
3A45
331
54EA
  5
3A00
331
5567
  5
39CB
331
55B5
  5
39F7
331
A83
  5
3A55
331
55C8
  5
397B
331
55E3
  5
3996
331
55FE
  5
3938
331
5619
  5
3953
331
5683
  5
3924
331
569E
  5
38E3
331
564D
  5
38F9
331
5668
  5
3914
331
5617
  5
3951
331
554C
  5
39B0
331
5503
  5
3A19
331
551E
  5
3A30
331
5531
  5
3A43
331
54E8
  5
39FE
331
5565
  5
39C9
331
55B3
  5
39F5
331
55C6
  5
3979
331
55E1
  5
3994
331
55FC
  5
3936
331
5681
  5
3922
331
569C
  5
38E1
331
564B
  5
38F7
331
5666
  5
3912
331
5615
  5
394F
331
554A
  5
39AE
331
5501
  5
3A17
331
551C
  5
3A2E
331
552F
  5
3A41
331
54E6
  5
39FC
331
5563
  5
39C7
331
558E
  5
39DA
331
55B1
  5
39F3
331
55DF
  5
3992
331
55FA
  5
3934
331
55C4
  5
3977
331
569A
  5
38DF
331
5636
  5
3965
331
5649
  5
38F5
331
5664
  5
3910
331
5613
  5
394D
331
567F
  5
3920
331
54FF
  5
3A15
331
551A
  5
3A2C
331
552D
  5
3A3F
331
54E4
  5
39FA
331
5548
  5
39AC
331
5561
  5
39C5
331
558C
  5
39D8
331
55AF
  5
39F1
331
5546
  5
39AA
331
55DD
  5
3990
331
55F8
  5
3932
331
55C2
  5
3975
331
5698
  5
38DD
331
5634
  5
3963
331
5647
  5
38F3
331
5662
  5
390E
331
55F6
  5
3930
331
5611
  5
394B
331
567D
  5
391E
331
5696
  5
38DB
331
54FD
  5
3A13
331
5518
  5
3A2A
331
552B
  5
3A3D
331
54E2
  5
39F8
331
555F
  5
39C3
331
55AD
  5
39EF
331
5544
  5
39A8
331
55DB
  5
398E
331
55C0
  5
3973
331
5645
  5
38F1
331
5660
  5
390C
331
567B
  5
391C
331
55F4
  5
392E
331
560F
  5
3949
331
5632
  5
3961
331
5694
  5
38D9
331
5516
  5
3A28
331
5529
  5
3A3B
331
54FB
  5
3A11
331
555D
  5
39C1
331
55AB
  5
39ED
331
5542
  5
39A6
331
55D9
  5
398C
331
55BE
  5
3971
331
5643
  5
38EF
331
565E
  5
390A
331
5679
  5
391A
331
55D7
  5
398A
331
55F2
  5
392C
331
560D
  5
3947
331
5630
  5
395F
331
5692
  5
38D7
331
5677
  5
3918
331
5514
  5
3A26
331
54F9
  5
3A0F
331
555B
  5
39BF
331
55A9
  5
39EB
331
5540
  5
39A4
331
55BC
  5
396F
331
5641
  5
38ED
331
565C
  5
3908
331
55F0
  5
392A
331
560B
  5
3945
331
562E
  5
395D
331
55D5
  5
3988
331
5690
  5
38D5
331
54F7
  5
3A0D
331
55A7
  5
39E9
331
553E
  5
39A2
331
5559
  5
39BD
331
A90
  5
3A62
331
A8E
  5
3A60
331
55BA
  5
396D
331
563F
  5
38EB
331
565A
  5
3906
331
55EE
  5
3928
331
5609
  5
3943
331
562C
  5
395B
331
55D3
  5
3986
331
568E
  5
38D3
331
54F5
  5
3A0B
331
55A5
  5
39E7
331
553C
  5
39A0
331
5557
  5
39BB
331
A8C
  5
3A5E
331
55B8
  5
396B
331
563D
  5
38E9
331
5658
  5
3904
331
55EC
  5
399F
331
5607
  5
3941
331
562A
  5
3959
331
55D1
  5
3984
331
5656
  5
3902
331
568C
  5
38D1
331
54F3
  5
3A09
331
5570
  5
39D4
331
55A3
  5
39E5
331
5527
  5
3A39
331
553A
  5
3A4C
331
5555
  5
39B9
331
550C
  5
3A22
331
A8A
  5
3A5C
331
55EA
  5
399D
331
5605
  5
393F
331
55CF
  5
3982
331
563B
  5
38E7
331
5654
  5
3900
331
568A
  5
38CF
331
54F1
  5
3A07
331
556E
  5
39D2
331
55A1
  5
39E3
331
5525
  5
3A37
331
5538
  5
3A4A
331
5553
  5
39B7
331
54EF
  5
3A05
331
550A
  5
3A20
331
559F
  5
39E1
331
A88
  5
3A5A
331
55E8
  5
399B
331
5603
  5
393D
331
55CD
  5
3980
331
5639
  5
3968
331
5652
  5
38FE
331
5688
  5
38CD
331
556C
  5
39D0
331
5523
  5
3A35
331
5536
  5
3A48
331
5551
  5
39B5
331
54ED
  5
3A03
331
5508
  5
3A1E
331
559D
  5
39DF
331
A86
  5
3A58
331
5601
  5
393B
331
561C
  5
3956
331
55CB
  5
397E
331
55E6
  5
3999
331
5650
  5
38FC
331
5686
  5
38CB
331
5521
  5
3A33
331
5534
  5
3A46
331
554F
  5
39B3
331
54EB
  5
3A01
331
5506
  5
3A1C
331
556A
  5
39CE
331
559B
  5
39DD
331
55B6
  5
3969
331
A84
  5
3A56
331
55FF
  5
3939
331
561A
  5
3954
331
55C9
  5
397C
331
55E4
  5
3997
331
564E
  5
38FA
331
5669
  5
3915
331
5684
  5
3925
331
569F
  5
38E4
331
551F
  5
3A31
331
5532
  5
3A44
331
554D
  5
39B1
331
54E9
  5
39FF
331
5504
  5
3A1A
331
5568
  5
39CC
331
55B4
  5
39F6
331
5566
  5
39CA
331
A82
  5
3A54
331
55FD
  5
3937
331
5618
  5
3952
331
55C7
  5
397A
331
55E2
  5
3995
331
5667
  5
3913
331
5682
  5
3923
331
569D
  5
38E2
331
5616
  5
3950
331
564C
  5
38F8
331
5530
  5
3A42
331
554B
  5
39AF
331
54E7
  5
39FD
331
5502
  5
3A18
331
551D
  5
3A2F
331
558F
  5
39DB
331
55B2
  5
39F4
331
5564
  5
39C8
331
55FB
  5
3935
331
55C5
  5
3978
331
55E0
  5
3993
331
5665
  5
3911
331
5680
  5
3921
331
569B
  5
38E0
331
5614
  5
394E
331
5637
  5
3966
331
564A
  5
38F6
331
552E
  5
3A40
331
5549
  5
39AD
331
54E5
  5
39FB
331
5500
  5
3A16
331
551B
  5
3A2D
331
558D
  5
39D9
331
55B0
  5
39F2
331
5547
  5
39AB
331
5562
  5
39C6
331
55F9
  5
3933
331
55C3
  5
3976
331
55DE
  5
3991
331
5663
  5
390F
331
567E
  5
391F
331
5699
  5
38DE
331
5612
  5
394C
331
5635
  5
3964
331
5648
  5
38F4
331
55F7
  5
3931
331
5697
  5
38DC
331
552C
  5
3A3E
331
54E3
  5
39F9
331
54FE
  5
3A14
331
5519
  5
3A2B
331
55AE
  5
39F0
331
5545
  5
39A9
331
5560
  5
39C4
331
55C1
  5
3974
331
55DC
  5
398F
331
5661
  5
390D
331
567C
  5
391D
331
5610
  5
394A
331
5633
  5
3962
331
5646
  5
38F2
331
55F5
  5
392F
331
5695
  5
38DA
331
552A
  5
3A3C
331
54FC
  5
3A12
331
5517
  5
3A29
331
55AC
  5
39EE
331
5543
  5
39A7
331
555E
  5
39C2
331
55BF
  5
3972
331
55DA
  5
398D
331
565F
  5
390B
331
567A
  5
391B
331
560E
  5
3948
331
5631
  5
3960
331
5644
  5
38F0
331
55F3
  5
392D
331
5693
  5
38D8
331
5528
  5
3A3A
331
54FA
  5
3A10
331
5515
  5
3A27
331
55AA
  5
39EC
331
5541
  5
39A5
331
555C
  5
39C0
331
55BD
  5
3970
331
55D8
  5
398B
331
5678
  5
3919
331
560C
  5
3946
331
562F
  5
395E
331
5642
  5
38EE
331
55D6
  5
3989
331
55F1
  5
392B
331
565D
  5
3909
331
5676
  5
3917
331
5691
  5
38D6
331
54F8
  5
3A0E
331
5513
  5
3A25
331
55A8
  5
39EA
331
553F
  5
39A3
331
555A
  5
39BE
331
A8F
  5
3A61
331
55BB
  5
396E
331
560A
  5
3944
331
562D
  5
395C
331
5640
  5
38EC
331
55D4
  5
3987
331
55EF
  5
3929
331
565B
  5
3907
331
568F
  5
38D4
331
54F6
  5
3A0C
331
55A6
  5
39E8
331
553D
  5
39A1
331
5558
  5
39BC
331
A8D
  5
3A5F
331
55B9
  5
396C
331
562B
  5
395A
331
563E
  5
38EA
331
5659
  5
3905
331
55D2
  5
3985
331
55ED
  5
3927
331
5608
  5
3942
331
568D
  5
38D2
331
5657
  5
3903
331
54F4
  5
3A0A
331
553B
  5
3A4D
331
5556
  5
39BA
331
550D
  5
3A23
331
55A4
  5
39E6
331
A8B
  5
3A5D
331
5629
  5
3958
331
563C
  5
38E8
331
55D0
  5
3983
331
55EB
  5
399E
331
5606
  5
3940
331
568B
  5
38D0
331
5655
  5
3901
331
54F2
  5
3A08
331
5539
  5
3A4B
331
5554
  5
39B8
331
556F
  5
39D3
331
550B
  5
3A21
331
5526
  5
3A38
331
55A2
  5
39E4
331
A89
  5
3A5B
331
563A
  5
38E6
331
55CE
  5
3981
331
55E9
  5
399C
331
5604
  5
393E
331
5689
  5
38CE
331
5653
  5
38FF
331
54F0
  5
3A06
331
5552
  5
39B6
331
556D
  5
39D1
331
55A0
  5
39E2
331
54EE
  5
3A04
331
5509
  5
3A1F
331
5524
  5
3A36
331
5537
  5
3A49
331
559E
  5
39E0
331
A87
  5
3A59
331
5638
  5
3967
331
55CC
  5
397F
331
55E7
  5
399A
331
5602
  5
393C
331
5687
  5
38CC
331
5651
  5
38FD
331
5550
  5
39B4
331
556B
  5
39CF
331
54EC
  5
3A02
331
5507
  5
3A1D
331
5522
  5
3A34
331
5535
  5
3A47
331
55B7
  5
396A
331
559C
  5
39DE
  0
LAYOUT
  5
21
102
{ACAD_XDICTIONARY
360
6380
102
}
102
{ACAD_REACTORS
330
1E
102
}
330
1E
100
AcDbPlotSettings
  1

  2

  4

  6

 40
0.0
 41
0.0
 42
0.0
 43
0.0
 44
0.0
 45
0.0
 46
0.0
 47
0.0
 48
0.0
 49
0.0
140
0.0
141
0.0
142
1.0
143
1.0
 70
     0
 72
     0
 73
     0
 74
     0
  7

 75
     0
147
1.0
148
0.0
149
0.0
100
AcDbLayout
  1
Layout1
 70
     0
 71
     1
 10
0.0
 20
0.0
 11
12.0
 21
9.0
 12
0.0
 22
0.0
 32
0.0
 14
1.000000000000000E+20
 24
1.000000000000000E+20
 34
1.000000000000000E+20
 15
-1.000000000000000E+20
 25
-1.000000000000000E+20
 35
-1.000000000000000E+20
146
0.0
 13
0.0
 23
0.0
 33
0.0
 16
1.0
 26
0.0
 36
0.0
 17
0.0
 27
1.0
 37
0.0
 76
     0
330
B
  0
LAYOUT
  5
20
102
{ACAD_XDICTIONARY
360
637E
102
}
102
{ACAD_REACTORS
330
1E
102
}
330
1E
100
AcDbPlotSettings
  1

  2

  4

  6

 40
0.0
 41
0.0
 42
0.0
 43
0.0
 44
0.0
 45
0.0
 46
0.0
 47
0.0
 48
0.0
 49
0.0
140
0.0
141
0.0
142
1.0
143
1.0
 70
  1024
 72
     0
 73
     0
 74
     0
  7

 75
     0
147
1.0
148
0.0
149
0.0
100
AcDbLayout
  1
Model
 70
     0
 71
     0
 10
0.0
 20
0.0
 11
0.0
 21
0.0
 12
0.0
 22
0.0
 32
0.0
 14
0.0
 24
0.0
 34
0.0
 15
0.0
 25
0.0
 35
0.0
146
0.0
 13
0.0
 23
0.0
 33
0.0
 16
0.0
 26
0.0
 36
0.0
 17
0.0
 27
0.0
 37
0.0
 76
     0
330
A
331
15
  0
MATERIAL
  5
3155
102
{ACAD_XDICTIONARY
360
3156
102
}
102
{ACAD_REACTORS
330
314C
102
}
330
314C
100
AcDbMaterial
  1
ByBlock
 72
     0
 43
0.0208333333333333
 43
0.0
 43
0.0
 43
0.0
 43
0.0
 43
0.0208333333333333
 43
0.0
 43
0.0
 43
0.0
 43
0.0
 43
1.0
 43
0.0
 43
0.0
 43
0.0
 43
0.0
 43
1.0
 77
     0
 47
0.0208333333333333
 47
0.0
 47
0.0
 47
0.0
 47
0.0
 47
0.0208333333333333
 47
0.0
 47
0.0
 47
0.0
 47
0.0
 47
1.0
 47
0.0
 47
0.0
 47
0.0
 47
0.0
 47
1.0
171
     0
 49
0.0208333333333333
 49
0.0
 49
0.0
 49
0.0
 49
0.0
 49
0.0208333333333333
 49
0.0
 49
0.0
 49
0.0
 49
0.0
 49
1.0
 49
0.0
 49
0.0
 49
0.0
 49
0.0
 49
1.0
175
     0
142
0.0208333333333333
142
0.0
142
0.0
142
0.0
142
0.0
142
0.0208333333333333
142
0.0
142
0.0
142
0.0
142
0.0
142
1.0
142
0.0
142
0.0
142
0.0
142
0.0
142
1.0
179
     0
144
0.0208333333333333
144
0.0
144
0.0
144
0.0
144
0.0
144
0.0208333333333333
144
0.0
144
0.0
144
0.0
144
0.0
144
1.0
144
0.0
144
0.0
144
0.0
144
0.0
144
1.0
147
0.0208333333333333
147
0.0
147
0.0
147
0.0
147
0.0
147
0.0208333333333333
147
0.0
147
0.0
147
0.0
147
0.0
147
1.0
147
0.0
147
0.0
147
0.0
147
0.0
147
1.0
  0
MATERIAL
  5
314D
102
{ACAD_XDICTIONARY
360
314E
102
}
102
{ACAD_REACTORS
330
314C
102
}
330
314C
100
AcDbMaterial
  1
ByLayer
 72
     0
 43
0.0208333333333333
 43
0.0
 43
0.0
 43
0.0
 43
0.0
 43
0.0208333333333333
 43
0.0
 43
0.0
 43
0.0
 43
0.0
 43
1.0
 43
0.0
 43
0.0
 43
0.0
 43
0.0
 43
1.0
 77
     0
 47
0.0208333333333333
 47
0.0
 47
0.0
 47
0.0
 47
0.0
 47
0.0208333333333333
 47
0.0
 47
0.0
 47
0.0
 47
0.0
 47
1.0
 47
0.0
 47
0.0
 47
0.0
 47
0.0
 47
1.0
171
     0
 49
0.0208333333333333
 49
0.0
 49
0.0
 49
0.0
 49
0.0
 49
0.0208333333333333
 49
0.0
 49
0.0
 49
0.0
 49
0.0
 49
1.0
 49
0.0
 49
0.0
 49
0.0
 49
0.0
 49
1.0
175
     0
142
0.0208333333333333
142
0.0
142
0.0
142
0.0
142
0.0
142
0.0208333333333333
142
0.0
142
0.0
142
0.0
142
0.0
142
1.0
142
0.0
142
0.0
142
0.0
142
0.0
142
1.0
179
     0
144
0.0208333333333333
144
0.0
144
0.0
144
0.0
144
0.0
144
0.0208333333333333
144
0.0
144
0.0
144
0.0
144
0.0
144
1.0
144
0.0
144
0.0
144
0.0
144
0.0
144
1.0
147
0.0208333333333333
147
0.0
147
0.0
147
0.0
147
0.0
147
0.0208333333333333
147
0.0
147
0.0
147
0.0
147
0.0
147
1.0
147
0.0
147
0.0
147
0.0
147
0.0
147
1.0
  0
MATERIAL
  5
315D
102
{ACAD_XDICTIONARY
360
315E
102
}
102
{ACAD_REACTORS
330
314C
102
}
330
314C
100
AcDbMaterial
  1
Global
 72
     0
 43
0.0208333333333333
 43
0.0
 43
0.0
 43
0.0
 43
0.0
 43
0.0208333333333333
 43
0.0
 43
0.0
 43
0.0
 43
0.0
 43
1.0
 43
0.0
 43
0.0
 43
0.0
 43
0.0
 43
1.0
 77
     0
 47
0.0208333333333333
 47
0.0
 47
0.0
 47
0.0
 47
0.0
 47
0.0208333333333333
 47
0.0
 47
0.0
 47
0.0
 47
0.0
 47
1.0
 47
0.0
 47
0.0
 47
0.0
 47
0.0
 47
1.0
171
     0
 49
0.0208333333333333
 49
0.0
 49
0.0
 49
0.0
 49
0.0
 49
0.0208333333333333
 49
0.0
 49
0.0
 49
0.0
 49
0.0
 49
1.0
 49
0.0
 49
0.0
 49
0.0
 49
0.0
 49
1.0
175
     0
142
0.0208333333333333
142
0.0
142
0.0
142
0.0
142
0.0
142
0.0208333333333333
142
0.0
142
0.0
142
0.0
142
0.0
142
1.0
142
0.0
142
0.0
142
0.0
142
0.0
142
1.0
179
     0
144
0.0208333333333333
144
0.0
144
0.0
144
0.0
144
0.0
144
0.0208333333333333
144
0.0
144
0.0
144
0.0
144
0.0
144
1.0
144
0.0
144
0.0
144
0.0
144
0.0
144
1.0
147
0.0208333333333333
147
0.0
147
0.0
147
0.0
147
0.0
147
0.0208333333333333
147
0.0
147
0.0
147
0.0
147
0.0
147
1.0
147
0.0
147
0.0
147
0.0
147
0.0
147
1.0
  0
MLEADERSTYLE
  5
319C
102
{ACAD_REACTORS
330
319B
102
}
330
319B
100
AcDbMLeaderStyle
170
     2
171
     1
172
     0
 90
        2
 40
0.0
 41
0.0
173
     1
 91
-1056964608
340
11
 92
       -2
290
     1
 42
2.0
291
     1
 43
0.36
  3
Standard
 44
4.0
300

342
17
174
     1
178
     6
175
     1
176
     0
 93
-1056964608
 45
4.0
292
     0
297
     0
 46
4.0
 94
-1056964608
 47
1.0
 49
1.0
140
1.0
293
     1
141
0.0
294
     1
177
     0
142
1.0
295
     0
296
     0
143
0.125
1001
ACAD_MLEADERVER
1070
     2
  0
MLINESTYLE
  5
1C
102
{ACAD_REACTORS
330
1B
102
}
330
1B
100
AcDbMlineStyle
  2
STANDARD
 70
     0
  3

 62
     0
 51
90.0
 52
90.0
 71
     2
 49
0.5
 62
   256
  6
BYLAYER
 49
-0.5
 62
   256
  6
BYLAYER
  0
ACDBPLACEHOLDER
  5
1D
102
{ACAD_REACTORS
330
1F
102
}
330
1F
  0
SCALE
  5
317A
102
{ACAD_REACTORS
330
3179
102
}
330
3179
100
AcDbScale
 70
     0
300
1:1
140
1.0
141
1.0
290
     1
  0
SCALE
  5
317B
102
{ACAD_REACTORS
330
3179
102
}
330
3179
100
AcDbScale
 70
     0
300
1:2
140
1.0
141
2.0
290
     0
  0
SCALE
  5
317C
102
{ACAD_REACTORS
330
3179
102
}
330
3179
100
AcDbScale
 70
     0
300
1:4
140
1.0
141
4.0
290
     0
  0
SCALE
  5
317D
102
{ACAD_REACTORS
330
3179
102
}
330
3179
100
AcDbScale
 70
     0
300
1:5
140
1.0
141
5.0
290
     0
  0
SCALE
  5
317E
102
{ACAD_REACTORS
330
3179
102
}
330
3179
100
AcDbScale
 70
     0
300
1:8
140
1.0
141
8.0
290
     0
  0
SCALE
  5
317F
102
{ACAD_REACTORS
330
3179
102
}
330
3179
100
AcDbScale
 70
     0
300
1:10
140
1.0
141
10.0
290
     0
  0
SCALE
  5
3180
102
{ACAD_REACTORS
330
3179
102
}
330
3179
100
AcDbScale
 70
     0
300
1:16
140
1.0
141
16.0
290
     0
  0
SCALE
  5
3181
102
{ACAD_REACTORS
330
3179
102
}
330
3179
100
AcDbScale
 70
     0
300
1:20
140
1.0
141
20.0
290
     0
  0
SCALE
  5
3182
102
{ACAD_REACTORS
330
3179
102
}
330
3179
100
AcDbScale
 70
     0
300
1:30
140
1.0
141
30.0
290
     0
  0
SCALE
  5
3183
102
{ACAD_REACTORS
330
3179
102
}
330
3179
100
AcDbScale
 70
     0
300
1:40
140
1.0
141
40.0
290
     0
  0
SCALE
  5
3184
102
{ACAD_REACTORS
330
3179
102
}
330
3179
100
AcDbScale
 70
     0
300
1:50
140
1.0
141
50.0
290
     0
  0
SCALE
  5
3185
102
{ACAD_REACTORS
330
3179
102
}
330
3179
100
AcDbScale
 70
     0
300
1:100
140
1.0
141
100.0
290
     0
  0
SCALE
  5
3186
102
{ACAD_REACTORS
330
3179
102
}
330
3179
100
AcDbScale
 70
     0
300
2:1
140
2.0
141
1.0
290
     0
  0
SCALE
  5
3187
102
{ACAD_REACTORS
330
3179
102
}
330
3179
100
AcDbScale
 70
     0
300
4:1
140
4.0
141
1.0
290
     0
  0
SCALE
  5
3188
102
{ACAD_REACTORS
330
3179
102
}
330
3179
100
AcDbScale
 70
     0
300
8:1
140
8.0
141
1.0
290
     0
  0
SCALE
  5
3189
102
{ACAD_REACTORS
330
3179
102
}
330
3179
100
AcDbScale
 70
     0
300
10:1
140
10.0
141
1.0
290
     0
  0
SCALE
  5
318A
102
{ACAD_REACTORS
330
3179
102
}
330
3179
100
AcDbScale
 70
     0
300
100:1
140
100.0
141
1.0
290
     0
  0
SCALE
  5
318B
102
{ACAD_REACTORS
330
3179
102
}
330
3179
100
AcDbScale
 70
     0
300
1/128" = 1'-0"
140
0.0078125
141
12.0
290
     0
  0
SCALE
  5
318C
102
{ACAD_REACTORS
330
3179
102
}
330
3179
100
AcDbScale
 70
     0
300
1/64" = 1'-0"
140
0.015625
141
12.0
290
     0
  0
SCALE
  5
318D
102
{ACAD_REACTORS
330
3179
102
}
330
3179
100
AcDbScale
 70
     0
300
1/32" = 1'-0"
140
0.03125
141
12.0
290
     0
  0
SCALE
  5
318E
102
{ACAD_REACTORS
330
3179
102
}
330
3179
100
AcDbScale
 70
     0
300
1/16" = 1'-0"
140
0.0625
141
12.0
290
     0
  0
SCALE
  5
318F
102
{ACAD_REACTORS
330
3179
102
}
330
3179
100
AcDbScale
 70
     0
300
3/32" = 1'-0"
140
0.09375
141
12.0
290
     0
  0
SCALE
  5
3190
102
{ACAD_REACTORS
330
3179
102
}
330
3179
100
AcDbScale
 70
     0
300
1/8" = 1'-0"
140
0.125
141
12.0
290
     0
  0
SCALE
  5
3191
102
{ACAD_REACTORS
330
3179
102
}
330
3179
100
AcDbScale
 70
     0
300
3/16" = 1'-0"
140
0.1875
141
12.0
290
     0
  0
SCALE
  5
3192
102
{ACAD_REACTORS
330
3179
102
}
330
3179
100
AcDbScale
 70
     0
300
1/4" = 1'-0"
140
0.25
141
12.0
290
     0
  0
SCALE
  5
3193
102
{ACAD_REACTORS
330
3179
102
}
330
3179
100
AcDbScale
 70
     0
300
3/8" = 1'-0"
140
0.375
141
12.0
290
     0
  0
SCALE
  5
3194
102
{ACAD_REACTORS
330
3179
102
}
330
3179
100
AcDbScale
 70
     0
300
1/2" = 1'-0"
140
0.5
141
12.0
290
     0
  0
SCALE
  5
3195
102
{ACAD_REACTORS
330
3179
102
}
330
3179
100
AcDbScale
 70
     0
300
3/4" = 1'-0"
140
0.75
141
12.0
290
     0
  0
SCALE
  5
3196
102
{ACAD_REACTORS
330
3179
102
}
330
3179
100
AcDbScale
 70
     0
300
1" = 1'-0"
140
1.0
141
12.0
290
     0
  0
SCALE
  5
3197
102
{ACAD_REACTORS
330
3179
102
}
330
3179
100
AcDbScale
 70
     0
300
1-1/2" = 1'-0"
140
1.5
141
12.0
290
     0
  0
SCALE
  5
3198
102
{ACAD_REACTORS
330
3179
102
}
330
3179
100
AcDbScale
 70
     0
300
3" = 1'-0"
140
3.0
141
12.0
290
     0
  0
SCALE
  5
3199
102
{ACAD_REACTORS
330
3179
102
}
330
3179
100
AcDbScale
 70
     0
300
6" = 1'-0"
140
6.0
141
12.0
290
     0
  0
SCALE
  5
319A
102
{ACAD_REACTORS
330
3179
102
}
330
3179
100
AcDbScale
 70
     0
300
1'-0" = 1'-0"
140
12.0
141
12.0
290
     0
  0
TABLESTYLE
  5
3178
102
{ACAD_XDICTIONARY
360
6308
102
}
102
{ACAD_REACTORS
330
3177
102
}
330
3177
100
AcDbTableStyle
  3
Standard
 70
     0
 71
     0
 40
1.5
 41
1.5
280
     0
281
     0
  7
Standard
140
4.5
170
     2
 62
     0
 63
     7
283
     0
274
    -2
284
     1
 64
     0
275
    -2
285
     1
 65
     0
276
    -2
286
     1
 66
     0
277
    -2
287
     1
 67
     0
278
    -2
288
     1
 68
     0
279
    -2
289
     1
 69
     0
  7
Standard
140
6.0
170
     5
 62
     0
 63
     7
283
     0
274
    -2
284
     1
 64
     0
275
    -2
285
     1
 65
     0
276
    -2
286
     1
 66
     0
277
    -2
287
     1
 67
     0
278
    -2
288
     1
 68
     0
279
    -2
289
     1
 69
     0
  7
Standard
140
4.5
170
     5
 62
     0
 63
     7
283
     0
274
    -2
284
     1
 64
     0
275
    -2
285
     1
 65
     0
276
    -2
286
     1
 66
     0
277
    -2
287
     1
 67
     0
278
    -2
288
     1
 68
     0
279
    -2
289
     1
 69
     0
  0
VISUALSTYLE
  5
316B
102
{ACAD_REACTORS
330
3165
102
}
330
3165
100
AcDbVisualStyle
  2
2dWireframe
 70
     4
 71
     0
 72
     2
 73
     0
 90
        0
 40
-0.6
 41
-30.0
 62
     5
 63
     7
 74
     1
 91
        4
 64
     7
 65
   257
 75
     1
175
     1
 42
1.0
 92
        0
 66
   257
 43
1.0
 76
     1
 77
     6
 78
     2
 67
     7
 79
     5
170
     0
171
     0
290
     0
174
     0
 93
        1
 44
0.0
173
     0
291
     0
 45
0.0
1001
ACAD
1000
AcDbSavedByObjectVersion
1070
     0
1000
AcDbSavedByObjectVersion
1070
     0
  0
VISUALSTYLE
  5
316D
102
{ACAD_REACTORS
330
3165
102
}
330
3165
100
AcDbVisualStyle
  2
3D Hidden
 70
     6
 71
     1
 72
     2
 73
     2
 90
        0
 40
-0.6
 41
-30.0
 62
     5
 63
     7
 74
     2
 91
        2
 64
     7
 65
   257
 75
     2
175
     1
 42
40.0
 92
        0
 66
   257
 43
1.0
 76
     1
 77
     6
 78
     2
 67
     7
 79
     3
170
     0
171
     0
290
     0
174
     0
 93
        1
 44
0.0
173
     0
291
     0
 45
0.0
1001
ACAD
1000
AcDbSavedByObjectVersion
1070
     0
1000
AcDbSavedByObjectVersion
1070
     0
  0
VISUALSTYLE
  5
316C
102
{ACAD_REACTORS
330
3165
102
}
330
3165
100
AcDbVisualStyle
  2
3dWireframe
 70
     5
 71
     0
 72
     2
 73
     0
 90
        0
 40
-0.6
 41
-30.0
 62
     5
 63
     7
 74
     1
 91
        4
 64
     7
 65
   257
 75
     1
175
     1
 42
1.0
 92
        0
 66
   257
 43
1.0
 76
     1
 77
     6
 78
     2
 67
     7
 79
     5
170
     0
171
     0
290
     0
174
     0
 93
        1
 44
0.0
173
     0
291
     0
 45
0.0
1001
ACAD
1000
AcDbSavedByObjectVersion
1070
     0
1000
AcDbSavedByObjectVersion
1070
     0
  0
VISUALSTYLE
  5
316A
102
{ACAD_REACTORS
330
3165
102
}
330
3165
100
AcDbVisualStyle
  2
Basic
 70
     7
 71
     1
 72
     0
 73
     1
 90
        0
 40
-0.6
 41
-30.0
 62
     5
 63
     7
 74
     0
 91
        4
 64
     7
 65
   257
 75
     1
175
     1
 42
1.0
 92
        8
 66
     7
 43
1.0
 76
     1
 77
     6
 78
     2
 67
     7
 79
     5
170
     0
171
     0
290
     0
174
     0
 93
        1
 44
0.0
173
     0
291
     1
 45
0.0
1001
ACAD
1000
AcDbSavedByObjectVersion
1070
     0
1000
AcDbSavedByObjectVersion
1070
     0
  0
VISUALSTYLE
  5
3171
102
{ACAD_REACTORS
330
3165
102
}
330
3165
100
AcDbVisualStyle
  2
Brighten
 70
    12
 71
     2
 72
     2
 73
     0
 90
        0
 40
-0.6
 41
-30.0
 62
     5
 63
     7
 74
     1
 91
        4
 64
     7
 65
   257
 75
     1
175
     1
 42
1.0
 92
        8
 66
     7
 43
1.0
 76
     1
 77
     6
 78
     2
 67
     7
 79
     5
170
     0
171
     0
290
     0
174
     0
 93
        1
 44
50.0
173
     0
291
     1
 45
0.0
1001
ACAD
1000
AcDbSavedByObjectVersion
1070
     0
1000
AcDbSavedByObjectVersion
1070
     0
  0
VISUALSTYLE
  5
3175
102
{ACAD_REACTORS
330
3165
102
}
330
3165
100
AcDbVisualStyle
  2
ColorChange
 70
    16
 71
     2
 72
     2
 73
     3
 90
        0
 40
-0.6
 41
-30.0
 62
     5
 63
     8
 74
     1
 91
        4
 64
     7
 65
   257
 75
     1
175
     1
 42
1.0
 92
        8
 66
     8
 43
1.0
 76
     1
 77
     6
 78
     2
 67
     7
 79
     5
170
     0
171
     0
290
     0
174
     0
 93
        1
 44
0.0
173
     0
291
     1
 45
0.0
1001
ACAD
1000
AcDbSavedByObjectVersion
1070
     0
1000
AcDbSavedByObjectVersion
1070
     0
  0
VISUALSTYLE
  5
316E
102
{ACAD_REACTORS
330
3165
102
}
330
3165
100
AcDbVisualStyle
  2
Conceptual
 70
     9
 71
     3
 72
     2
 73
     0
 90
        0
 40
-0.6
 41
-30.0
 62
     5
 63
     7
 74
     2
 91
        2
 64
     7
 65
   257
 75
     1
175
     1
 42
40.0
 92
        8
 66
     7
 43
1.0
 76
     1
 77
     6
 78
     2
 67
     7
 79
     3
170
     0
171
     0
290
     0
174
     0
 93
        1
 44
0.0
173
     0
291
     0
 45
0.0
1001
ACAD
1000
AcDbSavedByObjectVersion
1070
     0
1000
AcDbSavedByObjectVersion
1070
     0
  0
VISUALSTYLE
  5
3170
102
{ACAD_REACTORS
330
3165
102
}
330
3165
100
AcDbVisualStyle
  2
Dim
 70
    11
 71
     2
 72
     2
 73
     0
 90
        0
 40
-0.6
 41
-30.0
 62
     5
 63
     7
 74
     1
 91
        4
 64
     7
 65
   257
 75
     1
175
     1
 42
1.0
 92
        8
 66
     7
 43
1.0
 76
     1
 77
     6
 78
     2
 67
     7
 79
     5
170
     0
171
     0
290
     0
174
     0
 93
        1
 44
-50.0
173
     0
291
     1
 45
0.0
1001
ACAD
1000
AcDbSavedByObjectVersion
1070
     0
1000
AcDbSavedByObjectVersion
1070
     0
  0
VISUALSTYLE
  5
3174
102
{ACAD_REACTORS
330
3165
102
}
330
3165
100
AcDbVisualStyle
  2
Facepattern
 70
    15
 71
     2
 72
     2
 73
     0
 90
        0
 40
-0.6
 41
-30.0
 62
     5
 63
     7
 74
     1
 91
        4
 64
     7
 65
   257
 75
     1
175
     1
 42
1.0
 92
        8
 66
     7
 43
1.0
 76
     1
 77
     6
 78
     2
 67
     7
 79
     5
170
     0
171
     0
290
     0
174
     0
 93
        1
 44
0.0
173
     0
291
     1
 45
0.0
1001
ACAD
1000
AcDbSavedByObjectVersion
1070
     0
1000
AcDbSavedByObjectVersion
1070
     0
  0
VISUALSTYLE
  5
3166
102
{ACAD_REACTORS
330
3165
102
}
330
3165
100
AcDbVisualStyle
  2
Flat
 70
     0
 71
     2
 72
     1
 73
     1
 90
        2
 40
-0.6
 41
30.0
 62
     5
 63
     7
 74
     0
 91
        4
 64
     7
 65
   257
 75
     1
175
     1
 42
1.0
 92
        8
 66
     7
 43
1.0
 76
     1
 77
     6
 78
     2
 67
     7
 79
     5
170
     0
171
     0
290
     0
174
     0
 93
       13
 44
0.0
173
     0
291
     1
 45
0.0
1001
ACAD
1000
AcDbSavedByObjectVersion
1070
     0
1000
AcDbSavedByObjectVersion
1070
     0
  0
VISUALSTYLE
  5
3167
102
{ACAD_REACTORS
330
3165
102
}
330
3165
100
AcDbVisualStyle
  2
FlatWithEdges
 70
     1
 71
     2
 72
     1
 73
     1
 90
        2
 40
-0.6
 41
30.0
 62
     5
 63
     7
 74
     1
 91
        4
 64
     7
 65
   257
 75
     1
175
     1
 42
1.0
 92
        0
 66
   257
 43
1.0
 76
     1
 77
     6
 78
     2
 67
     7
 79
     5
170
     0
171
     0
290
     0
174
     0
 93
       13
 44
0.0
173
     0
291
     1
 45
0.0
1001
ACAD
1000
AcDbSavedByObjectVersion
1070
     0
1000
AcDbSavedByObjectVersion
1070
     0
  0
VISUALSTYLE
  5
3168
102
{ACAD_REACTORS
330
3165
102
}
330
3165
100
AcDbVisualStyle
  2
Gouraud
 70
     2
 71
     2
 72
     2
 73
     1
 90
        2
 40
-0.6
 41
30.0
 62
     5
 63
     7
 74
     0
 91
        4
 64
     7
 65
   257
 75
     1
175
     1
 42
1.0
 92
        0
 66
     7
 43
1.0
 76
     1
 77
     6
 78
     2
 67
     7
 79
     5
170
     0
171
     0
290
     0
174
     0
 93
       13
 44
0.0
173
     0
291
     1
 45
0.0
1001
ACAD
1000
AcDbSavedByObjectVersion
1070
     0
1000
AcDbSavedByObjectVersion
1070
     0
  0
VISUALSTYLE
  5
3169
102
{ACAD_REACTORS
330
3165
102
}
330
3165
100
AcDbVisualStyle
  2
GouraudWithEdges
 70
     3
 71
     2
 72
     2
 73
     1
 90
        2
 40
-0.6
 41
30.0
 62
     5
 63
     7
 74
     1
 91
        4
 64
     7
 65
   257
 75
     1
175
     1
 42
1.0
 92
        0
 66
   257
 43
1.0
 76
     1
 77
     6
 78
     2
 67
     7
 79
     5
170
     0
171
     0
290
     0
174
     0
 93
       13
 44
0.0
173
     0
291
     1
 45
0.0
1001
ACAD
1000
AcDbSavedByObjectVersion
1070
     0
1000
AcDbSavedByObjectVersion
1070
     0
  0
VISUALSTYLE
  5
3173
102
{ACAD_REACTORS
330
3165
102
}
330
3165
100
AcDbVisualStyle
  2
Linepattern
 70
    14
 71
     2
 72
     2
 73
     0
 90
        0
 40
-0.6
 41
-30.0
 62
     5
 63
     7
 74
     1
 91
        4
 64
     7
 65
   257
 75
     7
175
     7
 42
1.0
 92
        8
 66
     7
 43
1.0
 76
     1
 77
     6
 78
     2
 67
     7
 79
     5
170
     0
171
     0
290
     0
174
     0
 93
        1
 44
0.0
173
     0
291
     1
 45
0.0
1001
ACAD
1000
AcDbSavedByObjectVersion
1070
     0
1000
AcDbSavedByObjectVersion
1070
     0
  0
VISUALSTYLE
  5
316F
102
{ACAD_REACTORS
330
3165
102
}
330
3165
100
AcDbVisualStyle
  2
Realistic
 70
     8
 71
     2
 72
     2
 73
     0
 90
        0
 40
-0.6
 41
-30.0
 62
     5
 63
     7
 74
     1
 91
        0
 64
     7
 65
   257
 75
     1
175
     1
 42
1.0
 92
        8
 66
     8
 43
1.0
 76
     1
 77
     6
 78
     2
 67
     7
 79
     5
170
     0
171
     0
290
     0
174
     0
 93
       13
 44
0.0
173
     0
291
     0
 45
0.0
1001
ACAD
1000
AcDbSavedByObjectVersion
1070
     0
1000
AcDbSavedByObjectVersion
1070
     0
  0
VISUALSTYLE
  5
3172
102
{ACAD_REACTORS
330
3165
102
}
330
3165
100
AcDbVisualStyle
  2
Thicken
 70
    13
 71
     2
 72
     2
 73
     0
 90
        0
 40
-0.6
 41
-30.0
 62
     5
 63
     7
 74
     1
 91
        4
 64
     7
 65
   257
 75
     1
175
     1
 42
1.0
 92
       12
 66
     7
 43
1.0
 76
     1
 77
     6
 78
     2
 67
     7
 79
     5
170
     0
171
     0
290
     0
174
     0
 93
        1
 44
0.0
173
     0
291
     1
 45
0.0
1001
ACAD
1000
AcDbSavedByObjectVersion
1070
     0
1000
AcDbSavedByObjectVersion
1070
     0
  0
DICTIONARYVAR
  5
630F
102
{ACAD_REACTORS
330
630B
102
}
330
630B
100
DictionaryVariables
280
     0
  1
1:1
  0
DICTIONARYVAR
  5
630D
102
{ACAD_REACTORS
330
630B
102
}
330
630B
100
DictionaryVariables
280
     0
  1
STANDARD
  0
DICTIONARYVAR
  5
630C
102
{ACAD_REACTORS
330
630B
102
}
330
630B
100
DictionaryVariables
280
     0
  1
STANDARD
  0
DICTIONARYVAR
  5
6318
102
{ACAD_REACTORS
330
630B
102
}
330
630B
100
DictionaryVariables
280
     0
  1
1
  0
DICTIONARYVAR
  5
6317
102
{ACAD_REACTORS
330
630B
102
}
330
630B
100
DictionaryVariables
280
     0
  1
0
  0
DICTIONARYVAR
  5
6310
102
{ACAD_REACTORS
330
630B
102
}
330
630B
100
DictionaryVariables
280
     0
  1
0
  0
DICTIONARYVAR
  5
630E
102
{ACAD_REACTORS
330
630B
102
}
330
630B
100
DictionaryVariables
280
     0
  1
0
  0
DICTIONARYVAR
  5
6316
102
{ACAD_REACTORS
330
630B
102
}
330
630B
100
DictionaryVariables
280
     0
  1
127
  0
XRECORD
  5
5E46
102
{ACAD_REACTORS
330
5E44
102
}
330
5E44
100
AcDbXrecord
280
     1
  0
DICTIONARY
  5
6380
330
21
100
AcDbDictionary
280
     1
281
     1
  3
ACAD_XREC_ROUNDTRIP
360
6381
  0
DICTIONARY
  5
637E
330
20
100
AcDbDictionary
280
     1
281
     1
  3
ACAD_XREC_ROUNDTRIP
360
637F
  0
DICTIONARY
  5
3156
330
3155
100
AcDbDictionary
280
     1
281
     1
  3
ACAD_XREC_ROUNDTRIP
360
6320
  3
BUMPTILE
360
3158
  3
DIFFUSETILE
360
3157
  3
OPACITYTILE
360
315B
  3
REFLECTIONTILE
360
315A
  3
REFRACTIONTILE
360
315C
  3
SPECULARTILE
360
3159
  0
DICTIONARY
  5
314E
330
314D
100
AcDbDictionary
280
     1
281
     1
  3
ACAD_XREC_ROUNDTRIP
360
631F
  3
BUMPTILE
360
3150
  3
DIFFUSETILE
360
314F
  3
OPACITYTILE
360
3153
  3
REFLECTIONTILE
360
3152
  3
REFRACTIONTILE
360
3154
  3
SPECULARTILE
360
3151
  0
DICTIONARY
  5
315E
330
315D
100
AcDbDictionary
280
     1
281
     1
  3
ACAD_XREC_ROUNDTRIP
360
6321
  3
BUMPTILE
360
3160
  3
DIFFUSETILE
360
315F
  3
OPACITYTILE
360
3163
  3
REFLECTIONTILE
360
3162
  3
REFRACTIONTILE
360
3164
  3
SPECULARTILE
360
3161
  0
DICTIONARY
  5
6308
330
3178
100
AcDbDictionary
280
     1
281
     1
  3
ACAD_ROUNDTRIP_2008_TABLESTYLE_CELLSTYLEMAP
360
637C
  3
ACAD_XREC_ROUNDTRIP
360
6382
  0
XRECORD
  5
6381
102
{ACAD_REACTORS
330
6380
102
}
330
6380
100
AcDbXrecord
280
     1
102
SHADEPLOT
 70
     0
102
SHADEPLOTRESLEVEL
 70
     2
102
SHADEPLOTCUSTOMDPI
 70
   300
  0
XRECORD
  5
637F
102
{ACAD_REACTORS
330
637E
102
}
330
637E
100
AcDbXrecord
280
     1
102
SHADEPLOT
 70
     0
102
SHADEPLOTRESLEVEL
 70
     2
102
SHADEPLOTCUSTOMDPI
 70
   300
  0
XRECORD
  5
6320
102
{ACAD_REACTORS
330
3156
102
}
330
3156
100
AcDbXrecord
280
     1
102
MATERIAL
148
0.0
149
0.0
149
0.0
 93
        0
 94
      127
282
     0
 72
     0
 77
     0
171
     0
175
     0
179
     0
273
     0
  0
XRECORD
  5
3158
102
{ACAD_REACTORS
330
3156
102
}
330
3156
100
AcDbXrecord
280
     1
270
     1
271
     1
  0
XRECORD
  5
3157
102
{ACAD_REACTORS
330
3156
102
}
330
3156
100
AcDbXrecord
280
     1
270
     1
271
     1
  0
XRECORD
  5
315B
102
{ACAD_REACTORS
330
3156
102
}
330
3156
100
AcDbXrecord
280
     1
270
     1
271
     1
  0
XRECORD
  5
315A
102
{ACAD_REACTORS
330
3156
102
}
330
3156
100
AcDbXrecord
280
     1
270
     1
271
     1
  0
XRECORD
  5
315C
102
{ACAD_REACTORS
330
3156
102
}
330
3156
100
AcDbXrecord
280
     1
270
     1
271
     1
  0
XRECORD
  5
3159
102
{ACAD_REACTORS
330
3156
102
}
330
3156
100
AcDbXrecord
280
     1
270
     1
271
     1
  0
XRECORD
  5
631F
102
{ACAD_REACTORS
330
314E
102
}
330
314E
100
AcDbXrecord
280
     1
102
MATERIAL
148
0.0
149
0.0
149
0.0
 93
        0
 94
      127
282
     0
 72
     0
 77
     0
171
     0
175
     0
179
     0
273
     0
  0
XRECORD
  5
3150
102
{ACAD_REACTORS
330
314E
102
}
330
314E
100
AcDbXrecord
280
     1
270
     1
271
     1
  0
XRECORD
  5
314F
102
{ACAD_REACTORS
330
314E
102
}
330
314E
100
AcDbXrecord
280
     1
270
     1
271
     1
  0
XRECORD
  5
3153
102
{ACAD_REACTORS
330
314E
102
}
330
314E
100
AcDbXrecord
280
     1
270
     1
271
     1
  0
XRECORD
  5
3152
102
{ACAD_REACTORS
330
314E
102
}
330
314E
100
AcDbXrecord
280
     1
270
     1
271
     1
  0
XRECORD
  5
3154
102
{ACAD_REACTORS
330
314E
102
}
330
314E
100
AcDbXrecord
280
     1
270
     1
271
     1
  0
XRECORD
  5
3151
102
{ACAD_REACTORS
330
314E
102
}
330
314E
100
AcDbXrecord
280
     1
270
     1
271
     1
  0
XRECORD
  5
6321
102
{ACAD_REACTORS
330
315E
102
}
330
315E
100
AcDbXrecord
280
     1
102
MATERIAL
148
0.0
149
0.0
149
0.0
 93
        0
 94
      127
282
     0
 72
     0
 77
     0
171
     0
175
     0
179
     0
273
     0
  0
XRECORD
  5
3160
102
{ACAD_REACTORS
330
315E
102
}
330
315E
100
AcDbXrecord
280
     1
270
     1
271
     1
  0
XRECORD
  5
315F
102
{ACAD_REACTORS
330
315E
102
}
330
315E
100
AcDbXrecord
280
     1
270
     1
271
     1
  0
XRECORD
  5
3163
102
{ACAD_REACTORS
330
315E
102
}
330
315E
100
AcDbXrecord
280
     1
270
     1
271
     1
  0
XRECORD
  5
3162
102
{ACAD_REACTORS
330
315E
102
}
330
315E
100
AcDbXrecord
280
     1
270
     1
271
     1
  0
XRECORD
  5
3164
102
{ACAD_REACTORS
330
315E
102
}
330
315E
100
AcDbXrecord
280
     1
270
     1
271
     1
  0
XRECORD
  5
3161
102
{ACAD_REACTORS
330
315E
102
}
330
315E
100
AcDbXrecord
280
     1
270
     1
271
     1
  0
CELLSTYLEMAP
  5
637C
102
{ACAD_REACTORS
330
6308
102
}
330
6308
100
AcDbCellStyleMap
 90
        3
300
CELLSTYLE
  1
TABLEFORMAT_BEGIN
 90
        5
170
     1
 91
        0
 92
    32768
 62
   257
 93
        1
300
CONTENTFORMAT
  1
CONTENTFORMAT_BEGIN
 90
        0
 91
        0
 92
      512
 93
        0
300

 40
0.0
140
1.0
 94
        5
 62
     0
340
17
144
6.0
309
CONTENTFORMAT_END
171
     1
301
MARGIN
  1
CELLMARGIN_BEGIN
 40
1.5
 40
1.5
 40
1.5
 40
1.5
 40
0.18
 40
0.18
309
CELLMARGIN_END
 94
        6
 95
        1
302
GRIDFORMAT
  1
GRIDFORMAT_BEGIN
 90
        0
 91
        1
 62
     0
 92
       -2
340
0
 93
        0
 40
1.125
309
GRIDFORMAT_END
 95
        2
302
GRIDFORMAT
  1
GRIDFORMAT_BEGIN
 90
        0
 91
        1
 62
     0
 92
       -2
340
0
 93
        0
 40
1.125
309
GRIDFORMAT_END
 95
        4
302
GRIDFORMAT
  1
GRIDFORMAT_BEGIN
 90
        0
 91
        1
 62
     0
 92
       -2
340
0
 93
        0
 40
1.125
309
GRIDFORMAT_END
 95
        8
302
GRIDFORMAT
  1
GRIDFORMAT_BEGIN
 90
        0
 91
        1
 62
     0
 92
       -2
340
0
 93
        0
 40
1.125
309
GRIDFORMAT_END
 95
       16
302
GRIDFORMAT
  1
GRIDFORMAT_BEGIN
 90
        0
 91
        1
 62
     0
 92
       -2
340
0
 93
        0
 40
1.125
309
GRIDFORMAT_END
 95
       32
302
GRIDFORMAT
  1
GRIDFORMAT_BEGIN
 90
        0
 91
        1
 62
     0
 92
       -2
340
0
 93
        0
 40
1.125
309
GRIDFORMAT_END
309
TABLEFORMAT_END
  1
CELLSTYLE_BEGIN
 90
        1
 91
        1
300
_TITLE
309
CELLSTYLE_END
300
CELLSTYLE
  1
TABLEFORMAT_BEGIN
 90
        5
170
     1
 91
        0
 92
        0
 62
   257
 93
        1
300
CONTENTFORMAT
  1
CONTENTFORMAT_BEGIN
 90
        0
 91
        0
 92
      512
 93
        0
300

 40
0.0
140
1.0
 94
        5
 62
     0
340
17
144
4.5
309
CONTENTFORMAT_END
171
     1
301
MARGIN
  1
CELLMARGIN_BEGIN
 40
1.5
 40
1.5
 40
1.5
 40
1.5
 40
0.18
 40
0.18
309
CELLMARGIN_END
 94
        6
 95
        1
302
GRIDFORMAT
  1
GRIDFORMAT_BEGIN
 90
        0
 91
        1
 62
     0
 92
       -2
340
0
 93
        0
 40
1.125
309
GRIDFORMAT_END
 95
        2
302
GRIDFORMAT
  1
GRIDFORMAT_BEGIN
 90
        0
 91
        1
 62
     0
 92
       -2
340
0
 93
        0
 40
1.125
309
GRIDFORMAT_END
 95
        4
302
GRIDFORMAT
  1
GRIDFORMAT_BEGIN
 90
        0
 91
        1
 62
     0
 92
       -2
340
0
 93
        0
 40
1.125
309
GRIDFORMAT_END
 95
        8
302
GRIDFORMAT
  1
GRIDFORMAT_BEGIN
 90
        0
 91
        1
 62
     0
 92
       -2
340
0
 93
        0
 40
1.125
309
GRIDFORMAT_END
 95
       16
302
GRIDFORMAT
  1
GRIDFORMAT_BEGIN
 90
        0
 91
        1
 62
     0
 92
       -2
340
0
 93
        0
 40
1.125
309
GRIDFORMAT_END
 95
       32
302
GRIDFORMAT
  1
GRIDFORMAT_BEGIN
 90
        0
 91
        1
 62
     0
 92
       -2
340
0
 93
        0
 40
1.125
309
GRIDFORMAT_END
309
TABLEFORMAT_END
  1
CELLSTYLE_BEGIN
 90
        2
 91
        1
300
_HEADER
309
CELLSTYLE_END
300
CELLSTYLE
  1
TABLEFORMAT_BEGIN
 90
        5
170
     1
 91
        0
 92
        0
 62
   257
 93
        1
300
CONTENTFORMAT
  1
CONTENTFORMAT_BEGIN
 90
        0
 91
        0
 92
      512
 93
        0
300

 40
0.0
140
1.0
 94
        2
 62
     0
340
17
144
4.5
309
CONTENTFORMAT_END
171
     1
301
MARGIN
  1
CELLMARGIN_BEGIN
 40
1.5
 40
1.5
 40
1.5
 40
1.5
 40
0.18
 40
0.18
309
CELLMARGIN_END
 94
        6
 95
        1
302
GRIDFORMAT
  1
GRIDFORMAT_BEGIN
 90
        0
 91
        1
 62
     0
 92
       -2
340
0
 93
        0
 40
1.125
309
GRIDFORMAT_END
 95
        2
302
GRIDFORMAT
  1
GRIDFORMAT_BEGIN
 90
        0
 91
        1
 62
     0
 92
       -2
340
0
 93
        0
 40
1.125
309
GRIDFORMAT_END
 95
        4
302
GRIDFORMAT
  1
GRIDFORMAT_BEGIN
 90
        0
 91
        1
 62
     0
 92
       -2
340
0
 93
        0
 40
1.125
309
GRIDFORMAT_END
 95
        8
302
GRIDFORMAT
  1
GRIDFORMAT_BEGIN
 90
        0
 91
        1
 62
     0
 92
       -2
340
0
 93
        0
 40
1.125
309
GRIDFORMAT_END
 95
       16
302
GRIDFORMAT
  1
GRIDFORMAT_BEGIN
 90
        0
 91
        1
 62
     0
 92
       -2
340
0
 93
        0
 40
1.125
309
GRIDFORMAT_END
 95
       32
302
GRIDFORMAT
  1
GRIDFORMAT_BEGIN
 90
        0
 91
        1
 62
     0
 92
       -2
340
0
 93
        0
 40
1.125
309
GRIDFORMAT_END
309
TABLEFORMAT_END
  1
CELLSTYLE_BEGIN
 90
        3
 91
        2
300
_DATA
309
CELLSTYLE_END
  0
XRECORD
  5
6382
102
{ACAD_REACTORS
330
6308
102
}
330
6308
100
AcDbXrecord
280
     1
102
ACAD_ROUNDTRIP_PRE2007_TABLESTYLE
 90
      512
 91
        0
  1

 92
      512
 93
        0
  2

 94
      512
 95
        0
  3

  0
ENDSEC
  0
EOF
