  0
SECTION
  2
HEADER
  9
$EXTMIN
 10
-456.150000
 20
-14.450000
 30
0.0
  9
$EXTMAX
 10
-232.850000
 20
303.450000
 30
0.0
  9
$DIMPOST
  1

  9
$DIMSCALE
 40
1.0
  9
$DIMTXT
 40
3.0
  9
$DIMASZ
 40
3.0
  9
$DIMEXO
 40
0.5
  9
$DIMEXE
 40
0.5
  9
$DIMSE1
 70
     0
  9
$DIMSE2
 70
     0
  9
$DIMBLK
  1
CND_FRECCIA
  9
$DIMBLK1
  1
CND_FRECCIA
  9
$DIMBLK2
  1
CND_PALLINO
  9
$DIMTAD
 70
     0
  9
$DIMTIH
 70
     0
  9
$DIMTIX
 70
     0
  9
$DIMTOL
 70
     0
  0
ENDSEC
  0
SECTION
  2
TABLES
  0
TABLE
  2
LTYPE
 70
    50
  0
LTYPE
  2
CONTINUOUS
 70
     0
  3
Solid line
 72
    65
 73
     0
 40
0.0
  0
LTYPE
  2
DASHED
 70
     0
  3
-- -- --
 72
    65
 73
     2
 40
0.75
 49
0.5
 49
-0.25
  0
LTYPE
  2
HIDDEN
 70
     0
  3
-  -  -  -
 72
    65
 73
     2
 40
0.375
 49
0.25
 49
-0.125
  0
LTYPE
  2
CENTER
 70
     0
  3
-- - -- -
 72
    65
 73
     4
 40
2.0
 49
1.25
 49
-0.25
 49
0.25
 49
-0.25
  0
LTYPE
  2
PHANTOM
 70
     0
  3
-- - - --
 72
    65
 73
     6
 40
2.5
 49
1.25
 49
-0.25
 49
0.25
 49
-0.25
 49
0.25
 49
-0.25
  0
LTYPE
  2
DOT
 70
     0
  3
. . . . .
 72
    65
 73
     2
 40
0.25
 49
0.0
 49
-0.25
  0
LTYPE
  2
DASHDOT
 70
     0
  3
-- . -- .
 72
    65
 73
     4
 40
1.0
 49
0.5
 49
-0.25
 49
0.0
 49
-0.25
  0
LTYPE
  2
BORDER
 70
     0
  3
-- -- . -
 72
    65
 73
     6
 40
1.75
 49
0.5
 49
-0.25
 49
0.5
 49
-0.25
 49
0.0
 49
-0.25
  0
LTYPE
  2
DIVIDE
 70
     0
  3
-- .. -- 
 72
    65
 73
     6
 40
1.25
 49
0.5
 49
-0.25
 49
0.0
 49
-0.25
 49
0.0
 49
-0.25
  0
ENDTAB
  0
TABLE
  2
LAYER
 70
    20
  0
LAYER
  2
Nor_
 70
     0
 62
     1
  6
CONTINUOUS
  0
LAYER
  2
Assi
 70
     0
 62
     2
  6
DASHDOT
  0
LAYER
  2
Fil_
 70
     0
 62
    11
  6
HIDDEN
  0
LAYER
  2
Raf_
 70
     0
 62
     4
  6
HIDDEN
  0
LAYER
  2
Sez_
 70
     0
 62
     6
  6
DASHDOT
  0
LAYER
  2
Sim_
 70
     0
 62
     1
  6
CONTINUOUS
  0
LAYER
  2
Est_
 70
     0
 62
     9
  6
CONTINUOUS
  0
LAYER
  2
Col_
 70
     0
 62
     1
  6
CONTINUOUS
  0
LAYER
  2
Tab_
 70
     0
 62
     1
  6
CONTINUOUS
  0
LAYER
  2
9
 70
     0
 62
     1
  6
CONTINUOUS
  0
LAYER
  2
Tra_
 70
     0
 62
     8
  6
HIDDEN
  0
LAYER
  2
11
 70
     0
 62
     1
  6
CONTINUOUS
  0
LAYER
  2
12
 70
     0
 62
     1
  6
CONTINUOUS
  0
LAYER
  2
sot_
 70
     0
 62
    11
  6
CONTINUOUS
  0
LAYER
  2
tes_
 70
     0
 62
     1
  6
CONTINUOUS
  0
LAYER
  2
fini
 70
     0
 62
    14
  6
CONTINUOUS
  0
LAYER
  2
30
 70
     0
 62
     1
  6
CONTINUOUS
  0
LAYER
  2
31
 70
     0
 62
     1
  6
CONTINUOUS
  0
LAYER
  2
Campiture
 70
     0
 62
     3
  6
CONTINUOUS
  0
LAYER
  2
Quote
 70
     0
 62
     7
  6
CONTINUOUS
  0
ENDTAB
  0
TABLE
  2
STYLE
 70
     2
  0
STYLE
  2
ROMANS
 70
     0
 40
0.0
 41
0.85
 50
0.0
 71
     0
 42
1.0
  3
ROMANS
  4

  0
STYLE
  2
ROMANT
 70
     0
 40
0.0
 41
1.0
 50
0.0
 71
     0
 42
1.0
  3
ROMANT
  4

  0
ENDTAB
  0
TABLE
  2
DIMSTYLE
 70
     2
  0
DIMSTYLE
  2
CNDRAFT
 70
     0
  3

  4

  5
CND_FRECCIA
  6
CND_PALLINO
  7
CND_FRECCIA
 40
1.0
 41
3.0
 42
0.5
 43
0.0
 44
0.5
 45
0.0
 46
0.0
 47
0.0
 48
0.0
 71
     0
 72
     0
 73
     0
 74
     0
 75
     0
 76
     0
 77
     1
 78
     8
140
3.0
141
0.0
142
0.0
143
25.4
144
1.0
145
0.0
146
0.0
147
0.75
170
     0
171
     0
172
     1
173
     0
174
     0
175
     0
176
     7
177
     7
178
     1
271
     2
272
     3
275
     0
  0
ENDTAB
  0
ENDSEC
  0
SECTION
  2
BLOCKS
  0
BLOCK
  8
0
  2
CND_FRECCIA
 70
    66
 10
0.0
 20
0.0
 30
0.0
  0
INSERT
  8
0
  5
0
  2
FRECCIA
 10
0.0
 20
0.0
 30
0.0
 41
-1.0
  0
ENDBLK
  0
BLOCK
  8
0
  2
CND_PALLINO
 70
    66
 10
0.0
 20
0.0
 30
0.0
  0
INSERT
  8
0
  5
0
  2
PALLINO
 10
0.0
 20
0.0
 30
0.0
 41
-1.0
  0
ENDBLK
  0
BLOCK
  8
0
  2
PALLINO
 70
    66
 10
0.0
 20
0.0
 30
0.0
  0
CIRCLE
  8
Sez_
  5
0
  6
CONTINUOUS
 62
     2
 10
0.0
 20
0.0
 30
0.0
 40
0.231555
  0
ENDBLK
  0
BLOCK
  8
0
  2
FRECCIA
 70
    66
 10
0.0
 20
0.0
 30
0.0
  0
LINE
  8
Nor_
  5
0
  6
CONTINUOUS
 62
    11
 10
0.0
 20
0.0
 30
0.0
 11
1.0
 21
-0.168424
 31
0.0
  0
LINE
  8
Nor_
  5
0
  6
CONTINUOUS
 62
    11
 10
1.0
 20
-0.168424
 30
0.0
 11
0.791691
 21
0.0
 31
0.0
  0
LINE
  8
Nor_
  5
0
  6
CONTINUOUS
 62
    11
 10
0.0
 20
0.0
 30
0.0
 11
1.0
 21
0.182296
 31
0.0
  0
LINE
  8
Nor_
  5
0
  6
CONTINUOUS
 62
    11
 10
1.0
 20
0.182296
 30
0.0
 11
0.791691
 21
0.0
 31
0.0
  0
ENDBLK
  0
ENDSEC
  0
SECTION
  2
ENTITIES
  0
LINE
  8
Tab_
  5
0
  6
CONTINUOUS
 62
     1
 10
-446.000000
 20
0.0
 30
0.0
 11
-243.000000
 21
0.000000
 31
0.0
  0
LINE
  8
Tab_
  5
0
  6
CONTINUOUS
 62
     1
 10
-243.000000
 20
0.000000
 30
0.0
 11
-243.000000
 21
289.000000
 31
0.0
  0
LINE
  8
Tab_
  5
0
  6
CONTINUOUS
 62
     1
 10
-446.000000
 20
289.000000
 30
0.0
 11
-446.000000
 21
0.0
 31
0.0
  0
LINE
  8
Tab_
  5
0
  6
CONTINUOUS
 62
     1
 10
-243.000000
 20
289.000000
 30
0.0
 11
-446.000000
 21
289.000000
 31
0.0
  0
LINE
  8
31
  5
0
  6
CONTINUOUS
 62
     1
 10
-433.000000
 20
48.000000
 30
0.0
 11
-243.000000
 21
48.000000
 31
0.0
  0
LINE
  8
31
  5
0
  6
CONTINUOUS
 62
     1
 10
-332.000000
 20
48.000000
 30
0.0
 11
-332.000000
 21
0.000000
 31
0.0
  0
LINE
  8
31
  5
0
  6
CONTINUOUS
 62
     1
 10
-305.000000
 20
0.000000
 30
0.0
 11
-305.000000
 21
18.000000
 31
0.0
  0
LINE
  8
31
  5
0
  6
CONTINUOUS
 62
     1
 10
-332.000000
 20
18.000000
 30
0.0
 11
-305.000000
 21
18.000000
 31
0.0
  0
LINE
  8
31
  5
0
  6
CONTINUOUS
 62
     1
 10
-305.000000
 20
18.000000
 30
0.0
 11
-243.000000
 21
18.000000
 31
0.0
  0
TEXT
  8
31
  5
0
  6
CONTINUOUS
 62
     3
 10
-328.000000
 20
42.603897
 30
0.0
 40
2.5
  1
COD. DISEGNO
  7
ROMANT
  0
TEXT
  8
31
  5
0
  6
CONTINUOUS
 62
     3
 10
-329.000000
 20
22.087409
 30
0.0
 40
2.5
  1
DATA
  7
ROMANT
  0
LINE
  8
31
  5
0
  6
CONTINUOUS
 62
     1
 10
-433.000000
 20
-0.000000
 30
0.0
 11
-433.000000
 21
48.000000
 31
0.0
  0
TEXT
  8
31
  5
0
  6
CONTINUOUS
 62
    11
 10
-328.413414
 20
4.030839
 30
0.0
 40
3.0
  1
1:1
  7
ROMANT
  0
TEXT
  8
31
  5
0
  6
CONTINUOUS
 62
    11
 10
-308.159316
 20
22.098894
 30
0.0
 40
3.0
  1
06-05-13
  7
ROMANT
  0
TEXT
  8
31
  5
0
  6
CONTINUOUS
 62
    11
 10
-291.230889
 20
36.527502
 30
0.0
 40
3.0
  1
Glass-Bumper
  7
ROMANT
  0
LINE
  8
31
  5
0
  6
CONTINUOUS
 62
     1
 10
-282.135481
 20
28.764662
 30
0.0
 11
-282.135481
 21
18.000000
 31
0.0
  0
LINE
  8
31
  5
0
  6
CONTINUOUS
 62
     1
 10
-332.000000
 20
28.764662
 30
0.0
 11
-243.000000
 21
28.764662
 31
0.0
  0
TEXT
  8
31
  5
0
  6
CONTINUOUS
 62
     3
 10
-331.210560
 20
12.657586
 30
0.0
 40
2.5
  1
SCALA
  7
ROMANT
  0
TEXT
  8
31
  5
0
  6
CONTINUOUS
 62
     3
 10
-302.112469
 20
12.605623
 30
0.0
 40
2.5
  1
DISEGNATO
  7
ROMANT
  0
TEXT
  8
31
  5
0
  6
CONTINUOUS
 62
    11
 10
-279.771759
 20
5.774244
 30
0.0
 40
3.0
  1
BARATTO D.
  7
ROMANT
  0
TEXT
  8
31
  5
0
  6
CONTINUOUS
 62
     1
 10
-370.035328
 20
37.806100
 30
0.0
 40
3.0
  1
C.C.E.
 41
0.8
  7
ROMANT
  0
TEXT
  8
31
  5
0
  6
CONTINUOUS
 62
     1
 10
-393.605487
 20
32.614219
 30
0.0
 40
2.8
  1
COSTRUZIONI CHIUSURE ERMETICHE S.R.L.
 41
0.68
  7
ROMANS
  0
TEXT
  8
31
  5
0
  6
CONTINUOUS
 62
     1
 10
-377.074600
 20
28.241314
 30
0.0
 40
2.0
  1
Via dell' Artigianato 16
 41
0.68
  7
ROMANS
  0
TEXT
  8
31
  5
0
  6
CONTINUOUS
 62
     1
 10
-385.148767
 20
23.958495
 30
0.0
 40
2.0
  1
Tel. 049.9325073 - Fax. 049.9325384
 41
0.68
  7
ROMANS
  0
TEXT
  8
31
  5
0
  6
CONTINUOUS
 62
     1
 10
-383.533934
 20
19.716096
 30
0.0
 40
2.2
  1
35010 VILLA DEL CONTE (Padova)
 41
0.68
  7
ROMANS
  0
TEXT
  8
31
  5
0
  6
CONTINUOUS
 62
     1
 10
-383.599256
 20
15.743908
 30
0.0
 40
2.0
  1
http//www.cce.it  e-mail: info   cce.it
 41
0.68
  7
ROMANS
  0
ARC
  8
31
  5
0
  6
CONTINUOUS
 62
     1
 10
-350.248772
 20
16.323440
 30
0.0
 40
0.832357
 50
13.766579
 51
326.958733
  0
LINE
  8
31
  5
0
  6
CONTINUOUS
 62
     1
 10
-349.881494
 20
16.624577
 30
0.0
 11
-350.006294
 21
16.780577
 31
0.0
  0
LINE
  8
31
  5
0
  6
CONTINUOUS
 62
     1
 10
-350.006294
 20
16.780577
 30
0.0
 11
-350.131094
 21
16.858577
 31
0.0
  0
LINE
  8
31
  5
0
  6
CONTINUOUS
 62
     1
 10
-350.131094
 20
16.858577
 30
0.0
 11
-350.318294
 21
16.858577
 31
0.0
  0
LINE
  8
31
  5
0
  6
CONTINUOUS
 62
     1
 10
-350.318294
 20
16.858577
 30
0.0
 11
-350.443094
 21
16.780577
 31
0.0
  0
LINE
  8
31
  5
0
  6
CONTINUOUS
 62
     1
 10
-350.443094
 20
16.780577
 30
0.0
 11
-350.567894
 21
16.624577
 31
0.0
  0
LINE
  8
31
  5
0
  6
CONTINUOUS
 62
     1
 10
-350.567894
 20
16.624577
 30
0.0
 11
-350.630294
 21
16.390577
 31
0.0
  0
LINE
  8
31
  5
0
  6
CONTINUOUS
 62
     1
 10
-350.630294
 20
16.390577
 30
0.0
 11
-350.630294
 21
16.234577
 31
0.0
  0
LINE
  8
31
  5
0
  6
CONTINUOUS
 62
     1
 10
-350.630294
 20
16.234577
 30
0.0
 11
-350.567894
 21
16.000577
 31
0.0
  0
POLYLINE
  8
31
  5
0
  6
CONTINUOUS
 62
     1
210
0.0
220
0.0
230
1.0
 66
     1
 10
0.0
 20
0.0
 30
0.0
 70
     4
 75
     6
  0
VERTEX
  8
31
  5
0
  6
CONTINUOUS
 62
     1
 10
-349.837216
 20
16.789364
 30
0.0
 70
    16
  0
VERTEX
  8
31
  5
0
  6
CONTINUOUS
 62
     1
 10
-349.837216
 20
16.789364
 30
0.0
 70
     8
  0
VERTEX
  8
31
  5
0
  6
CONTINUOUS
 62
     1
 10
-349.843160
 20
16.767398
 30
0.0
 70
     8
  0
VERTEX
  8
31
  5
0
  6
CONTINUOUS
 62
     1
 10
-349.849733
 20
16.742944
 30
0.0
 70
     8
  0
VERTEX
  8
31
  5
0
  6
CONTINUOUS
 62
     1
 10
-349.856840
 20
16.716422
 30
0.0
 70
     8
  0
VERTEX
  8
31
  5
0
  6
CONTINUOUS
 62
     1
 10
-349.864382
 20
16.688250
 30
0.0
 70
     8
  0
VERTEX
  8
31
  5
0
  6
CONTINUOUS
 62
     1
 10
-349.872264
 20
16.658848
 30
0.0
 70
     8
  0
VERTEX
  8
31
  5
0
  6
CONTINUOUS
 62
     1
 10
-349.880388
 20
16.628634
 30
0.0
 70
     8
  0
VERTEX
  8
31
  5
0
  6
CONTINUOUS
 62
     1
 10
-349.888658
 20
16.598029
 30
0.0
 70
     8
  0
VERTEX
  8
31
  5
0
  6
CONTINUOUS
 62
     1
 10
-349.896976
 20
16.567451
 30
0.0
 70
     8
  0
VERTEX
  8
31
  5
0
  6
CONTINUOUS
 62
     1
 10
-349.905256
 20
16.537247
 30
0.0
 70
     8
  0
VERTEX
  8
31
  5
0
  6
CONTINUOUS
 62
     1
 10
-349.913444
 20
16.507475
 30
0.0
 70
     8
  0
VERTEX
  8
31
  5
0
  6
CONTINUOUS
 62
     1
 10
-349.921500
 20
16.478121
 30
0.0
 70
     8
  0
VERTEX
  8
31
  5
0
  6
CONTINUOUS
 62
     1
 10
-349.929381
 20
16.449171
 30
0.0
 70
     8
  0
VERTEX
  8
31
  5
0
  6
CONTINUOUS
 62
     1
 10
-349.937045
 20
16.420610
 30
0.0
 70
     8
  0
VERTEX
  8
31
  5
0
  6
CONTINUOUS
 62
     1
 10
-349.944448
 20
16.392424
 30
0.0
 70
     8
  0
VERTEX
  8
31
  5
0
  6
CONTINUOUS
 62
     1
 10
-349.951550
 20
16.364600
 30
0.0
 70
     8
  0
VERTEX
  8
31
  5
0
  6
CONTINUOUS
 62
     1
 10
-349.958307
 20
16.337122
 30
0.0
 70
     8
  0
VERTEX
  8
31
  5
0
  6
CONTINUOUS
 62
     1
 10
-349.964692
 20
16.310004
 30
0.0
 70
     8
  0
VERTEX
  8
31
  5
0
  6
CONTINUOUS
 62
     1
 10
-349.970731
 20
16.283364
 30
0.0
 70
     8
  0
VERTEX
  8
31
  5
0
  6
CONTINUOUS
 62
     1
 10
-349.976467
 20
16.257349
 30
0.0
 70
     8
  0
VERTEX
  8
31
  5
0
  6
CONTINUOUS
 62
     1
 10
-349.981940
 20
16.232106
 30
0.0
 70
     8
  0
VERTEX
  8
31
  5
0
  6
CONTINUOUS
 62
     1
 10
-349.987193
 20
16.207779
 30
0.0
 70
     8
  0
VERTEX
  8
31
  5
0
  6
CONTINUOUS
 62
     1
 10
-349.992267
 20
16.184515
 30
0.0
 70
     8
  0
VERTEX
  8
31
  5
0
  6
CONTINUOUS
 62
     1
 10
-349.997204
 20
16.162460
 30
0.0
 70
     8
  0
VERTEX
  8
31
  5
0
  6
CONTINUOUS
 62
     1
 10
-350.002044
 20
16.141761
 30
0.0
 70
     8
  0
VERTEX
  8
31
  5
0
  6
CONTINUOUS
 62
     1
 10
-350.006800
 20
16.122506
 30
0.0
 70
     8
  0
VERTEX
  8
31
  5
0
  6
CONTINUOUS
 62
     1
 10
-350.011361
 20
16.104554
 30
0.0
 70
     8
  0
VERTEX
  8
31
  5
0
  6
CONTINUOUS
 62
     1
 10
-350.015588
 20
16.087709
 30
0.0
 70
     8
  0
VERTEX
  8
31
  5
0
  6
CONTINUOUS
 62
     1
 10
-350.019342
 20
16.071772
 30
0.0
 70
     8
  0
VERTEX
  8
31
  5
0
  6
CONTINUOUS
 62
     1
 10
-350.022481
 20
16.056546
 30
0.0
 70
     8
  0
VERTEX
  8
31
  5
0
  6
CONTINUOUS
 62
     1
 10
-350.024867
 20
16.041833
 30
0.0
 70
     8
  0
VERTEX
  8
31
  5
0
  6
CONTINUOUS
 62
     1
 10
-350.026360
 20
16.027435
 30
0.0
 70
     8
  0
VERTEX
  8
31
  5
0
  6
CONTINUOUS
 62
     1
 10
-350.026820
 20
16.013155
 30
0.0
 70
     8
  0
VERTEX
  8
31
  5
0
  6
CONTINUOUS
 62
     1
 10
-350.026111
 20
15.998875
 30
0.0
 70
     8
  0
VERTEX
  8
31
  5
0
  6
CONTINUOUS
 62
     1
 10
-350.024116
 20
15.984796
 30
0.0
 70
     8
  0
VERTEX
  8
31
  5
0
  6
CONTINUOUS
 62
     1
 10
-350.020723
 20
15.971201
 30
0.0
 70
     8
  0
VERTEX
  8
31
  5
0
  6
CONTINUOUS
 62
     1
 10
-350.015817
 20
15.958370
 30
0.0
 70
     8
  0
VERTEX
  8
31
  5
0
  6
CONTINUOUS
 62
     1
 10
-350.009285
 20
15.946584
 30
0.0
 70
     8
  0
VERTEX
  8
31
  5
0
  6
CONTINUOUS
 62
     1
 10
-350.001015
 20
15.936126
 30
0.0
 70
     8
  0
VERTEX
  8
31
  5
0
  6
CONTINUOUS
 62
     1
 10
-349.990894
 20
15.927276
 30
0.0
 70
     8
  0
VERTEX
  8
31
  5
0
  6
CONTINUOUS
 62
     1
 10
-349.978808
 20
15.920317
 30
0.0
 70
     8
  0
VERTEX
  8
31
  5
0
  6
CONTINUOUS
 62
     1
 10
-349.964716
 20
15.915461
 30
0.0
 70
     8
  0
VERTEX
  8
31
  5
0
  6
CONTINUOUS
 62
     1
 10
-349.948862
 20
15.912649
 30
0.0
 70
     8
  0
VERTEX
  8
31
  5
0
  6
CONTINUOUS
 62
     1
 10
-349.931559
 20
15.911755
 30
0.0
 70
     8
  0
VERTEX
  8
31
  5
0
  6
CONTINUOUS
 62
     1
 10
-349.913125
 20
15.912651
 30
0.0
 70
     8
  0
VERTEX
  8
31
  5
0
  6
CONTINUOUS
 62
     1
 10
-349.893872
 20
15.915210
 30
0.0
 70
     8
  0
VERTEX
  8
31
  5
0
  6
CONTINUOUS
 62
     1
 10
-349.874118
 20
15.919306
 30
0.0
 70
     8
  0
VERTEX
  8
31
  5
0
  6
CONTINUOUS
 62
     1
 10
-349.854176
 20
15.924810
 30
0.0
 70
     8
  0
VERTEX
  8
31
  5
0
  6
CONTINUOUS
 62
     1
 10
-349.834363
 20
15.931597
 30
0.0
 70
     8
  0
VERTEX
  8
31
  5
0
  6
CONTINUOUS
 62
     1
 10
-349.814937
 20
15.939548
 30
0.0
 70
     8
  0
VERTEX
  8
31
  5
0
  6
CONTINUOUS
 62
     1
 10
-349.795938
 20
15.948587
 30
0.0
 70
     8
  0
VERTEX
  8
31
  5
0
  6
CONTINUOUS
 62
     1
 10
-349.777352
 20
15.958643
 30
0.0
 70
     8
  0
VERTEX
  8
31
  5
0
  6
CONTINUOUS
 62
     1
 10
-349.759162
 20
15.969651
 30
0.0
 70
     8
  0
VERTEX
  8
31
  5
0
  6
CONTINUOUS
 62
     1
 10
-349.741354
 20
15.981540
 30
0.0
 70
     8
  0
VERTEX
  8
31
  5
0
  6
CONTINUOUS
 62
     1
 10
-349.723912
 20
15.994244
 30
0.0
 70
     8
  0
VERTEX
  8
31
  5
0
  6
CONTINUOUS
 62
     1
 10
-349.706821
 20
16.007693
 30
0.0
 70
     8
  0
VERTEX
  8
31
  5
0
  6
CONTINUOUS
 62
     1
 10
-349.690064
 20
16.021820
 30
0.0
 70
     8
  0
VERTEX
  8
31
  5
0
  6
CONTINUOUS
 62
     1
 10
-349.673636
 20
16.036555
 30
0.0
 70
     8
  0
VERTEX
  8
31
  5
0
  6
CONTINUOUS
 62
     1
 10
-349.657558
 20
16.051825
 30
0.0
 70
     8
  0
VERTEX
  8
31
  5
0
  6
CONTINUOUS
 62
     1
 10
-349.641863
 20
16.067553
 30
0.0
 70
     8
  0
VERTEX
  8
31
  5
0
  6
CONTINUOUS
 62
     1
 10
-349.626583
 20
16.083664
 30
0.0
 70
     8
  0
VERTEX
  8
31
  5
0
  6
CONTINUOUS
 62
     1
 10
-349.611747
 20
16.100083
 30
0.0
 70
     8
  0
VERTEX
  8
31
  5
0
  6
CONTINUOUS
 62
     1
 10
-349.597389
 20
16.116735
 30
0.0
 70
     8
  0
VERTEX
  8
31
  5
0
  6
CONTINUOUS
 62
     1
 10
-349.583538
 20
16.133544
 30
0.0
 70
     8
  0
VERTEX
  8
31
  5
0
  6
CONTINUOUS
 62
     1
 10
-349.570227
 20
16.150435
 30
0.0
 70
     8
  0
VERTEX
  8
31
  5
0
  6
CONTINUOUS
 62
     1
 10
-349.557486
 20
16.167340
 30
0.0
 70
     8
  0
VERTEX
  8
31
  5
0
  6
CONTINUOUS
 62
     1
 10
-349.545340
 20
16.184227
 30
0.0
 70
     8
  0
VERTEX
  8
31
  5
0
  6
CONTINUOUS
 62
     1
 10
-349.533812
 20
16.201071
 30
0.0
 70
     8
  0
VERTEX
  8
31
  5
0
  6
CONTINUOUS
 62
     1
 10
-349.522927
 20
16.217847
 30
0.0
 70
     8
  0
VERTEX
  8
31
  5
0
  6
CONTINUOUS
 62
     1
 10
-349.512708
 20
16.234529
 30
0.0
 70
     8
  0
VERTEX
  8
31
  5
0
  6
CONTINUOUS
 62
     1
 10
-349.503179
 20
16.251094
 30
0.0
 70
     8
  0
VERTEX
  8
31
  5
0
  6
CONTINUOUS
 62
     1
 10
-349.494364
 20
16.267515
 30
0.0
 70
     8
  0
VERTEX
  8
31
  5
0
  6
CONTINUOUS
 62
     1
 10
-349.486287
 20
16.283769
 30
0.0
 70
     8
  0
VERTEX
  8
31
  5
0
  6
CONTINUOUS
 62
     1
 10
-349.478962
 20
16.299837
 30
0.0
 70
     8
  0
VERTEX
  8
31
  5
0
  6
CONTINUOUS
 62
     1
 10
-349.472367
 20
16.315725
 30
0.0
 70
     8
  0
VERTEX
  8
31
  5
0
  6
CONTINUOUS
 62
     1
 10
-349.466471
 20
16.331445
 30
0.0
 70
     8
  0
VERTEX
  8
31
  5
0
  6
CONTINUOUS
 62
     1
 10
-349.461242
 20
16.347012
 30
0.0
 70
     8
  0
VERTEX
  8
31
  5
0
  6
CONTINUOUS
 62
     1
 10
-349.456648
 20
16.362436
 30
0.0
 70
     8
  0
VERTEX
  8
31
  5
0
  6
CONTINUOUS
 62
     1
 10
-349.452658
 20
16.377731
 30
0.0
 70
     8
  0
VERTEX
  8
31
  5
0
  6
CONTINUOUS
 62
     1
 10
-349.449240
 20
16.392910
 30
0.0
 70
     8
  0
VERTEX
  8
31
  5
0
  6
CONTINUOUS
 62
     1
 10
-349.446362
 20
16.407985
 30
0.0
 70
     8
  0
VERTEX
  8
31
  5
0
  6
CONTINUOUS
 62
     1
 10
-349.443997
 20
16.422966
 30
0.0
 70
     8
  0
VERTEX
  8
31
  5
0
  6
CONTINUOUS
 62
     1
 10
-349.442128
 20
16.437850
 30
0.0
 70
     8
  0
VERTEX
  8
31
  5
0
  6
CONTINUOUS
 62
     1
 10
-349.440740
 20
16.452631
 30
0.0
 70
     8
  0
VERTEX
  8
31
  5
0
  6
CONTINUOUS
 62
     1
 10
-349.439820
 20
16.467301
 30
0.0
 70
     8
  0
VERTEX
  8
31
  5
0
  6
CONTINUOUS
 62
     1
 10
-349.439355
 20
16.481855
 30
0.0
 70
     8
  0
VERTEX
  8
31
  5
0
  6
CONTINUOUS
 62
     1
 10
-349.439331
 20
16.496287
 30
0.0
 70
     8
  0
VERTEX
  8
31
  5
0
  6
CONTINUOUS
 62
     1
 10
-349.439734
 20
16.510589
 30
0.0
 70
     8
  0
VERTEX
  8
31
  5
0
  6
CONTINUOUS
 62
     1
 10
-349.440550
 20
16.524757
 30
0.0
 70
     8
  0
VERTEX
  8
31
  5
0
  6
CONTINUOUS
 62
     1
 10
-349.852140
 20
16.734478
 30
0.0
 70
    16
  0
VERTEX
  8
31
  5
0
  6
CONTINUOUS
 62
     1
 10
-349.897490
 20
16.562689
 30
0.0
 70
    16
  0
VERTEX
  8
31
  5
0
  6
CONTINUOUS
 62
     1
 10
-349.962432
 20
16.333575
 30
0.0
 70
    16
  0
VERTEX
  8
31
  5
0
  6
CONTINUOUS
 62
     1
 10
-350.002625
 20
16.125746
 30
0.0
 70
    16
  0
VERTEX
  8
31
  5
0
  6
CONTINUOUS
 62
     1
 10
-350.039331
 20
16.014007
 30
0.0
 70
    16
  0
VERTEX
  8
31
  5
0
  6
CONTINUOUS
 62
     1
 10
-350.000970
 20
15.897154
 30
0.0
 70
    16
  0
VERTEX
  8
31
  5
0
  6
CONTINUOUS
 62
     1
 10
-349.829638
 20
15.919277
 30
0.0
 70
    16
  0
VERTEX
  8
31
  5
0
  6
CONTINUOUS
 62
     1
 10
-349.686653
 20
16.015319
 30
0.0
 70
    16
  0
VERTEX
  8
31
  5
0
  6
CONTINUOUS
 62
     1
 10
-349.564137
 20
16.150366
 30
0.0
 70
    16
  0
VERTEX
  8
31
  5
0
  6
CONTINUOUS
 62
     1
 10
-349.478163
 20
16.285824
 30
0.0
 70
    16
  0
VERTEX
  8
31
  5
0
  6
CONTINUOUS
 62
     1
 10
-349.440931
 20
16.408955
 30
0.0
 70
    16
  0
VERTEX
  8
31
  5
0
  6
CONTINUOUS
 62
     1
 10
-349.437834
 20
16.487163
 30
0.0
 70
    16
  0
VERTEX
  8
31
  5
0
  6
CONTINUOUS
 62
     1
 10
-349.440550
 20
16.524757
 30
0.0
 70
    16
  0
SEQEND
  8
31
  0
POLYLINE
  8
31
  5
0
  6
CONTINUOUS
 62
     1
210
0.0
220
0.0
230
1.0
 66
     1
 10
0.0
 20
0.0
 30
0.0
 70
     4
 75
     6
  0
VERTEX
  8
31
  5
0
  6
CONTINUOUS
 62
     1
 10
-350.029582
 20
16.007624
 30
0.0
 70
    16
  0
VERTEX
  8
31
  5
0
  6
CONTINUOUS
 62
     1
 10
-350.029582
 20
16.007624
 30
0.0
 70
     8
  0
VERTEX
  8
31
  5
0
  6
CONTINUOUS
 62
     1
 10
-350.040982
 20
15.995692
 30
0.0
 70
     8
  0
VERTEX
  8
31
  5
0
  6
CONTINUOUS
 62
     1
 10
-350.053336
 20
15.983793
 30
0.0
 70
     8
  0
VERTEX
  8
31
  5
0
  6
CONTINUOUS
 62
     1
 10
-350.066590
 20
15.972012
 30
0.0
 70
     8
  0
VERTEX
  8
31
  5
0
  6
CONTINUOUS
 62
     1
 10
-350.080688
 20
15.960434
 30
0.0
 70
     8
  0
VERTEX
  8
31
  5
0
  6
CONTINUOUS
 62
     1
 10
-350.095576
 20
15.949146
 30
0.0
 70
     8
  0
VERTEX
  8
31
  5
0
  6
CONTINUOUS
 62
     1
 10
-350.111198
 20
15.938233
 30
0.0
 70
     8
  0
VERTEX
  8
31
  5
0
  6
CONTINUOUS
 62
     1
 10
-350.127500
 20
15.927781
 30
0.0
 70
     8
  0
VERTEX
  8
31
  5
0
  6
CONTINUOUS
 62
     1
 10
-350.144425
 20
15.917874
 30
0.0
 70
     8
  0
VERTEX
  8
31
  5
0
  6
CONTINUOUS
 62
     1
 10
-350.161921
 20
15.908604
 30
0.0
 70
     8
  0
VERTEX
  8
31
  5
0
  6
CONTINUOUS
 62
     1
 10
-350.179938
 20
15.900077
 30
0.0
 70
     8
  0
VERTEX
  8
31
  5
0
  6
CONTINUOUS
 62
     1
 10
-350.198428
 20
15.892408
 30
0.0
 70
     8
  0
VERTEX
  8
31
  5
0
  6
CONTINUOUS
 62
     1
 10
-350.217343
 20
15.885707
 30
0.0
 70
     8
  0
VERTEX
  8
31
  5
0
  6
CONTINUOUS
 62
     1
 10
-350.236636
 20
15.880088
 30
0.0
 70
     8
  0
VERTEX
  8
31
  5
0
  6
CONTINUOUS
 62
     1
 10
-350.256259
 20
15.875662
 30
0.0
 70
     8
  0
VERTEX
  8
31
  5
0
  6
CONTINUOUS
 62
     1
 10
-350.276163
 20
15.872543
 30
0.0
 70
     8
  0
VERTEX
  8
31
  5
0
  6
CONTINUOUS
 62
     1
 10
-350.296301
 20
15.870842
 30
0.0
 70
     8
  0
VERTEX
  8
31
  5
0
  6
CONTINUOUS
 62
     1
 10
-350.316610
 20
15.870639
 30
0.0
 70
     8
  0
VERTEX
  8
31
  5
0
  6
CONTINUOUS
 62
     1
 10
-350.336972
 20
15.871884
 30
0.0
 70
     8
  0
VERTEX
  8
31
  5
0
  6
CONTINUOUS
 62
     1
 10
-350.357254
 20
15.874492
 30
0.0
 70
     8
  0
VERTEX
  8
31
  5
0
  6
CONTINUOUS
 62
     1
 10
-350.377322
 20
15.878379
 30
0.0
 70
     8
  0
VERTEX
  8
31
  5
0
  6
CONTINUOUS
 62
     1
 10
-350.397043
 20
15.883462
 30
0.0
 70
     8
  0
VERTEX
  8
31
  5
0
  6
CONTINUOUS
 62
     1
 10
-350.416285
 20
15.889657
 30
0.0
 70
     8
  0
VERTEX
  8
31
  5
0
  6
CONTINUOUS
 62
     1
 10
-350.434913
 20
15.896881
 30
0.0
 70
     8
  0
VERTEX
  8
31
  5
0
  6
CONTINUOUS
 62
     1
 10
-350.452796
 20
15.905048
 30
0.0
 70
     8
  0
VERTEX
  8
31
  5
0
  6
CONTINUOUS
 62
     1
 10
-350.469828
 20
15.914088
 30
0.0
 70
     8
  0
VERTEX
  8
31
  5
0
  6
CONTINUOUS
 62
     1
 10
-350.486022
 20
15.923978
 30
0.0
 70
     8
  0
VERTEX
  8
31
  5
0
  6
CONTINUOUS
 62
     1
 10
-350.501419
 20
15.934708
 30
0.0
 70
     8
  0
VERTEX
  8
31
  5
0
  6
CONTINUOUS
 62
     1
 10
-350.516061
 20
15.946266
 30
0.0
 70
     8
  0
VERTEX
  8
31
  5
0
  6
CONTINUOUS
 62
     1
 10
-350.529988
 20
15.958643
 30
0.0
 70
     8
  0
VERTEX
  8
31
  5
0
  6
CONTINUOUS
 62
     1
 10
-350.543242
 20
15.971827
 30
0.0
 70
     8
  0
VERTEX
  8
31
  5
0
  6
CONTINUOUS
 62
     1
 10
-350.555863
 20
15.985809
 30
0.0
 70
     8
  0
VERTEX
  8
31
  5
0
  6
CONTINUOUS
 62
     1
 10
-350.567894
 20
16.000577
 30
0.0
 70
     8
  0
VERTEX
  8
31
  5
0
  6
CONTINUOUS
 62
     1
 10
-350.058659
 20
15.975839
 30
0.0
 70
    16
  0
VERTEX
  8
31
  5
0
  6
CONTINUOUS
 62
     1
 10
-350.138355
 20
15.911136
 30
0.0
 70
    16
  0
VERTEX
  8
31
  5
0
  6
CONTINUOUS
 62
     1
 10
-350.294319
 20
15.854511
 30
0.0
 70
    16
  0
VERTEX
  8
31
  5
0
  6
CONTINUOUS
 62
     1
 10
-350.462175
 20
15.895870
 30
0.0
 70
    16
  0
VERTEX
  8
31
  5
0
  6
CONTINUOUS
 62
     1
 10
-350.536564
 20
15.960155
 30
0.0
 70
    16
  0
VERTEX
  8
31
  5
0
  6
CONTINUOUS
 62
     1
 10
-350.567894
 20
16.000577
 30
0.0
 70
    16
  0
SEQEND
  8
31
  0
TEXT
  8
31
  5
0
  6
CONTINUOUS
 62
     1
 10
-384.000738
 20
10.637877
 30
0.0
 40
2.2
  1
Partita  I V A  02000310280
 41
0.85
  7
ROMANS
  0
CIRCLE
  8
30
  5
0
  6
CONTINUOUS
 62
     3
 10
-414.343003
 20
24.738167
 30
0.0
 40
15.0
  0
CIRCLE
  8
30
  5
0
  6
CONTINUOUS
 62
     3
 10
-414.343003
 20
24.738167
 30
0.0
 40
13.5
  0
ARC
  8
30
  5
0
  6
CONTINUOUS
 62
     1
 10
-414.343003
 20
24.738167
 30
0.0
 40
12.000000
 50
355.219808
 51
360.000000
  0
ARC
  8
30
  5
0
  6
CONTINUOUS
 62
     1
 10
-414.343003
 20
24.738167
 30
0.0
 40
12.000000
 50
297.279613
 51
340.528779
  0
ARC
  8
30
  5
0
  6
CONTINUOUS
 62
     3
 10
-414.343003
 20
24.738167
 30
0.0
 40
12.000000
 50
250.528779
 51
289.471221
  0
ARC
  8
30
  5
0
  6
CONTINUOUS
 62
     1
 10
-414.343003
 20
24.738167
 30
0.0
 40
12.0
 50
117.279613
 51
242.720387
  0
ARC
  8
30
  5
0
  6
CONTINUOUS
 62
     3
 10
-414.343003
 20
24.738167
 30
0.0
 40
12.000000
 50
70.528779
 51
109.471221
  0
ARC
  8
30
  5
0
  6
CONTINUOUS
 62
     1
 10
-414.343003
 20
24.738167
 30
0.0
 40
12.000000
 50
19.471221
 51
62.720387
  0
ARC
  8
30
  5
0
  6
CONTINUOUS
 62
     1
 10
-414.343003
 20
24.738167
 30
0.0
 40
12.000000
 50
0.0
 51
4.780192
  0
ARC
  8
30
  5
0
  6
CONTINUOUS
 62
     1
 10
-414.343003
 20
24.738167
 30
0.0
 40
9.500000
 50
327.363102
 51
335.098938
  0
ARC
  8
30
  5
0
  6
CONTINUOUS
 62
     3
 10
-414.343003
 20
24.738167
 30
0.0
 40
9.500000
 50
260.915280
 51
294.901062
  0
ARC
  8
30
  5
0
  6
CONTINUOUS
 62
     1
 10
-414.343003
 20
24.738167
 30
0.0
 40
9.5
 50
125.376540
 51
234.623460
  0
ARC
  8
30
  5
0
  6
CONTINUOUS
 62
     3
 10
-414.343003
 20
24.738167
 30
0.0
 40
9.500000
 50
65.098938
 51
99.084720
  0
ARC
  8
30
  5
0
  6
CONTINUOUS
 62
     1
 10
-414.343003
 20
24.738167
 30
0.0
 40
9.500000
 50
24.901062
 51
32.636898
  0
LINE
  8
30
  5
0
  6
CONTINUOUS
 62
     3
 10
-418.343003
 20
13.424458
 30
0.0
 11
-418.343003
 21
36.051875
 31
0.0
  0
LINE
  8
30
  5
0
  6
CONTINUOUS
 62
     3
 10
-410.343003
 20
36.051875
 30
0.0
 11
-410.343003
 21
33.355011
 31
0.0
  0
LINE
  8
30
  5
0
  6
CONTINUOUS
 62
     3
 10
-410.343003
 20
16.121323
 30
0.0
 11
-410.343003
 21
13.424458
 31
0.0
  0
LINE
  8
30
  5
0
  6
CONTINUOUS
 62
     1
 10
-419.843003
 20
35.403531
 30
0.0
 11
-419.843003
 21
32.484133
 31
0.0
  0
LINE
  8
30
  5
0
  6
CONTINUOUS
 62
     1
 10
-419.843003
 20
16.992200
 30
0.0
 11
-419.843003
 21
14.072802
 31
0.0
  0
LINE
  8
30
  5
0
  6
CONTINUOUS
 62
     1
 10
-408.843003
 20
14.072802
 30
0.0
 11
-408.843003
 21
35.403531
 31
0.0
  0
LINE
  8
30
  5
0
  6
CONTINUOUS
 62
     3
 10
-415.843003
 20
34.118998
 30
0.0
 11
-415.843003
 21
15.357335
 31
0.0
  0
LINE
  8
30
  5
0
  6
CONTINUOUS
 62
     1
 10
-406.343003
 20
29.861642
 30
0.0
 11
-406.343003
 21
25.738167
 31
0.0
  0
LINE
  8
30
  5
0
  6
CONTINUOUS
 62
     1
 10
-406.343003
 20
23.738167
 30
0.0
 11
-406.343003
 21
19.614691
 31
0.0
  0
LINE
  8
30
  5
0
  6
CONTINUOUS
 62
     1
 10
-406.343003
 20
25.738167
 30
0.0
 11
-402.384742
 21
25.738167
 31
0.0
  0
LINE
  8
30
  5
0
  6
CONTINUOUS
 62
     1
 10
-402.384742
 20
23.738167
 30
0.0
 11
-406.343003
 21
23.738167
 31
0.0
  0
LINE
  8
30
  5
0
  6
CONTINUOUS
 62
     1
 10
-403.029294
 20
28.738167
 30
0.0
 11
-405.726159
 21
28.738167
 31
0.0
  0
LINE
  8
30
  5
0
  6
CONTINUOUS
 62
     1
 10
-405.726159
 20
20.738167
 30
0.0
 11
-403.029294
 21
20.738167
 31
0.0
  0
LINE
  8
30
  5
0
  6
CONTINUOUS
 62
     3
 10
-402.152553
 20
15.998430
 30
0.0
 11
-405.602948
 21
12.548037
 31
0.0
  0
LINE
  8
30
  5
0
  6
CONTINUOUS
 62
     3
 10
-401.586031
 20
16.847795
 30
0.0
 11
-406.451288
 21
11.982540
 31
0.0
  0
LINE
  8
30
  5
0
  6
CONTINUOUS
 62
     3
 10
-401.191352
 20
17.525316
 30
0.0
 11
-407.129813
 21
11.586858
 31
0.0
  0
LINE
  8
30
  5
0
  6
CONTINUOUS
 62
     3
 10
-400.884694
 20
18.114817
 30
0.0
 11
-407.718989
 21
11.280525
 31
0.0
  0
LINE
  8
30
  5
0
  6
CONTINUOUS
 62
     3
 10
-400.636313
 20
18.646041
 30
0.0
 11
-408.251103
 21
11.031253
 31
0.0
  0
LINE
  8
30
  5
0
  6
CONTINUOUS
 62
     3
 10
-400.428785
 20
19.136411
 30
0.0
 11
-408.742117
 21
10.823082
 31
0.0
  0
LINE
  8
30
  5
0
  6
CONTINUOUS
 62
     3
 10
-400.252712
 20
19.595327
 30
0.0
 11
-409.200986
 21
10.647056
 31
0.0
  0
LINE
  8
30
  5
0
  6
CONTINUOUS
 62
     3
 10
-400.101873
 20
20.029009
 30
0.0
 11
-403.709976
 21
16.420907
 31
0.0
  0
LINE
  8
30
  5
0
  6
CONTINUOUS
 62
     3
 10
-406.026759
 20
14.104124
 30
0.0
 11
-409.634264
 21
10.496621
 31
0.0
  0
LINE
  8
30
  5
0
  6
CONTINUOUS
 62
     3
 10
-399.971649
 20
20.442075
 30
0.0
 11
-403.009287
 21
17.404439
 31
0.0
  0
LINE
  8
30
  5
0
  6
CONTINUOUS
 62
     3
 10
-407.010601
 20
13.403126
 30
0.0
 11
-410.046633
 21
10.367095
 31
0.0
  0
LINE
  8
30
  5
0
  6
CONTINUOUS
 62
     3
 10
-399.859432
 20
20.837135
 30
0.0
 11
-402.577152
 21
18.119416
 31
0.0
  0
LINE
  8
30
  5
0
  6
CONTINUOUS
 62
     3
 10
-407.723736
 20
12.972834
 30
0.0
 11
-410.441732
 21
10.254839
 31
0.0
  0
LINE
  8
30
  5
0
  6
CONTINUOUS
 62
     3
 10
-399.762726
 20
21.216683
 30
0.0
 11
-402.258251
 21
18.721159
 31
0.0
  0
LINE
  8
30
  5
0
  6
CONTINUOUS
 62
     3
 10
-408.325288
 20
12.654124
 30
0.0
 11
-410.822045
 21
10.157368
 31
0.0
  0
LINE
  8
30
  5
0
  6
CONTINUOUS
 62
     3
 10
-399.678453
 20
21.583799
 30
0.0
 11
-402.007126
 21
19.255127
 31
0.0
  0
LINE
  8
30
  5
0
  6
CONTINUOUS
 62
     3
 10
-408.860404
 20
12.401851
 30
0.0
 11
-411.188035
 21
10.074221
 31
0.0
  0
LINE
  8
30
  5
0
  6
CONTINUOUS
 62
     3
 10
-399.607209
 20
21.937885
 30
0.0
 11
-401.800747
 21
19.744349
 31
0.0
  0
LINE
  8
30
  5
0
  6
CONTINUOUS
 62
     3
 10
-409.348558
 20
12.196540
 30
0.0
 11
-411.543265
 21
10.001834
 31
0.0
  0
LINE
  8
30
  5
0
  6
CONTINUOUS
 62
     3
 10
-399.545590
 20
22.282347
 30
0.0
 11
-401.629105
 21
20.198833
 31
0.0
  0
LINE
  8
30
  5
0
  6
CONTINUOUS
 62
     3
 10
-409.802930
 20
12.025011
 30
0.0
 11
-411.886835
 21
9.941106
 31
0.0
  0
LINE
  8
30
  5
0
  6
CONTINUOUS
 62
     3
 10
-399.494205
 20
22.616575
 30
0.0
 11
-401.484511
 21
20.626269
 31
0.0
  0
LINE
  8
30
  5
0
  6
CONTINUOUS
 62
     3
 10
-410.230431
 20
11.880352
 30
0.0
 11
-412.221490
 21
9.889294
 31
0.0
  0
LINE
  8
30
  5
0
  6
CONTINUOUS
 62
     3
 10
-399.451369
 20
22.942254
 30
0.0
 11
-401.362192
 21
21.031431
 31
0.0
  0
LINE
  8
30
  5
0
  6
CONTINUOUS
 62
     3
 10
-410.636135
 20
11.757492
 30
0.0
 11
-412.547373
 21
9.846254
 31
0.0
  0
LINE
  8
30
  5
0
  6
CONTINUOUS
 62
     3
 10
-399.416093
 20
23.260373
 30
0.0
 11
-401.258056
 21
21.418410
 31
0.0
  0
LINE
  8
30
  5
0
  6
CONTINUOUS
 62
     3
 10
-411.023856
 20
11.652613
 30
0.0
 11
-412.864798
 21
9.811672
 31
0.0
  0
LINE
  8
30
  5
0
  6
CONTINUOUS
 62
     3
 10
-399.388857
 20
23.570451
 30
0.0
 11
-401.169098
 21
21.790210
 31
0.0
  0
LINE
  8
30
  5
0
  6
CONTINUOUS
 62
     3
 10
-411.394856
 20
11.564456
 30
0.0
 11
-413.175210
 21
9.784102
 31
0.0
  0
LINE
  8
30
  5
0
  6
CONTINUOUS
 62
     3
 10
-399.368426
 20
23.873725
 30
0.0
 11
-401.094198
 21
22.147953
 31
0.0
  0
LINE
  8
30
  5
0
  6
CONTINUOUS
 62
     3
 10
-411.752785
 20
11.489370
 30
0.0
 11
-413.479008
 21
9.763148
 31
0.0
  0
LINE
  8
30
  5
0
  6
CONTINUOUS
 62
     3
 10
-399.354172
 20
24.170822
 30
0.0
 11
-401.031285
 21
22.493709
 31
0.0
  0
LINE
  8
30
  5
0
  6
CONTINUOUS
 62
     3
 10
-412.098598
 20
11.426400
 30
0.0
 11
-413.775815
 21
9.749183
 31
0.0
  0
LINE
  8
30
  5
0
  6
CONTINUOUS
 62
     3
 10
-399.345770
 20
24.462066
 30
0.0
 11
-400.979114
 21
22.828722
 31
0.0
  0
LINE
  8
30
  5
0
  6
CONTINUOUS
 62
     3
 10
-412.433602
 20
11.374238
 30
0.0
 11
-414.066666
 21
9.741175
 31
0.0
  0
LINE
  8
30
  5
0
  6
CONTINUOUS
 62
     3
 10
-399.343079
 20
24.747599
 30
0.0
 11
-400.936507
 21
23.154173
 31
0.0
  0
LINE
  8
30
  5
0
  6
CONTINUOUS
 62
     3
 10
-412.758784
 20
11.331899
 30
0.0
 11
-414.352020
 21
9.738663
 31
0.0
  0
LINE
  8
30
  5
0
  6
CONTINUOUS
 62
     3
 10
-399.346091
 20
25.027430
 30
0.0
 11
-400.903164
 21
23.470358
 31
0.0
  0
LINE
  8
30
  5
0
  6
CONTINUOUS
 62
     3
 10
-413.075698
 20
11.297828
 30
0.0
 11
-414.632143
 21
9.741383
 31
0.0
  0
LINE
  8
30
  5
0
  6
CONTINUOUS
 62
     3
 10
-399.354042
 20
25.302322
 30
0.0
 11
-400.877363
 21
23.779001
 31
0.0
  0
LINE
  8
30
  5
0
  6
CONTINUOUS
 62
     3
 10
-413.383611
 20
11.272757
 30
0.0
 11
-414.907281
 21
9.749088
 31
0.0
  0
LINE
  8
30
  5
0
  6
CONTINUOUS
 62
     3
 10
-399.366709
 20
25.572498
 30
0.0
 11
-400.859327
 21
24.079880
 31
0.0
  0
LINE
  8
30
  5
0
  6
CONTINUOUS
 62
     3
 10
-413.684528
 20
11.254684
 30
0.0
 11
-415.177659
 21
9.761552
 31
0.0
  0
LINE
  8
30
  5
0
  6
CONTINUOUS
 62
     3
 10
-399.383888
 20
25.838161
 30
0.0
 11
-400.848412
 21
24.373638
 31
0.0
  0
LINE
  8
30
  5
0
  6
CONTINUOUS
 62
     3
 10
-413.978843
 20
11.243211
 30
0.0
 11
-415.443446
 21
9.778609
 31
0.0
  0
LINE
  8
30
  5
0
  6
CONTINUOUS
 62
     3
 10
-399.405390
 20
26.099502
 30
0.0
 11
-400.843663
 21
24.661229
 31
0.0
  0
LINE
  8
30
  5
0
  6
CONTINUOUS
 62
     3
 10
-414.266233
 20
11.238664
 30
0.0
 11
-415.704646
 21
9.800251
 31
0.0
  0
LINE
  8
30
  5
0
  6
CONTINUOUS
 62
     3
 10
-399.431039
 20
26.356696
 30
0.0
 11
-400.844761
 21
24.942975
 31
0.0
  0
LINE
  8
30
  5
0
  6
CONTINUOUS
 62
     3
 10
-414.547553
 20
11.240186
 30
0.0
 11
-415.961731
 21
9.826010
 31
0.0
  0
LINE
  8
30
  5
0
  6
CONTINUOUS
 62
     3
 10
-399.460672
 20
26.609905
 30
0.0
 11
-400.851701
 21
25.218876
 31
0.0
  0
LINE
  8
30
  5
0
  6
CONTINUOUS
 62
     3
 10
-414.823379
 20
11.247203
 30
0.0
 11
-416.214859
 21
9.855724
 31
0.0
  0
LINE
  8
30
  5
0
  6
CONTINUOUS
 62
     3
 10
-399.494139
 20
26.859282
 30
0.0
 11
-400.864272
 21
25.489148
 31
0.0
  0
LINE
  8
30
  5
0
  6
CONTINUOUS
 62
     3
 10
-415.093974
 20
11.259451
 30
0.0
 11
-416.464181
 21
9.889245
 31
0.0
  0
LINE
  8
30
  5
0
  6
CONTINUOUS
 62
     3
 10
-399.531297
 20
27.104966
 30
0.0
 11
-400.881786
 21
25.754477
 31
0.0
  0
LINE
  8
30
  5
0
  6
CONTINUOUS
 62
     3
 10
-415.359578
 20
11.276690
 30
0.0
 11
-416.709834
 21
9.926434
 31
0.0
  0
LINE
  8
30
  5
0
  6
CONTINUOUS
 62
     3
 10
-399.572016
 20
27.347090
 30
0.0
 11
-400.904026
 21
26.015080
 31
0.0
  0
LINE
  8
30
  5
0
  6
CONTINUOUS
 62
     3
 10
-415.620340
 20
11.298771
 30
0.0
 11
-416.951948
 21
9.967164
 31
0.0
  0
LINE
  8
30
  5
0
  6
CONTINUOUS
 62
     3
 10
-399.616174
 20
27.585775
 30
0.0
 11
-400.930791
 21
26.271157
 31
0.0
  0
LINE
  8
30
  5
0
  6
CONTINUOUS
 62
     3
 10
-415.876213
 20
11.325740
 30
0.0
 11
-417.190642
 21
10.011312
 31
0.0
  0
LINE
  8
30
  5
0
  6
CONTINUOUS
 62
     3
 10
-399.663656
 20
27.821135
 30
0.0
 11
-400.961896
 21
26.522895
 31
0.0
  0
LINE
  8
30
  5
0
  6
CONTINUOUS
 62
     3
 10
-416.127782
 20
11.357015
 30
0.0
 11
-417.426030
 21
10.058767
 31
0.0
  0
LINE
  8
30
  5
0
  6
CONTINUOUS
 62
     3
 10
-399.714356
 20
28.053278
 30
0.0
 11
-400.997170
 21
26.770464
 31
0.0
  0
LINE
  8
30
  5
0
  6
CONTINUOUS
 62
     3
 10
-416.375213
 20
11.392426
 30
0.0
 11
-417.658216
 21
10.109423
 31
0.0
  0
LINE
  8
30
  5
0
  6
CONTINUOUS
 62
     3
 10
-399.768174
 20
28.282302
 30
0.0
 11
-401.036452
 21
27.014025
 31
0.0
  0
LINE
  8
30
  5
0
  6
CONTINUOUS
 62
     3
 10
-416.618663
 20
11.431819
 30
0.0
 11
-417.887299
 21
10.163183
 31
0.0
  0
LINE
  8
30
  5
0
  6
CONTINUOUS
 62
     3
 10
-399.825018
 20
28.508301
 30
0.0
 11
-401.079596
 21
27.253723
 31
0.0
  0
LINE
  8
30
  5
0
  6
CONTINUOUS
 62
     3
 10
-416.858277
 20
11.475047
 30
0.0
 11
-418.113371
 21
10.219954
 31
0.0
  0
LINE
  8
30
  5
0
  6
CONTINUOUS
 62
     3
 10
-399.884799
 20
28.731363
 30
0.0
 11
-401.126466
 21
27.489696
 31
0.0
  0
LINE
  8
30
  5
0
  6
CONTINUOUS
 62
     3
 10
-417.094190
 20
11.521978
 30
0.0
 11
-418.336518
 21
10.279650
 31
0.0
  0
LINE
  8
30
  5
0
  6
CONTINUOUS
 62
     3
 10
-399.947436
 20
28.951568
 30
0.0
 11
-401.176933
 21
27.722071
 31
0.0
  0
LINE
  8
30
  5
0
  6
CONTINUOUS
 62
     3
 10
-417.326525
 20
11.572485
 30
0.0
 11
-418.556799
 21
10.342211
 31
0.0
  0
LINE
  8
30
  5
0
  6
CONTINUOUS
 62
     3
 10
-400.012852
 20
29.168995
 30
0.0
 11
-401.230880
 21
27.950967
 31
0.0
  0
LINE
  8
30
  5
0
  6
CONTINUOUS
 62
     3
 10
-417.555401
 20
11.626452
 30
0.0
 11
-418.774110
 21
10.407743
 31
0.0
  0
LINE
  8
30
  5
0
  6
CONTINUOUS
 62
     3
 10
-400.080976
 20
29.383714
 30
0.0
 11
-401.288200
 21
28.176490
 31
0.0
  0
LINE
  8
30
  5
0
  6
CONTINUOUS
 62
     3
 10
-417.780925
 20
11.683770
 30
0.0
 11
-418.988705
 21
10.475991
 31
0.0
  0
LINE
  8
30
  5
0
  6
CONTINUOUS
 62
     3
 10
-400.151739
 20
29.595794
 30
0.0
 11
-401.348779
 21
28.398754
 31
0.0
  0
LINE
  8
30
  5
0
  6
CONTINUOUS
 62
     3
 10
-418.003199
 20
11.744340
 30
0.0
 11
-419.200651
 21
10.546888
 31
0.0
  0
LINE
  8
30
  5
0
  6
CONTINUOUS
 62
     3
 10
-400.225078
 20
29.805297
 30
0.0
 11
-401.412533
 21
28.617843
 31
0.0
  0
LINE
  8
30
  5
0
  6
CONTINUOUS
 62
     3
 10
-418.222316
 20
11.808065
 30
0.0
 11
-419.410013
 21
10.620369
 31
0.0
  0
LINE
  8
30
  5
0
  6
CONTINUOUS
 62
     3
 10
-400.300934
 20
30.012283
 30
0.0
 11
-401.479368
 21
28.833850
 31
0.0
  0
LINE
  8
30
  5
0
  6
CONTINUOUS
 62
     3
 10
-418.438365
 20
11.874859
 30
0.0
 11
-419.616850
 21
10.696374
 31
0.0
  0
LINE
  8
30
  5
0
  6
CONTINUOUS
 62
     3
 10
-400.379345
 20
30.216715
 30
0.0
 11
-401.549202
 21
29.046859
 31
0.0
  0
LINE
  8
30
  5
0
  6
CONTINUOUS
 62
     3
 10
-418.651428
 20
11.944638
 30
0.0
 11
-419.821220
 21
10.774847
 31
0.0
  0
LINE
  8
30
  5
0
  6
CONTINUOUS
 62
     3
 10
-400.460401
 20
30.418502
 30
0.0
 11
-401.621956
 21
29.256948
 31
0.0
  0
LINE
  8
30
  5
0
  6
CONTINUOUS
 62
     3
 10
-418.861582
 20
12.017327
 30
0.0
 11
-420.023175
 21
10.855735
 31
0.0
  0
LINE
  8
30
  5
0
  6
CONTINUOUS
 62
     3
 10
-400.543828
 20
30.617918
 30
0.0
 11
-401.697558
 21
29.464188
 31
0.0
  0
LINE
  8
30
  5
0
  6
CONTINUOUS
 62
     3
 10
-419.068899
 20
12.092853
 30
0.0
 11
-420.222765
 21
10.938987
 31
0.0
  0
LINE
  8
30
  5
0
  6
CONTINUOUS
 62
     3
 10
-400.629578
 20
30.815010
 30
0.0
 11
-401.775939
 21
29.668650
 31
0.0
  0
LINE
  8
30
  5
0
  6
CONTINUOUS
 62
     3
 10
-419.273446
 20
12.171149
 30
0.0
 11
-420.420038
 21
11.024557
 31
0.0
  0
LINE
  8
30
  5
0
  6
CONTINUOUS
 62
     3
 10
-400.717607
 20
31.009824
 30
0.0
 11
-401.857037
 21
29.870395
 31
0.0
  0
LINE
  8
30
  5
0
  6
CONTINUOUS
 62
     3
 10
-419.475285
 20
12.252152
 30
0.0
 11
-420.615036
 21
11.112402
 31
0.0
  0
LINE
  8
30
  5
0
  6
CONTINUOUS
 62
     3
 10
-400.807873
 20
31.202401
 30
0.0
 11
-401.940792
 21
30.069483
 31
0.0
  0
LINE
  8
30
  5
0
  6
CONTINUOUS
 62
     3
 10
-419.674475
 20
12.335805
 30
0.0
 11
-420.807424
 21
11.202856
 31
0.0
  0
LINE
  8
30
  5
0
  6
CONTINUOUS
 62
     3
 10
-400.900337
 20
31.392780
 30
0.0
 11
-402.027148
 21
30.265969
 31
0.0
  0
LINE
  8
30
  5
0
  6
CONTINUOUS
 62
     3
 10
-419.871071
 20
12.422051
 30
0.0
 11
-420.997604
 21
11.295519
 31
0.0
  0
LINE
  8
30
  5
0
  6
CONTINUOUS
 62
     3
 10
-400.994962
 20
31.580998
 30
0.0
 11
-402.116054
 21
30.459906
 31
0.0
  0
LINE
  8
30
  5
0
  6
CONTINUOUS
 62
     3
 10
-420.065115
 20
12.510851
 30
0.0
 11
-421.185620
 21
11.390346
 31
0.0
  0
LINE
  8
30
  5
0
  6
CONTINUOUS
 62
     3
 10
-401.091828
 20
31.766974
 30
0.0
 11
-402.207461
 21
30.651341
 31
0.0
  0
LINE
  8
30
  5
0
  6
CONTINUOUS
 62
     3
 10
-420.256421
 20
12.602387
 30
0.0
 11
-421.371504
 21
11.487304
 31
0.0
  0
LINE
  8
30
  5
0
  6
CONTINUOUS
 62
     3
 10
-401.191098
 20
31.950547
 30
0.0
 11
-402.301325
 21
30.840320
 31
0.0
  0
LINE
  8
30
  5
0
  6
CONTINUOUS
 62
     3
 10
-420.445266
 20
12.696385
 30
0.0
 11
-421.555291
 21
11.586360
 31
0.0
  0
LINE
  8
30
  5
0
  6
CONTINUOUS
 62
     3
 10
-401.292438
 20
32.132050
 30
0.0
 11
-402.397603
 21
31.026885
 31
0.0
  0
LINE
  8
30
  5
0
  6
CONTINUOUS
 62
     3
 10
-420.631692
 20
12.792802
 30
0.0
 11
-421.737011
 21
11.687483
 31
0.0
  0
LINE
  8
30
  5
0
  6
CONTINUOUS
 62
     3
 10
-401.395819
 20
32.311511
 30
0.0
 11
-402.496256
 21
31.211075
 31
0.0
  0
LINE
  8
30
  5
0
  6
CONTINUOUS
 62
     3
 10
-420.815738
 20
12.891599
 30
0.0
 11
-421.916692
 21
11.790645
 31
0.0
  0
LINE
  8
30
  5
0
  6
CONTINUOUS
 62
     3
 10
-401.501215
 20
32.488957
 30
0.0
 11
-402.597247
 21
31.392926
 31
0.0
  0
LINE
  8
30
  5
0
  6
CONTINUOUS
 62
     3
 10
-420.997440
 20
12.992739
 30
0.0
 11
-422.093958
 21
11.896222
 31
0.0
  0
LINE
  8
30
  5
0
  6
CONTINUOUS
 62
     3
 10
-401.608602
 20
32.664413
 30
0.0
 11
-402.700774
 21
31.572241
 31
0.0
  0
LINE
  8
30
  5
0
  6
CONTINUOUS
 62
     3
 10
-421.176834
 20
13.096188
 30
0.0
 11
-422.269186
 21
12.003836
 31
0.0
  0
LINE
  8
30
  5
0
  6
CONTINUOUS
 62
     3
 10
-401.717955
 20
32.837903
 30
0.0
 11
-402.806661
 21
31.749197
 31
0.0
  0
LINE
  8
30
  5
0
  6
CONTINUOUS
 62
     3
 10
-421.353951
 20
13.201914
 30
0.0
 11
-422.442445
 21
12.113420
 31
0.0
  0
LINE
  8
30
  5
0
  6
CONTINUOUS
 62
     3
 10
-401.829597
 20
33.009104
 30
0.0
 11
-402.914799
 21
31.923903
 31
0.0
  0
LINE
  8
30
  5
0
  6
CONTINUOUS
 62
     3
 10
-421.528819
 20
13.309888
 30
0.0
 11
-422.613757
 21
12.224951
 31
0.0
  0
LINE
  8
30
  5
0
  6
CONTINUOUS
 62
     3
 10
-401.943292
 20
33.178251
 30
0.0
 11
-403.025160
 21
32.096384
 31
0.0
  0
LINE
  8
30
  5
0
  6
CONTINUOUS
 62
     3
 10
-421.701467
 20
13.420083
 30
0.0
 11
-422.783142
 21
12.338409
 31
0.0
  0
LINE
  8
30
  5
0
  6
CONTINUOUS
 62
     3
 10
-402.058898
 20
33.345489
 30
0.0
 11
-403.137720
 21
32.266666
 31
0.0
  0
LINE
  8
30
  5
0
  6
CONTINUOUS
 62
     3
 10
-421.871809
 20
13.532584
 30
0.0
 11
-422.950617
 21
12.453776
 31
0.0
  0
LINE
  8
30
  5
0
  6
CONTINUOUS
 62
     3
 10
-402.176396
 20
33.510833
 30
0.0
 11
-403.252456
 21
32.434773
 31
0.0
  0
LINE
  8
30
  5
0
  6
CONTINUOUS
 62
     3
 10
-422.039740
 20
13.647495
 30
0.0
 11
-423.115856
 21
12.571380
 31
0.0
  0
LINE
  8
30
  5
0
  6
CONTINUOUS
 62
     3
 10
-402.295773
 20
33.674299
 30
0.0
 11
-403.369347
 21
32.600725
 31
0.0
  0
LINE
  8
30
  5
0
  6
CONTINUOUS
 62
     3
 10
-422.205515
 20
13.764564
 30
0.0
 11
-423.279078
 21
12.691000
 31
0.0
  0
LINE
  8
30
  5
0
  6
CONTINUOUS
 62
     3
 10
-402.417013
 20
33.835901
 30
0.0
 11
-403.488374
 21
32.764541
 31
0.0
  0
LINE
  8
30
  5
0
  6
CONTINUOUS
 62
     3
 10
-422.369151
 20
13.883770
 30
0.0
 11
-423.440436
 21
12.812485
 31
0.0
  0
LINE
  8
30
  5
0
  6
CONTINUOUS
 62
     3
 10
-402.540499
 20
33.995258
 30
0.0
 11
-403.609631
 21
32.926127
 31
0.0
  0
LINE
  8
30
  5
0
  6
CONTINUOUS
 62
     3
 10
-422.530667
 20
14.005096
 30
0.0
 11
-423.599942
 21
12.935822
 31
0.0
  0
LINE
  8
30
  5
0
  6
CONTINUOUS
 62
     3
 10
-402.665924
 20
34.152675
 30
0.0
 11
-403.733247
 21
33.085353
 31
0.0
  0
LINE
  8
30
  5
0
  6
CONTINUOUS
 62
     3
 10
-422.690079
 20
14.128528
 30
0.0
 11
-423.757607
 21
13.060999
 31
0.0
  0
LINE
  8
30
  5
0
  6
CONTINUOUS
 62
     3
 10
-402.793181
 20
34.308262
 30
0.0
 11
-403.858956
 21
33.242487
 31
0.0
  0
LINE
  8
30
  5
0
  6
CONTINUOUS
 62
     3
 10
-422.847399
 20
14.254050
 30
0.0
 11
-423.913442
 21
13.188007
 31
0.0
  0
LINE
  8
30
  5
0
  6
CONTINUOUS
 62
     3
 10
-402.922259
 20
34.462026
 30
0.0
 11
-403.986746
 21
33.397540
 31
0.0
  0
LINE
  8
30
  5
0
  6
CONTINUOUS
 62
     3
 10
-423.002639
 20
14.381652
 30
0.0
 11
-424.066979
 21
13.317313
 31
0.0
  0
LINE
  8
30
  5
0
  6
CONTINUOUS
 62
     3
 10
-403.053152
 20
34.613976
 30
0.0
 11
-404.116605
 21
33.550523
 31
0.0
  0
LINE
  8
30
  5
0
  6
CONTINUOUS
 62
     3
 10
-423.155618
 20
14.511516
 30
0.0
 11
-424.218677
 21
13.448458
 31
0.0
  0
LINE
  8
30
  5
0
  6
CONTINUOUS
 62
     3
 10
-403.185930
 20
34.764040
 30
0.0
 11
-404.248527
 21
33.701444
 31
0.0
  0
LINE
  8
30
  5
0
  6
CONTINUOUS
 62
     3
 10
-423.306349
 20
14.643628
 30
0.0
 11
-424.368567
 21
13.581411
 31
0.0
  0
LINE
  8
30
  5
0
  6
CONTINUOUS
 62
     3
 10
-403.320940
 20
34.911874
 30
0.0
 11
-404.382502
 21
33.850312
 31
0.0
  0
LINE
  8
30
  5
0
  6
CONTINUOUS
 62
     3
 10
-423.455025
 20
14.777795
 30
0.0
 11
-424.516654
 21
13.716166
 31
0.0
  0
LINE
  8
30
  5
0
  6
CONTINUOUS
 62
     3
 10
-403.457748
 20
35.057908
 30
0.0
 11
-404.518527
 21
33.997130
 31
0.0
  0
LINE
  8
30
  5
0
  6
CONTINUOUS
 62
     3
 10
-423.601651
 20
14.914011
 30
0.0
 11
-424.662942
 21
13.852721
 31
0.0
  0
LINE
  8
30
  5
0
  6
CONTINUOUS
 62
     3
 10
-403.596352
 20
35.202147
 30
0.0
 11
-404.656913
 21
34.141586
 31
0.0
  0
LINE
  8
30
  5
0
  6
CONTINUOUS
 62
     3
 10
-423.746232
 20
15.052273
 30
0.0
 11
-424.807241
 21
13.991265
 31
0.0
  0
LINE
  8
30
  5
0
  6
CONTINUOUS
 62
     3
 10
-403.736751
 20
35.344591
 30
0.0
 11
-404.797411
 21
34.283931
 31
0.0
  0
LINE
  8
30
  5
0
  6
CONTINUOUS
 62
     3
 10
-423.888769
 20
15.192579
 30
0.0
 11
-424.949431
 21
14.131918
 31
0.0
  0
LINE
  8
30
  5
0
  6
CONTINUOUS
 62
     3
 10
-403.878943
 20
35.485241
 30
0.0
 11
-404.939951
 21
34.424233
 31
0.0
  0
LINE
  8
30
  5
0
  6
CONTINUOUS
 62
     3
 10
-424.029264
 20
15.334926
 30
0.0
 11
-425.089827
 21
14.274364
 31
0.0
  0
LINE
  8
30
  5
0
  6
CONTINUOUS
 62
     3
 10
-404.023243
 20
35.623784
 30
0.0
 11
-405.084535
 21
34.562492
 31
0.0
  0
LINE
  8
30
  5
0
  6
CONTINUOUS
 62
     3
 10
-424.167651
 20
15.479383
 30
0.0
 11
-425.228428
 21
14.418606
 31
0.0
  0
LINE
  8
30
  5
0
  6
CONTINUOUS
 62
     3
 10
-404.169534
 20
35.760336
 30
0.0
 11
-405.231164
 21
34.698706
 31
0.0
  0
LINE
  8
30
  5
0
  6
CONTINUOUS
 62
     3
 10
-424.303672
 20
15.626204
 30
0.0
 11
-425.365234
 21
14.564643
 31
0.0
  0
LINE
  8
30
  5
0
  6
CONTINUOUS
 62
     3
 10
-404.317623
 20
35.895089
 30
0.0
 11
-405.379843
 21
34.832870
 31
0.0
  0
LINE
  8
30
  5
0
  6
CONTINUOUS
 62
     3
 10
-424.437645
 20
15.775074
 30
0.0
 11
-425.500240
 21
14.712479
 31
0.0
  0
LINE
  8
30
  5
0
  6
CONTINUOUS
 62
     3
 10
-404.467516
 20
36.028039
 30
0.0
 11
-405.530577
 21
34.964979
 31
0.0
  0
LINE
  8
30
  5
0
  6
CONTINUOUS
 62
     3
 10
-424.569563
 20
15.925999
 30
0.0
 11
-425.633018
 21
14.862544
 31
0.0
  0
LINE
  8
30
  5
0
  6
CONTINUOUS
 62
     3
 10
-404.619217
 20
36.159181
 30
0.0
 11
-405.683556
 21
35.094842
 31
0.0
  0
LINE
  8
30
  5
0
  6
CONTINUOUS
 62
     3
 10
-424.699419
 20
16.078985
 30
0.0
 11
-425.763908
 21
15.014497
 31
0.0
  0
LINE
  8
30
  5
0
  6
CONTINUOUS
 62
     3
 10
-404.772754
 20
36.288487
 30
0.0
 11
-405.838800
 21
35.222441
 31
0.0
  0
LINE
  8
30
  5
0
  6
CONTINUOUS
 62
     3
 10
-424.827206
 20
16.234041
 30
0.0
 11
-425.892984
 21
15.168264
 31
0.0
  0
LINE
  8
30
  5
0
  6
CONTINUOUS
 62
     3
 10
-404.928592
 20
36.415492
 30
0.0
 11
-405.996123
 21
35.347961
 31
0.0
  0
LINE
  8
30
  5
0
  6
CONTINUOUS
 62
     3
 10
-424.952912
 20
16.391178
 30
0.0
 11
-426.020237
 21
15.323853
 31
0.0
  0
LINE
  8
30
  5
0
  6
CONTINUOUS
 62
     3
 10
-405.086260
 20
36.540666
 30
0.0
 11
-406.155537
 21
35.471389
 31
0.0
  0
LINE
  8
30
  5
0
  6
CONTINUOUS
 62
     3
 10
-425.076525
 20
16.550407
 30
0.0
 11
-426.145660
 21
15.481273
 31
0.0
  0
LINE
  8
30
  5
0
  6
CONTINUOUS
 62
     3
 10
-405.245769
 20
36.664000
 30
0.0
 11
-406.317056
 21
35.592713
 31
0.0
  0
LINE
  8
30
  5
0
  6
CONTINUOUS
 62
     3
 10
-425.197782
 20
16.711993
 30
0.0
 11
-426.269145
 21
15.640630
 31
0.0
  0
LINE
  8
30
  5
0
  6
CONTINUOUS
 62
     3
 10
-405.407129
 20
36.785482
 30
0.0
 11
-406.480696
 21
35.711916
 31
0.0
  0
LINE
  8
30
  5
0
  6
CONTINUOUS
 62
     3
 10
-425.316806
 20
16.875812
 30
0.0
 11
-426.390383
 21
15.802235
 31
0.0
  0
LINE
  8
30
  5
0
  6
CONTINUOUS
 62
     3
 10
-405.570355
 20
36.905099
 30
0.0
 11
-406.646474
 21
35.828981
 31
0.0
  0
LINE
  8
30
  5
0
  6
CONTINUOUS
 62
     3
 10
-425.433693
 20
17.041767
 30
0.0
 11
-426.509757
 21
15.965704
 31
0.0
  0
LINE
  8
30
  5
0
  6
CONTINUOUS
 62
     3
 10
-405.735593
 20
37.022703
 30
0.0
 11
-406.814408
 21
35.943889
 31
0.0
  0
LINE
  8
30
  5
0
  6
CONTINUOUS
 62
     3
 10
-425.548426
 20
17.209877
 30
0.0
 11
-426.627252
 21
16.131051
 31
0.0
  0
LINE
  8
30
  5
0
  6
CONTINUOUS
 62
     3
 10
-405.903072
 20
37.138068
 30
0.0
 11
-406.984750
 21
36.056390
 31
0.0
  0
LINE
  8
30
  5
0
  6
CONTINUOUS
 62
     3
 10
-425.660983
 20
17.380163
 30
0.0
 11
-426.742855
 21
16.298292
 31
0.0
  0
LINE
  8
30
  5
0
  6
CONTINUOUS
 62
     3
 10
-406.072459
 20
37.251523
 30
0.0
 11
-407.157401
 21
36.166582
 31
0.0
  0
LINE
  8
30
  5
0
  6
CONTINUOUS
 62
     3
 10
-425.771342
 20
17.552647
 30
0.0
 11
-426.856547
 21
16.467442
 31
0.0
  0
LINE
  8
30
  5
0
  6
CONTINUOUS
 62
     3
 10
-406.243774
 20
37.363051
 30
0.0
 11
-407.332273
 21
36.274553
 31
0.0
  0
LINE
  8
30
  5
0
  6
CONTINUOUS
 62
     3
 10
-425.879476
 20
17.727355
 30
0.0
 11
-426.968189
 21
16.638643
 31
0.0
  0
LINE
  8
30
  5
0
  6
CONTINUOUS
 62
     3
 10
-406.417036
 20
37.472631
 30
0.0
 11
-407.509392
 21
36.380276
 31
0.0
  0
LINE
  8
30
  5
0
  6
CONTINUOUS
 62
     3
 10
-425.985359
 20
17.904315
 30
0.0
 11
-427.077539
 21
16.812135
 31
0.0
  0
LINE
  8
30
  5
0
  6
CONTINUOUS
 62
     3
 10
-406.592268
 20
37.580243
 30
0.0
 11
-407.688789
 21
36.483721
 31
0.0
  0
LINE
  8
30
  5
0
  6
CONTINUOUS
 62
     3
 10
-426.088887
 20
18.083630
 30
0.0
 11
-427.184923
 21
16.987595
 31
0.0
  0
LINE
  8
30
  5
0
  6
CONTINUOUS
 62
     3
 10
-406.769534
 20
37.685819
 30
0.0
 11
-407.870495
 21
36.584858
 31
0.0
  0
LINE
  8
30
  5
0
  6
CONTINUOUS
 62
     3
 10
-426.189875
 20
18.265484
 30
0.0
 11
-427.290316
 21
17.165044
 31
0.0
  0
LINE
  8
30
  5
0
  6
CONTINUOUS
 62
     3
 10
-406.949218
 20
37.788978
 30
0.0
 11
-408.054544
 21
36.683652
 31
0.0
  0
LINE
  8
30
  5
0
  6
CONTINUOUS
 62
     3
 10
-426.288525
 20
18.449677
 30
0.0
 11
-427.393694
 21
17.344508
 31
0.0
  0
LINE
  8
30
  5
0
  6
CONTINUOUS
 62
     3
 10
-407.130940
 20
37.890098
 30
0.0
 11
-408.240973
 21
36.780066
 31
0.0
  0
LINE
  8
30
  5
0
  6
CONTINUOUS
 62
     3
 10
-426.384799
 20
18.636246
 30
0.0
 11
-427.495031
 21
17.526014
 31
0.0
  0
LINE
  8
30
  5
0
  6
CONTINUOUS
 62
     3
 10
-407.314730
 20
37.989151
 30
0.0
 11
-408.429822
 21
36.874060
 31
0.0
  0
LINE
  8
30
  5
0
  6
CONTINUOUS
 62
     3
 10
-426.478659
 20
18.825228
 30
0.0
 11
-427.594298
 21
17.709590
 31
0.0
  0
LINE
  8
30
  5
0
  6
CONTINUOUS
 62
     3
 10
-407.500618
 20
38.086106
 30
0.0
 11
-408.621132
 21
36.965593
 31
0.0
  0
LINE
  8
30
  5
0
  6
CONTINUOUS
 62
     3
 10
-426.570063
 20
19.016667
 30
0.0
 11
-427.691164
 21
17.895567
 31
0.0
  0
LINE
  8
30
  5
0
  6
CONTINUOUS
 62
     3
 10
-407.688637
 20
38.180930
 30
0.0
 11
-408.815175
 21
37.054392
 31
0.0
  0
LINE
  8
30
  5
0
  6
CONTINUOUS
 62
     3
 10
-426.658966
 20
19.210607
 30
0.0
 11
-427.785786
 21
18.083787
 31
0.0
  0
LINE
  8
30
  5
0
  6
CONTINUOUS
 62
     3
 10
-407.878820
 20
38.273590
 30
0.0
 11
-409.011775
 21
37.140635
 31
0.0
  0
LINE
  8
30
  5
0
  6
CONTINUOUS
 62
     3
 10
-426.745319
 20
19.407097
 30
0.0
 11
-427.878246
 21
18.274170
 31
0.0
  0
LINE
  8
30
  5
0
  6
CONTINUOUS
 62
     3
 10
-408.071208
 20
38.364044
 30
0.0
 11
-409.210968
 21
37.224284
 31
0.0
  0
LINE
  8
30
  5
0
  6
CONTINUOUS
 62
     3
 10
-426.829070
 20
19.606188
 30
0.0
 11
-427.968509
 21
18.466750
 31
0.0
  0
LINE
  8
30
  5
0
  6
CONTINUOUS
 62
     3
 10
-408.266210
 20
38.451885
 30
0.0
 11
-409.412811
 21
37.305284
 31
0.0
  0
LINE
  8
30
  5
0
  6
CONTINUOUS
 62
     3
 10
-426.910164
 20
19.807937
 30
0.0
 11
-428.056535
 21
18.661567
 31
0.0
  0
LINE
  8
30
  5
0
  6
CONTINUOUS
 62
     3
 10
-408.463486
 20
38.537452
 30
0.0
 11
-409.617361
 21
37.383577
 31
0.0
  0
LINE
  8
30
  5
0
  6
CONTINUOUS
 62
     3
 10
-426.988542
 20
20.012402
 30
0.0
 11
-428.142281
 21
18.858663
 31
0.0
  0
LINE
  8
30
  5
0
  6
CONTINUOUS
 62
     3
 10
-408.663079
 20
38.620701
 30
0.0
 11
-409.824682
 21
37.459099
 31
0.0
  0
LINE
  8
30
  5
0
  6
CONTINUOUS
 62
     3
 10
-427.064140
 20
20.219646
 30
0.0
 11
-428.225705
 21
19.058082
 31
0.0
  0
LINE
  8
30
  5
0
  6
CONTINUOUS
 62
     3
 10
-408.865038
 20
38.701585
 30
0.0
 11
-410.034840
 21
37.531784
 31
0.0
  0
LINE
  8
30
  5
0
  6
CONTINUOUS
 62
     3
 10
-427.136890
 20
20.429739
 30
0.0
 11
-428.306758
 21
19.259872
 31
0.0
  0
LINE
  8
30
  5
0
  6
CONTINUOUS
 62
     3
 10
-409.069411
 20
38.780055
 30
0.0
 11
-410.247907
 21
37.601560
 31
0.0
  0
LINE
  8
30
  5
0
  6
CONTINUOUS
 62
     3
 10
-427.206720
 20
20.642752
 30
0.0
 11
-428.385168
 21
19.464304
 31
0.0
  0
LINE
  8
30
  5
0
  6
CONTINUOUS
 62
     3
 10
-409.276252
 20
38.856057
 30
0.0
 11
-410.463960
 21
37.668349
 31
0.0
  0
LINE
  8
30
  5
0
  6
CONTINUOUS
 62
     3
 10
-427.273552
 20
20.858763
 30
0.0
 11
-428.461021
 21
19.671294
 31
0.0
  0
LINE
  8
30
  5
0
  6
CONTINUOUS
 62
     3
 10
-409.485617
 20
38.929534
 30
0.0
 11
-410.683081
 21
37.732071
 31
0.0
  0
LINE
  8
30
  5
0
  6
CONTINUOUS
 62
     3
 10
-427.337301
 20
21.077856
 30
0.0
 11
-428.534357
 21
19.880801
 31
0.0
  0
LINE
  8
30
  5
0
  6
CONTINUOUS
 62
     3
 10
-409.697567
 20
39.000427
 30
0.0
 11
-410.905358
 21
37.792636
 31
0.0
  0
LINE
  8
30
  5
0
  6
CONTINUOUS
 62
     3
 10
-427.397880
 20
21.300120
 30
0.0
 11
-428.605117
 21
20.092884
 31
0.0
  0
LINE
  8
30
  5
0
  6
CONTINUOUS
 62
     3
 10
-409.912165
 20
39.068672
 30
0.0
 11
-411.130886
 21
37.849951
 31
0.0
  0
LINE
  8
30
  5
0
  6
CONTINUOUS
 62
     3
 10
-427.455192
 20
21.525650
 30
0.0
 11
-428.673237
 21
20.307606
 31
0.0
  0
LINE
  8
30
  5
0
  6
CONTINUOUS
 62
     3
 10
-410.129480
 20
39.134200
 30
0.0
 11
-411.359766
 21
37.903914
 31
0.0
  0
LINE
  8
30
  5
0
  6
CONTINUOUS
 62
     3
 10
-427.509135
 20
21.754550
 30
0.0
 11
-428.738649
 21
20.525037
 31
0.0
  0
LINE
  8
30
  5
0
  6
CONTINUOUS
 62
     3
 10
-410.349761
 20
39.196761
 30
0.0
 11
-411.592106
 21
37.954416
 31
0.0
  0
LINE
  8
30
  5
0
  6
CONTINUOUS
 62
     3
 10
-427.559598
 20
21.986930
 30
0.0
 11
-428.801282
 21
20.745246
 31
0.0
  0
LINE
  8
30
  5
0
  6
CONTINUOUS
 62
     3
 10
-410.572911
 20
39.256454
 30
0.0
 11
-411.828023
 21
38.001342
 31
0.0
  0
LINE
  8
30
  5
0
  6
CONTINUOUS
 62
     3
 10
-427.606463
 20
22.222908
 30
0.0
 11
-428.861060
 21
20.968311
 31
0.0
  0
LINE
  8
30
  5
0
  6
CONTINUOUS
 62
     3
 10
-410.798987
 20
39.313221
 30
0.0
 11
-412.067642
 21
38.044567
 31
0.0
  0
LINE
  8
30
  5
0
  6
CONTINUOUS
 62
     3
 10
-427.649603
 20
22.462610
 30
0.0
 11
-428.917899
 21
21.194315
 31
0.0
  0
LINE
  8
30
  5
0
  6
CONTINUOUS
 62
     3
 10
-411.028074
 20
39.366976
 30
0.0
 11
-412.311096
 21
38.083954
 31
0.0
  0
LINE
  8
30
  5
0
  6
CONTINUOUS
 62
     3
 10
-427.688881
 20
22.706175
 30
0.0
 11
-428.971714
 21
21.423343
 31
0.0
  0
LINE
  8
30
  5
0
  6
CONTINUOUS
 62
     3
 10
-411.260264
 20
39.417629
 30
0.0
 11
-412.558532
 21
38.119361
 31
0.0
  0
LINE
  8
30
  5
0
  6
CONTINUOUS
 62
     3
 10
-427.724149
 20
22.953749
 30
0.0
 11
-429.022410
 21
21.655489
 31
0.0
  0
LINE
  8
30
  5
0
  6
CONTINUOUS
 62
     3
 10
-411.495656
 20
39.465080
 30
0.0
 11
-412.810105
 21
38.150631
 31
0.0
  0
LINE
  8
30
  5
0
  6
CONTINUOUS
 62
     3
 10
-427.755249
 20
23.205492
 30
0.0
 11
-429.069888
 21
21.890854
 31
0.0
  0
LINE
  8
30
  5
0
  6
CONTINUOUS
 62
     3
 10
-411.734355
 20
39.509224
 30
0.0
 11
-413.065984
 21
38.177596
 31
0.0
  0
LINE
  8
30
  5
0
  6
CONTINUOUS
 62
     3
 10
-427.782009
 20
23.461575
 30
0.0
 11
-429.114041
 21
22.129543
 31
0.0
  0
LINE
  8
30
  5
0
  6
CONTINUOUS
 62
     3
 10
-411.976473
 20
39.549948
 30
0.0
 11
-413.326756
 21
38.199665
 31
0.0
  0
LINE
  8
30
  5
0
  6
CONTINUOUS
 62
     3
 10
-427.804244
 20
23.722183
 30
0.0
 11
-429.154756
 21
22.371671
 31
0.0
  0
LINE
  8
30
  5
0
  6
CONTINUOUS
 62
     3
 10
-412.222131
 20
39.587134
 30
0.0
 11
-413.592366
 21
38.216899
 31
0.0
  0
LINE
  8
30
  5
0
  6
CONTINUOUS
 62
     3
 10
-427.821753
 20
23.987516
 30
0.0
 11
-429.191910
 21
22.617360
 31
0.0
  0
LINE
  8
30
  5
0
  6
CONTINUOUS
 62
     3
 10
-412.471457
 20
39.620650
 30
0.0
 11
-413.862966
 21
38.229142
 31
0.0
  0
LINE
  8
30
  5
0
  6
CONTINUOUS
 62
     3
 10
-427.834318
 20
24.257794
 30
0.0
 11
-429.225371
 21
22.866741
 31
0.0
  0
LINE
  8
30
  5
0
  6
CONTINUOUS
 62
     3
 10
-412.724590
 20
39.650360
 30
0.0
 11
-414.138797
 21
38.236153
 31
0.0
  0
LINE
  8
30
  5
0
  6
CONTINUOUS
 62
     3
 10
-427.841248
 20
24.533707
 30
0.0
 11
-429.255000
 21
23.119955
 31
0.0
  0
LINE
  8
30
  5
0
  6
CONTINUOUS
 62
     3
 10
-412.981679
 20
39.676113
 30
0.0
 11
-414.420124
 21
38.237669
 31
0.0
  0
LINE
  8
30
  5
0
  6
CONTINUOUS
 62
     3
 10
-427.842339
 20
24.815458
 30
0.0
 11
-429.280644
 21
23.377153
 31
0.0
  0
LINE
  8
30
  5
0
  6
CONTINUOUS
 62
     3
 10
-413.242884
 20
39.697751
 30
0.0
 11
-414.707526
 21
38.233110
 31
0.0
  0
LINE
  8
30
  5
0
  6
CONTINUOUS
 62
     3
 10
-427.837584
 20
25.103056
 30
0.0
 11
-429.302141
 21
23.638499
 31
0.0
  0
LINE
  8
30
  5
0
  6
CONTINUOUS
 62
     3
 10
-413.508681
 20
39.714797
 30
0.0
 11
-415.001848
 21
38.221631
 31
0.0
  0
LINE
  8
30
  5
0
  6
CONTINUOUS
 62
     3
 10
-427.826662
 20
25.396821
 30
0.0
 11
-429.319316
 21
23.904168
 31
0.0
  0
LINE
  8
30
  5
0
  6
CONTINUOUS
 62
     3
 10
-413.779064
 20
39.727256
 30
0.0
 11
-415.302771
 21
38.203550
 31
0.0
  0
LINE
  8
30
  5
0
  6
CONTINUOUS
 62
     3
 10
-427.808613
 20
25.697713
 30
0.0
 11
-429.331977
 21
24.174348
 31
0.0
  0
LINE
  8
30
  5
0
  6
CONTINUOUS
 62
     3
 10
-414.054208
 20
39.734956
 30
0.0
 11
-415.610692
 21
38.178472
 31
0.0
  0
LINE
  8
30
  5
0
  6
CONTINUOUS
 62
     3
 10
-427.782804
 20
26.006364
 30
0.0
 11
-429.339922
 21
24.449246
 31
0.0
  0
LINE
  8
30
  5
0
  6
CONTINUOUS
 62
     3
 10
-414.334336
 20
39.737670
 30
0.0
 11
-415.927621
 21
38.144386
 31
0.0
  0
LINE
  8
30
  5
0
  6
CONTINUOUS
 62
     3
 10
-427.749454
 20
26.322556
 30
0.0
 11
-429.342929
 21
24.729082
 31
0.0
  0
LINE
  8
30
  5
0
  6
CONTINUOUS
 62
     3
 10
-414.619696
 20
39.735153
 30
0.0
 11
-416.252811
 21
38.102039
 31
0.0
  0
LINE
  8
30
  5
0
  6
CONTINUOUS
 62
     3
 10
-427.706830
 20
26.648023
 30
0.0
 11
-429.340227
 21
25.014627
 31
0.0
  0
LINE
  8
30
  5
0
  6
CONTINUOUS
 62
     3
 10
-414.910553
 20
39.727139
 30
0.0
 11
-416.587832
 21
38.049860
 31
0.0
  0
LINE
  8
30
  5
0
  6
CONTINUOUS
 62
     3
 10
-427.654651
 20
26.983045
 30
0.0
 11
-429.331819
 21
25.305878
 31
0.0
  0
LINE
  8
30
  5
0
  6
CONTINUOUS
 62
     3
 10
-415.207373
 20
39.713161
 30
0.0
 11
-416.933655
 21
37.986880
 31
0.0
  0
LINE
  8
30
  5
0
  6
CONTINUOUS
 62
     3
 10
-427.591719
 20
27.328819
 30
0.0
 11
-429.317558
 21
25.602981
 31
0.0
  0
LINE
  8
30
  5
0
  6
CONTINUOUS
 62
     3
 10
-415.511177
 20
39.692200
 30
0.0
 11
-417.291604
 21
37.911774
 31
0.0
  0
LINE
  8
30
  5
0
  6
CONTINUOUS
 62
     3
 10
-427.516809
 20
27.686572
 30
0.0
 11
-429.297120
 21
25.906262
 31
0.0
  0
LINE
  8
30
  5
0
  6
CONTINUOUS
 62
     3
 10
-415.821597
 20
39.664623
 30
0.0
 11
-417.662615
 21
37.823606
 31
0.0
  0
LINE
  8
30
  5
0
  6
CONTINUOUS
 62
     3
 10
-427.427829
 20
28.058394
 30
0.0
 11
-429.269871
 21
26.216354
 31
0.0
  0
LINE
  8
30
  5
0
  6
CONTINUOUS
 62
     3
 10
-416.139029
 20
39.630034
 30
0.0
 11
-418.050360
 21
37.718704
 31
0.0
  0
LINE
  8
30
  5
0
  6
CONTINUOUS
 62
     3
 10
-427.323669
 20
28.445398
 30
0.0
 11
-429.234587
 21
26.534480
 31
0.0
  0
LINE
  8
30
  5
0
  6
CONTINUOUS
 62
     3
 10
-416.464927
 20
39.586978
 30
0.0
 11
-418.456090
 21
37.595816
 31
0.0
  0
LINE
  8
30
  5
0
  6
CONTINUOUS
 62
     3
 10
-427.201322
 20
28.850587
 30
0.0
 11
-429.191744
 21
26.860166
 31
0.0
  0
LINE
  8
30
  5
0
  6
CONTINUOUS
 62
     3
 10
-416.799590
 20
39.535158
 30
0.0
 11
-418.883622
 21
37.451127
 31
0.0
  0
LINE
  8
30
  5
0
  6
CONTINUOUS
 62
     3
 10
-427.056713
 20
29.278039
 30
0.0
 11
-429.140342
 21
27.194411
 31
0.0
  0
LINE
  8
30
  5
0
  6
CONTINUOUS
 62
     3
 10
-417.143179
 20
39.474412
 30
0.0
 11
-419.338029
 21
37.279563
 31
0.0
  0
LINE
  8
30
  5
0
  6
CONTINUOUS
 62
     3
 10
-426.885018
 20
29.732577
 30
0.0
 11
-429.078714
 21
27.538881
 31
0.0
  0
LINE
  8
30
  5
0
  6
CONTINUOUS
 62
     3
 10
-417.498418
 20
39.402016
 30
0.0
 11
-419.826225
 21
37.074210
 31
0.0
  0
LINE
  8
30
  5
0
  6
CONTINUOUS
 62
     3
 10
-426.678595
 20
30.221842
 30
0.0
 11
-429.007451
 21
27.892986
 31
0.0
  0
LINE
  8
30
  5
0
  6
CONTINUOUS
 62
     3
 10
-417.864428
 20
39.318849
 30
0.0
 11
-420.361420
 21
36.821858
 31
0.0
  0
LINE
  8
30
  5
0
  6
CONTINUOUS
 62
     3
 10
-426.427418
 20
30.755862
 30
0.0
 11
-428.923168
 21
28.260113
 31
0.0
  0
LINE
  8
30
  5
0
  6
CONTINUOUS
 62
     3
 10
-418.244752
 20
39.221367
 30
0.0
 11
-420.963079
 21
36.503041
 31
0.0
  0
LINE
  8
30
  5
0
  6
CONTINUOUS
 62
     3
 10
-426.108416
 20
31.357706
 30
0.0
 11
-428.826440
 21
28.639683
 31
0.0
  0
LINE
  8
30
  5
0
  6
CONTINUOUS
 62
     3
 10
-418.639876
 20
39.109087
 30
0.0
 11
-421.676370
 21
36.072594
 31
0.0
  0
LINE
  8
30
  5
0
  6
CONTINUOUS
 62
     3
 10
-425.676071
 20
32.072893
 30
0.0
 11
-428.714211
 21
29.034755
 31
0.0
  0
LINE
  8
30
  5
0
  6
CONTINUOUS
 62
     3
 10
-419.052272
 20
38.979533
 30
0.0
 11
-422.660931
 21
35.370875
 31
0.0
  0
LINE
  8
30
  5
0
  6
CONTINUOUS
 62
     3
 10
-424.974801
 20
33.057006
 30
0.0
 11
-428.583960
 21
29.447848
 31
0.0
  0
LINE
  8
30
  5
0
  6
CONTINUOUS
 62
     3
 10
-419.485565
 20
38.829083
 30
0.0
 11
-428.433092
 21
29.881559
 31
0.0
  0
LINE
  8
30
  5
0
  6
CONTINUOUS
 62
     3
 10
-419.944485
 20
38.653005
 30
0.0
 11
-428.256983
 21
30.340510
 31
0.0
  0
LINE
  8
30
  5
0
  6
CONTINUOUS
 62
     3
 10
-420.435541
 20
38.444792
 30
0.0
 11
-428.049416
 21
30.830920
 31
0.0
  0
LINE
  8
30
  5
0
  6
CONTINUOUS
 62
     3
 10
-420.967705
 20
38.195471
 30
0.0
 11
-427.800959
 21
31.362219
 31
0.0
  0
LINE
  8
30
  5
0
  6
CONTINUOUS
 62
     3
 10
-421.556977
 20
37.889042
 30
0.0
 11
-427.494238
 21
31.951783
 31
0.0
  0
LINE
  8
30
  5
0
  6
CONTINUOUS
 62
     3
 10
-422.235637
 20
37.493226
 30
0.0
 11
-427.099379
 21
32.629485
 31
0.0
  0
LINE
  8
30
  5
0
  6
CONTINUOUS
 62
     3
 10
-423.084276
 20
36.927429
 30
0.0
 11
-426.532530
 21
33.479176
 31
0.0
  0
LINE
  8
30
  5
0
  6
CONTINUOUS
 62
     3
 10
-410.343003
 20
13.707301
 30
0.0
 11
-410.766677
 21
13.283626
 31
0.0
  0
LINE
  8
30
  5
0
  6
CONTINUOUS
 62
     3
 10
-410.343003
 20
13.990143
 30
0.0
 11
-411.167016
 21
13.166131
 31
0.0
  0
LINE
  8
30
  5
0
  6
CONTINUOUS
 62
     3
 10
-410.343003
 20
14.272986
 30
0.0
 11
-411.547390
 21
13.068599
 31
0.0
  0
LINE
  8
30
  5
0
  6
CONTINUOUS
 62
     3
 10
-410.343003
 20
14.555829
 30
0.0
 11
-411.911207
 21
12.987625
 31
0.0
  0
LINE
  8
30
  5
0
  6
CONTINUOUS
 62
     3
 10
-410.343003
 20
14.838671
 30
0.0
 11
-412.261179
 21
12.920495
 31
0.0
  0
LINE
  8
30
  5
0
  6
CONTINUOUS
 62
     3
 10
-410.343003
 20
15.121514
 30
0.0
 11
-412.598634
 21
12.865884
 31
0.0
  0
LINE
  8
30
  5
0
  6
CONTINUOUS
 62
     3
 10
-410.343003
 20
15.404357
 30
0.0
 11
-412.924620
 21
12.822740
 31
0.0
  0
LINE
  8
30
  5
0
  6
CONTINUOUS
 62
     3
 10
-410.343003
 20
15.687199
 30
0.0
 11
-413.241105
 21
12.789098
 31
0.0
  0
LINE
  8
30
  5
0
  6
CONTINUOUS
 62
     3
 10
-410.343003
 20
15.970042
 30
0.0
 11
-413.548125
 21
12.764921
 31
0.0
  0
LINE
  8
30
  5
0
  6
CONTINUOUS
 62
     3
 10
-410.580325
 20
16.015563
 30
0.0
 11
-413.847057
 21
12.748831
 31
0.0
  0
LINE
  8
30
  5
0
  6
CONTINUOUS
 62
     3
 10
-411.052353
 20
15.826377
 30
0.0
 11
-414.138738
 21
12.739993
 31
0.0
  0
LINE
  8
30
  5
0
  6
CONTINUOUS
 62
     3
 10
-411.481900
 20
15.679673
 30
0.0
 11
-414.422695
 21
12.738879
 31
0.0
  0
LINE
  8
30
  5
0
  6
CONTINUOUS
 62
     3
 10
-411.881240
 20
15.563175
 30
0.0
 11
-414.700497
 21
12.743920
 31
0.0
  0
LINE
  8
30
  5
0
  6
CONTINUOUS
 62
     3
 10
-412.256670
 20
15.470588
 30
0.0
 11
-414.972454
 21
12.754805
 31
0.0
  0
LINE
  8
30
  5
0
  6
CONTINUOUS
 62
     3
 10
-412.612592
 20
15.397510
 30
0.0
 11
-415.238219
 21
12.771883
 31
0.0
  0
LINE
  8
30
  5
0
  6
CONTINUOUS
 62
     3
 10
-412.952314
 20
15.340631
 30
0.0
 11
-415.498552
 21
12.794393
 31
0.0
  0
LINE
  8
30
  5
0
  6
CONTINUOUS
 62
     3
 10
-413.277281
 20
15.298506
 30
0.0
 11
-415.753919
 21
12.821868
 31
0.0
  0
LINE
  8
30
  5
0
  6
CONTINUOUS
 62
     3
 10
-413.590119
 20
15.268511
 30
0.0
 11
-416.004532
 21
12.854099
 31
0.0
  0
LINE
  8
30
  5
0
  6
CONTINUOUS
 62
     3
 10
-413.892486
 20
15.248987
 30
0.0
 11
-416.250583
 21
12.890890
 31
0.0
  0
LINE
  8
30
  5
0
  6
CONTINUOUS
 62
     3
 10
-414.184336
 20
15.239979
 30
0.0
 11
-416.492030
 21
12.932286
 31
0.0
  0
LINE
  8
30
  5
0
  6
CONTINUOUS
 62
     3
 10
-414.467977
 20
15.239181
 30
0.0
 11
-416.729074
 21
12.978085
 31
0.0
  0
LINE
  8
30
  5
0
  6
CONTINUOUS
 62
     3
 10
-414.742987
 20
15.247014
 30
0.0
 11
-416.962111
 21
13.027891
 31
0.0
  0
LINE
  8
30
  5
0
  6
CONTINUOUS
 62
     3
 10
-415.010752
 20
15.262092
 30
0.0
 11
-417.191276
 21
13.081568
 31
0.0
  0
LINE
  8
30
  5
0
  6
CONTINUOUS
 62
     3
 10
-415.271925
 20
15.283761
 30
0.0
 11
-417.416697
 21
13.138990
 31
0.0
  0
LINE
  8
30
  5
0
  6
CONTINUOUS
 62
     3
 10
-415.525965
 20
15.312564
 30
0.0
 11
-417.638490
 21
13.200039
 31
0.0
  0
LINE
  8
30
  5
0
  6
CONTINUOUS
 62
     3
 10
-415.774303
 20
15.347069
 30
0.0
 11
-417.856765
 21
13.264607
 31
0.0
  0
LINE
  8
30
  5
0
  6
CONTINUOUS
 62
     3
 10
-415.843003
 20
15.561212
 30
0.0
 11
-418.071623
 21
13.332592
 31
0.0
  0
LINE
  8
30
  5
0
  6
CONTINUOUS
 62
     3
 10
-415.843003
 20
15.844055
 30
0.0
 11
-418.283158
 21
13.403900
 31
0.0
  0
LINE
  8
30
  5
0
  6
CONTINUOUS
 62
     3
 10
-415.843003
 20
16.126897
 30
0.0
 11
-418.343003
 21
13.626898
 31
0.0
  0
LINE
  8
30
  5
0
  6
CONTINUOUS
 62
     3
 10
-415.843003
 20
16.409740
 30
0.0
 11
-418.343003
 21
13.909741
 31
0.0
  0
LINE
  8
30
  5
0
  6
CONTINUOUS
 62
     3
 10
-415.843003
 20
16.692583
 30
0.0
 11
-418.343003
 21
14.192583
 31
0.0
  0
LINE
  8
30
  5
0
  6
CONTINUOUS
 62
     3
 10
-415.843003
 20
16.975425
 30
0.0
 11
-418.343003
 21
14.475426
 31
0.0
  0
LINE
  8
30
  5
0
  6
CONTINUOUS
 62
     3
 10
-415.843003
 20
17.258268
 30
0.0
 11
-418.343003
 21
14.758269
 31
0.0
  0
LINE
  8
30
  5
0
  6
CONTINUOUS
 62
     3
 10
-415.843003
 20
17.541111
 30
0.0
 11
-418.343003
 21
15.041111
 31
0.0
  0
LINE
  8
30
  5
0
  6
CONTINUOUS
 62
     3
 10
-415.843003
 20
17.823953
 30
0.0
 11
-418.343003
 21
15.323954
 31
0.0
  0
LINE
  8
30
  5
0
  6
CONTINUOUS
 62
     3
 10
-415.843003
 20
18.106796
 30
0.0
 11
-418.343003
 21
15.606797
 31
0.0
  0
LINE
  8
30
  5
0
  6
CONTINUOUS
 62
     3
 10
-415.843003
 20
18.389639
 30
0.0
 11
-418.343003
 21
15.889639
 31
0.0
  0
LINE
  8
30
  5
0
  6
CONTINUOUS
 62
     3
 10
-415.843003
 20
18.672481
 30
0.0
 11
-418.343003
 21
16.172482
 31
0.0
  0
LINE
  8
30
  5
0
  6
CONTINUOUS
 62
     3
 10
-415.843003
 20
18.955324
 30
0.0
 11
-418.343003
 21
16.455325
 31
0.0
  0
LINE
  8
30
  5
0
  6
CONTINUOUS
 62
     3
 10
-415.843003
 20
19.238167
 30
0.0
 11
-418.343003
 21
16.738167
 31
0.0
  0
LINE
  8
30
  5
0
  6
CONTINUOUS
 62
     3
 10
-415.843003
 20
19.521009
 30
0.0
 11
-418.343003
 21
17.021010
 31
0.0
  0
LINE
  8
30
  5
0
  6
CONTINUOUS
 62
     3
 10
-415.843003
 20
19.803852
 30
0.0
 11
-418.343003
 21
17.303853
 31
0.0
  0
LINE
  8
30
  5
0
  6
CONTINUOUS
 62
     3
 10
-415.843003
 20
20.086695
 30
0.0
 11
-418.343003
 21
17.586695
 31
0.0
  0
LINE
  8
30
  5
0
  6
CONTINUOUS
 62
     3
 10
-415.843003
 20
20.369537
 30
0.0
 11
-418.343003
 21
17.869538
 31
0.0
  0
LINE
  8
30
  5
0
  6
CONTINUOUS
 62
     3
 10
-415.843003
 20
20.652380
 30
0.0
 11
-418.343003
 21
18.152381
 31
0.0
  0
LINE
  8
30
  5
0
  6
CONTINUOUS
 62
     3
 10
-415.843003
 20
20.935223
 30
0.0
 11
-418.343003
 21
18.435223
 31
0.0
  0
LINE
  8
30
  5
0
  6
CONTINUOUS
 62
     3
 10
-415.843003
 20
21.218065
 30
0.0
 11
-418.343003
 21
18.718066
 31
0.0
  0
LINE
  8
30
  5
0
  6
CONTINUOUS
 62
     3
 10
-415.843003
 20
21.500908
 30
0.0
 11
-418.343003
 21
19.000909
 31
0.0
  0
LINE
  8
30
  5
0
  6
CONTINUOUS
 62
     3
 10
-415.843003
 20
21.783751
 30
0.0
 11
-418.343003
 21
19.283751
 31
0.0
  0
LINE
  8
30
  5
0
  6
CONTINUOUS
 62
     3
 10
-415.843003
 20
22.066593
 30
0.0
 11
-418.343003
 21
19.566594
 31
0.0
  0
LINE
  8
30
  5
0
  6
CONTINUOUS
 62
     3
 10
-415.843003
 20
22.349436
 30
0.0
 11
-418.343003
 21
19.849437
 31
0.0
  0
LINE
  8
30
  5
0
  6
CONTINUOUS
 62
     3
 10
-415.843003
 20
22.632279
 30
0.0
 11
-418.343003
 21
20.132279
 31
0.0
  0
LINE
  8
30
  5
0
  6
CONTINUOUS
 62
     3
 10
-415.843003
 20
22.915121
 30
0.0
 11
-418.343003
 21
20.415122
 31
0.0
  0
LINE
  8
30
  5
0
  6
CONTINUOUS
 62
     3
 10
-415.843003
 20
23.197964
 30
0.0
 11
-418.343003
 21
20.697965
 31
0.0
  0
LINE
  8
30
  5
0
  6
CONTINUOUS
 62
     3
 10
-415.843003
 20
23.480807
 30
0.0
 11
-418.343003
 21
20.980807
 31
0.0
  0
LINE
  8
30
  5
0
  6
CONTINUOUS
 62
     3
 10
-415.843003
 20
23.763649
 30
0.0
 11
-418.343003
 21
21.263650
 31
0.0
  0
LINE
  8
30
  5
0
  6
CONTINUOUS
 62
     3
 10
-415.843003
 20
24.046492
 30
0.0
 11
-418.343003
 21
21.546493
 31
0.0
  0
LINE
  8
30
  5
0
  6
CONTINUOUS
 62
     3
 10
-415.843003
 20
24.329335
 30
0.0
 11
-418.343003
 21
21.829335
 31
0.0
  0
LINE
  8
30
  5
0
  6
CONTINUOUS
 62
     3
 10
-415.843003
 20
24.612177
 30
0.0
 11
-418.343003
 21
22.112178
 31
0.0
  0
LINE
  8
30
  5
0
  6
CONTINUOUS
 62
     3
 10
-415.843003
 20
24.895020
 30
0.0
 11
-418.343003
 21
22.395021
 31
0.0
  0
LINE
  8
30
  5
0
  6
CONTINUOUS
 62
     3
 10
-415.843003
 20
25.177863
 30
0.0
 11
-418.343003
 21
22.677863
 31
0.0
  0
LINE
  8
30
  5
0
  6
CONTINUOUS
 62
     3
 10
-415.843003
 20
25.460705
 30
0.0
 11
-418.343003
 21
22.960706
 31
0.0
  0
LINE
  8
30
  5
0
  6
CONTINUOUS
 62
     3
 10
-415.843003
 20
25.743548
 30
0.0
 11
-418.343003
 21
23.243549
 31
0.0
  0
LINE
  8
30
  5
0
  6
CONTINUOUS
 62
     3
 10
-415.843003
 20
26.026391
 30
0.0
 11
-418.343003
 21
23.526391
 31
0.0
  0
LINE
  8
30
  5
0
  6
CONTINUOUS
 62
     3
 10
-415.843003
 20
26.309233
 30
0.0
 11
-418.343003
 21
23.809234
 31
0.0
  0
LINE
  8
30
  5
0
  6
CONTINUOUS
 62
     3
 10
-415.843003
 20
26.592076
 30
0.0
 11
-418.343003
 21
24.092077
 31
0.0
  0
LINE
  8
30
  5
0
  6
CONTINUOUS
 62
     3
 10
-415.843003
 20
26.874919
 30
0.0
 11
-418.343003
 21
24.374919
 31
0.0
  0
LINE
  8
30
  5
0
  6
CONTINUOUS
 62
     3
 10
-415.843003
 20
27.157761
 30
0.0
 11
-418.343003
 21
24.657762
 31
0.0
  0
LINE
  8
30
  5
0
  6
CONTINUOUS
 62
     3
 10
-415.843003
 20
27.440604
 30
0.0
 11
-418.343003
 21
24.940605
 31
0.0
  0
LINE
  8
30
  5
0
  6
CONTINUOUS
 62
     3
 10
-415.843003
 20
27.723447
 30
0.0
 11
-418.343003
 21
25.223447
 31
0.0
  0
LINE
  8
30
  5
0
  6
CONTINUOUS
 62
     3
 10
-410.343003
 20
33.506287
 30
0.0
 11
-410.447200
 21
33.402090
 31
0.0
  0
LINE
  8
30
  5
0
  6
CONTINUOUS
 62
     3
 10
-415.843003
 20
28.006289
 30
0.0
 11
-418.343003
 21
25.506290
 31
0.0
  0
LINE
  8
30
  5
0
  6
CONTINUOUS
 62
     3
 10
-410.343003
 20
33.789130
 30
0.0
 11
-410.644102
 21
33.488031
 31
0.0
  0
LINE
  8
30
  5
0
  6
CONTINUOUS
 62
     3
 10
-415.843003
 20
28.289132
 30
0.0
 11
-418.343003
 21
25.789133
 31
0.0
  0
LINE
  8
30
  5
0
  6
CONTINUOUS
 62
     3
 10
-410.343003
 20
34.071973
 30
0.0
 11
-410.844703
 21
33.570272
 31
0.0
  0
LINE
  8
30
  5
0
  6
CONTINUOUS
 62
     3
 10
-415.843003
 20
28.571975
 30
0.0
 11
-418.343003
 21
26.071975
 31
0.0
  0
LINE
  8
30
  5
0
  6
CONTINUOUS
 62
     3
 10
-410.343003
 20
34.354815
 30
0.0
 11
-411.049098
 21
33.648720
 31
0.0
  0
LINE
  8
30
  5
0
  6
CONTINUOUS
 62
     3
 10
-415.843003
 20
28.854817
 30
0.0
 11
-418.343003
 21
26.354818
 31
0.0
  0
LINE
  8
30
  5
0
  6
CONTINUOUS
 62
     3
 10
-410.343003
 20
34.637658
 30
0.0
 11
-411.257629
 21
33.723032
 31
0.0
  0
LINE
  8
30
  5
0
  6
CONTINUOUS
 62
     3
 10
-415.843003
 20
29.137660
 30
0.0
 11
-418.343003
 21
26.637661
 31
0.0
  0
LINE
  8
30
  5
0
  6
CONTINUOUS
 62
     3
 10
-410.343003
 20
34.920501
 30
0.0
 11
-411.470417
 21
33.793087
 31
0.0
  0
LINE
  8
30
  5
0
  6
CONTINUOUS
 62
     3
 10
-415.843003
 20
29.420503
 30
0.0
 11
-418.343003
 21
26.920503
 31
0.0
  0
LINE
  8
30
  5
0
  6
CONTINUOUS
 62
     3
 10
-410.343003
 20
35.203343
 30
0.0
 11
-411.687395
 21
33.858952
 31
0.0
  0
LINE
  8
30
  5
0
  6
CONTINUOUS
 62
     3
 10
-415.843003
 20
29.703345
 30
0.0
 11
-418.343003
 21
27.203346
 31
0.0
  0
LINE
  8
30
  5
0
  6
CONTINUOUS
 62
     3
 10
-410.343003
 20
35.486186
 30
0.0
 11
-411.908704
 21
33.920486
 31
0.0
  0
LINE
  8
30
  5
0
  6
CONTINUOUS
 62
     3
 10
-415.843003
 20
29.986188
 30
0.0
 11
-418.343003
 21
27.486189
 31
0.0
  0
LINE
  8
30
  5
0
  6
CONTINUOUS
 62
     3
 10
-410.343003
 20
35.769029
 30
0.0
 11
-412.134496
 21
33.977536
 31
0.0
  0
LINE
  8
30
  5
0
  6
CONTINUOUS
 62
     3
 10
-415.843003
 20
30.269031
 30
0.0
 11
-418.343003
 21
27.769031
 31
0.0
  0
LINE
  8
30
  5
0
  6
CONTINUOUS
 62
     3
 10
-410.343003
 20
36.051871
 30
0.0
 11
-412.364937
 21
34.029937
 31
0.0
  0
LINE
  8
30
  5
0
  6
CONTINUOUS
 62
     3
 10
-415.843003
 20
30.551873
 30
0.0
 11
-418.343003
 21
28.051874
 31
0.0
  0
LINE
  8
30
  5
0
  6
CONTINUOUS
 62
     3
 10
-410.553636
 20
36.124081
 30
0.0
 11
-412.600992
 21
34.076725
 31
0.0
  0
LINE
  8
30
  5
0
  6
CONTINUOUS
 62
     3
 10
-415.843003
 20
30.834716
 30
0.0
 11
-418.343003
 21
28.334717
 31
0.0
  0
LINE
  8
30
  5
0
  6
CONTINUOUS
 62
     3
 10
-410.767579
 20
36.192981
 30
0.0
 11
-412.842194
 21
34.118366
 31
0.0
  0
LINE
  8
30
  5
0
  6
CONTINUOUS
 62
     3
 10
-415.843003
 20
31.117559
 30
0.0
 11
-418.343003
 21
28.617559
 31
0.0
  0
LINE
  8
30
  5
0
  6
CONTINUOUS
 62
     3
 10
-410.984920
 20
36.258482
 30
0.0
 11
-413.088749
 21
34.154654
 31
0.0
  0
LINE
  8
30
  5
0
  6
CONTINUOUS
 62
     3
 10
-415.843003
 20
31.400401
 30
0.0
 11
-418.343003
 21
28.900402
 31
0.0
  0
LINE
  8
30
  5
0
  6
CONTINUOUS
 62
     3
 10
-411.205762
 20
36.320483
 30
0.0
 11
-413.341200
 21
34.185046
 31
0.0
  0
LINE
  8
30
  5
0
  6
CONTINUOUS
 62
     3
 10
-415.843003
 20
31.683244
 30
0.0
 11
-418.343003
 21
29.183245
 31
0.0
  0
LINE
  8
30
  5
0
  6
CONTINUOUS
 62
     3
 10
-411.430211
 20
36.378877
 30
0.0
 11
-413.600471
 21
34.208617
 31
0.0
  0
LINE
  8
30
  5
0
  6
CONTINUOUS
 62
     3
 10
-415.843003
 20
31.966087
 30
0.0
 11
-418.343003
 21
29.466087
 31
0.0
  0
LINE
  8
30
  5
0
  6
CONTINUOUS
 62
     3
 10
-411.658384
 20
36.433547
 30
0.0
 11
-413.866071
 21
34.225860
 31
0.0
  0
LINE
  8
30
  5
0
  6
CONTINUOUS
 62
     3
 10
-415.843003
 20
32.248929
 30
0.0
 11
-418.343003
 21
29.748930
 31
0.0
  0
LINE
  8
30
  5
0
  6
CONTINUOUS
 62
     3
 10
-411.890405
 20
36.484368
 30
0.0
 11
-414.139112
 21
34.235662
 31
0.0
  0
LINE
  8
30
  5
0
  6
CONTINUOUS
 62
     3
 10
-415.843003
 20
32.531772
 30
0.0
 11
-418.343003
 21
30.031773
 31
0.0
  0
LINE
  8
30
  5
0
  6
CONTINUOUS
 62
     3
 10
-412.126410
 20
36.531206
 30
0.0
 11
-414.420219
 21
34.237398
 31
0.0
  0
LINE
  8
30
  5
0
  6
CONTINUOUS
 62
     3
 10
-415.843003
 20
32.814615
 30
0.0
 11
-418.343003
 21
30.314615
 31
0.0
  0
LINE
  8
30
  5
0
  6
CONTINUOUS
 62
     3
 10
-412.366543
 20
36.573915
 30
0.0
 11
-414.709601
 21
34.230858
 31
0.0
  0
LINE
  8
30
  5
0
  6
CONTINUOUS
 62
     3
 10
-415.843003
 20
33.097457
 30
0.0
 11
-418.343003
 21
30.597458
 31
0.0
  0
LINE
  8
30
  5
0
  6
CONTINUOUS
 62
     3
 10
-412.610963
 20
36.612339
 30
0.0
 11
-415.008940
 21
34.214362
 31
0.0
  0
LINE
  8
30
  5
0
  6
CONTINUOUS
 62
     3
 10
-415.843003
 20
33.380300
 30
0.0
 11
-418.343003
 21
30.880301
 31
0.0
  0
LINE
  8
30
  5
0
  6
CONTINUOUS
 62
     3
 10
-412.860088
 20
36.646056
 30
0.0
 11
-415.318607
 21
34.187538
 31
0.0
  0
LINE
  8
30
  5
0
  6
CONTINUOUS
 62
     3
 10
-415.843003
 20
33.663143
 30
0.0
 11
-418.343003
 21
31.163143
 31
0.0
  0
LINE
  8
30
  5
0
  6
CONTINUOUS
 62
     3
 10
-413.114270
 20
36.674717
 30
0.0
 11
-415.639863
 21
34.149124
 31
0.0
  0
LINE
  8
30
  5
0
  6
CONTINUOUS
 62
     3
 10
-415.843003
 20
33.945985
 30
0.0
 11
-418.343003
 21
31.445986
 31
0.0
  0
LINE
  8
30
  5
0
  6
CONTINUOUS
 62
     3
 10
-413.373381
 20
36.698448
 30
0.0
 11
-418.343003
 21
31.728829
 31
0.0
  0
LINE
  8
30
  5
0
  6
CONTINUOUS
 62
     3
 10
-413.637649
 20
36.717024
 30
0.0
 11
-418.343003
 21
32.011671
 31
0.0
  0
LINE
  8
30
  5
0
  6
CONTINUOUS
 62
     3
 10
-413.907317
 20
36.730198
 30
0.0
 11
-418.343003
 21
32.294514
 31
0.0
  0
LINE
  8
30
  5
0
  6
CONTINUOUS
 62
     3
 10
-414.183617
 20
36.736741
 30
0.0
 11
-418.343003
 21
32.577357
 31
0.0
  0
LINE
  8
30
  5
0
  6
CONTINUOUS
 62
     3
 10
-414.466135
 20
36.737065
 30
0.0
 11
-418.343003
 21
32.860199
 31
0.0
  0
LINE
  8
30
  5
0
  6
CONTINUOUS
 62
     3
 10
-414.755096
 20
36.730948
 30
0.0
 11
-418.343003
 21
33.143042
 31
0.0
  0
LINE
  8
30
  5
0
  6
CONTINUOUS
 62
     3
 10
-415.052097
 20
36.716790
 30
0.0
 11
-418.343003
 21
33.425885
 31
0.0
  0
LINE
  8
30
  5
0
  6
CONTINUOUS
 62
     3
 10
-415.356848
 20
36.694881
 30
0.0
 11
-418.343003
 21
33.708727
 31
0.0
  0
LINE
  8
30
  5
0
  6
CONTINUOUS
 62
     3
 10
-415.670347
 20
36.664225
 30
0.0
 11
-418.343003
 21
33.991570
 31
0.0
  0
LINE
  8
30
  5
0
  6
CONTINUOUS
 62
     3
 10
-415.993721
 20
36.623694
 30
0.0
 11
-418.343003
 21
34.274413
 31
0.0
  0
LINE
  8
30
  5
0
  6
CONTINUOUS
 62
     3
 10
-416.327767
 20
36.572491
 30
0.0
 11
-418.343003
 21
34.557255
 31
0.0
  0
LINE
  8
30
  5
0
  6
CONTINUOUS
 62
     3
 10
-416.673550
 20
36.509550
 30
0.0
 11
-418.343003
 21
34.840098
 31
0.0
  0
LINE
  8
30
  5
0
  6
CONTINUOUS
 62
     3
 10
-417.033801
 20
36.432142
 30
0.0
 11
-418.343003
 21
35.122941
 31
0.0
  0
LINE
  8
30
  5
0
  6
CONTINUOUS
 62
     3
 10
-417.409545
 20
36.339241
 30
0.0
 11
-418.343003
 21
35.405783
 31
0.0
  0
LINE
  8
30
  5
0
  6
CONTINUOUS
 62
     3
 10
-417.803802
 20
36.227827
 30
0.0
 11
-418.343003
 21
35.688626
 31
0.0
  0
LINE
  8
30
  5
0
  6
CONTINUOUS
 62
     3
 10
-418.220521
 20
36.093951
 30
0.0
 11
-418.343003
 21
35.971469
 31
0.0
  0
LINE
  8
30
  5
0
  6
CONTINUOUS
 62
     1
 10
-419.843003
 20
14.497066
 30
0.0
 11
-420.119514
 21
14.220555
 31
0.0
  0
LINE
  8
30
  5
0
  6
CONTINUOUS
 62
     1
 10
-419.843003
 20
14.921330
 30
0.0
 11
-420.390573
 21
14.373760
 31
0.0
  0
LINE
  8
30
  5
0
  6
CONTINUOUS
 62
     1
 10
-419.843003
 20
15.345594
 30
0.0
 11
-420.655487
 21
14.533110
 31
0.0
  0
LINE
  8
30
  5
0
  6
CONTINUOUS
 62
     1
 10
-419.843003
 20
15.769858
 30
0.0
 11
-420.914715
 21
14.698146
 31
0.0
  0
LINE
  8
30
  5
0
  6
CONTINUOUS
 62
     1
 10
-419.843003
 20
16.194122
 30
0.0
 11
-421.168553
 21
14.868573
 31
0.0
  0
LINE
  8
30
  5
0
  6
CONTINUOUS
 62
     1
 10
-419.843003
 20
16.618386
 30
0.0
 11
-421.416325
 21
15.045065
 31
0.0
  0
LINE
  8
30
  5
0
  6
CONTINUOUS
 62
     1
 10
-419.872239
 20
17.013413
 30
0.0
 11
-421.659026
 21
15.226627
 31
0.0
  0
LINE
  8
30
  5
0
  6
CONTINUOUS
 62
     1
 10
-420.115983
 20
17.193934
 30
0.0
 11
-421.896070
 21
15.413847
 31
0.0
  0
LINE
  8
30
  5
0
  6
CONTINUOUS
 62
     1
 10
-420.352881
 20
17.381300
 30
0.0
 11
-422.127679
 21
15.606503
 31
0.0
  0
LINE
  8
30
  5
0
  6
CONTINUOUS
 62
     1
 10
-420.583102
 20
17.575343
 30
0.0
 11
-422.354329
 21
15.804116
 31
0.0
  0
LINE
  8
30
  5
0
  6
CONTINUOUS
 62
     1
 10
-420.806328
 20
17.776381
 30
0.0
 11
-422.575075
 21
16.007634
 31
0.0
  0
LINE
  8
30
  5
0
  6
CONTINUOUS
 62
     1
 10
-421.023216
 20
17.983757
 30
0.0
 11
-422.790816
 21
16.216158
 31
0.0
  0
LINE
  8
30
  5
0
  6
CONTINUOUS
 62
     1
 10
-421.232919
 20
18.198318
 30
0.0
 11
-423.001406
 21
16.429832
 31
0.0
  0
LINE
  8
30
  5
0
  6
CONTINUOUS
 62
     1
 10
-421.436510
 20
18.418992
 30
0.0
 11
-423.206263
 21
16.649239
 31
0.0
  0
LINE
  8
30
  5
0
  6
CONTINUOUS
 62
     1
 10
-421.632678
 20
18.647087
 30
0.0
 11
-423.406189
 21
16.873577
 31
0.0
  0
LINE
  8
30
  5
0
  6
CONTINUOUS
 62
     1
 10
-421.822633
 20
18.881396
 30
0.0
 11
-423.600599
 21
17.103431
 31
0.0
  0
LINE
  8
30
  5
0
  6
CONTINUOUS
 62
     1
 10
-422.005317
 20
19.122977
 30
0.0
 11
-423.789538
 21
17.338756
 31
0.0
  0
LINE
  8
30
  5
0
  6
CONTINUOUS
 62
     1
 10
-422.181336
 20
19.371221
 30
0.0
 11
-423.973469
 21
17.579089
 31
0.0
  0
LINE
  8
30
  5
0
  6
CONTINUOUS
 62
     1
 10
-422.350222
 20
19.626600
 30
0.0
 11
-424.151352
 21
17.825470
 31
0.0
  0
LINE
  8
30
  5
0
  6
CONTINUOUS
 62
     1
 10
-422.511809
 20
19.889276
 30
0.0
 11
-424.324017
 21
18.077069
 31
0.0
  0
LINE
  8
30
  5
0
  6
CONTINUOUS
 62
     1
 10
-422.666425
 20
20.158925
 30
0.0
 11
-424.491101
 21
18.334249
 31
0.0
  0
LINE
  8
30
  5
0
  6
CONTINUOUS
 62
     1
 10
-422.812865
 20
20.436749
 30
0.0
 11
-424.652193
 21
18.597421
 31
0.0
  0
LINE
  8
30
  5
0
  6
CONTINUOUS
 62
     1
 10
-422.951933
 20
20.721945
 30
0.0
 11
-424.807963
 21
18.865916
 31
0.0
  0
LINE
  8
30
  5
0
  6
CONTINUOUS
 62
     1
 10
-423.082877
 20
21.015265
 30
0.0
 11
-424.957150
 21
19.140993
 31
0.0
  0
LINE
  8
30
  5
0
  6
CONTINUOUS
 62
     1
 10
-423.205161
 20
21.317245
 30
0.0
 11
-425.100726
 21
19.421681
 31
0.0
  0
LINE
  8
30
  5
0
  6
CONTINUOUS
 62
     1
 10
-423.318982
 20
21.627688
 30
0.0
 11
-425.237787
 21
19.708883
 31
0.0
  0
LINE
  8
30
  5
0
  6
CONTINUOUS
 62
     1
 10
-423.423702
 20
21.947232
 30
0.0
 11
-425.368582
 21
20.002352
 31
0.0
  0
LINE
  8
30
  5
0
  6
CONTINUOUS
 62
     1
 10
-423.518231
 20
22.276967
 30
0.0
 11
-425.492706
 21
20.302493
 31
0.0
  0
LINE
  8
30
  5
0
  6
CONTINUOUS
 62
     1
 10
-423.602620
 20
22.616842
 30
0.0
 11
-425.609985
 21
20.609478
 31
0.0
  0
LINE
  8
30
  5
0
  6
CONTINUOUS
 62
     1
 10
-423.676090
 20
22.967636
 30
0.0
 11
-425.720150
 21
20.923576
 31
0.0
  0
LINE
  8
30
  5
0
  6
CONTINUOUS
 62
     1
 10
-423.737725
 20
23.330265
 30
0.0
 11
-425.823000
 21
21.244991
 31
0.0
  0
LINE
  8
30
  5
0
  6
CONTINUOUS
 62
     1
 10
-423.786436
 20
23.705818
 30
0.0
 11
-425.917927
 21
21.574327
 31
0.0
  0
LINE
  8
30
  5
0
  6
CONTINUOUS
 62
     1
 10
-423.820928
 20
24.095590
 30
0.0
 11
-426.005217
 21
21.911302
 31
0.0
  0
LINE
  8
30
  5
0
  6
CONTINUOUS
 62
     1
 10
-423.839640
 20
24.501142
 30
0.0
 11
-426.083300
 21
22.257483
 31
0.0
  0
LINE
  8
30
  5
0
  6
CONTINUOUS
 62
     1
 10
-423.840682
 20
24.924364
 30
0.0
 11
-426.152817
 21
22.612230
 31
0.0
  0
LINE
  8
30
  5
0
  6
CONTINUOUS
 62
     1
 10
-423.821739
 20
25.367571
 30
0.0
 11
-426.212841
 21
22.976470
 31
0.0
  0
LINE
  8
30
  5
0
  6
CONTINUOUS
 62
     1
 10
-423.779316
 20
25.834258
 30
0.0
 11
-426.262150
 21
23.351425
 31
0.0
  0
LINE
  8
30
  5
0
  6
CONTINUOUS
 62
     1
 10
-423.708359
 20
26.329479
 30
0.0
 11
-426.300689
 21
23.737149
 31
0.0
  0
LINE
  8
30
  5
0
  6
CONTINUOUS
 62
     1
 10
-423.602622
 20
26.859480
 30
0.0
 11
-426.327450
 21
24.134653
 31
0.0
  0
LINE
  8
30
  5
0
  6
CONTINUOUS
 62
     1
 10
-423.451785
 20
27.434581
 30
0.0
 11
-426.341242
 21
24.545125
 31
0.0
  0
LINE
  8
30
  5
0
  6
CONTINUOUS
 62
     1
 10
-423.238891
 20
28.071739
 30
0.0
 11
-426.340653
 21
24.969978
 31
0.0
  0
LINE
  8
30
  5
0
  6
CONTINUOUS
 62
     1
 10
-422.926897
 20
28.807997
 30
0.0
 11
-426.323993
 21
25.410902
 31
0.0
  0
LINE
  8
30
  5
0
  6
CONTINUOUS
 62
     1
 10
-422.418831
 20
29.740327
 30
0.0
 11
-426.289220
 21
25.869939
 31
0.0
  0
LINE
  8
30
  5
0
  6
CONTINUOUS
 62
     1
 10
-419.843003
 20
32.740418
 30
0.0
 11
-426.233840
 21
26.349583
 31
0.0
  0
LINE
  8
30
  5
0
  6
CONTINUOUS
 62
     1
 10
-419.843003
 20
33.164682
 30
0.0
 11
-426.154776
 21
26.852911
 31
0.0
  0
LINE
  8
30
  5
0
  6
CONTINUOUS
 62
     1
 10
-419.843003
 20
33.588946
 30
0.0
 11
-426.047201
 21
27.384750
 31
0.0
  0
LINE
  8
30
  5
0
  6
CONTINUOUS
 62
     1
 10
-419.843003
 20
34.013210
 30
0.0
 11
-425.904447
 21
27.951768
 31
0.0
  0
LINE
  8
30
  5
0
  6
CONTINUOUS
 62
     1
 10
-419.843003
 20
34.437474
 30
0.0
 11
-425.716411
 21
28.564068
 31
0.0
  0
LINE
  8
30
  5
0
  6
CONTINUOUS
 62
     1
 10
-419.843003
 20
34.861738
 30
0.0
 11
-425.467575
 21
29.237168
 31
0.0
  0
LINE
  8
30
  5
0
  6
CONTINUOUS
 62
     1
 10
-419.843003
 20
35.286002
 30
0.0
 11
-425.126350
 21
30.002657
 31
0.0
  0
LINE
  8
30
  5
0
  6
CONTINUOUS
 62
     1
 10
-420.538959
 20
35.014310
 30
0.0
 11
-424.619357
 21
30.933914
 31
0.0
  0
LINE
  8
30
  5
0
  6
CONTINUOUS
 62
     1
 10
-422.000640
 20
33.976894
 30
0.0
 11
-423.582768
 21
32.394766
 31
0.0
  0
LINE
  8
30
  5
0
  6
CONTINUOUS
 62
     1
 10
-404.185547
 20
18.349442
 30
0.0
 11
-407.954480
 21
14.580511
 31
0.0
  0
LINE
  8
30
  5
0
  6
CONTINUOUS
 62
     1
 10
-403.632812
 20
19.326441
 30
0.0
 11
-408.843003
 21
14.116252
 31
0.0
  0
LINE
  8
30
  5
0
  6
CONTINUOUS
 62
     1
 10
-403.270246
 20
20.113271
 30
0.0
 11
-408.843003
 21
14.540516
 31
0.0
  0
LINE
  8
30
  5
0
  6
CONTINUOUS
 62
     1
 10
-403.069614
 20
20.738167
 30
0.0
 11
-408.843003
 21
14.964780
 31
0.0
  0
LINE
  8
30
  5
0
  6
CONTINUOUS
 62
     1
 10
-403.493878
 20
20.738167
 30
0.0
 11
-408.843003
 21
15.389044
 31
0.0
  0
LINE
  8
30
  5
0
  6
CONTINUOUS
 62
     1
 10
-403.918142
 20
20.738167
 30
0.0
 11
-408.843003
 21
15.813308
 31
0.0
  0
LINE
  8
30
  5
0
  6
CONTINUOUS
 62
     1
 10
-404.342407
 20
20.738167
 30
0.0
 11
-408.843003
 21
16.237572
 31
0.0
  0
LINE
  8
30
  5
0
  6
CONTINUOUS
 62
     1
 10
-404.766671
 20
20.738167
 30
0.0
 11
-408.843003
 21
16.661836
 31
0.0
  0
LINE
  8
30
  5
0
  6
CONTINUOUS
 62
     1
 10
-405.190935
 20
20.738167
 30
0.0
 11
-408.843003
 21
17.086100
 31
0.0
  0
LINE
  8
30
  5
0
  6
CONTINUOUS
 62
     1
 10
-402.366877
 20
23.986488
 30
0.0
 11
-402.615198
 21
23.738167
 31
0.0
  0
LINE
  8
30
  5
0
  6
CONTINUOUS
 62
     1
 10
-405.615199
 20
20.738167
 30
0.0
 11
-405.829158
 21
20.524208
 31
0.0
  0
LINE
  8
30
  5
0
  6
CONTINUOUS
 62
     1
 10
-406.343003
 20
20.010363
 30
0.0
 11
-408.843003
 21
17.510364
 31
0.0
  0
LINE
  8
30
  5
0
  6
CONTINUOUS
 62
     1
 10
-402.347369
 20
24.430260
 30
0.0
 11
-403.039462
 21
23.738167
 31
0.0
  0
LINE
  8
30
  5
0
  6
CONTINUOUS
 62
     1
 10
-406.343003
 20
20.434627
 30
0.0
 11
-408.843003
 21
17.934628
 31
0.0
  0
LINE
  8
30
  5
0
  6
CONTINUOUS
 62
     1
 10
-402.344002
 20
24.857891
 30
0.0
 11
-403.463726
 21
23.738167
 31
0.0
  0
LINE
  8
30
  5
0
  6
CONTINUOUS
 62
     1
 10
-406.343003
 20
20.858891
 30
0.0
 11
-408.843003
 21
18.358892
 31
0.0
  0
LINE
  8
30
  5
0
  6
CONTINUOUS
 62
     1
 10
-402.355210
 20
25.270947
 30
0.0
 11
-403.887990
 21
23.738167
 31
0.0
  0
LINE
  8
30
  5
0
  6
CONTINUOUS
 62
     1
 10
-406.343003
 20
21.283155
 30
0.0
 11
-408.843003
 21
18.783156
 31
0.0
  0
LINE
  8
30
  5
0
  6
CONTINUOUS
 62
     1
 10
-402.379670
 20
25.670750
 30
0.0
 11
-404.312255
 21
23.738167
 31
0.0
  0
LINE
  8
30
  5
0
  6
CONTINUOUS
 62
     1
 10
-406.343003
 20
21.707419
 30
0.0
 11
-408.843003
 21
19.207420
 31
0.0
  0
LINE
  8
30
  5
0
  6
CONTINUOUS
 62
     1
 10
-402.736518
 20
25.738167
 30
0.0
 11
-404.736519
 21
23.738167
 31
0.0
  0
LINE
  8
30
  5
0
  6
CONTINUOUS
 62
     1
 10
-406.343003
 20
22.131683
 30
0.0
 11
-408.843003
 21
19.631684
 31
0.0
  0
LINE
  8
30
  5
0
  6
CONTINUOUS
 62
     1
 10
-403.160782
 20
25.738167
 30
0.0
 11
-405.160783
 21
23.738167
 31
0.0
  0
LINE
  8
30
  5
0
  6
CONTINUOUS
 62
     1
 10
-406.343003
 20
22.555947
 30
0.0
 11
-408.843003
 21
20.055948
 31
0.0
  0
LINE
  8
30
  5
0
  6
CONTINUOUS
 62
     1
 10
-403.585046
 20
25.738167
 30
0.0
 11
-405.585047
 21
23.738167
 31
0.0
  0
LINE
  8
30
  5
0
  6
CONTINUOUS
 62
     1
 10
-406.343003
 20
22.980211
 30
0.0
 11
-408.843003
 21
20.480212
 31
0.0
  0
LINE
  8
30
  5
0
  6
CONTINUOUS
 62
     1
 10
-404.009311
 20
25.738167
 30
0.0
 11
-406.009311
 21
23.738167
 31
0.0
  0
LINE
  8
30
  5
0
  6
CONTINUOUS
 62
     1
 10
-406.343003
 20
23.404475
 30
0.0
 11
-408.843003
 21
20.904476
 31
0.0
  0
LINE
  8
30
  5
0
  6
CONTINUOUS
 62
     1
 10
-404.433575
 20
25.738167
 30
0.0
 11
-408.843003
 21
21.328740
 31
0.0
  0
LINE
  8
30
  5
0
  6
CONTINUOUS
 62
     1
 10
-404.857839
 20
25.738167
 30
0.0
 11
-408.843003
 21
21.753004
 31
0.0
  0
LINE
  8
30
  5
0
  6
CONTINUOUS
 62
     1
 10
-405.282103
 20
25.738167
 30
0.0
 11
-408.843003
 21
22.177268
 31
0.0
  0
LINE
  8
30
  5
0
  6
CONTINUOUS
 62
     1
 10
-405.706367
 20
25.738167
 30
0.0
 11
-408.843003
 21
22.601532
 31
0.0
  0
LINE
  8
30
  5
0
  6
CONTINUOUS
 62
     1
 10
-403.056320
 20
28.812476
 30
0.0
 11
-403.130630
 21
28.738167
 31
0.0
  0
LINE
  8
30
  5
0
  6
CONTINUOUS
 62
     1
 10
-406.130631
 20
25.738167
 30
0.0
 11
-408.843003
 21
23.025796
 31
0.0
  0
LINE
  8
30
  5
0
  6
CONTINUOUS
 62
     1
 10
-403.172175
 20
29.120885
 30
0.0
 11
-403.554894
 21
28.738167
 31
0.0
  0
LINE
  8
30
  5
0
  6
CONTINUOUS
 62
     1
 10
-406.343003
 20
25.950059
 30
0.0
 11
-408.843003
 21
23.450060
 31
0.0
  0
LINE
  8
30
  5
0
  6
CONTINUOUS
 62
     1
 10
-403.295346
 20
29.421979
 30
0.0
 11
-403.979158
 21
28.738167
 31
0.0
  0
LINE
  8
30
  5
0
  6
CONTINUOUS
 62
     1
 10
-406.343003
 20
26.374323
 30
0.0
 11
-408.843003
 21
23.874324
 31
0.0
  0
LINE
  8
30
  5
0
  6
CONTINUOUS
 62
     1
 10
-403.424742
 20
29.716847
 30
0.0
 11
-404.403423
 21
28.738167
 31
0.0
  0
LINE
  8
30
  5
0
  6
CONTINUOUS
 62
     1
 10
-406.343003
 20
26.798587
 30
0.0
 11
-408.843003
 21
24.298588
 31
0.0
  0
LINE
  8
30
  5
0
  6
CONTINUOUS
 62
     1
 10
-403.561014
 20
30.004839
 30
0.0
 11
-404.827687
 21
28.738167
 31
0.0
  0
LINE
  8
30
  5
0
  6
CONTINUOUS
 62
     1
 10
-406.343003
 20
27.222851
 30
0.0
 11
-408.843003
 21
24.722852
 31
0.0
  0
LINE
  8
30
  5
0
  6
CONTINUOUS
 62
     1
 10
-403.703211
 20
30.286906
 30
0.0
 11
-405.251951
 21
28.738167
 31
0.0
  0
LINE
  8
30
  5
0
  6
CONTINUOUS
 62
     1
 10
-406.343003
 20
27.647115
 30
0.0
 11
-408.843003
 21
25.147116
 31
0.0
  0
LINE
  8
30
  5
0
  6
CONTINUOUS
 62
     1
 10
-403.851761
 20
30.562620
 30
0.0
 11
-405.676215
 21
28.738167
 31
0.0
  0
LINE
  8
30
  5
0
  6
CONTINUOUS
 62
     1
 10
-406.343003
 20
28.071379
 30
0.0
 11
-408.843003
 21
25.571380
 31
0.0
  0
LINE
  8
30
  5
0
  6
CONTINUOUS
 62
     1
 10
-404.006165
 20
30.832480
 30
0.0
 11
-405.848275
 21
28.990371
 31
0.0
  0
LINE
  8
30
  5
0
  6
CONTINUOUS
 62
     1
 10
-406.343003
 20
28.495643
 30
0.0
 11
-408.843003
 21
25.995644
 31
0.0
  0
LINE
  8
30
  5
0
  6
CONTINUOUS
 62
     1
 10
-404.166344
 20
31.096565
 30
0.0
 11
-405.993600
 21
29.269309
 31
0.0
  0
LINE
  8
30
  5
0
  6
CONTINUOUS
 62
     1
 10
-406.343003
 20
28.919907
 30
0.0
 11
-408.843003
 21
26.419908
 31
0.0
  0
LINE
  8
30
  5
0
  6
CONTINUOUS
 62
     1
 10
-404.332488
 20
31.354685
 30
0.0
 11
-406.146440
 21
29.540734
 31
0.0
  0
LINE
  8
30
  5
0
  6
CONTINUOUS
 62
     1
 10
-406.343003
 20
29.344171
 30
0.0
 11
-408.843003
 21
26.844172
 31
0.0
  0
LINE
  8
30
  5
0
  6
CONTINUOUS
 62
     1
 10
-404.503792
 20
31.607645
 30
0.0
 11
-406.307086
 21
29.804352
 31
0.0
  0
LINE
  8
30
  5
0
  6
CONTINUOUS
 62
     1
 10
-406.343003
 20
29.768435
 30
0.0
 11
-408.843003
 21
27.268436
 31
0.0
  0
LINE
  8
30
  5
0
  6
CONTINUOUS
 62
     1
 10
-404.681317
 20
31.854384
 30
0.0
 11
-408.843003
 21
27.692700
 31
0.0
  0
LINE
  8
30
  5
0
  6
CONTINUOUS
 62
     1
 10
-404.863870
 20
32.096096
 30
0.0
 11
-408.843003
 21
28.116964
 31
0.0
  0
LINE
  8
30
  5
0
  6
CONTINUOUS
 62
     1
 10
-405.052014
 20
32.332216
 30
0.0
 11
-408.843003
 21
28.541228
 31
0.0
  0
LINE
  8
30
  5
0
  6
CONTINUOUS
 62
     1
 10
-405.245603
 20
32.562890
 30
0.0
 11
-408.843003
 21
28.965492
 31
0.0
  0
LINE
  8
30
  5
0
  6
CONTINUOUS
 62
     1
 10
-405.444137
 20
32.788620
 30
0.0
 11
-408.843003
 21
29.389756
 31
0.0
  0
LINE
  8
30
  5
0
  6
CONTINUOUS
 62
     1
 10
-405.648627
 20
33.008394
 30
0.0
 11
-408.843003
 21
29.814020
 31
0.0
  0
LINE
  8
30
  5
0
  6
CONTINUOUS
 62
     1
 10
-405.858005
 20
33.223280
 30
0.0
 11
-408.843003
 21
30.238284
 31
0.0
  0
LINE
  8
30
  5
0
  6
CONTINUOUS
 62
     1
 10
-406.072770
 20
33.432780
 30
0.0
 11
-408.843003
 21
30.662548
 31
0.0
  0
LINE
  8
30
  5
0
  6
CONTINUOUS
 62
     1
 10
-406.292995
 20
33.636819
 30
0.0
 11
-408.843003
 21
31.086812
 31
0.0
  0
LINE
  8
30
  5
0
  6
CONTINUOUS
 62
     1
 10
-406.518120
 20
33.835958
 30
0.0
 11
-408.843003
 21
31.511076
 31
0.0
  0
LINE
  8
30
  5
0
  6
CONTINUOUS
 62
     1
 10
-406.749166
 20
34.029176
 30
0.0
 11
-408.843003
 21
31.935340
 31
0.0
  0
LINE
  8
30
  5
0
  6
CONTINUOUS
 62
     1
 10
-406.985247
 20
34.217359
 30
0.0
 11
-408.843003
 21
32.359604
 31
0.0
  0
LINE
  8
30
  5
0
  6
CONTINUOUS
 62
     1
 10
-407.226778
 20
34.400092
 30
0.0
 11
-408.843003
 21
32.783868
 31
0.0
  0
LINE
  8
30
  5
0
  6
CONTINUOUS
 62
     1
 10
-407.473994
 20
34.577140
 30
0.0
 11
-408.843003
 21
33.208132
 31
0.0
  0
LINE
  8
30
  5
0
  6
CONTINUOUS
 62
     1
 10
-407.726291
 20
34.749107
 30
0.0
 11
-408.843003
 21
33.632396
 31
0.0
  0
LINE
  8
30
  5
0
  6
CONTINUOUS
 62
     1
 10
-407.984897
 20
34.914765
 30
0.0
 11
-408.843003
 21
34.056660
 31
0.0
  0
LINE
  8
30
  5
0
  6
CONTINUOUS
 62
     1
 10
-408.248737
 20
35.075190
 30
0.0
 11
-408.843003
 21
34.480924
 31
0.0
  0
LINE
  8
30
  5
0
  6
CONTINUOUS
 62
     1
 10
-408.518701
 20
35.229490
 30
0.0
 11
-408.843003
 21
34.905188
 31
0.0
  0
LINE
  8
30
  5
0
  6
CONTINUOUS
 62
     1
 10
-408.794494
 20
35.377961
 30
0.0
 11
-408.843003
 21
35.329452
 31
0.0
  0
LINE
  8
Nor_
  5
0
  6
CONTINUOUS
 62
     1
 10
-350.666905
 20
163.568968
 30
0.0
 11
-350.666905
 21
163.468968
 31
0.0
  0
ARC
  8
Nor_
  5
0
  6
CONTINUOUS
 62
     1
 10
-351.166905
 20
163.468968
 30
0.0
 40
0.500000
 50
270.0
 51
360.000000
  0
ARC
  8
Nor_
  5
0
  6
CONTINUOUS
 62
     1
 10
-351.166905
 20
163.468968
 30
0.0
 40
0.500000
 50
180.000000
 51
270.000000
  0
LINE
  8
Nor_
  5
0
  6
CONTINUOUS
 62
     1
 10
-351.666905
 20
163.468968
 30
0.0
 11
-351.666905
 21
164.968968
 31
0.0
  0
ARC
  8
Nor_
  5
0
  6
CONTINUOUS
 62
     1
 10
-345.666905
 20
164.968968
 30
0.0
 40
6.0
 50
90.0
 51
180.000000
  0
ARC
  8
Nor_
  5
0
  6
CONTINUOUS
 62
     1
 10
-345.666905
 20
164.968968
 30
0.0
 40
6.0
 50
0.0
 51
90.000000
  0
LINE
  8
Nor_
  5
0
  6
CONTINUOUS
 62
     1
 10
-339.666905
 20
164.968968
 30
0.0
 11
-339.666905
 21
163.468968
 31
0.0
  0
ARC
  8
Nor_
  5
0
  6
CONTINUOUS
 62
     1
 10
-340.166905
 20
163.468968
 30
0.0
 40
0.500000
 50
270.0
 51
360.000000
  0
ARC
  8
Nor_
  5
0
  6
CONTINUOUS
 62
     1
 10
-340.166905
 20
163.468968
 30
0.0
 40
0.500000
 50
180.000000
 51
270.000000
  0
LINE
  8
Nor_
  5
0
  6
CONTINUOUS
 62
     1
 10
-340.666905
 20
163.468968
 30
0.0
 11
-340.666905
 21
163.568968
 31
0.0
  0
LINE
  8
Nor_
  5
0
  6
CONTINUOUS
 62
     1
 10
-340.666905
 20
163.568968
 30
0.0
 11
-350.666905
 21
163.568968
 31
0.0
  0
ARC
  8
Nor_
  5
0
  6
CONTINUOUS
 62
     1
 10
-345.666905
 20
164.968968
 30
0.0
 40
4.800000
 50
145.508296
 51
166.059302
  0
ARC
  8
Nor_
  5
0
  6
CONTINUOUS
 62
     1
 10
-350.035208
 20
167.970289
 30
0.0
 40
0.500000
 50
325.508296
 51
368.658797
  0
ARC
  8
Nor_
  5
0
  6
CONTINUOUS
 62
     1
 10
-345.666905
 20
164.968968
 30
0.0
 40
4.800000
 50
100.508296
 51
124.491704
  0
ARC
  8
Nor_
  5
0
  6
CONTINUOUS
 62
     1
 10
-346.633508
 20
170.180080
 30
0.0
 40
0.500000
 50
280.508296
 51
323.658797
  0
LINE
  8
Nor_
  5
0
  6
CONTINUOUS
 62
     1
 10
-349.977659
 20
164.562239
 30
0.0
 11
-347.043205
 21
165.348524
 31
0.0
  0
ARC
  8
Nor_
  5
0
  6
CONTINUOUS
 62
     1
 10
-350.158832
 20
165.238387
 30
0.0
 40
0.7
 50
122.908801
 51
285.000008
  0
ARC
  8
Nor_
  5
0
  6
CONTINUOUS
 62
     1
 10
-350.810796
 20
166.245831
 30
0.0
 40
0.500000
 50
302.908801
 51
346.059302
  0
ARC
  8
Nor_
  5
0
  6
CONTINUOUS
 62
     1
 10
-346.887913
 20
164.768968
 30
0.0
 40
0.600000
 50
90.0
 51
105.000000
  0
LINE
  8
Nor_
  5
0
  6
CONTINUOUS
 62
     1
 10
-346.887913
 20
165.368968
 30
0.0
 11
-345.666905
 21
165.368968
 31
0.0
  0
LINE
  8
Nor_
  5
0
  6
CONTINUOUS
 62
     1
 10
-350.666905
 20
163.468968
 30
0.0
 11
-350.666905
 21
162.968968
 31
0.0
  0
LINE
  8
Nor_
  5
0
  6
CONTINUOUS
 62
     1
 10
-350.666905
 20
163.568968
 30
0.0
 11
-350.666905
 21
163.468968
 31
0.0
  0
LINE
  8
Nor_
  5
0
  6
CONTINUOUS
 62
     1
 10
-340.666905
 20
163.468968
 30
0.0
 11
-340.666905
 21
163.568968
 31
0.0
  0
LINE
  8
Nor_
  5
0
  6
CONTINUOUS
 62
     1
 10
-340.666905
 20
162.968968
 30
0.0
 11
-340.666905
 21
163.468968
 31
0.0
  0
LINE
  8
Nor_
  5
0
  6
CONTINUOUS
 62
     1
 10
-340.666905
 20
163.568968
 30
0.0
 11
-350.666905
 21
163.568968
 31
0.0
  0
LINE
  8
Nor_
  5
0
  6
CONTINUOUS
 62
     1
 10
-350.666905
 20
162.968968
 30
0.0
 11
-350.666905
 21
162.368968
 31
0.0
  0
LINE
  8
Nor_
  5
0
  6
CONTINUOUS
 62
     1
 10
-340.666905
 20
162.968968
 30
0.0
 11
-350.666905
 21
162.968968
 31
0.0
  0
LINE
  8
Nor_
  5
0
  6
CONTINUOUS
 62
     1
 10
-340.666905
 20
162.368968
 30
0.0
 11
-340.666905
 21
162.968968
 31
0.0
  0
LINE
  8
Nor_
  5
0
  6
CONTINUOUS
 62
     1
 10
-340.666905
 20
162.368968
 30
0.0
 11
-350.666905
 21
162.368968
 31
0.0
  0
LINE
  8
Nor_
  5
0
  6
CONTINUOUS
 62
     3
 10
-340.666905
 20
162.439679
 30
0.0
 11
-340.737615
 21
162.368968
 31
0.0
  0
LINE
  8
Nor_
  5
0
  6
CONTINUOUS
 62
     3
 10
-340.666905
 20
162.510390
 30
0.0
 11
-340.808326
 21
162.368968
 31
0.0
  0
LINE
  8
Nor_
  5
0
  6
CONTINUOUS
 62
     3
 10
-340.666905
 20
162.581100
 30
0.0
 11
-340.879037
 21
162.368968
 31
0.0
  0
LINE
  8
Nor_
  5
0
  6
CONTINUOUS
 62
     3
 10
-340.666905
 20
162.651811
 30
0.0
 11
-340.949748
 21
162.368968
 31
0.0
  0
LINE
  8
Nor_
  5
0
  6
CONTINUOUS
 62
     3
 10
-340.666905
 20
162.722522
 30
0.0
 11
-341.020458
 21
162.368968
 31
0.0
  0
LINE
  8
Nor_
  5
0
  6
CONTINUOUS
 62
     3
 10
-340.666905
 20
162.793232
 30
0.0
 11
-341.091169
 21
162.368968
 31
0.0
  0
LINE
  8
Nor_
  5
0
  6
CONTINUOUS
 62
     3
 10
-340.666905
 20
162.863943
 30
0.0
 11
-341.161880
 21
162.368968
 31
0.0
  0
LINE
  8
Nor_
  5
0
  6
CONTINUOUS
 62
     3
 10
-340.666905
 20
162.934654
 30
0.0
 11
-341.232590
 21
162.368968
 31
0.0
  0
LINE
  8
Nor_
  5
0
  6
CONTINUOUS
 62
     3
 10
-340.703301
 20
162.968968
 30
0.0
 11
-341.303301
 21
162.368968
 31
0.0
  0
LINE
  8
Nor_
  5
0
  6
CONTINUOUS
 62
     3
 10
-340.774012
 20
162.968968
 30
0.0
 11
-341.374012
 21
162.368968
 31
0.0
  0
LINE
  8
Nor_
  5
0
  6
CONTINUOUS
 62
     3
 10
-340.844722
 20
162.968968
 30
0.0
 11
-341.444722
 21
162.368968
 31
0.0
  0
LINE
  8
Nor_
  5
0
  6
CONTINUOUS
 62
     3
 10
-340.915433
 20
162.968968
 30
0.0
 11
-341.515433
 21
162.368968
 31
0.0
  0
LINE
  8
Nor_
  5
0
  6
CONTINUOUS
 62
     3
 10
-340.986144
 20
162.968968
 30
0.0
 11
-341.586144
 21
162.368968
 31
0.0
  0
LINE
  8
Nor_
  5
0
  6
CONTINUOUS
 62
     3
 10
-341.056854
 20
162.968968
 30
0.0
 11
-341.656854
 21
162.368968
 31
0.0
  0
LINE
  8
Nor_
  5
0
  6
CONTINUOUS
 62
     3
 10
-341.127565
 20
162.968968
 30
0.0
 11
-341.727565
 21
162.368968
 31
0.0
  0
LINE
  8
Nor_
  5
0
  6
CONTINUOUS
 62
     3
 10
-341.198276
 20
162.968968
 30
0.0
 11
-341.798276
 21
162.368968
 31
0.0
  0
LINE
  8
Nor_
  5
0
  6
CONTINUOUS
 62
     3
 10
-341.268986
 20
162.968968
 30
0.0
 11
-341.868987
 21
162.368968
 31
0.0
  0
LINE
  8
Nor_
  5
0
  6
CONTINUOUS
 62
     3
 10
-341.339697
 20
162.968968
 30
0.0
 11
-341.939697
 21
162.368968
 31
0.0
  0
LINE
  8
Nor_
  5
0
  6
CONTINUOUS
 62
     3
 10
-341.410408
 20
162.968968
 30
0.0
 11
-342.010408
 21
162.368968
 31
0.0
  0
LINE
  8
Nor_
  5
0
  6
CONTINUOUS
 62
     3
 10
-341.481118
 20
162.968968
 30
0.0
 11
-342.081119
 21
162.368968
 31
0.0
  0
LINE
  8
Nor_
  5
0
  6
CONTINUOUS
 62
     3
 10
-341.551829
 20
162.968968
 30
0.0
 11
-342.151829
 21
162.368968
 31
0.0
  0
LINE
  8
Nor_
  5
0
  6
CONTINUOUS
 62
     3
 10
-341.622540
 20
162.968968
 30
0.0
 11
-342.222540
 21
162.368968
 31
0.0
  0
LINE
  8
Nor_
  5
0
  6
CONTINUOUS
 62
     3
 10
-341.693250
 20
162.968968
 30
0.0
 11
-342.293251
 21
162.368968
 31
0.0
  0
LINE
  8
Nor_
  5
0
  6
CONTINUOUS
 62
     3
 10
-341.763961
 20
162.968968
 30
0.0
 11
-342.363961
 21
162.368968
 31
0.0
  0
LINE
  8
Nor_
  5
0
  6
CONTINUOUS
 62
     3
 10
-341.834672
 20
162.968968
 30
0.0
 11
-342.434672
 21
162.368968
 31
0.0
  0
LINE
  8
Nor_
  5
0
  6
CONTINUOUS
 62
     3
 10
-341.905383
 20
162.968968
 30
0.0
 11
-342.505383
 21
162.368968
 31
0.0
  0
LINE
  8
Nor_
  5
0
  6
CONTINUOUS
 62
     3
 10
-341.976093
 20
162.968968
 30
0.0
 11
-342.576093
 21
162.368968
 31
0.0
  0
LINE
  8
Nor_
  5
0
  6
CONTINUOUS
 62
     3
 10
-342.046804
 20
162.968968
 30
0.0
 11
-342.646804
 21
162.368968
 31
0.0
  0
LINE
  8
Nor_
  5
0
  6
CONTINUOUS
 62
     3
 10
-342.117515
 20
162.968968
 30
0.0
 11
-342.717515
 21
162.368968
 31
0.0
  0
LINE
  8
Nor_
  5
0
  6
CONTINUOUS
 62
     3
 10
-342.188225
 20
162.968968
 30
0.0
 11
-342.788225
 21
162.368968
 31
0.0
  0
LINE
  8
Nor_
  5
0
  6
CONTINUOUS
 62
     3
 10
-342.258936
 20
162.968968
 30
0.0
 11
-342.858936
 21
162.368968
 31
0.0
  0
LINE
  8
Nor_
  5
0
  6
CONTINUOUS
 62
     3
 10
-342.329647
 20
162.968968
 30
0.0
 11
-342.929647
 21
162.368968
 31
0.0
  0
LINE
  8
Nor_
  5
0
  6
CONTINUOUS
 62
     3
 10
-342.400357
 20
162.968968
 30
0.0
 11
-343.000358
 21
162.368968
 31
0.0
  0
LINE
  8
Nor_
  5
0
  6
CONTINUOUS
 62
     3
 10
-342.471068
 20
162.968968
 30
0.0
 11
-343.071068
 21
162.368968
 31
0.0
  0
LINE
  8
Nor_
  5
0
  6
CONTINUOUS
 62
     3
 10
-342.541779
 20
162.968968
 30
0.0
 11
-343.141779
 21
162.368968
 31
0.0
  0
LINE
  8
Nor_
  5
0
  6
CONTINUOUS
 62
     3
 10
-342.612489
 20
162.968968
 30
0.0
 11
-343.212490
 21
162.368968
 31
0.0
  0
LINE
  8
Nor_
  5
0
  6
CONTINUOUS
 62
     3
 10
-342.683200
 20
162.968968
 30
0.0
 11
-343.283200
 21
162.368968
 31
0.0
  0
LINE
  8
Nor_
  5
0
  6
CONTINUOUS
 62
     3
 10
-342.753911
 20
162.968968
 30
0.0
 11
-343.353911
 21
162.368968
 31
0.0
  0
LINE
  8
Nor_
  5
0
  6
CONTINUOUS
 62
     3
 10
-342.824622
 20
162.968968
 30
0.0
 11
-343.424622
 21
162.368968
 31
0.0
  0
LINE
  8
Nor_
  5
0
  6
CONTINUOUS
 62
     3
 10
-342.895332
 20
162.968968
 30
0.0
 11
-343.495332
 21
162.368968
 31
0.0
  0
LINE
  8
Nor_
  5
0
  6
CONTINUOUS
 62
     3
 10
-342.966043
 20
162.968968
 30
0.0
 11
-343.566043
 21
162.368968
 31
0.0
  0
LINE
  8
Nor_
  5
0
  6
CONTINUOUS
 62
     3
 10
-343.036754
 20
162.968968
 30
0.0
 11
-343.636754
 21
162.368968
 31
0.0
  0
LINE
  8
Nor_
  5
0
  6
CONTINUOUS
 62
     3
 10
-343.107464
 20
162.968968
 30
0.0
 11
-343.707464
 21
162.368968
 31
0.0
  0
LINE
  8
Nor_
  5
0
  6
CONTINUOUS
 62
     3
 10
-343.178175
 20
162.968968
 30
0.0
 11
-343.778175
 21
162.368968
 31
0.0
  0
LINE
  8
Nor_
  5
0
  6
CONTINUOUS
 62
     3
 10
-343.248886
 20
162.968968
 30
0.0
 11
-343.848886
 21
162.368968
 31
0.0
  0
LINE
  8
Nor_
  5
0
  6
CONTINUOUS
 62
     3
 10
-343.319596
 20
162.968968
 30
0.0
 11
-343.919597
 21
162.368968
 31
0.0
  0
LINE
  8
Nor_
  5
0
  6
CONTINUOUS
 62
     3
 10
-343.390307
 20
162.968968
 30
0.0
 11
-343.990307
 21
162.368968
 31
0.0
  0
LINE
  8
Nor_
  5
0
  6
CONTINUOUS
 62
     3
 10
-343.461018
 20
162.968968
 30
0.0
 11
-344.061018
 21
162.368968
 31
0.0
  0
LINE
  8
Nor_
  5
0
  6
CONTINUOUS
 62
     3
 10
-343.531728
 20
162.968968
 30
0.0
 11
-344.131729
 21
162.368968
 31
0.0
  0
LINE
  8
Nor_
  5
0
  6
CONTINUOUS
 62
     3
 10
-343.602439
 20
162.968968
 30
0.0
 11
-344.202439
 21
162.368968
 31
0.0
  0
LINE
  8
Nor_
  5
0
  6
CONTINUOUS
 62
     3
 10
-343.673150
 20
162.968968
 30
0.0
 11
-344.273150
 21
162.368968
 31
0.0
  0
LINE
  8
Nor_
  5
0
  6
CONTINUOUS
 62
     3
 10
-343.743860
 20
162.968968
 30
0.0
 11
-344.343861
 21
162.368968
 31
0.0
  0
LINE
  8
Nor_
  5
0
  6
CONTINUOUS
 62
     3
 10
-343.814571
 20
162.968968
 30
0.0
 11
-344.414571
 21
162.368968
 31
0.0
  0
LINE
  8
Nor_
  5
0
  6
CONTINUOUS
 62
     3
 10
-343.885282
 20
162.968968
 30
0.0
 11
-344.485282
 21
162.368968
 31
0.0
  0
LINE
  8
Nor_
  5
0
  6
CONTINUOUS
 62
     3
 10
-343.955993
 20
162.968968
 30
0.0
 11
-344.555993
 21
162.368968
 31
0.0
  0
LINE
  8
Nor_
  5
0
  6
CONTINUOUS
 62
     3
 10
-344.026703
 20
162.968968
 30
0.0
 11
-344.626703
 21
162.368968
 31
0.0
  0
LINE
  8
Nor_
  5
0
  6
CONTINUOUS
 62
     3
 10
-344.097414
 20
162.968968
 30
0.0
 11
-344.697414
 21
162.368968
 31
0.0
  0
LINE
  8
Nor_
  5
0
  6
CONTINUOUS
 62
     3
 10
-344.168125
 20
162.968968
 30
0.0
 11
-344.768125
 21
162.368968
 31
0.0
  0
LINE
  8
Nor_
  5
0
  6
CONTINUOUS
 62
     3
 10
-344.238835
 20
162.968968
 30
0.0
 11
-344.838835
 21
162.368968
 31
0.0
  0
LINE
  8
Nor_
  5
0
  6
CONTINUOUS
 62
     3
 10
-344.309546
 20
162.968968
 30
0.0
 11
-344.909546
 21
162.368968
 31
0.0
  0
LINE
  8
Nor_
  5
0
  6
CONTINUOUS
 62
     3
 10
-344.380257
 20
162.968968
 30
0.0
 11
-344.980257
 21
162.368968
 31
0.0
  0
LINE
  8
Nor_
  5
0
  6
CONTINUOUS
 62
     3
 10
-344.450967
 20
162.968968
 30
0.0
 11
-345.050968
 21
162.368968
 31
0.0
  0
LINE
  8
Nor_
  5
0
  6
CONTINUOUS
 62
     3
 10
-344.521678
 20
162.968968
 30
0.0
 11
-345.121678
 21
162.368968
 31
0.0
  0
LINE
  8
Nor_
  5
0
  6
CONTINUOUS
 62
     3
 10
-344.592389
 20
162.968968
 30
0.0
 11
-345.192389
 21
162.368968
 31
0.0
  0
LINE
  8
Nor_
  5
0
  6
CONTINUOUS
 62
     3
 10
-344.663099
 20
162.968968
 30
0.0
 11
-345.263100
 21
162.368968
 31
0.0
  0
LINE
  8
Nor_
  5
0
  6
CONTINUOUS
 62
     3
 10
-344.733810
 20
162.968968
 30
0.0
 11
-345.333810
 21
162.368968
 31
0.0
  0
LINE
  8
Nor_
  5
0
  6
CONTINUOUS
 62
     3
 10
-344.804521
 20
162.968968
 30
0.0
 11
-345.404521
 21
162.368968
 31
0.0
  0
LINE
  8
Nor_
  5
0
  6
CONTINUOUS
 62
     3
 10
-344.875232
 20
162.968968
 30
0.0
 11
-345.475232
 21
162.368968
 31
0.0
  0
LINE
  8
Nor_
  5
0
  6
CONTINUOUS
 62
     3
 10
-344.945942
 20
162.968968
 30
0.0
 11
-345.545942
 21
162.368968
 31
0.0
  0
LINE
  8
Nor_
  5
0
  6
CONTINUOUS
 62
     3
 10
-345.016653
 20
162.968968
 30
0.0
 11
-345.616653
 21
162.368968
 31
0.0
  0
LINE
  8
Nor_
  5
0
  6
CONTINUOUS
 62
     3
 10
-345.087364
 20
162.968968
 30
0.0
 11
-345.687364
 21
162.368968
 31
0.0
  0
LINE
  8
Nor_
  5
0
  6
CONTINUOUS
 62
     3
 10
-345.158074
 20
162.968968
 30
0.0
 11
-345.758074
 21
162.368968
 31
0.0
  0
LINE
  8
Nor_
  5
0
  6
CONTINUOUS
 62
     3
 10
-345.228785
 20
162.968968
 30
0.0
 11
-345.828785
 21
162.368968
 31
0.0
  0
LINE
  8
Nor_
  5
0
  6
CONTINUOUS
 62
     3
 10
-345.299496
 20
162.968968
 30
0.0
 11
-345.899496
 21
162.368968
 31
0.0
  0
LINE
  8
Nor_
  5
0
  6
CONTINUOUS
 62
     3
 10
-345.370206
 20
162.968968
 30
0.0
 11
-345.970207
 21
162.368968
 31
0.0
  0
LINE
  8
Nor_
  5
0
  6
CONTINUOUS
 62
     3
 10
-345.440917
 20
162.968968
 30
0.0
 11
-346.040917
 21
162.368968
 31
0.0
  0
LINE
  8
Nor_
  5
0
  6
CONTINUOUS
 62
     3
 10
-345.511628
 20
162.968968
 30
0.0
 11
-346.111628
 21
162.368968
 31
0.0
  0
LINE
  8
Nor_
  5
0
  6
CONTINUOUS
 62
     3
 10
-345.582338
 20
162.968968
 30
0.0
 11
-346.182339
 21
162.368968
 31
0.0
  0
LINE
  8
Nor_
  5
0
  6
CONTINUOUS
 62
     3
 10
-345.653049
 20
162.968968
 30
0.0
 11
-346.253049
 21
162.368968
 31
0.0
  0
LINE
  8
Nor_
  5
0
  6
CONTINUOUS
 62
     3
 10
-345.723760
 20
162.968968
 30
0.0
 11
-346.323760
 21
162.368968
 31
0.0
  0
LINE
  8
Nor_
  5
0
  6
CONTINUOUS
 62
     3
 10
-345.794470
 20
162.968968
 30
0.0
 11
-346.394471
 21
162.368968
 31
0.0
  0
LINE
  8
Nor_
  5
0
  6
CONTINUOUS
 62
     3
 10
-345.865181
 20
162.968968
 30
0.0
 11
-346.465181
 21
162.368968
 31
0.0
  0
LINE
  8
Nor_
  5
0
  6
CONTINUOUS
 62
     3
 10
-345.935892
 20
162.968968
 30
0.0
 11
-346.535892
 21
162.368968
 31
0.0
  0
LINE
  8
Nor_
  5
0
  6
CONTINUOUS
 62
     3
 10
-346.006603
 20
162.968968
 30
0.0
 11
-346.606603
 21
162.368968
 31
0.0
  0
LINE
  8
Nor_
  5
0
  6
CONTINUOUS
 62
     3
 10
-346.077313
 20
162.968968
 30
0.0
 11
-346.677313
 21
162.368968
 31
0.0
  0
LINE
  8
Nor_
  5
0
  6
CONTINUOUS
 62
     3
 10
-346.148024
 20
162.968968
 30
0.0
 11
-346.748024
 21
162.368968
 31
0.0
  0
LINE
  8
Nor_
  5
0
  6
CONTINUOUS
 62
     3
 10
-346.218735
 20
162.968968
 30
0.0
 11
-346.818735
 21
162.368968
 31
0.0
  0
LINE
  8
Nor_
  5
0
  6
CONTINUOUS
 62
     3
 10
-346.289445
 20
162.968968
 30
0.0
 11
-346.889446
 21
162.368968
 31
0.0
  0
LINE
  8
Nor_
  5
0
  6
CONTINUOUS
 62
     3
 10
-346.360156
 20
162.968968
 30
0.0
 11
-346.960156
 21
162.368968
 31
0.0
  0
LINE
  8
Nor_
  5
0
  6
CONTINUOUS
 62
     3
 10
-346.430867
 20
162.968968
 30
0.0
 11
-347.030867
 21
162.368968
 31
0.0
  0
LINE
  8
Nor_
  5
0
  6
CONTINUOUS
 62
     3
 10
-346.501577
 20
162.968968
 30
0.0
 11
-347.101578
 21
162.368968
 31
0.0
  0
LINE
  8
Nor_
  5
0
  6
CONTINUOUS
 62
     3
 10
-346.572288
 20
162.968968
 30
0.0
 11
-347.172288
 21
162.368968
 31
0.0
  0
LINE
  8
Nor_
  5
0
  6
CONTINUOUS
 62
     3
 10
-346.642999
 20
162.968968
 30
0.0
 11
-347.242999
 21
162.368968
 31
0.0
  0
LINE
  8
Nor_
  5
0
  6
CONTINUOUS
 62
     3
 10
-346.713709
 20
162.968968
 30
0.0
 11
-347.313710
 21
162.368968
 31
0.0
  0
LINE
  8
Nor_
  5
0
  6
CONTINUOUS
 62
     3
 10
-346.784420
 20
162.968968
 30
0.0
 11
-347.384420
 21
162.368968
 31
0.0
  0
LINE
  8
Nor_
  5
0
  6
CONTINUOUS
 62
     3
 10
-346.855131
 20
162.968968
 30
0.0
 11
-347.455131
 21
162.368968
 31
0.0
  0
LINE
  8
Nor_
  5
0
  6
CONTINUOUS
 62
     3
 10
-346.925842
 20
162.968968
 30
0.0
 11
-347.525842
 21
162.368968
 31
0.0
  0
LINE
  8
Nor_
  5
0
  6
CONTINUOUS
 62
     3
 10
-346.996552
 20
162.968968
 30
0.0
 11
-347.596552
 21
162.368968
 31
0.0
  0
LINE
  8
Nor_
  5
0
  6
CONTINUOUS
 62
     3
 10
-347.067263
 20
162.968968
 30
0.0
 11
-347.667263
 21
162.368968
 31
0.0
  0
LINE
  8
Nor_
  5
0
  6
CONTINUOUS
 62
     3
 10
-347.137974
 20
162.968968
 30
0.0
 11
-347.737974
 21
162.368968
 31
0.0
  0
LINE
  8
Nor_
  5
0
  6
CONTINUOUS
 62
     3
 10
-347.208684
 20
162.968968
 30
0.0
 11
-347.808684
 21
162.368968
 31
0.0
  0
LINE
  8
Nor_
  5
0
  6
CONTINUOUS
 62
     3
 10
-347.279395
 20
162.968968
 30
0.0
 11
-347.879395
 21
162.368968
 31
0.0
  0
LINE
  8
Nor_
  5
0
  6
CONTINUOUS
 62
     3
 10
-347.350106
 20
162.968968
 30
0.0
 11
-347.950106
 21
162.368968
 31
0.0
  0
LINE
  8
Nor_
  5
0
  6
CONTINUOUS
 62
     3
 10
-347.420816
 20
162.968968
 30
0.0
 11
-348.020817
 21
162.368968
 31
0.0
  0
LINE
  8
Nor_
  5
0
  6
CONTINUOUS
 62
     3
 10
-347.491527
 20
162.968968
 30
0.0
 11
-348.091527
 21
162.368968
 31
0.0
  0
LINE
  8
Nor_
  5
0
  6
CONTINUOUS
 62
     3
 10
-347.562238
 20
162.968968
 30
0.0
 11
-348.162238
 21
162.368968
 31
0.0
  0
LINE
  8
Nor_
  5
0
  6
CONTINUOUS
 62
     3
 10
-347.632948
 20
162.968968
 30
0.0
 11
-348.232949
 21
162.368968
 31
0.0
  0
LINE
  8
Nor_
  5
0
  6
CONTINUOUS
 62
     3
 10
-347.703659
 20
162.968968
 30
0.0
 11
-348.303659
 21
162.368968
 31
0.0
  0
LINE
  8
Nor_
  5
0
  6
CONTINUOUS
 62
     3
 10
-347.774370
 20
162.968968
 30
0.0
 11
-348.374370
 21
162.368968
 31
0.0
  0
LINE
  8
Nor_
  5
0
  6
CONTINUOUS
 62
     3
 10
-347.845080
 20
162.968968
 30
0.0
 11
-348.445081
 21
162.368968
 31
0.0
  0
LINE
  8
Nor_
  5
0
  6
CONTINUOUS
 62
     3
 10
-347.915791
 20
162.968968
 30
0.0
 11
-348.515791
 21
162.368968
 31
0.0
  0
LINE
  8
Nor_
  5
0
  6
CONTINUOUS
 62
     3
 10
-347.986502
 20
162.968968
 30
0.0
 11
-348.586502
 21
162.368968
 31
0.0
  0
LINE
  8
Nor_
  5
0
  6
CONTINUOUS
 62
     3
 10
-348.057213
 20
162.968968
 30
0.0
 11
-348.657213
 21
162.368968
 31
0.0
  0
LINE
  8
Nor_
  5
0
  6
CONTINUOUS
 62
     3
 10
-348.127923
 20
162.968968
 30
0.0
 11
-348.727923
 21
162.368968
 31
0.0
  0
LINE
  8
Nor_
  5
0
  6
CONTINUOUS
 62
     3
 10
-348.198634
 20
162.968968
 30
0.0
 11
-348.798634
 21
162.368968
 31
0.0
  0
LINE
  8
Nor_
  5
0
  6
CONTINUOUS
 62
     3
 10
-348.269345
 20
162.968968
 30
0.0
 11
-348.869345
 21
162.368968
 31
0.0
  0
LINE
  8
Nor_
  5
0
  6
CONTINUOUS
 62
     3
 10
-348.340055
 20
162.968968
 30
0.0
 11
-348.940056
 21
162.368968
 31
0.0
  0
LINE
  8
Nor_
  5
0
  6
CONTINUOUS
 62
     3
 10
-348.410766
 20
162.968968
 30
0.0
 11
-349.010766
 21
162.368968
 31
0.0
  0
LINE
  8
Nor_
  5
0
  6
CONTINUOUS
 62
     3
 10
-348.481477
 20
162.968968
 30
0.0
 11
-349.081477
 21
162.368968
 31
0.0
  0
LINE
  8
Nor_
  5
0
  6
CONTINUOUS
 62
     3
 10
-348.552187
 20
162.968968
 30
0.0
 11
-349.152188
 21
162.368968
 31
0.0
  0
LINE
  8
Nor_
  5
0
  6
CONTINUOUS
 62
     3
 10
-348.622898
 20
162.968968
 30
0.0
 11
-349.222898
 21
162.368968
 31
0.0
  0
LINE
  8
Nor_
  5
0
  6
CONTINUOUS
 62
     3
 10
-348.693609
 20
162.968968
 30
0.0
 11
-349.293609
 21
162.368968
 31
0.0
  0
LINE
  8
Nor_
  5
0
  6
CONTINUOUS
 62
     3
 10
-348.764319
 20
162.968968
 30
0.0
 11
-349.364320
 21
162.368968
 31
0.0
  0
LINE
  8
Nor_
  5
0
  6
CONTINUOUS
 62
     3
 10
-348.835030
 20
162.968968
 30
0.0
 11
-349.435030
 21
162.368968
 31
0.0
  0
LINE
  8
Nor_
  5
0
  6
CONTINUOUS
 62
     3
 10
-348.905741
 20
162.968968
 30
0.0
 11
-349.505741
 21
162.368968
 31
0.0
  0
LINE
  8
Nor_
  5
0
  6
CONTINUOUS
 62
     3
 10
-348.976452
 20
162.968968
 30
0.0
 11
-349.576452
 21
162.368968
 31
0.0
  0
LINE
  8
Nor_
  5
0
  6
CONTINUOUS
 62
     3
 10
-349.047162
 20
162.968968
 30
0.0
 11
-349.647162
 21
162.368968
 31
0.0
  0
LINE
  8
Nor_
  5
0
  6
CONTINUOUS
 62
     3
 10
-349.117873
 20
162.968968
 30
0.0
 11
-349.717873
 21
162.368968
 31
0.0
  0
LINE
  8
Nor_
  5
0
  6
CONTINUOUS
 62
     3
 10
-349.188584
 20
162.968968
 30
0.0
 11
-349.788584
 21
162.368968
 31
0.0
  0
LINE
  8
Nor_
  5
0
  6
CONTINUOUS
 62
     3
 10
-349.259294
 20
162.968968
 30
0.0
 11
-349.859294
 21
162.368968
 31
0.0
  0
LINE
  8
Nor_
  5
0
  6
CONTINUOUS
 62
     3
 10
-349.330005
 20
162.968968
 30
0.0
 11
-349.930005
 21
162.368968
 31
0.0
  0
LINE
  8
Nor_
  5
0
  6
CONTINUOUS
 62
     3
 10
-349.400716
 20
162.968968
 30
0.0
 11
-350.000716
 21
162.368968
 31
0.0
  0
LINE
  8
Nor_
  5
0
  6
CONTINUOUS
 62
     3
 10
-349.471426
 20
162.968968
 30
0.0
 11
-350.071427
 21
162.368968
 31
0.0
  0
LINE
  8
Nor_
  5
0
  6
CONTINUOUS
 62
     3
 10
-349.542137
 20
162.968968
 30
0.0
 11
-350.142137
 21
162.368968
 31
0.0
  0
LINE
  8
Nor_
  5
0
  6
CONTINUOUS
 62
     3
 10
-349.612848
 20
162.968968
 30
0.0
 11
-350.212848
 21
162.368968
 31
0.0
  0
LINE
  8
Nor_
  5
0
  6
CONTINUOUS
 62
     3
 10
-349.683558
 20
162.968968
 30
0.0
 11
-350.283559
 21
162.368968
 31
0.0
  0
LINE
  8
Nor_
  5
0
  6
CONTINUOUS
 62
     3
 10
-349.754269
 20
162.968968
 30
0.0
 11
-350.354269
 21
162.368968
 31
0.0
  0
LINE
  8
Nor_
  5
0
  6
CONTINUOUS
 62
     3
 10
-349.824980
 20
162.968968
 30
0.0
 11
-350.424980
 21
162.368968
 31
0.0
  0
LINE
  8
Nor_
  5
0
  6
CONTINUOUS
 62
     3
 10
-349.895690
 20
162.968968
 30
0.0
 11
-350.495691
 21
162.368968
 31
0.0
  0
LINE
  8
Nor_
  5
0
  6
CONTINUOUS
 62
     3
 10
-349.966401
 20
162.968968
 30
0.0
 11
-350.566401
 21
162.368968
 31
0.0
  0
LINE
  8
Nor_
  5
0
  6
CONTINUOUS
 62
     3
 10
-350.037112
 20
162.968968
 30
0.0
 11
-350.637112
 21
162.368968
 31
0.0
  0
LINE
  8
Nor_
  5
0
  6
CONTINUOUS
 62
     3
 10
-350.107823
 20
162.968968
 30
0.0
 11
-350.666905
 21
162.409886
 31
0.0
  0
LINE
  8
Nor_
  5
0
  6
CONTINUOUS
 62
     3
 10
-350.178533
 20
162.968968
 30
0.0
 11
-350.666905
 21
162.480597
 31
0.0
  0
LINE
  8
Nor_
  5
0
  6
CONTINUOUS
 62
     3
 10
-350.249244
 20
162.968968
 30
0.0
 11
-350.666905
 21
162.551308
 31
0.0
  0
LINE
  8
Nor_
  5
0
  6
CONTINUOUS
 62
     3
 10
-350.319955
 20
162.968968
 30
0.0
 11
-350.666905
 21
162.622018
 31
0.0
  0
LINE
  8
Nor_
  5
0
  6
CONTINUOUS
 62
     3
 10
-350.390665
 20
162.968968
 30
0.0
 11
-350.666905
 21
162.692729
 31
0.0
  0
LINE
  8
Nor_
  5
0
  6
CONTINUOUS
 62
     3
 10
-350.461376
 20
162.968968
 30
0.0
 11
-350.666905
 21
162.763440
 31
0.0
  0
LINE
  8
Nor_
  5
0
  6
CONTINUOUS
 62
     3
 10
-350.532087
 20
162.968968
 30
0.0
 11
-350.666905
 21
162.834150
 31
0.0
  0
LINE
  8
Nor_
  5
0
  6
CONTINUOUS
 62
     3
 10
-350.602797
 20
162.968968
 30
0.0
 11
-350.666905
 21
162.904861
 31
0.0
  0
ARC
  8
Nor_
  5
0
  6
CONTINUOUS
 62
     1
 10
-348.848885
 20
168.150949
 30
0.0
 40
0.7
 50
81.341203
 51
188.658797
  0
ARC
  8
Nor_
  5
0
  6
CONTINUOUS
 62
     1
 10
-348.668225
 20
169.337272
 30
0.0
 40
0.500000
 50
261.341203
 51
304.491704
  0
ARC
  8
Nor_
  5
0
  6
CONTINUOUS
 62
     1
 10
-345.666905
 20
169.468968
 30
0.0
 40
0.700000
 50
90.0
 51
143.658797
  0
ARC
  8
Nor_
  5
0
  6
CONTINUOUS
 62
     1
 10
-345.666905
 20
164.968968
 30
0.0
 40
4.800000
 50
13.940698
 51
34.491704
  0
ARC
  8
Nor_
  5
0
  6
CONTINUOUS
 62
     1
 10
-341.298601
 20
167.970289
 30
0.0
 40
0.5
 50
171.341203
 51
214.491704
  0
ARC
  8
Nor_
  5
0
  6
CONTINUOUS
 62
     1
 10
-345.666905
 20
164.968968
 30
0.0
 40
4.800000
 50
55.508296
 51
79.491704
  0
ARC
  8
Nor_
  5
0
  6
CONTINUOUS
 62
     1
 10
-344.700302
 20
170.180080
 30
0.0
 40
0.500000
 50
216.341203
 51
259.491704
  0
LINE
  8
Nor_
  5
0
  6
CONTINUOUS
 62
     1
 10
-341.356151
 20
164.562239
 30
0.0
 11
-344.290605
 21
165.348524
 31
0.0
  0
ARC
  8
Nor_
  5
0
  6
CONTINUOUS
 62
     1
 10
-341.174977
 20
165.238387
 30
0.0
 40
0.7
 50
254.999992
 51
417.091199
  0
ARC
  8
Nor_
  5
0
  6
CONTINUOUS
 62
     1
 10
-340.523013
 20
166.245831
 30
0.0
 40
0.500000
 50
193.940698
 51
237.091199
  0
ARC
  8
Nor_
  5
0
  6
CONTINUOUS
 62
     1
 10
-344.445897
 20
164.768968
 30
0.0
 40
0.600000
 50
75.000000
 51
90.000000
  0
LINE
  8
Nor_
  5
0
  6
CONTINUOUS
 62
     1
 10
-344.445897
 20
165.368968
 30
0.0
 11
-345.666905
 21
165.368968
 31
0.0
  0
ARC
  8
Nor_
  5
0
  6
CONTINUOUS
 62
     1
 10
-342.484924
 20
168.150949
 30
0.0
 40
0.700000
 50
351.341203
 51
458.658797
  0
ARC
  8
Nor_
  5
0
  6
CONTINUOUS
 62
     1
 10
-342.665584
 20
169.337272
 30
0.0
 40
0.500000
 50
235.508296
 51
278.658797
  0
ARC
  8
Nor_
  5
0
  6
CONTINUOUS
 62
     1
 10
-345.666905
 20
169.468968
 30
0.0
 40
0.700000
 50
36.341203
 51
90.000000
  0
ENDSEC
  0
EOF
