  0
SECTION
  2
HEADER
  9
$EXTMIN
 10
-12.117182
 20
-12.556053
 30
0.0
  9
$EXTMAX
 10
12.466672
 20
13.693145
 30
0.0
  9
$DIMPOST
  1

  9
$DIMSCALE
 40
1.0
  9
$DIMTXT
 40
3.0
  9
$DIMASZ
 40
3.0
  9
$DIMEXO
 40
0.5
  9
$DIMEXE
 40
0.5
  9
$DIMSE1
 70
     0
  9
$DIMSE2
 70
     0
  9
$DIMBLK
  1
CND_FRECCIA
  9
$DIMBLK1
  1
CND_FRECCIA
  9
$DIMBLK2
  1
CND_PALLINO
  9
$DIMTAD
 70
     0
  9
$DIMTIH
 70
     0
  9
$DIMTIX
 70
     0
  9
$DIMTOL
 70
     0
  0
ENDSEC
  0
SECTION
  2
TABLES
  0
TABLE
  2
LTYPE
 70
    50
  0
LTYPE
  2
CONTINUOUS
 70
     0
  3
Solid line
 72
    65
 73
     0
 40
0.0
  0
LTYPE
  2
DASHED
 70
     0
  3
-- -- --
 72
    65
 73
     2
 40
0.75
 49
0.5
 49
-0.25
  0
LTYPE
  2
HIDDEN
 70
     0
  3
-  -  -  -
 72
    65
 73
     2
 40
0.375
 49
0.25
 49
-0.125
  0
LTYPE
  2
CENTER
 70
     0
  3
-- - -- -
 72
    65
 73
     4
 40
2.0
 49
1.25
 49
-0.25
 49
0.25
 49
-0.25
  0
LTYPE
  2
PHANTOM
 70
     0
  3
-- - - --
 72
    65
 73
     6
 40
2.5
 49
1.25
 49
-0.25
 49
0.25
 49
-0.25
 49
0.25
 49
-0.25
  0
LTYPE
  2
DOT
 70
     0
  3
. . . . .
 72
    65
 73
     2
 40
0.25
 49
0.0
 49
-0.25
  0
LTYPE
  2
DASHDOT
 70
     0
  3
-- . -- .
 72
    65
 73
     4
 40
1.0
 49
0.5
 49
-0.25
 49
0.0
 49
-0.25
  0
LTYPE
  2
BORDER
 70
     0
  3
-- -- . -
 72
    65
 73
     6
 40
1.75
 49
0.5
 49
-0.25
 49
0.5
 49
-0.25
 49
0.0
 49
-0.25
  0
LTYPE
  2
DIVIDE
 70
     0
  3
-- .. -- 
 72
    65
 73
     6
 40
1.25
 49
0.5
 49
-0.25
 49
0.0
 49
-0.25
 49
0.0
 49
-0.25
  0
ENDTAB
  0
TABLE
  2
LAYER
 70
    18
  0
LAYER
  2
Nor_
 70
     0
 62
     1
  6
CONTINUOUS
  0
LAYER
  2
Assi
 70
     0
 62
     2
  6
DASHDOT
  0
LAYER
  2
Fil_
 70
     0
 62
    11
  6
HIDDEN
  0
LAYER
  2
Raf_
 70
     0
 62
     4
  6
HIDDEN
  0
LAYER
  2
Sez_
 70
     0
 62
     6
  6
DASHDOT
  0
LAYER
  2
Sim_
 70
     0
 62
     1
  6
CONTINUOUS
  0
LAYER
  2
Est_
 70
     0
 62
     9
  6
CONTINUOUS
  0
LAYER
  2
Col_
 70
     0
 62
     1
  6
CONTINUOUS
  0
LAYER
  2
Tab_
 70
     0
 62
     1
  6
CONTINUOUS
  0
LAYER
  2
9
 70
     0
 62
     1
  6
CONTINUOUS
  0
LAYER
  2
Tra_
 70
     0
 62
     8
  6
HIDDEN
  0
LAYER
  2
11
 70
     0
 62
     1
  6
CONTINUOUS
  0
LAYER
  2
12
 70
     0
 62
     1
  6
CONTINUOUS
  0
LAYER
  2
sot_
 70
     0
 62
    11
  6
CONTINUOUS
  0
LAYER
  2
tes_
 70
     0
 62
     1
  6
CONTINUOUS
  0
LAYER
  2
fini
 70
     0
 62
    14
  6
CONTINUOUS
  0
LAYER
  2
Campiture
 70
     0
 62
     3
  6
CONTINUOUS
  0
LAYER
  2
Quote
 70
     0
 62
     7
  6
CONTINUOUS
  0
ENDTAB
  0
TABLE
  2
STYLE
 70
     1
  0
STYLE
  2
ROMANS
 70
     0
 40
0.0
 41
0.85
 50
0.0
 71
     0
 42
1.0
  3
ROMANS
  4

  0
ENDTAB
  0
TABLE
  2
DIMSTYLE
 70
     2
  0
DIMSTYLE
  2
CNDRAFT
 70
     0
  3

  4

  5
CND_FRECCIA
  6
CND_PALLINO
  7
CND_FRECCIA
 40
1.0
 41
3.0
 42
0.5
 43
0.0
 44
0.5
 45
0.0
 46
0.0
 47
0.0
 48
0.0
 71
     0
 72
     0
 73
     0
 74
     0
 75
     0
 76
     0
 77
     1
 78
     8
140
3.0
141
0.0
142
0.0
143
25.4
144
1.0
145
0.0
146
0.0
147
0.75
170
     0
171
     0
172
     1
173
     0
174
     0
175
     0
176
     7
177
     7
178
     1
271
     2
272
     3
275
     0
  0
ENDTAB
  0
ENDSEC
  0
SECTION
  2
BLOCKS
  0
BLOCK
  8
0
  2
CND_FRECCIA
 70
    66
 10
0.0
 20
0.0
 30
0.0
  0
INSERT
  8
0
  5
0
  2
FRECCIA
 10
0.0
 20
0.0
 30
0.0
 41
-1.0
  0
ENDBLK
  0
BLOCK
  8
0
  2
CND_PALLINO
 70
    66
 10
0.0
 20
0.0
 30
0.0
  0
INSERT
  8
0
  5
0
  2
PALLINO
 10
0.0
 20
0.0
 30
0.0
 41
-1.0
  0
ENDBLK
  0
BLOCK
  8
0
  2
PALLINO
 70
    66
 10
0.0
 20
0.0
 30
0.0
  0
CIRCLE
  8
Sez_
  5
0
  6
CONTINUOUS
 62
     2
 10
0.0
 20
0.0
 30
0.0
 40
0.231555
  0
ENDBLK
  0
BLOCK
  8
0
  2
FRECCIA
 70
    66
 10
0.0
 20
0.0
 30
0.0
  0
LINE
  8
Nor_
  5
0
  6
CONTINUOUS
 62
    11
 10
0.0
 20
0.0
 30
0.0
 11
1.0
 21
-0.168424
 31
0.0
  0
LINE
  8
Nor_
  5
0
  6
CONTINUOUS
 62
    11
 10
1.0
 20
-0.168424
 30
0.0
 11
0.791691
 21
0.0
 31
0.0
  0
LINE
  8
Nor_
  5
0
  6
CONTINUOUS
 62
    11
 10
0.0
 20
0.0
 30
0.0
 11
1.0
 21
0.182296
 31
0.0
  0
LINE
  8
Nor_
  5
0
  6
CONTINUOUS
 62
    11
 10
1.0
 20
0.182296
 30
0.0
 11
0.791691
 21
0.0
 31
0.0
  0
ENDBLK
  0
ENDSEC
  0
SECTION
  2
ENTITIES
  0
ARC
  8
Nor_
  5
0
  6
CONTINUOUS
 62
     1
 10
-0.1
 20
6.2
 30
0.0
 40
0.300000
 50
90.0
 51
180.000000
  0
LINE
  8
Nor_
  5
0
  6
CONTINUOUS
 62
     1
 10
0.4
 20
6.200000
 30
0.0
 11
0.4
 21
5.524264
 31
0.0
  0
LINE
  8
Nor_
  5
0
  6
CONTINUOUS
 62
     1
 10
0.4
 20
4.475736
 30
0.0
 11
0.4
 21
4.024264
 31
0.0
  0
ARC
  8
Nor_
  5
0
  6
CONTINUOUS
 62
     1
 10
0.100000
 20
2.975736
 30
0.0
 40
0.300000
 50
0.0
 51
45.000000
  0
LINE
  8
Nor_
  5
0
  6
CONTINUOUS
 62
     1
 10
0.312132
 20
3.812132
 30
0.0
 11
0.070711
 21
3.570711
 31
0.0
  0
ARC
  8
Nor_
  5
0
  6
CONTINUOUS
 62
     1
 10
0.100000
 20
4.024264
 30
0.0
 40
0.300000
 50
315.000000
 51
360.000000
  0
LINE
  8
Nor_
  5
0
  6
CONTINUOUS
 62
     1
 10
0.070711
 20
3.429289
 30
0.0
 11
0.312132
 21
3.187868
 31
0.0
  0
ARC
  8
Nor_
  5
0
  6
CONTINUOUS
 62
     1
 10
0.141421
 20
3.5
 30
0.0
 40
0.100000
 50
135.000000
 51
225.000000
  0
LINE
  8
Nor_
  5
0
  6
CONTINUOUS
 62
     1
 10
-0.100000
 20
6.500000
 30
0.0
 11
0.1
 21
6.500000
 31
0.0
  0
ARC
  8
Nor_
  5
0
  6
CONTINUOUS
 62
     1
 10
0.100000
 20
6.200000
 30
0.0
 40
0.3
 50
0.0
 51
90.000000
  0
ARC
  8
Nor_
  5
0
  6
CONTINUOUS
 62
     1
 10
0.100000
 20
4.475736
 30
0.0
 40
0.300000
 50
0.0
 51
45.000000
  0
LINE
  8
Nor_
  5
0
  6
CONTINUOUS
 62
     1
 10
0.312132
 20
5.312132
 30
0.0
 11
0.070711
 21
5.070711
 31
0.0
  0
ARC
  8
Nor_
  5
0
  6
CONTINUOUS
 62
     1
 10
0.100000
 20
5.524264
 30
0.0
 40
0.300000
 50
315.000000
 51
360.000000
  0
LINE
  8
Nor_
  5
0
  6
CONTINUOUS
 62
     1
 10
0.070711
 20
4.929289
 30
0.0
 11
0.312132
 21
4.687868
 31
0.0
  0
ARC
  8
Nor_
  5
0
  6
CONTINUOUS
 62
     1
 10
0.141421
 20
5.0
 30
0.0
 40
0.100000
 50
135.000000
 51
225.000000
  0
LINE
  8
Nor_
  5
0
  6
CONTINUOUS
 62
     1
 10
-0.400000
 20
1.3
 30
0.0
 11
-0.400000
 21
6.200000
 31
0.0
  0
LINE
  8
Nor_
  5
0
  6
CONTINUOUS
 62
     1
 10
0.4
 20
2.975736
 30
0.0
 11
0.4
 21
1.3
 31
0.0
  0
LINE
  8
Nor_
  5
0
  6
CONTINUOUS
 62
     1
 10
-3.404196
 20
0.5
 30
0.0
 11
3.404196
 21
0.5
 31
0.0
  0
LINE
  8
Nor_
  5
0
  6
CONTINUOUS
 62
     3
 10
0.4
 20
1.914214
 30
0.0
 11
-0.400000
 21
2.714214
 31
0.0
  0
LINE
  8
Nor_
  5
0
  6
CONTINUOUS
 62
     3
 10
0.114214
 20
3.614214
 30
0.0
 11
-0.400000
 21
4.128427
 31
0.0
  0
LINE
  8
Nor_
  5
0
  6
CONTINUOUS
 62
     3
 10
0.071320
 20
5.071320
 30
0.0
 11
-0.400000
 21
5.542641
 31
0.0
  0
LINE
  8
Nor_
  5
0
  6
CONTINUOUS
 62
     3
 10
0.4
 20
6.156854
 30
0.0
 11
0.056854
 21
6.5
 31
0.0
  0
ARC
  8
Nor_
  5
0
  6
CONTINUOUS
 62
     1
 10
-3.700000
 20
1.000000
 30
0.0
 40
0.3
 50
90.0
 51
180.000000
  0
LINE
  8
Nor_
  5
0
  6
CONTINUOUS
 62
     1
 10
-4.0
 20
1.0
 30
0.0
 11
-4.0
 21
0.55
 31
0.0
  0
ARC
  8
Nor_
  5
0
  6
CONTINUOUS
 62
     1
 10
-3.700000
 20
0.55
 30
0.0
 40
0.3
 50
180.000000
 51
350.405932
  0
LINE
  8
Nor_
  5
0
  6
CONTINUOUS
 62
     1
 10
-3.998858
 20
1.026147
 30
0.0
 11
-3.675150
 21
4.726147
 31
0.0
  0
ARC
  8
Nor_
  5
0
  6
CONTINUOUS
 62
     1
 10
-3.376292
 20
4.700000
 30
0.0
 40
0.3
 50
357.000000
 51
535.000000
  0
LINE
  8
Nor_
  5
0
  6
CONTINUOUS
 62
     1
 10
-3.132784
 20
3.614216
 30
0.0
 11
-3.254067
 21
1.300000
 31
0.0
  0
LINE
  8
Nor_
  5
0
  6
CONTINUOUS
 62
     1
 10
-3.076703
 20
4.684299
 30
0.0
 11
-3.091848
 21
4.395318
 31
0.0
  0
ARC
  8
Nor_
  5
0
  6
CONTINUOUS
 62
     1
 10
-3.236770
 20
4.000000
 30
0.0
 40
0.1
 50
135.000000
 51
225.000000
  0
LINE
  8
Nor_
  5
0
  6
CONTINUOUS
 62
     1
 10
-3.307481
 20
3.929289
 30
0.0
 11
-3.220241
 21
3.842049
 31
0.0
  0
ARC
  8
Nor_
  5
0
  6
CONTINUOUS
 62
     1
 10
-3.432373
 20
3.629917
 30
0.0
 40
0.300000
 50
357.000000
 51
405.000000
  0
LINE
  8
Nor_
  5
0
  6
CONTINUOUS
 62
     1
 10
-3.179305
 20
4.198887
 30
0.0
 11
-3.307481
 21
4.070711
 31
0.0
  0
ARC
  8
Nor_
  5
0
  6
CONTINUOUS
 62
     1
 10
-3.391437
 20
4.411019
 30
0.0
 40
0.300000
 50
315.000000
 51
357.000000
  0
ARC
  8
Nor_
  5
0
  6
CONTINUOUS
 62
     1
 10
3.7
 20
1.0
 30
0.0
 40
0.300000
 50
0.0
 51
90.000000
  0
LINE
  8
Nor_
  5
0
  6
CONTINUOUS
 62
     1
 10
4.0
 20
0.55
 30
0.0
 11
4.0
 21
1.0
 31
0.0
  0
LINE
  8
Nor_
  5
0
  6
CONTINUOUS
 62
     1
 10
3.7
 20
1.3
 30
0.0
 11
-3.7
 21
1.3
 31
0.0
  0
LINE
  8
Nor_
  5
0
  6
CONTINUOUS
 62
     1
 10
3.998858
 20
1.026147
 30
0.0
 11
3.675150
 21
4.726147
 31
0.0
  0
ARC
  8
Nor_
  5
0
  6
CONTINUOUS
 62
     1
 10
3.376292
 20
4.700000
 30
0.0
 40
0.3
 50
5.000000
 51
183.000000
  0
LINE
  8
Nor_
  5
0
  6
CONTINUOUS
 62
     1
 10
3.132784
 20
3.614216
 30
0.0
 11
3.254067
 21
1.300000
 31
0.0
  0
LINE
  8
Nor_
  5
0
  6
CONTINUOUS
 62
     1
 10
3.076703
 20
4.684299
 30
0.0
 11
3.091848
 21
4.395318
 31
0.0
  0
ARC
  8
Nor_
  5
0
  6
CONTINUOUS
 62
     1
 10
3.236770
 20
4.000000
 30
0.0
 40
0.1
 50
315.000000
 51
405.000000
  0
LINE
  8
Nor_
  5
0
  6
CONTINUOUS
 62
     1
 10
3.307481
 20
3.929289
 30
0.0
 11
3.220241
 21
3.842049
 31
0.0
  0
ARC
  8
Nor_
  5
0
  6
CONTINUOUS
 62
     1
 10
3.432373
 20
3.629917
 30
0.0
 40
0.300000
 50
135.000000
 51
183.000000
  0
LINE
  8
Nor_
  5
0
  6
CONTINUOUS
 62
     1
 10
3.179305
 20
4.198887
 30
0.0
 11
3.307481
 21
4.070711
 31
0.0
  0
ARC
  8
Nor_
  5
0
  6
CONTINUOUS
 62
     1
 10
3.391437
 20
4.411019
 30
0.0
 40
0.300000
 50
183.000000
 51
225.000000
  0
LINE
  8
Nor_
  5
0
  6
CONTINUOUS
 62
     3
 10
-3.234368
 20
1.675870
 30
0.0
 11
-3.885085
 21
2.326587
 31
0.0
  0
LINE
  8
Nor_
  5
0
  6
CONTINUOUS
 62
     3
 10
-3.163943
 20
3.019659
 30
0.0
 11
-3.771311
 21
3.627026
 31
0.0
  0
LINE
  8
Nor_
  5
0
  6
CONTINUOUS
 62
     3
 10
-3.095038
 20
4.364967
 30
0.0
 11
-3.613551
 21
4.883480
 31
0.0
  0
LINE
  8
Nor_
  5
0
  6
CONTINUOUS
 62
     3
 10
3.908420
 20
2.059860
 30
0.0
 11
3.175852
 21
2.792428
 31
0.0
  0
LINE
  8
Nor_
  5
0
  6
CONTINUOUS
 62
     3
 10
3.772830
 20
3.609664
 30
0.0
 11
3.153037
 21
4.229457
 31
0.0
  0
LINE
  8
Nor_
  5
0
  6
CONTINUOUS
 62
     1
 10
-3.25
 20
0.5
 30
0.0
 11
-3.25
 21
0.0
 31
0.0
  0
LINE
  8
Nor_
  5
0
  6
CONTINUOUS
 62
     1
 10
3.25
 20
0.0
 30
0.0
 11
3.25
 21
0.5
 31
0.0
  0
LINE
  8
Nor_
  5
0
  6
CONTINUOUS
 62
     1
 10
-3.25
 20
0.0
 30
0.0
 11
3.25
 21
0.0
 31
0.0
  0
LINE
  8
Nor_
  5
0
  6
CONTINUOUS
 62
     3
 10
0.921573
 20
0.5
 30
0.0
 11
0.421573
 21
0.0
 31
0.0
  0
LINE
  8
Nor_
  5
0
  6
CONTINUOUS
 62
     3
 10
-1.906854
 20
0.5
 30
0.0
 11
-2.406854
 21
0.0
 31
0.0
  0
LINE
  8
Nor_
  5
0
  6
CONTINUOUS
 62
     3
 10
0.421573
 20
0.500000
 30
0.0
 11
0.921573
 21
-0.0
 31
0.0
  0
LINE
  8
Nor_
  5
0
  6
CONTINUOUS
 62
     3
 10
-2.406854
 20
0.500000
 30
0.0
 11
-1.906854
 21
-0.0
 31
0.0
  0
ARC
  8
Nor_
  5
0
  6
CONTINUOUS
 62
     1
 10
3.700000
 20
0.55
 30
0.0
 40
0.3
 50
189.594068
 51
360.0
  0
LINE
  8
Nor_
  5
0
  6
CONTINUOUS
 62
     3
 10
4.000000
 20
0.708628
 30
0.0
 11
3.571022
 21
0.279651
 31
0.0
  0
LINE
  8
Nor_
  5
0
  6
CONTINUOUS
 62
     3
 10
4.000000
 20
0.991471
 30
0.0
 11
3.429633
 21
0.421104
 31
0.0
  0
LINE
  8
Nor_
  5
0
  6
CONTINUOUS
 62
     3
 10
3.924254
 20
1.198568
 30
0.0
 11
3.225686
 21
0.5
 31
0.0
  0
LINE
  8
Nor_
  5
0
  6
CONTINUOUS
 62
     3
 10
3.739887
 20
1.297044
 30
0.0
 11
2.942843
 21
0.5
 31
0.0
  0
LINE
  8
Nor_
  5
0
  6
CONTINUOUS
 62
     3
 10
3.460001
 20
1.300000
 30
0.0
 11
2.660000
 21
0.5
 31
0.0
  0
LINE
  8
Nor_
  5
0
  6
CONTINUOUS
 62
     3
 10
3.177158
 20
1.300000
 30
0.0
 11
2.377158
 21
0.500000
 31
0.0
  0
LINE
  8
Nor_
  5
0
  6
CONTINUOUS
 62
     3
 10
2.894315
 20
1.300000
 30
0.0
 11
2.094315
 21
0.5
 31
0.0
  0
LINE
  8
Nor_
  5
0
  6
CONTINUOUS
 62
     3
 10
2.611472
 20
1.300000
 30
0.0
 11
1.811472
 21
0.5
 31
0.0
  0
LINE
  8
Nor_
  5
0
  6
CONTINUOUS
 62
     3
 10
2.328630
 20
1.300000
 30
0.0
 11
1.528629
 21
0.5
 31
0.0
  0
LINE
  8
Nor_
  5
0
  6
CONTINUOUS
 62
     3
 10
2.045787
 20
1.300000
 30
0.0
 11
1.245787
 21
0.5
 31
0.0
  0
LINE
  8
Nor_
  5
0
  6
CONTINUOUS
 62
     3
 10
1.762944
 20
1.300000
 30
0.0
 11
0.962944
 21
0.5
 31
0.0
  0
LINE
  8
Nor_
  5
0
  6
CONTINUOUS
 62
     3
 10
1.480101
 20
1.300000
 30
0.0
 11
0.680101
 21
0.5
 31
0.0
  0
LINE
  8
Nor_
  5
0
  6
CONTINUOUS
 62
     3
 10
1.197259
 20
1.300000
 30
0.0
 11
0.397258
 21
0.5
 31
0.0
  0
LINE
  8
Nor_
  5
0
  6
CONTINUOUS
 62
     3
 10
0.914416
 20
1.300000
 30
0.0
 11
0.114416
 21
0.5
 31
0.0
  0
LINE
  8
Nor_
  5
0
  6
CONTINUOUS
 62
     3
 10
0.631573
 20
1.300000
 30
0.0
 11
-0.168427
 21
0.5
 31
0.0
  0
LINE
  8
Nor_
  5
0
  6
CONTINUOUS
 62
     3
 10
0.348730
 20
1.300000
 30
0.0
 11
-0.451270
 21
0.5
 31
0.0
  0
LINE
  8
Nor_
  5
0
  6
CONTINUOUS
 62
     3
 10
0.065888
 20
1.300000
 30
0.0
 11
-0.734113
 21
0.5
 31
0.0
  0
LINE
  8
Nor_
  5
0
  6
CONTINUOUS
 62
     3
 10
-0.216955
 20
1.300000
 30
0.0
 11
-1.016955
 21
0.5
 31
0.0
  0
LINE
  8
Nor_
  5
0
  6
CONTINUOUS
 62
     3
 10
-0.499798
 20
1.300000
 30
0.0
 11
-1.299798
 21
0.5
 31
0.0
  0
LINE
  8
Nor_
  5
0
  6
CONTINUOUS
 62
     3
 10
-0.782641
 20
1.3
 30
0.0
 11
-1.582641
 21
0.5
 31
0.0
  0
LINE
  8
Nor_
  5
0
  6
CONTINUOUS
 62
     3
 10
-1.065483
 20
1.3
 30
0.0
 11
-1.865484
 21
0.5
 31
0.0
  0
LINE
  8
Nor_
  5
0
  6
CONTINUOUS
 62
     3
 10
-1.348326
 20
1.3
 30
0.0
 11
-2.148326
 21
0.5
 31
0.0
  0
LINE
  8
Nor_
  5
0
  6
CONTINUOUS
 62
     3
 10
-1.631169
 20
1.3
 30
0.0
 11
-2.431169
 21
0.5
 31
0.0
  0
LINE
  8
Nor_
  5
0
  6
CONTINUOUS
 62
     3
 10
-1.914012
 20
1.3
 30
0.0
 11
-2.714012
 21
0.5
 31
0.0
  0
LINE
  8
Nor_
  5
0
  6
CONTINUOUS
 62
     3
 10
-2.196854
 20
1.3
 30
0.0
 11
-2.996855
 21
0.5
 31
0.0
  0
LINE
  8
Nor_
  5
0
  6
CONTINUOUS
 62
     3
 10
-2.479697
 20
1.3
 30
0.0
 11
-3.279697
 21
0.5
 31
0.0
  0
LINE
  8
Nor_
  5
0
  6
CONTINUOUS
 62
     3
 10
-2.762540
 20
1.3
 30
0.0
 11
-3.796397
 21
0.266144
 31
0.0
  0
LINE
  8
Nor_
  5
0
  6
CONTINUOUS
 62
     3
 10
-3.045383
 20
1.3
 30
0.0
 11
-3.954245
 21
0.391138
 31
0.0
  0
LINE
  8
Nor_
  5
0
  6
CONTINUOUS
 62
     3
 10
-3.328225
 20
1.3
 30
0.0
 11
-4.0
 21
0.628226
 31
0.0
  0
LINE
  8
Nor_
  5
0
  6
CONTINUOUS
 62
     3
 10
-3.611068
 20
1.3
 30
0.0
 11
-4.0
 21
0.911068
 31
0.0
  0
LINE
  8
Quote
  5
0
  6
CONTINUOUS
 62
     7
 10
-3.75
 20
0.0
 30
0.0
 11
-8.169734
 21
0.0
 31
0.0
  0
LINE
  8
Quote
  5
0
  6
CONTINUOUS
 62
     7
 10
-3.855365
 20
4.999269
 30
0.0
 11
-8.169734
 21
4.999269
 31
0.0
  0
LINE
  8
Quote
  5
0
  6
CONTINUOUS
 62
     7
 10
-7.669734
 20
-6.0
 30
0.0
 11
-7.669734
 21
10.999269
 31
0.0
  0
LINE
  8
Nor_
  5
0
  6
CONTINUOUS
 62
     7
 10
-7.669734
 20
0.0
 30
0.0
 11
-8.175007
 21
-3.000000
 31
0.0
  0
LINE
  8
Nor_
  5
0
  6
CONTINUOUS
 62
     7
 10
-8.175007
 20
-3.000000
 30
0.0
 11
-7.669734
 21
-2.375073
 31
0.0
  0
LINE
  8
Nor_
  5
0
  6
CONTINUOUS
 62
     7
 10
-7.669734
 20
0.0
 30
0.0
 11
-7.122846
 21
-3.000000
 31
0.0
  0
LINE
  8
Nor_
  5
0
  6
CONTINUOUS
 62
     7
 10
-7.122846
 20
-3.000000
 30
0.0
 11
-7.669734
 21
-2.375073
 31
0.0
  0
LINE
  8
Nor_
  5
0
  6
CONTINUOUS
 62
     7
 10
-7.669734
 20
4.999269
 30
0.0
 11
-7.164461
 21
7.999269
 31
0.0
  0
LINE
  8
Nor_
  5
0
  6
CONTINUOUS
 62
     7
 10
-7.164461
 20
7.999269
 30
0.0
 11
-7.669734
 21
7.374342
 31
0.0
  0
LINE
  8
Nor_
  5
0
  6
CONTINUOUS
 62
     7
 10
-7.669734
 20
4.999269
 30
0.0
 11
-8.216622
 21
7.999269
 31
0.0
  0
LINE
  8
Nor_
  5
0
  6
CONTINUOUS
 62
     7
 10
-8.216622
 20
7.999269
 30
0.0
 11
-7.669734
 21
7.374342
 31
0.0
  0
LINE
  8
Quote
  5
0
  6
CONTINUOUS
 62
     1
 10
-10.999734
 20
3.474635
 30
0.0
 11
-10.999734
 21
2.174635
 31
0.0
  0
LINE
  8
Quote
  5
0
  6
CONTINUOUS
 62
     1
 10
-10.999734
 20
2.174635
 30
0.0
 11
-9.829734
 21
2.044635
 31
0.0
  0
LINE
  8
Quote
  5
0
  6
CONTINUOUS
 62
     1
 10
-9.829734
 20
2.044635
 30
0.0
 11
-9.959734
 21
2.174635
 31
0.0
  0
LINE
  8
Quote
  5
0
  6
CONTINUOUS
 62
     1
 10
-9.959734
 20
2.174635
 30
0.0
 11
-10.089734
 21
2.564635
 31
0.0
  0
LINE
  8
Quote
  5
0
  6
CONTINUOUS
 62
     1
 10
-10.089734
 20
2.564635
 30
0.0
 11
-10.089734
 21
2.954635
 31
0.0
  0
LINE
  8
Quote
  5
0
  6
CONTINUOUS
 62
     1
 10
-10.089734
 20
2.954635
 30
0.0
 11
-9.959734
 21
3.344635
 31
0.0
  0
LINE
  8
Quote
  5
0
  6
CONTINUOUS
 62
     1
 10
-9.959734
 20
3.344635
 30
0.0
 11
-9.699734
 21
3.604635
 31
0.0
  0
LINE
  8
Quote
  5
0
  6
CONTINUOUS
 62
     1
 10
-9.699734
 20
3.604635
 30
0.0
 11
-9.309734
 21
3.734635
 31
0.0
  0
LINE
  8
Quote
  5
0
  6
CONTINUOUS
 62
     1
 10
-9.309734
 20
3.734635
 30
0.0
 11
-9.049734
 21
3.734635
 31
0.0
  0
LINE
  8
Quote
  5
0
  6
CONTINUOUS
 62
     1
 10
-9.049734
 20
3.734635
 30
0.0
 11
-8.659734
 21
3.604635
 31
0.0
  0
LINE
  8
Quote
  5
0
  6
CONTINUOUS
 62
     1
 10
-8.659734
 20
3.604635
 30
0.0
 11
-8.399734
 21
3.344635
 31
0.0
  0
LINE
  8
Quote
  5
0
  6
CONTINUOUS
 62
     1
 10
-8.399734
 20
3.344635
 30
0.0
 11
-8.269734
 21
2.954635
 31
0.0
  0
LINE
  8
Quote
  5
0
  6
CONTINUOUS
 62
     1
 10
-8.269734
 20
2.954635
 30
0.0
 11
-8.269734
 21
2.564635
 31
0.0
  0
LINE
  8
Quote
  5
0
  6
CONTINUOUS
 62
     1
 10
-8.269734
 20
2.564635
 30
0.0
 11
-8.399734
 21
2.174635
 31
0.0
  0
LINE
  8
Quote
  5
0
  6
CONTINUOUS
 62
     1
 10
-8.399734
 20
2.174635
 30
0.0
 11
-8.529734
 21
2.044635
 31
0.0
  0
LINE
  8
Quote
  5
0
  6
CONTINUOUS
 62
     1
 10
-8.529734
 20
2.044635
 30
0.0
 11
-8.789734
 21
1.914635
 31
0.0
  0
LINE
  8
Quote
  5
0
  6
CONTINUOUS
 62
     7
 10
3.75
 20
0.0
 30
0.0
 11
11.302336
 21
0.0
 31
0.0
  0
LINE
  8
Quote
  5
0
  6
CONTINUOUS
 62
     7
 10
0.6
 20
6.500000
 30
0.0
 11
11.302336
 21
6.500000
 31
0.0
  0
LINE
  8
Quote
  5
0
  6
CONTINUOUS
 62
     7
 10
10.802336
 20
-6.0
 30
0.0
 11
10.802336
 21
12.500000
 31
0.0
  0
LINE
  8
Nor_
  5
0
  6
CONTINUOUS
 62
     7
 10
10.802336
 20
0.0
 30
0.0
 11
10.297064
 21
-3.000000
 31
0.0
  0
LINE
  8
Nor_
  5
0
  6
CONTINUOUS
 62
     7
 10
10.297064
 20
-3.000000
 30
0.0
 11
10.802336
 21
-2.375073
 31
0.0
  0
LINE
  8
Nor_
  5
0
  6
CONTINUOUS
 62
     7
 10
10.802336
 20
0.0
 30
0.0
 11
11.349224
 21
-3.000000
 31
0.0
  0
LINE
  8
Nor_
  5
0
  6
CONTINUOUS
 62
     7
 10
11.349224
 20
-3.000000
 30
0.0
 11
10.802336
 21
-2.375073
 31
0.0
  0
LINE
  8
Nor_
  5
0
  6
CONTINUOUS
 62
     7
 10
10.802336
 20
6.500000
 30
0.0
 11
11.307609
 21
9.500000
 31
0.0
  0
LINE
  8
Nor_
  5
0
  6
CONTINUOUS
 62
     7
 10
11.307609
 20
9.500000
 30
0.0
 11
10.802336
 21
8.875073
 31
0.0
  0
LINE
  8
Nor_
  5
0
  6
CONTINUOUS
 62
     7
 10
10.802336
 20
6.500000
 30
0.0
 11
10.255448
 21
9.500000
 31
0.0
  0
LINE
  8
Nor_
  5
0
  6
CONTINUOUS
 62
     7
 10
10.255448
 20
9.500000
 30
0.0
 11
10.802336
 21
8.875073
 31
0.0
  0
LINE
  8
Quote
  5
0
  6
CONTINUOUS
 62
     1
 10
7.862336
 20
2.600000
 30
0.0
 11
7.602336
 21
2.470000
 31
0.0
  0
LINE
  8
Quote
  5
0
  6
CONTINUOUS
 62
     1
 10
7.602336
 20
2.470000
 30
0.0
 11
7.472336
 21
2.080000
 31
0.0
  0
LINE
  8
Quote
  5
0
  6
CONTINUOUS
 62
     1
 10
7.472336
 20
2.080000
 30
0.0
 11
7.472336
 21
1.820000
 31
0.0
  0
LINE
  8
Quote
  5
0
  6
CONTINUOUS
 62
     1
 10
7.472336
 20
1.820000
 30
0.0
 11
7.602336
 21
1.430000
 31
0.0
  0
LINE
  8
Quote
  5
0
  6
CONTINUOUS
 62
     1
 10
7.602336
 20
1.430000
 30
0.0
 11
7.992336
 21
1.170000
 31
0.0
  0
LINE
  8
Quote
  5
0
  6
CONTINUOUS
 62
     1
 10
7.992336
 20
1.170000
 30
0.0
 11
8.642336
 21
1.040000
 31
0.0
  0
LINE
  8
Quote
  5
0
  6
CONTINUOUS
 62
     1
 10
8.642336
 20
1.040000
 30
0.0
 11
9.292336
 21
1.040000
 31
0.0
  0
LINE
  8
Quote
  5
0
  6
CONTINUOUS
 62
     1
 10
9.292336
 20
1.040000
 30
0.0
 11
9.812336
 21
1.170000
 31
0.0
  0
LINE
  8
Quote
  5
0
  6
CONTINUOUS
 62
     1
 10
9.812336
 20
1.170000
 30
0.0
 11
10.072336
 21
1.430000
 31
0.0
  0
LINE
  8
Quote
  5
0
  6
CONTINUOUS
 62
     1
 10
10.072336
 20
1.430000
 30
0.0
 11
10.202336
 21
1.820000
 31
0.0
  0
LINE
  8
Quote
  5
0
  6
CONTINUOUS
 62
     1
 10
10.202336
 20
1.820000
 30
0.0
 11
10.202336
 21
1.950000
 31
0.0
  0
LINE
  8
Quote
  5
0
  6
CONTINUOUS
 62
     1
 10
10.202336
 20
1.950000
 30
0.0
 11
10.072336
 21
2.340000
 31
0.0
  0
LINE
  8
Quote
  5
0
  6
CONTINUOUS
 62
     1
 10
10.072336
 20
2.340000
 30
0.0
 11
9.812336
 21
2.600000
 31
0.0
  0
LINE
  8
Quote
  5
0
  6
CONTINUOUS
 62
     1
 10
9.812336
 20
2.600000
 30
0.0
 11
9.422336
 21
2.730000
 31
0.0
  0
LINE
  8
Quote
  5
0
  6
CONTINUOUS
 62
     1
 10
9.422336
 20
2.730000
 30
0.0
 11
9.292336
 21
2.730000
 31
0.0
  0
LINE
  8
Quote
  5
0
  6
CONTINUOUS
 62
     1
 10
9.292336
 20
2.730000
 30
0.0
 11
8.902336
 21
2.600000
 31
0.0
  0
LINE
  8
Quote
  5
0
  6
CONTINUOUS
 62
     1
 10
8.902336
 20
2.600000
 30
0.0
 11
8.642336
 21
2.340000
 31
0.0
  0
LINE
  8
Quote
  5
0
  6
CONTINUOUS
 62
     1
 10
8.642336
 20
2.340000
 30
0.0
 11
8.512336
 21
1.950000
 31
0.0
  0
LINE
  8
Quote
  5
0
  6
CONTINUOUS
 62
     1
 10
8.512336
 20
1.950000
 30
0.0
 11
8.512336
 21
1.820000
 31
0.0
  0
LINE
  8
Quote
  5
0
  6
CONTINUOUS
 62
     1
 10
8.512336
 20
1.820000
 30
0.0
 11
8.642336
 21
1.430000
 31
0.0
  0
LINE
  8
Quote
  5
0
  6
CONTINUOUS
 62
     1
 10
8.642336
 20
1.430000
 30
0.0
 11
8.902336
 21
1.170000
 31
0.0
  0
LINE
  8
Quote
  5
0
  6
CONTINUOUS
 62
     1
 10
8.902336
 20
1.170000
 30
0.0
 11
9.292336
 21
1.040000
 31
0.0
  0
LINE
  8
Quote
  5
0
  6
CONTINUOUS
 62
     1
 10
9.942336
 20
3.640000
 30
0.0
 11
10.072336
 21
3.510000
 31
0.0
  0
LINE
  8
Quote
  5
0
  6
CONTINUOUS
 62
     1
 10
10.072336
 20
3.510000
 30
0.0
 11
10.202336
 21
3.640000
 31
0.0
  0
LINE
  8
Quote
  5
0
  6
CONTINUOUS
 62
     1
 10
10.202336
 20
3.640000
 30
0.0
 11
10.072336
 21
3.770000
 31
0.0
  0
LINE
  8
Quote
  5
0
  6
CONTINUOUS
 62
     1
 10
10.072336
 20
3.770000
 30
0.0
 11
9.942336
 21
3.640000
 31
0.0
  0
LINE
  8
Quote
  5
0
  6
CONTINUOUS
 62
     1
 10
7.472336
 20
5.980000
 30
0.0
 11
7.472336
 21
4.680000
 31
0.0
  0
LINE
  8
Quote
  5
0
  6
CONTINUOUS
 62
     1
 10
7.472336
 20
4.680000
 30
0.0
 11
8.642336
 21
4.550000
 31
0.0
  0
LINE
  8
Quote
  5
0
  6
CONTINUOUS
 62
     1
 10
8.642336
 20
4.550000
 30
0.0
 11
8.512336
 21
4.680000
 31
0.0
  0
LINE
  8
Quote
  5
0
  6
CONTINUOUS
 62
     1
 10
8.512336
 20
4.680000
 30
0.0
 11
8.382336
 21
5.070000
 31
0.0
  0
LINE
  8
Quote
  5
0
  6
CONTINUOUS
 62
     1
 10
8.382336
 20
5.070000
 30
0.0
 11
8.382336
 21
5.460000
 31
0.0
  0
LINE
  8
Quote
  5
0
  6
CONTINUOUS
 62
     1
 10
8.382336
 20
5.460000
 30
0.0
 11
8.512336
 21
5.850000
 31
0.0
  0
LINE
  8
Quote
  5
0
  6
CONTINUOUS
 62
     1
 10
8.512336
 20
5.850000
 30
0.0
 11
8.772336
 21
6.110000
 31
0.0
  0
LINE
  8
Quote
  5
0
  6
CONTINUOUS
 62
     1
 10
8.772336
 20
6.110000
 30
0.0
 11
9.162336
 21
6.240000
 31
0.0
  0
LINE
  8
Quote
  5
0
  6
CONTINUOUS
 62
     1
 10
9.162336
 20
6.240000
 30
0.0
 11
9.422336
 21
6.240000
 31
0.0
  0
LINE
  8
Quote
  5
0
  6
CONTINUOUS
 62
     1
 10
9.422336
 20
6.240000
 30
0.0
 11
9.812336
 21
6.110000
 31
0.0
  0
LINE
  8
Quote
  5
0
  6
CONTINUOUS
 62
     1
 10
9.812336
 20
6.110000
 30
0.0
 11
10.072336
 21
5.850000
 31
0.0
  0
LINE
  8
Quote
  5
0
  6
CONTINUOUS
 62
     1
 10
10.072336
 20
5.850000
 30
0.0
 11
10.202336
 21
5.460000
 31
0.0
  0
LINE
  8
Quote
  5
0
  6
CONTINUOUS
 62
     1
 10
10.202336
 20
5.460000
 30
0.0
 11
10.202336
 21
5.070000
 31
0.0
  0
LINE
  8
Quote
  5
0
  6
CONTINUOUS
 62
     1
 10
10.202336
 20
5.070000
 30
0.0
 11
10.072336
 21
4.680000
 31
0.0
  0
LINE
  8
Quote
  5
0
  6
CONTINUOUS
 62
     1
 10
10.072336
 20
4.680000
 30
0.0
 11
9.942336
 21
4.550000
 31
0.0
  0
LINE
  8
Quote
  5
0
  6
CONTINUOUS
 62
     1
 10
9.942336
 20
4.550000
 30
0.0
 11
9.682336
 21
4.420000
 31
0.0
  0
LINE
  8
Quote
  5
0
  6
CONTINUOUS
 62
     7
 10
-4.0
 20
0.05
 30
0.0
 11
-4.0
 21
-11.316019
 31
0.0
  0
LINE
  8
Quote
  5
0
  6
CONTINUOUS
 62
     7
 10
4.0
 20
0.05
 30
0.0
 11
4.0
 21
-11.316019
 31
0.0
  0
LINE
  8
Quote
  5
0
  6
CONTINUOUS
 62
     7
 10
-10.0
 20
-10.816019
 30
0.0
 11
10.0
 21
-10.816019
 31
0.0
  0
LINE
  8
Nor_
  5
0
  6
CONTINUOUS
 62
     7
 10
-4.0
 20
-10.816019
 30
0.0
 11
-7.0
 21
-10.310747
 31
0.0
  0
LINE
  8
Nor_
  5
0
  6
CONTINUOUS
 62
     7
 10
-7.0
 20
-10.310747
 30
0.0
 11
-6.375073
 21
-10.816019
 31
0.0
  0
LINE
  8
Nor_
  5
0
  6
CONTINUOUS
 62
     7
 10
-4.0
 20
-10.816019
 30
0.0
 11
-7.0
 21
-11.362907
 31
0.0
  0
LINE
  8
Nor_
  5
0
  6
CONTINUOUS
 62
     7
 10
-7.0
 20
-11.362907
 30
0.0
 11
-6.375073
 21
-10.816019
 31
0.0
  0
LINE
  8
Nor_
  5
0
  6
CONTINUOUS
 62
     7
 10
4.0
 20
-10.816019
 30
0.0
 11
7.0
 21
-11.321292
 31
0.0
  0
LINE
  8
Nor_
  5
0
  6
CONTINUOUS
 62
     7
 10
7.0
 20
-11.321292
 30
0.0
 11
6.375073
 21
-10.816019
 31
0.0
  0
LINE
  8
Nor_
  5
0
  6
CONTINUOUS
 62
     7
 10
4.0
 20
-10.816019
 30
0.0
 11
7.0
 21
-10.269131
 31
0.0
  0
LINE
  8
Nor_
  5
0
  6
CONTINUOUS
 62
     7
 10
7.0
 20
-10.269131
 30
0.0
 11
6.375073
 21
-10.816019
 31
0.0
  0
LINE
  8
Quote
  5
0
  6
CONTINUOUS
 62
     1
 10
0.065000
 20
-7.486019
 30
0.0
 11
-0.325000
 21
-7.616019
 31
0.0
  0
LINE
  8
Quote
  5
0
  6
CONTINUOUS
 62
     1
 10
-0.325000
 20
-7.616019
 30
0.0
 11
-0.455000
 21
-7.876019
 31
0.0
  0
LINE
  8
Quote
  5
0
  6
CONTINUOUS
 62
     1
 10
-0.455000
 20
-7.876019
 30
0.0
 11
-0.455000
 21
-8.136019
 31
0.0
  0
LINE
  8
Quote
  5
0
  6
CONTINUOUS
 62
     1
 10
-0.455000
 20
-8.136019
 30
0.0
 11
-0.325000
 21
-8.396019
 31
0.0
  0
LINE
  8
Quote
  5
0
  6
CONTINUOUS
 62
     1
 10
-0.325000
 20
-8.396019
 30
0.0
 11
-0.065000
 21
-8.526019
 31
0.0
  0
LINE
  8
Quote
  5
0
  6
CONTINUOUS
 62
     1
 10
-0.065000
 20
-8.526019
 30
0.0
 11
0.455000
 21
-8.656019
 31
0.0
  0
LINE
  8
Quote
  5
0
  6
CONTINUOUS
 62
     1
 10
0.455000
 20
-8.656019
 30
0.0
 11
0.845000
 21
-8.786019
 31
0.0
  0
LINE
  8
Quote
  5
0
  6
CONTINUOUS
 62
     1
 10
0.845000
 20
-8.786019
 30
0.0
 11
1.105000
 21
-9.046019
 31
0.0
  0
LINE
  8
Quote
  5
0
  6
CONTINUOUS
 62
     1
 10
1.105000
 20
-9.046019
 30
0.0
 11
1.235000
 21
-9.306019
 31
0.0
  0
LINE
  8
Quote
  5
0
  6
CONTINUOUS
 62
     1
 10
1.235000
 20
-9.306019
 30
0.0
 11
1.235000
 21
-9.696019
 31
0.0
  0
LINE
  8
Quote
  5
0
  6
CONTINUOUS
 62
     1
 10
1.235000
 20
-9.696019
 30
0.0
 11
1.105000
 21
-9.956019
 31
0.0
  0
LINE
  8
Quote
  5
0
  6
CONTINUOUS
 62
     1
 10
1.105000
 20
-9.956019
 30
0.0
 11
0.975000
 21
-10.086019
 31
0.0
  0
LINE
  8
Quote
  5
0
  6
CONTINUOUS
 62
     1
 10
0.975000
 20
-10.086019
 30
0.0
 11
0.585000
 21
-10.216019
 31
0.0
  0
LINE
  8
Quote
  5
0
  6
CONTINUOUS
 62
     1
 10
0.585000
 20
-10.216019
 30
0.0
 11
0.065000
 21
-10.216019
 31
0.0
  0
LINE
  8
Quote
  5
0
  6
CONTINUOUS
 62
     1
 10
0.065000
 20
-10.216019
 30
0.0
 11
-0.325000
 21
-10.086019
 31
0.0
  0
LINE
  8
Quote
  5
0
  6
CONTINUOUS
 62
     1
 10
-0.325000
 20
-10.086019
 30
0.0
 11
-0.455000
 21
-9.956019
 31
0.0
  0
LINE
  8
Quote
  5
0
  6
CONTINUOUS
 62
     1
 10
-0.455000
 20
-9.956019
 30
0.0
 11
-0.585000
 21
-9.696019
 31
0.0
  0
LINE
  8
Quote
  5
0
  6
CONTINUOUS
 62
     1
 10
-0.585000
 20
-9.696019
 30
0.0
 11
-0.585000
 21
-9.306019
 31
0.0
  0
LINE
  8
Quote
  5
0
  6
CONTINUOUS
 62
     1
 10
-0.585000
 20
-9.306019
 30
0.0
 11
-0.455000
 21
-9.046019
 31
0.0
  0
LINE
  8
Quote
  5
0
  6
CONTINUOUS
 62
     1
 10
-0.455000
 20
-9.046019
 30
0.0
 11
-0.195000
 21
-8.786019
 31
0.0
  0
LINE
  8
Quote
  5
0
  6
CONTINUOUS
 62
     1
 10
-0.195000
 20
-8.786019
 30
0.0
 11
0.195000
 21
-8.656019
 31
0.0
  0
LINE
  8
Quote
  5
0
  6
CONTINUOUS
 62
     1
 10
0.195000
 20
-8.656019
 30
0.0
 11
0.715000
 21
-8.526019
 31
0.0
  0
LINE
  8
Quote
  5
0
  6
CONTINUOUS
 62
     1
 10
0.715000
 20
-8.526019
 30
0.0
 11
0.975000
 21
-8.396019
 31
0.0
  0
LINE
  8
Quote
  5
0
  6
CONTINUOUS
 62
     1
 10
0.975000
 20
-8.396019
 30
0.0
 11
1.105000
 21
-8.136019
 31
0.0
  0
LINE
  8
Quote
  5
0
  6
CONTINUOUS
 62
     1
 10
1.105000
 20
-8.136019
 30
0.0
 11
1.105000
 21
-7.876019
 31
0.0
  0
LINE
  8
Quote
  5
0
  6
CONTINUOUS
 62
     1
 10
1.105000
 20
-7.876019
 30
0.0
 11
0.975000
 21
-7.616019
 31
0.0
  0
LINE
  8
Quote
  5
0
  6
CONTINUOUS
 62
     1
 10
0.975000
 20
-7.616019
 30
0.0
 11
0.585000
 21
-7.486019
 31
0.0
  0
LINE
  8
Quote
  5
0
  6
CONTINUOUS
 62
     1
 10
0.585000
 20
-7.486019
 30
0.0
 11
0.065000
 21
-7.486019
 31
0.0
  0
ENDSEC
  0
EOF
