  0
SECTION
  2
HEADER
  9
$ACADVER
  1
AC1015
  9
$ACADMAINTVER
 70
     6
  9
$DWGCODEPAGE
  3
ANSI_1252
  9
$INSBASE
 10
0.0
 20
0.0
 30
0.0
  9
$EXTMIN
 10
0.0
 20
0.0
 30
0.0
  9
$EXTMAX
 10
1188.0
 20
840.0
 30
0.0
  9
$LIMMIN
 10
0.0
 20
0.0
  9
$LIMMAX
 10
1188.0
 20
840.0
  9
$ORTHOMODE
 70
     1
  9
$REGENMODE
 70
     1
  9
$FILLMODE
 70
     1
  9
$QTEXTMODE
 70
     0
  9
$MIRRTEXT
 70
     1
  9
$LTSCALE
 40
2.0
  9
$ATTMODE
 70
     1
  9
$TEXTSIZE
 40
5.6
  9
$TRACEWID
 40
1.0
  9
$TEXTSTYLE
  7
STANDARD
  9
$CLAYER
  8
0
  9
$CELTYPE
  6
BYLAYER
  9
$CECOLOR
 62
   256
  9
$CELTSCALE
 40
1.0
  9
$DISPSILH
 70
     0
  9
$DIMSCALE
 40
1.0
  9
$DIMASZ
 40
6.4
  9
$DIMEXO
 40
0.2
  9
$DIMDLI
 40
3.75
  9
$DIMRND
 40
0.0
  9
$DIMDLE
 40
0.0
  9
$DIMEXE
 40
2.0
  9
$DIMTP
 40
0.0
  9
$DIMTM
 40
0.0
  9
$DIMTXT
 40
6.4
  9
$DIMCEN
 40
2.5
  9
$DIMTSZ
 40
0.0
  9
$DIMTOL
 70
     0
  9
$DIMLIM
 70
     0
  9
$DIMTIH
 70
     1
  9
$DIMTOH
 70
     1
  9
$DIMSE1
 70
     0
  9
$DIMSE2
 70
     0
  9
$DIMTAD
 70
     1
  9
$DIMZIN
 70
     0
  9
$DIMBLK
  1

  9
$DIMASO
 70
     1
  9
$DIMSHO
 70
     1
  9
$DIMPOST
  1

  9
$DIMAPOST
  1

  9
$DIMALT
 70
     0
  9
$DIMALTD
 70
     3
  9
$DIMALTF
 40
0.0393700787
  9
$DIMLFAC
 40
1.0
  9
$DIMTOFL
 70
     1
  9
$DIMTVP
 40
0.0
  9
$DIMTIX
 70
     0
  9
$DIMSOXD
 70
     0
  9
$DIMSAH
 70
     0
  9
$DIMBLK1
  1

  9
$DIMBLK2
  1

  9
$DIMSTYLE
  2
ISO-25
  9
$DIMCLRD
 70
     0
  9
$DIMCLRE
 70
     0
  9
$DIMCLRT
 70
     0
  9
$DIMTFAC
 40
1.0
  9
$DIMGAP
 40
4.0
  9
$DIMJUST
 70
     0
  9
$DIMSD1
 70
     0
  9
$DIMSD2
 70
     0
  9
$DIMTOLJ
 70
     0
  9
$DIMTZIN
 70
     0
  9
$DIMALTZ
 70
     0
  9
$DIMALTTZ
 70
     0
  9
$DIMUPT
 70
     0
  9
$DIMDEC
 70
     2
  9
$DIMTDEC
 70
     2
  9
$DIMALTU
 70
     2
  9
$DIMALTTD
 70
     3
  9
$DIMTXSTY
  7
STANDARD
  9
$DIMAUNIT
 70
     0
  9
$DIMADEC
 70
     0
  9
$DIMALTRND
 40
0.0
  9
$DIMAZIN
 70
     0
  9
$DIMDSEP
 70
    46
  9
$DIMATFIT
 70
     3
  9
$DIMFRAC
 70
     0
  9
$DIMLDRBLK
  1

  9
$DIMLUNIT
 70
     2
  9
$DIMLWD
 70
    -2
  9
$DIMLWE
 70
    -2
  9
$DIMTMOVE
 70
     2
  9
$LUNITS
 70
     2
  9
$LUPREC
 70
     2
  9
$SKETCHINC
 40
1.0
  9
$FILLETRAD
 40
10.0
  9
$AUNITS
 70
     0
  9
$AUPREC
 70
     2
  9
$MENU
  1
.
  9
$ELEVATION
 40
0.0
  9
$PELEVATION
 40
0.0
  9
$THICKNESS
 40
0.0
  9
$LIMCHECK
 70
     0
  9
$CHAMFERA
 40
10.0
  9
$CHAMFERB
 40
10.0
  9
$CHAMFERC
 40
20.0
  9
$CHAMFERD
 40
0.0
  9
$SKPOLY
 70
     0
  9
$TDCREATE
 40
2456615.404244768
  9
$TDUCREATE
 40
2456615.362578102
  9
$TDUPDATE
 40
2456615.409500278
  9
$TDUUPDATE
 40
2456615.367833611
  9
$TDINDWG
 40
0.0000000116
  9
$TDUSRTIMER
 40
2456615.366744224
  9
$USRTIMER
 70
     1
  9
$ANGBASE
 50
0.0
  9
$ANGDIR
 70
     0
  9
$PDMODE
 70
     0
  9
$PDSIZE
 40
-1.0
  9
$PLINEWID
 40
0.0
  9
$SPLFRAME
 70
     0
  9
$SPLINETYPE
 70
     6
  9
$SPLINESEGS
 70
     8
  9
$HANDSEED
  5
675
  9
$SURFTAB1
 70
     6
  9
$SURFTAB2
 70
     6
  9
$SURFTYPE
 70
     6
  9
$SURFU
 70
     6
  9
$SURFV
 70
     6
  9
$UCSBASE
  2

  9
$UCSNAME
  2

  9
$UCSORG
 10
0.0
 20
0.0
 30
0.0
  9
$UCSXDIR
 10
1.0
 20
0.0
 30
0.0
  9
$UCSYDIR
 10
0.0
 20
1.0
 30
0.0
  9
$UCSORTHOREF
  2

  9
$UCSORTHOVIEW
 70
     0
  9
$UCSORGTOP
 10
0.0
 20
0.0
 30
0.0
  9
$UCSORGBOTTOM
 10
0.0
 20
0.0
 30
0.0
  9
$UCSORGLEFT
 10
0.0
 20
0.0
 30
0.0
  9
$UCSORGRIGHT
 10
0.0
 20
0.0
 30
0.0
  9
$UCSORGFRONT
 10
0.0
 20
0.0
 30
0.0
  9
$UCSORGBACK
 10
0.0
 20
0.0
 30
0.0
  9
$PUCSBASE
  2

  9
$PUCSNAME
  2

  9
$PUCSORG
 10
0.0
 20
0.0
 30
0.0
  9
$PUCSXDIR
 10
1.0
 20
0.0
 30
0.0
  9
$PUCSYDIR
 10
0.0
 20
1.0
 30
0.0
  9
$PUCSORTHOREF
  2

  9
$PUCSORTHOVIEW
 70
     0
  9
$PUCSORGTOP
 10
0.0
 20
0.0
 30
0.0
  9
$PUCSORGBOTTOM
 10
0.0
 20
0.0
 30
0.0
  9
$PUCSORGLEFT
 10
0.0
 20
0.0
 30
0.0
  9
$PUCSORGRIGHT
 10
0.0
 20
0.0
 30
0.0
  9
$PUCSORGFRONT
 10
0.0
 20
0.0
 30
0.0
  9
$PUCSORGBACK
 10
0.0
 20
0.0
 30
0.0
  9
$USERI1
 70
     0
  9
$USERI2
 70
     0
  9
$USERI3
 70
     0
  9
$USERI4
 70
     0
  9
$USERI5
 70
     0
  9
$USERR1
 40
0.0
  9
$USERR2
 40
0.0
  9
$USERR3
 40
0.0
  9
$USERR4
 40
0.0
  9
$USERR5
 40
0.0
  9
$WORLDVIEW
 70
     1
  9
$SHADEDGE
 70
     3
  9
$SHADEDIF
 70
    70
  9
$TILEMODE
 70
     1
  9
$MAXACTVP
 70
    64
  9
$PINSBASE
 10
0.0
 20
0.0
 30
0.0
  9
$PLIMCHECK
 70
     0
  9
$PEXTMIN
 10
1.000000000000000E+20
 20
1.000000000000000E+20
 30
1.000000000000000E+20
  9
$PEXTMAX
 10
-1.000000000000000E+20
 20
-1.000000000000000E+20
 30
-1.000000000000000E+20
  9
$PLIMMIN
 10
0.0
 20
0.0
  9
$PLIMMAX
 10
0.0
 20
0.0
  9
$UNITMODE
 70
     0
  9
$VISRETAIN
 70
     1
  9
$PLINEGEN
 70
     0
  9
$PSLTSCALE
 70
     1
  9
$TREEDEPTH
 70
  3020
  9
$CMLSTYLE
  2
STANDARD
  9
$CMLJUST
 70
     0
  9
$CMLSCALE
 40
20.0
  9
$PROXYGRAPHICS
 70
     1
  9
$MEASUREMENT
 70
     1
  9
$CELWEIGHT
370
    -1
  9
$ENDCAPS
280
     0
  9
$JOINSTYLE
280
     0
  9
$LWDISPLAY
290
     0
  9
$INSUNITS
 70
     0
  9
$HYPERLINKBASE
  1

  9
$STYLESHEET
  1

  9
$XEDIT
290
     1
  9
$CEPSNTYPE
380
     0
  9
$PSTYLEMODE
290
     1
  9
$FINGERPRINTGUID
  2
{82C0926B-79B6-4FC9-AE57-DE3849D53AE5}
  9
$VERSIONGUID
  2
{FAEB1C32-E019-11D5-929B-00C0DF256EC4}
  9
$EXTNAMES
290
     1
  9
$PSVPSCALE
 40
0.0
  9
$OLESTARTUP
290
     0
  0
ENDSEC
  0
SECTION
  2
CLASSES
  0
CLASS
  1
ACDBDICTIONARYWDFLT
  2
AcDbDictionaryWithDefault
  3
ObjectDBX Classes
 90
        0
280
     0
281
     0
  0
CLASS
  1
VISUALSTYLE
  2
AcDbVisualStyle
  3
ObjectDBX Classes
 90
     4095
280
     0
281
     0
  0
CLASS
  1
MATERIAL
  2
AcDbMaterial
  3
ObjectDBX Classes
 90
     1153
280
     0
281
     0
  0
CLASS
  1
XRECORD
  2
AcDbXrecord
  3
AutoCAD 2000
 90
        0
280
     0
281
     0
  0
CLASS
  1
LWPOLYLINE
  2
AcDbPolyline
  3
AutoCAD 2000
 90
        0
280
     0
281
     1
  0
CLASS
  1
HATCH
  2
AcDbHatch
  3
AutoCAD 2000
 90
        0
280
     0
281
     1
  0
CLASS
  1
SCALE
  2
AcDbScale
  3
ObjectDBX Classes
 90
     1153
280
     0
281
     0
  0
CLASS
  1
TABLESTYLE
  2
AcDbTableStyle
  3
ObjectDBX Classes
 90
     4095
280
     0
281
     0
  0
CLASS
  1
RASTERVARIABLES
  2
AcDbRasterVariables
  3
ISM
 90
        0
280
     0
281
     0
  0
CLASS
  1
SORTENTSTABLE
  2
AcDbSortentsTable
  3
ObjectDBX Classes
 90
        0
280
     0
281
     0
  0
CLASS
  1
DICTIONARYVAR
  2
AcDbDictionaryVar
  3
ObjectDBX Classes
 90
        0
280
     0
281
     0
  0
CLASS
  1
CELLSTYLEMAP
  2
AcDbCellStyleMap
  3
ObjectDBX Classes
 90
     1152
280
     0
281
     0
  0
CLASS
  1
ACDBPLACEHOLDER
  2
AcDbPlaceHolder
  3
ObjectDBX Classes
 90
        0
280
     0
281
     0
  0
CLASS
  1
LAYOUT
  2
AcDbLayout
  3
ObjectDBX Classes
 90
        0
280
     0
281
     0
  0
ENDSEC
  0
SECTION
  2
TABLES
  0
TABLE
  2
VPORT
  5
8
330
0
100
AcDbSymbolTable
 70
     1
  0
VPORT
  5
29
330
8
100
AcDbSymbolTableRecord
100
AcDbViewportTableRecord
  2
*ACTIVE
 70
     0
 10
0.0
 20
0.0
 11
1.0
 21
1.0
 12
638.0704445823426
 22
404.8988037966404
 13
0.0
 23
0.0
 14
10.0
 24
10.0
 15
10.0
 25
10.0
 16
0.0
 26
0.0
 36
1.0
 17
0.0
 27
0.0
 37
0.0
 40
556.3711116031335
 41
2.131979695431472
 42
50.0
 43
0.0
 44
0.0
 50
0.0
 51
0.0
 71
    16
 72
  2000
 73
     1
 74
     3
 75
     0
 76
     0
 77
     0
 78
     0
281
     0
 65
     1
110
0.0
120
0.0
130
0.0
111
1.0
121
0.0
131
0.0
112
0.0
122
1.0
132
0.0
 79
     0
146
0.0
  0
ENDTAB
  0
TABLE
  2
LTYPE
  5
5
330
0
100
AcDbSymbolTable
 70
     6
  0
LTYPE
  5
14
330
5
100
AcDbSymbolTableRecord
100
AcDbLinetypeTableRecord
  2
BYBLOCK
 70
     0
  3

 72
    65
 73
     0
 40
0.0
  0
LTYPE
  5
15
330
5
100
AcDbSymbolTableRecord
100
AcDbLinetypeTableRecord
  2
BYLAYER
 70
     0
  3

 72
    65
 73
     0
 40
0.0
  0
LTYPE
  5
16
330
5
100
AcDbSymbolTableRecord
100
AcDbLinetypeTableRecord
  2
CONTINUOUS
 70
     0
  3
Solid line
 72
    65
 73
     0
 40
0.0
  0
LTYPE
  5
3F
330
5
100
AcDbSymbolTableRecord
100
AcDbLinetypeTableRecord
  2
HIDDEN
 70
     0
  3
Hidden __ __ __ __ __ __ __ __ __ __ __ __ __ __
 72
    65
 73
     2
 40
1.905
 49
1.27
 74
     0
 49
-0.635
 74
     0
  0
LTYPE
  5
40
330
5
100
AcDbSymbolTableRecord
100
AcDbLinetypeTableRecord
  2
PHANTOM
 70
     0
  3
Phantom ______  __  __  ______  __  __  ______
 72
    65
 73
     6
 40
12.7
 49
6.35
 74
     0
 49
-1.27
 74
     0
 49
1.27
 74
     0
 49
-1.27
 74
     0
 49
1.27
 74
     0
 49
-1.27
 74
     0
  0
LTYPE
  5
41
330
5
100
AcDbSymbolTableRecord
100
AcDbLinetypeTableRecord
  2
CENTER
 70
     0
  3
Center ____ _ ____ _ ____ _ ____ _ ____ _ ____
 72
    65
 73
     4
 40
10.16
 49
6.35
 74
     0
 49
-1.27
 74
     0
 49
1.27
 74
     0
 49
-1.27
 74
     0
  0
LTYPE
  5
42
330
5
100
AcDbSymbolTableRecord
100
AcDbLinetypeTableRecord
  2
CENTERX2
 70
     0
  3
Center (2x) ________  __  ________  __  _____
 72
    65
 73
     4
 40
20.32
 49
12.7
 74
     0
 49
-2.54
 74
     0
 49
2.54
 74
     0
 49
-2.54
 74
     0
  0
LTYPE
  5
43
330
5
100
AcDbSymbolTableRecord
100
AcDbLinetypeTableRecord
  2
DOT2
 70
     0
  3
Dot (.5x) ........................................
 72
    65
 73
     2
 40
0.635
 49
0.0
 74
     0
 49
-0.635
 74
     0
  0
ENDTAB
  0
TABLE
  2
LAYER
  5
2
330
0
100
AcDbSymbolTable
 70
     2
  0
LAYER
  5
10
330
2
100
AcDbSymbolTableRecord
100
AcDbLayerTableRecord
  2
0
 70
     0
 62
     7
  6
CONTINUOUS
370
    -3
390
621
  0
LAYER
  5
44
330
2
100
AcDbSymbolTableRecord
100
AcDbLayerTableRecord
  2
FORMAT
 70
     0
 62
     7
  6
CONTINUOUS
370
    -3
390
621
  0
ENDTAB
  0
TABLE
  2
STYLE
  5
3
330
0
100
AcDbSymbolTable
 70
     1
  0
STYLE
  5
11
330
3
100
AcDbSymbolTableRecord
100
AcDbTextStyleTableRecord
  2
STANDARD
 70
     0
 40
0.0
 41
1.0
 50
0.0
 71
     0
 42
5.6
  3
txt
  4

  0
ENDTAB
  0
TABLE
  2
VIEW
  5
6
330
0
100
AcDbSymbolTable
 70
     0
  0
ENDTAB
  0
TABLE
  2
UCS
  5
7
330
0
100
AcDbSymbolTable
 70
     0
  0
ENDTAB
  0
TABLE
  2
APPID
  5
9
330
0
100
AcDbSymbolTable
 70
     1
  0
APPID
  5
12
330
9
100
AcDbSymbolTableRecord
100
AcDbRegAppTableRecord
  2
ACAD
 70
     0
  0
ENDTAB
  0
TABLE
  2
DIMSTYLE
  5
A
330
0
100
AcDbSymbolTable
 70
     2
100
AcDbDimStyleTable
  0
DIMSTYLE
105
27
330
A
100
AcDbSymbolTableRecord
100
AcDbDimStyleTableRecord
  2
ISO-25
 70
     0
 41
2.5
 42
0.625
 43
3.75
 44
1.25
 73
     0
 74
     0
 77
     1
 78
     8
140
2.5
141
2.5
143
0.0393700787
147
0.625
171
     3
172
     1
178
     0
271
     2
272
     2
274
     3
283
     0
284
     8
340
11
  0
DIMSTYLE
105
622
330
A
100
AcDbSymbolTableRecord
100
AcDbDimStyleTableRecord
  2
Standard
 70
     0
 41
1.25
 42
0.0
 44
0.75
 73
     0
 74
     0
 77
     1
140
2.5
146
0.8
147
1.25
176
     7
177
     7
271
     2
178
     7
271
     2
340
11
  0
ENDTAB
  0
TABLE
  2
BLOCK_RECORD
  5
1
330
0
100
AcDbSymbolTable
 70
     4
  0
BLOCK_RECORD
  5
1F
330
1
100
AcDbSymbolTableRecord
100
AcDbBlockTableRecord
  2
*MODEL_SPACE
340
49E
  0
BLOCK_RECORD
  5
1B
330
1
100
AcDbSymbolTableRecord
100
AcDbBlockTableRecord
  2
*PAPER_SPACE
340
49F
  0
BLOCK_RECORD
  5
23
330
1
100
AcDbSymbolTableRecord
100
AcDbBlockTableRecord
  2
*PAPER_SPACE0
340
0
  0
BLOCK_RECORD
  5
642
330
1
100
AcDbSymbolTableRecord
100
AcDbBlockTableRecord
  2
qrq360
340
0
102
{BLKREFS
331
667
102
}
  0
ENDTAB
  0
ENDSEC
  0
SECTION
  2
BLOCKS
  0
BLOCK
  5
20
330
1F
100
AcDbEntity
  8
0
100
AcDbBlockBegin
  2
*MODEL_SPACE
 70
     0
 10
0.0
 20
0.0
 30
0.0
  3
*MODEL_SPACE
  1

  0
ENDBLK
  5
21
330
1F
100
AcDbEntity
  8
0
100
AcDbBlockEnd
  0
BLOCK
  5
1C
330
1B
100
AcDbEntity
 67
     1
  8
0
100
AcDbBlockBegin
  2
*PAPER_SPACE
 70
     0
 10
0.0
 20
0.0
 30
0.0
  3
*PAPER_SPACE
  1

  0
ENDBLK
  5
1D
330
1B
100
AcDbEntity
 67
     1
  8
0
100
AcDbBlockEnd
  0
BLOCK
  5
24
330
23
100
AcDbEntity
  8
0
100
AcDbBlockBegin
  2
*PAPER_SPACE0
 70
     0
 10
0.0
 20
0.0
 30
0.0
  3
*PAPER_SPACE0
  1

  0
ENDBLK
  5
25
330
23
100
AcDbEntity
  8
0
100
AcDbBlockEnd
  0
BLOCK
  5
665
330
642
100
AcDbEntity
  8
0
100
AcDbBlockBegin
  2
qrq360
 70
     0
 10
0.0
 20
0.0
 30
0.0
  3
qrq360
  1

  0
LINE
  5
65C
330
642
100
AcDbEntity
  8
0
  6
CENTER
 62
     1
100
AcDbLine
 10
-6.999999999899956
 20
-127.9999999999001
 30
0.0
 11
-6.999999999899956
 21
-13.85640646060006
 31
0.0
  0
LINE
  5
65D
330
642
100
AcDbEntity
  8
0
  6
CENTER
 62
     1
100
AcDbLine
 10
-61.25668196409993
 20
-127.9999999999001
 30
0.0
 11
-6.999999999899956
 21
-127.9999999999001
 31
0.0
  0
LINE
  5
65E
330
642
100
AcDbEntity
  8
0
  6
CENTER
 62
     1
100
AcDbLine
 10
-61.25668196409993
 20
50.18139852779996
 30
0.0
 11
-61.25668196409993
 21
-127.9999999999001
 31
0.0
  0
LINE
  5
65F
330
642
100
AcDbEntity
  8
0
  6
CENTER
 62
     1
100
AcDbLine
 10
91.0
 20
50.18139852779996
 30
0.0
 11
-61.25668196409993
 21
50.18139852779996
 31
0.0
  0
LINE
  5
660
330
642
100
AcDbEntity
  8
0
  6
CENTER
 62
     1
100
AcDbLine
 10
91.0
 20
6.000000000099931
 30
0.0
 11
91.0
 21
50.18139852779996
 31
0.0
  0
LINE
  5
661
330
642
100
AcDbEntity
  8
0
  6
CENTER
 62
     1
100
AcDbLine
 10
14.7309198626001
 20
6.000000000099931
 30
0.0
 11
91.0
 21
6.000000000099931
 31
0.0
  0
ARC
  5
662
330
642
100
AcDbEntity
  8
0
  6
CENTER
 62
     1
100
AcDbCircle
 10
14.7309198626001
 20
12.00000000009993
 30
0.0
 40
6.000000000000023
100
AcDbArc
 50
219.1667107166004
 51
270.0
  0
ARC
  5
663
330
642
100
AcDbEntity
  8
0
  6
CENTER
 62
     1
100
AcDbCircle
 10
0.0
 20
0.0
 30
0.0
 40
13.00000000000005
100
AcDbArc
 50
39.16671071660007
 51
226.8264488929003
  0
ARC
  5
664
330
642
100
AcDbEntity
  8
0
  6
CENTER
 62
     1
100
AcDbCircle
 10
-12.99999999989996
 20
-13.85640646060006
 30
0.0
 40
6.0
100
AcDbArc
 50
0.0000000071998937
 51
46.82644889289942
  0
ENDBLK
  5
666
330
642
100
AcDbEntity
  8
0
100
AcDbBlockEnd
  0
ENDSEC
  0
SECTION
  2
ENTITIES
  0
LINE
  5
45
330
1F
100
AcDbEntity
  8
0
  6
Continuous
 62
     7
100
AcDbLine
 10
590.5232442168
 20
380.646018987
 30
0.0
 11
590.5232442168
 21
409.6460181526
 31
0.0
  0
LINE
  5
46
330
1F
100
AcDbEntity
  8
0
  6
Continuous
 62
     7
100
AcDbLine
 10
580.5232425777
 20
409.6460181526
 30
0.0
 11
580.5232425777
 21
380.646018987
 31
0.0
  0
LINE
  5
47
330
1F
100
AcDbEntity
  8
0
  6
Continuous
 62
     7
100
AcDbLine
 10
589.5232421902
 20
379.6460169605
 30
0.0
 11
590.5232442168
 21
380.646018987
 31
0.0
  0
LINE
  5
48
330
1F
100
AcDbEntity
  8
0
  6
Continuous
 62
     7
100
AcDbLine
 10
580.5232425777
 20
380.646018987
 30
0.0
 11
581.5232446042
 21
379.6460169605
 31
0.0
  0
LINE
  5
49
330
1F
100
AcDbEntity
  8
0
  6
Continuous
 62
     7
100
AcDbLine
 10
565.5232419816
 20
529.6460154704
 30
0.0
 11
565.5232419816
 21
419.6460179291
 31
0.0
  0
LINE
  5
4A
330
1F
100
AcDbEntity
  8
0
  6
Continuous
 62
     7
100
AcDbLine
 10
565.5232419816
 20
532.4460181645
 30
0.0
 11
565.5232419816
 21
529.6460154704
 31
0.0
  0
LINE
  5
4B
330
1F
100
AcDbEntity
  8
0
  6
Continuous
 62
     7
100
AcDbLine
 10
605.5232448128
 20
529.6460154704
 30
0.0
 11
605.5232448128
 21
532.4460181645
 31
0.0
  0
LINE
  5
4C
330
1F
100
AcDbEntity
  8
0
  6
Continuous
 62
     7
100
AcDbLine
 10
605.5232448128
 20
532.4460181645
 30
0.0
 11
605.2232434598
 21
532.7460157922
 31
0.0
  0
LINE
  5
4D
330
1F
100
AcDbEntity
  8
0
  6
Continuous
 62
     7
100
AcDbLine
 10
565.8232470599
 20
532.7460157922
 30
0.0
 11
565.5232419816
 21
532.4460181645
 31
0.0
  0
ARC
  5
4E
330
1F
100
AcDbEntity
  8
0
  6
Continuous
 62
     7
100
AcDbCircle
 10
561.5232435915
 20
487.9960186294
 30
0.0
 40
1.500000000000114
100
AcDbArc
 50
0.0000000072
 51
60.00000004390001
  0
ARC
  5
4F
330
1F
100
AcDbEntity
  8
0
  6
Continuous
 62
     7
100
AcDbCircle
 10
561.5232435915
 20
487.9960186294
 30
0.0
 40
1.500000000000114
100
AcDbArc
 50
299.9999999561
 51
0.0000000072
  0
ARC
  5
50
330
1F
100
AcDbEntity
  8
0
  6
Continuous
 62
     7
100
AcDbCircle
 10
531.5232435903
 20
437.9960186294
 30
0.0
 40
1.500000000000114
100
AcDbArc
 50
179.9999999928
 51
240.0000000106
  0
ARC
  5
51
330
1F
100
AcDbEntity
  8
0
  6
Continuous
 62
     7
100
AcDbCircle
 10
531.5232435903
 20
437.9960186294
 30
0.0
 40
1.500000000000114
100
AcDbArc
 50
119.9999999894
 51
179.9999999928
  0
ARC
  5
52
330
1F
100
AcDbEntity
  8
0
  6
Continuous
 62
     7
100
AcDbCircle
 10
531.5232435915
 20
522.9960186294
 30
0.0
 40
1.5
100
AcDbArc
 50
179.9999999928
 51
239.9999999561
  0
ARC
  5
53
330
1F
100
AcDbEntity
  8
0
  6
Continuous
 62
     7
100
AcDbCircle
 10
531.5232435915
 20
522.9960186294
 30
0.0
 40
1.500000000000098
100
AcDbArc
 50
120.0000000439
 51
179.9999999928
  0
ARC
  5
54
330
1F
100
AcDbEntity
  8
0
  6
Continuous
 62
     7
100
AcDbCircle
 10
637.5232435915
 20
547.9960186294
 30
0.0
 40
1.5
100
AcDbArc
 50
0.0000000072
 51
60.00000004390001
  0
ARC
  5
55
330
1F
100
AcDbEntity
  8
0
  6
Continuous
 62
     7
100
AcDbCircle
 10
637.5232435915
 20
547.9960186294
 30
0.0
 40
1.5
100
AcDbArc
 50
300.0000000131001
 51
0.0000000072
  0
ARC
  5
56
330
1F
100
AcDbEntity
  8
0
  6
Continuous
 62
     7
100
AcDbCircle
 10
531.5232435903
 20
522.9960186294
 30
0.0
 40
1.500000000000114
100
AcDbArc
 50
179.9999999928
 51
240.0000000106
  0
ARC
  5
57
330
1F
100
AcDbEntity
  8
0
  6
Continuous
 62
     7
100
AcDbCircle
 10
531.5232435903
 20
522.9960186294
 30
0.0
 40
1.500000000000133
100
AcDbArc
 50
119.9999999894
 51
179.9999999928
  0
ARC
  5
58
330
1F
100
AcDbEntity
  8
0
  6
Continuous
 62
     7
100
AcDbCircle
 10
561.5232435903
 20
487.9960186294
 30
0.0
 40
1.5
100
AcDbArc
 50
0.0000000072
 51
59.9999999894
  0
ARC
  5
59
330
1F
100
AcDbEntity
  8
0
  6
Continuous
 62
     7
100
AcDbCircle
 10
561.5232435903
 20
487.9960186294
 30
0.0
 40
1.500000000000022
100
AcDbArc
 50
300.0000000106
 51
0.0000000072
  0
ARC
  5
5A
330
1F
100
AcDbEntity
  8
0
  6
Continuous
 62
     7
100
AcDbCircle
 10
531.5232435915
 20
437.9960186294
 30
0.0
 40
1.5
100
AcDbArc
 50
179.9999999928
 51
239.9999999561
  0
ARC
  5
5B
330
1F
100
AcDbEntity
  8
0
  6
Continuous
 62
     7
100
AcDbCircle
 10
531.5232435915
 20
437.9960186294
 30
0.0
 40
1.500000000000049
100
AcDbArc
 50
120.0000000439
 51
179.9999999928
  0
ARC
  5
5C
330
1F
100
AcDbEntity
  8
0
  6
Continuous
 62
     7
100
AcDbCircle
 10
637.5232435903
 20
547.9960186294
 30
0.0
 40
1.5
100
AcDbArc
 50
0.0000000072
 51
59.9999999894
  0
LINE
  5
5D
330
1F
100
AcDbEntity
  8
0
  6
Continuous
 62
     7
100
AcDbLine
 10
565.5232419816
 20
419.6460179291
 30
0.0
 11
565.5232419816
 21
409.6460181526
 31
0.0
  0
LINE
  5
5E
330
1F
100
AcDbEntity
  8
0
  6
Continuous
 62
     7
100
AcDbLine
 10
644.0232436147
 20
511.146015232
 30
0.0
 11
643.5232435907
 21
511.146015232
 31
0.0
  0
CIRCLE
  5
5F
330
1F
100
AcDbEntity
  8
0
  6
Continuous
 62
     7
100
AcDbCircle
 10
600.0232435922
 20
415.6460186294
 30
0.0
 40
1.700000000028012
  0
LINE
  5
60
330
1F
100
AcDbEntity
  8
0
  6
Continuous
 62
     7
100
AcDbLine
 10
598.7732423094
 20
414.9243298224
 30
0.0
 11
600.0232448426
 21
414.2026442341
 31
0.0
  0
LINE
  5
61
330
1F
100
AcDbEntity
  8
0
  6
Continuous
 62
     7
100
AcDbLine
 10
600.0232448426
 20
414.2026442341
 30
0.0
 11
601.2732436505
 21
414.9243298224
 31
0.0
  0
LINE
  5
62
330
1F
100
AcDbEntity
  8
0
  6
Continuous
 62
     7
100
AcDbLine
 10
601.2732436505
 20
414.9243298224
 30
0.0
 11
601.2732436505
 21
416.3677065871
 31
0.0
  0
LINE
  5
63
330
1F
100
AcDbEntity
  8
0
  6
Continuous
 62
     7
100
AcDbLine
 10
601.2732436505
 20
416.3677065871
 30
0.0
 11
600.0232448426
 21
417.0893940381
 31
0.0
  0
LINE
  5
64
330
1F
100
AcDbEntity
  8
0
  6
Continuous
 62
     7
100
AcDbLine
 10
598.7732423094
 20
416.3677065871
 30
0.0
 11
600.0232448426
 21
417.0893940381
 31
0.0
  0
LINE
  5
65
330
1F
100
AcDbEntity
  8
0
  6
Continuous
 62
     7
100
AcDbLine
 10
598.7732423094
 20
416.3677065871
 30
0.0
 11
598.7732423094
 21
414.9243298224
 31
0.0
  0
LINE
  5
66
330
1F
100
AcDbEntity
  8
0
  6
Continuous
 62
     7
100
AcDbLine
 10
588.2751209286
 20
399.6460202387
 30
0.0
 11
587.3893512038
 21
399.6460202387
 31
0.0
  0
LINE
  5
67
330
1F
100
AcDbEntity
  8
0
  6
Continuous
 62
     7
100
AcDbLine
 10
587.3893512038
 20
380.646018987
 30
0.0
 11
587.3893512038
 21
399.6460202387
 31
0.0
  0
LINE
  5
68
330
1F
100
AcDbEntity
  8
0
  6
Continuous
 62
     7
100
AcDbLine
 10
581.3486588744
 20
380.646018987
 30
0.0
 11
587.3893512038
 21
380.646018987
 31
0.0
  0
LINE
  5
69
330
1F
100
AcDbEntity
  8
0
  6
Continuous
 62
     7
100
AcDbLine
 10
581.3486588744
 20
380.646018987
 30
0.0
 11
581.3486588744
 21
399.6460202387
 31
0.0
  0
LINE
  5
6A
330
1F
100
AcDbEntity
  8
0
  6
Continuous
 62
     7
100
AcDbLine
 10
581.3486588744
 20
399.6460202387
 30
0.0
 11
580.8845286814
 21
399.6460202387
 31
0.0
  0
LINE
  5
6B
330
1F
100
AcDbEntity
  8
0
  6
Continuous
 62
     7
100
AcDbLine
 10
580.8845286814
 20
380.646018987
 30
0.0
 11
580.8845286814
 21
399.6460202387
 31
0.0
  0
LINE
  5
6C
330
1F
100
AcDbEntity
  8
0
  6
Continuous
 62
     7
100
AcDbLine
 10
580.5232425777
 20
380.646018987
 30
0.0
 11
580.8845286814
 21
380.646018987
 31
0.0
  0
LINE
  5
6D
330
1F
100
AcDbEntity
  8
0
  6
Continuous
 62
     7
100
AcDbLine
 10
588.2751209286
 20
380.646018987
 30
0.0
 11
590.5232442168
 21
380.646018987
 31
0.0
  0
LINE
  5
6E
330
1F
100
AcDbEntity
  8
0
  6
Continuous
 62
     7
100
AcDbLine
 10
588.2751209286
 20
380.646018987
 30
0.0
 11
588.2751209286
 21
399.6460202387
 31
0.0
  0
LINE
  5
6F
330
1F
100
AcDbEntity
  8
0
  6
Continuous
 62
     7
100
AcDbLine
 10
586.9222966579
 20
379.6460169605
 30
0.0
 11
582.2400165347
 21
379.6460169605
 31
0.0
  0
LINE
  5
70
330
1F
100
AcDbEntity
  8
0
  6
Continuous
 62
     7
100
AcDbLine
 10
582.2400165347
 20
379.6460169605
 30
0.0
 11
581.3486588744
 21
380.646018987
 31
0.0
  0
LINE
  5
71
330
1F
100
AcDbEntity
  8
0
  6
Continuous
 62
     7
100
AcDbLine
 10
587.3893512038
 20
380.646018987
 30
0.0
 11
586.9222966579
 21
379.6460169605
 31
0.0
  0
LINE
  5
72
330
1F
100
AcDbEntity
  8
0
  6
Continuous
 62
     7
100
AcDbLine
 10
587.5152660159
 20
384.4210195593
 30
0.0
 11
587.5152660159
 21
383.5945788077
 31
0.0
  0
LINE
  5
73
330
1F
100
AcDbEntity
  8
0
  6
Continuous
 62
     7
100
AcDbLine
 10
587.5152660159
 20
383.5945788077
 30
0.0
 11
587.3893512038
 21
383.4402102283
 31
0.0
  0
LINE
  5
74
330
1F
100
AcDbEntity
  8
0
  6
Continuous
 62
     7
100
AcDbLine
 10
587.8080663827
 20
379.6460169605
 30
0.0
 11
588.2751209286
 21
380.646018987
 31
0.0
  0
LINE
  5
75
330
1F
100
AcDbEntity
  8
0
  6
Continuous
 62
     7
100
AcDbLine
 10
587.8080663827
 20
379.6460169605
 30
0.0
 11
586.9222966579
 21
379.6460169605
 31
0.0
  0
LINE
  5
76
330
1F
100
AcDbEntity
  8
0
  6
Continuous
 62
     7
100
AcDbLine
 10
589.5232421902
 20
379.6460169605
 30
0.0
 11
587.8080663827
 21
379.6460169605
 31
0.0
  0
LINE
  5
77
330
1F
100
AcDbEntity
  8
0
  6
Continuous
 62
     7
100
AcDbLine
 10
582.2400165347
 20
379.6460169605
 30
0.0
 11
581.775890067
 21
379.6460169605
 31
0.0
  0
LINE
  5
78
330
1F
100
AcDbEntity
  8
0
  6
Continuous
 62
     7
100
AcDbLine
 10
580.8845286814
 20
380.646018987
 30
0.0
 11
581.775890067
 21
379.6460169605
 31
0.0
  0
LINE
  5
79
330
1F
100
AcDbEntity
  8
0
  6
Continuous
 62
     7
100
AcDbLine
 10
581.775890067
 20
379.6460169605
 30
0.0
 11
581.5232446042
 21
379.6460169605
 31
0.0
  0
LINE
  5
7A
330
1F
100
AcDbEntity
  8
0
  6
Continuous
 62
     7
100
AcDbLine
 10
587.3893512038
 20
384.2960174433
 30
0.0
 11
587.5152660159
 21
384.2960174433
 31
0.0
  0
LINE
  5
7B
330
1F
100
AcDbEntity
  8
0
  6
Continuous
 62
     7
100
AcDbLine
 10
587.3893512038
 20
385.0460189632
 30
0.0
 11
587.8080663827
 21
385.0460189632
 31
0.0
  0
CIRCLE
  5
7C
330
1F
100
AcDbEntity
  8
0
  6
Continuous
 62
     7
100
AcDbCircle
 10
628.5232435922
 20
414.6460186294
 30
0.0
 40
1.700000000028012
  0
LINE
  5
7D
330
1F
100
AcDbEntity
  8
0
  6
Continuous
 62
     7
100
AcDbLine
 10
629.2449313772
 20
413.3960183016
 30
0.0
 11
629.9666188282
 21
414.6460171095
 31
0.0
  0
LINE
  5
7E
330
1F
100
AcDbEntity
  8
0
  6
Continuous
 62
     7
100
AcDbLine
 10
629.9666188282
 20
414.6460171095
 30
0.0
 11
629.2449313772
 21
415.8960177801
 31
0.0
  0
LINE
  5
7F
330
1F
100
AcDbEntity
  8
0
  6
Continuous
 62
     7
100
AcDbLine
 10
629.2449313772
 20
415.8960177801
 30
0.0
 11
627.8015555439
 21
415.8960177801
 31
0.0
  0
LINE
  5
80
330
1F
100
AcDbEntity
  8
0
  6
Continuous
 62
     7
100
AcDbLine
 10
627.8015555439
 20
415.8960177801
 30
0.0
 11
627.0798680929
 21
414.6460171095
 31
0.0
  0
LINE
  5
81
330
1F
100
AcDbEntity
  8
0
  6
Continuous
 62
     7
100
AcDbLine
 10
627.8015555439
 20
413.3960183016
 30
0.0
 11
627.0798680929
 21
414.6460171095
 31
0.0
  0
LINE
  5
82
330
1F
100
AcDbEntity
  8
0
  6
Continuous
 62
     7
100
AcDbLine
 10
627.8015555439
 20
413.3960183016
 30
0.0
 11
629.2449313772
 21
413.3960183016
 31
0.0
  0
LINE
  5
83
330
1F
100
AcDbEntity
  8
0
  6
Continuous
 62
     7
100
AcDbLine
 10
565.5232419816
 20
419.6460179291
 30
0.0
 11
585.5232452599
 21
419.6460179291
 31
0.0
  0
LINE
  5
84
330
1F
100
AcDbEntity
  8
0
  6
Continuous
 62
     7
100
AcDbLine
 10
565.5232419816
 20
529.6460154704
 30
0.0
 11
585.5232452599
 21
529.6460154704
 31
0.0
  0
LINE
  5
85
330
1F
100
AcDbEntity
  8
0
  6
Continuous
 62
     7
100
AcDbLine
 10
585.5232452599
 20
419.6460179291
 30
0.0
 11
642.5232435434
 21
419.6460179291
 31
0.0
  0
LINE
  5
86
330
1F
100
AcDbEntity
  8
0
  6
Continuous
 62
     7
100
AcDbLine
 10
585.5232452599
 20
529.6460154704
 30
0.0
 11
642.5232435434
 21
529.6460154704
 31
0.0
  0
LINE
  5
87
330
1F
100
AcDbEntity
  8
0
  6
Continuous
 62
     7
100
AcDbLine
 10
643.5232435921
 20
529.6460154704
 30
0.0
 11
643.5232435921
 21
490.1460173777
 31
0.0
  0
LINE
  5
88
330
1F
100
AcDbEntity
  8
0
  6
Continuous
 62
     7
100
AcDbLine
 10
643.5232435921
 20
490.1460173777
 30
0.0
 11
643.5232435921
 21
446.6460186294
 31
0.0
  0
LINE
  5
89
330
1F
100
AcDbEntity
  8
0
  6
Continuous
 62
     7
100
AcDbLine
 10
643.5232435921
 20
446.6460186294
 30
0.0
 11
643.5232435921
 21
419.6460179291
 31
0.0
  0
LINE
  5
8A
330
1F
100
AcDbEntity
  8
0
  6
Continuous
 62
     7
100
AcDbLine
 10
643.4300200275
 20
419.6460179291
 30
0.0
 11
642.5232435434
 21
419.6460179291
 31
0.0
  0
LINE
  5
8B
330
1F
100
AcDbEntity
  8
0
  6
Continuous
 62
     7
100
AcDbLine
 10
642.5232435434
 20
529.6460154704
 30
0.0
 11
643.5232435921
 21
529.6460154704
 31
0.0
  0
LINE
  5
8C
330
1F
100
AcDbEntity
  8
0
  6
Continuous
 62
     7
100
AcDbLine
 10
579.5232405511
 20
532.9960200242
 30
0.0
 11
579.5232405511
 21
532.7460157922
 31
0.0
  0
LINE
  5
8D
330
1F
100
AcDbEntity
  8
0
  6
Continuous
 62
     7
100
AcDbLine
 10
580.617887303
 20
532.9960200242
 30
0.0
 11
580.617887303
 21
532.7460157922
 31
0.0
  0
LINE
  5
8E
330
1F
100
AcDbEntity
  8
0
  6
Continuous
 62
     7
100
AcDbLine
 10
590.4285994915
 20
532.9960200242
 30
0.0
 11
590.4285994915
 21
532.7460157922
 31
0.0
  0
LINE
  5
8F
330
1F
100
AcDbEntity
  8
0
  6
Continuous
 62
     7
100
AcDbLine
 10
591.523242518
 20
532.9960200242
 30
0.0
 11
591.523242518
 21
532.7460157922
 31
0.0
  0
LINE
  5
90
330
1F
100
AcDbEntity
  8
0
  6
Continuous
 62
     7
100
AcDbLine
 10
532.2732453791
 20
417.2409667871
 30
0.0
 11
530.7732423392
 21
417.2409667871
 31
0.0
  0
LINE
  5
91
330
1F
100
AcDbEntity
  8
0
  6
Continuous
 62
     7
100
AcDbLine
 10
530.7732423392
 20
417.2409667871
 30
0.0
 11
530.7732423392
 21
563.240966504
 31
0.0
  0
LINE
  5
92
330
1F
100
AcDbEntity
  8
0
  6
Continuous
 62
     7
100
AcDbLine
 10
530.7732423392
 20
563.240966504
 30
0.0
 11
532.2732453791
 21
563.240966504
 31
0.0
  0
LINE
  5
93
330
1F
100
AcDbEntity
  8
0
  6
Continuous
 62
     7
100
AcDbLine
 10
532.2732453791
 20
563.240966504
 30
0.0
 11
532.2732453791
 21
564.7409695438
 31
0.0
  0
LINE
  5
94
330
1F
100
AcDbEntity
  8
0
  6
Continuous
 62
     7
100
AcDbLine
 10
636.7732434158
 20
564.7409695438
 30
0.0
 11
532.2732453791
 21
564.7409695438
 31
0.0
  0
LINE
  5
95
330
1F
100
AcDbEntity
  8
0
  6
Continuous
 62
     7
100
AcDbLine
 10
636.7732434158
 20
564.7409695438
 30
0.0
 11
636.7732434158
 21
563.240966504
 31
0.0
  0
LINE
  5
96
330
1F
100
AcDbEntity
  8
0
  6
Continuous
 62
     7
100
AcDbLine
 10
560.7732435313
 20
533.2409653119
 30
0.0
 11
560.7732435313
 21
528.2459694198
 31
0.0
  0
LINE
  5
97
330
1F
100
AcDbEntity
  8
0
  6
Continuous
 62
     7
100
AcDbLine
 10
560.7732435313
 20
528.2459694198
 30
0.0
 11
560.7682441917
 21
528.2459694198
 31
0.0
  0
LINE
  5
98
330
1F
100
AcDbEntity
  8
0
  6
Continuous
 62
     7
100
AcDbLine
 10
560.7682441917
 20
528.2459694198
 30
0.0
 11
560.7682441917
 21
528.2409700802
 31
0.0
  0
LINE
  5
99
330
1F
100
AcDbEntity
  8
0
  6
Continuous
 62
     7
100
AcDbLine
 10
560.7682441917
 20
528.2409700802
 30
0.0
 11
560.7732435313
 21
528.2409700802
 31
0.0
  0
LINE
  5
9A
330
1F
100
AcDbEntity
  8
0
  6
Continuous
 62
     7
100
AcDbLine
 10
560.7732435313
 20
417.2409667871
 30
0.0
 11
532.2732453791
 21
417.2409667871
 31
0.0
  0
LINE
  5
9B
330
1F
100
AcDbEntity
  8
0
  6
Continuous
 62
     7
100
AcDbLine
 10
636.7732434158
 20
533.2409653119
 30
0.0
 11
560.7732435313
 21
533.2409653119
 31
0.0
  0
LINE
  5
9C
330
1F
100
AcDbEntity
  8
0
  6
Continuous
 62
     7
100
AcDbLine
 10
562.2732465712
 20
417.2409667871
 30
0.0
 11
562.2732465712
 21
528.2409700802
 31
0.0
  0
LINE
  5
9D
330
1F
100
AcDbEntity
  8
0
  6
Continuous
 62
     7
100
AcDbLine
 10
562.2732465712
 20
417.2409667871
 30
0.0
 11
560.7732435313
 21
417.2409667871
 31
0.0
  0
LINE
  5
9E
330
1F
100
AcDbEntity
  8
0
  6
Continuous
 62
     7
100
AcDbLine
 10
560.7732435313
 20
528.2409700802
 30
0.0
 11
562.2732465712
 21
528.2409700802
 31
0.0
  0
LINE
  5
9F
330
1F
100
AcDbEntity
  8
0
  6
Continuous
 62
     7
100
AcDbLine
 10
636.7732434158
 20
563.240966504
 30
0.0
 11
638.2732436617
 21
563.240966504
 31
0.0
  0
LINE
  5
A0
330
1F
100
AcDbEntity
  8
0
  6
Continuous
 62
     7
100
AcDbLine
 10
638.2732436617
 20
563.240966504
 30
0.0
 11
638.2732436617
 21
533.2409653119
 31
0.0
  0
LINE
  5
A1
330
1F
100
AcDbEntity
  8
0
  6
Continuous
 62
     7
100
AcDbLine
 10
638.2732436617
 20
533.2409653119
 30
0.0
 11
636.7732434158
 21
533.2409653119
 31
0.0
  0
LINE
  5
A2
330
1F
100
AcDbEntity
  8
0
  6
Continuous
 62
     7
100
AcDbLine
 10
565.5232419816
 20
532.4460181645
 30
0.0
 11
605.5232448128
 21
532.4460181645
 31
0.0
  0
LINE
  5
A3
330
1F
100
AcDbEntity
  8
0
  6
Continuous
 62
     7
100
AcDbLine
 10
565.8232470599
 20
532.7460157922
 30
0.0
 11
605.2232434598
 21
532.7460157922
 31
0.0
  0
LINE
  5
A4
330
1F
100
AcDbEntity
  8
0
  6
Continuous
 62
     7
100
AcDbLine
 10
532.0232411471
 20
416.9960177741
 30
0.0
 11
532.0232411471
 21
417.2409667871
 31
0.0
  0
LINE
  5
A5
330
1F
100
AcDbEntity
  8
0
  6
Continuous
 62
     7
100
AcDbLine
 10
539.0232404319
 20
417.2409667871
 30
0.0
 11
539.0232404319
 21
416.9960177741
 31
0.0
  0
LINE
  5
A6
330
1F
100
AcDbEntity
  8
0
  6
Continuous
 62
     7
100
AcDbLine
 10
539.0232404319
 20
416.9960177741
 30
0.0
 11
532.0232411471
 21
416.9960177741
 31
0.0
  0
LINE
  5
A7
330
1F
100
AcDbEntity
  8
0
  6
Continuous
 62
     7
100
AcDbLine
 10
630.0232432408
 20
532.9960200242
 30
0.0
 11
630.0232432408
 21
533.2409653119
 31
0.0
  0
LINE
  5
A8
330
1F
100
AcDbEntity
  8
0
  6
Continuous
 62
     7
100
AcDbLine
 10
630.0232432408
 20
532.9960200242
 30
0.0
 11
561.0232403127
 21
532.9960200242
 31
0.0
  0
LINE
  5
A9
330
1F
100
AcDbEntity
  8
0
  6
Continuous
 62
     7
100
AcDbLine
 10
561.0232403127
 20
532.9960200242
 30
0.0
 11
561.0232403127
 21
528.2409700802
 31
0.0
  0
LINE
  5
AA
330
1F
100
AcDbEntity
  8
0
  6
Continuous
 62
     7
100
AcDbLine
 10
561.0232403127
 20
417.2409667871
 30
0.0
 11
561.0232403127
 21
416.9960177741
 31
0.0
  0
LINE
  5
AB
330
1F
100
AcDbEntity
  8
0
  6
Continuous
 62
     7
100
AcDbLine
 10
561.0232403127
 20
416.9960177741
 30
0.0
 11
539.0232404319
 21
416.9960177741
 31
0.0
  0
LINE
  5
AC
330
1F
100
AcDbEntity
  8
0
  6
Continuous
 62
     7
100
AcDbLine
 10
637.0232434568
 20
533.2409653119
 30
0.0
 11
637.0232434568
 21
532.9960200242
 31
0.0
  0
LINE
  5
AD
330
1F
100
AcDbEntity
  8
0
  6
Continuous
 62
     7
100
AcDbLine
 10
637.0232434568
 20
532.9960200242
 30
0.0
 11
630.0232432408
 21
532.9960200242
 31
0.0
  0
LINE
  5
AE
330
1F
100
AcDbEntity
  8
0
  6
Continuous
 62
     7
100
AcDbLine
 10
547.5232427565
 20
412.9960189811
 30
0.0
 11
561.0232403127
 21
412.9960189811
 31
0.0
  0
LINE
  5
AF
330
1F
100
AcDbEntity
  8
0
  6
Continuous
 62
     7
100
AcDbLine
 10
547.5232427565
 20
416.9960177741
 30
0.0
 11
547.5232427565
 21
412.9960189811
 31
0.0
  0
LINE
  5
B0
330
1F
100
AcDbEntity
  8
0
  6
Continuous
 62
     7
100
AcDbLine
 10
561.0232403127
 20
412.9960189811
 30
0.0
 11
561.0232403127
 21
416.9960177741
 31
0.0
  0
LINE
  5
B1
330
1F
100
AcDbEntity
  8
0
  6
Continuous
 62
     7
100
AcDbLine
 10
564.7079323975
 20
418.9960181019
 30
0.0
 11
564.7079323975
 21
412.9960189811
 31
0.0
  0
LINE
  5
B2
330
1F
100
AcDbEntity
  8
0
  6
Continuous
 62
     7
100
AcDbLine
 10
564.7079323975
 20
418.9960181019
 30
0.0
 11
562.2732465712
 21
418.9960181019
 31
0.0
  0
LINE
  5
B3
330
1F
100
AcDbEntity
  8
0
  6
Continuous
 62
     7
100
AcDbLine
 10
564.7079323975
 20
412.9960189811
 30
0.0
 11
561.0232403127
 21
412.9960189811
 31
0.0
  0
LINE
  5
B4
330
1F
100
AcDbEntity
  8
0
  6
Continuous
 62
     7
100
AcDbLine
 10
565.0232409683
 20
418.9960181019
 30
0.0
 11
565.0232409683
 21
412.9960189811
 31
0.0
  0
LINE
  5
B5
330
1F
100
AcDbEntity
  8
0
  6
Continuous
 62
     7
100
AcDbLine
 10
565.0232409683
 20
418.9960181019
 30
0.0
 11
564.7079323975
 21
418.9960181019
 31
0.0
  0
LINE
  5
B6
330
1F
100
AcDbEntity
  8
0
  6
Continuous
 62
     7
100
AcDbLine
 10
565.0232409683
 20
412.9960189811
 30
0.0
 11
564.7079323975
 21
412.9960189811
 31
0.0
  0
LINE
  5
B7
330
1F
100
AcDbEntity
  8
0
  6
Continuous
 62
     7
100
AcDbLine
 10
642.0232435779
 20
547.9960206202
 30
0.0
 11
642.0232435779
 21
532.9960200242
 31
0.0
  0
LINE
  5
B8
330
1F
100
AcDbEntity
  8
0
  6
Continuous
 62
     7
100
AcDbLine
 10
642.0232435779
 20
547.9960206202
 30
0.0
 11
639.0232437846
 21
547.9960206202
 31
0.0
  0
LINE
  5
B9
330
1F
100
AcDbEntity
  8
0
  6
Continuous
 62
     7
100
AcDbLine
 10
642.0232435779
 20
532.9960200242
 30
0.0
 11
637.0232434568
 21
532.9960200242
 31
0.0
  0
LINE
  5
BA
330
1F
100
AcDbEntity
  8
0
  6
Continuous
 62
     7
100
AcDbLine
 10
565.5232419816
 20
409.6460181526
 30
0.0
 11
585.5232452599
 21
409.6460181526
 31
0.0
  0
CIRCLE
  5
BB
330
1F
100
AcDbEntity
  8
0
  6
Continuous
 62
     7
100
AcDbCircle
 10
600.0232435922
 20
415.6460186294
 30
0.0
 40
2.499999999999886
  0
CIRCLE
  5
BC
330
1F
100
AcDbEntity
  8
0
  6
Continuous
 62
     7
100
AcDbCircle
 10
628.5232435922
 20
414.6460186294
 30
0.0
 40
2.499999999999773
  0
LINE
  5
BD
330
1F
100
AcDbEntity
  8
0
  6
Continuous
 62
     7
100
AcDbLine
 10
585.5232452599
 20
419.6460179291
 30
0.0
 11
642.0232435779
 21
419.6460179291
 31
0.0
  0
LINE
  5
BE
330
1F
100
AcDbEntity
  8
0
  6
Continuous
 62
     7
100
AcDbLine
 10
585.5232452599
 20
409.6460181526
 30
0.0
 11
642.0232435779
 21
409.6460181526
 31
0.0
  0
LINE
  5
BF
330
1F
100
AcDbEntity
  8
0
  6
Continuous
 62
     7
100
AcDbLine
 10
644.0232436147
 20
419.6460179291
 30
0.0
 11
644.0232436147
 21
409.6460181526
 31
0.0
  0
LINE
  5
C0
330
1F
100
AcDbEntity
  8
0
  6
Continuous
 62
     7
100
AcDbLine
 10
643.4300200275
 20
419.6460179291
 30
0.0
 11
644.0232436147
 21
419.6460179291
 31
0.0
  0
LINE
  5
C1
330
1F
100
AcDbEntity
  8
0
  6
Continuous
 62
     7
100
AcDbLine
 10
644.0232436147
 20
409.6460181526
 30
0.0
 11
642.0232435779
 21
409.6460181526
 31
0.0
  0
LINE
  5
C2
330
1F
100
AcDbEntity
  8
0
  6
Continuous
 62
     7
100
AcDbLine
 10
644.0232436147
 20
419.6460179291
 30
0.0
 11
644.0232436147
 21
501.6460183314
 31
0.0
  0
LINE
  5
C3
330
1F
100
AcDbEntity
  8
0
  6
Continuous
 62
     7
100
AcDbLine
 10
644.0232436147
 20
501.6460183314
 30
0.0
 11
644.0232436147
 21
511.146015232
 31
0.0
  0
LINE
  5
C4
330
1F
100
AcDbEntity
  8
0
  6
Continuous
 62
     8
100
AcDbLine
 10
585.5232452599
 20
419.6460179291
 30
0.0
 11
585.5232452599
 21
529.6460154704
 31
0.0
  0
LINE
  5
C5
330
1F
100
AcDbEntity
  8
0
  6
Continuous
 62
     8
100
AcDbLine
 10
642.5232435434
 20
419.6460179291
 30
0.0
 11
642.5232435434
 21
529.6460154704
 31
0.0
  0
LINE
  5
C6
330
1F
100
AcDbEntity
  8
0
  6
Continuous
 62
     8
100
AcDbLine
 10
532.2732453791
 20
563.240966504
 30
0.0
 11
532.2732453791
 21
417.2409667871
 31
0.0
  0
LINE
  5
C7
330
1F
100
AcDbEntity
  8
0
  6
Continuous
 62
     8
100
AcDbLine
 10
532.2732453791
 20
563.240966504
 30
0.0
 11
636.7732434158
 21
563.240966504
 31
0.0
  0
LINE
  5
C8
330
1F
100
AcDbEntity
  8
0
  6
Continuous
 62
     8
100
AcDbLine
 10
560.7732435313
 20
417.2409667871
 30
0.0
 11
560.7732435313
 21
528.2409700802
 31
0.0
  0
LINE
  5
C9
330
1F
100
AcDbEntity
  8
0
  6
Continuous
 62
     8
100
AcDbLine
 10
636.7732434158
 20
563.240966504
 30
0.0
 11
636.7732434158
 21
533.2409653119
 31
0.0
  0
LINE
  5
CA
330
1F
100
AcDbEntity
  8
0
  6
Continuous
 62
     8
100
AcDbLine
 10
585.5232452599
 20
409.6460181526
 30
0.0
 11
585.5232452599
 21
419.6460179291
 31
0.0
  0
LINE
  5
CB
330
1F
100
AcDbEntity
  8
0
  6
Continuous
 62
     8
100
AcDbLine
 10
642.0232435779
 20
409.6460181526
 30
0.0
 11
642.0232435779
 21
419.6460179291
 31
0.0
  0
LINE
  5
CC
330
1F
100
AcDbEntity
  8
0
  6
Continuous
 62
     8
100
AcDbLine
 10
643.5232435921
 20
501.6460183314
 30
0.0
 11
644.0232436147
 21
501.6460183314
 31
0.0
  0
LINE
  5
CD
330
1F
100
AcDbEntity
  8
0
  6
Continuous
 62
     7
100
AcDbLine
 10
765.1107519425
 20
423.9960189215
 30
0.0
 11
765.6107520245
 21
423.9960189215
 31
0.0
  0
LINE
  5
CE
330
1F
100
AcDbEntity
  8
0
  6
Continuous
 62
     7
100
AcDbLine
 10
776.410751839
 20
380.646018987
 30
0.0
 11
776.410751839
 21
409.6460181526
 31
0.0
  0
LINE
  5
CF
330
1F
100
AcDbEntity
  8
0
  6
Continuous
 62
     7
100
AcDbLine
 10
766.4107520625
 20
409.6460181526
 30
0.0
 11
766.4107520625
 21
380.646018987
 31
0.0
  0
LINE
  5
D0
330
1F
100
AcDbEntity
  8
0
  6
Continuous
 62
     7
100
AcDbLine
 10
775.4107521407
 20
379.6460169605
 30
0.0
 11
776.410751839
 21
380.646018987
 31
0.0
  0
LINE
  5
D1
330
1F
100
AcDbEntity
  8
0
  6
Continuous
 62
     7
100
AcDbLine
 10
766.4107520625
 20
380.646018987
 30
0.0
 11
767.4107517607
 21
379.6460169605
 31
0.0
  0
LINE
  5
D2
330
1F
100
AcDbEntity
  8
0
  6
Continuous
 62
     7
100
AcDbLine
 10
791.4107515037
 20
532.4460181645
 30
0.0
 11
791.1107520133
 21
532.7460157922
 31
0.0
  0
LINE
  5
D3
330
1F
100
AcDbEntity
  8
0
  6
Continuous
 62
     7
100
AcDbLine
 10
751.7107518881
 20
532.7460157922
 30
0.0
 11
751.4107523977
 21
532.4460181645
 31
0.0
  0
LINE
  5
D4
330
1F
100
AcDbEntity
  8
0
  6
Continuous
 62
     7
100
AcDbLine
 10
751.4107523977
 20
532.4460181645
 30
0.0
 11
751.4107523977
 21
529.6460154704
 31
0.0
  0
LINE
  5
D5
330
1F
100
AcDbEntity
  8
0
  6
Continuous
 62
     7
100
AcDbLine
 10
791.4107515037
 20
529.6460154704
 30
0.0
 11
791.4107515037
 21
532.4460181645
 31
0.0
  0
ARC
  5
D6
330
1F
100
AcDbEntity
  8
0
  6
Continuous
 62
     7
100
AcDbCircle
 10
761.3107519578
 20
437.9960186294
 30
0.0
 40
1.500000000000048
100
AcDbArc
 50
91.31621481240002
 51
270.0
  0
ARC
  5
D7
330
1F
100
AcDbEntity
  8
0
  6
Continuous
 62
     7
100
AcDbCircle
 10
761.3107519578
 20
437.9960186294
 30
0.0
 40
1.500000000000048
100
AcDbArc
 50
34.0097350769
 51
91.31621481240002
  0
ARC
  5
D8
330
1F
100
AcDbEntity
  8
0
  6
Continuous
 62
     7
100
AcDbCircle
 10
761.3107519578
 20
437.9960186294
 30
0.0
 40
1.499999999999943
100
AcDbArc
 50
270.0
 51
325.9664642977999
  0
LINE
  5
D9
330
1F
100
AcDbEntity
  8
0
  6
Continuous
 62
     7
100
AcDbLine
 10
762.6330143332
 20
437.4008790827
 30
0.0
 11
762.6330143332
 21
438.5911586932
 31
0.0
  0
ARC
  5
DA
330
1F
100
AcDbEntity
  8
0
  6
Continuous
 62
     7
100
AcDbCircle
 10
780.9107519578
 20
522.9960186294
 30
0.0
 40
1.500000000000137
100
AcDbArc
 50
279.8213440232
 51
126.8698976743
  0
ARC
  5
DB
330
1F
100
AcDbEntity
  8
0
  6
Continuous
 62
     7
100
AcDbCircle
 10
761.3107519578
 20
522.9960186294
 30
0.0
 40
1.500000000000048
100
AcDbArc
 50
91.31621481240002
 51
270.0
  0
ARC
  5
DC
330
1F
100
AcDbEntity
  8
0
  6
Continuous
 62
     7
100
AcDbCircle
 10
761.3107519578
 20
522.9960186294
 30
0.0
 40
1.500000000000048
100
AcDbArc
 50
34.0097350769
 51
91.31621481240002
  0
ARC
  5
DD
330
1F
100
AcDbEntity
  8
0
  6
Continuous
 62
     7
100
AcDbCircle
 10
761.3107519578
 20
522.9960186294
 30
0.0
 40
1.5
100
AcDbArc
 50
270.0
 51
325.9664642977999
  0
LINE
  5
DE
330
1F
100
AcDbEntity
  8
0
  6
Continuous
 62
     7
100
AcDbLine
 10
762.6330143332
 20
522.4008771828
 30
0.0
 11
762.6330143332
 21
523.5911595873
 31
0.0
  0
ARC
  5
DF
330
1F
100
AcDbEntity
  8
0
  6
Continuous
 62
     7
100
AcDbCircle
 10
780.9107519578
 20
437.9960186294
 30
0.0
 40
1.5
100
AcDbArc
 50
271.316214831
 51
90.0
  0
ARC
  5
E0
330
1F
100
AcDbEntity
  8
0
  6
Continuous
 62
     7
100
AcDbCircle
 10
780.9107519578
 20
437.9960186294
 30
0.0
 40
1.50000000000003
100
AcDbArc
 50
214.0097350821
 51
271.316214831
  0
ARC
  5
E1
330
1F
100
AcDbEntity
  8
0
  6
Continuous
 62
     7
100
AcDbCircle
 10
780.9107519578
 20
437.9960186294
 30
0.0
 40
1.500000000000042
100
AcDbArc
 50
90.0
 51
145.9664642926
  0
LINE
  5
E2
330
1F
100
AcDbEntity
  8
0
  6
Continuous
 62
     7
100
AcDbLine
 10
779.5884896561
 20
438.5911577619
 30
0.0
 11
779.5884896561
 21
437.4008781514
 31
0.0
  0
LINE
  5
E3
330
1F
100
AcDbEntity
  8
0
  6
Continuous
 62
     7
100
AcDbLine
 10
775.610751801
 20
555.4960209182
 30
0.0
 11
766.1107521064
 21
555.4960209182
 31
0.0
  0
LINE
  5
E4
330
1F
100
AcDbEntity
  8
0
  6
Continuous
 62
     7
100
AcDbLine
 10
766.1107521064
 20
553.9960178784
 30
0.0
 11
765.6107520245
 21
553.9960178784
 31
0.0
  0
LINE
  5
E5
330
1F
100
AcDbEntity
  8
0
  6
Continuous
 62
     7
100
AcDbLine
 10
774.1626292493
 20
380.646018987
 30
0.0
 11
776.410751839
 21
380.646018987
 31
0.0
  0
LINE
  5
E6
330
1F
100
AcDbEntity
  8
0
  6
Continuous
 62
     7
100
AcDbLine
 10
774.1626292493
 20
380.646018987
 30
0.0
 11
774.1626292493
 21
399.6460202387
 31
0.0
  0
LINE
  5
E7
330
1F
100
AcDbEntity
  8
0
  6
Continuous
 62
     7
100
AcDbLine
 10
774.1626292493
 20
399.6460202387
 30
0.0
 11
773.2768595244
 21
399.6460202387
 31
0.0
  0
LINE
  5
E8
330
1F
100
AcDbEntity
  8
0
  6
Continuous
 62
     7
100
AcDbLine
 10
773.2768595244
 20
380.646018987
 30
0.0
 11
773.2768595244
 21
399.6460202387
 31
0.0
  0
LINE
  5
E9
330
1F
100
AcDbEntity
  8
0
  6
Continuous
 62
     7
100
AcDbLine
 10
767.2361655652
 20
380.646018987
 30
0.0
 11
773.2768595244
 21
380.646018987
 31
0.0
  0
LINE
  5
EA
330
1F
100
AcDbEntity
  8
0
  6
Continuous
 62
     7
100
AcDbLine
 10
767.2361655652
 20
380.646018987
 30
0.0
 11
767.2361655652
 21
399.6460202387
 31
0.0
  0
LINE
  5
EB
330
1F
100
AcDbEntity
  8
0
  6
Continuous
 62
     7
100
AcDbLine
 10
767.2361655652
 20
399.6460202387
 30
0.0
 11
766.7720404945
 21
399.6460202387
 31
0.0
  0
LINE
  5
EC
330
1F
100
AcDbEntity
  8
0
  6
Continuous
 62
     7
100
AcDbLine
 10
766.7720404945
 20
380.646018987
 30
0.0
 11
766.7720404945
 21
399.6460202387
 31
0.0
  0
LINE
  5
ED
330
1F
100
AcDbEntity
  8
0
  6
Continuous
 62
     7
100
AcDbLine
 10
766.4107520625
 20
380.646018987
 30
0.0
 11
766.7720404945
 21
380.646018987
 31
0.0
  0
LINE
  5
EE
330
1F
100
AcDbEntity
  8
0
  6
Continuous
 62
     7
100
AcDbLine
 10
772.8098059099
 20
379.6460169605
 30
0.0
 11
768.1275248553
 21
379.6460169605
 31
0.0
  0
LINE
  5
EF
330
1F
100
AcDbEntity
  8
0
  6
Continuous
 62
     7
100
AcDbLine
 10
768.1275248553
 20
379.6460169605
 30
0.0
 11
767.2361655652
 21
380.646018987
 31
0.0
  0
LINE
  5
F0
330
1F
100
AcDbEntity
  8
0
  6
Continuous
 62
     7
100
AcDbLine
 10
773.2768595244
 20
380.646018987
 30
0.0
 11
772.8098059099
 21
379.6460169605
 31
0.0
  0
LINE
  5
F1
330
1F
100
AcDbEntity
  8
0
  6
Continuous
 62
     7
100
AcDbLine
 10
773.4027734052
 20
384.4210195593
 30
0.0
 11
773.4027734052
 21
383.5945788077
 31
0.0
  0
LINE
  5
F2
330
1F
100
AcDbEntity
  8
0
  6
Continuous
 62
     7
100
AcDbLine
 10
775.4107521407
 20
379.6460169605
 30
0.0
 11
773.6955756347
 21
379.6460169605
 31
0.0
  0
LINE
  5
F3
330
1F
100
AcDbEntity
  8
0
  6
Continuous
 62
     7
100
AcDbLine
 10
773.6955756347
 20
379.6460169605
 30
0.0
 11
774.1626292493
 21
380.646018987
 31
0.0
  0
LINE
  5
F4
330
1F
100
AcDbEntity
  8
0
  6
Continuous
 62
     7
100
AcDbLine
 10
773.4027734052
 20
383.5945788077
 30
0.0
 11
773.2768595244
 21
383.4402102283
 31
0.0
  0
LINE
  5
F5
330
1F
100
AcDbEntity
  8
0
  6
Continuous
 62
     7
100
AcDbLine
 10
773.6955756347
 20
379.6460169605
 30
0.0
 11
772.8098059099
 21
379.6460169605
 31
0.0
  0
LINE
  5
F6
330
1F
100
AcDbEntity
  8
0
  6
Continuous
 62
     7
100
AcDbLine
 10
768.1275248553
 20
379.6460169605
 30
0.0
 11
767.6633997846
 21
379.6460169605
 31
0.0
  0
LINE
  5
F7
330
1F
100
AcDbEntity
  8
0
  6
Continuous
 62
     7
100
AcDbLine
 10
766.7720404945
 20
380.646018987
 30
0.0
 11
767.6633997846
 21
379.6460169605
 31
0.0
  0
LINE
  5
F8
330
1F
100
AcDbEntity
  8
0
  6
Continuous
 62
     7
100
AcDbLine
 10
767.6633997846
 20
379.6460169605
 30
0.0
 11
767.4107517607
 21
379.6460169605
 31
0.0
  0
LINE
  5
F9
330
1F
100
AcDbEntity
  8
0
  6
Continuous
 62
     7
100
AcDbLine
 10
773.2768595244
 20
385.0460189632
 30
0.0
 11
773.6955756347
 21
385.0460189632
 31
0.0
  0
LINE
  5
FA
330
1F
100
AcDbEntity
  8
0
  6
Continuous
 62
     7
100
AcDbLine
 10
773.2768595244
 20
384.2960174433
 30
0.0
 11
773.4027734052
 21
384.2960174433
 31
0.0
  0
LINE
  5
FB
330
1F
100
AcDbEntity
  8
0
  6
Continuous
 62
     7
100
AcDbLine
 10
791.4107515037
 20
419.6460179291
 30
0.0
 11
791.4107515037
 21
529.6460154704
 31
0.0
  0
LINE
  5
FC
330
1F
100
AcDbEntity
  8
0
  6
Continuous
 62
     7
100
AcDbLine
 10
751.4107523977
 20
419.6460179291
 30
0.0
 11
755.1107517004
 21
419.6460179291
 31
0.0
  0
LINE
  5
FD
330
1F
100
AcDbEntity
  8
0
  6
Continuous
 62
     7
100
AcDbLine
 10
765.1107519425
 20
419.6460179291
 30
0.0
 11
765.6107520245
 21
419.6460179291
 31
0.0
  0
LINE
  5
FE
330
1F
100
AcDbEntity
  8
0
  6
Continuous
 62
     7
100
AcDbLine
 10
787.1107513576
 20
419.6460179291
 30
0.0
 11
791.4107515037
 21
419.6460179291
 31
0.0
  0
LINE
  5
FF
330
1F
100
AcDbEntity
  8
0
  6
Continuous
 62
     7
100
AcDbLine
 10
751.4107523977
 20
419.6460179291
 30
0.0
 11
751.4107523977
 21
529.6460154704
 31
0.0
  0
LINE
  5
100
330
1F
100
AcDbEntity
  8
0
  6
Continuous
 62
     7
100
AcDbLine
 10
751.4107523977
 20
529.6460154704
 30
0.0
 11
755.1107517004
 21
529.6460154704
 31
0.0
  0
LINE
  5
101
330
1F
100
AcDbEntity
  8
0
  6
Continuous
 62
     7
100
AcDbLine
 10
787.1107513576
 20
529.6460154704
 30
0.0
 11
791.4107515037
 21
529.6460154704
 31
0.0
  0
LINE
  5
102
330
1F
100
AcDbEntity
  8
0
  6
Continuous
 62
     7
100
AcDbLine
 10
777.1107520468
 20
563.240966504
 30
0.0
 11
777.1107520468
 21
417.2409667871
 31
0.0
  0
LINE
  5
103
330
1F
100
AcDbEntity
  8
0
  6
Continuous
 62
     7
100
AcDbLine
 10
785.6107520431
 20
563.240966504
 30
0.0
 11
777.1107520468
 21
563.240966504
 31
0.0
  0
LINE
  5
104
330
1F
100
AcDbEntity
  8
0
  6
Continuous
 62
     7
100
AcDbLine
 10
777.1107520468
 20
417.2409667871
 30
0.0
 11
785.6107520431
 21
417.2409667871
 31
0.0
  0
ARC
  5
105
330
1F
100
AcDbEntity
  8
0
  6
Continuous
 62
     7
100
AcDbCircle
 10
781.4730307728
 20
523.2409676037
 30
0.0
 40
1.750000000000114
100
AcDbArc
 50
0.0000000072
 51
168.2041036661
  0
ARC
  5
106
330
1F
100
AcDbEntity
  8
0
  6
Continuous
 62
     7
100
AcDbCircle
 10
781.4730307728
 20
523.2409676037
 30
0.0
 40
1.750000000000114
100
AcDbArc
 50
238.8752601015
 51
0.0000000072
  0
CIRCLE
  5
107
330
1F
100
AcDbEntity
  8
0
  6
Continuous
 62
     7
100
AcDbCircle
 10
780.8607519578
 20
438.2409676037
 30
0.0
 40
1.75
  0
LINE
  5
108
330
1F
100
AcDbEntity
  8
0
  6
Continuous
 62
     7
100
AcDbLine
 10
787.1107513576
 20
417.2409667871
 30
0.0
 11
785.6107520431
 21
417.2409667871
 31
0.0
  0
LINE
  5
109
330
1F
100
AcDbEntity
  8
0
  6
Continuous
 62
     7
100
AcDbLine
 10
785.6107520431
 20
563.240966504
 30
0.0
 11
787.1107513576
 21
563.240966504
 31
0.0
  0
LINE
  5
10A
330
1F
100
AcDbEntity
  8
0
  6
Continuous
 62
     7
100
AcDbLine
 10
787.1107513576
 20
563.240966504
 30
0.0
 11
787.1107513576
 21
417.2409667871
 31
0.0
  0
LINE
  5
10B
330
1F
100
AcDbEntity
  8
0
  6
Continuous
 62
     7
100
AcDbLine
 10
777.1107520468
 20
564.7409695438
 30
0.0
 11
785.6107520431
 21
564.7409695438
 31
0.0
  0
LINE
  5
10C
330
1F
100
AcDbEntity
  8
0
  6
Continuous
 62
     7
100
AcDbLine
 10
777.1107520468
 20
564.7409695438
 30
0.0
 11
777.1107520468
 21
563.7409675172
 31
0.0
  0
LINE
  5
10D
330
1F
100
AcDbEntity
  8
0
  6
Continuous
 62
     7
100
AcDbLine
 10
777.1107520468
 20
563.7409675172
 30
0.0
 11
785.6107520431
 21
563.7409675172
 31
0.0
  0
ARC
  5
10E
330
1F
100
AcDbEntity
  8
0
  6
Continuous
 62
     7
100
AcDbCircle
 10
785.6107519577
 20
563.2409676037
 30
0.0
 40
1.5
100
AcDbArc
 50
0.0000000072
 51
90.0
  0
ARC
  5
10F
330
1F
100
AcDbEntity
  8
0
  6
Continuous
 62
     7
100
AcDbCircle
 10
785.6107519577
 20
563.2409676037
 30
0.0
 40
0.5
100
AcDbArc
 50
0.0000000072
 51
90.0
  0
LINE
  5
110
330
1F
100
AcDbEntity
  8
0
  6
Continuous
 62
     7
100
AcDbLine
 10
787.1107513576
 20
532.7460157922
 30
0.0
 11
791.1107520133
 21
532.7460157922
 31
0.0
  0
LINE
  5
111
330
1F
100
AcDbEntity
  8
0
  6
Continuous
 62
     7
100
AcDbLine
 10
751.7107518881
 20
532.7460157922
 30
0.0
 11
755.1107517004
 21
532.7460157922
 31
0.0
  0
LINE
  5
112
330
1F
100
AcDbEntity
  8
0
  6
Continuous
 62
     7
100
AcDbLine
 10
787.1107513576
 20
532.4460181645
 30
0.0
 11
791.4107515037
 21
532.4460181645
 31
0.0
  0
LINE
  5
113
330
1F
100
AcDbEntity
  8
0
  6
Continuous
 62
     7
100
AcDbLine
 10
751.4107523977
 20
532.4460181645
 30
0.0
 11
755.1107517004
 21
532.4460181645
 31
0.0
  0
SPLINE
  5
114
330
1F
100
AcDbEntity
  8
0
  6
Continuous
 62
     7
100
AcDbSpline
210
0.0
220
0.0
230
1.0
 70
     8
 71
     3
 72
    12
 73
     8
 74
     0
 42
0.00000001
 43
0.00000001
 40
0.0
 40
0.0
 40
0.0
 40
0.0
 40
0.246657805231073
 40
0.4224786044514173
 40
0.6463432703638272
 40
0.8442586899485794
 40
1.0
 40
1.0
 40
1.0
 40
1.0
 10
762.2775396823595
 20
437.9960184222946
 30
0.0
 10
762.349683350609
 20
438.0679325018316
 30
0.0
 10
762.4732519368674
 20
438.1911078456433
 30
0.0
 10
762.5900249074195
 20
438.3772801434349
 30
0.0
 10
762.6403561027912
 20
438.5449033371524
 30
0.0
 10
762.6329426273616
 20
438.7023630183457
 30
0.0
 10
762.572746969027
 20
438.7907505421031
 30
0.0
 10
762.5462383523295
 20
438.8296741298328
 30
0.0
  0
SPLINE
  5
115
330
1F
100
AcDbEntity
  8
0
  6
Continuous
 62
     7
100
AcDbSpline
210
0.0
220
0.0
230
1.0
 70
     8
 71
     3
 72
    12
 73
     8
 74
     0
 42
0.00000001
 43
0.00000001
 40
0.0
 40
0.0
 40
0.0
 40
0.0
 40
0.1563243947090449
 40
0.3541368789000739
 40
0.5778134134111181
 40
0.7535343058320172
 40
1.0
 40
1.0
 40
1.0
 40
1.0
 10
762.5459347411702
 20
437.1618355861793
 30
0.0
 10
762.5725687410859
 20
437.2009321897712
 30
0.0
 10
762.632905335514
 20
437.2895015342897
 30
0.0
 10
762.6403663137716
 20
437.4471370935319
 30
0.0
 10
762.5900148754065
 20
437.6147747276562
 30
0.0
 10
762.4732467145982
 20
437.8009356908801
 30
0.0
 10
762.3496774300983
 20
437.9241107922723
 30
0.0
 10
762.2775396823595
 20
437.9960184222946
 30
0.0
  0
LINE
  5
116
330
1F
100
AcDbEntity
  8
0
  6
Continuous
 62
     7
100
AcDbLine
 10
761.3107523441
 20
439.4960186682
 30
0.0
 11
761.3107523441
 21
439.9902533977
 31
0.0
  0
LINE
  5
117
330
1F
100
AcDbEntity
  8
0
  6
Continuous
 62
     7
100
AcDbLine
 10
761.3107523441
 20
436.4916819385
 30
0.0
 11
761.3107523441
 21
436.4960181764
 31
0.0
  0
LINE
  5
118
330
1F
100
AcDbEntity
  8
0
  6
Continuous
 62
     7
100
AcDbLine
 10
762.3642290502
 20
439.6746807969
 30
0.0
 11
762.3642290502
 21
439.0638132817
 31
0.0
  0
LINE
  5
119
330
1F
100
AcDbEntity
  8
0
  6
Continuous
 62
     7
100
AcDbLine
 10
762.3642290502
 20
436.9282235629
 30
0.0
 11
762.3642290502
 21
436.8072540737
 31
0.0
  0
SPLINE
  5
11A
330
1F
100
AcDbEntity
  8
0
  6
Continuous
 62
     7
100
AcDbSpline
210
0.0
220
0.0
230
1.0
 70
     8
 71
     3
 72
     9
 73
     5
 74
     0
 42
0.00000001
 43
0.00000001
 40
0.0
 40
0.0
 40
0.0
 40
0.0
 40
0.62808832801433
 40
1.0
 40
1.0
 40
1.0
 40
1.0
 10
779.9439633756588
 20
522.996022110332
 30
0.0
 10
779.8703180727973
 20
522.9240079558002
 30
0.0
 10
779.7530649738671
 20
522.8093518615536
 30
0.0
 10
779.688051891952
 20
522.696730370629
 30
0.0
 10
779.663872767956
 20
522.6548451236376
 30
0.0
  0
SPLINE
  5
11B
330
1F
100
AcDbEntity
  8
0
  6
Continuous
 62
     7
100
AcDbSpline
210
0.0
220
0.0
230
1.0
 70
     8
 71
     3
 72
     9
 73
     5
 74
     0
 42
0.00000001
 43
0.00000001
 40
0.0
 40
0.0
 40
0.0
 40
0.0
 40
0.3719836878873653
 40
1.0
 40
1.0
 40
1.0
 40
1.0
 10
779.6638709053109
 20
523.3371990970263
 30
0.0
 10
779.6880544698473
 20
523.2953034283373
 30
0.0
 10
779.7530669027145
 20
523.1826757243456
 30
0.0
 10
779.8703240035949
 20
523.0680247760566
 30
0.0
 10
779.9439633756588
 20
522.996022110332
 30
0.0
  0
LINE
  5
11C
330
1F
100
AcDbEntity
  8
0
  6
Continuous
 62
     7
100
AcDbLine
 10
780.9107516452
 20
524.8981776885
 30
0.0
 11
780.9107516452
 21
524.4960176996
 31
0.0
  0
SPLINE
  5
11D
330
1F
100
AcDbEntity
  8
0
  6
Continuous
 62
     7
100
AcDbSpline
210
0.0
220
0.0
230
1.0
 70
     8
 71
     3
 72
    12
 73
     8
 74
     0
 42
0.00000001
 43
0.00000001
 40
0.0
 40
0.0
 40
0.0
 40
0.0
 40
0.2466566660760281
 40
0.4224780173666613
 40
0.6463415686650009
 40
0.8442582025583014
 40
1.0
 40
1.0
 40
1.0
 40
1.0
 10
762.2775396823595
 20
522.996022110332
 30
0.0
 10
762.3496834613396
 20
523.0679344707705
 30
0.0
 10
762.4732526362325
 20
523.1911072677823
 30
0.0
 10
762.5900244044809
 20
523.3772818504012
 30
0.0
 10
762.6403563159025
 20
523.5448994308372
 30
0.0
 10
762.6329426784604
 20
523.7023632484999
 30
0.0
 10
762.5727469536901
 20
523.7907512786495
 30
0.0
 10
762.5462383523295
 20
523.8296750239024
 30
0.0
  0
SPLINE
  5
11E
330
1F
100
AcDbEntity
  8
0
  6
Continuous
 62
     7
100
AcDbSpline
210
0.0
220
0.0
230
1.0
 70
     8
 71
     3
 72
    12
 73
     8
 74
     0
 42
0.00000001
 43
0.00000001
 40
0.0
 40
0.0
 40
0.0
 40
0.0
 40
0.1563246401459275
 40
0.3541366525386462
 40
0.5778123111600394
 40
0.7535345386334913
 40
1.0
 40
1.0
 40
1.0
 40
1.0
 10
762.5459347411702
 20
522.1618327549586
 30
0.0
 10
762.5725687323934
 20
522.2009300554677
 30
0.0
 10
762.632905173832
 20
522.2895007831061
 30
0.0
 10
762.6403665133754
 20
522.4471364310887
 30
0.0
 10
762.5900141634163
 20
522.6147719052478
 30
0.0
 10
762.4732475027188
 20
522.800939494365
 30
0.0
 10
762.3496775586605
 20
522.924114684286
 30
0.0
 10
762.2775396823595
 20
522.996022110332
 30
0.0
  0
LINE
  5
11F
330
1F
100
AcDbEntity
  8
0
  6
Continuous
 62
     7
100
AcDbLine
 10
761.3107523441
 20
524.4960176996
 30
0.0
 11
761.3107523441
 21
524.9902519635
 31
0.0
  0
LINE
  5
120
330
1F
100
AcDbEntity
  8
0
  6
Continuous
 62
     7
100
AcDbLine
 10
761.3107523441
 20
521.4916828326
 30
0.0
 11
761.3107523441
 21
521.4960190705
 31
0.0
  0
LINE
  5
121
330
1F
100
AcDbEntity
  8
0
  6
Continuous
 62
     7
100
AcDbLine
 10
762.3642290502
 20
524.6746826223
 30
0.0
 11
762.3642290502
 21
524.0638169697
 31
0.0
  0
LINE
  5
122
330
1F
100
AcDbEntity
  8
0
  6
Continuous
 62
     7
100
AcDbLine
 10
762.3642290502
 20
521.9282272509
 30
0.0
 11
762.3642290502
 21
521.8072521738
 31
0.0
  0
SPLINE
  5
123
330
1F
100
AcDbEntity
  8
0
  6
Continuous
 62
     7
100
AcDbSpline
210
0.0
220
0.0
230
1.0
 70
     8
 71
     3
 72
    12
 73
     8
 74
     0
 42
0.00000001
 43
0.00000001
 40
0.0
 40
0.0
 40
0.0
 40
0.0
 40
0.246657603251535
 40
0.4224781431380374
 40
0.6463432684916623
 40
0.8442584290006825
 40
1.0
 40
1.0
 40
1.0
 40
1.0
 10
779.9439633756588
 20
437.9960184222946
 30
0.0
 10
779.8718201387007
 20
437.9241041723836
 30
0.0
 10
779.7482523249046
 20
437.8009285703868
 30
0.0
 10
779.631478742266
 20
437.6147579676669
 30
0.0
 10
779.5811484537785
 20
437.4471331564573
 30
0.0
 10
779.5885599500458
 20
437.289674784315
 30
0.0
 10
779.6487565578956
 20
437.2012872871218
 30
0.0
 10
779.6752656370113
 20
437.1623636460791
 30
0.0
  0
SPLINE
  5
124
330
1F
100
AcDbEntity
  8
0
  6
Continuous
 62
     7
100
AcDbSpline
210
0.0
220
0.0
230
1.0
 70
     8
 71
     3
 72
    12
 73
     8
 74
     0
 42
0.00000001
 43
0.00000001
 40
0.0
 40
0.0
 40
0.0
 40
0.0
 40
0.1563242894301467
 40
0.3541371005292355
 40
0.5778133274059848
 40
0.7535345979725067
 40
0.9999999999999999
 40
0.9999999999999999
 40
0.9999999999999999
 40
0.9999999999999999
 10
779.6755692481706
 20
438.83020125841
 30
0.0
 10
779.6489347954035
 20
438.7911050998407
 30
0.0
 10
779.5885970966909
 20
438.7025366483989
 30
0.0
 10
779.5811381362994
 20
438.5448992535659
 30
0.0
 10
779.6314891729697
 20
438.3772633803846
 30
0.0
 10
779.7482571793701
 20
438.1911010116656
 30
0.0
 10
779.8718259993186
 20
438.0679259368943
 30
0.0
 10
779.9439633756588
 20
437.9960184222946
 30
0.0
  0
LINE
  5
125
330
1F
100
AcDbEntity
  8
0
  6
Continuous
 62
     7
100
AcDbLine
 10
780.9107516452
 20
436.4960181764
 30
0.0
 11
780.9107516452
 21
436.4916819385
 31
0.0
  0
LINE
  5
126
330
1F
100
AcDbEntity
  8
0
  6
Continuous
 62
     7
100
AcDbLine
 10
780.9107516452
 20
439.9902533977
 30
0.0
 11
780.9107516452
 21
439.4960186682
 31
0.0
  0
LINE
  5
127
330
1F
100
AcDbEntity
  8
0
  6
Continuous
 62
     7
100
AcDbLine
 10
779.8572749391
 20
436.8072540737
 30
0.0
 11
779.8572749391
 21
436.9282235629
 31
0.0
  0
LINE
  5
128
330
1F
100
AcDbEntity
  8
0
  6
Continuous
 62
     7
100
AcDbLine
 10
779.8572749391
 20
439.0638132817
 30
0.0
 11
779.8572749391
 21
439.6746807969
 31
0.0
  0
LINE
  5
129
330
1F
100
AcDbEntity
  8
0
  6
Continuous
 62
     7
100
AcDbLine
 10
765.1107519425
 20
561.4960181764
 30
0.0
 11
765.6107520245
 21
561.4960181764
 31
0.0
  0
LINE
  5
12A
330
1F
100
AcDbEntity
  8
0
  6
Continuous
 62
     7
100
AcDbLine
 10
765.6107520245
 20
561.4960181764
 30
0.0
 11
765.6107520245
 21
555.9960219315
 31
0.0
  0
LINE
  5
12B
330
1F
100
AcDbEntity
  8
0
  6
Continuous
 62
     7
100
AcDbLine
 10
765.6107520245
 20
528.9960193685
 30
0.0
 11
765.1107519425
 21
528.9960193685
 31
0.0
  0
LINE
  5
12C
330
1F
100
AcDbEntity
  8
0
  6
Continuous
 62
     7
100
AcDbLine
 10
765.6107520245
 20
528.9960193685
 30
0.0
 11
765.6107520245
 21
555.9960219315
 31
0.0
  0
LINE
  5
12D
330
1F
100
AcDbEntity
  8
0
  6
Continuous
 62
     7
100
AcDbLine
 10
765.6107520245
 20
516.9960174016
 30
0.0
 11
765.1107519425
 21
516.9960174016
 31
0.0
  0
LINE
  5
12E
330
1F
100
AcDbEntity
  8
0
  6
Continuous
 62
     7
100
AcDbLine
 10
765.6107520245
 20
443.9960187073
 30
0.0
 11
765.6107520245
 21
516.9960174016
 31
0.0
  0
LINE
  5
12F
330
1F
100
AcDbEntity
  8
0
  6
Continuous
 62
     7
100
AcDbLine
 10
765.6107520245
 20
443.9960187073
 30
0.0
 11
765.1107519425
 21
443.9960187073
 31
0.0
  0
LINE
  5
130
330
1F
100
AcDbEntity
  8
0
  6
Continuous
 62
     7
100
AcDbLine
 10
765.6107520245
 20
431.9960183701
 30
0.0
 11
765.1107519425
 21
431.9960183701
 31
0.0
  0
LINE
  5
131
330
1F
100
AcDbEntity
  8
0
  6
Continuous
 62
     7
100
AcDbLine
 10
765.6107520245
 20
426.4960183999
 30
0.0
 11
765.6107520245
 21
431.9960183701
 31
0.0
  0
LINE
  5
132
330
1F
100
AcDbEntity
  8
0
  6
Continuous
 62
     7
100
AcDbLine
 10
765.6107520245
 20
426.4960183999
 30
0.0
 11
765.1107519425
 21
426.4960183999
 31
0.0
  0
LINE
  5
133
330
1F
100
AcDbEntity
  8
0
  6
Continuous
 62
     7
100
AcDbLine
 10
765.6107520245
 20
516.9960174016
 30
0.0
 11
765.6107520245
 21
528.9960193685
 31
0.0
  0
LINE
  5
134
330
1F
100
AcDbEntity
  8
0
  6
Continuous
 62
     7
100
AcDbLine
 10
765.6107520245
 20
431.9960183701
 30
0.0
 11
765.6107520245
 21
443.9960187073
 31
0.0
  0
LINE
  5
135
330
1F
100
AcDbEntity
  8
0
  6
Continuous
 62
     7
100
AcDbLine
 10
756.6107519462
 20
417.2409667871
 30
0.0
 11
755.1107517004
 21
417.2409667871
 31
0.0
  0
LINE
  5
136
330
1F
100
AcDbEntity
  8
0
  6
Continuous
 62
     7
100
AcDbLine
 10
755.1107517004
 20
417.2409667871
 30
0.0
 11
755.1107517004
 21
563.240966504
 31
0.0
  0
LINE
  5
137
330
1F
100
AcDbEntity
  8
0
  6
Continuous
 62
     7
100
AcDbLine
 10
755.1107517004
 20
563.240966504
 30
0.0
 11
756.6107519462
 21
563.240966504
 31
0.0
  0
CIRCLE
  5
138
330
1F
100
AcDbEntity
  8
0
  6
Continuous
 62
     7
100
AcDbCircle
 10
761.3607519578
 20
523.2409676037
 30
0.0
 40
1.75
  0
CIRCLE
  5
139
330
1F
100
AcDbEntity
  8
0
  6
Continuous
 62
     7
100
AcDbCircle
 10
761.3607519578
 20
438.2409676037
 30
0.0
 40
1.75
  0
LINE
  5
13A
330
1F
100
AcDbEntity
  8
0
  6
Continuous
 62
     7
100
AcDbLine
 10
756.6107519462
 20
563.240966504
 30
0.0
 11
765.1107519425
 21
563.240966504
 31
0.0
  0
LINE
  5
13B
330
1F
100
AcDbEntity
  8
0
  6
Continuous
 62
     7
100
AcDbLine
 10
765.1107519425
 20
563.240966504
 30
0.0
 11
765.1107519425
 21
417.2409667871
 31
0.0
  0
LINE
  5
13C
330
1F
100
AcDbEntity
  8
0
  6
Continuous
 62
     7
100
AcDbLine
 10
765.1107519425
 20
417.2409667871
 30
0.0
 11
756.6107519462
 21
417.2409667871
 31
0.0
  0
ARC
  5
13D
330
1F
100
AcDbEntity
  8
0
  6
Continuous
 62
     7
100
AcDbCircle
 10
756.6107519577
 20
563.2409676037
 30
0.0
 40
0.5000000000001137
100
AcDbArc
 50
90.0
 51
180.0000000072
  0
ARC
  5
13E
330
1F
100
AcDbEntity
  8
0
  6
Continuous
 62
     7
100
AcDbCircle
 10
756.6107519577
 20
563.2409676037
 30
0.0
 40
1.500000000000114
100
AcDbArc
 50
90.0
 51
180.0000000072
  0
LINE
  5
13F
330
1F
100
AcDbEntity
  8
0
  6
Continuous
 62
     7
100
AcDbLine
 10
765.1107519425
 20
564.7409695438
 30
0.0
 11
765.1107519425
 21
563.7409675172
 31
0.0
  0
LINE
  5
140
330
1F
100
AcDbEntity
  8
0
  6
Continuous
 62
     7
100
AcDbLine
 10
765.1107519425
 20
563.7409675172
 30
0.0
 11
756.6107519462
 21
563.7409675172
 31
0.0
  0
LINE
  5
141
330
1F
100
AcDbEntity
  8
0
  6
Continuous
 62
     7
100
AcDbLine
 10
765.1107519425
 20
564.7409695438
 30
0.0
 11
756.6107519462
 21
564.7409695438
 31
0.0
  0
LINE
  5
142
330
1F
100
AcDbEntity
  8
0
  6
Continuous
 62
     7
100
AcDbLine
 10
775.610751801
 20
426.4960183999
 30
0.0
 11
777.1107520468
 21
426.4960183999
 31
0.0
  0
LINE
  5
143
330
1F
100
AcDbEntity
  8
0
  6
Continuous
 62
     7
100
AcDbLine
 10
775.610751801
 20
431.9960183701
 30
0.0
 11
777.1107520468
 21
431.9960183701
 31
0.0
  0
LINE
  5
144
330
1F
100
AcDbEntity
  8
0
  6
Continuous
 62
     7
100
AcDbLine
 10
775.610751801
 20
431.9960183701
 30
0.0
 11
775.610751801
 21
426.4960183999
 31
0.0
  0
LINE
  5
145
330
1F
100
AcDbEntity
  8
0
  6
Continuous
 62
     7
100
AcDbLine
 10
775.610751801
 20
443.9960187073
 30
0.0
 11
777.1107520468
 21
443.9960187073
 31
0.0
  0
LINE
  5
146
330
1F
100
AcDbEntity
  8
0
  6
Continuous
 62
     7
100
AcDbLine
 10
775.610751801
 20
516.9960174016
 30
0.0
 11
777.1107520468
 21
516.9960174016
 31
0.0
  0
LINE
  5
147
330
1F
100
AcDbEntity
  8
0
  6
Continuous
 62
     7
100
AcDbLine
 10
775.610751801
 20
516.9960174016
 30
0.0
 11
775.610751801
 21
443.9960187073
 31
0.0
  0
LINE
  5
148
330
1F
100
AcDbEntity
  8
0
  6
Continuous
 62
     7
100
AcDbLine
 10
775.610751801
 20
528.9960193685
 30
0.0
 11
777.1107520468
 21
528.9960193685
 31
0.0
  0
LINE
  5
149
330
1F
100
AcDbEntity
  8
0
  6
Continuous
 62
     7
100
AcDbLine
 10
775.610751801
 20
555.9960219315
 30
0.0
 11
775.610751801
 21
528.9960193685
 31
0.0
  0
LINE
  5
14A
330
1F
100
AcDbEntity
  8
0
  6
Continuous
 62
     7
100
AcDbLine
 10
775.610751801
 20
561.4960181764
 30
0.0
 11
777.1107520468
 21
561.4960181764
 31
0.0
  0
LINE
  5
14B
330
1F
100
AcDbEntity
  8
0
  6
Continuous
 62
     7
100
AcDbLine
 10
775.610751801
 20
561.4960181764
 30
0.0
 11
775.610751801
 21
555.9960219315
 31
0.0
  0
LINE
  5
14C
330
1F
100
AcDbEntity
  8
0
  6
Continuous
 62
     7
100
AcDbLine
 10
775.610751801
 20
443.9960187073
 30
0.0
 11
775.610751801
 21
431.9960183701
 31
0.0
  0
LINE
  5
14D
330
1F
100
AcDbEntity
  8
0
  6
Continuous
 62
     7
100
AcDbLine
 10
775.610751801
 20
528.9960193685
 30
0.0
 11
775.610751801
 21
516.9960174016
 31
0.0
  0
LINE
  5
14E
330
1F
100
AcDbEntity
  8
0
  6
Continuous
 62
     7
100
AcDbLine
 10
766.1107521064
 20
535.0188303045
 30
0.0
 11
766.1107521064
 21
555.4960209182
 31
0.0
  0
LINE
  5
14F
330
1F
100
AcDbEntity
  8
0
  6
Continuous
 62
     7
100
AcDbLine
 10
766.1107521064
 20
531.5060231141
 30
0.0
 11
766.1107521064
 21
535.0188303045
 31
0.0
  0
LINE
  5
150
330
1F
100
AcDbEntity
  8
0
  6
Continuous
 62
     7
100
AcDbLine
 10
766.1107521064
 20
431.9960183701
 30
0.0
 11
775.610751801
 21
431.9960183701
 31
0.0
  0
LINE
  5
151
330
1F
100
AcDbEntity
  8
0
  6
Continuous
 62
     7
100
AcDbLine
 10
766.1107521064
 20
431.9960183701
 30
0.0
 11
766.1107521064
 21
531.5060231141
 31
0.0
  0
LINE
  5
152
330
1F
100
AcDbEntity
  8
0
  6
Continuous
 62
     7
100
AcDbLine
 10
760.1522038251
 20
417.2409667871
 30
0.0
 11
760.1522038251
 21
416.9960177741
 31
0.0
  0
LINE
  5
153
330
1F
100
AcDbEntity
  8
0
  6
Continuous
 62
     7
100
AcDbLine
 10
760.1522038251
 20
416.9960177741
 30
0.0
 11
756.1107518643
 21
416.9960177741
 31
0.0
  0
LINE
  5
154
330
1F
100
AcDbEntity
  8
0
  6
Continuous
 62
     7
100
AcDbLine
 10
756.1107518643
 20
416.9960177741
 30
0.0
 11
756.1107518643
 21
417.2409667871
 31
0.0
  0
LINE
  5
155
330
1F
100
AcDbEntity
  8
0
  6
Continuous
 62
     7
100
AcDbLine
 10
764.1107517786
 20
417.2409667871
 30
0.0
 11
764.1107517786
 21
416.9960177741
 31
0.0
  0
LINE
  5
156
330
1F
100
AcDbEntity
  8
0
  6
Continuous
 62
     7
100
AcDbLine
 10
760.1522038251
 20
416.9960177741
 30
0.0
 11
764.1107517786
 21
416.9960177741
 31
0.0
  0
LINE
  5
157
330
1F
100
AcDbEntity
  8
0
  6
Continuous
 62
     7
100
AcDbLine
 10
777.6107521288
 20
416.9960177741
 30
0.0
 11
777.6107521288
 21
417.2409667871
 31
0.0
  0
LINE
  5
158
330
1F
100
AcDbEntity
  8
0
  6
Continuous
 62
     7
100
AcDbLine
 10
782.0693001643
 20
416.9960177741
 30
0.0
 11
782.0693001643
 21
417.2409667871
 31
0.0
  0
LINE
  5
159
330
1F
100
AcDbEntity
  8
0
  6
Continuous
 62
     7
100
AcDbLine
 10
782.0693001643
 20
416.9960177741
 30
0.0
 11
777.6107521288
 21
416.9960177741
 31
0.0
  0
LINE
  5
15A
330
1F
100
AcDbEntity
  8
0
  6
Continuous
 62
     7
100
AcDbLine
 10
786.1107521251
 20
417.2409667871
 30
0.0
 11
786.1107521251
 21
416.9960177741
 31
0.0
  0
LINE
  5
15B
330
1F
100
AcDbEntity
  8
0
  6
Continuous
 62
     7
100
AcDbLine
 10
786.1107521251
 20
416.9960177741
 30
0.0
 11
782.0693001643
 21
416.9960177741
 31
0.0
  0
LINE
  5
15C
330
1F
100
AcDbEntity
  8
0
  6
Continuous
 62
     7
100
AcDbLine
 10
778.1107517451
 20
416.9960177741
 30
0.0
 11
778.1107517451
 21
412.9960189811
 31
0.0
  0
LINE
  5
15D
330
1F
100
AcDbEntity
  8
0
  6
Continuous
 62
     7
100
AcDbLine
 10
765.6107520245
 20
412.9960189811
 30
0.0
 11
778.1107517451
 21
412.9960189811
 31
0.0
  0
LINE
  5
15E
330
1F
100
AcDbEntity
  8
0
  6
Continuous
 62
     7
100
AcDbLine
 10
765.6107520245
 20
412.9960189811
 30
0.0
 11
765.6107520245
 21
426.4960183999
 31
0.0
  0
LINE
  5
15F
330
1F
100
AcDbEntity
  8
0
  6
Continuous
 62
     7
100
AcDbLine
 10
791.4107515037
 20
409.6460181526
 30
0.0
 11
791.4107515037
 21
419.6460179291
 31
0.0
  0
LINE
  5
160
330
1F
100
AcDbEntity
  8
0
  6
Continuous
 62
     7
100
AcDbLine
 10
751.4107523977
 20
409.6460181526
 30
0.0
 11
751.4107523977
 21
419.6460179291
 31
0.0
  0
LINE
  5
161
330
1F
100
AcDbEntity
  8
0
  6
Continuous
 62
     7
100
AcDbLine
 10
751.4107523977
 20
409.6460181526
 30
0.0
 11
791.4107515037
 21
409.6460181526
 31
0.0
  0
LINE
  5
162
330
1F
100
AcDbEntity
  8
0
  6
Continuous
 62
     8
100
AcDbLine
 10
785.6107520431
 20
417.2409667871
 30
0.0
 11
785.6107520431
 21
563.240966504
 31
0.0
  0
LINE
  5
163
330
1F
100
AcDbEntity
  8
0
  6
Continuous
 62
     8
100
AcDbLine
 10
785.6107520431
 20
563.7409675172
 30
0.0
 11
785.6107520431
 21
564.7409695438
 31
0.0
  0
LINE
  5
164
330
1F
100
AcDbEntity
  8
0
  6
Continuous
 62
     8
100
AcDbLine
 10
765.6107520245
 20
555.9960219315
 30
0.0
 11
765.1107519425
 21
555.9960219315
 31
0.0
  0
LINE
  5
165
330
1F
100
AcDbEntity
  8
0
  6
Continuous
 62
     8
100
AcDbLine
 10
756.6107519462
 20
417.2409667871
 30
0.0
 11
756.6107519462
 21
563.240966504
 31
0.0
  0
LINE
  5
166
330
1F
100
AcDbEntity
  8
0
  6
Continuous
 62
     8
100
AcDbLine
 10
756.6107519462
 20
563.7409675172
 30
0.0
 11
756.6107519462
 21
564.7409695438
 31
0.0
  0
LINE
  5
167
330
1F
100
AcDbEntity
  8
0
  6
Continuous
 62
     8
100
AcDbLine
 10
775.610751801
 20
555.9960219315
 30
0.0
 11
777.1107520468
 21
555.9960219315
 31
0.0
  0
LINE
  5
168
330
1F
100
AcDbEntity
  8
0
  6
Continuous
 62
     8
100
AcDbLine
 10
766.1107521064
 20
535.0188303045
 30
0.0
 11
775.610751801
 21
535.0188303045
 31
0.0
  0
LINE
  5
169
330
1F
100
AcDbEntity
  8
0
  6
Continuous
 62
     8
100
AcDbLine
 10
775.610751801
 20
531.5060231141
 30
0.0
 11
766.1107521064
 21
531.5060231141
 31
0.0
  0
LINE
  5
16A
330
1F
100
AcDbEntity
  8
0
  6
Continuous
 62
     8
100
AcDbLine
 10
765.6107520245
 20
536.1897710017
 30
0.0
 11
766.1107521064
 21
536.1897710017
 31
0.0
  0
LINE
  5
16B
330
1F
100
AcDbEntity
  8
0
  6
Continuous
 62
     8
100
AcDbLine
 10
766.1107521064
 20
531.5060231141
 30
0.0
 11
765.6107520245
 21
531.5060231141
 31
0.0
  0
LINE
  5
16C
330
1F
100
AcDbEntity
  8
0
  6
Continuous
 62
     7
100
AcDbLine
 10
411.0777125088852
 20
546.9960185937
 30
0.0
 11
410.7777125527853
 21
546.9960185937
 31
0.0
  0
LINE
  5
16D
330
1F
100
AcDbEntity
  8
0
  6
Continuous
 62
     7
100
AcDbLine
 10
411.0777125088852
 20
545.4960155538
 30
0.0
 11
410.5777124268852
 21
545.4960155538
 31
0.0
  0
LINE
  5
16E
330
1F
100
AcDbEntity
  8
0
  6
Continuous
 62
     7
100
AcDbLine
 10
410.5777124268852
 20
539.4960182956
 30
0.0
 11
411.0777125088852
 21
539.4960182956
 31
0.0
  0
LINE
  5
16F
330
1F
100
AcDbEntity
  8
0
  6
Continuous
 62
     7
100
AcDbLine
 10
409.7777123888852
 20
380.646018987
 30
0.0
 11
409.7777123888852
 21
409.6460181526
 31
0.0
  0
LINE
  5
170
330
1F
100
AcDbEntity
  8
0
  6
Continuous
 62
     7
100
AcDbLine
 10
399.7777126123852
 20
409.6460181526
 30
0.0
 11
399.7777126123852
 21
380.646018987
 31
0.0
  0
LINE
  5
171
330
1F
100
AcDbEntity
  8
0
  6
Continuous
 62
     7
100
AcDbLine
 10
408.7777126905852
 20
379.6460169605
 30
0.0
 11
409.7777123888852
 21
380.646018987
 31
0.0
  0
LINE
  5
172
330
1F
100
AcDbEntity
  8
0
  6
Continuous
 62
     7
100
AcDbLine
 10
399.7777126123852
 20
380.646018987
 30
0.0
 11
400.7777123106852
 21
379.6460169605
 31
0.0
  0
LINE
  5
173
330
1F
100
AcDbEntity
  8
0
  6
Continuous
 62
     7
100
AcDbLine
 10
384.7777129476852
 20
532.4460181645
 30
0.0
 11
384.7777129476852
 21
529.6460154704
 31
0.0
  0
LINE
  5
174
330
1F
100
AcDbEntity
  8
0
  6
Continuous
 62
     7
100
AcDbLine
 10
424.7777120535852
 20
529.6460154704
 30
0.0
 11
424.7777120535852
 21
532.4460181645
 31
0.0
  0
LINE
  5
175
330
1F
100
AcDbEntity
  8
0
  6
Continuous
 62
     7
100
AcDbLine
 10
424.7777120535852
 20
532.4460181645
 30
0.0
 11
424.4777125631852
 21
532.7460157922
 31
0.0
  0
LINE
  5
176
330
1F
100
AcDbEntity
  8
0
  6
Continuous
 62
     7
100
AcDbLine
 10
385.0777124380853
 20
532.7460157922
 30
0.0
 11
384.7777129476852
 21
532.4460181645
 31
0.0
  0
ARC
  5
177
330
1F
100
AcDbEntity
  8
0
  6
Continuous
 62
     7
100
AcDbCircle
 10
395.2777125002852
 20
547.9960186294
 30
0.0
 40
1.500000000000005
100
AcDbArc
 50
91.31621481249965
 51
270.0
  0
ARC
  5
178
330
1F
100
AcDbEntity
  8
0
  6
Continuous
 62
     7
100
AcDbCircle
 10
395.2777125002852
 20
547.9960186294
 30
0.0
 40
1.500000000000069
100
AcDbArc
 50
34.00973507700222
 51
91.31621481249955
  0
ARC
  5
179
330
1F
100
AcDbEntity
  8
0
  6
Continuous
 62
     7
100
AcDbCircle
 10
395.2777125002852
 20
547.9960186294
 30
0.0
 40
1.500000000000033
100
AcDbArc
 50
270.0
 51
325.9664642978008
  0
LINE
  5
17A
330
1F
100
AcDbEntity
  8
0
  6
Continuous
 62
     7
100
AcDbLine
 10
396.5999747952852
 20
547.4008756927
 30
0.0
 11
396.5999747952852
 21
548.5911580971
 31
0.0
  0
ARC
  5
17B
330
1F
100
AcDbEntity
  8
0
  6
Continuous
 62
     7
100
AcDbCircle
 10
414.8777125002852
 20
547.9960186294
 30
0.0
 40
1.500000000000096
100
AcDbArc
 50
271.3162148309992
 51
90.0
  0
ARC
  5
17C
330
1F
100
AcDbEntity
  8
0
  6
Continuous
 62
     7
100
AcDbCircle
 10
414.8777125002852
 20
547.9960186294
 30
0.0
 40
1.500000000000096
100
AcDbArc
 50
214.0097350820993
 51
271.3162148309992
  0
ARC
  5
17D
330
1F
100
AcDbEntity
  8
0
  6
Continuous
 62
     7
100
AcDbCircle
 10
414.8777125002852
 20
547.9960186294
 30
0.0
 40
1.50000000000001
100
AcDbArc
 50
90.0
 51
145.9664642926013
  0
LINE
  5
17E
330
1F
100
AcDbEntity
  8
0
  6
Continuous
 62
     7
100
AcDbLine
 10
413.5554501181852
 20
548.5911580971
 30
0.0
 11
413.5554501181852
 21
547.4008756927
 31
0.0
  0
LINE
  5
17F
330
1F
100
AcDbEntity
  8
0
  6
Continuous
 62
     7
100
AcDbLine
 10
410.0777123448852
 20
555.4960209182
 30
0.0
 11
400.5777126503853
 21
555.4960209182
 31
0.0
  0
LINE
  5
180
330
1F
100
AcDbEntity
  8
0
  6
Continuous
 62
     7
100
AcDbLine
 10
410.5777124268852
 20
553.9960178784
 30
0.0
 11
410.0777123448852
 21
553.9960178784
 31
0.0
  0
LINE
  5
181
330
1F
100
AcDbEntity
  8
0
  6
Continuous
 62
     7
100
AcDbLine
 10
400.6031261151852
 20
399.6460202387
 30
0.0
 11
400.1390010444852
 21
399.6460202387
 31
0.0
  0
LINE
  5
182
330
1F
100
AcDbEntity
  8
0
  6
Continuous
 62
     7
100
AcDbLine
 10
400.1390010444852
 20
380.646018987
 30
0.0
 11
400.1390010444852
 21
399.6460202387
 31
0.0
  0
LINE
  5
183
330
1F
100
AcDbEntity
  8
0
  6
Continuous
 62
     7
100
AcDbLine
 10
399.7777126123852
 20
380.646018987
 30
0.0
 11
400.1390010444852
 21
380.646018987
 31
0.0
  0
LINE
  5
184
330
1F
100
AcDbEntity
  8
0
  6
Continuous
 62
     7
100
AcDbLine
 10
407.5295897991853
 20
380.646018987
 30
0.0
 11
409.7777123888852
 21
380.646018987
 31
0.0
  0
LINE
  5
185
330
1F
100
AcDbEntity
  8
0
  6
Continuous
 62
     7
100
AcDbLine
 10
407.5295897991853
 20
380.646018987
 30
0.0
 11
407.5295897991853
 21
399.6460202387
 31
0.0
  0
LINE
  5
186
330
1F
100
AcDbEntity
  8
0
  6
Continuous
 62
     7
100
AcDbLine
 10
407.5295897991853
 20
399.6460202387
 30
0.0
 11
406.6438200743852
 21
399.6460202387
 31
0.0
  0
LINE
  5
187
330
1F
100
AcDbEntity
  8
0
  6
Continuous
 62
     7
100
AcDbLine
 10
406.6438200743852
 20
380.646018987
 30
0.0
 11
406.6438200743852
 21
399.6460202387
 31
0.0
  0
LINE
  5
188
330
1F
100
AcDbEntity
  8
0
  6
Continuous
 62
     7
100
AcDbLine
 10
400.6031261151852
 20
380.646018987
 30
0.0
 11
406.6438200743852
 21
380.646018987
 31
0.0
  0
LINE
  5
189
330
1F
100
AcDbEntity
  8
0
  6
Continuous
 62
     7
100
AcDbLine
 10
400.6031261151852
 20
380.646018987
 30
0.0
 11
400.6031261151852
 21
399.6460202387
 31
0.0
  0
LINE
  5
18A
330
1F
100
AcDbEntity
  8
0
  6
Continuous
 62
     7
100
AcDbLine
 10
406.1767664597853
 20
379.6460169605
 30
0.0
 11
401.4944854052852
 21
379.6460169605
 31
0.0
  0
LINE
  5
18B
330
1F
100
AcDbEntity
  8
0
  6
Continuous
 62
     7
100
AcDbLine
 10
401.4944854052852
 20
379.6460169605
 30
0.0
 11
400.6031261151852
 21
380.646018987
 31
0.0
  0
LINE
  5
18C
330
1F
100
AcDbEntity
  8
0
  6
Continuous
 62
     7
100
AcDbLine
 10
406.6438200743852
 20
380.646018987
 30
0.0
 11
406.1767664597853
 21
379.6460169605
 31
0.0
  0
LINE
  5
18D
330
1F
100
AcDbEntity
  8
0
  6
Continuous
 62
     7
100
AcDbLine
 10
406.7697339551852
 20
384.4210195593
 30
0.0
 11
406.7697339551852
 21
383.5945788077
 31
0.0
  0
LINE
  5
18E
330
1F
100
AcDbEntity
  8
0
  6
Continuous
 62
     7
100
AcDbLine
 10
406.7697339551852
 20
383.5945788077
 30
0.0
 11
406.6438200743852
 21
383.4402102283
 31
0.0
  0
LINE
  5
18F
330
1F
100
AcDbEntity
  8
0
  6
Continuous
 62
     7
100
AcDbLine
 10
407.0625361846853
 20
379.6460169605
 30
0.0
 11
407.5295897991853
 21
380.646018987
 31
0.0
  0
LINE
  5
190
330
1F
100
AcDbEntity
  8
0
  6
Continuous
 62
     7
100
AcDbLine
 10
407.0625361846853
 20
379.6460169605
 30
0.0
 11
406.1767664597853
 21
379.6460169605
 31
0.0
  0
LINE
  5
191
330
1F
100
AcDbEntity
  8
0
  6
Continuous
 62
     7
100
AcDbLine
 10
408.7777126905852
 20
379.6460169605
 30
0.0
 11
407.0625361846853
 21
379.6460169605
 31
0.0
  0
LINE
  5
192
330
1F
100
AcDbEntity
  8
0
  6
Continuous
 62
     7
100
AcDbLine
 10
401.0303603345852
 20
379.6460169605
 30
0.0
 11
400.7777123106852
 21
379.6460169605
 31
0.0
  0
LINE
  5
193
330
1F
100
AcDbEntity
  8
0
  6
Continuous
 62
     7
100
AcDbLine
 10
400.1390010444852
 20
380.646018987
 30
0.0
 11
401.0303603345852
 21
379.6460169605
 31
0.0
  0
LINE
  5
194
330
1F
100
AcDbEntity
  8
0
  6
Continuous
 62
     7
100
AcDbLine
 10
401.4944854052852
 20
379.6460169605
 30
0.0
 11
401.0303603345852
 21
379.6460169605
 31
0.0
  0
LINE
  5
195
330
1F
100
AcDbEntity
  8
0
  6
Continuous
 62
     7
100
AcDbLine
 10
406.6438200743852
 20
385.0460189632
 30
0.0
 11
407.0625361846853
 21
385.0460189632
 31
0.0
  0
LINE
  5
196
330
1F
100
AcDbEntity
  8
0
  6
Continuous
 62
     7
100
AcDbLine
 10
406.6438200743852
 20
384.2960174433
 30
0.0
 11
406.7697339551852
 21
384.2960174433
 31
0.0
  0
LINE
  5
197
330
1F
100
AcDbEntity
  8
0
  6
Continuous
 62
     7
100
AcDbLine
 10
384.7777129476852
 20
419.6460179291
 30
0.0
 11
384.7777129476852
 21
529.6460154704
 31
0.0
  0
LINE
  5
198
330
1F
100
AcDbEntity
  8
0
  6
Continuous
 62
     7
100
AcDbLine
 10
384.7777129476852
 20
529.6460154704
 30
0.0
 11
385.7777131115852
 21
529.6460154704
 31
0.0
  0
LINE
  5
199
330
1F
100
AcDbEntity
  8
0
  6
Continuous
 62
     7
100
AcDbLine
 10
385.3561015193852
 20
419.6460179291
 30
0.0
 11
384.7777129476852
 21
419.6460179291
 31
0.0
  0
ARC
  5
19A
330
1F
100
AcDbEntity
  8
0
  6
Continuous
 62
     7
100
AcDbCircle
 10
403.7777125006853
 20
490.1460186294
 30
0.0
 40
19.99999999999997
100
AcDbArc
 50
0.0000000072000023
 51
63.06690676400004
  0
ARC
  5
19B
330
1F
100
AcDbEntity
  8
0
  6
Continuous
 62
     7
100
AcDbCircle
 10
404.7777125006853
 20
501.2460186294
 30
0.0
 40
10.50000000000005
100
AcDbArc
 50
39.86800020650017
 51
140.1319997934999
  0
ARC
  5
19C
330
1F
100
AcDbEntity
  8
0
  6
Continuous
 62
     7
100
AcDbCircle
 10
405.7777125006853
 20
490.1460186294
 30
0.0
 40
20.00000000000004
100
AcDbArc
 50
116.933093236
 51
179.9999999928
  0
LINE
  5
19D
330
1F
100
AcDbEntity
  8
0
  6
Continuous
 62
     7
100
AcDbLine
 10
385.7777131115852
 20
529.6460154704
 30
0.0
 11
423.7777118896852
 21
529.6460154704
 31
0.0
  0
LINE
  5
19E
330
1F
100
AcDbEntity
  8
0
  6
Continuous
 62
     7
100
AcDbLine
 10
396.7187184234853
 20
507.9767394117
 30
0.0
 11
396.0099521418852
 21
507.0232476345
 31
0.0
  0
ARC
  5
19F
330
1F
100
AcDbEntity
  8
0
  6
Continuous
 62
     7
100
AcDbCircle
 10
405.7777125005852
 20
490.1460186294
 30
0.0
 40
19.5
100
AcDbArc
 50
120.0602767186999
 51
233.8611853369
  0
LINE
  5
1A0
330
1F
100
AcDbEntity
  8
0
  6
Continuous
 62
     7
100
AcDbLine
 10
394.2777126421852
 20
474.3980027041
 30
0.0
 11
394.2777126421852
 21
473.7829498253
 31
0.0
  0
ARC
  5
1A1
330
1F
100
AcDbEntity
  8
0
  6
Continuous
 62
     7
100
AcDbCircle
 10
405.7777125006853
 20
490.1460186294
 30
0.0
 40
20.00000000000004
100
AcDbArc
 50
179.9999999928
 51
234.9003678046001
  0
ARC
  5
1A2
330
1F
100
AcDbEntity
  8
0
  6
Continuous
 62
     7
100
AcDbCircle
 10
405.7777125006853
 20
446.6460186294
 30
0.0
 40
20.00000000000004
100
AcDbArc
 50
125.0996321954
 51
179.9999999928
  0
LINE
  5
1A3
330
1F
100
AcDbEntity
  8
0
  6
Continuous
 62
     7
100
AcDbLine
 10
394.2777126421852
 20
473.7829498253
 30
0.0
 11
394.2777126421852
 21
463.0090861819
 31
0.0
  0
ARC
  5
1A4
330
1F
100
AcDbEntity
  8
0
  6
Continuous
 62
     7
100
AcDbCircle
 10
405.7777125006853
 20
446.6460186294
 30
0.0
 40
20.0
100
AcDbArc
 50
179.9999999928
 51
234.9003678045999
  0
LINE
  5
1A5
330
1F
100
AcDbEntity
  8
0
  6
Continuous
 62
     7
100
AcDbLine
 10
394.2777126421852
 20
430.282951077
 30
0.0
 11
394.2777126421852
 21
419.6460179291
 31
0.0
  0
LINE
  5
1A6
330
1F
100
AcDbEntity
  8
0
  6
Continuous
 62
     7
100
AcDbLine
 10
394.2777126421852
 20
463.0090861819
 30
0.0
 11
394.2777126421852
 21
462.3940351657
 31
0.0
  0
ARC
  5
1A7
330
1F
100
AcDbEntity
  8
0
  6
Continuous
 62
     7
100
AcDbCircle
 10
405.7777125005852
 20
446.6460186294
 30
0.0
 40
19.50000000000002
100
AcDbArc
 50
126.1388146631
 51
233.8611853368999
  0
LINE
  5
1A8
330
1F
100
AcDbEntity
  8
0
  6
Continuous
 62
     7
100
AcDbLine
 10
394.2777126421852
 20
430.8980020932
 30
0.0
 11
394.2777126421852
 21
430.282951077
 31
0.0
  0
LINE
  5
1A9
330
1F
100
AcDbEntity
  8
0
  6
Continuous
 62
     7
100
AcDbLine
 10
415.2777123590852
 20
473.7829498253
 30
0.0
 11
415.2777123590852
 21
474.3980027041
 31
0.0
  0
ARC
  5
1AA
330
1F
100
AcDbEntity
  8
0
  6
Continuous
 62
     7
100
AcDbCircle
 10
403.7777125005852
 20
490.1460186294
 30
0.0
 40
19.49999999999998
100
AcDbArc
 50
306.1388146630999
 51
59.93972328130001
  0
ARC
  5
1AB
330
1F
100
AcDbEntity
  8
0
  6
Continuous
 62
     7
100
AcDbCircle
 10
403.7777125006853
 20
490.1460186294
 30
0.0
 40
19.99999999999994
100
AcDbArc
 50
305.0996321954
 51
0.0000000072000023
  0
LINE
  5
1AC
330
1F
100
AcDbEntity
  8
0
  6
Continuous
 62
     7
100
AcDbLine
 10
413.5454728593853
 20
507.0232476345
 30
0.0
 11
412.8367065777852
 21
507.9767394117
 31
0.0
  0
LINE
  5
1AD
330
1F
100
AcDbEntity
  8
0
  6
Continuous
 62
     7
100
AcDbLine
 10
415.2777123590852
 20
430.282951077
 30
0.0
 11
415.2777123590852
 21
430.8980020932
 31
0.0
  0
ARC
  5
1AE
330
1F
100
AcDbEntity
  8
0
  6
Continuous
 62
     7
100
AcDbCircle
 10
403.7777125005852
 20
446.6460186294
 30
0.0
 40
19.50000000000002
100
AcDbArc
 50
306.1388146630999
 51
53.86118533689994
  0
LINE
  5
1AF
330
1F
100
AcDbEntity
  8
0
  6
Continuous
 62
     7
100
AcDbLine
 10
415.2777123590852
 20
462.3940351657
 30
0.0
 11
415.2777123590852
 21
463.0090861819
 31
0.0
  0
ARC
  5
1B0
330
1F
100
AcDbEntity
  8
0
  6
Continuous
 62
     7
100
AcDbCircle
 10
403.7777125006853
 20
446.6460186294
 30
0.0
 40
19.99999999999999
100
AcDbArc
 50
0.0000000072000023
 51
54.90036780459992
  0
ARC
  5
1B1
330
1F
100
AcDbEntity
  8
0
  6
Continuous
 62
     7
100
AcDbCircle
 10
403.7777125006853
 20
446.6460186294
 30
0.0
 40
19.99999999999996
100
AcDbArc
 50
305.0996321954
 51
0.0000000072000023
  0
LINE
  5
1B2
330
1F
100
AcDbEntity
  8
0
  6
Continuous
 62
     7
100
AcDbLine
 10
415.2777123590852
 20
463.0090861819
 30
0.0
 11
415.2777123590852
 21
473.7829498253
 31
0.0
  0
LINE
  5
1B3
330
1F
100
AcDbEntity
  8
0
  6
Continuous
 62
     7
100
AcDbLine
 10
415.2777123590852
 20
419.6460179291
 30
0.0
 11
415.2777123590852
 21
430.282951077
 31
0.0
  0
LINE
  5
1B4
330
1F
100
AcDbEntity
  8
0
  6
Continuous
 62
     7
100
AcDbLine
 10
424.7777120535852
 20
529.6460154704
 30
0.0
 11
424.7777120535852
 21
419.6460179291
 31
0.0
  0
LINE
  5
1B5
330
1F
100
AcDbEntity
  8
0
  6
Continuous
 62
     7
100
AcDbLine
 10
423.7777118896852
 20
529.6460154704
 30
0.0
 11
424.7777120535852
 21
529.6460154704
 31
0.0
  0
LINE
  5
1B6
330
1F
100
AcDbEntity
  8
0
  6
Continuous
 62
     7
100
AcDbLine
 10
424.7777120535852
 20
419.6460179291
 30
0.0
 11
424.1993234818852
 21
419.6460179291
 31
0.0
  0
LINE
  5
1B7
330
1F
100
AcDbEntity
  8
0
  6
Continuous
 62
     7
100
AcDbLine
 10
399.8723582690852
 20
532.9960200242
 30
0.0
 11
399.8723582690852
 21
532.7460157922
 31
0.0
  0
LINE
  5
1B8
330
1F
100
AcDbEntity
  8
0
  6
Continuous
 62
     7
100
AcDbLine
 10
398.7777124484852
 20
532.9960200242
 30
0.0
 11
398.7777124484852
 21
532.7460157922
 31
0.0
  0
LINE
  5
1B9
330
1F
100
AcDbEntity
  8
0
  6
Continuous
 62
     7
100
AcDbLine
 10
409.6830667322852
 20
532.9960200242
 30
0.0
 11
409.6830667322852
 21
532.7460157922
 31
0.0
  0
LINE
  5
1BA
330
1F
100
AcDbEntity
  8
0
  6
Continuous
 62
     7
100
AcDbLine
 10
410.7777125527853
 20
546.6960209659
 30
0.0
 11
410.5777124268852
 21
546.6960209659
 31
0.0
  0
LINE
  5
1BB
330
1F
100
AcDbEntity
  8
0
  6
Continuous
 62
     7
100
AcDbLine
 10
410.7777125527853
 20
546.6960209659
 30
0.0
 11
410.7777125527853
 21
547.6960155419
 31
0.0
  0
LINE
  5
1BC
330
1F
100
AcDbEntity
  8
0
  6
Continuous
 62
     7
100
AcDbLine
 10
410.5777124268852
 20
547.6960155419
 30
0.0
 11
410.7777125527853
 21
547.6960155419
 31
0.0
  0
LINE
  5
1BD
330
1F
100
AcDbEntity
  8
0
  6
Continuous
 62
     7
100
AcDbLine
 10
410.7777125527853
 20
546.6960209659
 30
0.0
 11
410.7777125527853
 21
545.4960155538
 31
0.0
  0
LINE
  5
1BE
330
1F
100
AcDbEntity
  8
0
  6
Continuous
 62
     7
100
AcDbLine
 10
410.7777125527853
 20
539.4960182956
 30
0.0
 11
410.7777125527853
 21
532.7460157922
 31
0.0
  0
LINE
  5
1BF
330
1F
100
AcDbEntity
  8
0
  6
Continuous
 62
     7
100
AcDbLine
 10
389.0777130936852
 20
563.240966504
 30
0.0
 11
390.5777124082852
 21
563.240966504
 31
0.0
  0
LINE
  5
1C0
330
1F
100
AcDbEntity
  8
0
  6
Continuous
 62
     7
100
AcDbLine
 10
390.5777124082852
 20
533.2409653119
 30
0.0
 11
389.0777130936852
 21
533.2409653119
 31
0.0
  0
LINE
  5
1C1
330
1F
100
AcDbEntity
  8
0
  6
Continuous
 62
     7
100
AcDbLine
 10
389.0777130936852
 20
563.240966504
 30
0.0
 11
389.0777130936852
 21
533.2409653119
 31
0.0
  0
LINE
  5
1C2
330
1F
100
AcDbEntity
  8
0
  6
Continuous
 62
     7
100
AcDbLine
 10
399.0777124044852
 20
533.2409653119
 30
0.0
 11
399.0777124044852
 21
563.240966504
 31
0.0
  0
LINE
  5
1C3
330
1F
100
AcDbEntity
  8
0
  6
Continuous
 62
     7
100
AcDbLine
 10
390.5777124082852
 20
533.2409653119
 30
0.0
 11
399.0777124044852
 21
533.2409653119
 31
0.0
  0
LINE
  5
1C4
330
1F
100
AcDbEntity
  8
0
  6
Continuous
 62
     7
100
AcDbLine
 10
399.0777124044852
 20
563.240966504
 30
0.0
 11
390.5777124082852
 21
563.240966504
 31
0.0
  0
CIRCLE
  5
1C5
330
1F
100
AcDbEntity
  8
0
  6
Continuous
 62
     7
100
AcDbCircle
 10
395.3277125002853
 20
548.2409676037
 30
0.0
 40
1.750000000000057
  0
ARC
  5
1C6
330
1F
100
AcDbEntity
  8
0
  6
Continuous
 62
     7
100
AcDbCircle
 10
390.5777125001852
 20
563.2409676037
 30
0.0
 40
1.5
100
AcDbArc
 50
90.0
 51
179.9999999928001
  0
ARC
  5
1C7
330
1F
100
AcDbEntity
  8
0
  6
Continuous
 62
     7
100
AcDbCircle
 10
390.5777125001852
 20
563.2409676037
 30
0.0
 40
0.5
100
AcDbArc
 50
90.0
 51
180.0000000072042
  0
LINE
  5
1C8
330
1F
100
AcDbEntity
  8
0
  6
Continuous
 62
     7
100
AcDbLine
 10
399.0777124044852
 20
564.7409695438
 30
0.0
 11
399.0777124044852
 21
563.7409675172
 31
0.0
  0
LINE
  5
1C9
330
1F
100
AcDbEntity
  8
0
  6
Continuous
 62
     7
100
AcDbLine
 10
390.5777124082852
 20
563.7409675172
 30
0.0
 11
399.0777124044852
 21
563.7409675172
 31
0.0
  0
LINE
  5
1CA
330
1F
100
AcDbEntity
  8
0
  6
Continuous
 62
     7
100
AcDbLine
 10
390.5777124082852
 20
564.7409695438
 30
0.0
 11
399.0777124044852
 21
564.7409695438
 31
0.0
  0
LINE
  5
1CB
330
1F
100
AcDbEntity
  8
0
  6
Continuous
 62
     7
100
AcDbLine
 10
389.0777130936852
 20
533.2409653119
 30
0.0
 11
389.0777130936852
 21
532.7460157922
 31
0.0
  0
LINE
  5
1CC
330
1F
100
AcDbEntity
  8
0
  6
Continuous
 62
     7
100
AcDbLine
 10
384.7777129476852
 20
532.4460181645
 30
0.0
 11
424.7777120535852
 21
532.4460181645
 31
0.0
  0
LINE
  5
1CD
330
1F
100
AcDbEntity
  8
0
  6
Continuous
 62
     7
100
AcDbLine
 10
385.0777124380853
 20
532.7460157922
 30
0.0
 11
424.4777125631852
 21
532.7460157922
 31
0.0
  0
SPLINE
  5
1CE
330
1F
100
AcDbEntity
  8
0
  6
Continuous
 62
     7
100
AcDbSpline
210
0.0
220
0.0
230
1.0
 70
     8
 71
     3
 72
    12
 73
     8
 74
     0
 42
0.00000001
 43
0.00000001
 40
0.0
 40
0.0
 40
0.0
 40
0.0
 40
0.2466572007739528
 40
0.4224784935792724
 40
0.6463442105071043
 40
0.8442570722653404
 40
1.0
 40
1.0
 40
1.0
 40
1.0
 10
396.2445010756985
 20
547.9960206202159
 30
0.0
 10
396.3166443993416
 20
548.067933166381
 30
0.0
 10
396.4402126657412
 20
548.1911061533358
 30
0.0
 10
396.5569854911857
 20
548.377279081588
 30
0.0
 10
396.6073160674167
 20
548.544907377742
 30
0.0
 10
396.599903854185
 20
548.7023618669367
 30
0.0
 10
396.5397079049603
 20
548.7907494237338
 30
0.0
 10
396.5131988143459
 20
548.8296735337863
 30
0.0
  0
SPLINE
  5
1CF
330
1F
100
AcDbEntity
  8
0
  6
Continuous
 62
     7
100
AcDbSpline
210
0.0
220
0.0
230
1.0
 70
     8
 71
     3
 72
    12
 73
     8
 74
     0
 42
0.00000001
 43
0.00000001
 40
0.0
 40
0.0
 40
0.0
 40
0.0
 40
0.1563249712002495
 40
0.3541332110514116
 40
0.5778112946574264
 40
0.7535341114197991
 40
1.0
 40
1.0
 40
1.0
 40
1.0
 10
396.5128952031865
 20
547.1618387154231
 30
0.0
 10
396.539529683111
 20
547.2009326407147
 30
0.0
 10
396.599866517514
 20
547.2894946739575
 30
0.0
 10
396.607326233455
 20
547.447139479076
 30
0.0
 10
396.556975077691
 20
547.6147690562641
 30
0.0
 10
396.4402078962364
 20
547.8009381240104
 30
0.0
 10
396.3166385527508
 20
547.9241132689306
 30
0.0
 10
396.2445010756985
 20
547.9960206202159
 30
0.0
  0
LINE
  5
1D0
330
1F
100
AcDbEntity
  8
0
  6
Continuous
 62
     7
100
AcDbLine
 10
395.2777128060852
 20
549.4960162095
 30
0.0
 11
395.2777128060852
 21
549.9902504734
 31
0.0
  0
LINE
  5
1D1
330
1F
100
AcDbEntity
  8
0
  6
Continuous
 62
     7
100
AcDbLine
 10
395.2777128060852
 20
546.4916813425
 30
0.0
 11
395.2777128060852
 21
546.4960175804
 31
0.0
  0
LINE
  5
1D2
330
1F
100
AcDbEntity
  8
0
  6
Continuous
 62
     7
100
AcDbLine
 10
396.3311895122852
 20
549.6746811322
 30
0.0
 11
396.3311895122852
 21
549.0638154796
 31
0.0
  0
LINE
  5
1D3
330
1F
100
AcDbEntity
  8
0
  6
Continuous
 62
     7
100
AcDbLine
 10
396.3311895122852
 20
546.9282257608
 30
0.0
 11
396.3311895122852
 21
546.8072581342
 31
0.0
  0
SPLINE
  5
1D4
330
1F
100
AcDbEntity
  8
0
  6
Continuous
 62
     7
100
AcDbSpline
210
0.0
220
0.0
230
1.0
 70
     8
 71
     3
 72
    12
 73
     8
 74
     0
 42
0.00000001
 43
0.00000001
 40
0.0
 40
0.0
 40
0.0
 40
0.0
 40
0.2466596534880534
 40
0.4224804329048639
 40
0.6463427550705035
 40
0.8442577067117273
 40
1.0
 40
1.0
 40
1.0
 40
1.0
 10
413.9109247689977
 20
547.9960206202159
 30
0.0
 10
413.8387811842653
 20
547.9241053453804
 30
0.0
 10
413.715213132182
 20
547.8009283441348
 30
0.0
 10
413.5984399952832
 20
547.6147538248197
 30
0.0
 10
413.5481080783923
 20
547.4471362463638
 30
0.0
 10
413.555522150562
 20
547.289671056222
 30
0.0
 10
413.6157174927999
 20
547.20128387984
 30
0.0
 10
413.6422260990277
 20
547.1623602560649
 30
0.0
  0
SPLINE
  5
1D5
330
1F
100
AcDbEntity
  8
0
  6
Continuous
 62
     7
100
AcDbSpline
210
0.0
220
0.0
230
1.0
 70
     8
 71
     3
 72
    12
 73
     8
 74
     0
 42
0.00000001
 43
0.00000001
 40
0.0
 40
0.0
 40
0.0
 40
0.0
 40
0.1563272880988612
 40
0.3541355905278596
 40
0.5778137076257154
 40
0.7535337440645115
 40
1.0
 40
1.0
 40
1.0
 40
1.0
 10
413.6425297101869
 20
548.8302025250086
 30
0.0
 10
413.6158956761448
 20
548.7911056421233
 30
0.0
 10
413.5555603406549
 20
548.7025376264121
 30
0.0
 10
413.5480982128261
 20
548.5448955823697
 30
0.0
 10
413.5984489796945
 20
548.3772631503329
 30
0.0
 10
413.7152183654299
 20
548.1911046303239
 30
0.0
 10
413.8387871174297
 20
548.0679288566921
 30
0.0
 10
413.9109247689977
 20
547.9960206202159
 30
0.0
  0
LINE
  5
1D6
330
1F
100
AcDbEntity
  8
0
  6
Continuous
 62
     7
100
AcDbLine
 10
414.8777121072852
 20
546.4960175804
 30
0.0
 11
414.8777121072852
 21
546.4916813425
 31
0.0
  0
LINE
  5
1D7
330
1F
100
AcDbEntity
  8
0
  6
Continuous
 62
     7
100
AcDbLine
 10
414.8777121072852
 20
549.9902504734
 30
0.0
 11
414.8777121072852
 21
549.4960162095
 31
0.0
  0
LINE
  5
1D8
330
1F
100
AcDbEntity
  8
0
  6
Continuous
 62
     7
100
AcDbLine
 10
413.8242354010852
 20
546.8072581342
 30
0.0
 11
413.8242354010852
 21
546.9282257608
 31
0.0
  0
LINE
  5
1D9
330
1F
100
AcDbEntity
  8
0
  6
Continuous
 62
     7
100
AcDbLine
 10
413.8242354010852
 20
549.0638154796
 30
0.0
 11
413.8242354010852
 21
549.6746811322
 31
0.0
  0
LINE
  5
1DA
330
1F
100
AcDbEntity
  8
0
  6
Continuous
 62
     7
100
AcDbLine
 10
410.5777124268852
 20
555.9960219315
 30
0.0
 11
410.5777124268852
 21
553.4960168651
 31
0.0
  0
LINE
  5
1DB
330
1F
100
AcDbEntity
  8
0
  6
Continuous
 62
     7
100
AcDbLine
 10
411.0777125088852
 20
547.9960206202
 30
0.0
 11
410.5777124268852
 21
547.9960206202
 31
0.0
  0
LINE
  5
1DC
330
1F
100
AcDbEntity
  8
0
  6
Continuous
 62
     7
100
AcDbLine
 10
410.5777124268852
 20
547.9960206202
 30
0.0
 11
410.5777124268852
 21
553.4960168651
 31
0.0
  0
LINE
  5
1DD
330
1F
100
AcDbEntity
  8
0
  6
Continuous
 62
     7
100
AcDbLine
 10
410.5777124268852
 20
561.4960181764
 30
0.0
 11
411.0777125088852
 21
561.4960181764
 31
0.0
  0
LINE
  5
1DE
330
1F
100
AcDbEntity
  8
0
  6
Continuous
 62
     7
100
AcDbLine
 10
410.5777124268852
 20
555.9960219315
 30
0.0
 11
410.5777124268852
 21
561.4960181764
 31
0.0
  0
LINE
  5
1DF
330
1F
100
AcDbEntity
  8
0
  6
Continuous
 62
     7
100
AcDbLine
 10
419.5777125050852
 20
533.2409653119
 30
0.0
 11
411.0777125088852
 21
533.2409653119
 31
0.0
  0
LINE
  5
1E0
330
1F
100
AcDbEntity
  8
0
  6
Continuous
 62
     7
100
AcDbLine
 10
411.0777125088852
 20
533.2409653119
 30
0.0
 11
411.0777125088852
 21
563.240966504
 31
0.0
  0
LINE
  5
1E1
330
1F
100
AcDbEntity
  8
0
  6
Continuous
 62
     7
100
AcDbLine
 10
411.0777125088852
 20
563.240966504
 30
0.0
 11
419.5777125050852
 21
563.240966504
 31
0.0
  0
CIRCLE
  5
1E2
330
1F
100
AcDbEntity
  8
0
  6
Continuous
 62
     7
100
AcDbCircle
 10
414.8277125002853
 20
548.2409676037
 30
0.0
 40
1.75
  0
LINE
  5
1E3
330
1F
100
AcDbEntity
  8
0
  6
Continuous
 62
     7
100
AcDbLine
 10
421.0777127509853
 20
563.240966504
 30
0.0
 11
421.0777127509853
 21
533.2409653119
 31
0.0
  0
LINE
  5
1E4
330
1F
100
AcDbEntity
  8
0
  6
Continuous
 62
     7
100
AcDbLine
 10
421.0777127509853
 20
533.2409653119
 30
0.0
 11
419.5777125050852
 21
533.2409653119
 31
0.0
  0
LINE
  5
1E5
330
1F
100
AcDbEntity
  8
0
  6
Continuous
 62
     7
100
AcDbLine
 10
419.5777125050852
 20
563.240966504
 30
0.0
 11
421.0777127509853
 21
563.240966504
 31
0.0
  0
LINE
  5
1E6
330
1F
100
AcDbEntity
  8
0
  6
Continuous
 62
     7
100
AcDbLine
 10
411.0777125088852
 20
564.7409695438
 30
0.0
 11
411.0777125088852
 21
563.7409675172
 31
0.0
  0
LINE
  5
1E7
330
1F
100
AcDbEntity
  8
0
  6
Continuous
 62
     7
100
AcDbLine
 10
419.5777125050852
 20
564.7409695438
 30
0.0
 11
411.0777125088852
 21
564.7409695438
 31
0.0
  0
LINE
  5
1E8
330
1F
100
AcDbEntity
  8
0
  6
Continuous
 62
     7
100
AcDbLine
 10
419.5777125050852
 20
563.7409675172
 30
0.0
 11
411.0777125088852
 21
563.7409675172
 31
0.0
  0
ARC
  5
1E9
330
1F
100
AcDbEntity
  8
0
  6
Continuous
 62
     7
100
AcDbCircle
 10
419.5777125001852
 20
563.2409676037
 30
0.0
 40
1.5
100
AcDbArc
 50
359.9999999928001
 51
90.0
  0
ARC
  5
1EA
330
1F
100
AcDbEntity
  8
0
  6
Continuous
 62
     7
100
AcDbCircle
 10
419.5777125001852
 20
563.2409676037
 30
0.0
 40
0.5
100
AcDbArc
 50
359.9999999927958
 51
90.0
  0
LINE
  5
1EB
330
1F
100
AcDbEntity
  8
0
  6
Continuous
 62
     7
100
AcDbLine
 10
421.0777127509853
 20
533.2409653119
 30
0.0
 11
421.0777127509853
 21
532.7460157922
 31
0.0
  0
LINE
  5
1EC
330
1F
100
AcDbEntity
  8
0
  6
Continuous
 62
     7
100
AcDbLine
 10
400.5777126503853
 20
553.4960168651
 30
0.0
 11
400.5777126503853
 21
547.9960206202
 31
0.0
  0
LINE
  5
1ED
330
1F
100
AcDbEntity
  8
0
  6
Continuous
 62
     7
100
AcDbLine
 10
399.0777124044852
 20
561.4960181764
 30
0.0
 11
400.5777126503853
 21
561.4960181764
 31
0.0
  0
LINE
  5
1EE
330
1F
100
AcDbEntity
  8
0
  6
Continuous
 62
     7
100
AcDbLine
 10
400.5777126503853
 20
561.4960181764
 30
0.0
 11
400.5777126503853
 21
555.9960219315
 31
0.0
  0
LINE
  5
1EF
330
1F
100
AcDbEntity
  8
0
  6
Continuous
 62
     7
100
AcDbLine
 10
400.5777126503853
 20
553.4960168651
 30
0.0
 11
400.5777126503853
 21
555.9960219315
 31
0.0
  0
LINE
  5
1F0
330
1F
100
AcDbEntity
  8
0
  6
Continuous
 62
     7
100
AcDbLine
 10
410.0777123448852
 20
549.4960162095
 30
0.0
 11
400.5777126503853
 21
549.4960162095
 31
0.0
  0
LINE
  5
1F1
330
1F
100
AcDbEntity
  8
0
  6
Continuous
 62
     7
100
AcDbLine
 10
410.0777123448852
 20
549.4960162095
 30
0.0
 11
410.0777123448852
 21
547.9960206202
 31
0.0
  0
LINE
  5
1F2
330
1F
100
AcDbEntity
  8
0
  6
Continuous
 62
     7
100
AcDbLine
 10
410.0777123448852
 20
551.1835205606
 30
0.0
 11
410.0777123448852
 21
549.4960162095
 31
0.0
  0
LINE
  5
1F3
330
1F
100
AcDbEntity
  8
0
  6
Continuous
 62
     7
100
AcDbLine
 10
410.0777123448852
 20
555.4960209182
 30
0.0
 11
410.0777123448852
 21
551.1835205606
 31
0.0
  0
LINE
  5
1F4
330
1F
100
AcDbEntity
  8
0
  6
Continuous
 62
     7
100
AcDbLine
 10
416.0362606262852
 20
532.9960200242
 30
0.0
 11
416.0362606262852
 21
533.2409653119
 31
0.0
  0
LINE
  5
1F5
330
1F
100
AcDbEntity
  8
0
  6
Continuous
 62
     7
100
AcDbLine
 10
416.0362606262852
 20
532.9960200242
 30
0.0
 11
412.0777126727853
 21
532.9960200242
 31
0.0
  0
LINE
  5
1F6
330
1F
100
AcDbEntity
  8
0
  6
Continuous
 62
     7
100
AcDbLine
 10
412.0777126727853
 20
532.9960200242
 30
0.0
 11
412.0777126727853
 21
533.2409653119
 31
0.0
  0
LINE
  5
1F7
330
1F
100
AcDbEntity
  8
0
  6
Continuous
 62
     7
100
AcDbLine
 10
420.0777125870852
 20
533.2409653119
 30
0.0
 11
420.0777125870852
 21
532.9960200242
 31
0.0
  0
LINE
  5
1F8
330
1F
100
AcDbEntity
  8
0
  6
Continuous
 62
     7
100
AcDbLine
 10
420.0777125870852
 20
532.9960200242
 30
0.0
 11
416.0362606262852
 21
532.9960200242
 31
0.0
  0
LINE
  5
1F9
330
1F
100
AcDbEntity
  8
0
  6
Continuous
 62
     7
100
AcDbLine
 10
420.0777125870852
 20
532.9960200242
 30
0.0
 11
420.0777125870852
 21
532.7460157922
 31
0.0
  0
LINE
  5
1FA
330
1F
100
AcDbEntity
  8
0
  6
Continuous
 62
     7
100
AcDbLine
 10
412.0777126727853
 20
532.7460157922
 30
0.0
 11
412.0777126727853
 21
532.9960200242
 31
0.0
  0
LINE
  5
1FB
330
1F
100
AcDbEntity
  8
0
  6
Continuous
 62
     7
100
AcDbLine
 10
409.0777126466853
 20
532.9960200242
 30
0.0
 11
409.0777126466853
 21
547.9960206202
 31
0.0
  0
LINE
  5
1FC
330
1F
100
AcDbEntity
  8
0
  6
Continuous
 62
     7
100
AcDbLine
 10
400.0777125684853
 20
547.9960206202
 30
0.0
 11
400.0777125684853
 21
532.9960200242
 31
0.0
  0
LINE
  5
1FD
330
1F
100
AcDbEntity
  8
0
  6
Continuous
 62
     7
100
AcDbLine
 10
409.0777126466853
 20
547.9960206202
 30
0.0
 11
400.0777125684853
 21
547.9960206202
 31
0.0
  0
LINE
  5
1FE
330
1F
100
AcDbEntity
  8
0
  6
Continuous
 62
     7
100
AcDbLine
 10
400.0777125684853
 20
532.9960200242
 30
0.0
 11
409.0777126466853
 21
532.9960200242
 31
0.0
  0
LINE
  5
1FF
330
1F
100
AcDbEntity
  8
0
  6
Continuous
 62
     7
100
AcDbLine
 10
394.1191642870853
 20
533.2409653119
 30
0.0
 11
394.1191642870853
 21
532.9960200242
 31
0.0
  0
LINE
  5
200
330
1F
100
AcDbEntity
  8
0
  6
Continuous
 62
     7
100
AcDbLine
 10
390.0777123262852
 20
532.9960200242
 30
0.0
 11
390.0777123262852
 21
533.2409653119
 31
0.0
  0
LINE
  5
201
330
1F
100
AcDbEntity
  8
0
  6
Continuous
 62
     7
100
AcDbLine
 10
394.1191642870853
 20
532.9960200242
 30
0.0
 11
390.0777123262852
 21
532.9960200242
 31
0.0
  0
LINE
  5
202
330
1F
100
AcDbEntity
  8
0
  6
Continuous
 62
     7
100
AcDbLine
 10
399.5777124864852
 20
542.996017938
 30
0.0
 11
399.5777124864852
 21
547.9960206202
 31
0.0
  0
LINE
  5
203
330
1F
100
AcDbEntity
  8
0
  6
Continuous
 62
     7
100
AcDbLine
 10
399.0777124044852
 20
542.996017938
 30
0.0
 11
399.5777124864852
 21
542.996017938
 31
0.0
  0
LINE
  5
204
330
1F
100
AcDbEntity
  8
0
  6
Continuous
 62
     7
100
AcDbLine
 10
399.5777124864852
 20
547.9960206202
 30
0.0
 11
400.0777125684853
 21
547.9960206202
 31
0.0
  0
LINE
  5
205
330
1F
100
AcDbEntity
  8
0
  6
Continuous
 62
     7
100
AcDbLine
 10
400.0777125684853
 20
532.9960200242
 30
0.0
 11
394.1191642870853
 21
532.9960200242
 31
0.0
  0
LINE
  5
206
330
1F
100
AcDbEntity
  8
0
  6
Continuous
 62
     7
100
AcDbLine
 10
410.5777124268852
 20
547.9960206202
 30
0.0
 11
410.5777124268852
 21
532.9960200242
 31
0.0
  0
LINE
  5
207
330
1F
100
AcDbEntity
  8
0
  6
Continuous
 62
     7
100
AcDbLine
 10
409.0777126466853
 20
547.9960206202
 30
0.0
 11
410.5777124268852
 21
547.9960206202
 31
0.0
  0
LINE
  5
208
330
1F
100
AcDbEntity
  8
0
  6
Continuous
 62
     7
100
AcDbLine
 10
410.5777124268852
 20
532.9960200242
 30
0.0
 11
409.0777126466853
 21
532.9960200242
 31
0.0
  0
LINE
  5
209
330
1F
100
AcDbEntity
  8
0
  6
Continuous
 62
     7
100
AcDbLine
 10
399.5777124864852
 20
547.9960206202
 30
0.0
 11
399.0777124044852
 21
547.9960206202
 31
0.0
  0
LINE
  5
20A
330
1F
100
AcDbEntity
  8
0
  6
Continuous
 62
     7
100
AcDbLine
 10
410.5777124268852
 20
550.2460214547
 30
0.0
 11
410.5777124268852
 21
547.9960206202
 31
0.0
  0
LINE
  5
20B
330
1F
100
AcDbEntity
  8
0
  6
Continuous
 62
     7
100
AcDbLine
 10
390.0777123262852
 20
532.9960200242
 30
0.0
 11
390.0777123262852
 21
532.7460157922
 31
0.0
  0
LINE
  5
20C
330
1F
100
AcDbEntity
  8
0
  6
Continuous
 62
     7
100
AcDbLine
 10
410.5777124268852
 20
553.4960168651
 30
0.0
 11
410.5777124268852
 21
550.2460214547
 31
0.0
  0
ARC
  5
20D
330
1F
100
AcDbEntity
  8
0
  6
Continuous
 62
     7
100
AcDbCircle
 10
404.7777125002852
 20
446.6460186294
 30
0.0
 40
18.19999999999992
100
AcDbArc
 50
359.9999999909999
 51
37.18356639249994
  0
ARC
  5
20E
330
1F
100
AcDbEntity
  8
0
  6
Continuous
 62
     7
100
AcDbCircle
 10
404.7777125002852
 20
446.6460186294
 30
0.0
 40
18.19999999999985
100
AcDbArc
 50
142.8164336053999
 51
217.1835663946001
  0
ARC
  5
20F
330
1F
100
AcDbEntity
  8
0
  6
Continuous
 62
     7
100
AcDbCircle
 10
404.7777125002852
 20
446.6460186294
 30
0.0
 40
18.19999999999989
100
AcDbArc
 50
322.8164336074999
 51
359.9999999909999
  0
ARC
  5
210
330
1F
100
AcDbEntity
  8
0
  6
Continuous
 62
     7
100
AcDbCircle
 10
404.7777125001853
 20
446.6460186294
 30
0.0
 40
18.5
100
AcDbArc
 50
321.6083326392
 51
359.9999999909999
  0
ARC
  5
211
330
1F
100
AcDbEntity
  8
0
  6
Continuous
 62
     7
100
AcDbCircle
 10
404.7777125001853
 20
446.6460186294
 30
0.0
 40
18.50000000000003
100
AcDbArc
 50
141.6083326370999
 51
218.3916673628999
  0
ARC
  5
212
330
1F
100
AcDbEntity
  8
0
  6
Continuous
 62
     7
100
AcDbCircle
 10
404.7777125001853
 20
446.6460186294
 30
0.0
 40
18.50000000000001
100
AcDbArc
 50
359.9999999909999
 51
38.39166736079999
  0
ARC
  5
213
330
1F
100
AcDbEntity
  8
0
  6
Continuous
 62
     7
100
AcDbCircle
 10
419.7777125002852
 20
446.646018628
 30
0.0
 40
2.000000000000014
100
AcDbArc
 50
359.9999999909996
 51
104.4775121801005
  0
ARC
  5
214
330
1F
100
AcDbEntity
  8
0
  6
Continuous
 62
     7
100
AcDbCircle
 10
419.7777125002852
 20
446.646018628
 30
0.0
 40
2.000000000000014
100
AcDbArc
 50
255.5224878198994
 51
359.9999999909996
  0
ARC
  5
215
330
1F
100
AcDbEntity
  8
0
  6
Continuous
 62
     7
100
AcDbCircle
 10
389.7777125002852
 20
446.6460186308
 30
0.0
 40
2.000000000000002
100
AcDbArc
 50
75.52248780820052
 51
284.4775121917995
  0
ARC
  5
216
330
1F
100
AcDbEntity
  8
0
  6
Continuous
 62
     7
100
AcDbCircle
 10
404.7777125002852
 20
490.1460186294
 30
0.0
 40
18.19999999999986
100
AcDbArc
 50
11.58872740580004
 51
37.18356639249991
  0
ARC
  5
217
330
1F
100
AcDbEntity
  8
0
  6
Continuous
 62
     7
100
AcDbCircle
 10
404.7777125002852
 20
490.1460186294
 30
0.0
 40
18.1999999999999
100
AcDbArc
 50
142.8164336054001
 51
217.1835663946
  0
ARC
  5
218
330
1F
100
AcDbEntity
  8
0
  6
Continuous
 62
     7
100
AcDbCircle
 10
404.7777125002852
 20
490.1460186294
 30
0.0
 40
18.19999999999986
100
AcDbArc
 50
322.8164336075001
 51
11.58872740580004
  0
ARC
  5
219
330
1F
100
AcDbEntity
  8
0
  6
Continuous
 62
     7
100
AcDbCircle
 10
404.7777125001853
 20
490.1460186294
 30
0.0
 40
18.50000000000004
100
AcDbArc
 50
321.6083326392
 51
11.58872740579998
  0
ARC
  5
21A
330
1F
100
AcDbEntity
  8
0
  6
Continuous
 62
     7
100
AcDbCircle
 10
404.7777125001853
 20
490.1460186294
 30
0.0
 40
18.50000000000003
100
AcDbArc
 50
141.6083326370999
 51
218.3916673628999
  0
ARC
  5
21B
330
1F
100
AcDbEntity
  8
0
  6
Continuous
 62
     7
100
AcDbCircle
 10
404.7777125001853
 20
490.1460186294
 30
0.0
 40
18.50000000000005
100
AcDbArc
 50
11.58872740579994
 51
38.39166736079999
  0
ARC
  5
21C
330
1F
100
AcDbEntity
  8
0
  6
Continuous
 62
     7
100
AcDbCircle
 10
419.4719343725852
 20
493.1592965067
 30
0.0
 40
2.000000000000054
100
AcDbArc
 50
11.58872740580063
 51
95.57282942689986
  0
ARC
  5
21D
330
1F
100
AcDbEntity
  8
0
  6
Continuous
 62
     7
100
AcDbCircle
 10
419.4719343725852
 20
493.1592965067
 30
0.0
 40
2.000000000000054
100
AcDbArc
 50
264.4271705731002
 51
11.58872740580063
  0
ARC
  5
21E
330
1F
100
AcDbEntity
  8
0
  6
Continuous
 62
     7
100
AcDbCircle
 10
390.0834906278852
 20
487.1327407522
 30
0.0
 40
1.999999999999972
100
AcDbArc
 50
84.42717056170055
 51
275.5728294382994
  0
LINE
  5
21F
330
1F
100
AcDbEntity
  8
0
  6
Continuous
 62
     7
100
AcDbLine
 10
384.7777129476852
 20
409.6460181526
 30
0.0
 11
384.7777129476852
 21
419.6460179291
 31
0.0
  0
LINE
  5
220
330
1F
100
AcDbEntity
  8
0
  6
Continuous
 62
     7
100
AcDbLine
 10
385.3561015193852
 20
419.6460179291
 30
0.0
 11
386.7777132754852
 21
419.6460179291
 31
0.0
  0
LINE
  5
221
330
1F
100
AcDbEntity
  8
0
  6
Continuous
 62
     7
100
AcDbLine
 10
386.7777132754852
 20
409.6460181526
 30
0.0
 11
384.7777129476852
 21
409.6460181526
 31
0.0
  0
CIRCLE
  5
222
330
1F
100
AcDbEntity
  8
0
  6
Continuous
 62
     7
100
AcDbCircle
 10
404.7777125006853
 20
497.1460186294
 30
0.0
 40
3.199999999999932
  0
CIRCLE
  5
223
330
1F
100
AcDbEntity
  8
0
  6
Continuous
 62
     7
100
AcDbCircle
 10
404.7777125006853
 20
447.1460186294
 30
0.0
 40
3.199999999999932
  0
ARC
  5
224
330
1F
100
AcDbEntity
  8
0
  6
Continuous
 62
     7
100
AcDbCircle
 10
404.7777125006853
 20
501.6460186294
 30
0.0
 40
9.500000000000057
100
AcDbArc
 50
0.0000000072001223
 51
179.9999999927999
  0
LINE
  5
225
330
1F
100
AcDbEntity
  8
0
  6
Continuous
 62
     7
100
AcDbLine
 10
414.2777121951852
 20
501.6460183314
 30
0.0
 11
414.2777121951852
 21
419.6460179291
 31
0.0
  0
LINE
  5
226
330
1F
100
AcDbEntity
  8
0
  6
Continuous
 62
     7
100
AcDbLine
 10
395.2777128060852
 20
419.6460179291
 30
0.0
 11
395.2777128060852
 21
501.6460183314
 31
0.0
  0
LINE
  5
227
330
1F
100
AcDbEntity
  8
0
  6
Continuous
 62
     7
100
AcDbLine
 10
386.7777132754852
 20
419.6460179291
 30
0.0
 11
395.2777128060852
 21
419.6460179291
 31
0.0
  0
LINE
  5
228
330
1F
100
AcDbEntity
  8
0
  6
Continuous
 62
     7
100
AcDbLine
 10
414.2777121951852
 20
419.6460179291
 30
0.0
 11
422.7777117257853
 21
419.6460179291
 31
0.0
  0
LINE
  5
229
330
1F
100
AcDbEntity
  8
0
  6
Continuous
 62
     7
100
AcDbLine
 10
386.7777132754852
 20
409.6460181526
 30
0.0
 11
422.7777117257853
 21
409.6460181526
 31
0.0
  0
LINE
  5
22A
330
1F
100
AcDbEntity
  8
0
  6
Continuous
 62
     7
100
AcDbLine
 10
424.7777120535852
 20
419.6460179291
 30
0.0
 11
424.7777120535852
 21
409.6460181526
 31
0.0
  0
LINE
  5
22B
330
1F
100
AcDbEntity
  8
0
  6
Continuous
 62
     7
100
AcDbLine
 10
422.7777117257853
 20
419.6460179291
 30
0.0
 11
424.1993234818852
 21
419.6460179291
 31
0.0
  0
LINE
  5
22C
330
1F
100
AcDbEntity
  8
0
  6
Continuous
 62
     7
100
AcDbLine
 10
424.7777120535852
 20
409.6460181526
 30
0.0
 11
422.7777117257853
 21
409.6460181526
 31
0.0
  0
LINE
  5
22D
330
1F
100
AcDbEntity
  8
0
  6
Continuous
 62
     7
100
AcDbLine
 10
419.2777120833852
 20
434.8138586855
 30
0.0
 11
419.2777120833852
 21
458.4781785733
 31
0.0
  0
LINE
  5
22E
330
1F
100
AcDbEntity
  8
0
  6
Continuous
 62
     7
100
AcDbLine
 10
419.2777120833852
 20
478.3138583652
 30
0.0
 11
419.2777120833852
 21
501.9781763903
 31
0.0
  0
LINE
  5
22F
330
1F
100
AcDbEntity
  8
0
  6
Continuous
 62
     7
100
AcDbLine
 10
390.2777129178853
 20
501.9781763903
 30
0.0
 11
390.2777129178853
 21
478.3138583652
 31
0.0
  0
LINE
  5
230
330
1F
100
AcDbEntity
  8
0
  6
Continuous
 62
     7
100
AcDbLine
 10
390.2777129178853
 20
458.4781785733
 30
0.0
 11
390.2777129178853
 21
434.8138586855
 31
0.0
  0
LINE
  5
231
330
1F
100
AcDbEntity
  8
0
  6
Continuous
 62
     8
100
AcDbLine
 10
385.7777131115852
 20
529.6460154704
 30
0.0
 11
385.7777131115852
 21
490.1460173777
 31
0.0
  0
LINE
  5
232
330
1F
100
AcDbEntity
  8
0
  6
Continuous
 62
     8
100
AcDbLine
 10
385.7777131115852
 20
490.1460173777
 30
0.0
 11
385.7777131115852
 21
446.6460186294
 31
0.0
  0
LINE
  5
233
330
1F
100
AcDbEntity
  8
0
  6
Continuous
 62
     8
100
AcDbLine
 10
385.7777131115852
 20
446.6460186294
 30
0.0
 11
385.7777131115852
 21
419.6460179291
 31
0.0
  0
LINE
  5
234
330
1F
100
AcDbEntity
  8
0
  6
Continuous
 62
     8
100
AcDbLine
 10
423.7777118896852
 20
490.1460173777
 30
0.0
 11
423.7777118896852
 21
529.6460154704
 31
0.0
  0
LINE
  5
235
330
1F
100
AcDbEntity
  8
0
  6
Continuous
 62
     8
100
AcDbLine
 10
423.7777118896852
 20
446.6460186294
 30
0.0
 11
423.7777118896852
 21
490.1460173777
 31
0.0
  0
LINE
  5
236
330
1F
100
AcDbEntity
  8
0
  6
Continuous
 62
     8
100
AcDbLine
 10
423.7777118896852
 20
419.6460179291
 30
0.0
 11
423.7777118896852
 21
446.6460186294
 31
0.0
  0
LINE
  5
237
330
1F
100
AcDbEntity
  8
0
  6
Continuous
 62
     8
100
AcDbLine
 10
390.5777124082852
 20
563.240966504
 30
0.0
 11
390.5777124082852
 21
533.2409653119
 31
0.0
  0
LINE
  5
238
330
1F
100
AcDbEntity
  8
0
  6
Continuous
 62
     8
100
AcDbLine
 10
390.5777124082852
 20
563.7409675172
 30
0.0
 11
390.5777124082852
 21
564.7409695438
 31
0.0
  0
LINE
  5
239
330
1F
100
AcDbEntity
  8
0
  6
Continuous
 62
     8
100
AcDbLine
 10
410.5777124268852
 20
553.4960168651
 30
0.0
 11
411.0777125088852
 21
553.4960168651
 31
0.0
  0
LINE
  5
23A
330
1F
100
AcDbEntity
  8
0
  6
Continuous
 62
     8
100
AcDbLine
 10
411.0777125088852
 20
555.9960219315
 30
0.0
 11
410.5777124268852
 21
555.9960219315
 31
0.0
  0
LINE
  5
23B
330
1F
100
AcDbEntity
  8
0
  6
Continuous
 62
     8
100
AcDbLine
 10
410.7777125527853
 20
536.1897710017
 30
0.0
 11
411.0777125088852
 21
536.1897710017
 31
0.0
  0
LINE
  5
23C
330
1F
100
AcDbEntity
  8
0
  6
Continuous
 62
     8
100
AcDbLine
 10
419.5777125050852
 20
563.240966504
 30
0.0
 11
419.5777125050852
 21
533.2409653119
 31
0.0
  0
LINE
  5
23D
330
1F
100
AcDbEntity
  8
0
  6
Continuous
 62
     8
100
AcDbLine
 10
419.5777125050852
 20
563.7409675172
 30
0.0
 11
419.5777125050852
 21
564.7409695438
 31
0.0
  0
LINE
  5
23E
330
1F
100
AcDbEntity
  8
0
  6
Continuous
 62
     8
100
AcDbLine
 10
399.0777124044852
 20
553.4960168651
 30
0.0
 11
400.5777126503853
 21
553.4960168651
 31
0.0
  0
LINE
  5
23F
330
1F
100
AcDbEntity
  8
0
  6
Continuous
 62
     8
100
AcDbLine
 10
400.5777126503853
 20
555.9960219315
 30
0.0
 11
399.0777124044852
 21
555.9960219315
 31
0.0
  0
LINE
  5
240
330
1F
100
AcDbEntity
  8
0
  6
Continuous
 62
     8
100
AcDbLine
 10
400.5777126503853
 20
551.1835205606
 30
0.0
 11
410.0777123448852
 21
551.1835205606
 31
0.0
  0
LINE
  5
241
330
1F
100
AcDbEntity
  8
0
  6
Continuous
 62
     8
100
AcDbLine
 10
410.0777123448852
 20
550.2460214547
 30
0.0
 11
410.5777124268852
 21
550.2460214547
 31
0.0
  0
LINE
  5
242
330
1F
100
AcDbEntity
  8
0
  6
Continuous
 62
     8
100
AcDbLine
 10
386.7777132754852
 20
419.6460179291
 30
0.0
 11
386.7777132754852
 21
409.6460181526
 31
0.0
  0
LINE
  5
243
330
1F
100
AcDbEntity
  8
0
  6
Continuous
 62
     8
100
AcDbLine
 10
422.7777117257853
 20
409.6460181526
 30
0.0
 11
422.7777117257853
 21
419.6460179291
 31
0.0
  0
ARC
  5
244
330
1F
100
AcDbEntity
  8
0
  6
Continuous
 62
     7
100
AcDbCircle
 10
531.5232435915
 20
292.2517634553
 30
0.0
 40
1.500000000000055
100
AcDbArc
 50
180.0000000036
 51
240.0000000036
  0
LINE
  5
245
330
1F
100
AcDbEntity
  8
0
  6
Continuous
 62
     7
100
AcDbLine
 10
531.7732443658
 20
290.7727434256
 30
0.0
 11
531.8607216326
 21
290.7902196937
 31
0.0
  0
ARC
  5
246
330
1F
100
AcDbEntity
  8
0
  6
Continuous
 62
     7
100
AcDbCircle
 10
531.5232435915
 20
292.2517634553
 30
0.0
 40
1.5
100
AcDbArc
 50
139.6565433163
 51
180.0000000036
  0
ARC
  5
247
330
1F
100
AcDbEntity
  8
0
  6
Continuous
 62
     7
100
AcDbCircle
 10
637.5232435915
 20
292.251763462
 30
0.0
 40
1.500000000000061
100
AcDbArc
 50
0.0000000036
 51
40.5331814003
  0
LINE
  5
248
330
1F
100
AcDbEntity
  8
0
  6
Continuous
 62
     7
100
AcDbLine
 10
637.1863953394
 20
290.7900753387
 30
0.0
 11
637.2732434978
 21
290.7727434256
 31
0.0
  0
ARC
  5
249
330
1F
100
AcDbEntity
  8
0
  6
Continuous
 62
     7
100
AcDbCircle
 10
637.5232435915
 20
292.251763462
 30
0.0
 40
1.500000000000002
100
AcDbArc
 50
300.0000000036
 51
0.0000000036
  0
ARC
  5
24A
330
1F
100
AcDbEntity
  8
0
  6
Continuous
 62
     7
100
AcDbCircle
 10
531.5232435903
 20
311.8517634553
 30
0.0
 40
1.500000000000114
100
AcDbArc
 50
180.0000000036
 51
220.5331814003
  0
LINE
  5
24B
330
1F
100
AcDbEntity
  8
0
  6
Continuous
 62
     7
100
AcDbLine
 10
531.8600883332
 20
313.3134524294
 30
0.0
 11
531.7732443658
 21
313.3307834112
 31
0.0
  0
ARC
  5
24C
330
1F
100
AcDbEntity
  8
0
  6
Continuous
 62
     7
100
AcDbCircle
 10
531.5232435903
 20
311.8517634553
 30
0.0
 40
1.500000000000114
100
AcDbArc
 50
120.0000000036
 51
180.0000000036
  0
ARC
  5
24D
330
1F
100
AcDbEntity
  8
0
  6
Continuous
 62
     7
100
AcDbCircle
 10
637.5232435903
 20
311.851763462
 30
0.0
 40
1.5
100
AcDbArc
 50
0.0000000036
 51
60.00000000360001
  0
LINE
  5
24E
330
1F
100
AcDbEntity
  8
0
  6
Continuous
 62
     7
100
AcDbLine
 10
637.2732434978
 20
313.3307834112
 30
0.0
 11
637.1857685593
 21
313.3133071431
 31
0.0
  0
ARC
  5
24F
330
1F
100
AcDbEntity
  8
0
  6
Continuous
 62
     7
100
AcDbCircle
 10
637.5232435903
 20
311.851763462
 30
0.0
 40
1.500000000000007
100
AcDbArc
 50
319.6565433163
 51
0.0000000036
  0
LINE
  5
250
330
1F
100
AcDbEntity
  8
0
  6
Continuous
 62
     7
100
AcDbLine
 10
540.0232424584
 20
307.0517633066
 30
0.0
 11
540.0232424584
 21
297.5517636121
 31
0.0
  0
LINE
  5
251
330
1F
100
AcDbEntity
  8
0
  6
Continuous
 62
     7
100
AcDbLine
 10
541.5232454983
 20
307.5517633886
 30
0.0
 11
541.5232454983
 21
307.0517633066
 31
0.0
  0
LINE
  5
252
330
1F
100
AcDbEntity
  8
0
  6
Continuous
 62
     7
100
AcDbLine
 10
643.5232435921
 20
282.7517640733
 30
0.0
 11
643.5232435897
 21
320.7517628514
 31
0.0
  0
ARC
  5
253
330
1F
100
AcDbEntity
  8
0
  6
Continuous
 62
     7
100
AcDbCircle
 10
642.5232435921
 20
282.7517634623
 30
0.0
 40
1.0
100
AcDbArc
 50
270.0000000036001
 51
0.0000000036
  0
LINE
  5
254
330
1F
100
AcDbEntity
  8
0
  6
Continuous
 62
     7
100
AcDbLine
 10
585.5232452599
 20
281.7517639094
 30
0.0
 11
642.5232435434
 21
281.7517639094
 31
0.0
  0
ARC
  5
255
330
1F
100
AcDbEntity
  8
0
  6
Continuous
 62
     7
100
AcDbCircle
 10
626.5232435918
 20
287.7517634613
 30
0.0
 40
1.849999999999977
100
AcDbArc
 50
246.7685434986
 51
293.2314565086
  0
ARC
  5
256
330
1F
100
AcDbEntity
  8
0
  6
Continuous
 62
     7
100
AcDbCircle
 10
640.0232435909
 20
301.7517634621
 30
0.0
 40
2.500000000000079
100
AcDbArc
 50
323.1301023583
 51
36.86989764900001
  0
ARC
  5
257
330
1F
100
AcDbEntity
  8
0
  6
Continuous
 62
     7
100
AcDbCircle
 10
642.5232435897
 20
320.7517634623
 30
0.0
 40
1.0
100
AcDbArc
 50
0.0000000036
 51
90.00000000359998
  0
LINE
  5
258
330
1F
100
AcDbEntity
  8
0
  6
Continuous
 62
     7
100
AcDbLine
 10
642.5232435434
 20
321.7517630153
 30
0.0
 11
585.5232452599
 21
321.7517630153
 31
0.0
  0
ARC
  5
259
330
1F
100
AcDbEntity
  8
0
  6
Continuous
 62
     7
100
AcDbCircle
 10
585.5232435909
 20
301.7517634587
 30
0.0
 40
7.749999999999953
100
AcDbArc
 50
131.5491442683
 51
136.8531202778
  0
ARC
  5
25A
330
1F
100
AcDbEntity
  8
0
  6
Continuous
 62
     7
100
AcDbCircle
 10
585.5232435909
 20
301.7517634587
 30
0.0
 40
6.749999999999961
100
AcDbArc
 50
120.766485977
 51
128.262191132
  0
ARC
  5
25B
330
1F
100
AcDbEntity
  8
0
  6
Continuous
 62
     7
100
AcDbCircle
 10
585.5232435909
 20
301.7517634587
 30
0.0
 40
7.750000000000035
100
AcDbArc
 50
43.1468797294
 51
48.450855739
  0
ARC
  5
25C
330
1F
100
AcDbEntity
  8
0
  6
Continuous
 62
     7
100
AcDbCircle
 10
585.5232435909
 20
301.7517634587
 30
0.0
 40
6.750000000000004
100
AcDbArc
 50
51.73780887520001
 51
59.23351403019999
  0
LINE
  5
25D
330
1F
100
AcDbEntity
  8
0
  6
Continuous
 62
     7
100
AcDbLine
 10
532.2732453791
 20
296.0517633662
 30
0.0
 11
532.2732453791
 21
287.55176337
 31
0.0
  0
LINE
  5
25E
330
1F
100
AcDbEntity
  8
0
  6
Continuous
 62
     7
100
AcDbLine
 10
636.7732434158
 20
296.0517633662
 30
0.0
 11
532.2732453791
 21
296.0517633662
 31
0.0
  0
LINE
  5
25F
330
1F
100
AcDbEntity
  8
0
  6
Continuous
 62
     7
100
AcDbLine
 10
636.7732434158
 20
287.55176337
 30
0.0
 11
636.7732434158
 21
296.0517633662
 31
0.0
  0
LINE
  5
260
330
1F
100
AcDbEntity
  8
0
  6
Continuous
 62
     7
100
AcDbLine
 10
532.2732453791
 20
286.0517640554
 30
0.0
 11
532.2732453791
 21
287.55176337
 31
0.0
  0
LINE
  5
261
330
1F
100
AcDbEntity
  8
0
  6
Continuous
 62
     7
100
AcDbLine
 10
636.7732434158
 20
287.55176337
 30
0.0
 11
636.7732434158
 21
286.0517640554
 31
0.0
  0
LINE
  5
262
330
1F
100
AcDbEntity
  8
0
  6
Continuous
 62
     7
100
AcDbLine
 10
532.2732453791
 20
286.0517640554
 30
0.0
 11
636.7732434158
 21
286.0517640554
 31
0.0
  0
LINE
  5
263
330
1F
100
AcDbEntity
  8
0
  6
Continuous
 62
     7
100
AcDbLine
 10
530.7732423392
 20
296.0517633662
 30
0.0
 11
531.7732443658
 21
296.0517633662
 31
0.0
  0
LINE
  5
264
330
1F
100
AcDbEntity
  8
0
  6
Continuous
 62
     7
100
AcDbLine
 10
531.7732443658
 20
287.55176337
 30
0.0
 11
531.7732443658
 21
296.0517633662
 31
0.0
  0
LINE
  5
265
330
1F
100
AcDbEntity
  8
0
  6
Continuous
 62
     7
100
AcDbLine
 10
530.7732423392
 20
287.55176337
 30
0.0
 11
530.7732423392
 21
296.0517633662
 31
0.0
  0
ARC
  5
266
330
1F
100
AcDbEntity
  8
0
  6
Continuous
 62
     7
100
AcDbCircle
 10
636.7732435918
 20
287.5517634619
 30
0.0
 40
0.5000000000001137
100
AcDbArc
 50
270.0000000036001
 51
0.0000000036
  0
ARC
  5
267
330
1F
100
AcDbEntity
  8
0
  6
Continuous
 62
     7
100
AcDbCircle
 10
636.7732435918
 20
287.5517634619
 30
0.0
 40
1.5
100
AcDbArc
 50
270.0000000036001
 51
0.0000000036
  0
LINE
  5
268
330
1F
100
AcDbEntity
  8
0
  6
Continuous
 62
     7
100
AcDbLine
 10
638.2732436617
 20
296.0517633662
 30
0.0
 11
638.2732436617
 21
287.55176337
 31
0.0
  0
LINE
  5
269
330
1F
100
AcDbEntity
  8
0
  6
Continuous
 62
     7
100
AcDbLine
 10
637.2732434978
 20
296.0517633662
 30
0.0
 11
637.2732434978
 21
287.55176337
 31
0.0
  0
LINE
  5
26A
330
1F
100
AcDbEntity
  8
0
  6
Continuous
 62
     7
100
AcDbLine
 10
638.2732436617
 20
296.0517633662
 30
0.0
 11
637.2732434978
 21
296.0517633662
 31
0.0
  0
ARC
  5
26B
330
1F
100
AcDbEntity
  8
0
  6
Continuous
 62
     7
100
AcDbCircle
 10
532.2732435918
 20
287.5517634553
 30
0.0
 40
1.5
100
AcDbArc
 50
180.0000000036
 51
270.0000000036001
  0
ARC
  5
26C
330
1F
100
AcDbEntity
  8
0
  6
Continuous
 62
     7
100
AcDbCircle
 10
532.2732435918
 20
287.5517634553
 30
0.0
 40
0.5
100
AcDbArc
 50
180.0000000036
 51
270.0000000036001
  0
ARC
  5
26D
330
1F
100
AcDbEntity
  8
0
  6
Continuous
 62
     7
100
AcDbCircle
 10
585.5232435909
 20
301.7517634587
 30
0.0
 40
19.70000000000001
100
AcDbArc
 50
232.8402372367
 51
307.1597627705
  0
ARC
  5
26E
330
1F
100
AcDbEntity
  8
0
  6
Continuous
 62
     7
100
AcDbCircle
 10
585.5232435909
 20
301.7517634587
 30
0.0
 40
19.70000000000005
100
AcDbArc
 50
55.83371351070001
 51
124.1662864965
  0
ARC
  5
26F
330
1F
100
AcDbEntity
  8
0
  6
Continuous
 62
     7
100
AcDbCircle
 10
585.5232435909
 20
301.7517634587
 30
0.0
 40
19.99999999999999
100
AcDbArc
 50
231.7206782657
 51
308.2793217415
  0
ARC
  5
270
330
1F
100
AcDbEntity
  8
0
  6
Continuous
 62
     7
100
AcDbCircle
 10
585.5232435909
 20
301.7517634587
 30
0.0
 40
20.00000000000002
100
AcDbArc
 50
54.5873618926
 51
125.4126381147
  0
LINE
  5
271
330
1F
100
AcDbEntity
  8
0
  6
Continuous
 62
     7
100
AcDbLine
 10
591.4545295385
 20
307.1201750033
 30
0.0
 11
591.0332327334
 21
307.5517633886
 31
0.0
  0
LINE
  5
272
330
1F
100
AcDbEntity
  8
0
  6
Continuous
 62
     7
100
AcDbLine
 10
580.0132503358
 20
307.5517633886
 30
0.0
 11
579.5849760619
 21
307.1124515452
 31
0.0
  0
LINE
  5
273
330
1F
100
AcDbEntity
  8
0
  6
Continuous
 62
     7
100
AcDbLine
 10
531.7732443658
 20
291.1688945212
 30
0.0
 11
532.2732453791
 21
289.0031569593
 31
0.0
  0
LINE
  5
274
330
1F
100
AcDbEntity
  8
0
  6
Continuous
 62
     7
100
AcDbLine
 10
532.0232411471
 20
292.2517637678
 30
0.0
 11
531.7732443658
 21
292.2517637678
 31
0.0
  0
SPLINE
  5
275
330
1F
100
AcDbEntity
  8
0
  6
Continuous
 62
     7
100
AcDbSpline
210
0.0
220
0.0
230
1.0
 70
     8
 71
     3
 72
    10
 73
     6
 74
     0
 42
0.00000001
 43
0.00000001
 40
0.0
 40
0.0
 40
0.0
 40
0.0
 40
0.0188861505380185
 40
0.7360949508117547
 40
1.0
 40
1.0
 40
1.0
 40
1.0
 10
532.0232411471429
 20
293.0426205464539
 30
0.0
 10
532.0223509293431
 20
293.0449949835539
 30
0.0
 10
531.9876543496326
 20
293.1375395789624
 30
0.0
 10
531.9012952174489
 20
293.2448176170588
 30
0.0
 10
531.8003871395631
 20
293.3167611456677
 30
0.0
 10
531.7732443657937
 20
293.3361128860053
 30
0.0
  0
SPLINE
  5
276
330
1F
100
AcDbEntity
  8
0
  6
Continuous
 62
     7
100
AcDbSpline
210
0.0
220
0.0
230
1.0
 70
     8
 71
     3
 72
     9
 73
     5
 74
     0
 42
0.00000001
 43
0.00000001
 40
0.0
 40
0.0
 40
0.0
 40
0.0
 40
0.3780433661245882
 40
1.0
 40
1.0
 40
1.0
 40
1.0
 10
530.7732423392358
 20
293.5007343956169
 30
0.0
 10
530.7157221032365
 20
293.47595758069
 30
0.0
 10
530.5635696224543
 20
293.4104179702985
 30
0.0
 10
530.4481550941216
 20
293.2921250832511
 30
0.0
 10
530.3763722625795
 20
293.2185520374116
 30
0.0
  0
LINE
  5
277
330
1F
100
AcDbEntity
  8
0
  6
Continuous
 62
     7
100
AcDbLine
 10
637.2732434978
 20
292.2517637678
 30
0.0
 11
637.0232434568
 21
292.2517637678
 31
0.0
  0
LINE
  5
278
330
1F
100
AcDbEntity
  8
0
  6
Continuous
 62
     7
100
AcDbLine
 10
636.7732434158
 20
289.0031569593
 30
0.0
 11
637.2732434978
 21
291.1688945212
 31
0.0
  0
SPLINE
  5
279
330
1F
100
AcDbEntity
  8
0
  6
Continuous
 62
     7
100
AcDbSpline
210
0.0
220
0.0
230
1.0
 70
     8
 71
     3
 72
     9
 73
     5
 74
     0
 42
0.00000001
 43
0.00000001
 40
0.0
 40
0.0
 40
0.0
 40
0.0
 40
0.6220135073228699
 40
1.0
 40
1.0
 40
1.0
 40
1.0
 10
638.6701179293218
 20
293.2185520374116
 30
0.0
 10
638.5983281537291
 20
293.2921312222867
 30
0.0
 10
638.4829130144312
 20
293.4104231629102
 30
0.0
 10
638.3307566951701
 20
293.4759623859063
 30
0.0
 10
638.2732436617139
 20
293.5007353269395
 30
0.0
  0
SPLINE
  5
27A
330
1F
100
AcDbEntity
  8
0
  6
Continuous
 62
     7
100
AcDbSpline
210
0.0
220
0.0
230
1.0
 70
     8
 71
     3
 72
    10
 73
     6
 74
     0
 42
0.00000001
 43
0.00000001
 40
0.0
 40
0.0
 40
0.0
 40
0.0
 40
0.2639465782308079
 40
0.981155344224073
 40
1.0
 40
1.0
 40
1.0
 40
1.0
 10
637.2732434978011
 20
293.3361119546827
 30
0.0
 10
637.2460969973292
 20
293.3167566574487
 30
0.0
 10
637.1451866760309
 20
293.2448081842102
 30
0.0
 10
637.0588186168626
 20
293.1375434561415
 30
0.0
 10
637.024131525908
 20
293.044994664401
 30
0.0
 10
637.0232434568229
 20
293.0426252030667
 30
0.0
  0
LINE
  5
27B
330
1F
100
AcDbEntity
  8
0
  6
Continuous
 62
     7
100
AcDbLine
 10
531.7732443658
 20
311.851763069
 30
0.0
 11
532.0232411471
 21
311.851763069
 31
0.0
  0
LINE
  5
27C
330
1F
100
AcDbEntity
  8
0
  6
Continuous
 62
     7
100
AcDbLine
 10
532.2732453791
 20
315.1003708088
 30
0.0
 11
531.7732443658
 21
312.9346323156
 31
0.0
  0
SPLINE
  5
27D
330
1F
100
AcDbEntity
  8
0
  6
Continuous
 62
     7
100
AcDbSpline
210
0.0
220
0.0
230
1.0
 70
     8
 71
     3
 72
     9
 73
     5
 74
     0
 42
0.00000001
 43
0.00000001
 40
0.0
 40
0.0
 40
0.0
 40
0.0
 40
0.6220143450245942
 40
1.0
 40
1.0
 40
1.0
 40
1.0
 10
530.3763722625795
 20
310.8849757307109
 30
0.0
 10
530.4481612303941
 20
310.811396179438
 30
0.0
 10
530.5635749156072
 20
310.6931038090747
 30
0.0
 10
530.7157299274331
 20
310.6275644481327
 30
0.0
 10
530.7732423392358
 20
310.6027915098604
 30
0.0
  0
SPLINE
  5
27E
330
1F
100
AcDbEntity
  8
0
  6
Continuous
 62
     7
100
AcDbSpline
210
0.0
220
0.0
230
1.0
 70
     8
 71
     3
 72
    10
 73
     6
 74
     0
 42
0.00000001
 43
0.00000001
 40
0.0
 40
0.0
 40
0.0
 40
0.0
 40
0.2639410252606964
 40
0.9811559676277889
 40
1.0
 40
1.0
 40
1.0
 40
1.0
 10
531.7732443657937
 20
310.7674148821172
 30
0.0
 10
531.8003889899201
 20
310.7867704274516
 30
0.0
 10
531.9012945233603
 20
310.8587213823772
 30
0.0
 10
531.9876771873359
 20
310.965979559955
 30
0.0
 10
532.0223533928174
 20
311.0585321708826
 30
0.0
 10
532.0232411471429
 20
311.0609016337332
 30
0.0
  0
LINE
  5
27F
330
1F
100
AcDbEntity
  8
0
  6
Continuous
 62
     7
100
AcDbLine
 10
637.0232434568
 20
311.851763069
 30
0.0
 11
637.2732434978
 21
311.851763069
 31
0.0
  0
LINE
  5
280
330
1F
100
AcDbEntity
  8
0
  6
Continuous
 62
     7
100
AcDbLine
 10
637.2732434978
 20
312.9346323156
 30
0.0
 11
636.7732434158
 21
315.1003708088
 31
0.0
  0
SPLINE
  5
281
330
1F
100
AcDbEntity
  8
0
  6
Continuous
 62
     7
100
AcDbSpline
210
0.0
220
0.0
230
1.0
 70
     8
 71
     3
 72
    10
 73
     6
 74
     0
 42
0.00000001
 43
0.00000001
 40
0.0
 40
0.0
 40
0.0
 40
0.0
 40
0.0188853365550218
 40
0.736095440539085
 40
1.0
 40
1.0
 40
1.0
 40
1.0
 10
637.0232434568229
 20
311.0609062903461
 30
0.0
 10
637.0241333599333
 20
311.0585318518192
 30
0.0
 10
637.0588191925206
 20
310.9659831504304
 30
0.0
 10
637.1451934058738
 20
310.8587100545671
 30
0.0
 10
637.2461009425077
 20
310.7867658271377
 30
0.0
 10
637.2732434978011
 20
310.7674139507946
 30
0.0
  0
SPLINE
  5
282
330
1F
100
AcDbEntity
  8
0
  6
Continuous
 62
     7
100
AcDbSpline
210
0.0
220
0.0
230
1.0
 70
     8
 71
     3
 72
     9
 73
     5
 74
     0
 42
0.00000001
 43
0.00000001
 40
0.0
 40
0.0
 40
0.0
 40
0.0
 40
0.378037532342856
 40
1.0
 40
1.0
 40
1.0
 40
1.0
 10
638.2732436617139
 20
310.602792441183
 30
0.0
 10
638.3307651426915
 20
310.6275694495596
 30
0.0
 10
638.4829232647202
 20
310.6931105830631
 30
0.0
 10
638.5983357162006
 20
310.8114025605124
 30
0.0
 10
638.6701179293218
 20
310.8849757307109
 30
0.0
  0
LINE
  5
283
330
1F
100
AcDbEntity
  8
0
  6
Continuous
 62
     7
100
AcDbLine
 10
628.5232439262
 20
308.0517634706
 30
0.0
 11
628.5232439262
 21
307.5517633886
 31
0.0
  0
LINE
  5
284
330
1F
100
AcDbEntity
  8
0
  6
Continuous
 62
     7
100
AcDbLine
 10
628.5232439262
 20
307.5517633886
 30
0.0
 11
623.0232430247
 21
307.5517633886
 31
0.0
  0
LINE
  5
285
330
1F
100
AcDbEntity
  8
0
  6
Continuous
 62
     7
100
AcDbLine
 10
539.0232404319
 20
307.5517633886
 30
0.0
 11
623.0232430247
 21
307.5517633886
 31
0.0
  0
LINE
  5
286
330
1F
100
AcDbEntity
  8
0
  6
Continuous
 62
     7
100
AcDbLine
 10
533.523244187
 20
307.5517633886
 30
0.0
 11
533.523244187
 21
308.0517634706
 31
0.0
  0
LINE
  5
287
330
1F
100
AcDbEntity
  8
0
  6
Continuous
 62
     7
100
AcDbLine
 10
539.0232404319
 20
307.5517633886
 30
0.0
 11
533.523244187
 21
307.5517633886
 31
0.0
  0
LINE
  5
288
330
1F
100
AcDbEntity
  8
0
  6
Continuous
 62
     7
100
AcDbLine
 10
636.7732434158
 20
308.0517634706
 30
0.0
 11
532.2732453791
 21
308.0517634706
 31
0.0
  0
LINE
  5
289
330
1F
100
AcDbEntity
  8
0
  6
Continuous
 62
     7
100
AcDbLine
 10
636.7732434158
 20
316.5517634668
 30
0.0
 11
636.7732434158
 21
308.0517634706
 31
0.0
  0
LINE
  5
28A
330
1F
100
AcDbEntity
  8
0
  6
Continuous
 62
     7
100
AcDbLine
 10
532.2732453791
 20
308.0517634706
 30
0.0
 11
532.2732453791
 21
316.5517634668
 31
0.0
  0
LINE
  5
28B
330
1F
100
AcDbEntity
  8
0
  6
Continuous
 62
     7
100
AcDbLine
 10
636.7732434158
 20
318.0517637127
 30
0.0
 11
636.7732434158
 21
316.5517634668
 31
0.0
  0
LINE
  5
28C
330
1F
100
AcDbEntity
  8
0
  6
Continuous
 62
     7
100
AcDbLine
 10
532.2732453791
 20
316.5517634668
 30
0.0
 11
532.2732453791
 21
318.0517637127
 31
0.0
  0
LINE
  5
28D
330
1F
100
AcDbEntity
  8
0
  6
Continuous
 62
     7
100
AcDbLine
 10
532.2732453791
 20
318.0517637127
 30
0.0
 11
636.7732434158
 21
318.0517637127
 31
0.0
  0
ARC
  5
28E
330
1F
100
AcDbEntity
  8
0
  6
Continuous
 62
     7
100
AcDbCircle
 10
532.27324359
 20
316.5517634553
 30
0.0
 40
1.500000000000114
100
AcDbArc
 50
90.00000000359998
 51
180.0000000036
  0
ARC
  5
28F
330
1F
100
AcDbEntity
  8
0
  6
Continuous
 62
     7
100
AcDbCircle
 10
532.27324359
 20
316.5517634553
 30
0.0
 40
0.5000000000001137
100
AcDbArc
 50
90.00000000359998
 51
180.0000000036
  0
LINE
  5
290
330
1F
100
AcDbEntity
  8
0
  6
Continuous
 62
     7
100
AcDbLine
 10
530.7732423392
 20
308.0517634706
 30
0.0
 11
531.7732443658
 21
308.0517634706
 31
0.0
  0
LINE
  5
291
330
1F
100
AcDbEntity
  8
0
  6
Continuous
 62
     7
100
AcDbLine
 10
531.7732443658
 20
316.5517634668
 30
0.0
 11
531.7732443658
 21
308.0517634706
 31
0.0
  0
LINE
  5
292
330
1F
100
AcDbEntity
  8
0
  6
Continuous
 62
     7
100
AcDbLine
 10
530.7732423392
 20
316.5517634668
 30
0.0
 11
530.7732423392
 21
308.0517634706
 31
0.0
  0
ARC
  5
293
330
1F
100
AcDbEntity
  8
0
  6
Continuous
 62
     7
100
AcDbCircle
 10
636.77324359
 20
316.5517634619
 30
0.0
 40
1.500000000000114
100
AcDbArc
 50
0.0000000036
 51
90.00000000359998
  0
ARC
  5
294
330
1F
100
AcDbEntity
  8
0
  6
Continuous
 62
     7
100
AcDbCircle
 10
636.77324359
 20
316.5517634619
 30
0.0
 40
0.5000000000001137
100
AcDbArc
 50
0.0000000036
 51
90.00000000359998
  0
LINE
  5
295
330
1F
100
AcDbEntity
  8
0
  6
Continuous
 62
     7
100
AcDbLine
 10
638.2732436617
 20
308.0517634706
 30
0.0
 11
637.2732434978
 21
308.0517634706
 31
0.0
  0
LINE
  5
296
330
1F
100
AcDbEntity
  8
0
  6
Continuous
 62
     7
100
AcDbLine
 10
637.2732434978
 20
308.0517634706
 30
0.0
 11
637.2732434978
 21
316.5517634668
 31
0.0
  0
LINE
  5
297
330
1F
100
AcDbEntity
  8
0
  6
Continuous
 62
     7
100
AcDbLine
 10
638.2732436617
 20
308.0517634706
 30
0.0
 11
638.2732436617
 21
316.5517634668
 31
0.0
  0
LINE
  5
298
330
1F
100
AcDbEntity
  8
0
  6
Continuous
 62
     7
100
AcDbLine
 10
533.523244187
 20
297.5517636121
 30
0.0
 11
533.523244187
 21
296.0517633662
 31
0.0
  0
LINE
  5
299
330
1F
100
AcDbEntity
  8
0
  6
Continuous
 62
     7
100
AcDbLine
 10
539.0232404319
 20
297.5517636121
 30
0.0
 11
533.523244187
 21
297.5517636121
 31
0.0
  0
LINE
  5
29A
330
1F
100
AcDbEntity
  8
0
  6
Continuous
 62
     7
100
AcDbLine
 10
623.0232430247
 20
297.5517636121
 30
0.0
 11
539.0232404319
 21
297.5517636121
 31
0.0
  0
LINE
  5
29B
330
1F
100
AcDbEntity
  8
0
  6
Continuous
 62
     7
100
AcDbLine
 10
628.5232439262
 20
297.5517636121
 30
0.0
 11
628.5232439262
 21
296.0517633662
 31
0.0
  0
LINE
  5
29C
330
1F
100
AcDbEntity
  8
0
  6
Continuous
 62
     7
100
AcDbLine
 10
623.0232430247
 20
297.5517636121
 30
0.0
 11
628.5232439262
 21
297.5517636121
 31
0.0
  0
LINE
  5
29D
330
1F
100
AcDbEntity
  8
0
  6
Continuous
 62
     7
100
AcDbLine
 10
540.0232424584
 20
307.0517633066
 30
0.0
 11
560.5004256216
 21
307.0517633066
 31
0.0
  0
LINE
  5
29E
330
1F
100
AcDbEntity
  8
0
  6
Continuous
 62
     7
100
AcDbLine
 10
560.5004256216
 20
307.0517633066
 30
0.0
 11
564.0132402626
 21
307.0517633066
 31
0.0
  0
LINE
  5
29F
330
1F
100
AcDbEntity
  8
0
  6
Continuous
 62
     7
100
AcDbLine
 10
623.0232430247
 20
307.0517633066
 30
0.0
 11
623.0232430247
 21
297.5517636121
 31
0.0
  0
LINE
  5
2A0
330
1F
100
AcDbEntity
  8
0
  6
Continuous
 62
     7
100
AcDbLine
 10
564.0132402626
 20
307.0517633066
 30
0.0
 11
623.0232430247
 21
307.0517633066
 31
0.0
  0
LINE
  5
2A1
330
1F
100
AcDbEntity
  8
0
  6
Continuous
 62
     7
100
AcDbLine
 10
637.0232434568
 20
313.010311588
 30
0.0
 11
636.7732434158
 21
313.1546488919
 31
0.0
  0
LINE
  5
2A2
330
1F
100
AcDbEntity
  8
0
  6
Continuous
 62
     7
100
AcDbLine
 10
637.0232434568
 20
313.010311588
 30
0.0
 11
636.7732434158
 21
313.010311588
 31
0.0
  0
LINE
  5
2A3
330
1F
100
AcDbEntity
  8
0
  6
Continuous
 62
     7
100
AcDbLine
 10
532.0232411471
 20
313.010311588
 30
0.0
 11
532.2732453791
 21
313.1546488919
 31
0.0
  0
LINE
  5
2A4
330
1F
100
AcDbEntity
  8
0
  6
Continuous
 62
     7
100
AcDbLine
 10
532.2732453791
 20
313.010311588
 30
0.0
 11
532.0232411471
 21
313.010311588
 31
0.0
  0
LINE
  5
2A5
330
1F
100
AcDbEntity
  8
0
  6
Continuous
 62
     7
100
AcDbLine
 10
637.0232434568
 20
309.0517636345
 30
0.0
 11
636.7732434158
 21
309.0517636345
 31
0.0
  0
LINE
  5
2A6
330
1F
100
AcDbEntity
  8
0
  6
Continuous
 62
     7
100
AcDbLine
 10
637.0232434568
 20
313.010311588
 30
0.0
 11
637.0232434568
 21
309.0517636345
 31
0.0
  0
LINE
  5
2A7
330
1F
100
AcDbEntity
  8
0
  6
Continuous
 62
     7
100
AcDbLine
 10
532.2732453791
 20
309.0517636345
 30
0.0
 11
532.0232411471
 21
309.0517636345
 31
0.0
  0
LINE
  5
2A8
330
1F
100
AcDbEntity
  8
0
  6
Continuous
 62
     7
100
AcDbLine
 10
532.0232411471
 20
309.0517636345
 30
0.0
 11
532.0232411471
 21
313.010311588
 31
0.0
  0
LINE
  5
2A9
330
1F
100
AcDbEntity
  8
0
  6
Continuous
 62
     7
100
AcDbLine
 10
636.7732434158
 20
295.5517632843
 30
0.0
 11
637.0232434568
 21
295.5517632843
 31
0.0
  0
LINE
  5
2AA
330
1F
100
AcDbEntity
  8
0
  6
Continuous
 62
     7
100
AcDbLine
 10
637.0232434568
 20
295.5517632843
 30
0.0
 11
637.0232434568
 21
291.0932152488
 31
0.0
  0
LINE
  5
2AB
330
1F
100
AcDbEntity
  8
0
  6
Continuous
 62
     7
100
AcDbLine
 10
636.7732434158
 20
291.0932152488
 30
0.0
 11
637.0232434568
 21
291.0932152488
 31
0.0
  0
LINE
  5
2AC
330
1F
100
AcDbEntity
  8
0
  6
Continuous
 62
     7
100
AcDbLine
 10
532.0232411471
 20
291.0932152488
 30
0.0
 11
532.2732453791
 21
291.0932152488
 31
0.0
  0
LINE
  5
2AD
330
1F
100
AcDbEntity
  8
0
  6
Continuous
 62
     7
100
AcDbLine
 10
532.0232411471
 20
291.0932152488
 30
0.0
 11
532.0232411471
 21
295.5517632843
 31
0.0
  0
LINE
  5
2AE
330
1F
100
AcDbEntity
  8
0
  6
Continuous
 62
     7
100
AcDbLine
 10
532.0232411471
 20
295.5517632843
 30
0.0
 11
532.2732453791
 21
295.5517632843
 31
0.0
  0
LINE
  5
2AF
330
1F
100
AcDbEntity
  8
0
  6
Continuous
 62
     7
100
AcDbLine
 10
532.2732453791
 20
290.9488779449
 30
0.0
 11
532.0232411471
 21
291.0932152488
 31
0.0
  0
LINE
  5
2B0
330
1F
100
AcDbEntity
  8
0
  6
Continuous
 62
     7
100
AcDbLine
 10
636.7732434158
 20
290.9488779449
 30
0.0
 11
637.0232434568
 21
291.0932152488
 31
0.0
  0
LINE
  5
2B1
330
1F
100
AcDbEntity
  8
0
  6
Continuous
 62
     7
100
AcDbLine
 10
579.5849760619
 20
307.0517633066
 30
0.0
 11
579.5849760619
 21
307.5517633886
 31
0.0
  0
LINE
  5
2B2
330
1F
100
AcDbEntity
  8
0
  6
Continuous
 62
     7
100
AcDbLine
 10
579.4540693608
 20
307.0517633066
 30
0.0
 11
579.4540693608
 21
307.5517633886
 31
0.0
  0
LINE
  5
2B3
330
1F
100
AcDbEntity
  8
0
  6
Continuous
 62
     7
100
AcDbLine
 10
642.0232435779
 20
306.0517636084
 30
0.0
 11
637.0232434568
 21
306.0517636084
 31
0.0
  0
LINE
  5
2B4
330
1F
100
AcDbEntity
  8
0
  6
Continuous
 62
     7
100
AcDbLine
 10
642.0232435779
 20
297.0517635302
 30
0.0
 11
637.0232434568
 21
297.0517635302
 31
0.0
  0
LINE
  5
2B5
330
1F
100
AcDbEntity
  8
0
  6
Continuous
 62
     7
100
AcDbLine
 10
637.0232434568
 20
296.5517634482
 30
0.0
 11
637.0232434568
 21
297.0517635302
 31
0.0
  0
LINE
  5
2B6
330
1F
100
AcDbEntity
  8
0
  6
Continuous
 62
     7
100
AcDbLine
 10
633.5232438145
 20
296.5517634482
 30
0.0
 11
637.0232434568
 21
296.5517634482
 31
0.0
  0
LINE
  5
2B7
330
1F
100
AcDbEntity
  8
0
  6
Continuous
 62
     7
100
AcDbLine
 10
591.4545295385
 20
307.0517633066
 30
0.0
 11
591.4545295385
 21
307.5517633886
 31
0.0
  0
LINE
  5
2B8
330
1F
100
AcDbEntity
  8
0
  6
Continuous
 62
     7
100
AcDbLine
 10
628.5232439262
 20
307.5517633886
 30
0.0
 11
637.0232434568
 21
307.5517633886
 31
0.0
  0
LINE
  5
2B9
330
1F
100
AcDbEntity
  8
0
  6
Continuous
 62
     7
100
AcDbLine
 10
642.0232435779
 20
306.0517636084
 30
0.0
 11
642.0232435779
 21
297.0517635302
 31
0.0
  0
LINE
  5
2BA
330
1F
100
AcDbEntity
  8
0
  6
Continuous
 62
     7
100
AcDbLine
 10
637.0232434568
 20
306.0517636084
 30
0.0
 11
637.0232434568
 21
307.5517633886
 31
0.0
  0
LINE
  5
2BB
330
1F
100
AcDbEntity
  8
0
  6
Continuous
 62
     7
100
AcDbLine
 10
633.5232438145
 20
296.5517634482
 30
0.0
 11
633.5232438145
 21
296.0517633662
 31
0.0
  0
LINE
  5
2BC
330
1F
100
AcDbEntity
  8
0
  6
Continuous
 62
     7
100
AcDbLine
 10
637.0232434568
 20
295.5517632843
 30
0.0
 11
637.0232434568
 21
296.5517634482
 31
0.0
  0
LINE
  5
2BD
330
1F
100
AcDbEntity
  8
0
  6
Continuous
 62
     7
100
AcDbLine
 10
643.5232435915
 20
292.2517637678
 30
0.0
 11
644.0232436147
 21
292.2517637678
 31
0.0
  0
LINE
  5
2BE
330
1F
100
AcDbEntity
  8
0
  6
Continuous
 62
     7
100
AcDbLine
 10
643.5232435903
 20
311.2517631569
 30
0.0
 11
644.0232436147
 21
311.2517631569
 31
0.0
  0
LINE
  5
2BF
330
1F
100
AcDbEntity
  8
0
  6
Continuous
 62
     7
100
AcDbLine
 10
644.0232436147
 20
292.2517637678
 30
0.0
 11
644.0232436147
 21
311.2517631569
 31
0.0
  0
ARC
  5
2C0
330
1F
100
AcDbEntity
  8
0
  6
Continuous
 62
     7
100
AcDbCircle
 10
642.0232435921
 20
283.7517634623
 30
0.0
 40
2.000000000000037
100
AcDbArc
 50
314.6994772929
 51
0.0000000036
  0
ARC
  5
2C1
330
1F
100
AcDbEntity
  8
0
  6
Continuous
 62
     7
100
AcDbCircle
 10
642.0232435898
 20
319.7517634623
 30
0.0
 40
2.000000000000079
100
AcDbArc
 50
0.0000000036
 51
45.3005227143
  0
LINE
  5
2C2
330
1F
100
AcDbEntity
  8
0
  6
Continuous
 62
     7
100
AcDbLine
 10
644.0232436147
 20
311.2517631569
 30
0.0
 11
644.0232436147
 21
319.7517626875
 31
0.0
  0
LINE
  5
2C3
330
1F
100
AcDbEntity
  8
0
  6
Continuous
 62
     7
100
AcDbLine
 10
644.0232436147
 20
283.7517642372
 30
0.0
 11
644.0232436147
 21
292.2517637678
 31
0.0
  0
LINE
  5
2C4
330
1F
100
AcDbEntity
  8
0
  6
Continuous
 62
     8
100
AcDbLine
 10
636.7732434158
 20
287.55176337
 30
0.0
 11
532.2732453791
 21
287.55176337
 31
0.0
  0
LINE
  5
2C5
330
1F
100
AcDbEntity
  8
0
  6
Continuous
 62
     8
100
AcDbLine
 10
531.7732443658
 20
287.55176337
 30
0.0
 11
530.7732423392
 21
287.55176337
 31
0.0
  0
LINE
  5
2C6
330
1F
100
AcDbEntity
  8
0
  6
Continuous
 62
     8
100
AcDbLine
 10
637.2732434978
 20
287.55176337
 30
0.0
 11
638.2732436617
 21
287.55176337
 31
0.0
  0
LINE
  5
2C7
330
1F
100
AcDbEntity
  8
0
  6
Continuous
 62
     8
100
AcDbLine
 10
623.0232430247
 20
307.5517633886
 30
0.0
 11
623.0232430247
 21
308.0517634706
 31
0.0
  0
LINE
  5
2C8
330
1F
100
AcDbEntity
  8
0
  6
Continuous
 62
     8
100
AcDbLine
 10
539.0232404319
 20
308.0517634706
 30
0.0
 11
539.0232404319
 21
307.5517633886
 31
0.0
  0
LINE
  5
2C9
330
1F
100
AcDbEntity
  8
0
  6
Continuous
 62
     8
100
AcDbLine
 10
636.7732434158
 20
316.5517634668
 30
0.0
 11
532.2732453791
 21
316.5517634668
 31
0.0
  0
LINE
  5
2CA
330
1F
100
AcDbEntity
  8
0
  6
Continuous
 62
     8
100
AcDbLine
 10
531.7732443658
 20
316.5517634668
 30
0.0
 11
530.7732423392
 21
316.5517634668
 31
0.0
  0
LINE
  5
2CB
330
1F
100
AcDbEntity
  8
0
  6
Continuous
 62
     8
100
AcDbLine
 10
637.2732434978
 20
316.5517634668
 30
0.0
 11
638.2732436617
 21
316.5517634668
 31
0.0
  0
LINE
  5
2CC
330
1F
100
AcDbEntity
  8
0
  6
Continuous
 62
     8
100
AcDbLine
 10
539.0232404319
 20
297.5517636121
 30
0.0
 11
539.0232404319
 21
296.0517633662
 31
0.0
  0
LINE
  5
2CD
330
1F
100
AcDbEntity
  8
0
  6
Continuous
 62
     8
100
AcDbLine
 10
623.0232430247
 20
296.0517633662
 30
0.0
 11
623.0232430247
 21
297.5517636121
 31
0.0
  0
LINE
  5
2CE
330
1F
100
AcDbEntity
  8
0
  6
Continuous
 62
     8
100
AcDbLine
 10
560.5004256216
 20
297.5517636121
 30
0.0
 11
560.5004256216
 21
307.0517633066
 31
0.0
  0
LINE
  5
2CF
330
1F
100
AcDbEntity
  8
0
  6
Continuous
 62
     8
100
AcDbLine
 10
564.0132402626
 20
307.0517633066
 30
0.0
 11
564.0132402626
 21
297.5517636121
 31
0.0
  0
LINE
  5
2D0
330
1F
100
AcDbEntity
  8
0
  6
Continuous
 62
     8
100
AcDbLine
 10
559.329492375
 20
307.0517633066
 30
0.0
 11
559.329492375
 21
307.5517633886
 31
0.0
  0
LINE
  5
2D1
330
1F
100
AcDbEntity
  8
0
  6
Continuous
 62
     8
100
AcDbLine
 10
564.0132402626
 20
307.5517633886
 30
0.0
 11
564.0132402626
 21
307.0517633066
 31
0.0
  0
SPLINE
  5
2D2
330
1F
100
AcDbEntity
  8
0
  6
Continuous
 62
     7
100
AcDbSpline
210
0.0
220
0.0
230
1.0
 70
     8
 71
     3
 72
     9
 73
     5
 74
     0
 42
0.00000001
 43
0.00000001
 40
0.0
 40
0.0
 40
0.0
 40
0.0
 40
0.4999997645198253
 40
1.0
 40
1.0
 40
1.0
 40
1.0
 10
602.0007406917634
 20
645.6527444165869
 30
0.0
 10
601.3415755639395
 20
646.6414924963736
 30
0.0
 10
600.0232446874099
 20
648.61898958727
 30
0.0
 10
598.7049119482361
 20
646.6414931172554
 30
0.0
 10
598.0457452682081
 20
645.6527444165869
 30
0.0
  0
SPLINE
  5
2D3
330
1F
100
AcDbEntity
  8
0
  6
Continuous
 62
     7
100
AcDbSpline
210
0.0
220
0.0
230
1.0
 70
     8
 71
     3
 72
     9
 73
     5
 74
     0
 42
0.00000001
 43
0.00000001
 40
0.0
 40
0.0
 40
0.0
 40
0.0
 40
0.5000002354801747
 40
1.0
 40
1.0
 40
1.0
 40
1.0
 10
598.0457452682081
 20
669.6067372900171
 30
0.0
 10
598.7049119482361
 20
668.6179885893486
 30
0.0
 10
600.0232446874099
 20
666.6404921193338
 30
0.0
 10
601.3415755639394
 20
668.6179892102302
 30
0.0
 10
602.0007406917634
 20
669.6067372900171
 30
0.0
  0
LINE
  5
2D4
330
1F
100
AcDbEntity
  8
0
  6
Continuous
 62
     7
100
AcDbLine
 10
548.523244783
 20
651.8297409271
 30
0.0
 11
548.523244783
 21
650.3297406812
 31
0.0
  0
LINE
  5
2D5
330
1F
100
AcDbEntity
  8
0
  6
Continuous
 62
     7
100
AcDbLine
 10
550.0232403723
 20
651.8297409271
 30
0.0
 11
550.0232403723
 21
650.3297406812
 31
0.0
  0
LINE
  5
2D6
330
1F
100
AcDbEntity
  8
0
  6
Continuous
 62
     7
100
AcDbLine
 10
556.023245081
 20
650.3297406812
 30
0.0
 11
556.023245081
 21
651.8297409271
 31
0.0
  0
LINE
  5
2D7
330
1F
100
AcDbEntity
  8
0
  6
Continuous
 62
     7
100
AcDbLine
 10
626.0232435164
 20
664.1292408672
 30
0.0
 11
627.5227436421
 21
662.6297407415
 31
0.0
  0
LINE
  5
2D8
330
1F
100
AcDbEntity
  8
0
  6
Continuous
 62
     7
100
AcDbLine
 10
629.523743279
 20
662.6297407415
 30
0.0
 11
631.0232434047
 21
664.1292408672
 31
0.0
  0
LINE
  5
2D9
330
1F
100
AcDbEntity
  8
0
  6
Continuous
 62
     7
100
AcDbLine
 10
626.0232435164
 20
664.1587409754
 30
0.0
 11
626.0232435164
 21
664.1292408672
 31
0.0
  0
LINE
  5
2DA
330
1F
100
AcDbEntity
  8
0
  6
Continuous
 62
     7
100
AcDbLine
 10
631.0232434047
 20
664.1292408672
 30
0.0
 11
631.0232434047
 21
664.288741034
 31
0.0
  0
LINE
  5
2DB
330
1F
100
AcDbEntity
  8
0
  6
Continuous
 62
     7
100
AcDbLine
 10
631.0232434047
 20
650.9707406726
 30
0.0
 11
631.0232434047
 21
651.1302408394
 31
0.0
  0
LINE
  5
2DC
330
1F
100
AcDbEntity
  8
0
  6
Continuous
 62
     7
100
AcDbLine
 10
626.0232435164
 20
651.1302408394
 30
0.0
 11
626.0232435164
 21
651.1007407312
 31
0.0
  0
LINE
  5
2DD
330
1F
100
AcDbEntity
  8
0
  6
Continuous
 62
     7
100
AcDbLine
 10
631.0232434047
 20
651.1302408394
 30
0.0
 11
629.523743279
 21
652.6297409651
 31
0.0
  0
LINE
  5
2DE
330
1F
100
AcDbEntity
  8
0
  6
Continuous
 62
     7
100
AcDbLine
 10
627.5227436421
 20
652.6297409651
 30
0.0
 11
626.0232435164
 21
651.1302408394
 31
0.0
  0
ARC
  5
2DF
330
1F
100
AcDbEntity
  8
0
  6
Continuous
 62
     7
100
AcDbCircle
 10
561.5232435915
 20
667.1297408585
 30
0.0
 40
1.500000000000114
100
AcDbArc
 50
359.9999999963999
 51
59.99999999640001
  0
LINE
  5
2E0
330
1F
100
AcDbEntity
  8
0
  6
Continuous
 62
     7
100
AcDbLine
 10
561.2732445446
 20
668.6087608901
 30
0.0
 11
561.1857672778
 21
668.5912846219
 31
0.0
  0
ARC
  5
2E1
330
1F
100
AcDbEntity
  8
0
  6
Continuous
 62
     7
100
AcDbCircle
 10
561.5232435915
 20
667.1297408585
 30
0.0
 40
1.500000000000114
100
AcDbArc
 50
319.6565433091
 51
359.9999999963999
  0
ARC
  5
2E2
330
1F
100
AcDbEntity
  8
0
  6
Continuous
 62
     7
100
AcDbCircle
 10
531.5232435903
 20
647.5297408604
 30
0.0
 40
1.500000000000114
100
AcDbArc
 50
179.9999999964
 51
239.9999999964
  0
LINE
  5
2E3
330
1F
100
AcDbEntity
  8
0
  6
Continuous
 62
     7
100
AcDbLine
 10
531.7732443658
 20
646.0507209045
 30
0.0
 11
531.8607216326
 21
646.0681971726
 31
0.0
  0
ARC
  5
2E4
330
1F
100
AcDbEntity
  8
0
  6
Continuous
 62
     7
100
AcDbCircle
 10
531.5232435903
 20
647.5297408604
 30
0.0
 40
1.500000000000114
100
AcDbArc
 50
139.6565433091
 51
179.9999999964
  0
ARC
  5
2E5
330
1F
100
AcDbEntity
  8
0
  6
Continuous
 62
     7
100
AcDbCircle
 10
561.5232435903
 20
647.5297408585
 30
0.0
 40
1.5
100
AcDbArc
 50
359.9999999963999
 51
40.5331813931
  0
LINE
  5
2E6
330
1F
100
AcDbEntity
  8
0
  6
Continuous
 62
     7
100
AcDbLine
 10
561.1863931266
 20
646.0680518863
 30
0.0
 11
561.2732445446
 21
646.0507209045
 31
0.0
  0
ARC
  5
2E7
330
1F
100
AcDbEntity
  8
0
  6
Continuous
 62
     7
100
AcDbCircle
 10
561.5232435903
 20
647.5297408585
 30
0.0
 40
1.500000000000055
100
AcDbArc
 50
299.9999999964
 51
359.9999999963999
  0
ARC
  5
2E8
330
1F
100
AcDbEntity
  8
0
  6
Continuous
 62
     7
100
AcDbCircle
 10
531.5232435915
 20
667.1297408604
 30
0.0
 40
1.500000000000076
100
AcDbArc
 50
179.9999999964
 51
220.5331813931
  0
LINE
  5
2E9
330
1F
100
AcDbEntity
  8
0
  6
Continuous
 62
     7
100
AcDbLine
 10
531.8600883332
 20
668.5914289769
 30
0.0
 11
531.7732443658
 21
668.6087608901
 31
0.0
  0
ARC
  5
2EA
330
1F
100
AcDbEntity
  8
0
  6
Continuous
 62
     7
100
AcDbCircle
 10
531.5232435915
 20
667.1297408604
 30
0.0
 40
1.500000000000055
100
AcDbArc
 50
119.9999999964
 51
179.9999999964
  0
LINE
  5
2EB
330
1F
100
AcDbEntity
  8
0
  6
Continuous
 62
     7
100
AcDbLine
 10
540.0232424584
 20
661.8297407035
 30
0.0
 11
540.0232424584
 21
652.329741009
 31
0.0
  0
LINE
  5
2EC
330
1F
100
AcDbEntity
  8
0
  6
Continuous
 62
     7
100
AcDbLine
 10
541.5232454983
 20
652.329741009
 30
0.0
 11
541.5232454983
 21
651.8297409271
 31
0.0
  0
LINE
  5
2ED
330
1F
100
AcDbEntity
  8
0
  6
Continuous
 62
     7
100
AcDbLine
 10
600.0864853707
 20
645.1302407873
 30
0.0
 11
599.9600005892
 21
645.1302407873
 31
0.0
  0
LINE
  5
2EE
330
1F
100
AcDbEntity
  8
0
  6
Continuous
 62
     7
100
AcDbLine
 10
599.9600005892
 20
670.1292409193
 30
0.0
 11
600.0864853707
 21
670.1292409193
 31
0.0
  0
ARC
  5
2EF
330
1F
100
AcDbEntity
  8
0
  6
Continuous
 62
     7
100
AcDbCircle
 10
585.5232435909
 20
657.629740857
 30
0.0
 40
4.000000000037991
100
AcDbArc
 50
249.5271506124
 51
325.1656390497
  0
LINE
  5
2F0
330
1F
100
AcDbEntity
  8
0
  6
Continuous
 62
     7
100
AcDbLine
 10
588.8064702598
 20
655.3449171693
 30
0.0
 11
589.6978316454
 21
654.8778635547
 31
0.0
  0
ARC
  5
2F1
330
1F
100
AcDbEntity
  8
0
  6
Continuous
 62
     7
100
AcDbCircle
 10
585.5232435909
 20
657.629740857
 30
0.0
 40
5.000000000000083
100
AcDbArc
 50
248.0855653083
 51
326.6072243538001
  0
LINE
  5
2F2
330
1F
100
AcDbEntity
  8
0
  6
Continuous
 62
     7
100
AcDbLine
 10
583.6571355907
 20
652.9910293971
 30
0.0
 11
584.1241901365
 21
653.8823886872
 31
0.0
  0
ARC
  5
2F3
330
1F
100
AcDbEntity
  8
0
  6
Continuous
 62
     7
100
AcDbCircle
 10
585.5232435909
 20
657.629740857
 30
0.0
 40
2.000000000000006
100
AcDbArc
 50
166.823907017
 51
227.8688826451
  0
ARC
  5
2F4
330
1F
100
AcDbEntity
  8
0
  6
Continuous
 62
     7
100
AcDbCircle
 10
585.5232435909
 20
657.629740857
 30
0.0
 40
4.00000000003803
100
AcDbArc
 50
159.5271506124
 51
235.1656390497
  0
LINE
  5
2F5
330
1F
100
AcDbEntity
  8
0
  6
Continuous
 62
     7
100
AcDbLine
 10
583.5758944598
 20
658.085630093
 30
0.0
 11
581.775890067
 21
659.0287948125
 31
0.0
  0
LINE
  5
2F6
330
1F
100
AcDbEntity
  8
0
  6
Continuous
 62
     7
100
AcDbLine
 10
583.2384204117
 20
654.3465137579
 30
0.0
 11
584.1815856842
 21
656.1465175687
 31
0.0
  0
ARC
  5
2F7
330
1F
100
AcDbEntity
  8
0
  6
Continuous
 62
     7
100
AcDbCircle
 10
585.5232435909
 20
657.629740857
 30
0.0
 40
1.999999999999984
100
AcDbArc
 50
256.823907017
 51
317.8688826451
  0
LINE
  5
2F8
330
1F
100
AcDbEntity
  8
0
  6
Continuous
 62
     7
100
AcDbLine
 10
588.8064702598
 20
655.3449171693
 30
0.0
 11
587.0064658669
 21
656.2880818597
 31
0.0
  0
LINE
  5
2F9
330
1F
100
AcDbEntity
  8
0
  6
Continuous
 62
     7
100
AcDbLine
 10
585.067355409
 20
655.6823926144
 30
0.0
 11
584.1241901365
 21
653.8823886872
 31
0.0
  0
ARC
  5
2FA
330
1F
100
AcDbEntity
  8
0
  6
Continuous
 62
     7
100
AcDbCircle
 10
585.5232435909
 20
657.629740857
 30
0.0
 40
4.999999999999989
100
AcDbArc
 50
158.0855653083
 51
236.6072243538
  0
LINE
  5
2FB
330
1F
100
AcDbEntity
  8
0
  6
Continuous
 62
     7
100
AcDbLine
 10
580.8845286814
 20
659.495848427
 30
0.0
 11
581.775890067
 21
659.0287948125
 31
0.0
  0
LINE
  5
2FC
330
1F
100
AcDbEntity
  8
0
  6
Continuous
 62
     7
100
AcDbLine
 10
583.2384204117
 20
654.3465137579
 30
0.0
 11
582.7713658658
 21
653.4551544678
 31
0.0
  0
ARC
  5
2FD
330
1F
100
AcDbEntity
  8
0
  6
Continuous
 62
     7
100
AcDbCircle
 10
585.5232435909
 20
657.629740857
 30
0.0
 40
1.999999999999984
100
AcDbArc
 50
346.823907017
 51
47.8688826451
  0
LINE
  5
2FE
330
1F
100
AcDbEntity
  8
0
  6
Continuous
 62
     7
100
AcDbLine
 10
587.8080663827
 20
660.9129679487
 30
0.0
 11
586.8649011103
 21
659.1129641379
 31
0.0
  0
ARC
  5
2FF
330
1F
100
AcDbEntity
  8
0
  6
Continuous
 62
     7
100
AcDbCircle
 10
585.5232435909
 20
657.629740857
 30
0.0
 40
4.000000000037938
100
AcDbArc
 50
339.5271506124
 51
55.1656390497
  0
LINE
  5
300
330
1F
100
AcDbEntity
  8
0
  6
Continuous
 62
     7
100
AcDbLine
 10
587.4705923346
 20
657.1738516136
 30
0.0
 11
589.2705967275
 21
656.2306868941
 31
0.0
  0
ARC
  5
301
330
1F
100
AcDbEntity
  8
0
  6
Continuous
 62
     7
100
AcDbCircle
 10
585.5232435909
 20
657.629740857
 30
0.0
 40
2.000000000000068
100
AcDbArc
 50
76.823907017
 51
137.8688826451
  0
LINE
  5
302
330
1F
100
AcDbEntity
  8
0
  6
Continuous
 62
     7
100
AcDbLine
 10
582.2400165347
 20
659.9145645373
 30
0.0
 11
584.0400209275
 21
658.9713998469
 31
0.0
  0
ARC
  5
303
330
1F
100
AcDbEntity
  8
0
  6
Continuous
 62
     7
100
AcDbCircle
 10
585.5232435909
 20
657.629740857
 30
0.0
 40
4.00000000003803
100
AcDbArc
 50
69.5271506124
 51
145.1656390497
  0
LINE
  5
304
330
1F
100
AcDbEntity
  8
0
  6
Continuous
 62
     7
100
AcDbLine
 10
585.9791313854
 20
659.5770890922
 30
0.0
 11
586.9222966579
 21
661.3770930194
 31
0.0
  0
ARC
  5
305
330
1F
100
AcDbEntity
  8
0
  6
Continuous
 62
     7
100
AcDbCircle
 10
585.5232435909
 20
657.629740857
 30
0.0
 40
5.000000000000052
100
AcDbArc
 50
68.0855653083
 51
146.6072243538
  0
LINE
  5
306
330
1F
100
AcDbEntity
  8
0
  6
Continuous
 62
     7
100
AcDbLine
 10
587.3893512038
 20
662.2684523095
 30
0.0
 11
586.9222966579
 21
661.3770930194
 31
0.0
  0
LINE
  5
307
330
1F
100
AcDbEntity
  8
0
  6
Continuous
 62
     7
100
AcDbLine
 10
582.2400165347
 20
659.9145645373
 30
0.0
 11
581.3486588744
 21
660.3816181519
 31
0.0
  0
ARC
  5
308
330
1F
100
AcDbEntity
  8
0
  6
Continuous
 62
     7
100
AcDbCircle
 10
585.5232435909
 20
657.629740857
 30
0.0
 40
5.000000000000083
100
AcDbArc
 50
338.0855653083
 51
56.6072243538
  0
LINE
  5
309
330
1F
100
AcDbEntity
  8
0
  6
Continuous
 62
     7
100
AcDbLine
 10
587.8080663827
 20
660.9129679487
 30
0.0
 11
588.2751209286
 21
661.8043272388
 31
0.0
  0
LINE
  5
30A
330
1F
100
AcDbEntity
  8
0
  6
Continuous
 62
     7
100
AcDbLine
 10
590.1619543878
 20
655.7636332796
 30
0.0
 11
589.2705967275
 21
656.2306868941
 31
0.0
  0
ARC
  5
30B
330
1F
100
AcDbEntity
  8
0
  6
Continuous
 62
     7
100
AcDbCircle
 10
585.5232435909
 20
657.629740857
 30
0.0
 40
4.999999999999989
100
AcDbArc
 50
236.6072243538
 51
248.0855653083
  0
ARC
  5
30C
330
1F
100
AcDbEntity
  8
0
  6
Continuous
 62
     7
100
AcDbCircle
 10
585.5232435909
 20
657.629740857
 30
0.0
 40
5.000000000000052
100
AcDbArc
 50
146.6072243538
 51
158.0855653083
  0
ARC
  5
30D
330
1F
100
AcDbEntity
  8
0
  6
Continuous
 62
     7
100
AcDbCircle
 10
585.5232435909
 20
657.629740857
 30
0.0
 40
5.000000000000083
100
AcDbArc
 50
326.6072243538001
 51
338.0855653083
  0
ARC
  5
30E
330
1F
100
AcDbEntity
  8
0
  6
Continuous
 62
     7
100
AcDbCircle
 10
585.5232435909
 20
657.629740857
 30
0.0
 40
5.000000000000083
100
AcDbArc
 50
56.6072243538
 51
68.0855653083
  0
LWPOLYLINE
  5
30F
330
1F
100
AcDbEntity
  8
0
  6
Continuous
 62
     7
100
AcDbPolyline
 90
        3
 70
   128
 43
0.0
 10
582.446703091
 20
658.6773042432
 10
582.6672253755
 20
659.1807599975
 10
582.9108258334
 20
659.563073968
  0
LWPOLYLINE
  5
310
330
1F
100
AcDbEntity
  8
0
  6
Continuous
 62
     7
100
AcDbPolyline
 90
        3
 70
   128
 43
0.0
 10
586.5708080677
 20
660.7062830222
 10
587.2377020863
 20
660.3907432505
 10
587.4565777925
 20
660.2421579514
  0
ARC
  5
311
330
1F
100
AcDbEntity
  8
0
  6
Continuous
 62
     7
100
AcDbCircle
 10
585.5232435909
 20
657.629740857
 30
0.0
 40
3.249999999980017
100
AcDbArc
 50
323.4965117326
 51
341.1962779295
  0
LWPOLYLINE
  5
312
330
1F
100
AcDbEntity
  8
0
  6
Continuous
 62
     7
100
AcDbPolyline
 90
        3
 70
   128
 43
0.0
 10
584.4756787268
 20
654.5531989173
 10
584.1409129647
 20
654.6883708429
 10
583.5899090019
 20
655.0173237552
  0
LWPOLYLINE
  5
313
330
1F
100
AcDbEntity
  8
0
  6
Continuous
 62
     7
100
AcDbPolyline
 90
        3
 70
   128
 43
0.0
 10
589.2447804657
 20
656.1634008172
 10
589.1629432884
 20
655.9706453331
 10
588.8064702598
 20
655.3449171693
  0
LWPOLYLINE
  5
314
330
1F
100
AcDbEntity
  8
0
  6
Continuous
 62
     7
100
AcDbPolyline
 90
        3
 70
   128
 43
0.0
 10
584.1241901365
 20
653.8823886872
 10
583.4927832333
 20
654.1834042505
 10
583.2384204117
 20
654.3465137579
  0
LWPOLYLINE
  5
315
330
1F
100
AcDbEntity
  8
0
  6
Continuous
 62
     7
100
AcDbPolyline
 90
        3
 70
   128
 43
0.0
 10
581.7996723202
 20
659.0909149595
 10
581.8835472313
 20
659.2888363735
 10
582.2755185512
 20
659.9647511826
  0
LWPOLYLINE
  5
316
330
1F
100
AcDbEntity
  8
0
  6
Continuous
 62
     7
100
AcDbPolyline
 90
        3
 70
   128
 43
0.0
 10
586.8629639593
 20
661.3987125088
 10
587.5537035612
 20
661.0760774561
 10
587.7538373319
 20
660.9500501868
  0
LINE
  5
317
330
1F
100
AcDbEntity
  8
0
  6
Continuous
 62
     7
100
AcDbLine
 10
628.5232439262
 20
664.1292408672
 30
0.0
 11
631.0232434047
 21
664.1292408672
 31
0.0
  0
LINE
  5
318
330
1F
100
AcDbEntity
  8
0
  6
Continuous
 62
     7
100
AcDbLine
 10
626.0232435164
 20
664.1292408672
 30
0.0
 11
628.5232439262
 21
664.1292408672
 31
0.0
  0
LINE
  5
319
330
1F
100
AcDbEntity
  8
0
  6
Continuous
 62
     7
100
AcDbLine
 10
631.0232434047
 20
651.1302408394
 30
0.0
 11
626.0232435164
 21
651.1302408394
 31
0.0
  0
LINE
  5
31A
330
1F
100
AcDbEntity
  8
0
  6
Continuous
 62
     7
100
AcDbLine
 10
633.4232439843
 20
662.6297407415
 30
0.0
 11
611.9232451168
 21
662.6297407415
 31
0.0
  0
LINE
  5
31B
330
1F
100
AcDbEntity
  8
0
  6
Continuous
 62
     7
100
AcDbLine
 10
611.9232451168
 20
652.6297409651
 30
0.0
 11
633.4232439843
 21
652.6297409651
 31
0.0
  0
LINE
  5
31C
330
1F
100
AcDbEntity
  8
0
  6
Continuous
 62
     7
100
AcDbLine
 10
611.9232451168
 20
662.6297407415
 30
0.0
 11
611.9232451168
 21
652.6297409651
 31
0.0
  0
LINE
  5
31D
330
1F
100
AcDbEntity
  8
0
  6
Continuous
 62
     7
100
AcDbLine
 10
633.4232439843
 20
652.6297409651
 30
0.0
 11
633.4232439843
 21
662.6297407415
 31
0.0
  0
ARC
  5
31E
330
1F
100
AcDbEntity
  8
0
  6
Continuous
 62
     7
100
AcDbCircle
 10
585.5232435909
 20
657.629740857
 30
0.0
 40
16.99999999999996
100
AcDbArc
 50
16.769255901
 51
43.95342641969999
  0
ARC
  5
31F
330
1F
100
AcDbEntity
  8
0
  6
Continuous
 62
     7
100
AcDbCircle
 10
585.5232435909
 20
657.629740857
 30
0.0
 40
16.99999999999998
100
AcDbArc
 50
316.0465735731
 51
343.2160772517
  0
ARC
  5
320
330
1F
100
AcDbEntity
  8
0
  6
Continuous
 62
     7
100
AcDbCircle
 10
642.5232435897
 20
638.6297408534
 30
0.0
 40
1.0
100
AcDbArc
 50
269.9999999964
 51
335.063612092
  0
ARC
  5
321
330
1F
100
AcDbEntity
  8
0
  6
Continuous
 62
     7
100
AcDbCircle
 10
642.5232435921
 20
676.6297408534
 30
0.0
 40
1.000000000000048
100
AcDbArc
 50
24.9363879008
 51
89.9999999964
  0
ARC
  5
322
330
1F
100
AcDbEntity
  8
0
  6
Continuous
 62
     7
100
AcDbCircle
 10
585.5232435909
 20
657.629740857
 30
0.0
 40
16.20000000000003
100
AcDbArc
 50
315.8600823612
 51
343.3816656088999
  0
ARC
  5
323
330
1F
100
AcDbEntity
  8
0
  6
Continuous
 62
     7
100
AcDbCircle
 10
585.5232435909
 20
657.629740857
 30
0.0
 40
16.20000000000003
100
AcDbArc
 50
16.6183343839
 51
44.1399176316
  0
ARC
  5
324
330
1F
100
AcDbEntity
  8
0
  6
Continuous
 62
     7
100
AcDbCircle
 10
585.5232435909
 20
657.629740857
 30
0.0
 40
16.50000000000005
100
AcDbArc
 50
16.62476952
 51
44.1334824955
  0
ARC
  5
325
330
1F
100
AcDbEntity
  8
0
  6
Continuous
 62
     7
100
AcDbCircle
 10
585.5232435909
 20
657.629740857
 30
0.0
 40
16.50000000000002
100
AcDbArc
 50
315.8665174973
 51
343.3752304727
  0
ARC
  5
326
330
1F
100
AcDbEntity
  8
0
  6
Continuous
 62
     7
100
AcDbCircle
 10
597.7749129343
 20
653.2827190833
 30
0.0
 40
2.050000000000133
100
AcDbArc
 50
241.2864061223
 51
355.5738647094001
  0
LINE
  5
327
330
1F
100
AcDbEntity
  8
0
  6
Continuous
 62
     7
100
AcDbLine
 10
531.7732443658
 20
663.3297409494
 30
0.0
 11
531.7732443658
 21
671.8297409457
 31
0.0
  0
LINE
  5
328
330
1F
100
AcDbEntity
  8
0
  6
Continuous
 62
     7
100
AcDbLine
 10
530.7732423392
 20
663.3297409494
 30
0.0
 11
531.7732443658
 21
663.3297409494
 31
0.0
  0
LINE
  5
329
330
1F
100
AcDbEntity
  8
0
  6
Continuous
 62
     7
100
AcDbLine
 10
530.7732423392
 20
663.3297409494
 30
0.0
 11
530.7732423392
 21
671.8297409457
 31
0.0
  0
LINE
  5
32A
330
1F
100
AcDbEntity
  8
0
  6
Continuous
 62
     7
100
AcDbLine
 10
562.2732465712
 20
671.8297409457
 30
0.0
 11
562.2732465712
 21
663.3297409494
 31
0.0
  0
LINE
  5
32B
330
1F
100
AcDbEntity
  8
0
  6
Continuous
 62
     7
100
AcDbLine
 10
562.2732465712
 20
663.3297409494
 30
0.0
 11
561.2732445446
 21
663.3297409494
 31
0.0
  0
LINE
  5
32C
330
1F
100
AcDbEntity
  8
0
  6
Continuous
 62
     7
100
AcDbLine
 10
561.2732445446
 20
671.8297409457
 30
0.0
 11
561.2732445446
 21
663.3297409494
 31
0.0
  0
ARC
  5
32D
330
1F
100
AcDbEntity
  8
0
  6
Continuous
 62
     7
100
AcDbCircle
 10
532.2732435918
 20
671.8297408603
 30
0.0
 40
1.5
100
AcDbArc
 50
89.9999999964
 51
179.9999999964
  0
ARC
  5
32E
330
1F
100
AcDbEntity
  8
0
  6
Continuous
 62
     7
100
AcDbCircle
 10
532.2732435918
 20
671.8297408603
 30
0.0
 40
0.5
100
AcDbArc
 50
89.9999999964
 51
179.9999999964
  0
ARC
  5
32F
330
1F
100
AcDbEntity
  8
0
  6
Continuous
 62
     7
100
AcDbCircle
 10
560.7732435918
 20
671.8297408585
 30
0.0
 40
1.499999999999886
100
AcDbArc
 50
359.9999999963999
 51
89.9999999964
  0
ARC
  5
330
330
1F
100
AcDbEntity
  8
0
  6
Continuous
 62
     7
100
AcDbCircle
 10
560.7732435918
 20
671.8297408585
 30
0.0
 40
0.4999999999999413
100
AcDbArc
 50
359.9999999963999
 51
59.99999999640001
  0
LINE
  5
331
330
1F
100
AcDbEntity
  8
0
  6
Continuous
 62
     7
100
AcDbLine
 10
560.7732435313
 20
673.3297402602
 30
0.0
 11
532.2732453791
 21
673.3297402602
 31
0.0
  0
LINE
  5
332
330
1F
100
AcDbEntity
  8
0
  6
Continuous
 62
     7
100
AcDbLine
 10
539.0232404319
 20
672.3297410276
 30
0.0
 11
532.2732453791
 21
672.3297410276
 31
0.0
  0
LINE
  5
333
330
1F
100
AcDbEntity
  8
0
  6
Continuous
 62
     7
100
AcDbLine
 10
573.1333320585
 20
673.3297402602
 30
0.0
 11
560.7732435313
 21
673.3297402602
 31
0.0
  0
LINE
  5
334
330
1F
100
AcDbEntity
  8
0
  6
Continuous
 62
     7
100
AcDbLine
 10
532.2732453791
 20
672.3297410276
 30
0.0
 11
532.2732453791
 21
671.8297409457
 31
0.0
  0
LINE
  5
335
330
1F
100
AcDbEntity
  8
0
  6
Continuous
 62
     7
100
AcDbLine
 10
533.523244187
 20
663.3297409494
 30
0.0
 11
532.2732453791
 21
663.3297409494
 31
0.0
  0
LINE
  5
336
330
1F
100
AcDbEntity
  8
0
  6
Continuous
 62
     7
100
AcDbLine
 10
532.2732453791
 20
663.3297409494
 30
0.0
 11
532.2732453791
 21
663.8297410314
 31
0.0
  0
LINE
  5
337
330
1F
100
AcDbEntity
  8
0
  6
Continuous
 62
     7
100
AcDbLine
 10
532.2732453791
 20
670.3783473563
 30
0.0
 11
532.2732453791
 21
671.8297409457
 31
0.0
  0
LINE
  5
338
330
1F
100
AcDbEntity
  8
0
  6
Continuous
 62
     7
100
AcDbLine
 10
561.0232403127
 20
667.1297405478
 30
0.0
 11
561.2732445446
 21
667.1297405478
 31
0.0
  0
LINE
  5
339
330
1F
100
AcDbEntity
  8
0
  6
Continuous
 62
     7
100
AcDbLine
 10
561.2732445446
 20
668.2126097944
 30
0.0
 11
561.0232403127
 21
669.295479041
 31
0.0
  0
SPLINE
  5
33A
330
1F
100
AcDbEntity
  8
0
  6
Continuous
 62
     7
100
AcDbSpline
210
0.0
220
0.0
230
1.0
 70
     8
 71
     3
 72
    10
 73
     6
 74
     0
 42
0.00000001
 43
0.00000001
 40
0.0
 40
0.0
 40
0.0
 40
0.0
 40
0.0188859716958332
 40
0.7360974498575831
 40
1.0
 40
1.0
 40
1.0
 40
1.0
 10
561.0232403126779
 20
666.3388837692065
 30
0.0
 10
561.0241305295817
 20
666.3365093315952
 30
0.0
 10
561.0588275207307
 20
666.2439635257107
 30
0.0
 10
561.1451934747607
 20
666.1366878470681
 30
0.0
 10
561.2461019310344
 20
666.064743266242
 30
0.0
 10
561.2732445446077
 20
666.0453914296551
 30
0.0
  0
SPLINE
  5
33B
330
1F
100
AcDbEntity
  8
0
  6
Continuous
 62
     7
100
AcDbSpline
210
0.0
220
0.0
230
1.0
 70
     8
 71
     3
 72
     9
 73
     5
 74
     0
 42
0.00000001
 43
0.00000001
 40
0.0
 40
0.0
 40
0.0
 40
0.0
 40
0.3780362512976739
 40
0.9999999999999999
 40
0.9999999999999999
 40
0.9999999999999999
 40
0.9999999999999999
 10
562.2732465711656
 20
665.8807699200435
 30
0.0
 10
562.3307670402485
 20
665.9055470143965
 30
0.0
 10
562.482923001179
 20
665.9710885974272
 30
0.0
 10
562.5983347338966
 20
666.0893795770961
 30
0.0
 10
562.6701166478219
 20
666.1629522782488
 30
0.0
  0
LINE
  5
33C
330
1F
100
AcDbEntity
  8
0
  6
Continuous
 62
     7
100
AcDbLine
 10
532.0232411471
 20
647.5297412467
 30
0.0
 11
531.7732443658
 21
647.5297412467
 31
0.0
  0
LINE
  5
33D
330
1F
100
AcDbEntity
  8
0
  6
Continuous
 62
     7
100
AcDbLine
 10
532.9371442643
 20
644.5172656891
 30
0.0
 11
532.5838526336
 21
646.0475246054
 31
0.0
  0
ARC
  5
33E
330
1F
100
AcDbEntity
  8
0
  6
Continuous
 62
     7
100
AcDbCircle
 10
533.4243262737
 20
644.6297408602
 30
0.0
 40
0.5000000000000816
100
AcDbArc
 50
192.9999999964
 51
269.9999999964
  0
LINE
  5
33F
330
1F
100
AcDbEntity
  8
0
  6
Continuous
 62
     7
100
AcDbLine
 10
533.523244187
 20
644.1297405031
 30
0.0
 11
533.4243228284
 21
644.1297405031
 31
0.0
  0
ARC
  5
340
330
1F
100
AcDbEntity
  8
0
  6
Continuous
 62
     7
100
AcDbCircle
 10
533.5232435901
 20
644.6297408602
 30
0.0
 40
0.5000000000001137
100
AcDbArc
 50
269.9999999964
 51
359.9999999963999
  0
LINE
  5
341
330
1F
100
AcDbEntity
  8
0
  6
Continuous
 62
     7
100
AcDbLine
 10
534.0232452003
 20
644.6337154698
 30
0.0
 11
534.0232452003
 21
644.6297405851
 31
0.0
  0
LINE
  5
342
330
1F
100
AcDbEntity
  8
0
  6
Continuous
 62
     7
100
AcDbLine
 10
534.0528910605
 20
645.1993765873
 30
0.0
 11
534.0232452003
 21
644.6337154698
 31
0.0
  0
ARC
  5
343
330
1F
100
AcDbEntity
  8
0
  6
Continuous
 62
     7
100
AcDbCircle
 10
533.2883259095
 20
644.3297408603
 30
0.0
 40
1.000000000000052
100
AcDbArc
 50
192.9999999964
 51
269.9999999964
  0
LINE
  5
344
330
1F
100
AcDbEntity
  8
0
  6
Continuous
 62
     7
100
AcDbLine
 10
531.7732443658
 20
646.4468720001
 30
0.0
 11
532.3139553515
 21
644.10478944
 31
0.0
  0
LINE
  5
345
330
1F
100
AcDbEntity
  8
0
  6
Continuous
 62
     7
100
AcDbLine
 10
535.5232407895
 20
643.3297409308
 30
0.0
 11
533.2883273808
 21
643.3297409308
 31
0.0
  0
LINE
  5
346
330
1F
100
AcDbEntity
  8
0
  6
Continuous
 62
     7
100
AcDbLine
 10
535.5232407895
 20
643.3297409308
 30
0.0
 11
535.5232407895
 21
644.3504667473
 31
0.0
  0
SPLINE
  5
347
330
1F
100
AcDbEntity
  8
0
  6
Continuous
 62
     7
100
AcDbSpline
210
0.0
220
0.0
230
1.0
 70
     8
 71
     3
 72
    10
 73
     6
 74
     0
 42
0.00000001
 43
0.00000001
 40
0.0
 40
0.0
 40
0.0
 40
0.0
 40
0.0188853682505211
 40
0.7360915970275703
 40
0.9999999999999999
 40
0.9999999999999999
 40
0.9999999999999999
 40
0.9999999999999999
 10
532.0232411471429
 20
648.3205980253143
 30
0.0
 10
532.0223509285249
 20
648.3229724634693
 30
0.0
 10
531.9876530377792
 20
648.4155205118028
 30
0.0
 10
531.901293904986
 20
648.5227958369005
 30
0.0
 10
531.8003871161262
 20
648.5947385999558
 30
0.0
 10
531.7732443657937
 20
648.6140903648658
 30
0.0
  0
SPLINE
  5
348
330
1F
100
AcDbEntity
  8
0
  6
Continuous
 62
     7
100
AcDbSpline
210
0.0
220
0.0
230
1.0
 70
     8
 71
     3
 72
     9
 73
     5
 74
     0
 42
0.00000001
 43
0.00000001
 40
0.0
 40
0.0
 40
0.0
 40
0.0
 40
0.3780368253969132
 40
1.0
 40
1.0
 40
1.0
 40
1.0
 10
530.7732423392358
 20
648.7787118744774
 30
0.0
 10
530.7157218889599
 20
648.7539348383366
 30
0.0
 10
530.5635662088478
 20
648.6883935088255
 30
0.0
 10
530.4481542505497
 20
648.5701017208982
 30
0.0
 10
530.3763722625795
 20
648.4965285849495
 30
0.0
  0
LINE
  5
349
330
1F
100
AcDbEntity
  8
0
  6
Continuous
 62
     7
100
AcDbLine
 10
561.2732445446
 20
647.5297412467
 30
0.0
 11
561.0232403127
 21
647.5297412467
 31
0.0
  0
LINE
  5
34A
330
1F
100
AcDbEntity
  8
0
  6
Continuous
 62
     7
100
AcDbLine
 10
561.0232403127
 20
645.3640027535
 30
0.0
 11
561.2732445446
 21
646.4468720001
 31
0.0
  0
SPLINE
  5
34B
330
1F
100
AcDbEntity
  8
0
  6
Continuous
 62
     7
100
AcDbSpline
210
0.0
220
0.0
230
1.0
 70
     8
 71
     3
 72
     9
 73
     5
 74
     0
 42
0.00000001
 43
0.00000001
 40
0.0
 40
0.0
 40
0.0
 40
0.0
 40
0.622017902409386
 40
1.0
 40
1.0
 40
1.0
 40
1.0
 10
562.6701166478219
 20
648.4965285849495
 30
0.0
 10
562.5983281389247
 20
648.5701079638387
 30
0.0
 10
562.4829158515624
 20
648.6883993805397
 30
0.0
 10
562.3307590994801
 20
648.7539397278476
 30
0.0
 10
562.2732465711656
 20
648.7787128058
 30
0.0
  0
SPLINE
  5
34C
330
1F
100
AcDbEntity
  8
0
  6
Continuous
 62
     7
100
AcDbSpline
210
0.0
220
0.0
230
1.0
 70
     8
 71
     3
 72
    10
 73
     6
 74
     0
 42
0.00000001
 43
0.00000001
 40
0.0
 40
0.0
 40
0.0
 40
0.0
 40
0.2639549494409185
 40
0.981150346107194
 40
1.0
 40
1.0
 40
1.0
 40
1.0
 10
561.2732445446077
 20
648.6140894335432
 30
0.0
 10
561.2460946538091
 20
648.5947351220177
 30
0.0
 10
561.1451754446407
 20
648.5227929610845
 30
0.0
 10
561.058894001903
 20
648.4154949749225
 30
0.0
 10
561.0241305821393
 20
648.3229721340765
 30
0.0
 10
561.0232403126779
 20
648.3206026819272
 30
0.0
  0
LINE
  5
34D
330
1F
100
AcDbEntity
  8
0
  6
Continuous
 62
     7
100
AcDbLine
 10
535.5232407895
 20
670.3090150472
 30
0.0
 11
535.5232407895
 21
671.3297408637
 31
0.0
  0
LINE
  5
34E
330
1F
100
AcDbEntity
  8
0
  6
Continuous
 62
     7
100
AcDbLine
 10
534.0232452003
 20
670.0257663247
 30
0.0
 11
534.0528910605
 21
669.4601052073
 31
0.0
  0
LINE
  5
34F
330
1F
100
AcDbEntity
  8
0
  6
Continuous
 62
     7
100
AcDbLine
 10
534.0232452003
 20
670.0257663247
 30
0.0
 11
534.0232452003
 21
670.0297412094
 31
0.0
  0
ARC
  5
350
330
1F
100
AcDbEntity
  8
0
  6
Continuous
 62
     7
100
AcDbCircle
 10
533.5232435917
 20
670.0297408602
 30
0.0
 40
0.5
100
AcDbArc
 50
359.9999999963999
 51
89.9999999964
  0
LINE
  5
351
330
1F
100
AcDbEntity
  8
0
  6
Continuous
 62
     7
100
AcDbLine
 10
533.523244187
 20
670.5297412914
 30
0.0
 11
533.4243228284
 21
670.5297412914
 31
0.0
  0
ARC
  5
352
330
1F
100
AcDbEntity
  8
0
  6
Continuous
 62
     7
100
AcDbCircle
 10
533.4243262753
 20
670.0297408602
 30
0.0
 40
0.500000000000045
100
AcDbArc
 50
89.9999999964
 51
166.9999999964
  0
LINE
  5
353
330
1F
100
AcDbEntity
  8
0
  6
Continuous
 62
     7
100
AcDbLine
 10
532.9371442643
 20
670.1422161055
 30
0.0
 11
532.5838526336
 21
668.6119571891
 31
0.0
  0
LINE
  5
354
330
1F
100
AcDbEntity
  8
0
  6
Continuous
 62
     7
100
AcDbLine
 10
531.7732443658
 20
667.1297405478
 30
0.0
 11
532.0232411471
 21
667.1297405478
 31
0.0
  0
LINE
  5
355
330
1F
100
AcDbEntity
  8
0
  6
Continuous
 62
     7
100
AcDbLine
 10
532.3139553515
 20
670.5546923545
 30
0.0
 11
531.7732443658
 21
668.2126097944
 31
0.0
  0
ARC
  5
356
330
1F
100
AcDbEntity
  8
0
  6
Continuous
 62
     7
100
AcDbCircle
 10
533.2883259111
 20
670.3297408603
 30
0.0
 40
1.0
100
AcDbArc
 50
89.9999999964
 51
166.9999999964
  0
LINE
  5
357
330
1F
100
AcDbEntity
  8
0
  6
Continuous
 62
     7
100
AcDbLine
 10
535.5232407895
 20
671.3297408637
 30
0.0
 11
533.2883273808
 21
671.3297408637
 31
0.0
  0
SPLINE
  5
358
330
1F
100
AcDbEntity
  8
0
  6
Continuous
 62
     7
100
AcDbSpline
210
0.0
220
0.0
230
1.0
 70
     8
 71
     3
 72
     9
 73
     5
 74
     0
 42
0.00000001
 43
0.00000001
 40
0.0
 40
0.0
 40
0.0
 40
0.0
 40
0.6220175872115727
 40
1.0
 40
1.0
 40
1.0
 40
1.0
 10
530.3763722625795
 20
666.1629522782488
 30
0.0
 10
530.4481608121391
 20
666.0893732910758
 30
0.0
 10
530.5635732233565
 20
665.9710824441842
 30
0.0
 10
530.7157298212445
 20
665.9055420899494
 30
0.0
 10
530.7732423392358
 20
665.8807689887209
 30
0.0
  0
SPLINE
  5
359
330
1F
100
AcDbEntity
  8
0
  6
Continuous
 62
     7
100
AcDbSpline
210
0.0
220
0.0
230
1.0
 70
     8
 71
     3
 72
    10
 73
     6
 74
     0
 42
0.00000001
 43
0.00000001
 40
0.0
 40
0.0
 40
0.0
 40
0.0
 40
0.2639436839625559
 40
0.9811559907808123
 40
1.0
 40
1.0
 40
1.0
 40
1.0
 10
531.7732443657937
 20
666.0453923609776
 30
0.0
 10
531.8003889362783
 20
666.0647478360147
 30
0.0
 10
531.9012932562767
 20
666.1366978065615
 30
0.0
 10
531.9876772787285
 20
666.2439572665969
 30
0.0
 10
532.0223533930357
 20
666.3365096499225
 30
0.0
 10
532.0232411471429
 20
666.3388791125936
 30
0.0
  0
LINE
  5
35A
330
1F
100
AcDbEntity
  8
0
  6
Continuous
 62
     7
100
AcDbLine
 10
547.5232427565
 20
651.8297409271
 30
0.0
 11
547.5232427565
 21
650.3297406812
 31
0.0
  0
LINE
  5
35B
330
1F
100
AcDbEntity
  8
0
  6
Continuous
 62
     7
100
AcDbLine
 10
542.0232465116
 20
651.8297409271
 30
0.0
 11
547.5232427565
 21
651.8297409271
 31
0.0
  0
LINE
  5
35C
330
1F
100
AcDbEntity
  8
0
  6
Continuous
 62
     7
100
AcDbLine
 10
542.0232465116
 20
651.8297409271
 30
0.0
 11
539.0232404319
 21
651.8297409271
 31
0.0
  0
LINE
  5
35D
330
1F
100
AcDbEntity
  8
0
  6
Continuous
 62
     7
100
AcDbLine
 10
533.523244187
 20
651.8297409271
 30
0.0
 11
533.523244187
 21
650.3297406812
 31
0.0
  0
LINE
  5
35E
330
1F
100
AcDbEntity
  8
0
  6
Continuous
 62
     7
100
AcDbLine
 10
539.0232404319
 20
651.8297409271
 30
0.0
 11
533.523244187
 21
651.8297409271
 31
0.0
  0
ARC
  5
35F
330
1F
100
AcDbEntity
  8
0
  6
Continuous
 62
     7
100
AcDbCircle
 10
532.27324359
 20
642.8297408603
 30
0.0
 40
0.5000000000001137
100
AcDbArc
 50
179.9999999964
 51
269.9999999964
  0
ARC
  5
360
330
1F
100
AcDbEntity
  8
0
  6
Continuous
 62
     7
100
AcDbCircle
 10
532.27324359
 20
642.8297408603
 30
0.0
 40
1.500000000000114
100
AcDbArc
 50
179.9999999964
 51
269.9999999964
  0
ARC
  5
361
330
1F
100
AcDbEntity
  8
0
  6
Continuous
 62
     7
100
AcDbCircle
 10
560.77324359
 20
642.8297408585
 30
0.0
 40
1.500000000000114
100
AcDbArc
 50
269.9999999964
 51
359.9999999963999
  0
ARC
  5
362
330
1F
100
AcDbEntity
  8
0
  6
Continuous
 62
     7
100
AcDbCircle
 10
560.77324359
 20
642.8297408585
 30
0.0
 40
0.5000000000001408
100
AcDbArc
 50
299.9999999964
 51
359.9999999963999
  0
LINE
  5
363
330
1F
100
AcDbEntity
  8
0
  6
Continuous
 62
     7
100
AcDbLine
 10
539.0232404319
 20
642.3297407669
 30
0.0
 11
532.2732453791
 21
642.3297407669
 31
0.0
  0
LINE
  5
364
330
1F
100
AcDbEntity
  8
0
  6
Continuous
 62
     7
100
AcDbLine
 10
560.7732435313
 20
641.329740603
 30
0.0
 11
532.2732453791
 21
641.329740603
 31
0.0
  0
LINE
  5
365
330
1F
100
AcDbEntity
  8
0
  6
Continuous
 62
     7
100
AcDbLine
 10
530.7732423392
 20
651.3297408451
 30
0.0
 11
531.7732443658
 21
651.3297408451
 31
0.0
  0
LINE
  5
366
330
1F
100
AcDbEntity
  8
0
  6
Continuous
 62
     7
100
AcDbLine
 10
531.7732443658
 20
651.3297408451
 30
0.0
 11
531.7732443658
 21
642.8297408488
 31
0.0
  0
LINE
  5
367
330
1F
100
AcDbEntity
  8
0
  6
Continuous
 62
     7
100
AcDbLine
 10
530.7732423392
 20
651.3297408451
 30
0.0
 11
530.7732423392
 21
642.8297408488
 31
0.0
  0
LINE
  5
368
330
1F
100
AcDbEntity
  8
0
  6
Continuous
 62
     7
100
AcDbLine
 10
562.2732465712
 20
651.3297408451
 30
0.0
 11
561.2732445446
 21
651.3297408451
 31
0.0
  0
LINE
  5
369
330
1F
100
AcDbEntity
  8
0
  6
Continuous
 62
     7
100
AcDbLine
 10
561.2732445446
 20
642.8297408488
 30
0.0
 11
561.2732445446
 21
651.3297408451
 31
0.0
  0
LINE
  5
36A
330
1F
100
AcDbEntity
  8
0
  6
Continuous
 62
     7
100
AcDbLine
 10
562.2732465712
 20
642.8297408488
 30
0.0
 11
562.2732465712
 21
651.3297408451
 31
0.0
  0
LINE
  5
36B
330
1F
100
AcDbEntity
  8
0
  6
Continuous
 62
     7
100
AcDbLine
 10
573.9340236035
 20
641.329740603
 30
0.0
 11
560.7732435313
 21
641.329740603
 31
0.0
  0
LINE
  5
36C
330
1F
100
AcDbEntity
  8
0
  6
Continuous
 62
     7
100
AcDbLine
 10
532.2732453791
 20
642.8297408488
 30
0.0
 11
532.2732453791
 21
642.3297407669
 31
0.0
  0
LINE
  5
36D
330
1F
100
AcDbEntity
  8
0
  6
Continuous
 62
     7
100
AcDbLine
 10
532.2732453791
 20
651.3297408451
 30
0.0
 11
532.2732453791
 21
650.3297406812
 31
0.0
  0
LINE
  5
36E
330
1F
100
AcDbEntity
  8
0
  6
Continuous
 62
     7
100
AcDbLine
 10
532.2732453791
 20
644.2811335069
 30
0.0
 11
532.2732453791
 21
642.8297408488
 31
0.0
  0
LINE
  5
36F
330
1F
100
AcDbEntity
  8
0
  6
Continuous
 62
     7
100
AcDbLine
 10
533.523244187
 20
651.3297408451
 30
0.0
 11
532.2732453791
 21
651.3297408451
 31
0.0
  0
LINE
  5
370
330
1F
100
AcDbEntity
  8
0
  6
Continuous
 62
     7
100
AcDbLine
 10
547.5232427565
 20
661.8297407035
 30
0.0
 11
542.0232465116
 21
661.8297407035
 31
0.0
  0
LINE
  5
371
330
1F
100
AcDbEntity
  8
0
  6
Continuous
 62
     7
100
AcDbLine
 10
533.523244187
 20
661.8297407035
 30
0.0
 11
533.523244187
 21
663.8297410314
 31
0.0
  0
LINE
  5
372
330
1F
100
AcDbEntity
  8
0
  6
Continuous
 62
     7
100
AcDbLine
 10
533.523244187
 20
661.8297407035
 30
0.0
 11
539.0232404319
 21
661.8297407035
 31
0.0
  0
LINE
  5
373
330
1F
100
AcDbEntity
  8
0
  6
Continuous
 62
     7
100
AcDbLine
 10
539.0232404319
 20
661.8297407035
 30
0.0
 11
542.0232465116
 21
661.8297407035
 31
0.0
  0
LINE
  5
374
330
1F
100
AcDbEntity
  8
0
  6
Continuous
 62
     7
100
AcDbLine
 10
547.5232427565
 20
652.329741009
 30
0.0
 11
546.0232471672
 21
652.329741009
 31
0.0
  0
LINE
  5
375
330
1F
100
AcDbEntity
  8
0
  6
Continuous
 62
     7
100
AcDbLine
 10
546.0232471672
 20
652.329741009
 30
0.0
 11
546.0232471672
 21
661.8297407035
 31
0.0
  0
LINE
  5
376
330
1F
100
AcDbEntity
  8
0
  6
Continuous
 62
     7
100
AcDbLine
 10
546.0232471672
 20
652.329741009
 30
0.0
 11
544.3357428161
 21
652.329741009
 31
0.0
  0
LINE
  5
377
330
1F
100
AcDbEntity
  8
0
  6
Continuous
 62
     7
100
AcDbLine
 10
544.3357428161
 20
652.329741009
 30
0.0
 11
540.0232424584
 21
652.329741009
 31
0.0
  0
LINE
  5
378
330
1F
100
AcDbEntity
  8
0
  6
Continuous
 62
     7
100
AcDbLine
 10
532.0232411471
 20
650.3297406812
 30
0.0
 11
561.0232403127
 21
650.3297406812
 31
0.0
  0
LINE
  5
379
330
1F
100
AcDbEntity
  8
0
  6
Continuous
 62
     7
100
AcDbLine
 10
561.0232403127
 20
642.3297407669
 30
0.0
 11
561.0232403127
 21
650.3297406812
 31
0.0
  0
LINE
  5
37A
330
1F
100
AcDbEntity
  8
0
  6
Continuous
 62
     7
100
AcDbLine
 10
561.0232403127
 20
642.3297407669
 30
0.0
 11
539.0232404319
 21
642.3297407669
 31
0.0
  0
LINE
  5
37B
330
1F
100
AcDbEntity
  8
0
  6
Continuous
 62
     7
100
AcDbLine
 10
532.0232411471
 20
646.3711927277
 30
0.0
 11
539.0232404319
 21
642.3297407669
 31
0.0
  0
LINE
  5
37C
330
1F
100
AcDbEntity
  8
0
  6
Continuous
 62
     7
100
AcDbLine
 10
532.0232411471
 20
646.3711927277
 30
0.0
 11
532.0232411471
 21
650.3297406812
 31
0.0
  0
LINE
  5
37D
330
1F
100
AcDbEntity
  8
0
  6
Continuous
 62
     7
100
AcDbLine
 10
561.0232403127
 20
650.3297406812
 30
0.0
 11
561.2732445446
 21
650.3297406812
 31
0.0
  0
LINE
  5
37E
330
1F
100
AcDbEntity
  8
0
  6
Continuous
 62
     7
100
AcDbLine
 10
562.2732465712
 20
650.3297406812
 30
0.0
 11
566.9030895082
 21
650.3297406812
 31
0.0
  0
LINE
  5
37F
330
1F
100
AcDbEntity
  8
0
  6
Continuous
 62
     7
100
AcDbLine
 10
572.6426368204
 20
642.3297407669
 30
0.0
 11
562.1874605862
 21
642.3297407669
 31
0.0
  0
LINE
  5
380
330
1F
100
AcDbEntity
  8
0
  6
Continuous
 62
     7
100
AcDbLine
 10
561.0232403127
 20
651.8297409271
 30
0.0
 11
547.5232427565
 21
651.8297409271
 31
0.0
  0
LINE
  5
381
330
1F
100
AcDbEntity
  8
0
  6
Continuous
 62
     7
100
AcDbLine
 10
547.5232427565
 20
651.8297409271
 30
0.0
 11
547.5232427565
 21
664.3297406477
 31
0.0
  0
LINE
  5
382
330
1F
100
AcDbEntity
  8
0
  6
Continuous
 62
     7
100
AcDbLine
 10
547.5232427565
 20
664.3297406477
 30
0.0
 11
561.0232403127
 21
664.3297406477
 31
0.0
  0
LINE
  5
383
330
1F
100
AcDbEntity
  8
0
  6
Continuous
 62
     7
100
AcDbLine
 10
564.7079323975
 20
662.3297407855
 30
0.0
 11
561.0232403127
 21
662.3297407855
 31
0.0
  0
LINE
  5
384
330
1F
100
AcDbEntity
  8
0
  6
Continuous
 62
     7
100
AcDbLine
 10
565.0232409683
 20
659.3297408758
 30
0.0
 11
564.7079323975
 21
662.3297407855
 31
0.0
  0
LINE
  5
385
330
1F
100
AcDbEntity
  8
0
  6
Continuous
 62
     7
100
AcDbLine
 10
565.0232409683
 20
656.3297408498
 30
0.0
 11
565.0232409683
 21
659.3297408758
 31
0.0
  0
LINE
  5
386
330
1F
100
AcDbEntity
  8
0
  6
Continuous
 62
     7
100
AcDbLine
 10
564.7079323975
 20
653.3297407073
 30
0.0
 11
565.0232409683
 21
656.3297408498
 31
0.0
  0
LINE
  5
387
330
1F
100
AcDbEntity
  8
0
  6
Continuous
 62
     7
100
AcDbLine
 10
561.0232403127
 20
653.3297407073
 30
0.0
 11
564.7079323975
 21
653.3297407073
 31
0.0
  0
LINE
  5
388
330
1F
100
AcDbEntity
  8
0
  6
Continuous
 62
     7
100
AcDbLine
 10
561.0232403127
 20
651.8297409271
 30
0.0
 11
561.0232403127
 21
653.3297407073
 31
0.0
  0
LINE
  5
389
330
1F
100
AcDbEntity
  8
0
  6
Continuous
 62
     7
100
AcDbLine
 10
561.0232403127
 20
662.3297407855
 30
0.0
 11
561.0232403127
 21
664.3297406477
 31
0.0
  0
LINE
  5
38A
330
1F
100
AcDbEntity
  8
0
  6
Continuous
 62
     7
100
AcDbLine
 10
547.5232427565
 20
663.8297410314
 30
0.0
 11
532.0232411471
 21
663.8297410314
 31
0.0
  0
LINE
  5
38B
330
1F
100
AcDbEntity
  8
0
  6
Continuous
 62
     7
100
AcDbLine
 10
532.0232411471
 20
668.2882890668
 30
0.0
 11
532.0232411471
 21
663.8297410314
 31
0.0
  0
LINE
  5
38C
330
1F
100
AcDbEntity
  8
0
  6
Continuous
 62
     7
100
AcDbLine
 10
539.0232404319
 20
672.3297410276
 30
0.0
 11
532.0232411471
 21
668.2882890668
 31
0.0
  0
LINE
  5
38D
330
1F
100
AcDbEntity
  8
0
  6
Continuous
 62
     7
100
AcDbLine
 10
561.0232403127
 20
672.3297410276
 30
0.0
 11
539.0232404319
 21
672.3297410276
 31
0.0
  0
LINE
  5
38E
330
1F
100
AcDbEntity
  8
0
  6
Continuous
 62
     7
100
AcDbLine
 10
561.0232403127
 20
672.3297410276
 30
0.0
 11
561.0232403127
 21
664.3297406477
 31
0.0
  0
LINE
  5
38F
330
1F
100
AcDbEntity
  8
0
  6
Continuous
 62
     7
100
AcDbLine
 10
571.961899623
 20
672.3297410276
 30
0.0
 11
562.1874605862
 21
672.3297410276
 31
0.0
  0
LINE
  5
390
330
1F
100
AcDbEntity
  8
0
  6
Continuous
 62
     7
100
AcDbLine
 10
566.3827111569
 20
651.8297409271
 30
0.0
 11
561.0232403127
 21
651.8297409271
 31
0.0
  0
ARC
  5
391
330
1F
100
AcDbEntity
  8
0
  6
Continuous
 62
     7
100
AcDbCircle
 10
642.0232435898
 20
639.6297408534
 30
0.0
 40
2.0
100
AcDbArc
 50
269.9999999964
 51
359.9999999963999
  0
LINE
  5
392
330
1F
100
AcDbEntity
  8
0
  6
Continuous
 62
     7
100
AcDbLine
 10
642.0232435779
 20
637.6297413003
 30
0.0
 11
585.5232452599
 21
637.6297413003
 31
0.0
  0
ARC
  5
393
330
1F
100
AcDbEntity
  8
0
  6
Continuous
 62
     7
100
AcDbCircle
 10
585.5232435909
 20
657.629740857
 30
0.0
 40
20.0
100
AcDbArc
 50
89.9999999964
 51
269.9999999964
  0
LINE
  5
394
330
1F
100
AcDbEntity
  8
0
  6
Continuous
 62
     7
100
AcDbLine
 10
585.5232452599
 20
677.6297404063
 30
0.0
 11
642.0232435779
 21
677.6297404063
 31
0.0
  0
ARC
  5
395
330
1F
100
AcDbEntity
  8
0
  6
Continuous
 62
     7
100
AcDbCircle
 10
642.0232435921
 20
675.6297408534
 30
0.0
 40
2.0
100
AcDbArc
 50
359.9999999963999
 51
89.9999999964
  0
LINE
  5
396
330
1F
100
AcDbEntity
  8
0
  6
Continuous
 62
     7
100
AcDbLine
 10
644.0232436147
 20
675.6297400784
 30
0.0
 11
644.0232436147
 21
639.6297416282
 31
0.0
  0
LINE
  5
397
330
1F
100
AcDbEntity
  8
0
  6
Continuous
 62
     7
100
AcDbLine
 10
609.5232417432
 20
651.529740971
 30
0.0
 11
634.5232439784
 21
650.8797406782
 31
0.0
  0
LINE
  5
398
330
1F
100
AcDbEntity
  8
0
  6
Continuous
 62
     7
100
AcDbLine
 10
634.5232439784
 20
650.8797406782
 30
0.0
 11
634.5232439784
 21
664.3797410284
 31
0.0
  0
LINE
  5
399
330
1F
100
AcDbEntity
  8
0
  6
Continuous
 62
     7
100
AcDbLine
 10
634.5232439784
 20
664.3797410284
 30
0.0
 11
609.5232417432
 21
663.7297407356
 31
0.0
  0
LINE
  5
39A
330
1F
100
AcDbEntity
  8
0
  6
Continuous
 62
     7
100
AcDbLine
 10
609.5232417432
 20
663.7297407356
 30
0.0
 11
609.5232417432
 21
651.529740971
 31
0.0
  0
CIRCLE
  5
39B
330
1F
100
AcDbEntity
  8
0
  6
Continuous
 62
     7
100
AcDbCircle
 10
600.0232435904
 20
649.129740856
 30
0.0
 40
4.0
  0
CIRCLE
  5
39C
330
1F
100
AcDbEntity
  8
0
  6
Continuous
 62
     7
100
AcDbCircle
 10
600.0232435915
 20
666.129740856
 30
0.0
 40
4.0
  0
CIRCLE
  5
39D
330
1F
100
AcDbEntity
  8
0
  6
Continuous
 62
     7
100
AcDbCircle
 10
621.0232435901
 20
644.6297408547
 30
0.0
 40
3.199999999999932
  0
CIRCLE
  5
39E
330
1F
100
AcDbEntity
  8
0
  6
Continuous
 62
     7
100
AcDbCircle
 10
621.0232435918
 20
670.6297408547
 30
0.0
 40
3.199999999999932
  0
SPLINE
  5
39F
330
1F
100
AcDbEntity
  8
0
  6
Continuous
 62
     7
100
AcDbSpline
210
0.0
220
0.0
230
1.0
 70
     8
 71
     3
 72
    11
 73
     7
 74
     0
 42
0.00000001
 43
0.00000001
 40
0.0
 40
0.0
 40
0.0
 40
0.0
 40
0.1713948555625171
 40
0.5529896358176511
 40
0.9599302636488085
 40
1.0
 40
1.0
 40
1.0
 40
1.0
 10
602.0964173224988
 20
652.5505268578155
 30
0.0
 10
602.1032467253067
 20
652.5463853740217
 30
0.0
 10
602.125281161283
 20
652.5330232599301
 30
0.0
 10
601.9562792491799
 20
652.6357376629167
 30
0.0
 10
601.7341943221047
 20
652.7491084815564
 30
0.0
 10
601.5813948938445
 20
652.8137513550096
 30
0.0
 10
601.567698046309
 20
652.8195459027512
 30
0.0
  0
LINE
  5
3A0
330
1F
100
AcDbEntity
  8
0
  6
Continuous
 62
     8
100
AcDbLine
 10
531.7732443658
 20
671.8297409457
 30
0.0
 11
530.7732423392
 21
671.8297409457
 31
0.0
  0
LINE
  5
3A1
330
1F
100
AcDbEntity
  8
0
  6
Continuous
 62
     8
100
AcDbLine
 10
561.2732445446
 20
671.8297409457
 30
0.0
 11
562.2732465712
 21
671.8297409457
 31
0.0
  0
LINE
  5
3A2
330
1F
100
AcDbEntity
  8
0
  6
Continuous
 62
     8
100
AcDbLine
 10
532.2732453791
 20
672.3297410276
 30
0.0
 11
532.2732453791
 21
673.3297402602
 31
0.0
  0
LINE
  5
3A3
330
1F
100
AcDbEntity
  8
0
  6
Continuous
 62
     8
100
AcDbLine
 10
560.7732435313
 20
672.3297410276
 30
0.0
 11
560.7732435313
 21
673.3297402602
 31
0.0
  0
LINE
  5
3A4
330
1F
100
AcDbEntity
  8
0
  6
Continuous
 62
     8
100
AcDbLine
 10
532.2732453791
 20
671.8297409457
 30
0.0
 11
538.1572147456
 21
671.8297409457
 31
0.0
  0
LINE
  5
3A5
330
1F
100
AcDbEntity
  8
0
  6
Continuous
 62
     8
100
AcDbLine
 10
542.0232465116
 20
650.3297406812
 30
0.0
 11
542.0232465116
 21
651.8297409271
 31
0.0
  0
LINE
  5
3A6
330
1F
100
AcDbEntity
  8
0
  6
Continuous
 62
     8
100
AcDbLine
 10
539.0232404319
 20
651.8297409271
 30
0.0
 11
539.0232404319
 21
650.3297406812
 31
0.0
  0
LINE
  5
3A7
330
1F
100
AcDbEntity
  8
0
  6
Continuous
 62
     8
100
AcDbLine
 10
559.329492375
 20
650.3297406812
 30
0.0
 11
559.329492375
 21
651.8297409271
 31
0.0
  0
LINE
  5
3A8
330
1F
100
AcDbEntity
  8
0
  6
Continuous
 62
     8
100
AcDbLine
 10
564.0132402626
 20
651.8297409271
 30
0.0
 11
564.0132402626
 21
650.3297406812
 31
0.0
  0
LINE
  5
3A9
330
1F
100
AcDbEntity
  8
0
  6
Continuous
 62
     8
100
AcDbLine
 10
532.2732453791
 20
642.3297407669
 30
0.0
 11
532.2732453791
 21
641.329740603
 31
0.0
  0
LINE
  5
3AA
330
1F
100
AcDbEntity
  8
0
  6
Continuous
 62
     8
100
AcDbLine
 10
531.7732443658
 20
642.8297408488
 30
0.0
 11
530.7732423392
 21
642.8297408488
 31
0.0
  0
LINE
  5
3AB
330
1F
100
AcDbEntity
  8
0
  6
Continuous
 62
     8
100
AcDbLine
 10
560.7732435313
 20
642.3297407669
 30
0.0
 11
560.7732435313
 21
641.329740603
 31
0.0
  0
LINE
  5
3AC
330
1F
100
AcDbEntity
  8
0
  6
Continuous
 62
     8
100
AcDbLine
 10
561.2732445446
 20
642.8297408488
 30
0.0
 11
562.2732465712
 21
642.8297408488
 31
0.0
  0
LINE
  5
3AD
330
1F
100
AcDbEntity
  8
0
  6
Continuous
 62
     8
100
AcDbLine
 10
538.1572147456
 20
642.8297408488
 30
0.0
 11
532.2732453791
 21
642.8297408488
 31
0.0
  0
LINE
  5
3AE
330
1F
100
AcDbEntity
  8
0
  6
Continuous
 62
     8
100
AcDbLine
 10
542.0232465116
 20
661.8297407035
 30
0.0
 11
542.0232465116
 21
663.8297410314
 31
0.0
  0
LINE
  5
3AF
330
1F
100
AcDbEntity
  8
0
  6
Continuous
 62
     8
100
AcDbLine
 10
539.0232404319
 20
661.8297407035
 30
0.0
 11
539.0232404319
 21
663.8297410314
 31
0.0
  0
LINE
  5
3B0
330
1F
100
AcDbEntity
  8
0
  6
Continuous
 62
     8
100
AcDbLine
 10
544.3357428161
 20
652.329741009
 30
0.0
 11
544.3357428161
 21
661.8297407035
 31
0.0
  0
LINE
  5
3B1
330
1F
100
AcDbEntity
  8
0
  6
Continuous
 62
     8
100
AcDbLine
 10
545.273241922
 20
651.8297409271
 30
0.0
 11
545.273241922
 21
652.329741009
 31
0.0
  0
LINE
  5
3B2
330
1F
100
AcDbEntity
  8
0
  6
Continuous
 62
     7
100
AcDbLine
 10
841.6230608874
 20
135.3017685481
 30
0.0
 11
841.6230608874
 21
147.8023244744
 31
0.0
  0
LINE
  5
3B3
330
1F
100
AcDbEntity
  8
0
  6
Continuous
 62
     7
100
AcDbLine
 10
831.6230617105
 20
147.8023249496
 30
0.0
 11
831.6230617105
 21
135.3017690233
 31
0.0
  0
LINE
  5
3B4
330
1F
100
AcDbEntity
  8
0
  6
Continuous
 62
     7
100
AcDbLine
 10
839.4519478105
 20
132.8526756139
 30
0.0
 11
840.1591706114
 21
133.2610808675
 31
0.0
  0
LINE
  5
3B5
330
1F
100
AcDbEntity
  8
0
  6
Continuous
 62
     7
100
AcDbLine
 10
833.0869522034
 20
133.2610798869
 30
0.0
 11
833.7941753237
 21
132.8526759695
 31
0.0
  0
LWPOLYLINE
  5
3B6
330
1F
100
AcDbEntity
  8
0
  6
Continuous
 62
     7
100
AcDbPolyline
 90
        3
 70
   128
 43
0.0
 10
874.7680987301
 20
268.1190235001
 10
874.2086974392
 20
267.7072851863
 10
873.9686428195
 20
267.4006751721
  0
ARC
  5
3B7
330
1F
100
AcDbEntity
  8
0
  6
Continuous
 62
     7
100
AcDbCircle
 10
875.6559452229
 20
266.3268943997
 30
0.0
 40
2.000000000000012
100
AcDbArc
 50
38.5790731998
 51
116.3544848052
  0
LINE
  5
3B8
330
1F
100
AcDbEntity
  8
0
  6
Continuous
 62
     7
100
AcDbLine
 10
891.363176217
 20
182.6586141379
 30
0.0
 11
891.363176217
 21
272.4781014377
 31
0.0
  0
LINE
  5
3B9
330
1F
100
AcDbEntity
  8
0
  6
Continuous
 62
     7
100
AcDbLine
 10
830.6630826127
 20
149.2834881195
 30
0.0
 11
830.6630826127
 21
239.9195209279
 31
0.0
  0
LINE
  5
3BA
330
1F
100
AcDbEntity
  8
0
  6
Continuous
 62
     7
100
AcDbLine
 10
884.4032002061
 20
275.0257306264
 30
0.0
 11
884.4032002061
 21
299.5219559564
 31
0.0
  0
LINE
  5
3BB
330
1F
100
AcDbEntity
  8
0
  6
Continuous
 62
     7
100
AcDbLine
 10
856.6230612167
 20
256.9663465525
 30
0.0
 11
856.6230612167
 21
258.6299169222
 31
0.0
  0
SPLINE
  5
3BC
330
1F
100
AcDbEntity
  8
0
  6
Continuous
 62
     7
100
AcDbSpline
210
0.0
220
0.0
230
1.0
 70
     8
 71
     3
 72
    12
 73
     8
 74
     0
 42
0.00000001
 43
0.00000001
 40
0.0
 40
0.0
 40
0.0
 40
0.0
 40
0.2660317304589521
 40
0.3864599298233743
 40
0.5904524039254285
 40
0.8147877133430422
 40
1.0
 40
1.0
 40
1.0
 40
1.0
 10
789.9984412993031
 20
163.4602854796959
 30
0.0
 10
790.1148009704655
 20
163.3016019169127
 30
0.0
 10
790.2838347555487
 20
163.0710849089171
 30
0.0
 10
790.6534832457087
 20
162.8405460849107
 30
0.0
 10
791.0353024408817
 20
162.7103775130399
 30
0.0
 10
791.497230014912
 20
162.6890859484287
 30
0.0
 10
791.7760142783347
 20
162.8040634712659
 30
0.0
 10
791.9020906401727
 20
162.8560604799725
 30
0.0
  0
SPLINE
  5
3BD
330
1F
100
AcDbEntity
  8
0
  6
Continuous
 62
     7
100
AcDbSpline
210
0.0
220
0.0
230
1.0
 70
     8
 71
     3
 72
    13
 73
     9
 74
     0
 42
0.00000001
 43
0.00000001
 40
0.0
 40
0.0
 40
0.0
 40
0.0
 40
0.0898007775965348
 40
0.3033448298024405
 40
0.5051117194702599
 40
0.6984066268470434
 40
0.8363956285210025
 40
1.0
 40
1.0
 40
1.0
 40
1.0
 10
790.7965682670197
 20
165.5993323312771
 30
0.0
 10
790.7209882176252
 20
165.5777095908704
 30
0.0
 10
790.4656806597881
 20
165.5046685027634
 30
0.0
 10
790.1276829049747
 20
165.1923278697707
 30
0.0
 10
789.8568897756005
 20
164.7302957061632
 30
0.0
 10
789.7787097243591
 20
164.2631691733193
 30
0.0
 10
789.8242710543519
 20
163.8290122064999
 30
0.0
 10
789.9371877489917
 20
163.5899621711296
 30
0.0
 10
789.9984412993031
 20
163.4602854796959
 30
0.0
  0
SPLINE
  5
3BE
330
1F
100
AcDbEntity
  8
0
  6
Continuous
 62
     7
100
AcDbSpline
210
0.0
220
0.0
230
1.0
 70
     8
 71
     3
 72
    13
 73
     9
 74
     0
 42
0.00000001
 43
0.00000001
 40
0.0
 40
0.0
 40
0.0
 40
0.0
 40
0.2176530073065255
 40
0.3161800970100648
 40
0.483074139751171
 40
0.6666122936682779
 40
0.864879089824855
 40
1.0
 40
1.0
 40
1.0
 40
1.0
 10
803.8577337163875
 20
224.8654582908345
 30
0.0
 10
803.9741449094214
 20
224.706671543583
 30
0.0
 10
804.1432530819295
 20
224.476005265312
 30
0.0
 10
804.5125174076044
 20
224.2462204571061
 30
0.0
 10
804.896484533126
 20
224.1118580334272
 30
0.0
 10
805.3915566366297
 20
224.1078626545511
 30
0.0
 10
805.8511744064404
 20
224.2429085660876
 30
0.0
 10
806.0700934475431
 20
224.4481658907542
 30
0.0
 10
806.1588205947253
 20
224.531355990456
 30
0.0
  0
LINE
  5
3BF
330
1F
100
AcDbEntity
  8
0
  6
Continuous
 62
     7
100
AcDbLine
 10
803.7006767781
 20
225.2578887373
 30
0.0
 11
803.8577337164
 21
224.8654582908
 31
0.0
  0
SPLINE
  5
3C0
330
1F
100
AcDbEntity
  8
0
  6
Continuous
 62
     7
100
AcDbSpline
210
0.0
220
0.0
230
1.0
 70
     8
 71
     3
 72
    12
 73
     8
 74
     0
 42
0.00000001
 43
0.00000001
 40
0.0
 40
0.0
 40
0.0
 40
0.0
 40
0.2660330212263313
 40
0.3864609080745576
 40
0.590452830904787
 40
0.8147879064386044
 40
1.0
 40
1.0
 40
1.0
 40
1.0
 10
789.9984412993031
 20
232.8662575014177
 30
0.0
 10
790.1148005290793
 20
232.7075719927481
 30
0.0
 10
790.2838332807086
 20
232.4770526929409
 30
0.0
 10
790.6534832758687
 20
232.2465143300733
 30
0.0
 10
791.0353028994931
 20
232.1163487335299
 30
0.0
 10
791.4972299725797
 20
232.0950562972074
 30
0.0
 10
791.7760142651522
 20
232.2100339247227
 30
0.0
 10
791.9020906401727
 20
232.2620309807685
 30
0.0
  0
SPLINE
  5
3C1
330
1F
100
AcDbEntity
  8
0
  6
Continuous
 62
     7
100
AcDbSpline
210
0.0
220
0.0
230
1.0
 70
     8
 71
     3
 72
    13
 73
     9
 74
     0
 42
0.00000001
 43
0.00000001
 40
0.0
 40
0.0
 40
0.0
 40
0.0
 40
0.0898015661255917
 40
0.3033447211389234
 40
0.5051128267584455
 40
0.6984082159277442
 40
0.8363973566647724
 40
0.9999999999999999
 40
0.9999999999999999
 40
0.9999999999999999
 40
0.9999999999999999
 10
790.7965682670197
 20
235.0053039727674
 30
0.0
 10
790.7209883599895
 20
234.983679022337
 30
0.0
 10
790.4656836163092
 20
234.9106311364151
 30
0.0
 10
790.1276799781465
 20
234.5982994789419
 30
0.0
 10
789.8568905977794
 20
234.1362629265137
 30
0.0
 10
789.7787097807048
 20
233.6691363463073
 30
0.0
 10
789.8242703796601
 20
233.2349803273055
 30
0.0
 10
789.937187721945
 20
232.9959323758771
 30
0.0
 10
789.9984412993031
 20
232.8662575014177
 30
0.0
  0
SPLINE
  5
3C2
330
1F
100
AcDbEntity
  8
0
  6
Continuous
 62
     7
100
AcDbSpline
210
0.0
220
0.0
230
1.0
 70
     8
 71
     3
 72
    12
 73
     8
 74
     0
 42
0.00000001
 43
0.00000001
 40
0.0
 40
0.0
 40
0.0
 40
0.0
 40
0.282217222128207
 40
0.4099721701326251
 40
0.6263750102675489
 40
0.8643590101873332
 40
1.0
 40
1.0
 40
1.0
 40
1.0
 10
803.8577337163875
 20
155.4594862691127
 30
0.0
 10
803.9740829610124
 20
155.3008491477871
 30
0.0
 10
804.1431015345507
 20
155.0703996932747
 30
0.0
 10
804.5128293509312
 20
154.8395137526677
 30
0.0
 10
804.8942064630602
 20
154.7112780501889
 30
0.0
 10
805.3146399407566
 20
154.6846144763887
 30
0.0
 10
805.5550984371564
 20
154.7803749667996
 30
0.0
 10
805.6423946013769
 20
154.8151398997169
 30
0.0
  0
LINE
  5
3C3
330
1F
100
AcDbEntity
  8
0
  6
Continuous
 62
     7
100
AcDbLine
 10
803.7006767781
 20
155.851918997
 30
0.0
 11
803.8577337164
 21
155.4594862691
 31
0.0
  0
LINE
  5
3C4
330
1F
100
AcDbEntity
  8
0
  6
Continuous
 62
     7
100
AcDbLine
 10
861.7881222696
 20
300.9207013198
 30
0.0
 11
860.727461924
 21
301.533007504
 31
0.0
  0
LINE
  5
3C5
330
1F
100
AcDbEntity
  8
0
  6
Continuous
 62
     7
100
AcDbLine
 10
795.8309378696
 20
156.4662710458
 30
0.0
 11
796.8915982152
 21
155.8539648615
 31
0.0
  0
LINE
  5
3C6
330
1F
100
AcDbEntity
  8
0
  6
Continuous
 62
     7
100
AcDbLine
 10
787.0044431093
 20
268.7025484851
 30
0.0
 11
787.0044431093
 21
149.487590181
 31
0.0
  0
LINE
  5
3C7
330
1F
100
AcDbEntity
  8
0
  6
Continuous
 62
     7
100
AcDbLine
 10
861.6471641104
 20
312.6589470627
 30
0.0
 11
787.7545068646
 21
270.0016240214
 31
0.0
  0
LINE
  5
3C8
330
1F
100
AcDbEntity
  8
0
  6
Continuous
 62
     7
100
AcDbLine
 10
866.4271488355
 20
305.689509619
 30
0.0
 11
865.157713088
 21
306.4223392774
 31
0.0
  0
LINE
  5
3C9
330
1F
100
AcDbEntity
  8
0
  6
Continuous
 62
     7
100
AcDbLine
 10
891.3025171576
 20
174.6973075798
 30
0.0
 11
891.3025171576
 21
182.4606116369
 31
0.0
  0
LWPOLYLINE
  5
3CA
330
1F
100
AcDbEntity
  8
0
  6
Continuous
 62
     7
100
AcDbPolyline
 90
       17
 70
   128
 43
0.0
 10
859.8161624362
 20
160.9416278386
 10
859.9076658785
 20
161.5256608367
 10
860.1682440378
 20
162.1264279257
 10
860.5582288271
 20
162.6524689138
 10
861.0182458735
 20
163.023694379
 10
861.4782629199
 20
163.1835932903
 10
861.868245075
 20
163.107817635
 10
862.1288232343
 20
162.8079076848
 10
862.2203266766
 20
162.3295223124
 10
862.1288232343
 20
161.7454877934
 10
861.868245075
 20
161.1447222254
 10
861.4782629199
 20
160.618681237
 10
861.0182458735
 20
160.2474572928
 10
860.5582288271
 20
160.0875568605
 10
860.1682440378
 20
160.1633325161
 10
859.9076658785
 20
160.4632409453
 10
859.8161624362
 20
160.9416278386
  0
LINE
  5
3CB
330
1F
100
AcDbEntity
  8
0
  6
Continuous
 62
     7
100
AcDbLine
 10
860.1343606058
 20
160.5360309538
 30
0.0
 11
861.0182458735
 21
160.4570013215
 31
0.0
  0
LINE
  5
3CC
330
1F
100
AcDbEntity
  8
0
  6
Continuous
 62
     7
100
AcDbLine
 10
861.0182458735
 20
160.4570013215
 30
0.0
 11
861.902128507
 21
161.556541641
 31
0.0
  0
LINE
  5
3CD
330
1F
100
AcDbEntity
  8
0
  6
Continuous
 62
     7
100
AcDbLine
 10
861.902128507
 20
161.556541641
 30
0.0
 11
861.902128507
 21
162.7351176763
 31
0.0
  0
LINE
  5
3CE
330
1F
100
AcDbEntity
  8
0
  6
Continuous
 62
     7
100
AcDbLine
 10
861.902128507
 20
162.7351176763
 30
0.0
 11
861.0182458735
 21
162.8141503502
 31
0.0
  0
LINE
  5
3CF
330
1F
100
AcDbEntity
  8
0
  6
Continuous
 62
     7
100
AcDbLine
 10
860.1343606058
 20
161.7146069891
 30
0.0
 11
861.0182458735
 21
162.8141503502
 31
0.0
  0
LINE
  5
3D0
330
1F
100
AcDbEntity
  8
0
  6
Continuous
 62
     7
100
AcDbLine
 10
860.1343606058
 20
161.7146069891
 30
0.0
 11
860.1343606058
 21
160.5360309538
 31
0.0
  0
LINE
  5
3D1
330
1F
100
AcDbEntity
  8
0
  6
Continuous
 62
     7
100
AcDbLine
 10
861.0182458735
 20
160.4570013215
 30
0.0
 11
860.1343632399
 21
160.9672559048
 31
0.0
  0
LINE
  5
3D2
330
1F
100
AcDbEntity
  8
0
  6
Continuous
 62
     7
100
AcDbLine
 10
860.6079002051
 20
162.3036837364
 30
0.0
 11
861.902128507
 21
161.556541641
 31
0.0
  0
LINE
  5
3D3
330
1F
100
AcDbEntity
  8
0
  6
Continuous
 62
     7
100
AcDbLine
 10
841.2226630277
 20
134.169980778
 30
0.0
 11
841.2226630277
 21
147.7451772344
 31
0.0
  0
ARC
  5
3D4
330
1F
100
AcDbEntity
  8
0
  6
Continuous
 62
     7
100
AcDbCircle
 10
836.7987931335
 20
138.6813015811
 30
0.0
 40
6.318436533555142
100
AcDbArc
 50
259.2204850368
 51
314.4392500185999
  0
LINE
  5
3D5
330
1F
100
AcDbEntity
  8
0
  6
Continuous
 62
     7
100
AcDbLine
 10
835.6170552907
 20
132.4743590246
 30
0.0
 11
835.6170552907
 21
147.4503129173
 31
0.0
  0
LINE
  5
3D6
330
1F
100
AcDbEntity
  8
0
  6
Continuous
 62
     7
100
AcDbLine
 10
834.6625319048
 20
132.6464739916
 30
0.0
 11
834.6625319048
 21
147.491302789
 31
0.0
  0
ARC
  5
3D7
330
1F
100
AcDbEntity
  8
0
  6
Continuous
 62
     7
100
AcDbCircle
 10
835.0260178052
 20
136.1298119386
 30
0.0
 40
3.502251454751793
100
AcDbArc
 50
193.6760257279
 51
264.0427524137
  0
LWPOLYLINE
  5
3D8
330
1F
100
AcDbEntity
  8
0
  6
Continuous
 62
     7
100
AcDbPolyline
 90
        3
 70
   128
 43
0.0
 10
841.5208108219
 20
134.7210133086
 10
841.6206148884
 20
135.2115049626
 10
841.6230608874
 20
135.3017685481
  0
LINE
  5
3D9
330
1F
100
AcDbEntity
  8
0
  6
Continuous
 62
     7
100
AcDbLine
 10
841.5208108219
 20
134.7210133086
 30
0.0
 11
841.5208108219
 21
147.787250203
 31
0.0
  0
LINE
  5
3DA
330
1F
100
AcDbEntity
  8
0
  6
Continuous
 62
     7
100
AcDbLine
 10
835.15065489
 20
135.9562333928
 30
0.0
 11
835.15065489
 21
136.631055995
 31
0.0
  0
LINE
  5
3DB
330
1F
100
AcDbEntity
  8
0
  6
Continuous
 62
     7
100
AcDbLine
 10
835.5684399505
 20
136.0801581234
 30
0.0
 11
835.15065489
 21
135.9562333928
 31
0.0
  0
LINE
  5
3DC
330
1F
100
AcDbEntity
  8
0
  6
Continuous
 62
     7
100
AcDbLine
 10
835.5684399505
 20
133.5042147954
 30
0.0
 11
835.5684399505
 21
136.0801581234
 31
0.0
  0
LINE
  5
3DD
330
1F
100
AcDbEntity
  8
0
  6
Continuous
 62
     7
100
AcDbLine
 10
835.5684399505
 20
133.5042147954
 30
0.0
 11
834.962562807
 21
132.3844420376
 31
0.0
  0
LINE
  5
3DE
330
1F
100
AcDbEntity
  8
0
  6
Continuous
 62
     7
100
AcDbLine
 10
834.6625319048
 20
132.6464739916
 30
0.0
 11
834.962562807
 21
132.3844420376
 31
0.0
  0
LINE
  5
3DF
330
1F
100
AcDbEntity
  8
0
  6
Continuous
 62
     7
100
AcDbLine
 10
841.2226640155
 20
134.5213222241
 30
0.0
 11
841.5208108219
 21
134.7210133086
 31
0.0
  0
ARC
  5
3E0
330
1F
100
AcDbEntity
  8
0
  6
Continuous
 62
     7
100
AcDbCircle
 10
836.6640481746
 20
138.165691432
 30
0.0
 40
6.000043455137936
100
AcDbArc
 50
262.8485102698
 51
297.6873513313
  0
LINE
  5
3E1
330
1F
100
AcDbEntity
  8
0
  6
Continuous
 62
     7
100
AcDbLine
 10
835.9170835587
 20
132.2123255499
 30
0.0
 11
835.6170552907
 21
132.4743590246
 31
0.0
  0
ARC
  5
3E2
330
1F
100
AcDbEntity
  8
0
  6
Continuous
 62
     7
100
AcDbCircle
 10
836.254315059
 20
138.0524483859
 30
0.0
 40
2.088145958520559
100
AcDbArc
 50
238.0934478758
 51
250.8245915521
  0
ARC
  5
3E3
330
1F
100
AcDbEntity
  8
0
  6
Continuous
 62
     7
100
AcDbCircle
 10
836.0901776279
 20
136.8900471682
 30
0.0
 40
4.644565940595495
100
AcDbArc
 50
240.3736538665
 51
255.9492331928
  0
LINE
  5
3E4
330
1F
100
AcDbEntity
  8
0
  6
Continuous
 62
     7
100
AcDbLine
 10
835.6170547968
 20
135.4831082156
 30
0.0
 11
835.5684395595
 21
135.4662371418
 31
0.0
  0
LWPOLYLINE
  5
3E5
330
1F
100
AcDbEntity
  8
0
  6
Continuous
 62
     7
100
AcDbPolyline
 90
        3
 70
   128
 43
0.0
 10
834.962562807
 20
136.7937640571
 10
835.5907212482
 20
136.6636263776
 10
835.6170531504
 20
136.65962053
  0
LWPOLYLINE
  5
3E6
330
1F
100
AcDbEntity
  8
0
  6
Continuous
 62
     7
100
AcDbPolyline
 90
        3
 70
   128
 43
0.0
 10
835.1506562071
 20
136.6095484168
 10
835.2397612303
 20
136.5843865082
 10
835.6170544675
 20
136.4981032514
  0
LWPOLYLINE
  5
3E7
330
1F
100
AcDbEntity
  8
0
  6
Continuous
 62
     7
100
AcDbPolyline
 90
       17
 70
   128
 43
0.0
 10
881.1707884893
 20
171.0647300455
 10
880.7107721014
 20
170.9048330352
 10
880.3207886292
 20
170.9806064093
 10
880.0602091529
 20
171.2805171201
 10
879.9687070277
 20
171.7589017319
 10
880.0602091529
 20
172.3429354906
 10
880.3207886292
 20
172.9437033398
 10
880.7107721014
 20
173.4697435677
 10
881.1707884893
 20
173.8409686526
 10
881.6308048772
 20
174.0008671838
 10
882.0207883494
 20
173.9250922888
 10
882.2813665086
 20
173.6251823387
 10
882.3728699509
 20
173.1467954453
 10
882.2813665086
 20
172.5627639682
 10
882.0207883494
 20
171.9619953583
 10
881.6308048772
 20
171.4359566514
 10
881.1707884893
 20
171.0647300455
  0
LINE
  5
3E8
330
1F
100
AcDbEntity
  8
0
  6
Continuous
 62
     7
100
AcDbLine
 10
881.6810985798
 20
171.7267692917
 30
0.0
 11
882.1914086703
 21
173.0420400778
 31
0.0
  0
LINE
  5
3E9
330
1F
100
AcDbEntity
  8
0
  6
Continuous
 62
     7
100
AcDbLine
 10
882.1914086703
 20
173.0420400778
 30
0.0
 11
881.6810985798
 21
173.7681208956
 31
0.0
  0
LINE
  5
3EA
330
1F
100
AcDbEntity
  8
0
  6
Continuous
 62
     7
100
AcDbLine
 10
881.6810985798
 20
173.7681208956
 30
0.0
 11
880.6604777402
 21
173.1789290262
 31
0.0
  0
LINE
  5
3EB
330
1F
100
AcDbEntity
  8
0
  6
Continuous
 62
     7
100
AcDbLine
 10
880.6604777402
 20
173.1789290262
 30
0.0
 11
880.1501676497
 21
171.8636567192
 31
0.0
  0
LINE
  5
3EC
330
1F
100
AcDbEntity
  8
0
  6
Continuous
 62
     7
100
AcDbLine
 10
880.6604777402
 20
171.1375774224
 30
0.0
 11
880.1501676497
 21
171.8636567192
 31
0.0
  0
LINE
  5
3ED
330
1F
100
AcDbEntity
  8
0
  6
Continuous
 62
     7
100
AcDbLine
 10
880.6604777402
 20
171.1375774224
 30
0.0
 11
881.6810985798
 21
171.7267692917
 31
0.0
  0
LINE
  5
3EE
330
1F
100
AcDbEntity
  8
0
  6
Continuous
 62
     7
100
AcDbLine
 10
882.1914086703
 20
173.0420400778
 30
0.0
 11
881.3073824741
 21
173.5523775381
 31
0.0
  0
LINE
  5
3EF
330
1F
100
AcDbEntity
  8
0
  6
Continuous
 62
     7
100
AcDbLine
 10
881.6810985798
 20
171.7267692917
 30
0.0
 11
880.3869269127
 21
172.4738786925
 31
0.0
  0
ARC
  5
3F0
330
1F
100
AcDbEntity
  8
0
  6
Continuous
 62
     7
100
AcDbCircle
 10
836.8665759232
 20
275.3251505165
 30
0.0
 40
29.94386504995839
100
AcDbArc
 50
264.3610026267999
 51
297.6556076361
  0
LINE
  5
3F1
330
1F
100
AcDbEntity
  8
0
  6
Continuous
 62
     7
100
AcDbLine
 10
891.0702830738
 20
272.8863054422
 30
0.0
 11
884.4032002065
 21
276.7351304564
 31
0.0
  0
ARC
  5
3F2
330
1F
100
AcDbEntity
  8
0
  6
Continuous
 62
     7
100
AcDbCircle
 10
890.9153560614
 20
272.4781013274
 30
0.0
 40
0.436615366729029
100
AcDbArc
 50
290.7834277206001
 51
69.2165837147
  0
LINE
  5
3F3
330
1F
100
AcDbEntity
  8
0
  6
Continuous
 62
     7
100
AcDbLine
 10
850.7651978413
 20
248.8022667573
 30
0.0
 11
891.0702831552
 21
272.0698972436
 31
0.0
  0
LWPOLYLINE
  5
3F4
330
1F
100
AcDbEntity
  8
0
  6
Continuous
 62
     7
100
AcDbPolyline
 90
       18
 70
   128
 43
0.0
 10
874.2057866725
 20
267.2326786067
 10
874.7666808837
 20
267.0108731851
 10
875.4284957237
 20
266.9210140051
 10
876.1018482635
 20
266.9752376026
 10
876.6958014091
 20
267.1662219101
 10
877.1301365368
 20
267.4681716565
 10
877.3461937946
 20
267.8403079439
 10
877.3147943925
 20
268.232371584
 10
877.0401800155
 20
268.5914121673
 10
876.5594365978
 20
268.8689394351
 10
875.9374926765
 20
269.0274709404
 10
875.258344945
 20
269.0455974294
 10
874.6137167996
 20
268.9208698492
 10
874.0906671656
 20
268.6701338972
 10
873.7598367953
 20
268.3272520448
 10
873.6659085921
 20
267.9385338976
 10
873.8215661233
 20
267.5564763228
 10
874.2057866725
 20
267.2326786067
  0
ARC
  5
3F5
330
1F
100
AcDbEntity
  8
0
  6
Continuous
 62
     7
100
AcDbCircle
 10
836.6261012292
 20
186.3169586213
 30
0.0
 40
30.77452523708675
100
AcDbArc
 50
258.8274276798
 51
297.3510797877
  0
LINE
  5
3F6
330
1F
100
AcDbEntity
  8
0
  6
Continuous
 62
     7
100
AcDbLine
 10
850.7651978413
 20
158.9827794575
 30
0.0
 11
891.0702831552
 21
182.2504099438
 31
0.0
  0
ARC
  5
3F7
330
1F
100
AcDbEntity
  8
0
  6
Continuous
 62
     7
100
AcDbCircle
 10
890.8627190717
 20
182.7085203392
 30
0.0
 40
0.5029393434316688
100
AcDbArc
 50
294.3746849362
 51
354.3052215858
  0
ARC
  5
3F8
330
1F
100
AcDbEntity
  8
0
  6
Continuous
 62
     7
100
AcDbCircle
 10
809.0105400934
 20
139.0844261461
 30
0.0
 40
2.305525841815165
100
AcDbArc
 50
242.6095996174
 51
297.390482528
  0
ARC
  5
3F9
330
1F
100
AcDbEntity
  8
0
  6
Continuous
 62
     7
100
AcDbCircle
 10
809.0105400934
 20
258.2993844503
 30
0.0
 40
2.30552584181557
100
AcDbArc
 50
242.6095996174
 51
297.390482528
  0
LINE
  5
3FA
330
1F
100
AcDbEntity
  8
0
  6
Continuous
 62
     7
100
AcDbLine
 10
809.3640963265
 20
256.6605306636
 30
0.0
 11
810.0712025651
 21
256.2523269209
 31
0.0
  0
ARC
  5
3FB
330
1F
100
AcDbEntity
  8
0
  6
Continuous
 62
     7
100
AcDbCircle
 10
809.0105421818
 20
257.3428793791
 30
0.0
 40
0.7685052392862127
100
AcDbArc
 50
242.6094497709999
 51
297.3906118381
  0
ARC
  5
3FC
330
1F
100
AcDbEntity
  8
0
  6
Continuous
 62
     7
100
AcDbCircle
 10
807.7683794428
 20
256.1475388928
 30
0.0
 40
2.305206034887639
100
AcDbArc
 50
2.6053989482
 51
57.3945190386
  0
ARC
  5
3FD
330
1F
100
AcDbEntity
  8
0
  6
Continuous
 62
     7
100
AcDbCircle
 10
808.5964938103
 20
256.6256043035
 30
0.0
 40
0.768396690218874
100
AcDbArc
 50
2.6051943705
 51
57.3947441561
  0
ARC
  5
3FE
330
1F
100
AcDbEntity
  8
0
  6
Continuous
 62
     7
100
AcDbCircle
 10
881.6610366886
 20
298.8048619341
 30
0.0
 40
2.305206034887626
100
AcDbArc
 50
2.6053989482
 51
57.3945190386
  0
LINE
  5
3FF
330
1F
100
AcDbEntity
  8
0
  6
Continuous
 62
     7
100
AcDbLine
 10
807.9498805567
 20
256.2523254002
 30
0.0
 11
801.9394729192
 21
259.722059874
 31
0.0
  0
LINE
  5
400
330
1F
100
AcDbEntity
  8
0
  6
Continuous
 62
     7
100
AcDbLine
 10
801.9394729192
 20
259.722059874
 30
0.0
 11
802.6465811334
 21
260.1302647571
 31
0.0
  0
LINE
  5
401
330
1F
100
AcDbEntity
  8
0
  6
Continuous
 62
     7
100
AcDbLine
 10
808.6569887709
 20
256.6605302834
 30
0.0
 11
802.6465811334
 21
260.1302647571
 31
0.0
  0
LINE
  5
402
330
1F
100
AcDbEntity
  8
0
  6
Continuous
 62
     7
100
AcDbLine
 10
801.9394729192
 20
259.722059874
 30
0.0
 11
801.9394729192
 21
140.5071015698
 31
0.0
  0
LINE
  5
403
330
1F
100
AcDbEntity
  8
0
  6
Continuous
 62
     7
100
AcDbLine
 10
801.9394729192
 20
140.5071015698
 30
0.0
 11
807.9498805567
 21
137.0373670961
 31
0.0
  0
LWPOLYLINE
  5
404
330
1F
100
AcDbEntity
  8
0
  6
Continuous
 62
     7
100
AcDbPolyline
 90
       18
 70
   128
 43
0.0
 10
806.2615067813
 20
224.5653710888
 10
806.1779453858
 20
225.1298061825
 10
805.9385466764
 20
225.7144850047
 10
805.5756425544
 20
226.2404532481
 10
805.1382458533
 20
226.6366662243
 10
804.6854293325
 20
226.8496210258
 10
804.2783474107
 20
226.8505478554
 10
803.9719799933
 20
226.6393305783
 10
803.807702773
 20
226.244488534
 10
803.807702773
 20
225.7193554473
 10
803.9719799933
 20
225.1348429617
 10
804.2783474107
 20
224.5699013936
 10
804.6854293325
 20
224.1008214407
 10
805.1382458533
 20
223.7909654157
 10
805.5756425544
 20
223.6821709102
 10
805.9385466764
 20
223.789138973
 10
806.1779453858
 20
224.0974139288
 10
806.2615067813
 20
224.5653710888
  0
LWPOLYLINE
  5
405
330
1F
100
AcDbEntity
  8
0
  6
Continuous
 62
     7
100
AcDbPolyline
 90
       18
 70
   128
 43
0.0
 10
805.8285598654
 20
155.4093370434
 10
805.7449991284
 20
155.9737706163
 10
805.5056004191
 20
156.5584528605
 10
805.1426962971
 20
157.0844180621
 10
804.705299596
 20
157.480632179
 10
804.2524824166
 20
157.6935846991
 10
803.8454011534
 20
157.6945141904
 10
803.5390330774
 20
157.4832961527
 10
803.3747561864
 20
157.0884558195
 10
803.3747561864
 20
156.5633196909
 10
803.5390330774
 20
155.9788096769
 10
803.8454011534
 20
155.4138662076
 10
804.2524824166
 20
154.9447896768
 10
804.705299596
 20
154.6349309902
 10
805.1426962971
 20
154.5261372452
 10
805.5056004191
 20
154.6331030266
 10
805.7449991284
 20
154.9413810242
 10
805.8285598654
 20
155.4093370434
  0
LINE
  5
406
330
1F
100
AcDbEntity
  8
0
  6
Continuous
 62
     7
100
AcDbLine
 10
830.2237445223
 20
243.3899164302
 30
0.0
 11
830.2237445223
 21
239.3112984291
 31
0.0
  0
LINE
  5
407
330
1F
100
AcDbEntity
  8
0
  6
Continuous
 62
     7
100
AcDbLine
 10
830.2237445223
 20
239.3112984291
 30
0.0
 11
830.2202094554
 21
239.3092576784
 31
0.0
  0
LINE
  5
408
330
1F
100
AcDbEntity
  8
0
  6
Continuous
 62
     7
100
AcDbLine
 10
830.2202094554
 20
239.3092576784
 30
0.0
 11
830.2202094554
 21
239.3051755136
 31
0.0
  0
LINE
  5
409
330
1F
100
AcDbEntity
  8
0
  6
Continuous
 62
     7
100
AcDbLine
 10
830.2202094554
 20
239.3051755136
 30
0.0
 11
830.2237445223
 21
239.3072162643
 31
0.0
  0
LINE
  5
40A
330
1F
100
AcDbEntity
  8
0
  6
Continuous
 62
     7
100
AcDbLine
 10
830.2237445223
 20
148.671183456
 30
0.0
 11
810.0712025651
 21
137.0373686168
 31
0.0
  0
LINE
  5
40B
330
1F
100
AcDbEntity
  8
0
  6
Continuous
 62
     7
100
AcDbLine
 10
883.9638598108
 20
274.4134246323
 30
0.0
 11
830.2237445223
 21
243.3899164302
 31
0.0
  0
LINE
  5
40C
330
1F
100
AcDbEntity
  8
0
  6
Continuous
 62
     7
100
AcDbLine
 10
803.0001352405
 20
261.5591808987
 30
0.0
 11
809.010542878
 21
258.089446425
 31
0.0
  0
LINE
  5
40D
330
1F
100
AcDbEntity
  8
0
  6
Continuous
 62
     7
100
AcDbLine
 10
876.8927924863
 20
304.21650394
 30
0.0
 11
803.0001352405
 21
261.5591808987
 31
0.0
  0
LINE
  5
40E
330
1F
100
AcDbEntity
  8
0
  6
Continuous
 62
     7
100
AcDbLine
 10
882.9032001238
 20
300.7467694663
 30
0.0
 11
876.8927924863
 21
304.21650394
 31
0.0
  0
LINE
  5
40F
330
1F
100
AcDbEntity
  8
0
  6
Continuous
 62
     7
100
AcDbLine
 10
803.0001352405
 20
260.742638432
 30
0.0
 11
809.010542878
 21
257.2729039583
 31
0.0
  0
LINE
  5
410
330
1F
100
AcDbEntity
  8
0
  6
Continuous
 62
     7
100
AcDbLine
 10
803.0001352405
 20
261.5591808987
 30
0.0
 11
803.0001352405
 21
260.742638432
 31
0.0
  0
ARC
  5
411
330
1F
100
AcDbEntity
  8
0
  6
Continuous
 62
     7
100
AcDbCircle
 10
806.8749814122
 20
226.3245731865
 30
0.0
 40
2.361592582253548
100
AcDbArc
 50
166.6413801902
 51
241.7739989029
  0
LINE
  5
412
330
1F
100
AcDbEntity
  8
0
  6
Continuous
 62
     7
100
AcDbLine
 10
806.0992908054
 20
224.111173969
 30
0.0
 11
806.1779625079
 21
224.0974538551
 31
0.0
  0
ARC
  5
413
330
1F
100
AcDbEntity
  8
0
  6
Continuous
 62
     7
100
AcDbCircle
 10
829.991353242
 20
239.9195233286
 30
0.0
 40
0.6549241545111028
100
AcDbArc
 50
290.7834509045
 51
69.2163026057
  0
ARC
  5
414
330
1F
100
AcDbEntity
  8
0
  6
Continuous
 62
     7
100
AcDbCircle
 10
829.9124065656
 20
149.3583415453
 30
0.0
 40
0.7543988089396539
100
AcDbArc
 50
294.3743550458
 51
354.3055927985
  0
ARC
  5
415
330
1F
100
AcDbEntity
  8
0
  6
Continuous
 62
     7
100
AcDbCircle
 10
883.7314702612
 20
299.5219560814
 30
0.0
 40
0.6549226567247829
100
AcDbArc
 50
290.7833386862
 51
69.2165996913
  0
ARC
  5
416
330
1F
100
AcDbEntity
  8
0
  6
Continuous
 62
     7
100
AcDbCircle
 10
883.6525167357
 20
275.1005890573
 30
0.0
 40
0.7544066923112602
100
AcDbArc
 50
294.3745105515
 51
354.3052704863
  0
LINE
  5
417
330
1F
100
AcDbEntity
  8
0
  6
Continuous
 62
     7
100
AcDbLine
 10
882.9223216221
 20
300.7355295287
 30
0.0
 11
883.9638604694
 21
300.1342619505
 31
0.0
  0
LWPOLYLINE
  5
418
330
1F
100
AcDbEntity
  8
0
  6
Continuous
 62
     7
100
AcDbPolyline
 90
        3
 70
   128
 43
0.0
 10
804.1443401888
 20
157.7141735908
 10
804.0818644006
 20
157.4966607027
 10
804.0609750395
 20
157.2217538789
  0
LWPOLYLINE
  5
419
330
1F
100
AcDbEntity
  8
0
  6
Continuous
 62
     7
100
AcDbPolyline
 90
       15
 70
   128
 43
0.0
 10
838.5174296897
 20
248.1777579142
 10
839.3354848728
 20
248.2333687508
 10
841.4292428422
 20
248.4686983276
 10
843.4666531094
 20
248.8333327272
 10
845.4238289478
 20
249.3229958015
 10
847.2778240328
 20
249.9319469885
 10
849.0069024442
 20
250.6530474627
 10
850.5907889138
 20
251.4778407302
 10
852.0109190719
 20
252.3966605974
 10
853.2506396448
 20
253.3987315358
 10
854.2954165555
 20
254.4723070635
 10
855.133000876
 20
255.6047990028
 10
855.7535737076
 20
256.7829310692
 10
856.1498607678
 20
257.9928916993
 10
856.2317685581
 20
258.4040280706
  0
LWPOLYLINE
  5
41A
330
1F
100
AcDbEntity
  8
0
  6
Continuous
 62
     7
100
AcDbPolyline
 90
       15
 70
   128
 43
0.0
 10
837.7326033454
 20
247.7246893185
 10
839.3767927356
 20
247.8168736161
 10
841.5024347959
 20
248.0557859117
 10
843.5708690948
 20
248.4259715487
 10
845.5578532919
 20
248.9230920308
 10
847.44008018
 20
249.5413170763
 10
849.1954885179
 20
250.2733976104
 10
850.8034974728
 20
251.1107524435
 10
852.2452529154
 20
252.0435633143
 10
853.5038513253
 20
253.0608950229
 10
854.5645386712
 20
254.1508178456
 10
855.4148789988
 20
255.3005565614
 10
856.0449019441
 20
256.4966303544
 10
856.447221272
 20
257.7250155265
 10
856.5922617487
 20
258.6121383688
  0
LWPOLYLINE
  5
41B
330
1F
100
AcDbEntity
  8
0
  6
Continuous
 62
     7
100
AcDbPolyline
 90
       18
 70
   128
 43
0.0
 10
833.9242839197
 20
245.5261912747
 10
835.0539518272
 20
245.4561818927
 10
837.218862238
 20
245.4257162373
 10
839.3767927356
 20
245.530557143
 10
841.5024347959
 20
245.7694694386
 10
843.5708690948
 20
246.1396550755
 10
845.5578532919
 20
246.6367755576
 10
847.44008018
 20
247.2550006032
 10
849.1954885179
 20
247.9870811372
 10
850.8034974728
 20
248.8244359704
 10
852.2452529154
 20
249.7572468412
 10
853.5038513253
 20
250.7745785498
 10
854.5645386712
 20
251.8645013725
 10
855.4148789988
 20
253.0142400882
 10
856.0449019441
 20
254.2103138812
 10
856.447221272
 20
255.4386990533
 10
856.6171218038
 20
256.6849947781
 10
856.6230612167
 20
256.9663465525
  0
SPLINE
  5
41C
330
1F
100
AcDbEntity
  8
0
  6
Continuous
 62
     7
100
AcDbSpline
210
0.0
220
0.0
230
1.0
 70
     8
 71
     3
 72
    11
 73
     7
 74
     0
 42
0.00000001
 43
0.00000001
 40
0.0
 40
0.0
 40
0.0
 40
0.0
 40
0.3640270272863313
 40
0.6235100905339317
 40
0.9538981306375017
 40
1.0
 40
1.0
 40
1.0
 40
1.0
 10
791.1701783471001
 20
163.3474217571677
 30
0.0
 10
791.2727361731426
 20
163.4061173738637
 30
0.0
 10
791.4483985130446
 20
163.5066519675529
 30
0.0
 10
791.7006212509161
 20
163.7125387608021
 30
0.0
 10
791.8629335177607
 20
163.8641604250953
 30
0.0
 10
791.9337109362709
 20
163.9679834945999
 30
0.0
 10
791.942377758993
 20
163.9806968169673
 30
0.0
  0
SPLINE
  5
41D
330
1F
100
AcDbEntity
  8
0
  6
Continuous
 62
     7
100
AcDbSpline
210
0.0
220
0.0
230
1.0
 70
     8
 71
     3
 72
    11
 73
     7
 74
     0
 42
0.00000001
 43
0.00000001
 40
0.0
 40
0.0
 40
0.0
 40
0.0
 40
0.1280104588399039
 40
0.4299995217305057
 40
0.6672429489343876
 40
1.0
 40
1.0
 40
1.0
 40
1.0
 10
791.996092600331
 20
163.0258972325031
 30
0.0
 10
791.9702903534929
 20
163.0285389027243
 30
0.0
 10
791.8836181088928
 20
163.037412528692
 30
0.0
 10
791.7014726716142
 20
163.089907553992
 30
0.0
 10
791.4480981538954
 20
163.1880629546453
 30
0.0
 10
791.272619780527
 20
163.2886819920973
 30
0.0
 10
791.1701783471001
 20
163.3474217571677
 30
0.0
  0
LINE
  5
41E
330
1F
100
AcDbEntity
  8
0
  6
Continuous
 62
     7
100
AcDbLine
 10
795.3987341212
 20
168.3745697883
 30
0.0
 11
795.3987341212
 21
161.0255697166
 31
0.0
  0
LINE
  5
41F
330
1F
100
AcDbEntity
  8
0
  6
Continuous
 62
     7
100
AcDbLine
 10
795.3987341212
 20
161.0255697166
 30
0.0
 11
794.1613000147
 21
160.8341603794
 31
0.0
  0
LINE
  5
420
330
1F
100
AcDbEntity
  8
0
  6
Continuous
 62
     7
100
AcDbLine
 10
806.2528304574
 20
224.6197143933
 30
0.0
 11
806.160630275
 21
224.5291735982
 31
0.0
  0
SPLINE
  5
421
330
1F
100
AcDbEntity
  8
0
  6
Continuous
 62
     7
100
AcDbSpline
210
0.0
220
0.0
230
1.0
 70
     8
 71
     3
 72
     9
 73
     5
 74
     0
 42
0.00000001
 43
0.00000001
 40
0.0
 40
0.0
 40
0.0
 40
0.0
 40
0.3719836878873653
 40
1.0
 40
1.0
 40
1.0
 40
1.0
 10
803.7417818092337
 20
226.0950690672493
 30
0.0
 10
803.7192663460479
 20
226.0281179854341
 30
0.0
 10
803.6587382532346
 20
225.8481340667966
 30
0.0
 10
803.6608807911724
 20
225.660024100894
 30
0.0
 10
803.6622263399468
 20
225.5418879738362
 30
0.0
  0
SPLINE
  5
422
330
1F
100
AcDbEntity
  8
0
  6
Continuous
 62
     7
100
AcDbSpline
210
0.0
220
0.0
230
1.0
 70
     8
 71
     3
 72
    11
 73
     7
 74
     0
 42
0.00000001
 43
0.00000001
 40
0.0
 40
0.0
 40
0.0
 40
0.0
 40
0.364025710252718
 40
0.6235098478573239
 40
0.9538965734930104
 40
1.0
 40
1.0
 40
1.0
 40
1.0
 10
791.1701783471001
 20
232.7533937788895
 30
0.0
 10
791.2727365465763
 20
232.8120879794475
 30
0.0
 10
791.4484000932733
 20
232.9126204721517
 30
0.0
 10
791.7006192289263
 20
233.1185095468918
 30
0.0
 10
791.8629361806959
 20
233.2701255305142
 30
0.0
 10
791.9337109709686
 20
233.373951676522
 30
0.0
 10
791.942377758993
 20
233.3866657968375
 30
0.0
  0
SPLINE
  5
423
330
1F
100
AcDbEntity
  8
0
  6
Continuous
 62
     7
100
AcDbSpline
210
0.0
220
0.0
230
1.0
 70
     8
 71
     3
 72
    11
 73
     7
 74
     0
 42
0.00000001
 43
0.00000001
 40
0.0
 40
0.0
 40
0.0
 40
0.0
 40
0.1280097660181607
 40
0.4299977804548853
 40
0.6672431154822829
 40
1.0
 40
1.0
 40
1.0
 40
1.0
 10
791.996092600331
 20
232.4318662123733
 30
0.0
 10
791.9702903663677
 20
232.4345076424432
 30
0.0
 10
791.8836180469023
 20
232.4433804738105
 30
0.0
 10
791.7014709042344
 20
232.495873896813
 30
0.0
 10
791.4480996670312
 20
232.5940352786845
 30
0.0
 10
791.2726201083021
 20
232.6946542571156
 30
0.0
 10
791.1701783471001
 20
232.7533937788895
 30
0.0
  0
LINE
  5
424
330
1F
100
AcDbEntity
  8
0
  6
Continuous
 62
     7
100
AcDbLine
 10
795.3987341212
 20
237.7805372472
 30
0.0
 11
795.3987341212
 21
230.431539457
 31
0.0
  0
LINE
  5
425
330
1F
100
AcDbEntity
  8
0
  6
Continuous
 62
     7
100
AcDbLine
 10
795.3987341212
 20
230.431539457
 30
0.0
 11
794.1613000147
 21
230.2401301197
 31
0.0
  0
SPLINE
  5
426
330
1F
100
AcDbEntity
  8
0
  6
Continuous
 62
     7
100
AcDbSpline
210
0.0
220
0.0
230
1.0
 70
     8
 71
     3
 72
    13
 73
     9
 74
     0
 42
0.00000001
 43
0.00000001
 40
0.0
 40
0.0
 40
0.0
 40
0.0
 40
0.1167723411408347
 40
0.3088037406785127
 40
0.4708653875466048
 40
0.6541160955845634
 40
0.7980788568412093
 40
1.0
 40
1.0
 40
1.0
 40
1.0
 10
804.5653490098381
 20
157.5641096669526
 30
0.0
 10
804.5010264139578
 20
157.5343042703624
 30
0.0
 10
804.3309257032594
 20
157.4554840816985
 30
0.0
 10
804.1032237173172
 20
157.2658156263933
 30
0.0
 10
803.8911305536759
 20
157.0148314908385
 30
0.0
 10
803.7535994202476
 20
156.7545706151076
 30
0.0
 10
803.6627133777598
 20
156.4554337345223
 30
0.0
 10
803.6624058622648
 20
156.2536903248937
 30
0.0
 10
803.6622263399468
 20
156.1359159521145
 30
0.0
  0
LINE
  5
427
330
1F
100
AcDbEntity
  8
0
  6
Continuous
 62
     7
100
AcDbLine
 10
865.7428410786
 20
298.8028486193
 30
0.0
 11
865.7428410786
 21
298.0812849259
 31
0.0
  0
SPLINE
  5
428
330
1F
100
AcDbEntity
  8
0
  6
Continuous
 62
     7
100
AcDbSpline
210
0.0
220
0.0
230
1.0
 70
     8
 71
     3
 72
     9
 73
     5
 74
     0
 42
0.00000001
 43
0.00000001
 40
0.0
 40
0.0
 40
0.0
 40
0.0
 40
0.6625434981016015
 40
0.9999999999999999
 40
0.9999999999999999
 40
0.9999999999999999
 40
0.9999999999999999
 10
866.0440185067553
 20
297.9536360748005
 30
0.0
 10
865.9777963698243
 20
297.9909413032721
 30
0.0
 10
865.877844989846
 20
298.0472473851798
 30
0.0
 10
865.7769042032926
 20
298.0726968414505
 30
0.0
 10
865.7428410785635
 20
298.0812849259388
 30
0.0
  0
SPLINE
  5
429
330
1F
100
AcDbEntity
  8
0
  6
Continuous
 62
     7
100
AcDbSpline
210
0.0
220
0.0
230
1.0
 70
     8
 71
     3
 72
     9
 73
     5
 74
     0
 42
0.00000001
 43
0.00000001
 40
0.0
 40
0.0
 40
0.0
 40
0.0
 40
0.674683480946875
 40
1.0
 40
1.0
 40
1.0
 40
1.0
 10
866.2508357265763
 20
298.5241544214058
 30
0.0
 10
866.130921676617
 20
298.4429397825371
 30
0.0
 10
865.9531878898183
 20
298.3225653533978
 30
0.0
 10
865.794473493498
 20
298.1405104072848
 30
0.0
 10
865.7428410785635
 20
298.0812849259388
 30
0.0
  0
LINE
  5
42A
330
1F
100
AcDbEntity
  8
0
  6
Continuous
 62
     7
100
AcDbLine
 10
866.2508357266
 20
298.7148359286
 30
0.0
 11
866.2508357266
 21
298.5241544214
 31
0.0
  0
LINE
  5
42B
330
1F
100
AcDbEntity
  8
0
  6
Continuous
 62
     7
100
AcDbLine
 10
862.9233107558
 20
296.1520939911
 30
0.0
 11
862.9274339029
 21
296.3612045493
 31
0.0
  0
LINE
  5
42C
330
1F
100
AcDbEntity
  8
0
  6
Continuous
 62
     7
100
AcDbLine
 10
801.7626991584
 20
157.3508729121
 30
0.0
 11
801.9394735778
 21
157.4575644777
 31
0.0
  0
LINE
  5
42D
330
1F
100
AcDbEntity
  8
0
  6
Continuous
 62
     7
100
AcDbLine
 10
801.7626991584
 20
157.3508729121
 30
0.0
 11
799.6413745159
 21
156.1262582626
 31
0.0
  0
ARC
  5
42E
330
1F
100
AcDbEntity
  8
0
  6
Continuous
 62
     7
100
AcDbCircle
 10
798.1231979734
 20
157.9875112941
 30
0.0
 40
2.401899844154783
100
AcDbArc
 50
170.7859347187
 51
309.2032463129
  0
LINE
  5
42F
330
1F
100
AcDbEntity
  8
0
  6
Continuous
 62
     7
100
AcDbLine
 10
795.7522898746
 20
158.372111929
 30
0.0
 11
798.580717463
 21
160.0049284203
 31
0.0
  0
LINE
  5
430
330
1F
100
AcDbEntity
  8
0
  6
Continuous
 62
     7
100
AcDbLine
 10
798.580717463
 20
160.0049284203
 30
0.0
 11
798.580717463
 21
169.8034184382
 31
0.0
  0
LINE
  5
431
330
1F
100
AcDbEntity
  8
0
  6
Continuous
 62
     7
100
AcDbLine
 10
798.580717463
 20
169.8034184382
 30
0.0
 11
795.7522898746
 21
168.1706019469
 31
0.0
  0
LINE
  5
432
330
1F
100
AcDbEntity
  8
0
  6
Continuous
 62
     7
100
AcDbLine
 10
795.7522898746
 20
168.1706019469
 30
0.0
 11
795.7522898746
 21
227.7780801484
 31
0.0
  0
LINE
  5
433
330
1F
100
AcDbEntity
  8
0
  6
Continuous
 62
     7
100
AcDbLine
 10
795.7522898746
 20
227.7780801484
 30
0.0
 11
798.580717463
 21
229.4108966397
 31
0.0
  0
LINE
  5
434
330
1F
100
AcDbEntity
  8
0
  6
Continuous
 62
     7
100
AcDbLine
 10
798.580717463
 20
229.4108966397
 30
0.0
 11
798.580717463
 21
239.2093879884
 31
0.0
  0
LINE
  5
435
330
1F
100
AcDbEntity
  8
0
  6
Continuous
 62
     7
100
AcDbLine
 10
798.580717463
 20
239.2093879884
 30
0.0
 11
795.7522898746
 21
237.5765714971
 31
0.0
  0
LINE
  5
436
330
1F
100
AcDbEntity
  8
0
  6
Continuous
 62
     7
100
AcDbLine
 10
795.7522898746
 20
237.5765714971
 30
0.0
 11
795.7522898746
 21
259.6231755108
 31
0.0
  0
ARC
  5
437
330
1F
100
AcDbEntity
  8
0
  6
Continuous
 62
     7
100
AcDbCircle
 10
804.1959746262
 20
259.2389399548
 30
0.0
 40
8.452422679085043
100
AcDbArc
 50
122.6054853949
 51
177.3945144595
  0
LINE
  5
438
330
1F
100
AcDbEntity
  8
0
  6
Continuous
 62
     7
100
AcDbLine
 10
799.6413745159
 20
266.3592676847
 30
0.0
 11
859.0383459689
 21
300.6484094396
 31
0.0
  0
ARC
  5
439
330
1F
100
AcDbEntity
  8
0
  6
Continuous
 62
     7
100
AcDbCircle
 10
860.5565249527
 20
298.787158006
 30
0.0
 40
2.401900149036828
100
AcDbArc
 50
350.786016731
 51
129.2033155313
  0
LINE
  5
43A
330
1F
100
AcDbEntity
  8
0
  6
Continuous
 62
     7
100
AcDbLine
 10
862.9274339029
 20
298.402560716
 30
0.0
 11
862.9274339029
 21
296.3612045493
 31
0.0
  0
ARC
  5
43B
330
1F
100
AcDbEntity
  8
0
  6
Continuous
 62
     7
100
AcDbCircle
 10
803.1353142805
 20
259.851246139
 30
0.0
 40
8.452422679085178
100
AcDbArc
 50
122.6054853949
 51
177.3945144595
  0
LINE
  5
43C
330
1F
100
AcDbEntity
  8
0
  6
Continuous
 62
     7
100
AcDbLine
 10
795.7522898746
 20
237.5765714971
 30
0.0
 11
794.691629529
 21
238.1888776813
 31
0.0
  0
LINE
  5
43D
330
1F
100
AcDbEntity
  8
0
  6
Continuous
 62
     7
100
AcDbLine
 10
794.691629529
 20
238.1888776813
 30
0.0
 11
794.691629529
 21
260.2354816951
 31
0.0
  0
LINE
  5
43E
330
1F
100
AcDbEntity
  8
0
  6
Continuous
 62
     7
100
AcDbLine
 10
798.5807141703
 20
266.9715738689
 30
0.0
 11
857.9776856233
 21
301.2607156239
 31
0.0
  0
LINE
  5
43F
330
1F
100
AcDbEntity
  8
0
  6
Continuous
 62
     7
100
AcDbLine
 10
798.580717463
 20
229.4108966397
 30
0.0
 11
797.5200571173
 21
230.0232028239
 31
0.0
  0
LINE
  5
440
330
1F
100
AcDbEntity
  8
0
  6
Continuous
 62
     7
100
AcDbLine
 10
797.5200571173
 20
230.0232028239
 30
0.0
 11
797.5200571173
 21
238.5970812349
 31
0.0
  0
LINE
  5
441
330
1F
100
AcDbEntity
  8
0
  6
Continuous
 62
     7
100
AcDbLine
 10
795.7522898746
 20
227.7780801484
 30
0.0
 11
794.691629529
 21
228.3903863326
 31
0.0
  0
LINE
  5
442
330
1F
100
AcDbEntity
  8
0
  6
Continuous
 62
     7
100
AcDbLine
 10
794.691629529
 20
228.3903863326
 30
0.0
 11
797.5200571173
 21
230.0232028239
 31
0.0
  0
LINE
  5
443
330
1F
100
AcDbEntity
  8
0
  6
Continuous
 62
     7
100
AcDbLine
 10
795.7522898746
 20
168.1706019469
 30
0.0
 11
794.691629529
 21
168.7829081311
 31
0.0
  0
LINE
  5
444
330
1F
100
AcDbEntity
  8
0
  6
Continuous
 62
     7
100
AcDbLine
 10
794.691629529
 20
168.7829081311
 30
0.0
 11
794.691629529
 21
228.3903863326
 31
0.0
  0
ARC
  5
445
330
1F
100
AcDbEntity
  8
0
  6
Continuous
 62
     7
100
AcDbCircle
 10
859.5887423409
 20
299.0118814134
 30
0.0
 40
2.766362061213445
100
AcDbArc
 50
65.6926852223
 51
125.617675137
  0
LINE
  5
446
330
1F
100
AcDbEntity
  8
0
  6
Continuous
 62
     7
100
AcDbLine
 10
798.580717463
 20
160.0049284203
 30
0.0
 11
797.5200571173
 21
160.6172346045
 31
0.0
  0
LINE
  5
447
330
1F
100
AcDbEntity
  8
0
  6
Continuous
 62
     7
100
AcDbLine
 10
797.5200571173
 20
160.6172346045
 30
0.0
 11
797.5200571173
 21
169.191112255
 31
0.0
  0
LINE
  5
448
330
1F
100
AcDbEntity
  8
0
  6
Continuous
 62
     7
100
AcDbLine
 10
795.7522898746
 20
158.372111929
 30
0.0
 11
794.691629529
 21
158.9844181132
 31
0.0
  0
LINE
  5
449
330
1F
100
AcDbEntity
  8
0
  6
Continuous
 62
     7
100
AcDbLine
 10
794.691629529
 20
158.9844181132
 30
0.0
 11
797.5200571173
 21
160.6172346045
 31
0.0
  0
ARC
  5
44A
330
1F
100
AcDbEntity
  8
0
  6
Continuous
 62
     7
100
AcDbCircle
 10
797.3931209355
 20
158.6898712251
 30
0.0
 40
2.717501368735489
100
AcDbArc
 50
173.7775509993
 51
234.9101655956
  0
LWPOLYLINE
  5
44B
330
1F
100
AcDbEntity
  8
0
  6
Continuous
 62
     7
100
AcDbPolyline
 90
       18
 70
   128
 43
0.0
 10
792.0399780063
 20
232.7752848976
 10
791.9564166108
 20
233.3397199913
 10
791.7170179015
 20
233.9243988135
 10
791.354114438
 20
234.4503666767
 10
790.9167170783
 20
234.8465800331
 10
790.4639005575
 20
235.0595348347
 10
790.0568186358
 20
235.0604616643
 10
789.7504512183
 20
234.8492443871
 10
789.5861739981
 20
234.4544023429
 10
789.5861739981
 20
233.9292692561
 10
789.7504512183
 20
233.3447567706
 10
790.0568186358
 20
232.7798152025
 10
790.4639005575
 20
232.3107352496
 10
790.9167170783
 20
232.0008792246
 10
791.354114438
 20
231.8920843389
 10
791.7170179015
 20
231.9990527819
 10
791.9564166108
 20
232.3073277376
 10
792.0399780063
 20
232.7752848976
  0
LWPOLYLINE
  5
44C
330
1F
100
AcDbEntity
  8
0
  6
Continuous
 62
     7
100
AcDbPolyline
 90
       18
 70
   128
 43
0.0
 10
792.0399780063
 20
163.3693159178
 10
791.9564166108
 20
163.9337498708
 10
791.7170179015
 20
164.518432115
 10
791.354114438
 20
165.0443969364
 10
790.9167170783
 20
165.4406114335
 10
790.4639005575
 20
165.6535635734
 10
790.0568186358
 20
165.6544934449
 10
789.7504512183
 20
165.443275027
 10
789.5861739981
 20
165.0484348839
 10
789.5861739981
 20
164.5232987553
 10
789.7504512183
 20
163.9387885512
 10
790.0568186358
 20
163.3738454621
 10
790.4639005575
 20
162.9047685511
 10
790.9167170783
 20
162.5949102447
 10
791.354114438
 20
162.4861161195
 10
791.7170179015
 20
162.5930822811
 10
791.9564166108
 20
162.9013602787
 10
792.0399780063
 20
163.3693159178
  0
LINE
  5
44D
330
1F
100
AcDbEntity
  8
0
  6
Continuous
 62
     7
100
AcDbLine
 10
787.4437838338
 20
268.0902430612
 30
0.0
 11
793.4541914713
 21
264.6205085875
 31
0.0
  0
LINE
  5
44E
330
1F
100
AcDbEntity
  8
0
  6
Continuous
 62
     7
100
AcDbLine
 10
793.4541914713
 20
264.6205085875
 30
0.0
 11
793.4541914713
 21
145.4055502833
 31
0.0
  0
LINE
  5
44F
330
1F
100
AcDbEntity
  8
0
  6
Continuous
 62
     7
100
AcDbLine
 10
793.4541914713
 20
145.4055502833
 30
0.0
 11
787.4437838338
 21
148.8752847571
 31
0.0
  0
LINE
  5
450
330
1F
100
AcDbEntity
  8
0
  6
Continuous
 62
     7
100
AcDbLine
 10
793.4541914713
 20
264.6205085875
 30
0.0
 11
794.1612996854
 21
265.0287134706
 31
0.0
  0
LINE
  5
451
330
1F
100
AcDbEntity
  8
0
  6
Continuous
 62
     7
100
AcDbLine
 10
788.150892048
 20
268.4984479444
 30
0.0
 11
794.1612996854
 21
265.0287134706
 31
0.0
  0
LINE
  5
452
330
1F
100
AcDbEntity
  8
0
  6
Continuous
 62
     7
100
AcDbLine
 10
793.4541914713
 20
145.4055502833
 30
0.0
 11
794.1612996854
 21
145.8137551665
 31
0.0
  0
LINE
  5
453
330
1F
100
AcDbEntity
  8
0
  6
Continuous
 62
     7
100
AcDbLine
 10
794.1612996854
 20
265.0287134706
 30
0.0
 11
794.1612996854
 21
145.8137551665
 31
0.0
  0
LINE
  5
454
330
1F
100
AcDbEntity
  8
0
  6
Continuous
 62
     7
100
AcDbLine
 10
794.5148537925
 20
266.4576296122
 30
0.0
 11
794.5148537925
 21
265.6410871455
 31
0.0
  0
LINE
  5
455
330
1F
100
AcDbEntity
  8
0
  6
Continuous
 62
     7
100
AcDbLine
 10
794.5148537925
 20
265.6410871455
 30
0.0
 11
788.5044461551
 21
269.1108216193
 31
0.0
  0
LINE
  5
456
330
1F
100
AcDbEntity
  8
0
  6
Continuous
 62
     7
100
AcDbLine
 10
794.5148537925
 20
266.4576296122
 30
0.0
 11
788.5044461551
 21
269.9273640859
 31
0.0
  0
LINE
  5
457
330
1F
100
AcDbEntity
  8
0
  6
Continuous
 62
     7
100
AcDbLine
 10
868.4075110383
 20
309.1149526535
 30
0.0
 11
794.5148537925
 21
266.4576296122
 31
0.0
  0
LINE
  5
458
330
1F
100
AcDbEntity
  8
0
  6
Continuous
 62
     7
100
AcDbLine
 10
862.3971034009
 20
312.5846871273
 30
0.0
 11
868.4075110383
 21
309.1149526535
 31
0.0
  0
LINE
  5
459
330
1F
100
AcDbEntity
  8
0
  6
Continuous
 62
     7
100
AcDbLine
 10
868.4075110383
 20
309.1149526535
 30
0.0
 11
868.4075110383
 21
308.2984101869
 31
0.0
  0
LINE
  5
45A
330
1F
100
AcDbEntity
  8
0
  6
Continuous
 62
     7
100
AcDbLine
 10
868.4075110383
 20
308.2984101869
 30
0.0
 11
794.5148537925
 21
265.6410871455
 31
0.0
  0
ARC
  5
45B
330
1F
100
AcDbEntity
  8
0
  6
Continuous
 62
     7
100
AcDbCircle
 10
787.6761731482
 20
268.7025494408
 30
0.0
 40
0.6549228167599939
100
AcDbArc
 50
110.7831264906
 51
249.2166886422
  0
ARC
  5
45C
330
1F
100
AcDbEntity
  8
0
  6
Continuous
 62
     7
100
AcDbCircle
 10
787.7551460441
 20
149.5624633853
 30
0.0
 40
0.754427526714011
100
AcDbArc
 50
185.6956992802
 51
245.6246109115
  0
LINE
  5
45D
330
1F
100
AcDbEntity
  8
0
  6
Continuous
 62
     7
100
AcDbLine
 10
788.1508927065
 20
268.9066524473
 30
0.0
 11
787.4437858094
 21
269.3148565702
 31
0.0
  0
ARC
  5
45E
330
1F
100
AcDbEntity
  8
0
  6
Continuous
 62
     7
100
AcDbCircle
 10
788.2283540469
 20
268.7025500709
 30
0.0
 40
0.2183072132035137
100
AcDbArc
 50
110.7828551452
 51
249.2169599875
  0
ARC
  5
45F
330
1F
100
AcDbEntity
  8
0
  6
Continuous
 62
     7
100
AcDbCircle
 10
788.0903976888
 20
269.4197488885
 30
0.0
 40
0.6550643640290109
100
AcDbArc
 50
50.79677270649999
 51
189.2141638855
  0
ARC
  5
460
330
1F
100
AcDbEntity
  8
0
  6
Continuous
 62
     7
100
AcDbCircle
 10
788.3664291053
 20
268.9416181022
 30
0.0
 40
0.2183541531708888
100
AcDbArc
 50
50.79633397480001
 51
189.2146026172
  0
ARC
  5
461
330
1F
100
AcDbEntity
  8
0
  6
Continuous
 62
     7
100
AcDbCircle
 10
861.9577244313
 20
311.9713575614
 30
0.0
 40
0.7544713614324776
100
AcDbArc
 50
54.3828261075
 51
114.3070429348
  0
LINE
  5
462
330
1F
100
AcDbEntity
  8
0
  6
Continuous
 62
     7
100
AcDbLine
 10
790.2722120807
 20
234.6122042107
 30
0.0
 11
790.3557576712
 21
235.0801218251
 31
0.0
  0
LINE
  5
463
330
1F
100
AcDbEntity
  8
0
  6
Continuous
 62
     7
100
AcDbLine
 10
869.4681713839
 20
308.5024451378
 30
0.0
 11
868.7610644868
 21
308.094241015
 31
0.0
  0
LINE
  5
464
330
1F
100
AcDbEntity
  8
0
  6
Continuous
 62
     7
100
AcDbLine
 10
868.7610644868
 20
308.094241015
 30
0.0
 11
868.4074537449
 21
308.2983761511
 31
0.0
  0
LINE
  5
465
330
1F
100
AcDbEntity
  8
0
  6
Continuous
 62
     7
100
AcDbLine
 10
869.4681713839
 20
308.5024451378
 30
0.0
 11
868.4075113676
 21
309.1147511319
 31
0.0
  0
LINE
  5
466
330
1F
100
AcDbEntity
  8
0
  6
Continuous
 62
     7
100
AcDbLine
 10
868.7610644868
 20
299.5221572964
 30
0.0
 11
868.7610644868
 21
308.094241015
 31
0.0
  0
ARC
  5
467
330
1F
100
AcDbEntity
  8
0
  6
Continuous
 62
     7
100
AcDbCircle
 10
864.9655464917
 20
296.8944316338
 30
0.0
 40
2.226761221309304
100
AcDbArc
 50
39.7742717645
 51
60.14453138820001
  0
LINE
  5
468
330
1F
100
AcDbEntity
  8
0
  6
Continuous
 62
     7
100
AcDbLine
 10
869.4681713839
 20
299.9303614193
 30
0.0
 11
869.4681713839
 21
308.5024451378
 31
0.0
  0
LINE
  5
469
330
1F
100
AcDbEntity
  8
0
  6
Continuous
 62
     7
100
AcDbLine
 10
790.2722120807
 20
165.2062352308
 30
0.0
 11
790.3557576712
 21
165.6741528453
 31
0.0
  0
LWPOLYLINE
  5
46A
330
1F
100
AcDbEntity
  8
0
  6
Continuous
 62
     7
100
AcDbPolyline
 90
        3
 70
   128
 43
0.0
 10
804.3370247142
 20
259.9708688213
 10
803.9624445981
 20
259.3743117057
 10
803.9608535545
 20
259.3715559374
  0
LWPOLYLINE
  5
46B
330
1F
100
AcDbEntity
  8
0
  6
Continuous
 62
     7
100
AcDbPolyline
 90
        9
 70
   128
 43
0.0
 10
801.9394729192
 20
248.0088693621
 10
801.5369652476
 20
248.6113245401
 10
801.0919998945
 20
249.6259880495
 10
800.8121711621
 20
250.7972701261
 10
800.7034428297
 20
252.1001783581
 10
800.7681382421
 20
253.5069252133
 10
801.0048770902
 20
254.9875059974
 10
801.4086070205
 20
256.510331556
 10
801.9394729192
 20
257.9676541209
  0
LINE
  5
46C
330
1F
100
AcDbEntity
  8
0
  6
Continuous
 62
     7
100
AcDbLine
 10
802.9086080906
 20
259.9789996986
 30
0.0
 11
803.2620937091
 21
260.591412924
 31
0.0
  0
LWPOLYLINE
  5
46D
330
1F
100
AcDbEntity
  8
0
  6
Continuous
 62
     7
100
AcDbPolyline
 90
        9
 70
   128
 43
0.0
 10
804.5180329162
 20
262.4354449631
 10
805.5183409504
 20
263.6285995074
 10
806.6352429727
 20
264.7395857424
 10
807.7990439006
 20
265.6848110012
 10
808.9849139721
 20
266.4441070961
 10
810.1675598097
 20
267.0012785406
 10
811.3217512561
 20
267.3444431884
 10
812.4228798203
 20
267.4662816116
 10
813.149496757
 20
267.4182829757
  0
ARC
  5
46E
330
1F
100
AcDbEntity
  8
0
  6
Continuous
 62
     7
100
AcDbCircle
 10
805.095313691
 20
258.7084684173
 30
0.0
 40
11.57384757410407
100
AcDbArc
 50
132.6273588148
 51
160.8594658589
  0
LWPOLYLINE
  5
46F
330
1F
100
AcDbEntity
  8
0
  6
Continuous
 62
     7
100
AcDbPolyline
 90
        3
 70
   128
 43
0.0
 10
792.6512357259
 20
266.7169268791
 10
792.2816025961
 20
266.1176590095
 10
792.2799483323
 20
266.1147937405
  0
LWPOLYLINE
  5
470
330
1F
100
AcDbEntity
  8
0
  6
Continuous
 62
     7
100
AcDbPolyline
 90
        8
 70
   128
 43
0.0
 10
867.8771808655
 20
302.4846011838
 10
867.7820728798
 20
303.5447906264
 10
867.5004038449
 20
304.4544270629
 10
867.0429982567
 20
305.1785544204
 10
866.4274333267
 20
305.6893453323
 10
865.6773656201
 20
305.9671725031
 10
864.8216199592
 20
306.0013603216
 10
864.2509648013
 20
305.89888674
  0
LINE
  5
471
330
1F
100
AcDbEntity
  8
0
  6
Continuous
 62
     7
100
AcDbLine
 10
867.8771808655
 20
300.0349737839
 30
0.0
 11
867.8771808655
 21
302.4846011838
 31
0.0
  0
LINE
  5
472
330
1F
100
AcDbEntity
  8
0
  6
Continuous
 62
     7
100
AcDbLine
 10
865.4023073842
 20
298.6062597342
 30
0.0
 11
867.8771808655
 21
300.0349737839
 31
0.0
  0
LINE
  5
473
330
1F
100
AcDbEntity
  8
0
  6
Continuous
 62
     7
100
AcDbLine
 10
865.4023073842
 20
297.5831877137
 30
0.0
 11
865.4023073842
 21
298.6062597342
 31
0.0
  0
LINE
  5
474
330
1F
100
AcDbEntity
  8
0
  6
Continuous
 62
     7
100
AcDbLine
 10
794.1613010025
 20
146.4301533065
 30
0.0
 11
801.9394755534
 21
150.9203978972
 31
0.0
  0
LINE
  5
475
330
1F
100
AcDbEntity
  8
0
  6
Continuous
 62
     7
100
AcDbLine
 10
794.1613010025
 20
159.4948069172
 30
0.0
 11
796.105840689
 21
160.6173657839
 31
0.0
  0
LINE
  5
476
330
1F
100
AcDbEntity
  8
0
  6
Continuous
 62
     7
100
AcDbLine
 10
796.105840689
 20
160.6173657839
 30
0.0
 11
796.105840689
 21
168.3747024887
 31
0.0
  0
LINE
  5
477
330
1F
100
AcDbEntity
  8
0
  6
Continuous
 62
     7
100
AcDbLine
 10
794.1613010025
 20
167.6602150437
 30
0.0
 11
795.3988483786
 21
168.3746359371
 31
0.0
  0
LINE
  5
478
330
1F
100
AcDbEntity
  8
0
  6
Continuous
 62
     7
100
AcDbLine
 10
794.1613010025
 20
228.9007766576
 30
0.0
 11
796.105840689
 21
230.0233355242
 31
0.0
  0
LINE
  5
479
330
1F
100
AcDbEntity
  8
0
  6
Continuous
 62
     7
100
AcDbLine
 10
796.105840689
 20
230.0233355242
 30
0.0
 11
796.105840689
 21
237.7806714685
 31
0.0
  0
LINE
  5
47A
330
1F
100
AcDbEntity
  8
0
  6
Continuous
 62
     7
100
AcDbLine
 10
794.1613010025
 20
237.066183073
 30
0.0
 11
795.3988483786
 21
237.7806039664
 31
0.0
  0
LINE
  5
47B
330
1F
100
AcDbEntity
  8
0
  6
Continuous
 62
     7
100
AcDbLine
 10
796.105840689
 20
230.0233355242
 30
0.0
 11
795.3987341212
 21
230.431539457
 31
0.0
  0
LINE
  5
47C
330
1F
100
AcDbEntity
  8
0
  6
Continuous
 62
     7
100
AcDbLine
 10
796.105840689
 20
160.6173657839
 30
0.0
 11
795.3987341212
 21
161.0255697166
 31
0.0
  0
LWPOLYLINE
  5
47D
330
1F
100
AcDbEntity
  8
0
  6
Continuous
 62
     7
100
AcDbPolyline
 90
        3
 70
   128
 43
0.0
 10
807.7776757777
 20
257.1681461211
 10
807.7793300415
 20
257.17101139
 10
808.1489631713
 20
257.7702792596
  0
LWPOLYLINE
  5
47E
330
1F
100
AcDbEntity
  8
0
  6
Continuous
 62
     7
100
AcDbPolyline
 90
        3
 70
   128
 43
0.0
 10
804.6250062275
 20
258.9881435126
 10
804.6266604913
 20
258.9910087816
 10
804.9962936211
 20
259.5902766512
  0
LINE
  5
47F
330
1F
100
AcDbEntity
  8
0
  6
Continuous
 62
     7
100
AcDbLine
 10
805.6517824826
 20
226.1488047506
 30
0.0
 11
805.6517824826
 21
224.5125806265
 31
0.0
  0
ARC
  5
480
330
1F
100
AcDbEntity
  8
0
  6
Continuous
 62
     7
100
AcDbCircle
 10
836.5818782638
 20
178.2606056045
 30
0.0
 40
30.89170845376012
100
AcDbArc
 50
256.6025604895
 51
297.3310020122
  0
LINE
  5
481
330
1F
100
AcDbEntity
  8
0
  6
Continuous
 62
     7
100
AcDbLine
 10
850.7651978413
 20
158.9827794575
 30
0.0
 11
890.716729789
 21
182.0463079299
 31
0.0
  0
LWPOLYLINE
  5
482
330
1F
100
AcDbEntity
  8
0
  6
Continuous
 62
     7
100
AcDbPolyline
 90
       21
 70
   128
 43
0.0
 10
862.7860111406
 20
162.6560850024
 10
862.6994915631
 20
163.2369498864
 10
862.4483990789
 20
163.6610623086
 10
862.0573132033
 20
163.8869047726
 10
861.5645138112
 20
163.8923700721
 10
861.0182458735
 20
163.6769274397
 10
860.4719753016
 20
163.2616610155
 10
859.9791785437
 20
162.6872231696
 10
859.588092668
 20
162.0098425648
 10
859.3369975497
 20
161.2958234105
 10
859.2504779722
 20
160.6150651486
 10
859.3369975497
 20
160.0341987438
 10
859.588092668
 20
159.6100893631
 10
859.9791785437
 20
159.3842468991
 10
860.4719753016
 20
159.378780079
 10
861.0182458735
 20
159.5942227111
 10
861.5645138112
 20
160.0094891355
 10
862.0573132033
 20
160.5839285021
 10
862.4483990789
 20
161.2613091069
 10
862.6994915631
 20
161.9753252197
 10
862.7860111406
 20
162.6560850024
  0
LWPOLYLINE
  5
483
330
1F
100
AcDbEntity
  8
0
  6
Continuous
 62
     7
100
AcDbPolyline
 90
       21
 70
   128
 43
0.0
 10
882.9385550735
 20
173.4733585155
 10
882.8520348375
 20
174.0542245402
 10
882.6009416947
 20
174.4783365823
 10
882.2098558191
 20
174.7041790463
 10
881.7170584027
 20
174.7096454863
 10
881.1707884893
 20
174.4942017134
 10
880.6245185759
 20
174.0789356693
 10
880.131720501
 20
173.5044970631
 10
879.7406346253
 20
172.8271164583
 10
879.4895421411
 20
172.1130988246
 10
879.4030212466
 20
171.4323382816
 10
879.4895421411
 20
170.8514756789
 10
879.7406346253
 20
170.4273617357
 10
880.131720501
 20
170.2015192717
 10
880.6245185759
 20
170.1960532119
 10
881.1707884893
 20
170.4114985057
 10
881.7170584027
 20
170.8267630288
 10
882.2098558191
 20
171.4012012548
 10
882.6009416947
 20
172.0785818597
 10
882.8520348375
 20
172.7926013944
 10
882.9385550735
 20
173.4733585155
  0
LINE
  5
484
330
1F
100
AcDbEntity
  8
0
  6
Continuous
 62
     7
100
AcDbLine
 10
850.7651978413
 20
150.8173715211
 30
0.0
 11
890.716729789
 21
173.8808999935
 31
0.0
  0
ARC
  5
485
330
1F
100
AcDbEntity
  8
0
  6
Continuous
 62
     7
100
AcDbCircle
 10
890.3016043697
 20
174.7971204374
 30
0.0
 40
1.005877236820635
100
AcDbArc
 50
294.3745505346
 51
354.3051873086
  0
LINE
  5
486
330
1F
100
AcDbEntity
  8
0
  6
Continuous
 62
     8
100
AcDbLine
 10
850.7651978413
 20
158.9827794575
 30
0.0
 11
850.7651978413
 21
248.8022667573
 31
0.0
  0
LINE
  5
487
330
1F
100
AcDbEntity
  8
0
  6
Continuous
 62
     8
100
AcDbLine
 10
891.0702831552
 20
182.2504099438
 30
0.0
 11
891.0702831552
 21
272.0698972436
 31
0.0
  0
LINE
  5
488
330
1F
100
AcDbEntity
  8
0
  6
Continuous
 62
     8
100
AcDbLine
 10
807.9498805567
 20
137.0373670961
 30
0.0
 11
807.9498805567
 21
256.2523254002
 31
0.0
  0
LINE
  5
489
330
1F
100
AcDbEntity
  8
0
  6
Continuous
 62
     8
100
AcDbLine
 10
810.0712025651
 20
256.2523269209
 30
0.0
 11
810.0712025651
 21
137.0373686168
 31
0.0
  0
LINE
  5
48A
330
1F
100
AcDbEntity
  8
0
  6
Continuous
 62
     8
100
AcDbLine
 10
808.6569887709
 20
256.6605302834
 30
0.0
 11
807.9498805567
 21
256.2523254002
 31
0.0
  0
LINE
  5
48B
330
1F
100
AcDbEntity
  8
0
  6
Continuous
 62
     8
100
AcDbLine
 10
809.010542878
 20
257.2729039583
 30
0.0
 11
809.010542878
 21
258.089446425
 31
0.0
  0
LINE
  5
48C
330
1F
100
AcDbEntity
  8
0
  6
Continuous
 62
     8
100
AcDbLine
 10
882.9032001238
 20
300.7467694663
 30
0.0
 11
809.010542878
 21
258.089446425
 31
0.0
  0
LINE
  5
48D
330
1F
100
AcDbEntity
  8
0
  6
Continuous
 62
     8
100
AcDbLine
 10
810.0712025651
 20
256.2523269209
 30
0.0
 11
883.9638598108
 21
298.9096499622
 31
0.0
  0
LINE
  5
48E
330
1F
100
AcDbEntity
  8
0
  6
Continuous
 62
     8
100
AcDbLine
 10
830.2237445223
 20
148.671183456
 30
0.0
 11
830.2237445223
 21
239.3072162643
 31
0.0
  0
LINE
  5
48F
330
1F
100
AcDbEntity
  8
0
  6
Continuous
 62
     8
100
AcDbLine
 10
883.9638598108
 20
298.9096499622
 30
0.0
 11
883.9638598108
 21
274.4134246323
 31
0.0
  0
LINE
  5
490
330
1F
100
AcDbEntity
  8
0
  6
Continuous
 62
     8
100
AcDbLine
 10
830.2202094554
 20
239.309257015
 30
0.0
 11
830.2237445223
 21
239.3072162643
 31
0.0
  0
LINE
  5
491
330
1F
100
AcDbEntity
  8
0
  6
Continuous
 62
     8
100
AcDbLine
 10
883.6532612449
 20
299.9549568349
 30
0.0
 11
883.9638604694
 21
300.1342619505
 31
0.0
  0
LINE
  5
492
330
1F
100
AcDbEntity
  8
0
  6
Continuous
 62
     8
100
AcDbLine
 10
795.7522898746
 20
259.6231755108
 30
0.0
 11
794.691629529
 21
260.2354816951
 31
0.0
  0
LINE
  5
493
330
1F
100
AcDbEntity
  8
0
  6
Continuous
 62
     8
100
AcDbLine
 10
798.5807141703
 20
266.9715738689
 30
0.0
 11
799.6413745159
 21
266.3592676847
 31
0.0
  0
LINE
  5
494
330
1F
100
AcDbEntity
  8
0
  6
Continuous
 62
     8
100
AcDbLine
 10
859.0383459689
 20
300.6484094396
 30
0.0
 11
857.9776856233
 21
301.2607156239
 31
0.0
  0
LINE
  5
495
330
1F
100
AcDbEntity
  8
0
  6
Continuous
 62
     8
100
AcDbLine
 10
787.4437838338
 20
148.8752847571
 30
0.0
 11
787.4437838338
 21
268.0902430612
 31
0.0
  0
LINE
  5
496
330
1F
100
AcDbEntity
  8
0
  6
Continuous
 62
     8
100
AcDbLine
 10
788.150892048
 20
268.4984479444
 30
0.0
 11
787.4437838338
 21
268.0902430612
 31
0.0
  0
LINE
  5
497
330
1F
100
AcDbEntity
  8
0
  6
Continuous
 62
     8
100
AcDbLine
 10
788.5044461551
 20
269.1108216193
 30
0.0
 11
788.5044461551
 21
269.9273640859
 31
0.0
  0
LINE
  5
498
330
1F
100
AcDbEntity
  8
0
  6
Continuous
 62
     8
100
AcDbLine
 10
862.3971034009
 20
312.5846871273
 30
0.0
 11
788.5044461551
 21
269.9273640859
 31
0.0
  0
LINE
  5
499
330
1F
100
AcDbEntity
  8
0
  6
Continuous
 62
     8
100
AcDbLine
 10
788.1508927065
 20
268.4984481348
 30
0.0
 11
788.1508927065
 21
268.9066524473
 31
0.0
  0
LINE
  5
49A
330
1F
100
AcDbEntity
  8
0
  6
Continuous
 62
     8
100
AcDbLine
 10
788.1508927065
 20
268.9066524473
 30
0.0
 11
788.5045047655
 21
269.1107883439
 31
0.0
  0
LINE
  5
49B
330
1F
100
AcDbEntity
  8
0
  6
Continuous
 62
     8
100
AcDbLine
 10
850.7651978413
 20
150.8173715211
 30
0.0
 11
850.7651978413
 21
158.9827794575
 31
0.0
  0
LINE
  5
49C
330
1F
100
AcDbEntity
  8
0
  6
Continuous
 62
     8
100
AcDbLine
 10
890.716729789
 20
173.8808999935
 30
0.0
 11
890.716729789
 21
182.0463079299
 31
0.0
  0
TEXT
  5
641
330
1F
100
AcDbEntity
  8
0
  6
Continuous
 62
     7
370
     0
100
AcDbText
 10
720.75
 20
651.99
 30
0.0
 40
20.0
  1
8201
100
AcDbText
  0
INSERT
  5
667
330
1F
100
AcDbEntity
  8
0
100
AcDbBlockReference
  2
qrq360
 10
553.0232436147
 20
543.4960167290001
 30
0.0
  0
LINE
  5
669
330
1F
100
AcDbEntity
  8
0
  6
CENTER
 62
     1
100
AcDbLine
 10
585.5232435909
 20
301.7517634587
 30
0.0
 11
517.6361409327822
 21
301.7517634587
 31
0.0
  0
LINE
  5
66A
330
1F
100
AcDbEntity
  8
0
  6
CENTER
 62
     1
100
AcDbLine
 10
585.5232435909
 20
301.7517634587
 30
0.0
 11
660.8498364082998
 21
301.7517634587
 31
0.0
  0
LINE
  5
66B
330
1F
100
AcDbEntity
  8
0
  6
CENTER
 62
     1
100
AcDbLine
 10
585.5232435909
 20
301.7517634587
 30
0.0
 11
585.5232435909
 21
327.1437861840959
 31
0.0
  0
LINE
  5
66C
330
1F
100
AcDbEntity
  8
0
  6
CENTER
 62
     1
100
AcDbLine
 10
585.5232435909
 20
301.7517634587
 30
0.0
 11
585.5232435909
 21
276.6813922448317
 31
0.0
  0
ENDSEC
  0
SECTION
  2
OBJECTS
  0
DICTIONARY
  5
C
330
0
100
AcDbDictionary
281
     1
  3
ACAD_GROUP
350
D
  3
ACAD_IMAGE_VARS
350
4DA
  3
ACAD_LAYOUT
350
49D
  3
ACAD_MLINESTYLE
350
17
  3
ACAD_PLOTSETTINGS
350
61F
  3
ACAD_PLOTSTYLENAME
350
620
  3
ACAD_SCALELIST
350
4A0
  3
AcDbVariableDictionary
350
66D
  3
APPDATA
350
4D9
  3
DWGPROPS
350
673
  0
DICTIONARY
  5
D
102
{ACAD_REACTORS
330
C
102
}
330
C
100
AcDbDictionary
281
     1
  0
RASTERVARIABLES
  5
4DA
102
{ACAD_REACTORS
330
C
102
}
330
C
100
AcDbRasterVariables
 90
        0
 70
     1
 71
     1
 72
     0
  0
DICTIONARY
  5
49D
102
{ACAD_REACTORS
330
C
102
}
330
C
100
AcDbDictionary
281
     1
  3
Foglio 1
350
49F
  3
Model
350
49E
  0
DICTIONARY
  5
17
102
{ACAD_REACTORS
330
C
102
}
330
C
100
AcDbDictionary
281
     1
  3
STANDARD
350
18
  0
DICTIONARY
  5
61F
102
{ACAD_REACTORS
330
C
102
}
330
C
100
AcDbDictionary
281
     1
  0
ACDBDICTIONARYWDFLT
  5
620
102
{ACAD_REACTORS
330
C
102
}
330
C
100
AcDbDictionary
281
     1
  3
Normal
350
621
100
AcDbDictionaryWithDefault
340
621
  0
DICTIONARY
  5
4A0
102
{ACAD_REACTORS
330
C
102
}
330
C
100
AcDbDictionary
281
     1
  3
A0
350
4A1
  3
A1
350
4A2
  3
A2
350
4A3
  3
A3
350
4A4
  3
A4
350
4A5
  3
A5
350
4A6
  3
A6
350
4A7
  3
A7
350
4A8
  3
A8
350
4A9
  3
A9
350
4AA
  3
B0
350
4AB
  3
B1
350
4AC
  3
B2
350
4AD
  3
B3
350
4AE
  3
B4
350
4AF
  3
B5
350
4B0
  3
B6
350
4B1
  3
B7
350
4B2
  3
B8
350
4B3
  3
B9
350
4B4
  3
C0
350
4B5
  3
C1
350
4B6
  3
C2
350
4B7
  3
C3
350
4B8
  3
C4
350
4B9
  3
C5
350
4BA
  3
C6
350
4BB
  3
C7
350
4BC
  3
C8
350
4BD
  3
C9
350
4BE
  3
D0
350
4BF
  3
D1
350
4C0
  3
D2
350
4C1
  0
DICTIONARY
  5
66D
102
{ACAD_REACTORS
330
C
102
}
330
C
100
AcDbDictionary
281
     1
  3
CANNOSCALE
350
674
  0
DICTIONARY
  5
4D9
102
{ACAD_REACTORS
330
C
102
}
330
C
100
AcDbDictionary
281
     1
  0
XRECORD
  5
673
102
{ACAD_REACTORS
330
C
102
}
330
C
100
AcDbXrecord
280
     1
  1
DWGPROPS COOKIE
  2

  3

  4

  6

  7

  8
emilio
  9

300
=
301
=
302
=
303
=
304
=
305
=
306
=
307
=
308
=
309
=
 40
0.0
 41
2456615.362578102
 42
2456615.367833611
  1

 90
        0
  0
LAYOUT
  5
49F
102
{ACAD_REACTORS
330
49D
102
}
330
49D
100
AcDbPlotSettings
  1

  2
none_device
  4

  6

 40
0.0
 41
0.0
 42
0.0
 43
0.0
 44
0.0
 45
0.0
 46
0.0
 47
0.0
 48
0.0
 49
0.0
140
0.0
141
0.0
142
1.0
143
1.0
 70
   688
 72
     0
 73
     0
 74
     5
  7

 75
    16
147
1.0
148
0.0
149
0.0
100
AcDbLayout
  1
Foglio 1
 70
     1
 71
     1
 10
0.0
 20
0.0
 11
0.0
 21
0.0
 12
0.0
 22
0.0
 32
0.0
 14
1.000000000000000E+20
 24
1.000000000000000E+20
 34
1.000000000000000E+20
 15
-1.000000000000000E+20
 25
-1.000000000000000E+20
 35
-1.000000000000000E+20
146
0.0
 13
0.0
 23
0.0
 33
0.0
 16
1.0
 26
0.0
 36
0.0
 17
0.0
 27
1.0
 37
0.0
 76
     0
330
1B
  0
LAYOUT
  5
49E
102
{ACAD_REACTORS
330
49D
102
}
330
49D
100
AcDbPlotSettings
  1

  2
none_device
  4

  6

 40
0.0
 41
0.0
 42
0.0
 43
0.0
 44
0.0
 45
0.0
 46
0.0
 47
0.0
 48
0.0
 49
0.0
140
0.0
141
0.0
142
1.0
143
1.0
 70
  1712
 72
     0
 73
     0
 74
     0
  7

 75
     0
147
1.0
148
0.0
149
0.0
100
AcDbLayout
  1
Model
 70
     1
 71
     0
 10
0.0
 20
0.0
 11
1188.0
 21
840.0
 12
0.0
 22
0.0
 32
0.0
 14
0.0
 24
0.0
 34
0.0
 15
1188.0
 25
840.0
 35
0.0
146
0.0
 13
0.0
 23
0.0
 33
0.0
 16
1.0
 26
0.0
 36
0.0
 17
0.0
 27
1.0
 37
0.0
 76
     0
330
1F
331
29
  0
MLINESTYLE
  5
18
102
{ACAD_REACTORS
330
17
102
}
330
17
100
AcDbMlineStyle
  2
Standard
 70
     0
  3

 62
   256
 51
90.0
 52
90.0
 71
     2
 49
0.5
 62
   256
  6
BYLAYER
 49
-0.5
 62
   256
  6
BYLAYER
  0
ACDBPLACEHOLDER
  5
621
102
{ACAD_REACTORS
330
620
102
}
330
620
  0
SCALE
  5
4A1
102
{ACAD_REACTORS
330
4A0
102
}
330
4A0
100
AcDbScale
 70
     0
300
1:1
140
1.0
141
1.0
290
     1
  0
SCALE
  5
4A2
102
{ACAD_REACTORS
330
4A0
102
}
330
4A0
100
AcDbScale
 70
     0
300
1:2
140
1.0
141
2.0
290
     0
  0
SCALE
  5
4A3
102
{ACAD_REACTORS
330
4A0
102
}
330
4A0
100
AcDbScale
 70
     0
300
1:4
140
1.0
141
4.0
290
     0
  0
SCALE
  5
4A4
102
{ACAD_REACTORS
330
4A0
102
}
330
4A0
100
AcDbScale
 70
     0
300
1:5
140
1.0
141
5.0
290
     0
  0
SCALE
  5
4A5
102
{ACAD_REACTORS
330
4A0
102
}
330
4A0
100
AcDbScale
 70
     0
300
1:8
140
1.0
141
8.0
290
     0
  0
SCALE
  5
4A6
102
{ACAD_REACTORS
330
4A0
102
}
330
4A0
100
AcDbScale
 70
     0
300
1:10
140
1.0
141
10.0
290
     0
  0
SCALE
  5
4A7
102
{ACAD_REACTORS
330
4A0
102
}
330
4A0
100
AcDbScale
 70
     0
300
1:16
140
1.0
141
16.0
290
     0
  0
SCALE
  5
4A8
102
{ACAD_REACTORS
330
4A0
102
}
330
4A0
100
AcDbScale
 70
     0
300
1:20
140
1.0
141
20.0
290
     0
  0
SCALE
  5
4A9
102
{ACAD_REACTORS
330
4A0
102
}
330
4A0
100
AcDbScale
 70
     0
300
1:30
140
1.0
141
30.0
290
     0
  0
SCALE
  5
4AA
102
{ACAD_REACTORS
330
4A0
102
}
330
4A0
100
AcDbScale
 70
     0
300
1:40
140
1.0
141
40.0
290
     0
  0
SCALE
  5
4AB
102
{ACAD_REACTORS
330
4A0
102
}
330
4A0
100
AcDbScale
 70
     0
300
1:50
140
1.0
141
50.0
290
     0
  0
SCALE
  5
4AC
102
{ACAD_REACTORS
330
4A0
102
}
330
4A0
100
AcDbScale
 70
     0
300
1:100
140
1.0
141
100.0
290
     0
  0
SCALE
  5
4AD
102
{ACAD_REACTORS
330
4A0
102
}
330
4A0
100
AcDbScale
 70
     0
300
2:1
140
2.0
141
1.0
290
     0
  0
SCALE
  5
4AE
102
{ACAD_REACTORS
330
4A0
102
}
330
4A0
100
AcDbScale
 70
     0
300
4:1
140
4.0
141
1.0
290
     0
  0
SCALE
  5
4AF
102
{ACAD_REACTORS
330
4A0
102
}
330
4A0
100
AcDbScale
 70
     0
300
8:1
140
8.0
141
1.0
290
     0
  0
SCALE
  5
4B0
102
{ACAD_REACTORS
330
4A0
102
}
330
4A0
100
AcDbScale
 70
     0
300
10:1
140
10.0
141
1.0
290
     0
  0
SCALE
  5
4B1
102
{ACAD_REACTORS
330
4A0
102
}
330
4A0
100
AcDbScale
 70
     0
300
100:1
140
100.0
141
1.0
290
     0
  0
SCALE
  5
4B2
102
{ACAD_REACTORS
330
4A0
102
}
330
4A0
100
AcDbScale
 70
     0
300
1/128" = 1'-0"
140
0.0078125
141
12.0
290
     0
  0
SCALE
  5
4B3
102
{ACAD_REACTORS
330
4A0
102
}
330
4A0
100
AcDbScale
 70
     0
300
1/64" = 1'-0"
140
0.015625
141
12.0
290
     0
  0
SCALE
  5
4B4
102
{ACAD_REACTORS
330
4A0
102
}
330
4A0
100
AcDbScale
 70
     0
300
1/32" = 1'-0"
140
0.03125
141
12.0
290
     0
  0
SCALE
  5
4B5
102
{ACAD_REACTORS
330
4A0
102
}
330
4A0
100
AcDbScale
 70
     0
300
1/16" = 1'-0"
140
0.0625
141
12.0
290
     0
  0
SCALE
  5
4B6
102
{ACAD_REACTORS
330
4A0
102
}
330
4A0
100
AcDbScale
 70
     0
300
3/32" = 1'-0"
140
0.09375
141
12.0
290
     0
  0
SCALE
  5
4B7
102
{ACAD_REACTORS
330
4A0
102
}
330
4A0
100
AcDbScale
 70
     0
300
1/8" = 1'-0"
140
0.125
141
12.0
290
     0
  0
SCALE
  5
4B8
102
{ACAD_REACTORS
330
4A0
102
}
330
4A0
100
AcDbScale
 70
     0
300
3/16" = 1'-0"
140
0.1875
141
12.0
290
     0
  0
SCALE
  5
4B9
102
{ACAD_REACTORS
330
4A0
102
}
330
4A0
100
AcDbScale
 70
     0
300
1/4" = 1'-0"
140
0.25
141
12.0
290
     0
  0
SCALE
  5
4BA
102
{ACAD_REACTORS
330
4A0
102
}
330
4A0
100
AcDbScale
 70
     0
300
3/8" = 1'-0"
140
0.375
141
12.0
290
     0
  0
SCALE
  5
4BB
102
{ACAD_REACTORS
330
4A0
102
}
330
4A0
100
AcDbScale
 70
     0
300
1/2" = 1'-0"
140
0.5
141
12.0
290
     0
  0
SCALE
  5
4BC
102
{ACAD_REACTORS
330
4A0
102
}
330
4A0
100
AcDbScale
 70
     0
300
3/4" = 1'-0"
140
0.75
141
12.0
290
     0
  0
SCALE
  5
4BD
102
{ACAD_REACTORS
330
4A0
102
}
330
4A0
100
AcDbScale
 70
     0
300
1" = 1'-0"
140
1.0
141
12.0
290
     0
  0
SCALE
  5
4BE
102
{ACAD_REACTORS
330
4A0
102
}
330
4A0
100
AcDbScale
 70
     0
300
1-1/2" = 1'-0"
140
1.5
141
12.0
290
     0
  0
SCALE
  5
4BF
102
{ACAD_REACTORS
330
4A0
102
}
330
4A0
100
AcDbScale
 70
     0
300
3" = 1'-0"
140
3.0
141
12.0
290
     0
  0
SCALE
  5
4C0
102
{ACAD_REACTORS
330
4A0
102
}
330
4A0
100
AcDbScale
 70
     0
300
6" = 1'-0"
140
6.0
141
12.0
290
     0
  0
SCALE
  5
4C1
102
{ACAD_REACTORS
330
4A0
102
}
330
4A0
100
AcDbScale
 70
     0
300
1'-0" = 1'-0"
140
12.0
141
12.0
290
     0
  0
DICTIONARYVAR
  5
674
102
{ACAD_REACTORS
330
66D
102
}
330
66D
100
DictionaryVariables
280
     0
  1
1:1
  0
ENDSEC
  0
EOF
