  0
SECTION
  2
HEADER
  9
$ACADVER
  1
AC1027
  9
$ACADMAINTVER
 70
     8
  9
$DWGCODEPAGE
  3
ANSI_1252
  9
$REQUIREDVERSIONS
160
                 0
  9
$LASTSAVEDBY
  1
cesare
  9
$INSBASE
 10
0.0
 20
0.0
 30
0.0
  9
$EXTMIN
 10
471.9733269438733
 20
-144.9053127500777
 30
0.0
  9
$EXTMAX
 10
681.984285839807
 20
47.56325570552235
 30
0.0
  9
$LIMMIN
 10
0.0
 20
0.0
  9
$LIMMAX
 10
840.0
 20
594.0
  9
$ORTHOMODE
 70
     1
  9
$REGENMODE
 70
     1
  9
$FILLMODE
 70
     1
  9
$QTEXTMODE
 70
     0
  9
$MIRRTEXT
 70
     1
  9
$LTSCALE
 40
2.0
  9
$ATTMODE
 70
     1
  9
$TEXTSIZE
 40
5.6
  9
$TRACEWID
 40
1.0
  9
$TEXTSTYLE
  7
Standard
  9
$CLAYER
  8
0
  9
$CELTYPE
  6
ByLayer
  9
$CECOLOR
 62
   256
  9
$CELTSCALE
 40
1.0
  9
$DISPSILH
 70
     0
  9
$DIMSCALE
 40
1.0
  9
$DIMASZ
 40
6.4
  9
$DIMEXO
 40
0.2
  9
$DIMDLI
 40
3.75
  9
$DIMRND
 40
0.0
  9
$DIMDLE
 40
0.0
  9
$DIMEXE
 40
2.0
  9
$DIMTP
 40
0.0
  9
$DIMTM
 40
0.0
  9
$DIMTXT
 40
6.4
  9
$DIMCEN
 40
2.5
  9
$DIMTSZ
 40
0.0
  9
$DIMTOL
 70
     0
  9
$DIMLIM
 70
     0
  9
$DIMTIH
 70
     1
  9
$DIMTOH
 70
     1
  9
$DIMSE1
 70
     0
  9
$DIMSE2
 70
     0
  9
$DIMTAD
 70
     1
  9
$DIMZIN
 70
     0
  9
$DIMBLK
  1

  9
$DIMASO
 70
     1
  9
$DIMSHO
 70
     1
  9
$DIMPOST
  1

  9
$DIMAPOST
  1

  9
$DIMALT
 70
     0
  9
$DIMALTD
 70
     3
  9
$DIMALTF
 40
0.0393700787
  9
$DIMLFAC
 40
1.0
  9
$DIMTOFL
 70
     1
  9
$DIMTVP
 40
0.0
  9
$DIMTIX
 70
     0
  9
$DIMSOXD
 70
     0
  9
$DIMSAH
 70
     0
  9
$DIMBLK1
  1

  9
$DIMBLK2
  1

  9
$DIMSTYLE
  2
ISO-25
  9
$DIMCLRD
 70
     0
  9
$DIMCLRE
 70
     0
  9
$DIMCLRT
 70
     0
  9
$DIMTFAC
 40
1.0
  9
$DIMGAP
 40
4.0
  9
$DIMJUST
 70
     0
  9
$DIMSD1
 70
     0
  9
$DIMSD2
 70
     0
  9
$DIMTOLJ
 70
     0
  9
$DIMTZIN
 70
     0
  9
$DIMALTZ
 70
     0
  9
$DIMALTTZ
 70
     0
  9
$DIMUPT
 70
     0
  9
$DIMDEC
 70
     2
  9
$DIMTDEC
 70
     2
  9
$DIMALTU
 70
     2
  9
$DIMALTTD
 70
     3
  9
$DIMTXSTY
  7
Standard
  9
$DIMAUNIT
 70
     0
  9
$DIMADEC
 70
     2
  9
$DIMALTRND
 40
0.0
  9
$DIMAZIN
 70
     0
  9
$DIMDSEP
 70
    44
  9
$DIMATFIT
 70
     3
  9
$DIMFRAC
 70
     0
  9
$DIMLDRBLK
  1

  9
$DIMLUNIT
 70
     2
  9
$DIMLWD
 70
    -2
  9
$DIMLWE
 70
    -2
  9
$DIMTMOVE
 70
     0
  9
$DIMFXL
 40
1.0
  9
$DIMFXLON
 70
     0
  9
$DIMJOGANG
 40
0.7853981633974483
  9
$DIMTFILL
 70
     0
  9
$DIMTFILLCLR
 70
     0
  9
$DIMARCSYM
 70
     0
  9
$DIMLTYPE
  6

  9
$DIMLTEX1
  6

  9
$DIMLTEX2
  6

  9
$DIMTXTDIRECTION
 70
     0
  9
$LUNITS
 70
     2
  9
$LUPREC
 70
     2
  9
$SKETCHINC
 40
1.0
  9
$FILLETRAD
 40
9.0
  9
$AUNITS
 70
     0
  9
$AUPREC
 70
     2
  9
$MENU
  1
.
  9
$ELEVATION
 40
0.0
  9
$PELEVATION
 40
0.0
  9
$THICKNESS
 40
0.0
  9
$LIMCHECK
 70
     0
  9
$CHAMFERA
 40
10.0
  9
$CHAMFERB
 40
10.0
  9
$CHAMFERC
 40
20.0
  9
$CHAMFERD
 40
0.0
  9
$SKPOLY
 70
     0
  9
$TDCREATE
 40
2456301.663663241
  9
$TDUCREATE
 40
2456301.580329908
  9
$TDUPDATE
 40
2457515.624783843
  9
$TDUUPDATE
 40
2457515.541450509
  9
$TDINDWG
 40
0.0085875463
  9
$TDUSRTIMER
 40
2457515.541041331
  9
$USRTIMER
 70
     1
  9
$ANGBASE
 50
0.0
  9
$ANGDIR
 70
     0
  9
$PDMODE
 70
     0
  9
$PDSIZE
 40
-1.0
  9
$PLINEWID
 40
0.0
  9
$SPLFRAME
 70
     0
  9
$SPLINETYPE
 70
     6
  9
$SPLINESEGS
 70
     8
  9
$HANDSEED
  5
7F7
  9
$SURFTAB1
 70
     6
  9
$SURFTAB2
 70
     6
  9
$SURFTYPE
 70
     6
  9
$SURFU
 70
     6
  9
$SURFV
 70
     6
  9
$UCSBASE
  2

  9
$UCSNAME
  2

  9
$UCSORG
 10
0.0
 20
0.0
 30
0.0
  9
$UCSXDIR
 10
1.0
 20
0.0
 30
0.0
  9
$UCSYDIR
 10
0.0
 20
1.0
 30
0.0
  9
$UCSORTHOREF
  2

  9
$UCSORTHOVIEW
 70
     0
  9
$UCSORGTOP
 10
0.0
 20
0.0
 30
0.0
  9
$UCSORGBOTTOM
 10
0.0
 20
0.0
 30
0.0
  9
$UCSORGLEFT
 10
0.0
 20
0.0
 30
0.0
  9
$UCSORGRIGHT
 10
0.0
 20
0.0
 30
0.0
  9
$UCSORGFRONT
 10
0.0
 20
0.0
 30
0.0
  9
$UCSORGBACK
 10
0.0
 20
0.0
 30
0.0
  9
$PUCSBASE
  2

  9
$PUCSNAME
  2

  9
$PUCSORG
 10
0.0
 20
0.0
 30
0.0
  9
$PUCSXDIR
 10
1.0
 20
0.0
 30
0.0
  9
$PUCSYDIR
 10
0.0
 20
1.0
 30
0.0
  9
$PUCSORTHOREF
  2

  9
$PUCSORTHOVIEW
 70
     0
  9
$PUCSORGTOP
 10
0.0
 20
0.0
 30
0.0
  9
$PUCSORGBOTTOM
 10
0.0
 20
0.0
 30
0.0
  9
$PUCSORGLEFT
 10
0.0
 20
0.0
 30
0.0
  9
$PUCSORGRIGHT
 10
0.0
 20
0.0
 30
0.0
  9
$PUCSORGFRONT
 10
0.0
 20
0.0
 30
0.0
  9
$PUCSORGBACK
 10
0.0
 20
0.0
 30
0.0
  9
$USERI1
 70
     0
  9
$USERI2
 70
     0
  9
$USERI3
 70
     0
  9
$USERI4
 70
     0
  9
$USERI5
 70
     0
  9
$USERR1
 40
0.0
  9
$USERR2
 40
0.0
  9
$USERR3
 40
0.0
  9
$USERR4
 40
0.0
  9
$USERR5
 40
0.0
  9
$WORLDVIEW
 70
     1
  9
$SHADEDGE
 70
     3
  9
$SHADEDIF
 70
    70
  9
$TILEMODE
 70
     1
  9
$MAXACTVP
 70
    64
  9
$PINSBASE
 10
0.0
 20
0.0
 30
0.0
  9
$PLIMCHECK
 70
     0
  9
$PEXTMIN
 10
40.5
 20
25.69999999999999
 30
0.0
  9
$PEXTMAX
 10
364.5
 20
231.3
 30
0.0
  9
$PLIMMIN
 10
-7.5
 20
-20.0
  9
$PLIMMAX
 10
412.5
 20
277.0
  9
$UNITMODE
 70
     0
  9
$VISRETAIN
 70
     1
  9
$PLINEGEN
 70
     0
  9
$PSLTSCALE
 70
     1
  9
$TREEDEPTH
 70
  3020
  9
$CMLSTYLE
  2
Standard
  9
$CMLJUST
 70
     0
  9
$CMLSCALE
 40
20.0
  9
$PROXYGRAPHICS
 70
     1
  9
$MEASUREMENT
 70
     1
  9
$CELWEIGHT
370
    -1
  9
$ENDCAPS
280
     0
  9
$JOINSTYLE
280
     0
  9
$LWDISPLAY
290
     1
  9
$INSUNITS
 70
     4
  9
$HYPERLINKBASE
  1

  9
$STYLESHEET
  1

  9
$XEDIT
290
     1
  9
$CEPSNTYPE
380
     0
  9
$PSTYLEMODE
290
     1
  9
$FINGERPRINTGUID
  2
{8449D39B-DA00-4991-A9AD-3329360F0E48}
  9
$VERSIONGUID
  2
{FAEB1C32-E019-11D5-929B-00C0DF256EC4}
  9
$EXTNAMES
290
     1
  9
$PSVPSCALE
 40
0.0
  9
$OLESTARTUP
290
     0
  9
$SORTENTS
280
   127
  9
$INDEXCTL
280
     0
  9
$HIDETEXT
280
     1
  9
$XCLIPFRAME
280
     2
  9
$HALOGAP
280
     0
  9
$OBSCOLOR
 70
   257
  9
$OBSLTYPE
280
     0
  9
$INTERSECTIONDISPLAY
280
     0
  9
$INTERSECTIONCOLOR
 70
   257
  9
$DIMASSOC
280
     2
  9
$PROJECTNAME
  1

  9
$CAMERADISPLAY
290
     0
  9
$LENSLENGTH
 40
50.0
  9
$CAMERAHEIGHT
 40
0.0
  9
$STEPSPERSEC
 40
2.0
  9
$STEPSIZE
 40
6.0
  9
$3DDWFPREC
 40
2.0
  9
$PSOLWIDTH
 40
0.25
  9
$PSOLHEIGHT
 40
4.0
  9
$LOFTANG1
 40
1.570796326794897
  9
$LOFTANG2
 40
1.570796326794897
  9
$LOFTMAG1
 40
0.0
  9
$LOFTMAG2
 40
0.0
  9
$LOFTPARAM
 70
     7
  9
$LOFTNORMALS
280
     1
  9
$LATITUDE
 40
37.795
  9
$LONGITUDE
 40
-122.394
  9
$NORTHDIRECTION
 40
0.0
  9
$TIMEZONE
 70
 -8000
  9
$LIGHTGLYPHDISPLAY
280
     1
  9
$TILEMODELIGHTSYNCH
280
     1
  9
$SOLIDHIST
280
     1
  9
$SHOWHIST
280
     1
  9
$DWFFRAME
280
     2
  9
$DGNFRAME
280
     2
  9
$REALWORLDSCALE
290
     1
  9
$INTERFERECOLOR
 62
   256
  9
$CSHADOW
280
     0
  9
$SHADOWPLANELOCATION
 40
0.0
  0
ENDSEC
  0
SECTION
  2
CLASSES
  0
CLASS
  1
ACDBDICTIONARYWDFLT
  2
AcDbDictionaryWithDefault
  3
ObjectDBX Classes
 90
        0
 91
        7
280
     0
281
     0
  0
CLASS
  1
VISUALSTYLE
  2
AcDbVisualStyle
  3
ObjectDBX Classes
 90
     4095
 91
        7
280
     0
281
     0
  0
CLASS
  1
MATERIAL
  2
AcDbMaterial
  3
ObjectDBX Classes
 90
     1153
 91
        7
280
     0
281
     0
  0
CLASS
  1
ACDBPLACEHOLDER
  2
AcDbPlaceHolder
  3
ObjectDBX Classes
 90
        0
 91
        1
280
     0
281
     0
  0
CLASS
  1
LAYOUT
  2
AcDbLayout
  3
ObjectDBX Classes
 90
        0
 91
        1
280
     0
281
     0
  0
CLASS
  1
SCALE
  2
AcDbScale
  3
ObjectDBX Classes
 90
     1153
 91
        7
280
     0
281
     0
  0
CLASS
  1
TABLESTYLE
  2
AcDbTableStyle
  3
ObjectDBX Classes
 90
     4095
 91
        7
280
     0
281
     0
  0
CLASS
  1
RASTERVARIABLES
  2
AcDbRasterVariables
  3
ISM
 90
        0
 91
        7
280
     0
281
     0
  0
CLASS
  1
SORTENTSTABLE
  2
AcDbSortentsTable
  3
ObjectDBX Classes
 90
        0
 91
        6
280
     0
281
     0
  0
CLASS
  1
DICTIONARYVAR
  2
AcDbDictionaryVar
  3
ObjectDBX Classes
 90
        0
 91
        7
280
     0
281
     0
  0
CLASS
  1
CELLSTYLEMAP
  2
AcDbCellStyleMap
  3
ObjectDBX Classes
 90
     1152
 91
        7
280
     0
281
     0
  0
CLASS
  1
MLEADERSTYLE
  2
AcDbMLeaderStyle
  3
ACDB_MLEADERSTYLE_CLASS
 90
     4095
 91
        7
280
     0
281
     0
  0
CLASS
  1
SUN
  2
AcDbSun
  3
SCENEOE
 90
     1153
 91
        7
280
     0
281
     0
  0
CLASS
  1
XRECORD
  2
AcDbXrecord
  3
ObjectDBX Classes
 90
        0
 91
        1
280
     0
281
     0
  0
CLASS
  1
LWPOLYLINE
  2
AcDbPolyline
  3
ObjectDBX Classes
 90
        0
 91
        1
280
     0
281
     1
  0
CLASS
  1
HATCH
  2
AcDbHatch
  3
ObjectDBX Classes
 90
        0
 91
        1
280
     0
281
     1
  0
ENDSEC
  0
SECTION
  2
TABLES
  0
TABLE
  2
VPORT
  5
8
330
0
100
AcDbSymbolTable
 70
     1
  0
VPORT
  5
29
330
8
100
AcDbSymbolTableRecord
100
AcDbViewportTableRecord
  2
*Active
 70
     0
 10
0.0
 20
0.0
 11
1.0
 21
1.0
 12
576.9788063918402
 22
-48.67102852227765
 13
0.0
 23
0.0
 14
10.0
 24
10.0
 15
10.0
 25
10.0
 16
0.0
 26
0.0
 36
1.0
 17
0.0
 27
0.0
 37
0.0
 40
196.317939824712
 41
2.168690958164643
 42
50.0
 43
0.0
 44
0.0
 50
0.0
 51
0.0
 71
    16
 72
  2000
 73
     1
 74
     3
 75
     0
 76
     0
 77
     0
 78
     0
281
     0
 65
     1
110
0.0
120
0.0
130
0.0
111
1.0
121
0.0
131
0.0
112
0.0
122
1.0
132
0.0
 79
     0
146
0.0
348
22F
 60
     3
 61
     5
292
     1
282
     1
141
0.0
142
0.0
 63
   256
361
27E
  0
ENDTAB
  0
TABLE
  2
LTYPE
  5
5
330
0
100
AcDbSymbolTable
 70
     3
  0
LTYPE
  5
14
330
5
100
AcDbSymbolTableRecord
100
AcDbLinetypeTableRecord
  2
ByBlock
 70
     0
  3

 72
    65
 73
     0
 40
0.0
  0
LTYPE
  5
15
330
5
100
AcDbSymbolTableRecord
100
AcDbLinetypeTableRecord
  2
ByLayer
 70
     0
  3

 72
    65
 73
     0
 40
0.0
  0
LTYPE
  5
16
330
5
100
AcDbSymbolTableRecord
100
AcDbLinetypeTableRecord
  2
Continuous
 70
     0
  3
Solid line
 72
    65
 73
     0
 40
0.0
  0
LTYPE
  5
41
330
5
100
AcDbSymbolTableRecord
100
AcDbLinetypeTableRecord
  2
CENTER
 70
     0
  3
Center ____ _ ____ _ ____ _ ____ _ ____ _ ____
 72
    65
 73
     4
 40
10.16
 49
6.35
 74
     0
 49
-1.27
 74
     0
 49
1.27
 74
     0
 49
-1.27
 74
     0
  0
LTYPE
  5
300
330
5
100
AcDbSymbolTableRecord
100
AcDbLinetypeTableRecord
  2
________________
 70
     0
  3

 72
    65
 73
     0
 40
0.0
  0
ENDTAB
  0
TABLE
  2
LAYER
  5
2
330
0
100
AcDbSymbolTable
 70
     1
  0
LAYER
  5
10
330
2
100
AcDbSymbolTableRecord
100
AcDbLayerTableRecord
  2
0
 70
     0
 62
     7
  6
Continuous
370
    -3
390
F
347
229
348
0
  0
ENDTAB
  0
TABLE
  2
STYLE
  5
3
330
0
100
AcDbSymbolTable
 70
     1
  0
STYLE
  5
11
330
3
100
AcDbSymbolTableRecord
100
AcDbTextStyleTableRecord
  2
Standard
 70
     0
 40
0.0
 41
1.0
 50
0.0
 71
     0
 42
5.6
  3
I011000D_0.TTF
  4

1001
ACAD
1000
IsonormD
1071
        0
  0
ENDTAB
  0
TABLE
  2
VIEW
  5
6
330
0
100
AcDbSymbolTable
 70
     0
  0
ENDTAB
  0
TABLE
  2
UCS
  5
7
330
0
100
AcDbSymbolTable
 70
     0
  0
ENDTAB
  0
TABLE
  2
APPID
  5
9
330
0
100
AcDbSymbolTable
 70
     1
  0
APPID
  5
12
330
9
100
AcDbSymbolTableRecord
100
AcDbRegAppTableRecord
  2
ACAD
 70
     0
  0
ENDTAB
  0
TABLE
  2
DIMSTYLE
  5
A
330
0
100
AcDbSymbolTable
 70
     2
100
AcDbDimStyleTable
  0
DIMSTYLE
105
27
330
A
100
AcDbSymbolTableRecord
100
AcDbDimStyleTableRecord
  2
ISO-25
 70
     0
 41
2.5
 42
0.625
 43
3.75
 44
1.25
 73
     0
 74
     0
 77
     1
 78
     8
140
2.5
141
2.5
143
0.0393700787
147
0.625
171
     3
172
     1
178
     0
271
     2
272
     2
274
     3
278
    44
283
     0
284
     8
340
11
  0
DIMSTYLE
105
241
330
A
100
AcDbSymbolTableRecord
100
AcDbDimStyleTableRecord
  2
Standard
 70
     0
 41
1.25
 42
0.0
 44
0.75
 73
     0
 74
     0
 77
     1
140
2.5
146
0.8
147
1.25
176
     7
177
     7
271
     2
178
     7
271
     2
340
11
  0
ENDTAB
  0
TABLE
  2
BLOCK_RECORD
  5
1
330
0
100
AcDbSymbolTable
 70
     4
  0
BLOCK_RECORD
  5
1F
330
1
100
AcDbSymbolTableRecord
100
AcDbBlockTableRecord
  2
*Model_Space
340
22
 70
     0
280
     1
281
     0
  0
BLOCK_RECORD
  5
1B
330
1
100
AcDbSymbolTableRecord
100
AcDbBlockTableRecord
  2
*Paper_Space
340
1E
 70
     0
280
     1
281
     0
  0
BLOCK_RECORD
  5
23
330
1
100
AcDbSymbolTableRecord
100
AcDbBlockTableRecord
  2
*Paper_Space0
340
26
 70
     0
280
     1
281
     0
  0
BLOCK_RECORD
  5
2D4
102
{ACAD_XDICTIONARY
360
2F6
102
}
330
1
100
AcDbSymbolTableRecord
100
AcDbBlockTableRecord
  2
A$C24814
340
0
 70
     0
280
     1
281
     0
  0
ENDTAB
  0
ENDSEC
  0
SECTION
  2
BLOCKS
  0
BLOCK
  5
20
330
1F
100
AcDbEntity
  8
0
100
AcDbBlockBegin
  2
*Model_Space
 70
     0
 10
0.0
 20
0.0
 30
0.0
  3
*Model_Space
  1
*Model_Space
  0
ENDBLK
  5
21
330
1F
100
AcDbEntity
  8
0
100
AcDbBlockEnd
  0
BLOCK
  5
1C
330
1B
100
AcDbEntity
 67
     1
  8
0
100
AcDbBlockBegin
  2
*Paper_Space
 70
     0
 10
0.0
 20
0.0
 30
0.0
  3
*Paper_Space
  1
*Paper_Space
  0
ENDBLK
  5
1D
330
1B
100
AcDbEntity
 67
     1
  8
0
100
AcDbBlockEnd
  0
BLOCK
  5
24
330
23
100
AcDbEntity
  8
0
100
AcDbBlockBegin
  2
*Paper_Space0
 70
     0
 10
0.0
 20
0.0
 30
0.0
  3
*Paper_Space0
  1
*Paper_Space0
  0
ENDBLK
  5
25
330
23
100
AcDbEntity
  8
0
100
AcDbBlockEnd
  0
BLOCK
  5
2F9
330
2D4
100
AcDbEntity
  8
0
100
AcDbBlockBegin
  2
A$C24814
 70
     0
 10
0.0
 20
0.0
 30
0.0
  3
A$C24814
  1
A$C24814
  0
TEXT
  5
2F8
330
2D4
100
AcDbEntity
  8
0
  6
Continuous
 62
     7
370
     0
100
AcDbText
 10
-1.371371371371382
 20
0.0100100100100136
 30
0.0
 40
10.0
  1
B93
100
AcDbText
  0
ENDBLK
  5
2FA
330
2D4
100
AcDbEntity
  8
0
100
AcDbBlockEnd
  0
ENDSEC
  0
SECTION
  2
ENTITIES
  0
LINE
  5
5DE
330
1F
100
AcDbEntity
  8
0
  6
Continuous
 62
     7
370
    15
100
AcDbLine
 10
519.9650544226733
 20
-25.01674468017767
 30
0.0
 11
520.2256887704733
 21
-25.01674468017767
 31
0.0
  0
LINE
  5
5DF
330
1F
100
AcDbEntity
  8
0
  6
Continuous
 62
     7
370
    15
100
AcDbLine
 10
519.7254213989733
 20
-20.01674572327765
 30
0.0
 11
519.6254215687733
 21
-20.01674572327765
 31
0.0
  0
LINE
  5
5E0
330
1F
100
AcDbEntity
  8
0
  6
Continuous
 62
     7
370
    15
100
AcDbLine
 10
519.7254213989733
 20
-22.83674577567767
 30
0.0
 11
519.7254213989733
 21
-10.56060899367765
 31
0.0
  0
ARC
  5
5E1
330
1F
100
AcDbEntity
  8
0
  6
Continuous
 62
     7
370
    15
100
AcDbCircle
 10
524.7254216710733
 20
-3.686745425577669
 30
0.0
 40
8.500000000000002
100
AcDbArc
 50
306.0318790701003
 51
233.9681209252001
  0
CIRCLE
  5
5E2
330
1F
100
AcDbEntity
  8
0
  6
Continuous
 62
     7
370
    15
100
AcDbCircle
 10
524.7254216710733
 20
-3.686745425577669
 30
0.0
 40
7.25
  0
LINE
  5
5E3
330
1F
100
AcDbEntity
  8
0
  6
Continuous
 62
     7
370
    15
100
AcDbLine
 10
529.7254216410734
 20
-10.56060899367765
 30
0.0
 11
529.7254216410734
 21
-22.83674577567767
 31
0.0
  0
ARC
  5
5E4
330
1F
100
AcDbEntity
  8
0
  6
Continuous
 62
     7
370
    15
100
AcDbCircle
 10
524.7254216702732
 20
-22.83674542557766
 30
0.0
 40
5.000000000000014
100
AcDbArc
 50
179.9999999976
 51
359.9999999976
  0
ARC
  5
5E5
330
1F
100
AcDbEntity
  8
0
  6
Continuous
 62
     7
370
    15
100
AcDbCircle
 10
524.7254216710733
 20
-3.686745425577669
 30
0.0
 40
6.500000000000004
100
AcDbArc
 50
258.1039395070005
 51
281.8555965226005
  0
LINE
  5
5E6
330
1F
100
AcDbEntity
  8
0
  6
Continuous
 62
     7
370
    15
100
AcDbLine
 10
525.5313918013733
 20
-7.88077531697769
 30
0.0
 11
524.7254217528733
 21
-6.686745445177678
 31
0.0
  0
LINE
  5
5E7
330
1F
100
AcDbEntity
  8
0
  6
Continuous
 62
     7
370
    15
100
AcDbLine
 10
524.7254217528733
 20
-6.686745445177678
 30
0.0
 11
525.5871237740733
 21
-5.410149694377651
 31
0.0
  0
LINE
  5
5E8
330
1F
100
AcDbEntity
  8
0
  6
Continuous
 62
     7
370
    15
100
AcDbLine
 10
525.2998896893733
 20
-1.963341202077686
 30
0.0
 11
524.7254217528733
 21
-0.6867452183776663
 31
0.0
  0
LINE
  5
5E9
330
1F
100
AcDbEntity
  8
0
  6
Continuous
 62
     7
370
    15
100
AcDbLine
 10
524.1509535834733
 20
-1.963341202077686
 30
0.0
 11
524.7254217528733
 21
-3.686745477277668
 31
0.0
  0
LINE
  5
5EA
330
1F
100
AcDbEntity
  8
0
  6
Continuous
 62
     7
370
    15
100
AcDbLine
 10
524.7254217528733
 20
-3.686745477277668
 30
0.0
 11
523.8637197316733
 21
-5.410149694377651
 31
0.0
  0
LINE
  5
5EB
330
1F
100
AcDbEntity
  8
0
  6
Continuous
 62
     7
370
    15
100
AcDbLine
 10
523.9194514714733
 20
-7.88077531697769
 30
0.0
 11
524.7254217528733
 21
-8.686745365577679
 31
0.0
  0
LINE
  5
5EC
330
1F
100
AcDbEntity
  8
0
  6
Continuous
 62
     7
370
    15
100
AcDbLine
 10
524.7254217528733
 20
-9.686745529477662
 30
0.0
 11
523.3754217177733
 21
-9.686745529477662
 31
0.0
  0
LINE
  5
5ED
330
1F
100
AcDbEntity
  8
0
  6
Continuous
 62
     7
370
    15
100
AcDbLine
 10
525.7254216838733
 20
-7.686745434477643
 30
0.0
 11
524.7254217528733
 21
-8.686745365577679
 31
0.0
  0
LINE
  5
5EE
330
1F
100
AcDbEntity
  8
0
  6
Continuous
 62
     7
370
    15
100
AcDbLine
 10
525.7254216838733
 20
-7.686745434477643
 30
0.0
 11
525.7254216838733
 21
-5.686745426777634
 31
0.0
  0
LINE
  5
5EF
330
1F
100
AcDbEntity
  8
0
  6
Continuous
 62
     7
370
    15
100
AcDbLine
 10
525.7254216838733
 20
-5.686745426777634
 30
0.0
 11
524.7254217528733
 21
-3.686745477277668
 31
0.0
  0
LINE
  5
5F0
330
1F
100
AcDbEntity
  8
0
  6
Continuous
 62
     7
370
    15
100
AcDbLine
 10
524.7254217528733
 20
-3.686745477277668
 30
0.0
 11
525.7254216838733
 21
-0.6867452183776663
 31
0.0
  0
LINE
  5
5F1
330
1F
100
AcDbEntity
  8
0
  6
Continuous
 62
     7
370
    15
100
AcDbLine
 10
524.7254217528733
 20
-0.6867452183776663
 30
0.0
 11
525.7254216838733
 21
-0.6867452183776663
 31
0.0
  0
LINE
  5
5F2
330
1F
100
AcDbEntity
  8
0
  6
Continuous
 62
     7
370
    15
100
AcDbLine
 10
524.7254217528733
 20
-0.6867452183776663
 30
0.0
 11
523.3754217177733
 21
-3.686745477277668
 31
0.0
  0
LINE
  5
5F3
330
1F
100
AcDbEntity
  8
0
  6
Continuous
 62
     7
370
    15
100
AcDbLine
 10
523.3754217177733
 20
-4.686745408377647
 30
0.0
 11
523.3754217177733
 21
-3.686745477277668
 31
0.0
  0
LINE
  5
5F4
330
1F
100
AcDbEntity
  8
0
  6
Continuous
 62
     7
370
    15
100
AcDbLine
 10
523.3754217177733
 20
-4.686745408377647
 30
0.0
 11
524.7254217528733
 21
-6.686745445177678
 31
0.0
  0
LINE
  5
5F5
330
1F
100
AcDbEntity
  8
0
  6
Continuous
 62
     7
370
    15
100
AcDbLine
 10
524.7254217528733
 20
-6.686745445177678
 30
0.0
 11
523.3754217177733
 21
-8.686745365577679
 31
0.0
  0
LINE
  5
5F6
330
1F
100
AcDbEntity
  8
0
  6
Continuous
 62
     7
370
    15
100
AcDbLine
 10
523.3754217177733
 20
-10.04500786157769
 30
0.0
 11
523.3754217177733
 21
-8.686745365577679
 31
0.0
  0
ARC
  5
5F7
330
1F
100
AcDbEntity
  8
0
  6
Continuous
 62
     7
370
    15
100
AcDbCircle
 10
524.7254216710733
 20
-3.686745425577669
 30
0.0
 40
6.499999999979385
100
AcDbArc
 50
281.9871497615003
 51
258.0128502338005
  0
LINE
  5
5F8
330
1F
100
AcDbEntity
  8
0
  6
Continuous
 62
     7
370
    15
100
AcDbLine
 10
526.0754215549733
 20
-10.04500786157769
 30
0.0
 11
526.0754215549733
 21
-9.686745529477662
 31
0.0
  0
LINE
  5
5F9
330
1F
100
AcDbEntity
  8
0
  6
Continuous
 62
     7
370
    15
100
AcDbLine
 10
524.7254217528733
 20
-9.686745529477662
 30
0.0
 11
526.0754215549733
 21
-9.686745529477662
 31
0.0
  0
LINE
  5
5FA
330
1F
100
AcDbEntity
  8
0
  6
Continuous
 62
     7
370
    15
100
AcDbLine
 10
524.7254217528733
 20
-9.686745529477662
 30
0.0
 11
524.7254217528733
 21
-8.686745365577679
 31
0.0
  0
ARC
  5
5FB
330
1F
100
AcDbEntity
  8
0
  6
Continuous
 62
     7
370
    15
100
AcDbCircle
 10
524.7254216710733
 20
-3.686745425577669
 30
0.0
 40
7.000000000004142
100
AcDbArc
 50
281.1195709511001
 51
258.8804290442
  0
LINE
  5
5FC
330
1F
100
AcDbEntity
  8
0
  6
Continuous
 62
     7
370
    15
100
AcDbLine
 10
526.0754215549733
 20
-10.55533351697767
 30
0.0
 11
526.0754215549733
 21
-10.04500786157769
 31
0.0
  0
LINE
  5
5FD
330
1F
100
AcDbEntity
  8
0
  6
Continuous
 62
     7
370
    15
100
AcDbLine
 10
523.3754217177733
 20
-10.55533351697767
 30
0.0
 11
523.3754217177733
 21
-10.04500786157769
 31
0.0
  0
LINE
  5
5FE
330
1F
100
AcDbEntity
  8
0
  6
Continuous
 62
     7
370
    15
100
AcDbLine
 10
519.2254213169733
 20
-23.18674611247765
 30
0.0
 11
519.2254213169733
 21
-10.81064908147766
 31
0.0
  0
ARC
  5
5FF
330
1F
100
AcDbEntity
  8
0
  6
Continuous
 62
     7
370
    15
100
AcDbCircle
 10
524.7254216702732
 20
-23.18674542557766
 30
0.0
 40
5.500000000000014
100
AcDbArc
 50
179.9999999976
 51
359.9999999976
  0
ARC
  5
600
330
1F
100
AcDbEntity
  8
0
  6
Continuous
 62
     7
370
    15
100
AcDbCircle
 10
524.7254216710733
 20
-3.686745425577669
 30
0.0
 40
9.000000000000014
100
AcDbArc
 50
307.6698869620005
 51
232.3301130333002
  0
LINE
  5
601
330
1F
100
AcDbEntity
  8
0
  6
Continuous
 62
     7
370
    15
100
AcDbLine
 10
530.2254217230733
 20
-10.81064908147766
 30
0.0
 11
530.2254217230733
 21
-23.18674611247765
 31
0.0
  0
ARC
  5
602
330
1F
100
AcDbEntity
  8
0
  6
Continuous
 62
     7
370
    15
100
AcDbCircle
 10
512.2254216729733
 20
41.56325457502237
 30
0.0
 40
5.0
100
AcDbArc
 50
89.99999999760033
 51
179.9999999975997
  0
LINE
  5
603
330
1F
100
AcDbEntity
  8
0
  6
Continuous
 62
     7
370
    15
100
AcDbLine
 10
507.2254212126733
 20
-43.93674718537766
 30
0.0
 11
507.2254212126733
 21
41.56325472202235
 31
0.0
  0
ARC
  5
604
330
1F
100
AcDbEntity
  8
0
  6
Continuous
 62
     7
370
    15
100
AcDbCircle
 10
512.2254216694732
 20
-43.93674542497767
 30
0.0
 40
5.0
100
AcDbArc
 50
179.9999999976
 51
269.9999999976003
  0
ARC
  5
605
330
1F
100
AcDbEntity
  8
0
  6
Continuous
 62
     7
370
    15
100
AcDbCircle
 10
537.2254216694732
 20
-43.93674542607765
 30
0.0
 40
5.000000000000028
100
AcDbArc
 50
269.9999999976003
 51
359.9999999976
  0
LINE
  5
606
330
1F
100
AcDbEntity
  8
0
  6
Continuous
 62
     7
370
    15
100
AcDbLine
 10
512.2254220322733
 20
46.56325367892236
 30
0.0
 11
537.2254214734733
 21
46.56325367892236
 31
0.0
  0
LINE
  5
607
330
1F
100
AcDbEntity
  8
0
  6
Continuous
 62
     7
370
    15
100
AcDbLine
 10
537.2254214734733
 20
-48.93674614227767
 30
0.0
 11
512.2254220322733
 21
-48.93674614227767
 31
0.0
  0
LINE
  5
608
330
1F
100
AcDbEntity
  8
0
  6
Continuous
 62
     7
370
    15
100
AcDbLine
 10
542.2254213616733
 20
41.56325472202235
 30
0.0
 11
542.2254213616733
 21
-43.93674718537766
 31
0.0
  0
ARC
  5
609
330
1F
100
AcDbEntity
  8
0
  6
Continuous
 62
     7
370
    15
100
AcDbCircle
 10
537.2254216729733
 20
41.56325457392234
 30
0.0
 40
5.0
100
AcDbArc
 50
359.9999999976003
 51
89.99999999760033
  0
LINE
  5
60A
330
1F
100
AcDbEntity
  8
0
  6
Continuous
 62
     7
370
    15
100
AcDbLine
 10
484.4254226908733
 20
-38.68674399647766
 30
0.0
 11
484.4254226908733
 21
36.31325525842237
 31
0.0
  0
LINE
  5
60B
330
1F
100
AcDbEntity
  8
0
  6
Continuous
 62
     7
370
    15
100
AcDbLine
 10
484.4254226908733
 20
36.31325525842237
 30
0.0
 11
484.9754208252733
 21
36.31325525842237
 31
0.0
  0
LINE
  5
60C
330
1F
100
AcDbEntity
  8
0
  6
Continuous
 62
     7
370
    15
100
AcDbLine
 10
484.4254226908733
 20
-38.68674399647766
 30
0.0
 11
484.9754208252733
 21
-38.68674399647766
 31
0.0
  0
ARC
  5
60D
330
1F
100
AcDbEntity
  8
0
  6
Continuous
 62
     7
370
    15
100
AcDbCircle
 10
524.4254216702733
 20
-23.68674542547767
 30
0.0
 40
5.000000000000001
100
AcDbArc
 50
322.4381525149999
 51
345.7315563280002
  0
ARC
  5
60E
330
1F
100
AcDbEntity
  8
0
  6
Continuous
 62
     7
370
    15
100
AcDbCircle
 10
524.4254216710733
 20
-3.686745425477682
 30
0.0
 40
8.5
100
AcDbArc
 50
88.98884551980028
 51
108.5206885035003
  0
LINE
  5
60F
330
1F
100
AcDbEntity
  8
0
  6
Continuous
 62
     7
370
    15
100
AcDbLine
 10
479.6254233941733
 20
-5.43944584287766
 30
0.0
 11
479.6254233941733
 21
-1.436745341377673
 31
0.0
  0
ARC
  5
610
330
1F
100
AcDbEntity
  8
0
  6
Continuous
 62
     7
370
    15
100
AcDbCircle
 10
479.4254216710733
 20
-5.439445850877689
 30
0.0
 40
0.2000000000000028
100
AcDbArc
 50
219.1379294018952
 51
359.9999999976062
  0
LINE
  5
611
330
1F
100
AcDbEntity
  8
0
  6
Continuous
 62
     7
370
    15
100
AcDbLine
 10
472.0182017907733
 20
3.345955104222355
 30
0.0
 11
479.2702951953733
 21
-5.565683736577682
 31
0.0
  0
ARC
  5
612
330
1F
100
AcDbEntity
  8
0
  6
Continuous
 62
     7
370
    15
100
AcDbCircle
 10
472.1733280962733
 20
3.472193193722319
 30
0.0
 40
0.1999999999999663
100
AcDbArc
 50
130.7287379644893
 51
219.1379294020097
  0
LINE
  5
613
330
1F
100
AcDbEntity
  8
0
  6
Continuous
 62
     7
370
    15
100
AcDbLine
 10
481.3002617582733
 20
11.59448263852232
 30
0.0
 11
472.0428334102733
 21
3.623754658322355
 31
0.0
  0
ARC
  5
614
330
1F
100
AcDbEntity
  8
0
  6
Continuous
 62
     7
370
    15
100
AcDbCircle
 10
483.9101774361733
 20
8.563254576122347
 30
0.0
 40
4.0
100
AcDbArc
 50
89.99999999759967
 51
130.7287379646004
  0
LINE
  5
615
330
1F
100
AcDbEntity
  8
0
  6
Continuous
 62
     7
370
    15
100
AcDbLine
 10
483.6254203245733
 20
2.563254848622364
 30
0.0
 11
484.4254226908733
 21
2.563254848622364
 31
0.0
  0
ARC
  5
616
330
1F
100
AcDbEntity
  8
0
  6
Continuous
 62
     7
370
    15
100
AcDbCircle
 10
483.6254216711733
 20
-1.436745423877653
 30
0.0
 40
4.000000000000028
100
AcDbArc
 50
89.99999999759967
 51
179.9999999976005
  0
LINE
  5
617
330
1F
100
AcDbEntity
  8
0
  6
Continuous
 62
     7
370
    15
100
AcDbLine
 10
484.4254226908733
 20
12.56325369382233
 30
0.0
 11
483.9101777896733
 21
12.56325369382233
 31
0.0
  0
ARC
  5
618
330
1F
100
AcDbEntity
  8
0
  6
Continuous
 62
     7
370
    15
100
AcDbCircle
 10
486.9754216731733
 20
45.56325457602236
 30
0.0
 40
2.0
100
AcDbArc
 50
89.99999999759967
 51
179.9999999975997
  0
LINE
  5
619
330
1F
100
AcDbEntity
  8
0
  6
Continuous
 62
     7
370
    15
100
AcDbLine
 10
486.9754211530733
 20
47.56325570552235
 30
0.0
 11
561.9754204079733
 21
47.56325570552235
 31
0.0
  0
LINE
  5
61A
330
1F
100
AcDbEntity
  8
0
  6
Continuous
 62
     7
370
    15
100
AcDbLine
 10
484.9754208252733
 20
-47.93674411567766
 30
0.0
 11
484.9754208252733
 21
45.56325537762234
 31
0.0
  0
ARC
  5
61B
330
1F
100
AcDbEntity
  8
0
  6
Continuous
 62
     7
370
    15
100
AcDbCircle
 10
524.7254216702732
 20
-23.18674542557766
 30
0.0
 40
5.100000000000009
100
AcDbArc
 50
179.9999999976001
 51
359.9999999976001
  0
LINE
  5
61C
330
1F
100
AcDbEntity
  8
0
  6
Continuous
 62
     7
370
    15
100
AcDbLine
 10
529.8254217040733
 20
-10.61133906567767
 30
0.0
 11
529.8254217040733
 21
-23.18674611247765
 31
0.0
  0
ARC
  5
61D
330
1F
100
AcDbEntity
  8
0
  6
Continuous
 62
     7
370
    15
100
AcDbCircle
 10
524.7254216710733
 20
-3.686745425577669
 30
0.0
 40
8.600000000000023
100
AcDbArc
 50
306.3718424076004
 51
233.6281575877005
  0
LINE
  5
61E
330
1F
100
AcDbEntity
  8
0
  6
Continuous
 62
     7
370
    15
100
AcDbLine
 10
519.6254215687733
 20
-23.18674611247765
 30
0.0
 11
519.6254215687733
 21
-10.61133906567767
 31
0.0
  0
ARC
  5
61F
330
1F
100
AcDbEntity
  8
0
  6
Continuous
 62
     7
370
    15
100
AcDbCircle
 10
486.9754216692733
 20
-47.93674542397765
 30
0.0
 40
2.0
100
AcDbArc
 50
179.9999999975997
 51
269.9999999975997
  0
LINE
  5
620
330
1F
100
AcDbEntity
  8
0
  6
Continuous
 62
     7
370
    15
100
AcDbLine
 10
561.9754204079733
 20
-49.93674444357767
 30
0.0
 11
486.9754211530733
 21
-49.93674444357767
 31
0.0
  0
LINE
  5
621
330
1F
100
AcDbEntity
  8
0
  6
Continuous
 62
     7
370
    15
100
AcDbLine
 10
566.4754220769732
 20
43.06325403652238
 30
0.0
 11
566.4754220769732
 21
-45.43674649987766
 31
0.0
  0
ARC
  5
622
330
1F
100
AcDbEntity
  8
0
  6
Continuous
 62
     7
370
    15
100
AcDbCircle
 10
561.9754216730732
 20
43.06325457292235
 30
0.0
 40
4.500000000000014
100
AcDbArc
 50
359.9999999976
 51
89.99999999760004
  0
ARC
  5
623
330
1F
100
AcDbEntity
  8
0
  6
Continuous
 62
     7
370
    15
100
AcDbCircle
 10
561.9754216693733
 20
-45.43674542707767
 30
0.0
 40
4.500000000000028
100
AcDbArc
 50
269.9999999976
 51
359.9999999976
  0
ARC
  5
624
330
1F
100
AcDbEntity
  8
0
  6
Continuous
 62
     7
370
    15
100
AcDbCircle
 10
537.2254216729733
 20
41.56325457392234
 30
0.0
 40
4.0
100
AcDbArc
 50
359.9999999975997
 51
89.99999999759967
  0
LINE
  5
625
330
1F
100
AcDbEntity
  8
0
  6
Continuous
 62
     7
370
    15
100
AcDbLine
 10
541.2254221290733
 20
-43.93674718537766
 30
0.0
 11
541.2254221290733
 21
41.56325472202235
 31
0.0
  0
ARC
  5
626
330
1F
100
AcDbEntity
  8
0
  6
Continuous
 62
     7
370
    15
100
AcDbCircle
 10
537.2254216694732
 20
-43.93674542607765
 30
0.0
 40
4.000000000000028
100
AcDbArc
 50
269.9999999976013
 51
359.9999999976001
  0
LINE
  5
627
330
1F
100
AcDbEntity
  8
0
  6
Continuous
 62
     7
370
    15
100
AcDbLine
 10
512.2254220322733
 20
-47.93674411567766
 30
0.0
 11
537.2254214734733
 21
-47.93674411567766
 31
0.0
  0
ARC
  5
628
330
1F
100
AcDbEntity
  8
0
  6
Continuous
 62
     7
370
    15
100
AcDbCircle
 10
512.2254216694732
 20
-43.93674542497767
 30
0.0
 40
4.0
100
AcDbArc
 50
179.9999999976001
 51
269.9999999976013
  0
LINE
  5
629
330
1F
100
AcDbEntity
  8
0
  6
Continuous
 62
     7
370
    15
100
AcDbLine
 10
508.2254213765733
 20
41.56325472202235
 30
0.0
 11
508.2254213765733
 21
-43.93674718537766
 31
0.0
  0
ARC
  5
62A
330
1F
100
AcDbEntity
  8
0
  6
Continuous
 62
     7
370
    15
100
AcDbCircle
 10
512.2254216729733
 20
41.56325457502237
 30
0.0
 40
4.0
100
AcDbArc
 50
89.99999999759967
 51
179.9999999975997
  0
LINE
  5
62B
330
1F
100
AcDbEntity
  8
0
  6
Continuous
 62
     7
370
    15
100
AcDbLine
 10
537.2254214734733
 20
45.56325537762234
 30
0.0
 11
512.2254220322733
 21
45.56325537762234
 31
0.0
  0
LINE
  5
62C
330
1F
100
AcDbEntity
  8
0
  6
Continuous
 62
     7
370
    15
100
AcDbLine
 10
507.2254212126733
 20
41.56325472202235
 30
0.0
 11
508.2254213765733
 21
41.56325472202235
 31
0.0
  0
LINE
  5
62D
330
1F
100
AcDbEntity
  8
0
  6
Continuous
 62
     7
370
    15
100
AcDbLine
 10
512.2254220322733
 20
45.56325537762234
 30
0.0
 11
512.2254220322733
 21
46.56325367892236
 31
0.0
  0
LINE
  5
62E
330
1F
100
AcDbEntity
  8
0
  6
Continuous
 62
     7
370
    15
100
AcDbLine
 10
507.2254212126733
 20
-43.93674718537766
 30
0.0
 11
508.2254213765733
 21
-43.93674718537766
 31
0.0
  0
LINE
  5
62F
330
1F
100
AcDbEntity
  8
0
  6
Continuous
 62
     7
370
    15
100
AcDbLine
 10
512.2254220322733
 20
-48.93674614227767
 30
0.0
 11
512.2254220322733
 21
-47.93674411567766
 31
0.0
  0
LINE
  5
630
330
1F
100
AcDbEntity
  8
0
  6
Continuous
 62
     7
370
    15
100
AcDbLine
 10
541.2254221290733
 20
-43.93674718537766
 30
0.0
 11
542.2254213616733
 21
-43.93674718537766
 31
0.0
  0
LINE
  5
631
330
1F
100
AcDbEntity
  8
0
  6
Continuous
 62
     7
370
    15
100
AcDbLine
 10
537.2254214734733
 20
-48.93674614227767
 30
0.0
 11
537.2254214734733
 21
-47.93674411567766
 31
0.0
  0
LINE
  5
632
330
1F
100
AcDbEntity
  8
0
  6
Continuous
 62
     7
370
    15
100
AcDbLine
 10
537.2254214734733
 20
45.56325537762234
 30
0.0
 11
537.2254214734733
 21
46.56325367892236
 31
0.0
  0
LINE
  5
633
330
1F
100
AcDbEntity
  8
0
  6
Continuous
 62
     7
370
    15
100
AcDbLine
 10
541.2254221290733
 20
41.56325472202235
 30
0.0
 11
542.2254213616733
 21
41.56325472202235
 31
0.0
  0
LINE
  5
634
330
1F
100
AcDbEntity
  8
0
  6
Continuous
 62
     7
370
    15
100
AcDbLine
 10
486.9754211530733
 20
47.56325570552235
 30
0.0
 11
486.9754211530733
 21
46.56325367892236
 31
0.0
  0
ARC
  5
635
330
1F
100
AcDbEntity
  8
0
  6
Continuous
 62
     7
370
    15
100
AcDbCircle
 10
486.9754216731733
 20
45.56325457602236
 30
0.0
 40
1.0
100
AcDbArc
 50
89.99999999759967
 51
179.9999999975997
  0
LINE
  5
636
330
1F
100
AcDbEntity
  8
0
  6
Continuous
 62
     7
370
    15
100
AcDbLine
 10
484.9754208252733
 20
45.56325537762234
 30
0.0
 11
485.9754228517733
 21
45.56325537762234
 31
0.0
  0
LINE
  5
637
330
1F
100
AcDbEntity
  8
0
  6
Continuous
 62
     7
370
    15
100
AcDbLine
 10
561.9754204079733
 20
47.56325570552235
 30
0.0
 11
561.9754204079733
 21
46.56325367892236
 31
0.0
  0
LINE
  5
638
330
1F
100
AcDbEntity
  8
0
  6
Continuous
 62
     7
370
    15
100
AcDbLine
 10
561.9754204079733
 20
46.56325367892236
 30
0.0
 11
537.2254214734733
 21
46.56325367892236
 31
0.0
  0
LINE
  5
639
330
1F
100
AcDbEntity
  8
0
  6
Continuous
 62
     7
370
    15
100
AcDbLine
 10
512.2254220322733
 20
46.56325367892236
 30
0.0
 11
486.9754211530733
 21
46.56325367892236
 31
0.0
  0
LINE
  5
63A
330
1F
100
AcDbEntity
  8
0
  6
Continuous
 62
     7
370
    15
100
AcDbLine
 10
485.9754228517733
 20
45.56325537762234
 30
0.0
 11
485.9754228517733
 21
-47.93674411567766
 31
0.0
  0
LINE
  5
63B
330
1F
100
AcDbEntity
  8
0
  6
Continuous
 62
     7
370
    15
100
AcDbLine
 10
485.9754228517733
 20
-47.93674411567766
 30
0.0
 11
484.9754208252733
 21
-47.93674411567766
 31
0.0
  0
LINE
  5
63C
330
1F
100
AcDbEntity
  8
0
  6
Continuous
 62
     7
370
    15
100
AcDbLine
 10
486.9754211530733
 20
-48.93674614227767
 30
0.0
 11
512.2254220322733
 21
-48.93674614227767
 31
0.0
  0
LINE
  5
63D
330
1F
100
AcDbEntity
  8
0
  6
Continuous
 62
     7
370
    15
100
AcDbLine
 10
537.2254214734733
 20
-48.93674614227767
 30
0.0
 11
561.9754204079733
 21
-48.93674614227767
 31
0.0
  0
ARC
  5
63E
330
1F
100
AcDbEntity
  8
0
  6
Continuous
 62
     7
370
    15
100
AcDbCircle
 10
486.9754216692733
 20
-47.93674542397765
 30
0.0
 40
1.0
100
AcDbArc
 50
179.9999999975997
 51
269.9999999975997
  0
ARC
  5
63F
330
1F
100
AcDbEntity
  8
0
  6
Continuous
 62
     7
370
    15
100
AcDbCircle
 10
561.9754216730732
 20
43.06325457292235
 30
0.0
 40
3.500000000000014
100
AcDbArc
 50
359.9999999976001
 51
89.99999999759922
  0
LINE
  5
640
330
1F
100
AcDbEntity
  8
0
  6
Continuous
 62
     7
370
    15
100
AcDbLine
 10
565.4754200503733
 20
-45.43674649987766
 30
0.0
 11
565.4754200503733
 21
43.06325403652238
 31
0.0
  0
ARC
  5
641
330
1F
100
AcDbEntity
  8
0
  6
Continuous
 62
     7
370
    15
100
AcDbCircle
 10
561.9754216693733
 20
-45.43674542707767
 30
0.0
 40
3.500000000000028
100
AcDbArc
 50
269.9999999975992
 51
359.9999999976001
  0
LINE
  5
642
330
1F
100
AcDbEntity
  8
0
  6
Continuous
 62
     7
370
    15
100
AcDbLine
 10
486.9754211530733
 20
-48.93674614227767
 30
0.0
 11
486.9754211530733
 21
-49.93674444357767
 31
0.0
  0
LINE
  5
643
330
1F
100
AcDbEntity
  8
0
  6
Continuous
 62
     7
370
    15
100
AcDbLine
 10
561.9754204079733
 20
-48.93674614227767
 30
0.0
 11
561.9754204079733
 21
-49.93674444357767
 31
0.0
  0
LINE
  5
644
330
1F
100
AcDbEntity
  8
0
  6
Continuous
 62
     7
370
    15
100
AcDbLine
 10
565.4754200503733
 20
-45.43674649987766
 30
0.0
 11
566.4754220769732
 21
-45.43674649987766
 31
0.0
  0
LINE
  5
645
330
1F
100
AcDbEntity
  8
0
  6
Continuous
 62
     7
370
    15
100
AcDbLine
 10
566.4754220769732
 20
43.06325403652238
 30
0.0
 11
565.4754200503733
 21
43.06325403652238
 31
0.0
  0
LINE
  5
646
330
1F
100
AcDbEntity
  8
0
  6
Continuous
 62
     7
370
    15
100
AcDbLine
 10
533.2254217490733
 20
-103.2053163276777
 30
0.0
 11
533.2254217490733
 21
-100.3053175287777
 31
0.0
  0
LINE
  5
647
330
1F
100
AcDbEntity
  8
0
  6
Continuous
 62
     7
370
    15
100
AcDbLine
 10
516.2254217565733
 20
-100.3053175287777
 30
0.0
 11
516.2254217565733
 21
-103.2053163276777
 31
0.0
  0
LINE
  5
648
330
1F
100
AcDbEntity
  8
0
  6
Continuous
 62
     7
370
    15
100
AcDbLine
 10
533.2254217490733
 20
-144.9053127500777
 30
0.0
 11
533.2254217490733
 21
-143.2053137752777
 31
0.0
  0
LINE
  5
649
330
1F
100
AcDbEntity
  8
0
  6
Continuous
 62
     7
370
    15
100
AcDbLine
 10
516.2254217565733
 20
-143.2053137752777
 30
0.0
 11
516.2254217565733
 21
-144.9053127500777
 31
0.0
  0
LINE
  5
64E
330
1F
100
AcDbEntity
  8
0
  6
Continuous
 62
     7
370
    15
100
AcDbLine
 10
471.9733269438733
 20
-118.9053175972777
 30
0.0
 11
471.9733269438733
 21
-128.7053158508777
 31
0.0
  0
LINE
  5
65C
330
1F
100
AcDbEntity
  8
0
  6
Continuous
 62
     7
370
    15
100
AcDbLine
 10
516.2254217565733
 20
-100.3053175287777
 30
0.0
 11
533.2254217490733
 21
-100.3053175287777
 31
0.0
  0
LINE
  5
65D
330
1F
100
AcDbEntity
  8
0
  6
Continuous
 62
     7
370
    15
100
AcDbLine
 10
516.2254217565733
 20
-144.9053127500777
 30
0.0
 11
533.2254217490733
 21
-144.9053127500777
 31
0.0
  0
SPLINE
  5
660
330
1F
100
AcDbEntity
  8
0
  6
Continuous
 62
     7
370
    15
100
AcDbSpline
210
0.0
220
0.0
230
1.0
 70
     8
 71
     3
 72
    17
 73
    13
 74
     0
 42
0.000000001
 43
0.00000001
 40
0.0
 40
0.0
 40
0.0
 40
0.0
 40
0.1004925577205408
 40
0.2010837634838626
 40
0.2998441972448291
 40
0.3961343352346712
 40
0.4946253000596067
 40
0.5967957418480322
 40
0.6992928754274254
 40
0.7981761719185639
 40
0.894470054633682
 40
0.9999999999999999
 40
0.9999999999999999
 40
0.9999999999999999
 40
0.9999999999999999
 10
507.2254212126682
 20
-141.705318186021
 30
0.0
 10
507.2446170542223
 20
-141.6805843689452
 30
0.0
 10
507.2830275808374
 20
-141.6310924549594
 30
0.0
 10
507.5617169312603
 20
-141.2207851320979
 30
0.0
 10
507.8890652254711
 20
-140.5689186539684
 30
0.0
 10
508.1519757625971
 20
-139.7156865123075
 30
0.0
 10
508.2582968529547
 20
-138.7475570365024
 30
0.0
 10
508.1671623218019
 20
-137.7530199299824
 30
0.0
 10
507.8986603379324
 20
-136.8617839810299
 30
0.0
 10
507.5690955497255
 20
-136.2035890981502
 30
0.0
 10
507.2870925565055
 20
-135.7844352597714
 30
0.0
 10
507.2465960740431
 20
-135.7324823945087
 30
0.0
 10
507.2254212126682
 20
-135.7053172025443
 30
0.0
  0
LINE
  5
661
330
1F
100
AcDbEntity
  8
0
  6
Continuous
 62
     7
370
    15
100
AcDbLine
 10
507.2254212126733
 20
-135.7053172025776
 30
0.0
 11
507.2254212126733
 21
-135.2053161892777
 31
0.0
  0
LINE
  5
662
330
1F
100
AcDbEntity
  8
0
  6
Continuous
 62
     7
370
    15
100
AcDbLine
 10
507.2254212126733
 20
-142.2053191992777
 30
0.0
 11
507.2254212126733
 21
-141.7053181859777
 31
0.0
  0
LINE
  5
663
330
1F
100
AcDbEntity
  8
0
  6
Continuous
 62
     7
370
    15
100
AcDbLine
 10
512.2254220322733
 20
-143.2053137752777
 30
0.0
 11
508.2254213765733
 21
-143.2053137752777
 31
0.0
  0
ARC
  5
664
330
1F
100
AcDbEntity
  8
0
  6
Continuous
 62
     7
370
    15
100
AcDbCircle
 10
508.2254216729733
 20
-142.2053155474777
 30
0.0
 40
1.0
100
AcDbArc
 50
179.9999999975997
 51
270.0
  0
LINE
  5
665
330
1F
100
AcDbEntity
  8
0
  6
Continuous
 62
     7
370
    15
100
AcDbLine
 10
537.2254214734733
 20
-135.2053161892777
 30
0.0
 11
512.2254220322733
 21
-135.2053161892777
 31
0.0
  0
LINE
  5
666
330
1F
100
AcDbEntity
  8
0
  6
Continuous
 62
     7
370
    15
100
AcDbLine
 10
537.2254214734733
 20
-143.2053137752777
 30
0.0
 11
512.2254220322733
 21
-143.2053137752777
 31
0.0
  0
LINE
  5
667
330
1F
100
AcDbEntity
  8
0
  6
Continuous
 62
     7
370
    15
100
AcDbLine
 10
542.2254213616733
 20
-135.2053161892777
 30
0.0
 11
542.2254213616733
 21
-135.7053172025776
 31
0.0
  0
SPLINE
  5
668
330
1F
100
AcDbEntity
  8
0
  6
Continuous
 62
     7
370
    15
100
AcDbSpline
210
0.0
220
0.0
230
1.0
 70
     8
 71
     3
 72
    17
 73
    13
 74
     0
 42
0.000000001
 43
0.00000001
 40
0.0
 40
0.0
 40
0.0
 40
0.0
 40
0.1004925193205619
 40
0.2010838047806636
 40
0.2998444635973497
 40
0.3961343219634966
 40
0.4946253168799338
 40
0.5967957982569617
 40
0.6992926028420154
 40
0.7981761862145605
 40
0.8944699157053719
 40
1.0
 40
1.0
 40
1.0
 40
1.0
 10
542.2254213616798
 20
-135.7053172025444
 30
0.0
 10
542.2062265748325
 20
-135.7300495790597
 30
0.0
 10
542.1678181361019
 20
-135.7795386395848
 30
0.0
 10
541.8891236781604
 20
-136.1898459438448
 30
0.0
 10
541.5617813980241
 20
-136.8417166790205
 30
0.0
 10
541.2988667301086
 20
-137.694945512796
 30
0.0
 10
541.1925466311366
 20
-138.6630747124731
 30
0.0
 10
541.2836821522228
 20
-139.6576110720002
 30
0.0
 10
541.552183942138
 20
-140.5488440862934
 30
0.0
 10
541.8817474402906
 20
-141.2070441052567
 30
0.0
 10
542.1637500915353
 20
-141.6261898295902
 30
0.0
 10
542.2042465063175
 20
-141.678149433074
 30
0.0
 10
542.2254213616798
 20
-141.705318186021
 30
0.0
  0
LINE
  5
669
330
1F
100
AcDbEntity
  8
0
  6
Continuous
 62
     7
370
    15
100
AcDbLine
 10
542.2254213616733
 20
-141.7053181859777
 30
0.0
 11
542.2254213616733
 21
-142.2053191992777
 31
0.0
  0
LINE
  5
66A
330
1F
100
AcDbEntity
  8
0
  6
Continuous
 62
     7
370
    15
100
AcDbLine
 10
541.2254221290733
 20
-143.2053137752777
 30
0.0
 11
537.2254214734733
 21
-143.2053137752777
 31
0.0
  0
ARC
  5
66B
330
1F
100
AcDbEntity
  8
0
  6
Continuous
 62
     7
370
    15
100
AcDbCircle
 10
541.2254216729733
 20
-142.2053155474777
 30
0.0
 40
1.0
100
AcDbArc
 50
270.0
 51
0.0000000024003265
  0
LINE
  5
66C
330
1F
100
AcDbEntity
  8
0
  6
Continuous
 62
     7
370
    15
100
AcDbLine
 10
508.2254213765733
 20
-103.2053163276777
 30
0.0
 11
512.2254220322733
 21
-103.2053163276777
 31
0.0
  0
ARC
  5
66D
330
1F
100
AcDbEntity
  8
0
  6
Continuous
 62
     7
370
    15
100
AcDbCircle
 10
508.2254216729733
 20
-104.2053168541777
 30
0.0
 40
1.0
100
AcDbArc
 50
90.0
 51
179.9999999975997
  0
LINE
  5
66E
330
1F
100
AcDbEntity
  8
0
  6
Continuous
 62
     7
370
    15
100
AcDbLine
 10
507.2254212126733
 20
-111.2053176389777
 30
0.0
 11
507.2254212126733
 21
-110.7053166257777
 31
0.0
  0
SPLINE
  5
66F
330
1F
100
AcDbEntity
  8
0
  6
Continuous
 62
     7
370
    15
100
AcDbSpline
210
0.0
220
0.0
230
1.0
 70
     8
 71
     3
 72
    17
 73
    13
 74
     0
 42
0.000000001
 43
0.00000001
 40
0.0
 40
0.0
 40
0.0
 40
0.0
 40
0.1004925765373101
 40
0.2010836463259032
 40
0.2998443544834394
 40
0.3961345105031672
 40
0.4946251185646758
 40
0.5967957680135457
 40
0.6992929207850557
 40
0.7981761074569348
 40
0.8944700082026396
 40
0.9999999999999999
 40
0.9999999999999999
 40
0.9999999999999999
 40
0.9999999999999999
 10
507.2254212126682
 20
-110.7053166257376
 30
0.0
 10
507.2446169754529
 20
-110.6805824135787
 30
0.0
 10
507.2830273148804
 20
-110.6310897471422
 30
0.0
 10
507.5617177646345
 20
-110.2207884426187
 30
0.0
 10
507.8890646841523
 20
-109.5689167606919
 30
0.0
 10
508.1519754660002
 20
-108.7156863288401
 30
0.0
 10
508.2582969230012
 20
-107.7475573209971
 30
0.0
 10
508.1671624150824
 20
-106.7530208982932
 30
0.0
 10
507.8986606178358
 20
-105.8617842724543
 30
0.0
 10
507.5690952834585
 20
-105.2035912917472
 30
0.0
 10
507.287092570341
 20
-104.7844377468852
 30
0.0
 10
507.2465960804702
 20
-104.7324834491563
 30
0.0
 10
507.2254212126682
 20
-104.7053175049061
 30
0.0
  0
LINE
  5
670
330
1F
100
AcDbEntity
  8
0
  6
Continuous
 62
     7
370
    15
100
AcDbLine
 10
507.2254212126733
 20
-104.7053175048777
 30
0.0
 11
507.2254212126733
 21
-104.2053164915777
 31
0.0
  0
LINE
  5
671
330
1F
100
AcDbEntity
  8
0
  6
Continuous
 62
     7
370
    15
100
AcDbLine
 10
512.2254220322733
 20
-103.2053163276777
 30
0.0
 11
537.2254214734733
 21
-103.2053163276777
 31
0.0
  0
LINE
  5
672
330
1F
100
AcDbEntity
  8
0
  6
Continuous
 62
     7
370
    15
100
AcDbLine
 10
512.2254220322733
 20
-111.2053176389777
 30
0.0
 11
537.2254214734733
 21
-111.2053176389777
 31
0.0
  0
LINE
  5
673
330
1F
100
AcDbEntity
  8
0
  6
Continuous
 62
     7
370
    15
100
AcDbLine
 10
537.2254214734733
 20
-103.2053163276777
 30
0.0
 11
541.2254221290733
 21
-103.2053163276777
 31
0.0
  0
ARC
  5
674
330
1F
100
AcDbEntity
  8
0
  6
Continuous
 62
     7
370
    15
100
AcDbCircle
 10
541.2254216729733
 20
-104.2053168541777
 30
0.0
 40
1.0
100
AcDbArc
 50
0.0000000024003265
 51
90.0
  0
SPLINE
  5
675
330
1F
100
AcDbEntity
  8
0
  6
Continuous
 62
     7
370
    15
100
AcDbSpline
210
0.0
220
0.0
230
1.0
 70
     8
 71
     3
 72
    17
 73
    13
 74
     0
 42
0.000000001
 43
0.00000001
 40
0.0
 40
0.0
 40
0.0
 40
0.0
 40
0.1004925304211659
 40
0.2010837242050488
 40
0.2998443690103276
 40
0.3961343805606654
 40
0.494625173901248
 40
0.5967958293125881
 40
0.6992929555178617
 40
0.7981762681915587
 40
0.8944699840209518
 40
1.0
 40
1.0
 40
1.0
 40
1.0
 10
542.2254213616798
 20
-104.7053175049061
 30
0.0
 10
542.2062266047042
 20
-104.73005082436
 30
0.0
 10
542.1678182453794
 20
-104.7795417463907
 30
0.0
 10
541.8891235734122
 20
-105.1898457489224
 30
0.0
 10
541.5617810754416
 20
-105.8417174089732
 30
0.0
 10
541.2988671762917
 20
-106.6949466949173
 30
0.0
 10
541.1925464379752
 20
-107.6630763134132
 30
0.0
 10
541.2836825524076
 20
-108.6576132081238
 30
0.0
 10
541.5521827578874
 20
-109.5488496064807
 30
0.0
 10
541.8817480383109
 20
-110.2070456819601
 30
0.0
 10
542.1637499406222
 20
-110.6261930132279
 30
0.0
 10
542.2042464578548
 20
-110.6781495059202
 30
0.0
 10
542.2254213616798
 20
-110.7053166257376
 30
0.0
  0
LINE
  5
676
330
1F
100
AcDbEntity
  8
0
  6
Continuous
 62
     7
370
    15
100
AcDbLine
 10
542.2254213616733
 20
-110.7053166257777
 30
0.0
 11
542.2254213616733
 21
-111.2053176389777
 31
0.0
  0
LINE
  5
677
330
1F
100
AcDbEntity
  8
0
  6
Continuous
 62
     7
370
    15
100
AcDbLine
 10
542.2254213616733
 20
-104.2053164915777
 30
0.0
 11
542.2254213616733
 21
-104.7053175048777
 31
0.0
  0
LINE
  5
689
330
1F
100
AcDbEntity
  8
0
  6
Continuous
 62
     7
370
    15
100
AcDbLine
 10
484.4254226908733
 20
-114.8053152488777
 30
0.0
 11
484.9754208252733
 21
-114.8053152488777
 31
0.0
  0
LINE
  5
68B
330
1F
100
AcDbEntity
  8
0
  6
Continuous
 62
     7
370
    15
100
AcDbLine
 10
484.4254226908733
 20
-130.4053168925777
 30
0.0
 11
484.9754208252733
 21
-130.4053168925777
 31
0.0
  0
LINE
  5
68C
330
1F
100
AcDbEntity
  8
0
  6
Continuous
 62
     7
370
    15
100
AcDbLine
 10
484.4254226908733
 20
-130.4053168925777
 30
0.0
 11
484.4254226908733
 21
-127.2053148779777
 31
0.0
  0
LINE
  5
68E
330
1F
100
AcDbEntity
  8
0
  6
Continuous
 62
     7
370
    15
100
AcDbLine
 10
484.4254226908733
 20
-128.7053158508777
 30
0.0
 11
483.9101777896733
 21
-128.7053158508777
 31
0.0
  0
LINE
  5
68F
330
1F
100
AcDbEntity
  8
0
  6
Continuous
 62
     7
370
    15
100
AcDbLine
 10
484.4254226908733
 20
-118.9053175972777
 30
0.0
 11
483.9101777896733
 21
-118.9053175972777
 31
0.0
  0
LINE
  5
690
330
1F
100
AcDbEntity
  8
0
  6
Continuous
 62
     7
370
    15
100
AcDbLine
 10
483.9101777896733
 20
-128.7053158508777
 30
0.0
 11
481.3002617582733
 21
-128.7053158508777
 31
0.0
  0
LINE
  5
691
330
1F
100
AcDbEntity
  8
0
  6
Continuous
 62
     7
370
    15
100
AcDbLine
 10
483.9101777896733
 20
-118.9053175972777
 30
0.0
 11
481.3002617582733
 21
-118.9053175972777
 31
0.0
  0
LINE
  5
692
330
1F
100
AcDbEntity
  8
0
  6
Continuous
 62
     7
370
    15
100
AcDbLine
 10
481.3002617582733
 20
-128.7053158508777
 30
0.0
 11
472.0428334102733
 21
-128.7053158508777
 31
0.0
  0
LINE
  5
693
330
1F
100
AcDbEntity
  8
0
  6
Continuous
 62
     7
370
    15
100
AcDbLine
 10
481.3002617582733
 20
-118.9053175972777
 30
0.0
 11
472.0428334102733
 21
-118.9053175972777
 31
0.0
  0
LINE
  5
694
330
1F
100
AcDbEntity
  8
0
  6
Continuous
 62
     7
370
    15
100
AcDbLine
 10
471.9733269438733
 20
-128.7053158508777
 30
0.0
 11
472.0428334102733
 21
-128.7053158508777
 31
0.0
  0
LINE
  5
695
330
1F
100
AcDbEntity
  8
0
  6
Continuous
 62
     7
370
    15
100
AcDbLine
 10
472.0428334102733
 20
-118.9053175972777
 30
0.0
 11
471.9733269438733
 21
-118.9053175972777
 31
0.0
  0
LINE
  5
699
330
1F
100
AcDbEntity
  8
0
  6
Continuous
 62
     7
370
    15
100
AcDbLine
 10
485.9754228517733
 20
-111.2053176389777
 30
0.0
 11
486.9754211530733
 21
-111.2053176389777
 31
0.0
  0
ARC
  5
69A
330
1F
100
AcDbEntity
  8
0
  6
Continuous
 62
     7
370
    15
100
AcDbCircle
 10
485.9754216731733
 20
-112.2053168541777
 30
0.0
 40
1.0
100
AcDbArc
 50
90.0
 51
179.9999999975997
  0
LINE
  5
69B
330
1F
100
AcDbEntity
  8
0
  6
Continuous
 62
     7
370
    15
100
AcDbLine
 10
486.9754211530733
 20
-119.2053152250777
 30
0.0
 11
484.9754208252733
 21
-119.2053152250777
 31
0.0
  0
LINE
  5
69C
330
1F
100
AcDbEntity
  8
0
  6
Continuous
 62
     7
370
    15
100
AcDbLine
 10
484.9754208252733
 20
-112.2053159402777
 30
0.0
 11
484.9754208252733
 21
-119.2053152250777
 31
0.0
  0
LINE
  5
69D
330
1F
100
AcDbEntity
  8
0
  6
Continuous
 62
     7
370
    15
100
AcDbLine
 10
486.9754211530733
 20
-111.2053176389777
 30
0.0
 11
561.9754204079733
 21
-111.2053176389777
 31
0.0
  0
LINE
  5
69E
330
1F
100
AcDbEntity
  8
0
  6
Continuous
 62
     7
370
    15
100
AcDbLine
 10
520.7254215628733
 20
-117.0053152369777
 30
0.0
 11
530.7254215721733
 21
-117.0053152369777
 31
0.0
  0
LINE
  5
69F
330
1F
100
AcDbEntity
  8
0
  6
Continuous
 62
     7
370
    15
100
AcDbLine
 10
530.7254215721733
 20
-117.0053152369777
 30
0.0
 11
530.7254215721733
 21
-114.0053166078777
 31
0.0
  0
ARC
  5
6A0
330
1F
100
AcDbEntity
  8
0
  6
Continuous
 62
     7
370
    15
100
AcDbCircle
 10
525.7254216731733
 20
-138.5002142819777
 30
0.0
 40
25.00000000000001
100
AcDbArc
 50
78.46304096719994
 51
101.5369590328001
  0
LINE
  5
6A1
330
1F
100
AcDbEntity
  8
0
  6
Continuous
 62
     7
370
    15
100
AcDbLine
 10
520.7254215628733
 20
-114.0053166078777
 30
0.0
 11
520.7254215628733
 21
-117.0053152369777
 31
0.0
  0
LINE
  5
6A2
330
1F
100
AcDbEntity
  8
0
  6
Continuous
 62
     7
370
    15
100
AcDbLine
 10
561.9754204079733
 20
-119.2053152250777
 30
0.0
 11
486.9754211530733
 21
-119.2053152250777
 31
0.0
  0
LINE
  5
6A3
330
1F
100
AcDbEntity
  8
0
  6
Continuous
 62
     7
370
    15
100
AcDbLine
 10
561.9754204079733
 20
-111.2053176389777
 30
0.0
 11
565.4754200503733
 21
-111.2053176389777
 31
0.0
  0
ARC
  5
6A4
330
1F
100
AcDbEntity
  8
0
  6
Continuous
 62
     7
370
    15
100
AcDbCircle
 10
565.4754216730732
 20
-112.2053168541777
 30
0.0
 40
1.0
100
AcDbArc
 50
0.0000000024003265
 51
90.0
  0
LINE
  5
6A5
330
1F
100
AcDbEntity
  8
0
  6
Continuous
 62
     7
370
    15
100
AcDbLine
 10
566.4754220769732
 20
-112.2053159402777
 30
0.0
 11
566.4754220769732
 21
-119.2053152250777
 31
0.0
  0
LINE
  5
6A6
330
1F
100
AcDbEntity
  8
0
  6
Continuous
 62
     7
370
    15
100
AcDbLine
 10
566.4754220769732
 20
-119.2053152250777
 30
0.0
 11
561.9754204079733
 21
-119.2053152250777
 31
0.0
  0
LINE
  5
6A7
330
1F
100
AcDbEntity
  8
0
  6
Continuous
 62
     7
370
    15
100
AcDbLine
 10
484.9754208252733
 20
-134.2053141626777
 30
0.0
 11
484.9754208252733
 21
-127.2053148779777
 31
0.0
  0
LINE
  5
6A8
330
1F
100
AcDbEntity
  8
0
  6
Continuous
 62
     7
370
    15
100
AcDbLine
 10
484.9754208252733
 20
-127.2053148779777
 30
0.0
 11
486.9754211530733
 21
-127.2053148779777
 31
0.0
  0
LINE
  5
6A9
330
1F
100
AcDbEntity
  8
0
  6
Continuous
 62
     7
370
    15
100
AcDbLine
 10
486.9754211530733
 20
-135.2053161892777
 30
0.0
 11
485.9754228517733
 21
-135.2053161892777
 31
0.0
  0
ARC
  5
6AA
330
1F
100
AcDbEntity
  8
0
  6
Continuous
 62
     7
370
    15
100
AcDbCircle
 10
485.9754216731733
 20
-134.2053155474777
 30
0.0
 40
1.0
100
AcDbArc
 50
179.9999999975997
 51
270.0
  0
LINE
  5
6AB
330
1F
100
AcDbEntity
  8
0
  6
Continuous
 62
     7
370
    15
100
AcDbLine
 10
520.7254215628733
 20
-132.4053172203776
 30
0.0
 11
520.7254215628733
 21
-129.4053148660777
 31
0.0
  0
ARC
  5
6AC
330
1F
100
AcDbEntity
  8
0
  6
Continuous
 62
     7
370
    15
100
AcDbCircle
 10
525.7254216731733
 20
-107.6553155474777
 30
0.0
 40
25.25
100
AcDbArc
 50
258.5788137249999
 51
281.4211862750001
  0
LINE
  5
6AD
330
1F
100
AcDbEntity
  8
0
  6
Continuous
 62
     7
370
    15
100
AcDbLine
 10
530.7254215721733
 20
-129.4053148660777
 30
0.0
 11
530.7254215721733
 21
-132.4053172203776
 31
0.0
  0
LINE
  5
6AE
330
1F
100
AcDbEntity
  8
0
  6
Continuous
 62
     7
370
    15
100
AcDbLine
 10
520.7254215628733
 20
-129.4053148660777
 30
0.0
 11
530.7254215721733
 21
-129.4053148660777
 31
0.0
  0
LINE
  5
6AF
330
1F
100
AcDbEntity
  8
0
  6
Continuous
 62
     7
370
    15
100
AcDbLine
 10
486.9754211530733
 20
-127.2053148779777
 30
0.0
 11
561.9754204079733
 21
-127.2053148779777
 31
0.0
  0
LINE
  5
6B0
330
1F
100
AcDbEntity
  8
0
  6
Continuous
 62
     7
370
    15
100
AcDbLine
 10
561.9754204079733
 20
-135.2053161892777
 30
0.0
 11
486.9754211530733
 21
-135.2053161892777
 31
0.0
  0
LINE
  5
6B1
330
1F
100
AcDbEntity
  8
0
  6
Continuous
 62
     7
370
    15
100
AcDbLine
 10
566.4754220769732
 20
-134.2053141626777
 30
0.0
 11
566.4754220769732
 21
-127.2053148779777
 31
0.0
  0
LINE
  5
6B2
330
1F
100
AcDbEntity
  8
0
  6
Continuous
 62
     7
370
    15
100
AcDbLine
 10
561.9754204079733
 20
-127.2053148779777
 30
0.0
 11
566.4754220769732
 21
-127.2053148779777
 31
0.0
  0
ARC
  5
6B3
330
1F
100
AcDbEntity
  8
0
  6
Continuous
 62
     7
370
    15
100
AcDbCircle
 10
565.4754216730732
 20
-134.2053155474777
 30
0.0
 40
1.0
100
AcDbArc
 50
270.0
 51
0.0000000024003265
  0
LINE
  5
6B4
330
1F
100
AcDbEntity
  8
0
  6
Continuous
 62
     7
370
    15
100
AcDbLine
 10
565.4754200503733
 20
-135.2053161892777
 30
0.0
 11
561.9754204079733
 21
-135.2053161892777
 31
0.0
  0
LINE
  5
6B5
330
1F
100
AcDbEntity
  8
0
  6
Continuous
 62
     7
370
    15
100
AcDbLine
 10
529.1754217022733
 20
-114.0053166078777
 30
0.0
 11
521.6754218116733
 21
-114.0053166078777
 31
0.0
  0
LINE
  5
6B6
330
1F
100
AcDbEntity
  8
0
  6
Continuous
 62
     7
370
    15
100
AcDbLine
 10
529.1754217022733
 20
-117.0053152369777
 30
0.0
 11
529.1754217022733
 21
-114.0053166078777
 31
0.0
  0
LINE
  5
6B7
330
1F
100
AcDbEntity
  8
0
  6
Continuous
 62
     7
370
    15
100
AcDbLine
 10
521.6754218116733
 20
-114.0053166078777
 30
0.0
 11
521.6754218116733
 21
-117.0053152369777
 31
0.0
  0
LINE
  5
6C3
330
1F
100
AcDbEntity
  8
0
  6
Continuous
 62
     7
370
    15
100
AcDbLine
 10
530.1754216915733
 20
-132.4053172203776
 30
0.0
 11
530.1754216915733
 21
-129.4053148660777
 31
0.0
  0
LINE
  5
6C4
330
1F
100
AcDbEntity
  8
0
  6
Continuous
 62
     7
370
    15
100
AcDbLine
 10
522.6754215099733
 20
-132.4053172203776
 30
0.0
 11
530.1754216915733
 21
-132.4053172203776
 31
0.0
  0
LINE
  5
6C5
330
1F
100
AcDbEntity
  8
0
  6
Continuous
 62
     7
370
    15
100
AcDbLine
 10
522.6754215099733
 20
-129.4053148660777
 30
0.0
 11
522.6754215099733
 21
-132.4053172203776
 31
0.0
  0
LINE
  5
6D0
330
1F
100
AcDbEntity
  8
0
  6
Continuous
 62
     7
370
    15
100
AcDbLine
 10
512.2254220322733
 20
-135.2053161892777
 30
0.0
 11
512.2254220322733
 21
-142.2053191992777
 31
0.0
  0
LINE
  5
6D1
330
1F
100
AcDbEntity
  8
0
  6
Continuous
 62
     7
370
    15
100
AcDbLine
 10
507.2254212126733
 20
-142.2053191992777
 30
0.0
 11
512.2254220322733
 21
-142.2053191992777
 31
0.0
  0
LINE
  5
6D2
330
1F
100
AcDbEntity
  8
0
  6
Continuous
 62
     7
370
    15
100
AcDbLine
 10
512.2254220322733
 20
-143.2053137752777
 30
0.0
 11
512.2254220322733
 21
-142.2053191992777
 31
0.0
  0
LINE
  5
6D3
330
1F
100
AcDbEntity
  8
0
  6
Continuous
 62
     7
370
    15
100
AcDbLine
 10
537.2254214734733
 20
-142.2053191992777
 30
0.0
 11
537.2254214734733
 21
-135.2053161892777
 31
0.0
  0
LINE
  5
6D4
330
1F
100
AcDbEntity
  8
0
  6
Continuous
 62
     7
370
    15
100
AcDbLine
 10
512.2254220322733
 20
-142.2053191992777
 30
0.0
 11
537.2254214734733
 21
-142.2053191992777
 31
0.0
  0
LINE
  5
6D5
330
1F
100
AcDbEntity
  8
0
  6
Continuous
 62
     7
370
    15
100
AcDbLine
 10
537.2254214734733
 20
-143.2053137752777
 30
0.0
 11
537.2254214734733
 21
-142.2053191992777
 31
0.0
  0
LINE
  5
6D6
330
1F
100
AcDbEntity
  8
0
  6
Continuous
 62
     7
370
    15
100
AcDbLine
 10
537.2254214734733
 20
-142.2053191992777
 30
0.0
 11
542.2254213616733
 21
-142.2053191992777
 31
0.0
  0
LINE
  5
6D7
330
1F
100
AcDbEntity
  8
0
  6
Continuous
 62
     7
370
    15
100
AcDbLine
 10
512.2254220322733
 20
-103.2053163276777
 30
0.0
 11
512.2254220322733
 21
-104.2053164915777
 31
0.0
  0
LINE
  5
6D8
330
1F
100
AcDbEntity
  8
0
  6
Continuous
 62
     7
370
    15
100
AcDbLine
 10
512.2254220322733
 20
-104.2053164915777
 30
0.0
 11
507.2254212126733
 21
-104.2053164915777
 31
0.0
  0
LINE
  5
6D9
330
1F
100
AcDbEntity
  8
0
  6
Continuous
 62
     7
370
    15
100
AcDbLine
 10
512.2254220322733
 20
-104.2053164915777
 30
0.0
 11
512.2254220322733
 21
-111.2053176389777
 31
0.0
  0
LINE
  5
6DA
330
1F
100
AcDbEntity
  8
0
  6
Continuous
 62
     7
370
    15
100
AcDbLine
 10
537.2254214734733
 20
-103.2053163276777
 30
0.0
 11
537.2254214734733
 21
-104.2053164915777
 31
0.0
  0
LINE
  5
6DB
330
1F
100
AcDbEntity
  8
0
  6
Continuous
 62
     7
370
    15
100
AcDbLine
 10
537.2254214734733
 20
-104.2053164915777
 30
0.0
 11
512.2254220322733
 21
-104.2053164915777
 31
0.0
  0
LINE
  5
6DC
330
1F
100
AcDbEntity
  8
0
  6
Continuous
 62
     7
370
    15
100
AcDbLine
 10
537.2254214734733
 20
-111.2053176389777
 30
0.0
 11
537.2254214734733
 21
-104.2053164915777
 31
0.0
  0
LINE
  5
6DD
330
1F
100
AcDbEntity
  8
0
  6
Continuous
 62
     7
370
    15
100
AcDbLine
 10
542.2254213616733
 20
-104.2053164915777
 30
0.0
 11
537.2254214734733
 21
-104.2053164915777
 31
0.0
  0
LINE
  5
6E4
330
1F
100
AcDbEntity
  8
0
  6
Continuous
 62
     7
370
    15
100
AcDbLine
 10
483.9101777896733
 20
-128.7053158508777
 30
0.0
 11
483.9101777896733
 21
-118.9053175972777
 31
0.0
  0
LINE
  5
6E5
330
1F
100
AcDbEntity
  8
0
  6
Continuous
 62
     7
370
    15
100
AcDbLine
 10
481.3002617582733
 20
-118.9053175972777
 30
0.0
 11
481.3002617582733
 21
-128.7053158508777
 31
0.0
  0
LINE
  5
6E6
330
1F
100
AcDbEntity
  8
0
  6
Continuous
 62
     7
370
    15
100
AcDbLine
 10
472.0428334102733
 20
-128.7053158508777
 30
0.0
 11
472.0428334102733
 21
-118.9053175972777
 31
0.0
  0
LINE
  5
6E7
330
1F
100
AcDbEntity
  8
0
  6
Continuous
 62
     7
370
    15
100
AcDbLine
 10
486.9754211530733
 20
-111.2053176389777
 30
0.0
 11
486.9754211530733
 21
-112.2053159402777
 31
0.0
  0
LINE
  5
6E8
330
1F
100
AcDbEntity
  8
0
  6
Continuous
 62
     7
370
    15
100
AcDbLine
 10
486.9754211530733
 20
-112.2053159402777
 30
0.0
 11
484.9754208252733
 21
-112.2053159402777
 31
0.0
  0
LINE
  5
6E9
330
1F
100
AcDbEntity
  8
0
  6
Continuous
 62
     7
370
    15
100
AcDbLine
 10
486.9754211530733
 20
-112.2053159402777
 30
0.0
 11
486.9754211530733
 21
-119.2053152250777
 31
0.0
  0
LINE
  5
6EA
330
1F
100
AcDbEntity
  8
0
  6
Continuous
 62
     7
370
    15
100
AcDbLine
 10
561.9754204079733
 20
-111.2053176389777
 30
0.0
 11
561.9754204079733
 21
-112.2053159402777
 31
0.0
  0
LINE
  5
6EB
330
1F
100
AcDbEntity
  8
0
  6
Continuous
 62
     7
370
    15
100
AcDbLine
 10
561.9754204079733
 20
-112.2053159402777
 30
0.0
 11
486.9754211530733
 21
-112.2053159402777
 31
0.0
  0
LINE
  5
6EC
330
1F
100
AcDbEntity
  8
0
  6
Continuous
 62
     7
370
    15
100
AcDbLine
 10
561.9754204079733
 20
-112.2053159402777
 30
0.0
 11
561.9754204079733
 21
-119.2053152250777
 31
0.0
  0
LINE
  5
6ED
330
1F
100
AcDbEntity
  8
0
  6
Continuous
 62
     7
370
    15
100
AcDbLine
 10
566.4754220769732
 20
-112.2053159402777
 30
0.0
 11
561.9754204079733
 21
-112.2053159402777
 31
0.0
  0
LINE
  5
6EE
330
1F
100
AcDbEntity
  8
0
  6
Continuous
 62
     7
370
    15
100
AcDbLine
 10
486.9754211530733
 20
-134.2053141626777
 30
0.0
 11
486.9754211530733
 21
-127.2053148779777
 31
0.0
  0
LINE
  5
6EF
330
1F
100
AcDbEntity
  8
0
  6
Continuous
 62
     7
370
    15
100
AcDbLine
 10
484.9754208252733
 20
-134.2053141626777
 30
0.0
 11
486.9754211530733
 21
-134.2053141626777
 31
0.0
  0
LINE
  5
6F0
330
1F
100
AcDbEntity
  8
0
  6
Continuous
 62
     7
370
    15
100
AcDbLine
 10
486.9754211530733
 20
-134.2053141626777
 30
0.0
 11
486.9754211530733
 21
-135.2053161892777
 31
0.0
  0
LINE
  5
6F1
330
1F
100
AcDbEntity
  8
0
  6
Continuous
 62
     7
370
    15
100
AcDbLine
 10
561.9754204079733
 20
-134.2053141626777
 30
0.0
 11
561.9754204079733
 21
-127.2053148779777
 31
0.0
  0
LINE
  5
6F2
330
1F
100
AcDbEntity
  8
0
  6
Continuous
 62
     7
370
    15
100
AcDbLine
 10
486.9754211530733
 20
-134.2053141626777
 30
0.0
 11
561.9754204079733
 21
-134.2053141626777
 31
0.0
  0
LINE
  5
6F3
330
1F
100
AcDbEntity
  8
0
  6
Continuous
 62
     7
370
    15
100
AcDbLine
 10
561.9754204079733
 20
-134.2053141626777
 30
0.0
 11
561.9754204079733
 21
-135.2053161892777
 31
0.0
  0
LINE
  5
6F4
330
1F
100
AcDbEntity
  8
0
  6
Continuous
 62
     7
370
    15
100
AcDbLine
 10
561.9754204079733
 20
-134.2053141626777
 30
0.0
 11
566.4754220769732
 21
-134.2053141626777
 31
0.0
  0
LINE
  5
703
330
1F
100
AcDbEntity
  8
0
  6
Continuous
 62
     7
370
    15
100
AcDbLine
 10
635.6093479936683
 20
4.813254751822342
 30
0.0
 11
632.7093491947683
 21
4.813254751822342
 31
0.0
  0
LINE
  5
704
330
1F
100
AcDbEntity
  8
0
  6
Continuous
 62
     7
370
    15
100
AcDbLine
 10
679.7093457227683
 20
4.813254751822342
 30
0.0
 11
678.0093467479683
 21
4.813254751822342
 31
0.0
  0
LINE
  5
705
330
1F
100
AcDbEntity
  8
0
  6
Continuous
 62
     7
370
    15
100
AcDbLine
 10
632.7093491947683
 20
-27.83674473257766
 30
0.0
 11
635.6093479936683
 21
-27.83674473257766
 31
0.0
  0
LINE
  5
706
330
1F
100
AcDbEntity
  8
0
  6
Continuous
 62
     7
370
    15
100
AcDbLine
 10
678.0093467479683
 20
-27.83674473257766
 30
0.0
 11
679.7093457227683
 21
-27.83674473257766
 31
0.0
  0
LINE
  5
707
330
1F
100
AcDbEntity
  8
0
  6
Continuous
 62
     7
370
    15
100
AcDbLine
 10
651.3093492632684
 20
-5.639445852377662
 30
0.0
 11
661.1093475168683
 21
-5.639445852377662
 31
0.0
  0
LINE
  5
708
330
1F
100
AcDbEntity
  8
0
  6
Continuous
 62
     7
370
    15
100
AcDbLine
 10
635.6093479936683
 20
-10.56060899367765
 30
0.0
 11
632.7093491947683
 21
-10.56060899367765
 31
0.0
  0
LINE
  5
709
330
1F
100
AcDbEntity
  8
0
  6
Continuous
 62
     7
370
    15
100
AcDbLine
 10
632.7093491947683
 20
-10.56060899367765
 30
0.0
 11
632.7093491947683
 21
4.813254751822342
 31
0.0
  0
LINE
  5
70A
330
1F
100
AcDbEntity
  8
0
  6
Continuous
 62
     7
370
    15
100
AcDbLine
 10
678.0093467479683
 20
-10.56060899367765
 30
0.0
 11
679.7093457227683
 21
-10.56060899367765
 31
0.0
  0
LINE
  5
70B
330
1F
100
AcDbEntity
  8
0
  6
Continuous
 62
     7
370
    15
100
AcDbLine
 10
679.7093457227683
 20
-10.56060899367765
 30
0.0
 11
679.7093457227683
 21
4.813254751822342
 31
0.0
  0
LINE
  5
70C
330
1F
100
AcDbEntity
  8
0
  6
Continuous
 62
     7
370
    15
100
AcDbLine
 10
679.7093457227683
 20
-22.83674577567767
 30
0.0
 11
679.7093457227683
 21
-10.56060899367765
 31
0.0
  0
LINE
  5
70D
330
1F
100
AcDbEntity
  8
0
  6
Continuous
 62
     7
370
    15
100
AcDbLine
 10
632.7093491947683
 20
-10.56060899367765
 30
0.0
 11
632.7093491947683
 21
-22.83674577567767
 31
0.0
  0
LINE
  5
70E
330
1F
100
AcDbEntity
  8
0
  6
Continuous
 62
     7
370
    15
100
AcDbLine
 10
679.7093457227683
 20
-27.83674473257766
 30
0.0
 11
679.7093457227683
 21
-22.83674577567767
 31
0.0
  0
LINE
  5
70F
330
1F
100
AcDbEntity
  8
0
  6
Continuous
 62
     7
370
    15
100
AcDbLine
 10
632.7093491947683
 20
-22.83674577567767
 30
0.0
 11
632.7093491947683
 21
-27.83674473257766
 31
0.0
  0
SPLINE
  5
710
330
1F
100
AcDbEntity
  8
0
  6
Continuous
 62
     7
370
    15
100
AcDbSpline
210
0.0
220
0.0
230
1.0
 70
     8
 71
     3
 72
    17
 73
    13
 74
     0
 42
0.000000001
 43
0.00000001
 40
0.0
 40
0.0
 40
0.0
 40
0.0
 40
0.1004925838165458
 40
0.2010835320083867
 40
0.2998445521845934
 40
0.3961342740409264
 40
0.4946253141477485
 40
0.596795787950596
 40
0.6992928156466797
 40
0.7981764443897401
 40
0.8944702429014108
 40
1.0
 40
1.0
 40
1.0
 40
1.0
 10
670.5093501752206
 20
-43.93674718534727
 30
0.0
 10
670.5340822460258
 20
-44.26549858700325
 30
0.0
 10
670.5835705959369
 20
-44.92332317949645
 30
0.0
 10
670.9938816491201
 20
-45.79748412527907
 30
0.0
 10
671.645746924614
 20
-46.45069967375427
 30
0.0
 10
672.4989799185722
 20
-46.84126263326637
 30
0.0
 10
673.4671069712094
 20
-46.97924409940477
 30
0.0
 10
674.4616455754049
 20
-46.86193953730155
 30
0.0
 10
675.3528760239353
 20
-46.46888871080067
 30
0.0
 10
676.0110773281602
 20
-45.81302705931115
 30
0.0
 10
676.4302221656259
 20
-44.94294706414296
 30
0.0
 10
676.4821822196523
 20
-44.28222590449975
 30
0.0
 10
676.5093511586973
 20
-43.93674718534727
 30
0.0
  0
LINE
  5
711
330
1F
100
AcDbEntity
  8
0
  6
Continuous
 62
     7
370
    15
100
AcDbLine
 10
677.0093521719683
 20
-48.93674614227767
 30
0.0
 11
670.0093491619683
 21
-48.93674614227767
 31
0.0
  0
LINE
  5
712
330
1F
100
AcDbEntity
  8
0
  6
Continuous
 62
     7
370
    15
100
AcDbLine
 10
678.0093467479683
 20
-43.93674718537766
 30
0.0
 11
678.0093467479683
 21
-47.93674411567766
 31
0.0
  0
ARC
  5
713
330
1F
100
AcDbEntity
  8
0
  6
Continuous
 62
     7
370
    15
100
AcDbCircle
 10
677.0093485201683
 20
-47.93674542497767
 30
0.0
 40
1.0
100
AcDbArc
 50
270.0
 51
0.0
  0
SPLINE
  5
714
330
1F
100
AcDbEntity
  8
0
  6
Continuous
 62
     7
370
    15
100
AcDbSpline
210
0.0
220
0.0
230
1.0
 70
     8
 71
     3
 72
    17
 73
    13
 74
     0
 42
0.000000001
 43
0.00000001
 40
0.0
 40
0.0
 40
0.0
 40
0.0
 40
0.1004925577205408
 40
0.2010837634838626
 40
0.2998441972448291
 40
0.3961343352346712
 40
0.4946253000596067
 40
0.5967957418480322
 40
0.6992928754274254
 40
0.7981761719185639
 40
0.894470054633682
 40
0.9999999999999999
 40
0.9999999999999999
 40
0.9999999999999999
 40
0.9999999999999999
 10
676.5093511586973
 20
41.56325472200143
 30
0.0
 10
676.4846173416215
 20
41.89200593500505
 30
0.0
 10
676.4351254276357
 20
42.54983107808152
 30
0.0
 10
676.0248181047743
 20
43.42399388158884
 30
0.0
 10
675.3729516266446
 20
44.07720822307715
 30
0.0
 10
674.5197194849837
 20
44.46777375439456
 30
0.0
 10
673.5515900091787
 20
44.60575700382952
 30
0.0
 10
672.5570529026587
 20
44.48844381312665
 30
0.0
 10
671.6658169537062
 20
44.09540344277343
 30
0.0
 10
671.0076220708265
 20
43.43953564224807
 30
0.0
 10
670.5884682324477
 20
42.56945907136196
 30
0.0
 10
670.5365153671851
 20
41.90873507457445
 30
0.0
 10
670.5093501752206
 20
41.56325472200143
 30
0.0
  0
LINE
  5
715
330
1F
100
AcDbEntity
  8
0
  6
Continuous
 62
     7
370
    15
100
AcDbLine
 10
676.5093511586683
 20
-43.93674718537766
 30
0.0
 11
676.5093511586683
 21
41.56325472202235
 31
0.0
  0
LINE
  5
716
330
1F
100
AcDbEntity
  8
0
  6
Continuous
 62
     7
370
    15
100
AcDbLine
 10
670.5093501752683
 20
-43.93674718537766
 30
0.0
 11
670.5093501752683
 21
41.56325472202235
 31
0.0
  0
LINE
  5
717
330
1F
100
AcDbEntity
  8
0
  6
Continuous
 62
     7
370
    15
100
AcDbLine
 10
678.0093467479683
 20
41.56325472202235
 30
0.0
 11
678.0093467479683
 21
-43.93674718537766
 31
0.0
  0
LINE
  5
718
330
1F
100
AcDbEntity
  8
0
  6
Continuous
 62
     7
370
    15
100
AcDbLine
 10
670.0093491619683
 20
46.56325367892236
 30
0.0
 11
677.0093521719683
 21
46.56325367892236
 31
0.0
  0
LINE
  5
719
330
1F
100
AcDbEntity
  8
0
  6
Continuous
 62
     7
370
    15
100
AcDbLine
 10
678.0093467479683
 20
45.56325537762234
 30
0.0
 11
678.0093467479683
 21
41.56325472202235
 31
0.0
  0
ARC
  5
71A
330
1F
100
AcDbEntity
  8
0
  6
Continuous
 62
     7
370
    15
100
AcDbCircle
 10
677.0093485201683
 20
45.56325457502237
 30
0.0
 40
1.0
100
AcDbArc
 50
0.0
 51
90.0
  0
LINE
  5
71B
330
1F
100
AcDbEntity
  8
0
  6
Continuous
 62
     7
370
    15
100
AcDbLine
 10
635.6093479936683
 20
-47.93674411567766
 30
0.0
 11
635.6093479936683
 21
-43.93674718537766
 31
0.0
  0
ARC
  5
71C
330
1F
100
AcDbEntity
  8
0
  6
Continuous
 62
     7
370
    15
100
AcDbCircle
 10
636.6093485201683
 20
-47.93674542497767
 30
0.0
 40
1.000000000000028
100
AcDbArc
 50
180.0
 51
270.0
  0
SPLINE
  5
71D
330
1F
100
AcDbEntity
  8
0
  6
Continuous
 62
     7
370
    15
100
AcDbSpline
210
0.0
220
0.0
230
1.0
 70
     8
 71
     3
 72
    17
 73
    13
 74
     0
 42
0.000000001
 43
0.00000001
 40
0.0
 40
0.0
 40
0.0
 40
0.0
 40
0.1004925949172068
 40
0.2010834514326054
 40
0.2998444575974116
 40
0.3961343326384011
 40
0.4946251711693342
 40
0.596795819006742
 40
0.6992931683226509
 40
0.7981765263667973
 40
0.8944703112170964
 40
1.0
 40
1.0
 40
1.0
 40
1.0
 10
637.1093491708824
 20
-43.93674718534727
 30
0.0
 10
637.1340821846268
 20
-44.26549850049635
 30
0.0
 10
637.1835723960413
 20
-44.92332258363065
 30
0.0
 10
637.5938801474931
 20
-45.79748450299196
 30
0.0
 10
638.245746347867
 20
-46.45070019286275
 30
0.0
 10
639.0989797939887
 20
-46.84126196773717
 30
0.0
 10
640.0671072654524
 20
-46.97924441548936
 30
0.0
 10
641.0616464048248
 20
-46.86193884484545
 30
0.0
 10
641.952880237431
 20
-46.46889087818558
 30
0.0
 10
642.6110775981609
 20
-45.81302565846387
 30
0.0
 10
643.0302240425665
 20
-44.94294751934656
 30
0.0
 10
643.0821809857975
 20
-44.28222600608065
 30
0.0
 10
643.1093482917139
 20
-43.93674718534727
 30
0.0
  0
LINE
  5
71E
330
1F
100
AcDbEntity
  8
0
  6
Continuous
 62
     7
370
    15
100
AcDbLine
 10
643.6093493049683
 20
-48.93674614227767
 30
0.0
 11
636.6093481575683
 21
-48.93674614227767
 31
0.0
  0
SPLINE
  5
71F
330
1F
100
AcDbEntity
  8
0
  6
Continuous
 62
     7
370
    15
100
AcDbSpline
210
0.0
220
0.0
230
1.0
 70
     8
 71
     3
 72
    17
 73
    13
 74
     0
 42
0.000000001
 43
0.00000001
 40
0.0
 40
0.0
 40
0.0
 40
0.0
 40
0.1004925765373101
 40
0.2010836463259032
 40
0.2998443544834394
 40
0.3961345105031672
 40
0.4946251185646758
 40
0.5967957680135457
 40
0.6992929207850557
 40
0.7981761074569348
 40
0.8944700082026396
 40
0.9999999999999999
 40
0.9999999999999999
 40
0.9999999999999999
 40
0.9999999999999999
 10
643.1093482917139
 20
41.56325472200143
 30
0.0
 10
643.084614079555
 20
41.89200574435984
 30
0.0
 10
643.0351214131184
 20
42.54982999951415
 30
0.0
 10
642.624820108595
 20
43.42399602578985
 30
0.0
 10
641.9729484266682
 20
44.07720711053247
 30
0.0
 10
641.1197179948164
 20
44.46777340875224
 30
0.0
 10
640.1515889869734
 20
44.60575708833056
 30
0.0
 10
639.1570525642695
 20
44.48844392359314
 30
0.0
 10
638.2658159384306
 20
44.09540396858034
 30
0.0
 10
637.6076229577235
 20
43.43953502127005
 30
0.0
 10
637.1884694128614
 20
42.56945900297967
 30
0.0
 10
637.1365151151325
 20
41.90873507845106
 30
0.0
 10
637.1093491708824
 20
41.56325472200143
 30
0.0
  0
LINE
  5
720
330
1F
100
AcDbEntity
  8
0
  6
Continuous
 62
     7
370
    15
100
AcDbLine
 10
643.1093482916683
 20
-43.93674718537766
 30
0.0
 11
643.1093482916683
 21
41.56325472202235
 31
0.0
  0
LINE
  5
721
330
1F
100
AcDbEntity
  8
0
  6
Continuous
 62
     7
370
    15
100
AcDbLine
 10
637.1093491708683
 20
-43.93674718537766
 30
0.0
 11
637.1093491708683
 21
41.56325472202235
 31
0.0
  0
LINE
  5
722
330
1F
100
AcDbEntity
  8
0
  6
Continuous
 62
     7
370
    15
100
AcDbLine
 10
635.6093479936683
 20
-43.93674718537766
 30
0.0
 11
635.6093479936683
 21
41.56325472202235
 31
0.0
  0
LINE
  5
723
330
1F
100
AcDbEntity
  8
0
  6
Continuous
 62
     7
370
    15
100
AcDbLine
 10
636.6093481575683
 20
46.56325367892236
 30
0.0
 11
643.6093493049683
 21
46.56325367892236
 31
0.0
  0
LINE
  5
724
330
1F
100
AcDbEntity
  8
0
  6
Continuous
 62
     7
370
    15
100
AcDbLine
 10
635.6093479936683
 20
41.56325472202235
 30
0.0
 11
635.6093479936683
 21
45.56325537762234
 31
0.0
  0
ARC
  5
725
330
1F
100
AcDbEntity
  8
0
  6
Continuous
 62
     7
370
    15
100
AcDbCircle
 10
636.6093485201683
 20
45.56325457502237
 30
0.0
 40
1.0
100
AcDbArc
 50
90.0
 51
180.0
  0
LINE
  5
726
330
1F
100
AcDbEntity
  8
0
  6
Continuous
 62
     7
370
    15
100
AcDbLine
 10
652.1093479042684
 20
-48.18674462237767
 30
0.0
 11
652.1093479042684
 21
-47.18674632107765
 31
0.0
  0
LINE
  5
727
330
1F
100
AcDbEntity
  8
0
  6
Continuous
 62
     7
370
    15
100
AcDbLine
 10
652.1093479042684
 20
-48.18674462237767
 30
0.0
 11
651.6093468909683
 21
-48.18674462237767
 31
0.0
  0
LINE
  5
728
330
1F
100
AcDbEntity
  8
0
  6
Continuous
 62
     7
370
    15
100
AcDbLine
 10
652.1093479042684
 20
-47.18674632107765
 30
0.0
 11
652.1093479042684
 21
-41.18674533757768
 31
0.0
  0
LINE
  5
729
330
1F
100
AcDbEntity
  8
0
  6
Continuous
 62
     7
370
    15
100
AcDbLine
 10
652.1093479042684
 20
-40.18674703637767
 30
0.0
 11
651.6093468909683
 21
-40.18674703637767
 31
0.0
  0
LINE
  5
72A
330
1F
100
AcDbEntity
  8
0
  6
Continuous
 62
     7
370
    15
100
AcDbLine
 10
652.1093479042684
 20
-41.18674533757768
 30
0.0
 11
652.1093479042684
 21
-40.18674703637767
 31
0.0
  0
LINE
  5
72B
330
1F
100
AcDbEntity
  8
0
  6
Continuous
 62
     7
370
    15
100
AcDbLine
 10
652.1093479042684
 20
37.81325457302233
 30
0.0
 11
651.6093468909683
 21
37.81325457302233
 31
0.0
  0
LINE
  5
72C
330
1F
100
AcDbEntity
  8
0
  6
Continuous
 62
     7
370
    15
100
AcDbLine
 10
652.1093479042684
 20
37.81325457302233
 30
0.0
 11
652.1093479042684
 21
38.81325287422237
 31
0.0
  0
LINE
  5
72D
330
1F
100
AcDbEntity
  8
0
  6
Continuous
 62
     7
370
    15
100
AcDbLine
 10
652.1093479042684
 20
38.81325287422237
 30
0.0
 11
652.1093479042684
 21
44.81325385772237
 31
0.0
  0
LINE
  5
72E
330
1F
100
AcDbEntity
  8
0
  6
Continuous
 62
     7
370
    15
100
AcDbLine
 10
652.1093479042684
 20
45.81325588432236
 30
0.0
 11
651.6093468909683
 21
45.81325588432236
 31
0.0
  0
LINE
  5
72F
330
1F
100
AcDbEntity
  8
0
  6
Continuous
 62
     7
370
    15
100
AcDbLine
 10
652.1093479042684
 20
44.81325385772237
 30
0.0
 11
652.1093479042684
 21
45.81325588432236
 31
0.0
  0
LINE
  5
730
330
1F
100
AcDbEntity
  8
0
  6
Continuous
 62
     7
370
    15
100
AcDbLine
 10
652.1093479042684
 20
-40.18674703637767
 30
0.0
 11
652.1093479042684
 21
-39.18674500977765
 31
0.0
  0
LINE
  5
731
330
1F
100
AcDbEntity
  8
0
  6
Continuous
 62
     7
370
    15
100
AcDbLine
 10
652.1093479042684
 20
36.81325627172237
 30
0.0
 11
652.1093479042684
 21
37.81325457302233
 31
0.0
  0
LINE
  5
732
330
1F
100
AcDbEntity
  8
0
  6
Continuous
 62
     7
370
    15
100
AcDbLine
 10
653.5093492513683
 20
-48.18674462237767
 30
0.0
 11
653.5093492513683
 21
-47.18674632107765
 31
0.0
  0
LINE
  5
733
330
1F
100
AcDbEntity
  8
0
  6
Continuous
 62
     7
370
    15
100
AcDbLine
 10
653.5093492513683
 20
-48.18674462237767
 30
0.0
 11
652.1093479042684
 21
-48.18674462237767
 31
0.0
  0
LINE
  5
734
330
1F
100
AcDbEntity
  8
0
  6
Continuous
 62
     7
370
    15
100
AcDbLine
 10
653.5093492513683
 20
-47.18674632107765
 30
0.0
 11
653.5093492513683
 21
-41.18674533757768
 31
0.0
  0
LINE
  5
735
330
1F
100
AcDbEntity
  8
0
  6
Continuous
 62
     7
370
    15
100
AcDbLine
 10
653.5093492513683
 20
-40.18674703637767
 30
0.0
 11
652.1093479042684
 21
-40.18674703637767
 31
0.0
  0
LINE
  5
736
330
1F
100
AcDbEntity
  8
0
  6
Continuous
 62
     7
370
    15
100
AcDbLine
 10
653.5093492513683
 20
-41.18674533757768
 30
0.0
 11
653.5093492513683
 21
-40.18674703637767
 31
0.0
  0
LINE
  5
737
330
1F
100
AcDbEntity
  8
0
  6
Continuous
 62
     7
370
    15
100
AcDbLine
 10
653.5093492513683
 20
37.81325457302233
 30
0.0
 11
652.1093479042684
 21
37.81325457302233
 31
0.0
  0
LINE
  5
738
330
1F
100
AcDbEntity
  8
0
  6
Continuous
 62
     7
370
    15
100
AcDbLine
 10
653.5093492513683
 20
37.81325457302233
 30
0.0
 11
653.5093492513683
 21
38.81325287422237
 31
0.0
  0
LINE
  5
739
330
1F
100
AcDbEntity
  8
0
  6
Continuous
 62
     7
370
    15
100
AcDbLine
 10
653.5093492513683
 20
38.81325287422237
 30
0.0
 11
653.5093492513683
 21
44.81325385772237
 31
0.0
  0
LINE
  5
73A
330
1F
100
AcDbEntity
  8
0
  6
Continuous
 62
     7
370
    15
100
AcDbLine
 10
653.5093492513683
 20
45.81325588432236
 30
0.0
 11
652.1093479042684
 21
45.81325588432236
 31
0.0
  0
LINE
  5
73B
330
1F
100
AcDbEntity
  8
0
  6
Continuous
 62
     7
370
    15
100
AcDbLine
 10
653.5093492513683
 20
44.81325385772237
 30
0.0
 11
653.5093492513683
 21
45.81325588432236
 31
0.0
  0
LINE
  5
73C
330
1F
100
AcDbEntity
  8
0
  6
Continuous
 62
     7
370
    15
100
AcDbLine
 10
653.5093492513683
 20
-40.18674703637767
 30
0.0
 11
653.5093492513683
 21
-39.18674500977765
 31
0.0
  0
LINE
  5
73D
330
1F
100
AcDbEntity
  8
0
  6
Continuous
 62
     7
370
    15
100
AcDbLine
 10
653.5093492513683
 20
36.81325627172237
 30
0.0
 11
653.5093492513683
 21
37.81325457302233
 31
0.0
  0
LINE
  5
73E
330
1F
100
AcDbEntity
  8
0
  6
Continuous
 62
     7
370
    15
100
AcDbLine
 10
662.0093478506683
 20
-48.18674462237767
 30
0.0
 11
661.5093468373683
 21
-48.18674462237767
 31
0.0
  0
LINE
  5
73F
330
1F
100
AcDbEntity
  8
0
  6
Continuous
 62
     7
370
    15
100
AcDbLine
 10
661.5093468373683
 20
-48.18674462237767
 30
0.0
 11
661.5093468373683
 21
-47.18674632107765
 31
0.0
  0
LINE
  5
740
330
1F
100
AcDbEntity
  8
0
  6
Continuous
 62
     7
370
    15
100
AcDbLine
 10
661.5093468373683
 20
-47.18674632107765
 30
0.0
 11
661.5093468373683
 21
-41.18674533757768
 31
0.0
  0
LINE
  5
741
330
1F
100
AcDbEntity
  8
0
  6
Continuous
 62
     7
370
    15
100
AcDbLine
 10
662.0093478506683
 20
-40.18674703637767
 30
0.0
 11
661.5093468373683
 21
-40.18674703637767
 31
0.0
  0
LINE
  5
742
330
1F
100
AcDbEntity
  8
0
  6
Continuous
 62
     7
370
    15
100
AcDbLine
 10
661.5093468373683
 20
-41.18674533757768
 30
0.0
 11
661.5093468373683
 21
-40.18674703637767
 31
0.0
  0
LINE
  5
743
330
1F
100
AcDbEntity
  8
0
  6
Continuous
 62
     7
370
    15
100
AcDbLine
 10
662.0093478506683
 20
37.81325457302233
 30
0.0
 11
661.5093468373683
 21
37.81325457302233
 31
0.0
  0
LINE
  5
744
330
1F
100
AcDbEntity
  8
0
  6
Continuous
 62
     7
370
    15
100
AcDbLine
 10
661.5093468373683
 20
37.81325457302233
 30
0.0
 11
661.5093468373683
 21
38.81325287422237
 31
0.0
  0
LINE
  5
745
330
1F
100
AcDbEntity
  8
0
  6
Continuous
 62
     7
370
    15
100
AcDbLine
 10
661.5093468373683
 20
38.81325287422237
 30
0.0
 11
661.5093468373683
 21
44.81325385772237
 31
0.0
  0
LINE
  5
746
330
1F
100
AcDbEntity
  8
0
  6
Continuous
 62
     7
370
    15
100
AcDbLine
 10
662.0093478506683
 20
45.81325588432236
 30
0.0
 11
661.5093468373683
 21
45.81325588432236
 31
0.0
  0
LINE
  5
747
330
1F
100
AcDbEntity
  8
0
  6
Continuous
 62
     7
370
    15
100
AcDbLine
 10
661.5093468373683
 20
44.81325385772237
 30
0.0
 11
661.5093468373683
 21
45.81325588432236
 31
0.0
  0
LINE
  5
748
330
1F
100
AcDbEntity
  8
0
  6
Continuous
 62
     7
370
    15
100
AcDbLine
 10
661.5093468373683
 20
-40.18674703637767
 30
0.0
 11
661.5093468373683
 21
-39.18674500977765
 31
0.0
  0
LINE
  5
749
330
1F
100
AcDbEntity
  8
0
  6
Continuous
 62
     7
370
    15
100
AcDbLine
 10
661.5093468373683
 20
36.81325627172237
 30
0.0
 11
661.5093468373683
 21
37.81325457302233
 31
0.0
  0
CIRCLE
  5
74A
330
1F
100
AcDbEntity
  8
0
  6
Continuous
 62
     7
370
    15
100
AcDbCircle
 10
656.2093485201683
 20
31.81325457612235
 30
0.0
 40
4.0
  0
LINE
  5
74B
330
1F
100
AcDbEntity
  8
0
  6
Continuous
 62
     7
370
    15
100
AcDbLine
 10
656.6093495731683
 20
31.41325426902233
 30
0.0
 11
658.4235063439683
 21
31.41325426902233
 31
0.0
  0
ARC
  5
74C
330
1F
100
AcDbEntity
  8
0
  6
Continuous
 62
     7
370
    15
100
AcDbCircle
 10
656.2093485201683
 20
31.81325457612235
 30
0.0
 40
2.250000000000002
100
AcDbArc
 50
349.7596516753003
 51
10.24034831759942
  0
LINE
  5
74D
330
1F
100
AcDbEntity
  8
0
  6
Continuous
 62
     7
370
    15
100
AcDbLine
 10
658.4235063439683
 20
32.21325291002233
 30
0.0
 11
656.6093495731683
 21
32.21325291002233
 31
0.0
  0
LINE
  5
74E
330
1F
100
AcDbEntity
  8
0
  6
Continuous
 62
     7
370
    15
100
AcDbLine
 10
656.6093495731683
 20
32.21325291002233
 30
0.0
 11
656.6093495731683
 21
34.02741340602233
 31
0.0
  0
ARC
  5
74F
330
1F
100
AcDbEntity
  8
0
  6
Continuous
 62
     7
370
    15
100
AcDbCircle
 10
656.2093485201683
 20
31.81325457612235
 30
0.0
 40
2.249999999999996
100
AcDbArc
 50
79.75965167529883
 51
100.2403483175995
  0
LINE
  5
750
330
1F
100
AcDbEntity
  8
0
  6
Continuous
 62
     7
370
    15
100
AcDbLine
 10
655.8093472068683
 20
34.02741340602233
 30
0.0
 11
655.8093472068683
 21
32.21325291002233
 31
0.0
  0
LINE
  5
751
330
1F
100
AcDbEntity
  8
0
  6
Continuous
 62
     7
370
    15
100
AcDbLine
 10
655.8093472068683
 20
32.21325291002233
 30
0.0
 11
653.9951904361683
 21
32.21325291002233
 31
0.0
  0
ARC
  5
752
330
1F
100
AcDbEntity
  8
0
  6
Continuous
 62
     7
370
    15
100
AcDbCircle
 10
656.2093485201683
 20
31.81325457612235
 30
0.0
 40
2.250000000000024
100
AcDbArc
 50
169.7596516753004
 51
190.2403483176008
  0
LINE
  5
753
330
1F
100
AcDbEntity
  8
0
  6
Continuous
 62
     7
370
    15
100
AcDbLine
 10
653.9951904361683
 20
31.41325426902233
 30
0.0
 11
655.8093472068683
 21
31.41325426902233
 31
0.0
  0
LINE
  5
754
330
1F
100
AcDbEntity
  8
0
  6
Continuous
 62
     7
370
    15
100
AcDbLine
 10
655.8093472068683
 20
31.41325426902233
 30
0.0
 11
655.8093472068683
 21
29.59909377302233
 31
0.0
  0
ARC
  5
755
330
1F
100
AcDbEntity
  8
0
  6
Continuous
 62
     7
370
    15
100
AcDbCircle
 10
656.2093485201683
 20
31.81325457612235
 30
0.0
 40
2.25000000000003
100
AcDbArc
 50
259.7596516752989
 51
280.2403483175993
  0
LINE
  5
756
330
1F
100
AcDbEntity
  8
0
  6
Continuous
 62
     7
370
    15
100
AcDbLine
 10
656.6093495731683
 20
29.59909377302233
 30
0.0
 11
656.6093495731683
 21
31.41325426902233
 31
0.0
  0
ARC
  5
757
330
1F
100
AcDbEntity
  8
0
  6
Continuous
 62
     7
370
    15
100
AcDbCircle
 10
656.2093485201683
 20
31.81325457602236
 30
0.0
 40
1.704044648600714
100
AcDbArc
 50
256.4239602085981
 51
283.5760397843
  0
ARC
  5
758
330
1F
100
AcDbEntity
  8
0
  6
Continuous
 62
     7
370
    15
100
AcDbCircle
 10
656.2093485201683
 20
31.81325457602236
 30
0.0
 40
1.704044648600717
100
AcDbArc
 50
166.4239602086001
 51
193.5760397842998
  0
ARC
  5
759
330
1F
100
AcDbEntity
  8
0
  6
Continuous
 62
     7
370
    15
100
AcDbCircle
 10
656.2093485201683
 20
31.81325457602236
 30
0.0
 40
1.70404464860068
100
AcDbArc
 50
346.4239602085996
 51
13.57603978430036
  0
ARC
  5
75A
330
1F
100
AcDbEntity
  8
0
  6
Continuous
 62
     7
370
    15
100
AcDbCircle
 10
656.2093485201683
 20
31.81325457602236
 30
0.0
 40
1.704044648600724
100
AcDbArc
 50
76.42396020859816
 51
103.5760397842999
  0
CIRCLE
  5
75B
330
1F
100
AcDbEntity
  8
0
  6
Continuous
 62
     7
370
    15
100
AcDbCircle
 10
656.2093485201683
 20
-34.18674542387767
 30
0.0
 40
4.0
  0
LINE
  5
75C
330
1F
100
AcDbEntity
  8
0
  6
Continuous
 62
     7
370
    15
100
AcDbLine
 10
656.6093495731683
 20
-34.58674537337767
 30
0.0
 11
658.4235063439683
 21
-34.58674537337767
 31
0.0
  0
ARC
  5
75D
330
1F
100
AcDbEntity
  8
0
  6
Continuous
 62
     7
370
    15
100
AcDbCircle
 10
656.2093485201683
 20
-34.18674542387767
 30
0.0
 40
2.250000000000002
100
AcDbArc
 50
349.7596516753003
 51
10.24034831760014
  0
LINE
  5
75E
330
1F
100
AcDbEntity
  8
0
  6
Continuous
 62
     7
370
    15
100
AcDbLine
 10
658.4235063439683
 20
-33.78674486967766
 30
0.0
 11
656.6093495731683
 21
-33.78674486967766
 31
0.0
  0
LINE
  5
75F
330
1F
100
AcDbEntity
  8
0
  6
Continuous
 62
     7
370
    15
100
AcDbLine
 10
656.6093495731683
 20
-33.78674486967766
 30
0.0
 11
656.6093495731683
 21
-31.97258623637767
 31
0.0
  0
ARC
  5
760
330
1F
100
AcDbEntity
  8
0
  6
Continuous
 62
     7
370
    15
100
AcDbCircle
 10
656.2093485201683
 20
-34.18674542387767
 30
0.0
 40
2.249999999999986
100
AcDbArc
 50
79.75965167529876
 51
100.2403483175996
  0
LINE
  5
761
330
1F
100
AcDbEntity
  8
0
  6
Continuous
 62
     7
370
    15
100
AcDbLine
 10
655.8093472068683
 20
-31.97258623637767
 30
0.0
 11
655.8093472068683
 21
-33.78674486967766
 31
0.0
  0
LINE
  5
762
330
1F
100
AcDbEntity
  8
0
  6
Continuous
 62
     7
370
    15
100
AcDbLine
 10
655.8093472068683
 20
-33.78674486967766
 30
0.0
 11
653.9951904361683
 21
-33.78674486967766
 31
0.0
  0
ARC
  5
763
330
1F
100
AcDbEntity
  8
0
  6
Continuous
 62
     7
370
    15
100
AcDbCircle
 10
656.2093485201683
 20
-34.18674542387767
 30
0.0
 40
2.25000000000002
100
AcDbArc
 50
169.7596516752997
 51
190.2403483176001
  0
LINE
  5
764
330
1F
100
AcDbEntity
  8
0
  6
Continuous
 62
     7
370
    15
100
AcDbLine
 10
653.9951904361683
 20
-34.58674537337767
 30
0.0
 11
655.8093472068683
 21
-34.58674537337767
 31
0.0
  0
LINE
  5
765
330
1F
100
AcDbEntity
  8
0
  6
Continuous
 62
     7
370
    15
100
AcDbLine
 10
655.8093472068683
 20
-34.58674537337767
 30
0.0
 11
655.8093472068683
 21
-36.40090400667766
 31
0.0
  0
ARC
  5
766
330
1F
100
AcDbEntity
  8
0
  6
Continuous
 62
     7
370
    15
100
AcDbCircle
 10
656.2093485201683
 20
-34.18674542387767
 30
0.0
 40
2.250000000000032
100
AcDbArc
 50
259.759651675299
 51
280.2403483175993
  0
LINE
  5
767
330
1F
100
AcDbEntity
  8
0
  6
Continuous
 62
     7
370
    15
100
AcDbLine
 10
656.6093495731683
 20
-36.40090400667766
 30
0.0
 11
656.6093495731683
 21
-34.58674537337767
 31
0.0
  0
ARC
  5
768
330
1F
100
AcDbEntity
  8
0
  6
Continuous
 62
     7
370
    15
100
AcDbCircle
 10
656.2093485201683
 20
-34.18674542397765
 30
0.0
 40
1.704044648600714
100
AcDbArc
 50
256.4239602085981
 51
283.5760397843
  0
ARC
  5
769
330
1F
100
AcDbEntity
  8
0
  6
Continuous
 62
     7
370
    15
100
AcDbCircle
 10
656.2093485201683
 20
-34.18674542397765
 30
0.0
 40
1.704044648600717
100
AcDbArc
 50
166.4239602086001
 51
193.5760397842999
  0
ARC
  5
76A
330
1F
100
AcDbEntity
  8
0
  6
Continuous
 62
     7
370
    15
100
AcDbCircle
 10
656.2093485201683
 20
-34.18674542397765
 30
0.0
 40
1.704044648600687
100
AcDbArc
 50
346.4239602086004
 51
13.57603978429966
  0
ARC
  5
76B
330
1F
100
AcDbEntity
  8
0
  6
Continuous
 62
     7
370
    15
100
AcDbCircle
 10
656.2093485201683
 20
-34.18674542397765
 30
0.0
 40
1.70404464860068
100
AcDbArc
 50
76.42396020859783
 51
103.5760397843002
  0
LINE
  5
76C
330
1F
100
AcDbEntity
  8
0
  6
Continuous
 62
     7
370
    15
100
AcDbLine
 10
661.1093475168683
 20
3.345955104222355
 30
0.0
 11
661.1093475168683
 21
3.623754658322355
 31
0.0
  0
LINE
  5
76D
330
1F
100
AcDbEntity
  8
0
  6
Continuous
 62
     7
370
    15
100
AcDbLine
 10
651.3093492632684
 20
3.623754658322355
 30
0.0
 11
651.3093492632684
 21
3.345955104222355
 31
0.0
  0
LINE
  5
76E
330
1F
100
AcDbEntity
  8
0
  6
Continuous
 62
     7
370
    15
100
AcDbLine
 10
661.1093475168683
 20
3.345955104222355
 30
0.0
 11
661.1093475168683
 21
-5.565683736577682
 31
0.0
  0
LINE
  5
76F
330
1F
100
AcDbEntity
  8
0
  6
Continuous
 62
     7
370
    15
100
AcDbLine
 10
651.3093492632684
 20
3.345955104222355
 30
0.0
 11
651.3093492632684
 21
-5.565683736577682
 31
0.0
  0
LINE
  5
770
330
1F
100
AcDbEntity
  8
0
  6
Continuous
 62
     7
370
    15
100
AcDbLine
 10
661.1093475168683
 20
11.59448263852232
 30
0.0
 11
661.1093475168683
 21
3.623754658322355
 31
0.0
  0
LINE
  5
771
330
1F
100
AcDbEntity
  8
0
  6
Continuous
 62
     7
370
    15
100
AcDbLine
 10
651.3093492632684
 20
11.59448263852232
 30
0.0
 11
651.3093492632684
 21
3.623754658322355
 31
0.0
  0
LINE
  5
772
330
1F
100
AcDbEntity
  8
0
  6
Continuous
 62
     7
370
    15
100
AcDbLine
 10
661.1093475168683
 20
-5.639445852377662
 30
0.0
 11
661.1093475168683
 21
-5.565683736577682
 31
0.0
  0
LINE
  5
773
330
1F
100
AcDbEntity
  8
0
  6
Continuous
 62
     7
370
    15
100
AcDbLine
 10
651.3093492632684
 20
-5.565683736577682
 30
0.0
 11
651.3093492632684
 21
-5.639445852377662
 31
0.0
  0
LINE
  5
774
330
1F
100
AcDbEntity
  8
0
  6
Continuous
 62
     7
370
    15
100
AcDbLine
 10
661.1093475168683
 20
12.56325369382233
 30
0.0
 11
651.3093492632684
 21
12.56325369382233
 31
0.0
  0
LINE
  5
775
330
1F
100
AcDbEntity
  8
0
  6
Continuous
 62
     7
370
    15
100
AcDbLine
 10
661.1093475168683
 20
12.56325369382233
 30
0.0
 11
661.1093475168683
 21
11.59448263852232
 31
0.0
  0
LINE
  5
776
330
1F
100
AcDbEntity
  8
0
  6
Continuous
 62
     7
370
    15
100
AcDbLine
 10
651.3093492632684
 20
12.56325369382233
 30
0.0
 11
651.3093492632684
 21
11.59448263852232
 31
0.0
  0
LINE
  5
777
330
1F
100
AcDbEntity
  8
0
  6
Continuous
 62
     7
370
    15
100
AcDbLine
 10
647.2093469148683
 20
36.31325525842237
 30
0.0
 11
647.2093469148683
 21
-38.68674399647766
 31
0.0
  0
LINE
  5
778
330
1F
100
AcDbEntity
  8
0
  6
Continuous
 62
     7
370
    15
100
AcDbLine
 10
665.2093498652683
 20
36.31325525842237
 30
0.0
 11
647.2093469148683
 21
36.31325525842237
 31
0.0
  0
LINE
  5
779
330
1F
100
AcDbEntity
  8
0
  6
Continuous
 62
     7
370
    15
100
AcDbLine
 10
665.2093498652683
 20
-38.68674399647766
 30
0.0
 11
665.2093498652683
 21
36.31325525842237
 31
0.0
  0
LINE
  5
77A
330
1F
100
AcDbEntity
  8
0
  6
Continuous
 62
     7
370
    15
100
AcDbLine
 10
647.2093469148683
 20
-38.68674399647766
 30
0.0
 11
665.2093498652683
 21
-38.68674399647766
 31
0.0
  0
CIRCLE
  5
77B
330
1F
100
AcDbEntity
  8
0
  6
Continuous
 62
     7
370
    15
100
AcDbCircle
 10
656.2093485201683
 20
31.81325457612235
 30
0.0
 40
4.0
  0
CIRCLE
  5
77C
330
1F
100
AcDbEntity
  8
0
  6
Continuous
 62
     7
370
    15
100
AcDbCircle
 10
656.2093485201683
 20
-34.18674542387767
 30
0.0
 40
4.0
  0
CIRCLE
  5
77D
330
1F
100
AcDbEntity
  8
0
  6
Continuous
 62
     7
370
    15
100
AcDbCircle
 10
656.2093485201683
 20
-22.51674542387765
 30
0.0
 40
4.0
  0
CIRCLE
  5
77E
330
1F
100
AcDbEntity
  8
0
  6
Continuous
 62
     7
370
    15
100
AcDbCircle
 10
656.2093485201683
 20
-22.51674542397767
 30
0.0
 40
3.749999999999984
  0
SPLINE
  5
77F
330
1F
100
AcDbEntity
  8
0
  6
Continuous
 62
     7
370
    15
100
AcDbSpline
210
0.0
220
0.0
230
1.0
 70
     8
 71
     3
 72
     9
 73
     5
 74
     0
 42
0.000000001
 43
0.00000001
 40
0.0
 40
0.0
 40
0.0
 40
0.0
 40
0.3968944122893847
 40
1.0
 40
1.0
 40
1.0
 40
1.0
 10
655.5393493419477
 20
-22.80231850540416
 30
0.0
 10
655.313989738233
 20
-22.71165634426917
 30
0.0
 10
654.7461822893581
 20
-22.48322742633117
 30
0.0
 10
654.1965259047579
 20
-22.26210164663506
 30
0.0
 10
653.8650250678846
 20
-22.12873945331346
 30
0.0
  0
SPLINE
  5
780
330
1F
100
AcDbEntity
  8
0
  6
Continuous
 62
     7
370
    15
100
AcDbSpline
210
0.0
220
0.0
230
1.0
 70
     8
 71
     3
 72
     9
 73
     5
 74
     0
 42
0.000000001
 43
0.00000001
 40
0.0
 40
0.0
 40
0.0
 40
0.0
 40
0.4965861357320565
 40
1.0
 40
1.0
 40
1.0
 40
1.0
 10
654.8657721525022
 20
-24.47664277946727
 30
0.0
 10
654.9753313489708
 20
-24.20430880210155
 30
0.0
 10
655.19595610787
 20
-23.65589643661296
 30
0.0
 10
655.4243650924079
 20
-23.08813665236725
 30
0.0
 10
655.5393493419477
 20
-22.80231850540416
 30
0.0
  0
ARC
  5
781
330
1F
100
AcDbEntity
  8
0
  6
Continuous
 62
     7
370
    15
100
AcDbCircle
 10
656.2093485201683
 20
-22.51674542387765
 30
0.0
 40
2.376215604089999
100
AcDbArc
 50
235.5680079487002
 51
260.6022307115016
  0
SPLINE
  5
782
330
1F
100
AcDbEntity
  8
0
  6
Continuous
 62
     7
370
    15
100
AcDbSpline
210
0.0
220
0.0
230
1.0
 70
     8
 71
     3
 72
     9
 73
     5
 74
     0
 42
0.000000001
 43
0.00000001
 40
0.0
 40
0.0
 40
0.0
 40
0.0
 40
0.3968938152012206
 40
1.0
 40
1.0
 40
1.0
 40
1.0
 10
656.4949198311159
 20
-23.18674424981846
 30
0.0
 10
656.4042591960967
 20
-23.41210396080545
 30
0.0
 10
656.1758337796587
 20
-23.97991253417096
 30
0.0
 10
655.9547061080486
 20
-24.52956794568776
 30
0.0
 10
655.8213426416704
 20
-24.86106852388157
 30
0.0
  0
SPLINE
  5
783
330
1F
100
AcDbEntity
  8
0
  6
Continuous
 62
     7
370
    15
100
AcDbSpline
210
0.0
220
0.0
230
1.0
 70
     8
 71
     3
 72
     9
 73
     5
 74
     0
 42
0.000000001
 43
0.00000001
 40
0.0
 40
0.0
 40
0.0
 40
0.0
 40
0.4965853967922506
 40
1.0
 40
1.0
 40
1.0
 40
1.0
 10
658.1692478304693
 20
-23.86032330190905
 30
0.0
 10
657.8969139491342
 20
-23.75076324667687
 30
0.0
 10
657.3485009609666
 20
-23.53013643014155
 30
0.0
 10
656.7807393281944
 20
-23.30172825877587
 30
0.0
 10
656.4949198311159
 20
-23.18674424981846
 30
0.0
  0
ARC
  5
784
330
1F
100
AcDbEntity
  8
0
  6
Continuous
 62
     7
370
    15
100
AcDbCircle
 10
656.2093485201683
 20
-22.51674542387765
 30
0.0
 40
2.376215604089968
100
AcDbArc
 50
325.5680079486993
 51
350.6022307115004
  0
SPLINE
  5
785
330
1F
100
AcDbEntity
  8
0
  6
Continuous
 62
     7
370
    15
100
AcDbSpline
210
0.0
220
0.0
230
1.0
 70
     8
 71
     3
 72
     9
 73
     5
 74
     0
 42
0.000000001
 43
0.00000001
 40
0.0
 40
0.0
 40
0.0
 40
0.0
 40
0.3968944122893847
 40
1.0
 40
1.0
 40
1.0
 40
1.0
 10
656.8793474381754
 20
-22.23117189800517
 30
0.0
 10
657.1047070418902
 20
-22.32183405914007
 30
0.0
 10
657.672514490765
 20
-22.55026297707816
 30
0.0
 10
658.2221708753652
 20
-22.77138875677427
 30
0.0
 10
658.5536717122385
 20
-22.90475095009576
 30
0.0
  0
SPLINE
  5
786
330
1F
100
AcDbEntity
  8
0
  6
Continuous
 62
     7
370
    15
100
AcDbSpline
210
0.0
220
0.0
230
1.0
 70
     8
 71
     3
 72
     9
 73
     5
 74
     0
 42
0.000000001
 43
0.00000001
 40
0.0
 40
0.0
 40
0.0
 40
0.0
 40
0.4965861357320565
 40
1.0
 40
1.0
 40
1.0
 40
1.0
 10
657.5529246276208
 20
-20.55684762394206
 30
0.0
 10
657.4433654311523
 20
-20.82918160130767
 30
0.0
 10
657.2227406722529
 20
-21.37759396679625
 30
0.0
 10
656.9943316877151
 20
-21.94535375104205
 30
0.0
 10
656.8793474381754
 20
-22.23117189800517
 30
0.0
  0
ARC
  5
787
330
1F
100
AcDbEntity
  8
0
  6
Continuous
 62
     7
370
    15
100
AcDbCircle
 10
656.2093485201683
 20
-22.51674542387765
 30
0.0
 40
2.376215604089992
100
AcDbArc
 50
55.56800794870011
 51
80.60223071150159
  0
SPLINE
  5
788
330
1F
100
AcDbEntity
  8
0
  6
Continuous
 62
     7
370
    15
100
AcDbSpline
210
0.0
220
0.0
230
1.0
 70
     8
 71
     3
 72
     9
 73
     5
 74
     0
 42
0.000000001
 43
0.00000001
 40
0.0
 40
0.0
 40
0.0
 40
0.0
 40
0.396894557722369
 40
0.9999999999999999
 40
0.9999999999999999
 40
0.9999999999999999
 40
0.9999999999999999
 10
655.9237769490072
 20
-21.84674615359087
 30
0.0
 10
656.0144391807148
 20
-21.62138657600455
 30
0.0
 10
656.2428681927627
 20
-21.05357940102196
 30
0.0
 10
656.4639927278939
 20
-20.50392277940738
 30
0.0
 10
656.5973541384527
 20
-20.17242187952768
 30
0.0
  0
SPLINE
  5
789
330
1F
100
AcDbEntity
  8
0
  6
Continuous
 62
     7
370
    15
100
AcDbSpline
210
0.0
220
0.0
230
1.0
 70
     8
 71
     3
 72
     9
 73
     5
 74
     0
 42
0.000000001
 43
0.00000001
 40
0.0
 40
0.0
 40
0.0
 40
0.0
 40
0.4965844826612398
 40
1.0
 40
1.0
 40
1.0
 40
1.0
 10
654.2494526749441
 20
-21.17316710150017
 30
0.0
 10
654.5217852636424
 20
-21.28272726030197
 30
0.0
 10
655.0701966582935
 20
-21.50335469153917
 30
0.0
 10
655.6379573876923
 20
-21.73176224626467
 30
0.0
 10
655.9237769490072
 20
-21.84674615359087
 30
0.0
  0
ARC
  5
78A
330
1F
100
AcDbEntity
  8
0
  6
Continuous
 62
     7
370
    15
100
AcDbCircle
 10
656.2093485201683
 20
-22.51674542387765
 30
0.0
 40
2.376215604090024
100
AcDbArc
 50
145.5680079487011
 51
170.6022307115002
  0
ARC
  5
78B
330
1F
100
AcDbEntity
  8
0
  6
Continuous
 62
     7
370
    15
100
AcDbCircle
 10
644.6093485201683
 20
-48.93674542397765
 30
0.0
 40
1.0
100
AcDbArc
 50
180.0
 51
270.0
  0
LINE
  5
78C
330
1F
100
AcDbEntity
  8
0
  6
Continuous
 62
     7
370
    15
100
AcDbLine
 10
643.6093493049683
 20
-48.93674614227767
 30
0.0
 11
643.6093493049683
 21
-47.93674411567766
 31
0.0
  0
LINE
  5
78D
330
1F
100
AcDbEntity
  8
0
  6
Continuous
 62
     7
370
    15
100
AcDbLine
 10
651.6093468909683
 20
-47.93674411567766
 30
0.0
 11
651.6093468909683
 21
-49.93674444357767
 31
0.0
  0
LINE
  5
78E
330
1F
100
AcDbEntity
  8
0
  6
Continuous
 62
     7
370
    15
100
AcDbLine
 10
644.6093476062683
 20
-49.93674444357767
 30
0.0
 11
651.6093468909683
 21
-49.93674444357767
 31
0.0
  0
LINE
  5
78F
330
1F
100
AcDbEntity
  8
0
  6
Continuous
 62
     7
370
    15
100
AcDbLine
 10
643.6093493049683
 20
-47.93674411567766
 30
0.0
 11
643.6093493049683
 21
45.56325537762234
 31
0.0
  0
LINE
  5
790
330
1F
100
AcDbEntity
  8
0
  6
Continuous
 62
     7
370
    15
100
AcDbLine
 10
647.2093469148683
 20
36.31325525842237
 30
0.0
 11
647.1093489473683
 21
36.31325525842237
 31
0.0
  0
LINE
  5
791
330
1F
100
AcDbEntity
  8
0
  6
Continuous
 62
     7
370
    15
100
AcDbLine
 10
647.1093489473683
 20
-38.68674399647766
 30
0.0
 11
647.1093489473683
 21
36.31325525842237
 31
0.0
  0
LINE
  5
792
330
1F
100
AcDbEntity
  8
0
  6
Continuous
 62
     7
370
    15
100
AcDbLine
 10
647.2093469148683
 20
-38.68674399647766
 30
0.0
 11
647.1093489473683
 21
-38.68674399647766
 31
0.0
  0
LINE
  5
793
330
1F
100
AcDbEntity
  8
0
  6
Continuous
 62
     7
370
    15
100
AcDbLine
 10
651.6093468909683
 20
45.56325537762234
 30
0.0
 11
651.6093468909683
 21
36.31325525842237
 31
0.0
  0
LINE
  5
794
330
1F
100
AcDbEntity
  8
0
  6
Continuous
 62
     7
370
    15
100
AcDbLine
 10
651.6093468909683
 20
-38.68674399647766
 30
0.0
 11
651.6093468909683
 21
-47.93674411567766
 31
0.0
  0
LINE
  5
795
330
1F
100
AcDbEntity
  8
0
  6
Continuous
 62
     7
370
    15
100
AcDbLine
 10
643.6093493049683
 20
45.56325537762234
 30
0.0
 11
643.6093493049683
 21
46.56325367892236
 31
0.0
  0
ARC
  5
796
330
1F
100
AcDbEntity
  8
0
  6
Continuous
 62
     7
370
    15
100
AcDbCircle
 10
644.6093485201683
 20
46.56325457602236
 30
0.0
 40
1.0
100
AcDbArc
 50
90.0
 51
180.0
  0
LINE
  5
797
330
1F
100
AcDbEntity
  8
0
  6
Continuous
 62
     7
370
    15
100
AcDbLine
 10
644.6093476062683
 20
47.56325570552235
 30
0.0
 11
651.6093468909683
 21
47.56325570552235
 31
0.0
  0
LINE
  5
798
330
1F
100
AcDbEntity
  8
0
  6
Continuous
 62
     7
370
    15
100
AcDbLine
 10
651.6093468909683
 20
47.56325570552235
 30
0.0
 11
651.6093468909683
 21
45.56325537762234
 31
0.0
  0
LINE
  5
799
330
1F
100
AcDbEntity
  8
0
  6
Continuous
 62
     7
370
    15
100
AcDbLine
 10
669.0093471353683
 20
-49.93674444357767
 30
0.0
 11
662.0093478506683
 21
-49.93674444357767
 31
0.0
  0
LINE
  5
79A
330
1F
100
AcDbEntity
  8
0
  6
Continuous
 62
     7
370
    15
100
AcDbLine
 10
662.0093478506683
 20
-49.93674444357767
 30
0.0
 11
662.0093478506683
 21
-47.93674411567766
 31
0.0
  0
LINE
  5
79B
330
1F
100
AcDbEntity
  8
0
  6
Continuous
 62
     7
370
    15
100
AcDbLine
 10
670.0093491619683
 20
-47.93674411567766
 30
0.0
 11
670.0093491619683
 21
-48.93674614227767
 31
0.0
  0
ARC
  5
79C
330
1F
100
AcDbEntity
  8
0
  6
Continuous
 62
     7
370
    15
100
AcDbCircle
 10
669.0093485201683
 20
-48.93674542397765
 30
0.0
 40
1.0
100
AcDbArc
 50
270.0
 51
0.0
  0
LINE
  5
79D
330
1F
100
AcDbEntity
  8
0
  6
Continuous
 62
     7
370
    15
100
AcDbLine
 10
666.5093495195683
 20
-38.68674399647766
 30
0.0
 11
665.2093498652683
 21
-38.68674399647766
 31
0.0
  0
LINE
  5
79E
330
1F
100
AcDbEntity
  8
0
  6
Continuous
 62
     7
370
    15
100
AcDbLine
 10
666.5093495195683
 20
-38.68674399647766
 30
0.0
 11
666.5093495195683
 21
36.31325525842237
 31
0.0
  0
LINE
  5
79F
330
1F
100
AcDbEntity
  8
0
  6
Continuous
 62
     7
370
    15
100
AcDbLine
 10
666.5093495195683
 20
36.31325525842237
 30
0.0
 11
665.2093498652683
 21
36.31325525842237
 31
0.0
  0
LINE
  5
7A0
330
1F
100
AcDbEntity
  8
0
  6
Continuous
 62
     7
370
    15
100
AcDbLine
 10
662.0093478506683
 20
-47.93674411567766
 30
0.0
 11
662.0093478506683
 21
-38.68674399647766
 31
0.0
  0
LINE
  5
7A1
330
1F
100
AcDbEntity
  8
0
  6
Continuous
 62
     7
370
    15
100
AcDbLine
 10
662.0093478506683
 20
36.31325525842237
 30
0.0
 11
662.0093478506683
 21
45.56325537762234
 31
0.0
  0
LINE
  5
7A2
330
1F
100
AcDbEntity
  8
0
  6
Continuous
 62
     7
370
    15
100
AcDbLine
 10
670.0093491619683
 20
45.56325537762234
 30
0.0
 11
670.0093491619683
 21
-47.93674411567766
 31
0.0
  0
LINE
  5
7A3
330
1F
100
AcDbEntity
  8
0
  6
Continuous
 62
     7
370
    15
100
AcDbLine
 10
669.0093471353683
 20
47.56325570552235
 30
0.0
 11
662.0093478506683
 21
47.56325570552235
 31
0.0
  0
LINE
  5
7A4
330
1F
100
AcDbEntity
  8
0
  6
Continuous
 62
     7
370
    15
100
AcDbLine
 10
662.0093478506683
 20
45.56325537762234
 30
0.0
 11
662.0093478506683
 21
47.56325570552235
 31
0.0
  0
ARC
  5
7A5
330
1F
100
AcDbEntity
  8
0
  6
Continuous
 62
     7
370
    15
100
AcDbCircle
 10
669.0093485201683
 20
46.56325457602236
 30
0.0
 40
1.0
100
AcDbArc
 50
0.0
 51
90.0
  0
LINE
  5
7A6
330
1F
100
AcDbEntity
  8
0
  6
Continuous
 62
     7
370
    15
100
AcDbLine
 10
670.0093491619683
 20
46.56325367892236
 30
0.0
 11
670.0093491619683
 21
45.56325537762234
 31
0.0
  0
LINE
  5
7A7
330
1F
100
AcDbEntity
  8
0
  6
Continuous
 62
     7
370
    15
100
AcDbLine
 10
656.2093502526683
 20
-38.68674399647766
 30
0.0
 11
656.2093502526683
 21
-39.18674500977765
 31
0.0
  0
LINE
  5
7A8
330
1F
100
AcDbEntity
  8
0
  6
Continuous
 62
     7
370
    15
100
AcDbLine
 10
656.2093502526683
 20
-39.18674500977765
 30
0.0
 11
651.6093468909683
 21
-39.18674500977765
 31
0.0
  0
LINE
  5
7A9
330
1F
100
AcDbEntity
  8
0
  6
Continuous
 62
     7
370
    15
100
AcDbLine
 10
656.2093502526683
 20
36.81325627172237
 30
0.0
 11
651.6093468909683
 21
36.81325627172237
 31
0.0
  0
LINE
  5
7AA
330
1F
100
AcDbEntity
  8
0
  6
Continuous
 62
     7
370
    15
100
AcDbLine
 10
656.2093502526683
 20
36.81325627172237
 30
0.0
 11
656.2093502526683
 21
36.31325525842237
 31
0.0
  0
LINE
  5
7AB
330
1F
100
AcDbEntity
  8
0
  6
Continuous
 62
     7
370
    15
100
AcDbLine
 10
657.4093482142683
 20
-39.18674500977765
 30
0.0
 11
662.0093478506683
 21
-39.18674500977765
 31
0.0
  0
LINE
  5
7AC
330
1F
100
AcDbEntity
  8
0
  6
Continuous
 62
     7
370
    15
100
AcDbLine
 10
657.4093482142683
 20
-39.18674500977765
 30
0.0
 11
657.4093482142683
 21
-38.68674399647766
 31
0.0
  0
LINE
  5
7AD
330
1F
100
AcDbEntity
  8
0
  6
Continuous
 62
     7
370
    15
100
AcDbLine
 10
657.4093482142683
 20
36.81325627172237
 30
0.0
 11
662.0093478506683
 21
36.81325627172237
 31
0.0
  0
LINE
  5
7AE
330
1F
100
AcDbEntity
  8
0
  6
Continuous
 62
     7
370
    15
100
AcDbLine
 10
657.4093482142683
 20
36.31325525842237
 30
0.0
 11
657.4093482142683
 21
36.81325627172237
 31
0.0
  0
LINE
  5
7AF
330
1F
100
AcDbEntity
  8
0
  6
Continuous
 62
     7
370
    15
100
AcDbLine
 10
678.0093467479683
 20
-22.83674577567767
 30
0.0
 11
679.7093457227683
 21
-22.83674577567767
 31
0.0
  0
LINE
  5
7B0
330
1F
100
AcDbEntity
  8
0
  6
Continuous
 62
     7
370
    15
100
AcDbLine
 10
632.7093491947683
 20
-22.83674577567767
 30
0.0
 11
635.6093479936683
 21
-22.83674577567767
 31
0.0
  0
LINE
  5
7B1
330
1F
100
AcDbEntity
  8
0
  6
Continuous
 62
     7
370
    15
100
AcDbLine
 10
670.0093491619683
 20
-43.93674718537766
 30
0.0
 11
670.5093501752683
 21
-43.93674718537766
 31
0.0
  0
LINE
  5
7B2
330
1F
100
AcDbEntity
  8
0
  6
Continuous
 62
     7
370
    15
100
AcDbLine
 10
676.5093511586683
 20
-43.93674718537766
 30
0.0
 11
677.0093521719683
 21
-43.93674718537766
 31
0.0
  0
LINE
  5
7B3
330
1F
100
AcDbEntity
  8
0
  6
Continuous
 62
     7
370
    15
100
AcDbLine
 10
677.0093521719683
 20
-48.93674614227767
 30
0.0
 11
677.0093521719683
 21
-43.93674718537766
 31
0.0
  0
LINE
  5
7B4
330
1F
100
AcDbEntity
  8
0
  6
Continuous
 62
     7
370
    15
100
AcDbLine
 10
677.0093521719683
 20
-43.93674718537766
 30
0.0
 11
678.0093467479683
 21
-43.93674718537766
 31
0.0
  0
LINE
  5
7B5
330
1F
100
AcDbEntity
  8
0
  6
Continuous
 62
     7
370
    15
100
AcDbLine
 10
670.5093501752683
 20
41.56325472202235
 30
0.0
 11
670.0093491619683
 21
41.56325472202235
 31
0.0
  0
LINE
  5
7B6
330
1F
100
AcDbEntity
  8
0
  6
Continuous
 62
     7
370
    15
100
AcDbLine
 10
677.0093521719683
 20
41.56325472202235
 30
0.0
 11
676.5093511586683
 21
41.56325472202235
 31
0.0
  0
LINE
  5
7B7
330
1F
100
AcDbEntity
  8
0
  6
Continuous
 62
     7
370
    15
100
AcDbLine
 10
677.0093521719683
 20
-43.93674718537766
 30
0.0
 11
677.0093521719683
 21
41.56325472202235
 31
0.0
  0
LINE
  5
7B8
330
1F
100
AcDbEntity
  8
0
  6
Continuous
 62
     7
370
    15
100
AcDbLine
 10
677.0093521719683
 20
41.56325472202235
 30
0.0
 11
678.0093467479683
 21
41.56325472202235
 31
0.0
  0
LINE
  5
7B9
330
1F
100
AcDbEntity
  8
0
  6
Continuous
 62
     7
370
    15
100
AcDbLine
 10
677.0093521719683
 20
41.56325472202235
 30
0.0
 11
677.0093521719683
 21
46.56325367892236
 31
0.0
  0
LINE
  5
7BA
330
1F
100
AcDbEntity
  8
0
  6
Continuous
 62
     7
370
    15
100
AcDbLine
 10
635.6093479936683
 20
-43.93674718537766
 30
0.0
 11
636.6093481575683
 21
-43.93674718537766
 31
0.0
  0
LINE
  5
7BB
330
1F
100
AcDbEntity
  8
0
  6
Continuous
 62
     7
370
    15
100
AcDbLine
 10
636.6093481575683
 20
-43.93674718537766
 30
0.0
 11
636.6093481575683
 21
-48.93674614227767
 31
0.0
  0
LINE
  5
7BC
330
1F
100
AcDbEntity
  8
0
  6
Continuous
 62
     7
370
    15
100
AcDbLine
 10
643.1093482916683
 20
-43.93674718537766
 30
0.0
 11
643.6093493049683
 21
-43.93674718537766
 31
0.0
  0
LINE
  5
7BD
330
1F
100
AcDbEntity
  8
0
  6
Continuous
 62
     7
370
    15
100
AcDbLine
 10
636.6093481575683
 20
-43.93674718537766
 30
0.0
 11
637.1093491708683
 21
-43.93674718537766
 31
0.0
  0
LINE
  5
7BE
330
1F
100
AcDbEntity
  8
0
  6
Continuous
 62
     7
370
    15
100
AcDbLine
 10
635.6093479936683
 20
41.56325472202235
 30
0.0
 11
636.6093481575683
 21
41.56325472202235
 31
0.0
  0
LINE
  5
7BF
330
1F
100
AcDbEntity
  8
0
  6
Continuous
 62
     7
370
    15
100
AcDbLine
 10
636.6093481575683
 20
41.56325472202235
 30
0.0
 11
636.6093481575683
 21
-43.93674718537766
 31
0.0
  0
LINE
  5
7C0
330
1F
100
AcDbEntity
  8
0
  6
Continuous
 62
     7
370
    15
100
AcDbLine
 10
637.1093491708683
 20
41.56325472202235
 30
0.0
 11
636.6093481575683
 21
41.56325472202235
 31
0.0
  0
LINE
  5
7C1
330
1F
100
AcDbEntity
  8
0
  6
Continuous
 62
     7
370
    15
100
AcDbLine
 10
643.6093493049683
 20
41.56325472202235
 30
0.0
 11
643.1093482916683
 21
41.56325472202235
 31
0.0
  0
LINE
  5
7C2
330
1F
100
AcDbEntity
  8
0
  6
Continuous
 62
     7
370
    15
100
AcDbLine
 10
636.6093481575683
 20
46.56325367892236
 30
0.0
 11
636.6093481575683
 21
41.56325472202235
 31
0.0
  0
LINE
  5
7C3
330
1F
100
AcDbEntity
  8
0
  6
Continuous
 62
     7
370
    15
100
AcDbLine
 10
652.1093479042684
 20
-47.18674632107765
 30
0.0
 11
651.6093468909683
 21
-47.18674632107765
 31
0.0
  0
LINE
  5
7C4
330
1F
100
AcDbEntity
  8
0
  6
Continuous
 62
     7
370
    15
100
AcDbLine
 10
652.1093479042684
 20
-41.18674533757768
 30
0.0
 11
651.6093468909683
 21
-41.18674533757768
 31
0.0
  0
LINE
  5
7C5
330
1F
100
AcDbEntity
  8
0
  6
Continuous
 62
     7
370
    15
100
AcDbLine
 10
652.1093479042684
 20
38.81325287422237
 30
0.0
 11
651.6093468909683
 21
38.81325287422237
 31
0.0
  0
LINE
  5
7C6
330
1F
100
AcDbEntity
  8
0
  6
Continuous
 62
     7
370
    15
100
AcDbLine
 10
652.1093479042684
 20
44.81325385772237
 30
0.0
 11
651.6093468909683
 21
44.81325385772237
 31
0.0
  0
LINE
  5
7C7
330
1F
100
AcDbEntity
  8
0
  6
Continuous
 62
     7
370
    15
100
AcDbLine
 10
653.5093492513683
 20
-47.18674632107765
 30
0.0
 11
652.1093479042684
 21
-47.18674632107765
 31
0.0
  0
LINE
  5
7C8
330
1F
100
AcDbEntity
  8
0
  6
Continuous
 62
     7
370
    15
100
AcDbLine
 10
653.5093492513683
 20
-41.18674533757768
 30
0.0
 11
652.1093479042684
 21
-41.18674533757768
 31
0.0
  0
LINE
  5
7C9
330
1F
100
AcDbEntity
  8
0
  6
Continuous
 62
     7
370
    15
100
AcDbLine
 10
653.5093492513683
 20
38.81325287422237
 30
0.0
 11
652.1093479042684
 21
38.81325287422237
 31
0.0
  0
LINE
  5
7CA
330
1F
100
AcDbEntity
  8
0
  6
Continuous
 62
     7
370
    15
100
AcDbLine
 10
653.5093492513683
 20
44.81325385772237
 30
0.0
 11
652.1093479042684
 21
44.81325385772237
 31
0.0
  0
LINE
  5
7CB
330
1F
100
AcDbEntity
  8
0
  6
Continuous
 62
     7
370
    15
100
AcDbLine
 10
662.0093478506683
 20
-47.18674632107765
 30
0.0
 11
661.5093468373683
 21
-47.18674632107765
 31
0.0
  0
LINE
  5
7CC
330
1F
100
AcDbEntity
  8
0
  6
Continuous
 62
     7
370
    15
100
AcDbLine
 10
662.0093478506683
 20
-41.18674533757768
 30
0.0
 11
661.5093468373683
 21
-41.18674533757768
 31
0.0
  0
LINE
  5
7CD
330
1F
100
AcDbEntity
  8
0
  6
Continuous
 62
     7
370
    15
100
AcDbLine
 10
662.0093478506683
 20
38.81325287422237
 30
0.0
 11
661.5093468373683
 21
38.81325287422237
 31
0.0
  0
LINE
  5
7CE
330
1F
100
AcDbEntity
  8
0
  6
Continuous
 62
     7
370
    15
100
AcDbLine
 10
662.0093478506683
 20
44.81325385772237
 30
0.0
 11
661.5093468373683
 21
44.81325385772237
 31
0.0
  0
LINE
  5
7CF
330
1F
100
AcDbEntity
  8
0
  6
Continuous
 62
     7
370
    15
100
AcDbLine
 10
651.3093492632684
 20
3.345955104222355
 30
0.0
 11
661.1093475168683
 21
3.345955104222355
 31
0.0
  0
LINE
  5
7D0
330
1F
100
AcDbEntity
  8
0
  6
Continuous
 62
     7
370
    15
100
AcDbLine
 10
661.1093475168683
 20
3.623754658322355
 30
0.0
 11
651.3093492632684
 21
3.623754658322355
 31
0.0
  0
LINE
  5
7D1
330
1F
100
AcDbEntity
  8
0
  6
Continuous
 62
     7
370
    15
100
AcDbLine
 10
661.1093475168683
 20
-5.565683736577682
 30
0.0
 11
651.3093492632684
 21
-5.565683736577682
 31
0.0
  0
LINE
  5
7D2
330
1F
100
AcDbEntity
  8
0
  6
Continuous
 62
     7
370
    15
100
AcDbLine
 10
651.3093492632684
 20
11.59448263852232
 30
0.0
 11
661.1093475168683
 21
11.59448263852232
 31
0.0
  0
LINE
  5
7D3
330
1F
100
AcDbEntity
  8
0
  6
Continuous
 62
     7
370
    15
100
AcDbLine
 10
644.6093476062683
 20
-47.93674411567766
 30
0.0
 11
644.6093476062683
 21
-49.93674444357767
 31
0.0
  0
LINE
  5
7D4
330
1F
100
AcDbEntity
  8
0
  6
Continuous
 62
     7
370
    15
100
AcDbLine
 10
644.6093476062683
 20
-47.93674411567766
 30
0.0
 11
643.6093493049683
 21
-47.93674411567766
 31
0.0
  0
LINE
  5
7D5
330
1F
100
AcDbEntity
  8
0
  6
Continuous
 62
     7
370
    15
100
AcDbLine
 10
644.6093476062683
 20
-47.93674411567766
 30
0.0
 11
651.6093468909683
 21
-47.93674411567766
 31
0.0
  0
LINE
  5
7D6
330
1F
100
AcDbEntity
  8
0
  6
Continuous
 62
     7
370
    15
100
AcDbLine
 10
644.6093476062683
 20
45.56325537762234
 30
0.0
 11
644.6093476062683
 21
-47.93674411567766
 31
0.0
  0
LINE
  5
7D7
330
1F
100
AcDbEntity
  8
0
  6
Continuous
 62
     7
370
    15
100
AcDbLine
 10
643.6093493049683
 20
45.56325537762234
 30
0.0
 11
644.6093476062683
 21
45.56325537762234
 31
0.0
  0
LINE
  5
7D8
330
1F
100
AcDbEntity
  8
0
  6
Continuous
 62
     7
370
    15
100
AcDbLine
 10
644.6093476062683
 20
45.56325537762234
 30
0.0
 11
651.6093468909683
 21
45.56325537762234
 31
0.0
  0
LINE
  5
7D9
330
1F
100
AcDbEntity
  8
0
  6
Continuous
 62
     7
370
    15
100
AcDbLine
 10
644.6093476062683
 20
47.56325570552235
 30
0.0
 11
644.6093476062683
 21
45.56325537762234
 31
0.0
  0
LINE
  5
7DA
330
1F
100
AcDbEntity
  8
0
  6
Continuous
 62
     7
370
    15
100
AcDbLine
 10
669.0093471353683
 20
-47.93674411567766
 30
0.0
 11
662.0093478506683
 21
-47.93674411567766
 31
0.0
  0
LINE
  5
7DB
330
1F
100
AcDbEntity
  8
0
  6
Continuous
 62
     7
370
    15
100
AcDbLine
 10
669.0093471353683
 20
-49.93674444357767
 30
0.0
 11
669.0093471353683
 21
-47.93674411567766
 31
0.0
  0
LINE
  5
7DC
330
1F
100
AcDbEntity
  8
0
  6
Continuous
 62
     7
370
    15
100
AcDbLine
 10
670.0093491619683
 20
-47.93674411567766
 30
0.0
 11
669.0093471353683
 21
-47.93674411567766
 31
0.0
  0
LINE
  5
7DD
330
1F
100
AcDbEntity
  8
0
  6
Continuous
 62
     7
370
    15
100
AcDbLine
 10
669.0093471353683
 20
45.56325537762234
 30
0.0
 11
662.0093478506683
 21
45.56325537762234
 31
0.0
  0
LINE
  5
7DE
330
1F
100
AcDbEntity
  8
0
  6
Continuous
 62
     7
370
    15
100
AcDbLine
 10
669.0093471353683
 20
-47.93674411567766
 30
0.0
 11
669.0093471353683
 21
45.56325537762234
 31
0.0
  0
LINE
  5
7DF
330
1F
100
AcDbEntity
  8
0
  6
Continuous
 62
     7
370
    15
100
AcDbLine
 10
669.0093471353683
 20
45.56325537762234
 30
0.0
 11
670.0093491619683
 21
45.56325537762234
 31
0.0
  0
LINE
  5
7E0
330
1F
100
AcDbEntity
  8
0
  6
Continuous
 62
     7
370
    15
100
AcDbLine
 10
669.0093471353683
 20
45.56325537762234
 30
0.0
 11
669.0093471353683
 21
47.56325570552235
 31
0.0
  0
LINE
  5
7E2
330
1F
100
AcDbEntity
  8
0
  6
CENTER
 62
     1
100
AcDbLine
 10
494.4754220769732
 20
-31.18674623167765
 30
0.0
 11
494.4754220769732
 21
28.81325376832237
 31
0.0
  0
LINE
  5
7E3
330
1F
100
AcDbEntity
  8
0
  6
CENTER
 62
     1
100
AcDbLine
 10
503.4754220769732
 20
37.81325376832237
 30
0.0
 11
566.4754220769732
 21
37.81325376832237
 31
0.0
  0
LINE
  5
7E5
330
1F
100
AcDbEntity
  8
0
  6
CENTER
 62
     1
100
AcDbLine
 10
566.4754220769732
 20
-40.18674623167765
 30
0.0
 11
503.4754220769732
 21
-40.18674623167765
 31
0.0
  0
ARC
  5
7E6
330
1F
100
AcDbEntity
  8
0
  6
CENTER
 62
     1
100
AcDbCircle
 10
503.4754220769732
 20
28.81325376832237
 30
0.0
 40
9.000000000000002
100
AcDbArc
 50
90.0
 51
180.0
  0
ARC
  5
7E7
330
1F
100
AcDbEntity
  8
0
  6
CENTER
 62
     1
100
AcDbCircle
 10
503.4754220769732
 20
-31.18674623167764
 30
0.0
 40
9.000000000000002
100
AcDbArc
 50
180.0
 51
270.0
  0
LINE
  5
7E8
330
1F
100
AcDbEntity
  8
0
  6
Continuous
 62
     4
370
    15
100
AcDbLine
 10
631.4592746738606
 20
-127.2053148779777
 30
0.0
 11
483.9754187987734
 21
-127.2053148779777
 31
0.0
  0
LINE
  5
7E9
330
1F
100
AcDbEntity
  8
0
  6
Continuous
 62
     4
370
    15
100
AcDbLine
 10
483.9754187987734
 20
-127.2053148779777
 30
0.0
 11
483.9754187987734
 21
-119.2053147154777
 31
0.0
  0
LINE
  5
7EA
330
1F
100
AcDbEntity
  8
0
  6
Continuous
 62
     4
370
    15
100
AcDbLine
 10
632.3007635080683
 20
-119.2053147154777
 30
0.0
 11
483.9754187987734
 21
-119.2053147154777
 31
0.0
  0
LINE
  5
7EB
330
1F
100
AcDbEntity
  8
0
 62
     4
100
AcDbLine
 10
632.3007635080683
 20
-119.2053147154777
 30
0.0
 11
629.9535771662963
 21
-124.1939198628492
 31
0.0
  0
LINE
  5
7EC
330
1F
100
AcDbEntity
  8
0
 62
     4
100
AcDbLine
 10
629.9535771662963
 20
-124.1939198628492
 30
0.0
 11
631.4592746738606
 21
-127.2053148779777
 31
0.0
  0
LINE
  5
7EF
330
1F
100
AcDbEntity
  8
0
  6
Continuous
 62
     7
370
    15
100
AcDbLine
 10
484.4254226908733
 20
-119.2053147154777
 30
0.0
 11
484.4254226908733
 21
-114.8053152488777
 31
0.0
  0
TEXT
  5
7F0
330
1F
100
AcDbEntity
  8
0
  6
Continuous
 62
     7
370
     0
100
AcDbText
 10
661.2135150690361
 20
-102.7212800728077
 30
0.0
 40
10.0
  1
B96
100
AcDbText
  0
VIEWPORT
  5
27F
330
1B
100
AcDbEntity
 67
     1
  8
0
100
AcDbViewport
 10
202.5
 20
128.5
 30
0.0
 40
486.0
 41
308.4
 68
     1
 69
     1
 12
202.5
 22
128.5
 13
0.0
 23
0.0
 14
0.5
 24
0.5
 15
0.0
 25
0.0
 16
0.0
 26
0.0
 36
1.0
 17
0.0
 27
0.0
 37
0.0
 42
50.0
 43
0.0
 44
0.0
 45
308.4
 50
0.0
 51
0.0
 72
   100
 90
   557152
  1

281
     0
 71
     1
 74
     0
110
0.0
120
0.0
130
0.0
111
1.0
121
0.0
131
0.0
112
0.0
122
1.0
132
0.0
 79
     0
146
0.0
170
     0
 61
     5
348
22F
292
     1
282
     1
141
0.0
142
0.0
 63
   256
361
283
  0
VIEWPORT
  5
280
102
{ACAD_XDICTIONARY
360
281
102
}
330
1B
100
AcDbEntity
 67
     1
  8
0
100
AcDbViewport
 10
202.5
 20
128.5
 30
0.0
 40
324.0
 41
205.6
 68
     2
 69
     2
 12
71.32962979715154
 22
-31.53509424290374
 13
0.0
 23
0.0
 14
0.5
 24
0.5
 15
0.0
 25
0.0
 16
0.0
 26
0.0
 36
1.0
 17
0.0
 27
0.0
 37
0.0
 42
50.0
 43
0.0
 44
0.0
 45
263.2315925594835
 50
0.0
 51
0.0
 72
   100
 90
   557152
  1

281
     0
 71
     1
 74
     0
110
0.0
120
0.0
130
0.0
111
1.0
121
0.0
131
0.0
112
0.0
122
1.0
132
0.0
 79
     0
146
0.0
170
     0
 61
     5
348
22F
292
     1
282
     1
141
0.0
142
0.0
 63
   256
  0
ENDSEC
  0
SECTION
  2
OBJECTS
  0
DICTIONARY
  5
C
330
0
100
AcDbDictionary
281
     1
  3
ACAD_DETAILVIEWSTYLE
350
2FC
  3
ACAD_GROUP
350
D
  3
ACAD_IMAGE_VARS
350
23E
  3
ACAD_LAYOUT
350
1A
  3
ACAD_MATERIAL
350
226
  3
ACAD_MLEADERSTYLE
350
248
  3
ACAD_MLINESTYLE
350
17
  3
ACAD_PLOTSETTINGS
350
19
  3
ACAD_PLOTSTYLENAME
350
E
  3
ACAD_SCALELIST
350
204
  3
ACAD_SECTIONVIEWSTYLE
350
2FD
  3
ACAD_TABLESTYLE
350
23B
  3
ACAD_VISUALSTYLE
350
22A
  3
ACDB_RECOMPOSE_DATA
350
7F6
  3
AcDbVariableDictionary
350
269
  3
APPDATA
350
23D
  3
DimOffsetDictionary
350
3B0
  0
SUN
  5
27E
330
29
100
AcDbSun
 90
        1
290
     0
 63
     7
421
 16777215
 40
1.0
291
     1
 91
  2455826
 92
 54000000
292
     0
 70
     2
 71
   256
280
     1
  0
DICTIONARY
  5
2F6
330
2D4
100
AcDbDictionary
280
     1
281
     1
  3
ACAD_SORTENTS
360
2F7
  0
SUN
  5
283
330
27F
100
AcDbSun
 90
        1
290
     0
 63
     7
421
 16777215
 40
1.0
291
     1
 91
  2455826
 92
 54000000
292
     0
 70
     2
 71
   256
280
     1
  0
DICTIONARY
  5
281
330
280
100
AcDbDictionary
280
     1
281
     1
  3
ASDK_XREC_ANNOTATION_SCALE_INFO
360
282
  0
DICTIONARY
  5
2FC
102
{ACAD_REACTORS
330
C
102
}
330
C
100
AcDbDictionary
281
     1
  0
DICTIONARY
  5
D
102
{ACAD_REACTORS
330
C
102
}
330
C
100
AcDbDictionary
281
     1
  0
RASTERVARIABLES
  5
23E
102
{ACAD_REACTORS
330
C
102
}
330
C
100
AcDbRasterVariables
 90
        0
 70
     1
 71
     1
 72
     1
  0
DICTIONARY
  5
1A
102
{ACAD_REACTORS
330
C
102
}
330
C
100
AcDbDictionary
281
     1
  3
Layout1
350
1E
  3
Layout2
350
26
  3
Model
350
22
  0
DICTIONARY
  5
226
102
{ACAD_REACTORS
330
C
102
}
330
C
100
AcDbDictionary
281
     1
  3
ByBlock
350
26F
  3
ByLayer
350
227
  3
Global
350
229
  0
DICTIONARY
  5
248
102
{ACAD_REACTORS
330
C
102
}
330
C
100
AcDbDictionary
281
     1
  3
Standard
350
27D
  0
DICTIONARY
  5
17
102
{ACAD_REACTORS
330
C
102
}
330
C
100
AcDbDictionary
281
     1
  3
Standard
350
18
  0
DICTIONARY
  5
19
102
{ACAD_REACTORS
330
C
102
}
330
C
100
AcDbDictionary
281
     1
  0
ACDBDICTIONARYWDFLT
  5
E
102
{ACAD_REACTORS
330
C
102
}
330
C
100
AcDbDictionary
281
     1
  3
Normal
350
F
100
AcDbDictionaryWithDefault
340
F
  0
DICTIONARY
  5
204
102
{ACAD_REACTORS
330
C
102
}
330
C
100
AcDbDictionary
281
     1
  3
A0
350
205
  3
A1
350
206
  3
A2
350
207
  3
A3
350
208
  3
A4
350
209
  3
A5
350
20A
  3
A6
350
20B
  3
A7
350
20C
  3
A8
350
20D
  3
A9
350
20E
  3
B0
350
20F
  3
B1
350
210
  3
B2
350
211
  3
B3
350
212
  3
B4
350
213
  3
B5
350
214
  3
B6
350
215
  3
B7
350
216
  3
B8
350
217
  3
B9
350
218
  3
C0
350
219
  3
C1
350
21A
  3
C2
350
21B
  3
C3
350
21C
  3
C4
350
21D
  3
C5
350
21E
  3
C6
350
21F
  3
C7
350
220
  3
C8
350
221
  3
C9
350
222
  3
D0
350
223
  3
D1
350
224
  3
D2
350
225
  0
DICTIONARY
  5
2FD
102
{ACAD_REACTORS
330
C
102
}
330
C
100
AcDbDictionary
281
     1
  0
DICTIONARY
  5
23B
102
{ACAD_REACTORS
330
C
102
}
330
C
100
AcDbDictionary
281
     1
  3
Standard
350
23C
  0
DICTIONARY
  5
22A
102
{ACAD_REACTORS
330
C
102
}
330
C
100
AcDbDictionary
281
     1
  3
2dWireframe
350
22F
  3
3D Hidden
350
231
  3
3dWireframe
350
230
  3
Basic
350
232
  3
Brighten
350
236
  3
ColorChange
350
23A
  3
Conceptual
350
234
  3
Dim
350
235
  3
EdgeColorOff
350
277
  3
Facepattern
350
239
  3
Flat
350
22B
  3
FlatWithEdges
350
22C
  3
Gouraud
350
22D
  3
GouraudWithEdges
350
22E
  3
Hidden
350
274
  3
JitterOff
350
275
  3
Linepattern
350
238
  3
OverhangOff
350
276
  3
Realistic
350
233
  3
Shaded
350
27C
  3
Shaded with edges
350
27B
  3
Shades of Gray
350
278
  3
Sketchy
350
279
  3
Thicken
350
237
  3
Wireframe
350
273
  3
X-Ray
350
27A
  0
XRECORD
  5
7F6
102
{ACAD_REACTORS
330
C
102
}
330
C
100
AcDbXrecord
280
     1
 90
        1
330
23C
  0
DICTIONARY
  5
269
102
{ACAD_REACTORS
330
C
102
}
330
C
100
AcDbDictionary
281
     1
  3
CANNOSCALE
350
26A
  3
CMLEADERSTYLE
350
2FB
  3
CTABLESTYLE
350
26E
  3
HPTRANSPARENCY
350
3AF
  0
DICTIONARY
  5
23D
102
{ACAD_REACTORS
330
C
102
}
330
C
100
AcDbDictionary
281
     1
  0
DICTIONARY
  5
3B0
102
{ACAD_REACTORS
330
C
102
}
330
C
100
AcDbDictionary
281
     1
  3
DIMRAILANGLE
350
3B3
  3
DIMRAILFIRSTOFFSET
350
3B1
  3
DIMRAILOFFSET
350
3B2
  3
DIMRAILSENABLED
350
3B4
  0
SORTENTSTABLE
  5
2F7
102
{ACAD_REACTORS
330
2F6
330
2F6
102
}
330
2F6
100
AcDbSortentsTable
330
2D4
  0
XRECORD
  5
282
102
{ACAD_REACTORS
330
281
102
}
330
281
100
AcDbXrecord
280
     1
 90
        1
340
205
  0
LAYOUT
  5
1E
102
{ACAD_REACTORS
330
1A
102
}
330
1A
100
AcDbPlotSettings
  1

  2
none_device
  4
ISO_A3_(420.00_x_297.00_MM)
  6

 40
7.5
 41
20.0
 42
7.5
 43
20.0
 44
420.0
 45
297.0
 46
0.0
 47
0.0
 48
0.0
 49
0.0
140
0.0
141
0.0
142
1.0
143
1.0
 70
   688
 72
     1
 73
     0
 74
     5
  7

 75
    16
 76
     0
 77
     2
 78
   300
147
1.0
148
0.0
149
0.0
100
AcDbLayout
  1
Layout1
 70
     1
 71
     1
 10
0.0
 20
0.0
 11
412.5
 21
277.0
 12
0.0
 22
0.0
 32
0.0
 14
40.5
 24
25.69999999999999
 34
0.0
 15
364.5
 25
231.3
 35
0.0
146
0.0
 13
0.0
 23
0.0
 33
0.0
 16
1.0
 26
0.0
 36
0.0
 17
0.0
 27
1.0
 37
0.0
 76
     0
330
1B
331
27F
  0
LAYOUT
  5
26
102
{ACAD_REACTORS
330
1A
102
}
330
1A
100
AcDbPlotSettings
  1

  2
none_device
  4

  6

 40
0.0
 41
0.0
 42
0.0
 43
0.0
 44
0.0
 45
0.0
 46
0.0
 47
0.0
 48
0.0
 49
0.0
140
0.0
141
0.0
142
1.0
143
1.0
 70
   688
 72
     0
 73
     0
 74
     5
  7

 75
    16
 76
     0
 77
     2
 78
   300
147
1.0
148
0.0
149
0.0
100
AcDbLayout
  1
Layout2
 70
     1
 71
     2
 10
0.0
 20
0.0
 11
0.0
 21
0.0
 12
0.0
 22
0.0
 32
0.0
 14
0.0
 24
0.0
 34
0.0
 15
0.0
 25
0.0
 35
0.0
146
0.0
 13
0.0
 23
0.0
 33
0.0
 16
1.0
 26
0.0
 36
0.0
 17
0.0
 27
1.0
 37
0.0
 76
     0
330
23
  0
LAYOUT
  5
22
102
{ACAD_REACTORS
330
1A
102
}
330
1A
100
AcDbPlotSettings
  1

  2
none_device
  4
ISO_A3_(420.00_x_297.00_MM)
  6

 40
7.5
 41
20.0
 42
7.5
 43
20.0
 44
420.0
 45
297.0
 46
0.0
 47
0.0
 48
0.0
 49
0.0
140
0.0
141
0.0
142
1.0
143
2.753028427310143
 70
  1712
 72
     1
 73
     0
 74
     0
  7

 75
     0
 76
     0
 77
     2
 78
   300
147
0.363236350950816
148
511.9439329754575
149
298.8297250478652
100
AcDbLayout
  1
Model
 70
     1
 71
     0
 10
0.0
 20
0.0
 11
840.0
 21
594.0
 12
0.0
 22
0.0
 32
0.0
 14
471.9733269438733
 24
-144.9053127500777
 34
0.0
 15
681.984285839807
 25
47.56325570552235
 35
0.0
146
0.0
 13
0.0
 23
0.0
 33
0.0
 16
1.0
 26
0.0
 36
0.0
 17
0.0
 27
1.0
 37
0.0
 76
     0
330
1F
331
29
  0
MATERIAL
  5
26F
102
{ACAD_REACTORS
330
226
102
}
330
226
100
AcDbMaterial
  1
ByBlock
 72
     1
 94
      127
  0
MATERIAL
  5
227
102
{ACAD_REACTORS
330
226
102
}
330
226
100
AcDbMaterial
  1
ByLayer
 72
     1
 94
      127
  0
MATERIAL
  5
229
102
{ACAD_REACTORS
330
226
102
}
330
226
100
AcDbMaterial
  1
Global
 72
     1
 94
      127
  0
MLEADERSTYLE
  5
27D
102
{ACAD_REACTORS
330
248
102
}
330
248
100
AcDbMLeaderStyle
179
     2
170
     2
171
     1
172
     0
 90
        2
 40
0.0
 41
0.0
173
     1
 91
-1056964608
340
14
 92
       -2
290
     1
 42
2.0
291
     1
 43
8.0
  3
Standard
341
0
 44
4.0
300

342
11
174
     1
178
     6
175
     1
176
     0
 93
-1056964608
 45
4.0
292
     0
297
     0
 46
4.0
343
0
 94
-1056964608
 47
1.0
 49
1.0
140
1.0
293
     1
141
0.0
294
     1
177
     0
142
1.0
295
     0
296
     0
143
3.75
271
     0
272
     9
273
     9
298
     0
  0
MLINESTYLE
  5
18
102
{ACAD_REACTORS
330
17
102
}
330
17
100
AcDbMlineStyle
  2
Standard
 70
     0
  3

 62
   256
 51
90.0
 52
90.0
 71
     2
 49
0.5
 62
   256
  6
BYLAYER
 49
-0.5
 62
   256
  6
BYLAYER
  0
ACDBPLACEHOLDER
  5
F
102
{ACAD_REACTORS
330
E
102
}
330
E
  0
SCALE
  5
205
102
{ACAD_REACTORS
330
204
102
}
330
204
100
AcDbScale
 70
     0
300
1:1
140
1.0
141
1.0
290
     1
  0
SCALE
  5
206
102
{ACAD_REACTORS
330
204
102
}
330
204
100
AcDbScale
 70
     0
300
1:2
140
1.0
141
2.0
290
     0
  0
SCALE
  5
207
102
{ACAD_REACTORS
330
204
102
}
330
204
100
AcDbScale
 70
     0
300
1:4
140
1.0
141
4.0
290
     0
  0
SCALE
  5
208
102
{ACAD_REACTORS
330
204
102
}
330
204
100
AcDbScale
 70
     0
300
1:5
140
1.0
141
5.0
290
     0
  0
SCALE
  5
209
102
{ACAD_REACTORS
330
204
102
}
330
204
100
AcDbScale
 70
     0
300
1:8
140
1.0
141
8.0
290
     0
  0
SCALE
  5
20A
102
{ACAD_REACTORS
330
204
102
}
330
204
100
AcDbScale
 70
     0
300
1:10
140
1.0
141
10.0
290
     0
  0
SCALE
  5
20B
102
{ACAD_REACTORS
330
204
102
}
330
204
100
AcDbScale
 70
     0
300
1:16
140
1.0
141
16.0
290
     0
  0
SCALE
  5
20C
102
{ACAD_REACTORS
330
204
102
}
330
204
100
AcDbScale
 70
     0
300
1:20
140
1.0
141
20.0
290
     0
  0
SCALE
  5
20D
102
{ACAD_REACTORS
330
204
102
}
330
204
100
AcDbScale
 70
     0
300
1:30
140
1.0
141
30.0
290
     0
  0
SCALE
  5
20E
102
{ACAD_REACTORS
330
204
102
}
330
204
100
AcDbScale
 70
     0
300
1:40
140
1.0
141
40.0
290
     0
  0
SCALE
  5
20F
102
{ACAD_REACTORS
330
204
102
}
330
204
100
AcDbScale
 70
     0
300
1:50
140
1.0
141
50.0
290
     0
  0
SCALE
  5
210
102
{ACAD_REACTORS
330
204
102
}
330
204
100
AcDbScale
 70
     0
300
1:100
140
1.0
141
100.0
290
     0
  0
SCALE
  5
211
102
{ACAD_REACTORS
330
204
102
}
330
204
100
AcDbScale
 70
     0
300
2:1
140
2.0
141
1.0
290
     0
  0
SCALE
  5
212
102
{ACAD_REACTORS
330
204
102
}
330
204
100
AcDbScale
 70
     0
300
4:1
140
4.0
141
1.0
290
     0
  0
SCALE
  5
213
102
{ACAD_REACTORS
330
204
102
}
330
204
100
AcDbScale
 70
     0
300
8:1
140
8.0
141
1.0
290
     0
  0
SCALE
  5
214
102
{ACAD_REACTORS
330
204
102
}
330
204
100
AcDbScale
 70
     0
300
10:1
140
10.0
141
1.0
290
     0
  0
SCALE
  5
215
102
{ACAD_REACTORS
330
204
102
}
330
204
100
AcDbScale
 70
     0
300
100:1
140
100.0
141
1.0
290
     0
  0
SCALE
  5
216
102
{ACAD_REACTORS
330
204
102
}
330
204
100
AcDbScale
 70
     0
300
1/128" = 1'-0"
140
0.0078125
141
12.0
290
     0
  0
SCALE
  5
217
102
{ACAD_REACTORS
330
204
102
}
330
204
100
AcDbScale
 70
     0
300
1/64" = 1'-0"
140
0.015625
141
12.0
290
     0
  0
SCALE
  5
218
102
{ACAD_REACTORS
330
204
102
}
330
204
100
AcDbScale
 70
     0
300
1/32" = 1'-0"
140
0.03125
141
12.0
290
     0
  0
SCALE
  5
219
102
{ACAD_REACTORS
330
204
102
}
330
204
100
AcDbScale
 70
     0
300
1/16" = 1'-0"
140
0.0625
141
12.0
290
     0
  0
SCALE
  5
21A
102
{ACAD_REACTORS
330
204
102
}
330
204
100
AcDbScale
 70
     0
300
3/32" = 1'-0"
140
0.09375
141
12.0
290
     0
  0
SCALE
  5
21B
102
{ACAD_REACTORS
330
204
102
}
330
204
100
AcDbScale
 70
     0
300
1/8" = 1'-0"
140
0.125
141
12.0
290
     0
  0
SCALE
  5
21C
102
{ACAD_REACTORS
330
204
102
}
330
204
100
AcDbScale
 70
     0
300
3/16" = 1'-0"
140
0.1875
141
12.0
290
     0
  0
SCALE
  5
21D
102
{ACAD_REACTORS
330
204
102
}
330
204
100
AcDbScale
 70
     0
300
1/4" = 1'-0"
140
0.25
141
12.0
290
     0
  0
SCALE
  5
21E
102
{ACAD_REACTORS
330
204
102
}
330
204
100
AcDbScale
 70
     0
300
3/8" = 1'-0"
140
0.375
141
12.0
290
     0
  0
SCALE
  5
21F
102
{ACAD_REACTORS
330
204
102
}
330
204
100
AcDbScale
 70
     0
300
1/2" = 1'-0"
140
0.5
141
12.0
290
     0
  0
SCALE
  5
220
102
{ACAD_REACTORS
330
204
102
}
330
204
100
AcDbScale
 70
     0
300
3/4" = 1'-0"
140
0.75
141
12.0
290
     0
  0
SCALE
  5
221
102
{ACAD_REACTORS
330
204
102
}
330
204
100
AcDbScale
 70
     0
300
1" = 1'-0"
140
1.0
141
12.0
290
     0
  0
SCALE
  5
222
102
{ACAD_REACTORS
330
204
102
}
330
204
100
AcDbScale
 70
     0
300
1-1/2" = 1'-0"
140
1.5
141
12.0
290
     0
  0
SCALE
  5
223
102
{ACAD_REACTORS
330
204
102
}
330
204
100
AcDbScale
 70
     0
300
3" = 1'-0"
140
3.0
141
12.0
290
     0
  0
SCALE
  5
224
102
{ACAD_REACTORS
330
204
102
}
330
204
100
AcDbScale
 70
     0
300
6" = 1'-0"
140
6.0
141
12.0
290
     0
  0
SCALE
  5
225
102
{ACAD_REACTORS
330
204
102
}
330
204
100
AcDbScale
 70
     0
300
1'-0" = 1'-0"
140
12.0
141
12.0
290
     0
  0
TABLESTYLE
  5
23C
102
{ACAD_REACTORS
330
23B
102
}
102
{ACAD_XDICTIONARY
360
7F4
102
}
330
23B
100
AcDbTableStyle
  3
Standard
 70
     0
 71
     0
 40
1.5
 41
1.5
280
     0
281
     0
  7
Standard
140
4.5
170
     2
 62
     0
 63
   257
283
     0
 90
        4
 91
        0
  1

274
    -2
284
     1
 64
     0
275
    -2
285
     1
 65
     0
276
    -2
286
     1
 66
     0
277
    -2
287
     1
 67
     0
278
    -2
288
     1
 68
     0
279
    -2
289
     1
 69
     0
  7
Standard
140
6.0
170
     5
 62
     0
 63
   257
283
     0
 90
        4
 91
        0
  1

274
    -2
284
     1
 64
     0
275
    -2
285
     1
 65
     0
276
    -2
286
     1
 66
     0
277
    -2
287
     1
 67
     0
278
    -2
288
     1
 68
     0
279
    -2
289
     1
 69
     0
  7
Standard
140
4.5
170
     5
 62
     0
 63
   257
283
     0
 90
        4
 91
        0
  1

274
    -2
284
     1
 64
     0
275
    -2
285
     1
 65
     0
276
    -2
286
     1
 66
     0
277
    -2
287
     1
 67
     0
278
    -2
288
     1
 68
     0
279
    -2
289
     1
 69
     0
  0
VISUALSTYLE
  5
22F
102
{ACAD_REACTORS
330
22A
102
}
330
22A
100
AcDbVisualStyle
  2
2dWireframe
 70
     4
177
     3
291
     0
 70
    58
 90
        0
176
     1
 90
        2
176
     1
 90
        0
176
     1
 90
        0
176
     1
 40
-0.6
176
     1
 40
-30.0
176
     1
 62
     7
420
 16777215
176
     1
 90
        1
176
     1
 90
        4
176
     1
 62
     7
176
     1
 62
   257
176
     1
 90
        1
176
     1
 90
        1
176
     1
 40
1.0
176
     1
 90
        0
176
     1
 62
   257
176
     1
 40
1.0
176
     1
 90
        1
176
     1
 90
        6
176
     1
 90
        2
176
     1
 62
     7
176
     1
 90
        5
176
     1
 90
        0
176
     1
 90
        0
176
     1
290
     0
176
     1
 90
        1
176
     1
 40
0.0
176
     1
 90
        0
176
     1
290
     1
176
     1
290
     1
176
     1
290
     0
176
     1
290
     0
176
     1
290
     0
176
     1
290
     0
176
     1
290
     0
176
     1
290
     0
176
     1
290
     0
176
     1
 90
       50
176
     1
 40
0.0
176
     1
 40
1.0
176
     1
 90
        0
176
     1
 62
    18
420
        0
176
     1
 90
       50
176
     1
 90
        3
176
     1
 62
     5
420
      255
176
     1
290
     0
176
     1
 90
       50
176
     1
 90
       50
176
     1
 90
       50
176
     1
290
     0
176
     1
 90
       50
176
     1
 62
   256
176
     0
 40
1.0
176
     0
 90
        2
176
     1
  1
strokes_ogs.tif
176
     1
290
     0
176
     1
 40
1.0
176
     1
 40
1.0
176
     1
  0
VISUALSTYLE
  5
231
102
{ACAD_REACTORS
330
22A
102
}
330
22A
100
AcDbVisualStyle
  2
3D Hidden
 70
     6
177
     3
291
     0
 70
    58
 90
        1
176
     1
 90
        2
176
     1
 90
        2
176
     1
 90
        0
176
     1
 40
-0.6
176
     1
 40
-30.0
176
     1
 62
     7
420
 16777215
176
     1
 90
        2
176
     1
 90
        2
176
     1
 62
     7
176
     1
 62
   257
176
     1
 90
        2
176
     1
 90
        1
176
     1
 40
40.0
176
     1
 90
        0
176
     1
 62
   257
176
     1
 40
1.0
176
     1
 90
        1
176
     1
 90
        6
176
     1
 90
        2
176
     1
 62
     7
176
     1
 90
        3
176
     1
 90
        0
176
     1
 90
        0
176
     1
290
     0
176
     1
 90
        1
176
     1
 40
0.0
176
     1
 90
        0
176
     1
290
     0
176
     1
290
     1
176
     1
290
     1
176
     1
290
     0
176
     1
290
     0
176
     1
290
     0
176
     1
290
     0
176
     1
290
     0
176
     1
290
     0
176
     1
 90
       50
176
     1
 40
0.0
176
     1
 40
1.0
176
     1
 90
        0
176
     1
 62
    18
420
        0
176
     1
 90
       50
176
     1
 90
        3
176
     1
 62
     5
420
      255
176
     1
290
     0
176
     1
 90
       50
176
     1
 90
       50
176
     1
 90
       50
176
     1
290
     0
176
     1
 90
       50
176
     1
 62
   256
176
     0
 40
1.0
176
     0
 90
        2
176
     1
  1
strokes_ogs.tif
176
     1
290
     0
176
     1
 40
1.0
176
     1
 40
1.0
176
     1
  0
VISUALSTYLE
  5
230
102
{ACAD_REACTORS
330
22A
102
}
330
22A
100
AcDbVisualStyle
  2
3dWireframe
 70
     5
177
     3
291
     0
 70
    58
 90
        0
176
     1
 90
        2
176
     1
 90
        0
176
     1
 90
        0
176
     1
 40
-0.6
176
     1
 40
-30.0
176
     1
 62
     7
420
 16777215
176
     1
 90
        1
176
     1
 90
        4
176
     1
 62
     7
176
     1
 62
   257
176
     1
 90
        1
176
     1
 90
        1
176
     1
 40
1.0
176
     1
 90
        0
176
     1
 62
   257
176
     1
 40
1.0
176
     1
 90
        1
176
     1
 90
        6
176
     1
 90
        2
176
     1
 62
     7
176
     1
 90
        5
176
     1
 90
        0
176
     1
 90
        0
176
     1
290
     0
176
     1
 90
        1
176
     1
 40
0.0
176
     1
 90
        0
176
     1
290
     0
176
     1
290
     1
176
     1
290
     1
176
     1
290
     0
176
     1
290
     0
176
     1
290
     0
176
     1
290
     0
176
     1
290
     0
176
     1
290
     0
176
     1
 90
       50
176
     1
 40
0.0
176
     1
 40
1.0
176
     1
 90
        0
176
     1
 62
    18
420
        0
176
     1
 90
       50
176
     1
 90
        3
176
     1
 62
     5
420
      255
176
     1
290
     0
176
     1
 90
       50
176
     1
 90
       50
176
     1
 90
       50
176
     1
290
     0
176
     1
 90
       50
176
     1
 62
   256
176
     0
 40
1.0
176
     0
 90
        2
176
     1
  1
strokes_ogs.tif
176
     1
290
     0
176
     1
 40
1.0
176
     1
 40
1.0
176
     1
  0
VISUALSTYLE
  5
232
102
{ACAD_REACTORS
330
22A
102
}
330
22A
100
AcDbVisualStyle
  2
Basic
 70
     7
177
     3
291
     1
 70
    58
 90
        1
176
     1
 90
        0
176
     1
 90
        1
176
     1
 90
        0
176
     1
 40
-0.6
176
     1
 40
-30.0
176
     1
 62
     7
420
 16777215
176
     1
 90
        0
176
     1
 90
        4
176
     1
 62
     7
176
     1
 62
   257
176
     1
 90
        1
176
     1
 90
        1
176
     1
 40
1.0
176
     1
 90
        8
176
     1
 62
     7
176
     1
 40
1.0
176
     1
 90
        1
176
     1
 90
        6
176
     1
 90
        2
176
     1
 62
     7
176
     1
 90
        5
176
     1
 90
        0
176
     1
 90
        0
176
     1
290
     0
176
     1
 90
        1
176
     1
 40
0.0
176
     1
 90
        0
176
     1
290
     0
176
     1
290
     1
176
     1
290
     1
176
     1
290
     0
176
     1
290
     0
176
     1
290
     0
176
     1
290
     0
176
     1
290
     0
176
     1
290
     0
176
     1
 90
       50
176
     1
 40
0.0
176
     1
 40
1.0
176
     1
 90
        0
176
     1
 62
    18
420
        0
176
     1
 90
       50
176
     1
 90
        3
176
     1
 62
     5
420
      255
176
     1
290
     0
176
     1
 90
       50
176
     1
 90
       50
176
     1
 90
       50
176
     1
290
     0
176
     1
 90
       50
176
     1
 62
   256
176
     0
 40
1.0
176
     0
 90
        2
176
     1
  1
strokes_ogs.tif
176
     1
290
     0
176
     1
 40
1.0
176
     1
 40
1.0
176
     1
  0
VISUALSTYLE
  5
236
102
{ACAD_REACTORS
330
22A
102
}
330
22A
100
AcDbVisualStyle
  2
Brighten
 70
    12
177
     3
291
     1
 70
    58
 90
        2
176
     1
 90
        2
176
     1
 90
        0
176
     1
 90
        0
176
     1
 40
-0.6
176
     1
 40
-30.0
176
     1
 62
     7
420
 16777215
176
     1
 90
        1
176
     1
 90
        4
176
     1
 62
     7
176
     1
 62
   257
176
     1
 90
        1
176
     1
 90
        1
176
     1
 40
1.0
176
     1
 90
        8
176
     1
 62
     7
176
     1
 40
1.0
176
     1
 90
        1
176
     1
 90
        6
176
     1
 90
        2
176
     1
 62
     7
176
     1
 90
        5
176
     1
 90
        0
176
     1
 90
        0
176
     1
290
     0
176
     1
 90
        1
176
     1
 40
50.0
176
     1
 90
        0
176
     1
290
     0
176
     1
290
     1
176
     1
290
     1
176
     1
290
     0
176
     1
290
     0
176
     1
290
     0
176
     1
290
     0
176
     1
290
     0
176
     1
290
     0
176
     1
 90
       50
176
     1
 40
0.0
176
     1
 40
1.0
176
     1
 90
        0
176
     1
 62
    18
420
        0
176
     1
 90
       50
176
     1
 90
        3
176
     1
 62
     5
420
      255
176
     1
290
     0
176
     1
 90
       50
176
     1
 90
       50
176
     1
 90
       50
176
     1
290
     0
176
     1
 90
       50
176
     1
 62
   256
176
     0
 40
1.0
176
     0
 90
        2
176
     1
  1
strokes_ogs.tif
176
     1
290
     0
176
     1
 40
1.0
176
     1
 40
1.0
176
     1
  0
VISUALSTYLE
  5
23A
102
{ACAD_REACTORS
330
22A
102
}
330
22A
100
AcDbVisualStyle
  2
ColorChange
 70
    16
177
     3
291
     1
 70
    58
 90
        2
176
     1
 90
        2
176
     1
 90
        3
176
     1
 90
        0
176
     1
 40
-0.6
176
     1
 40
-30.0
176
     1
 62
     8
420
  8421504
176
     1
 90
        1
176
     1
 90
        4
176
     1
 62
     7
176
     1
 62
   257
176
     1
 90
        1
176
     1
 90
        1
176
     1
 40
1.0
176
     1
 90
        8
176
     1
 62
     8
420
  8421504
176
     1
 40
1.0
176
     1
 90
        1
176
     1
 90
        6
176
     1
 90
        2
176
     1
 62
     7
176
     1
 90
        5
176
     1
 90
        0
176
     1
 90
        0
176
     1
290
     0
176
     1
 90
        1
176
     1
 40
0.0
176
     1
 90
        0
176
     1
290
     0
176
     1
290
     1
176
     1
290
     1
176
     1
290
     0
176
     1
290
     0
176
     1
290
     0
176
     1
290
     0
176
     1
290
     0
176
     1
290
     0
176
     1
 90
       50
176
     1
 40
0.0
176
     1
 40
1.0
176
     1
 90
        0
176
     1
 62
    18
420
        0
176
     1
 90
       50
176
     1
 90
        3
176
     1
 62
     5
420
      255
176
     1
290
     0
176
     1
 90
       50
176
     1
 90
       50
176
     1
 90
       50
176
     1
290
     0
176
     1
 90
       50
176
     1
 62
   256
176
     0
 40
1.0
176
     0
 90
        2
176
     1
  1
strokes_ogs.tif
176
     1
290
     0
176
     1
 40
1.0
176
     1
 40
1.0
176
     1
  0
VISUALSTYLE
  5
234
102
{ACAD_REACTORS
330
22A
102
}
330
22A
100
AcDbVisualStyle
  2
Conceptual
 70
     9
177
     3
291
     0
 70
    58
 90
        3
176
     1
 90
        2
176
     1
 90
        0
176
     1
 90
        0
176
     1
 40
-0.6
176
     1
 40
-30.0
176
     1
 62
     7
420
 16777215
176
     1
 90
        2
176
     1
 90
        2
176
     1
 62
     7
176
     1
 62
   257
176
     1
 90
        1
176
     1
 90
        1
176
     1
 40
40.0
176
     1
 90
        8
176
     1
 62
     7
176
     1
 40
1.0
176
     1
 90
        1
176
     1
 90
        6
176
     1
 90
        2
176
     1
 62
     7
176
     1
 90
        3
176
     1
 90
        0
176
     1
 90
        0
176
     1
290
     0
176
     1
 90
        1
176
     1
 40
0.0
176
     1
 90
        0
176
     1
290
     0
176
     1
290
     1
176
     1
290
     1
176
     1
290
     0
176
     1
290
     0
176
     1
290
     0
176
     1
290
     0
176
     1
290
     0
176
     1
290
     0
176
     1
 90
       50
176
     1
 40
0.0
176
     1
 40
1.0
176
     1
 90
        0
176
     1
 62
    18
420
        0
176
     1
 90
       50
176
     1
 90
        3
176
     1
 62
     5
420
      255
176
     1
290
     0
176
     1
 90
       50
176
     1
 90
       50
176
     1
 90
       50
176
     1
290
     0
176
     1
 90
       50
176
     1
 62
   256
176
     0
 40
1.0
176
     0
 90
        2
176
     1
  1
strokes_ogs.tif
176
     1
290
     0
176
     1
 40
1.0
176
     1
 40
1.0
176
     1
  0
VISUALSTYLE
  5
235
102
{ACAD_REACTORS
330
22A
102
}
330
22A
100
AcDbVisualStyle
  2
Dim
 70
    11
177
     3
291
     1
 70
    58
 90
        2
176
     1
 90
        2
176
     1
 90
        0
176
     1
 90
        0
176
     1
 40
-0.6
176
     1
 40
-30.0
176
     1
 62
     7
420
 16777215
176
     1
 90
        1
176
     1
 90
        4
176
     1
 62
     7
176
     1
 62
   257
176
     1
 90
        1
176
     1
 90
        1
176
     1
 40
1.0
176
     1
 90
        8
176
     1
 62
     7
176
     1
 40
1.0
176
     1
 90
        1
176
     1
 90
        6
176
     1
 90
        2
176
     1
 62
     7
176
     1
 90
        5
176
     1
 90
        0
176
     1
 90
        0
176
     1
290
     0
176
     1
 90
        1
176
     1
 40
-50.0
176
     1
 90
        0
176
     1
290
     0
176
     1
290
     1
176
     1
290
     1
176
     1
290
     0
176
     1
290
     0
176
     1
290
     0
176
     1
290
     0
176
     1
290
     0
176
     1
290
     0
176
     1
 90
       50
176
     1
 40
0.0
176
     1
 40
1.0
176
     1
 90
        0
176
     1
 62
    18
420
        0
176
     1
 90
       50
176
     1
 90
        3
176
     1
 62
     5
420
      255
176
     1
290
     0
176
     1
 90
       50
176
     1
 90
       50
176
     1
 90
       50
176
     1
290
     0
176
     1
 90
       50
176
     1
 62
   256
176
     0
 40
1.0
176
     0
 90
        2
176
     1
  1
strokes_ogs.tif
176
     1
290
     0
176
     1
 40
1.0
176
     1
 40
1.0
176
     1
  0
VISUALSTYLE
  5
277
102
{ACAD_REACTORS
330
22A
102
}
330
22A
100
AcDbVisualStyle
  2
EdgeColorOff
 70
    22
177
     3
291
     1
 70
    58
 90
        2
176
     0
 90
        2
176
     0
 90
        0
176
     0
 90
        0
176
     0
 40
0.6
176
     0
 40
30.0
176
     0
 62
     7
420
 16777215
176
     0
 90
        1
176
     0
 90
        4
176
     0
 62
     7
176
     0
 62
   257
176
     0
 90
        1
176
     0
 90
        1
176
     0
 40
1.0
176
     0
 90
        8
176
     2
 62
     7
176
     0
 40
1.0
176
     0
 90
        1
176
     0
 90
        6
176
     0
 90
        2
176
     0
 62
     7
176
     0
 90
        5
176
     0
 90
        0
176
     0
 90
        0
176
     0
290
     0
176
     0
 90
        1
176
     0
 40
0.0
176
     0
 90
        0
176
     0
290
     0
176
     0
290
     1
176
     0
290
     1
176
     0
290
     0
176
     0
290
     0
176
     0
290
     0
176
     0
290
     0
176
     0
290
     0
176
     0
290
     0
176
     0
 90
       50
176
     0
 40
0.0
176
     0
 40
1.0
176
     0
 90
        0
176
     0
 62
    18
420
        0
176
     0
 90
       50
176
     0
 90
        3
176
     0
 62
     5
420
      255
176
     0
290
     0
176
     0
 90
       50
176
     0
 90
       50
176
     0
 90
       50
176
     0
290
     0
176
     0
 90
       50
176
     0
 62
   256
176
     0
 40
1.0
176
     0
 90
        2
176
     0
  1
strokes_ogs.tif
176
     0
290
     0
176
     0
 40
1.0
176
     0
 40
1.0
176
     0
  0
VISUALSTYLE
  5
239
102
{ACAD_REACTORS
330
22A
102
}
330
22A
100
AcDbVisualStyle
  2
Facepattern
 70
    15
177
     3
291
     1
 70
    58
 90
        2
176
     1
 90
        2
176
     1
 90
        0
176
     1
 90
        0
176
     1
 40
-0.6
176
     1
 40
-30.0
176
     1
 62
     7
420
 16777215
176
     1
 90
        1
176
     1
 90
        4
176
     1
 62
     7
176
     1
 62
   257
176
     1
 90
        1
176
     1
 90
        1
176
     1
 40
1.0
176
     1
 90
        8
176
     1
 62
     7
176
     1
 40
1.0
176
     1
 90
        1
176
     1
 90
        6
176
     1
 90
        2
176
     1
 62
     7
176
     1
 90
        5
176
     1
 90
        0
176
     1
 90
        0
176
     1
290
     0
176
     1
 90
        1
176
     1
 40
0.0
176
     1
 90
        0
176
     1
290
     0
176
     1
290
     1
176
     1
290
     1
176
     1
290
     0
176
     1
290
     0
176
     1
290
     0
176
     1
290
     0
176
     1
290
     0
176
     1
290
     0
176
     1
 90
       50
176
     1
 40
0.0
176
     1
 40
1.0
176
     1
 90
        0
176
     1
 62
    18
420
        0
176
     1
 90
       50
176
     1
 90
        3
176
     1
 62
     5
420
      255
176
     1
290
     0
176
     1
 90
       50
176
     1
 90
       50
176
     1
 90
       50
176
     1
290
     0
176
     1
 90
       50
176
     1
 62
   256
176
     0
 40
1.0
176
     0
 90
        2
176
     1
  1
strokes_ogs.tif
176
     1
290
     0
176
     1
 40
1.0
176
     1
 40
1.0
176
     1
  0
VISUALSTYLE
  5
22B
102
{ACAD_REACTORS
330
22A
102
}
330
22A
100
AcDbVisualStyle
  2
Flat
 70
     0
177
     3
291
     1
 70
    58
 90
        2
176
     1
 90
        1
176
     1
 90
        1
176
     1
 90
        2
176
     1
 40
-0.6
176
     1
 40
30.0
176
     1
 62
     7
420
 16777215
176
     1
 90
        0
176
     1
 90
        4
176
     1
 62
     7
176
     1
 62
   257
176
     1
 90
        1
176
     1
 90
        1
176
     1
 40
1.0
176
     1
 90
        8
176
     1
 62
     7
176
     1
 40
1.0
176
     1
 90
        1
176
     1
 90
        6
176
     1
 90
        2
176
     1
 62
     7
176
     1
 90
        5
176
     1
 90
        0
176
     1
 90
        0
176
     1
290
     0
176
     1
 90
       13
176
     1
 40
0.0
176
     1
 90
        0
176
     1
290
     0
176
     1
290
     1
176
     1
290
     1
176
     1
290
     0
176
     1
290
     0
176
     1
290
     0
176
     1
290
     0
176
     1
290
     0
176
     1
290
     0
176
     1
 90
       50
176
     1
 40
0.0
176
     1
 40
1.0
176
     1
 90
        0
176
     1
 62
    18
420
        0
176
     1
 90
       50
176
     1
 90
        3
176
     1
 62
     5
420
      255
176
     1
290
     0
176
     1
 90
       50
176
     1
 90
       50
176
     1
 90
       50
176
     1
290
     0
176
     1
 90
       50
176
     1
 62
   256
176
     0
 40
1.0
176
     0
 90
        2
176
     1
  1
strokes_ogs.tif
176
     1
290
     0
176
     1
 40
1.0
176
     1
 40
1.0
176
     1
  0
VISUALSTYLE
  5
22C
102
{ACAD_REACTORS
330
22A
102
}
330
22A
100
AcDbVisualStyle
  2
FlatWithEdges
 70
     1
177
     3
291
     1
 70
    58
 90
        2
176
     1
 90
        1
176
     1
 90
        1
176
     1
 90
        2
176
     1
 40
-0.6
176
     1
 40
30.0
176
     1
 62
     7
420
 16777215
176
     1
 90
        1
176
     1
 90
        4
176
     1
 62
     7
176
     1
 62
   257
176
     1
 90
        1
176
     1
 90
        1
176
     1
 40
1.0
176
     1
 90
        0
176
     1
 62
   257
176
     1
 40
1.0
176
     1
 90
        1
176
     1
 90
        6
176
     1
 90
        2
176
     1
 62
     7
176
     1
 90
        5
176
     1
 90
        0
176
     1
 90
        0
176
     1
290
     0
176
     1
 90
       13
176
     1
 40
0.0
176
     1
 90
        0
176
     1
290
     0
176
     1
290
     1
176
     1
290
     1
176
     1
290
     0
176
     1
290
     0
176
     1
290
     0
176
     1
290
     0
176
     1
290
     0
176
     1
290
     0
176
     1
 90
       50
176
     1
 40
0.0
176
     1
 40
1.0
176
     1
 90
        0
176
     1
 62
    18
420
        0
176
     1
 90
       50
176
     1
 90
        3
176
     1
 62
     5
420
      255
176
     1
290
     0
176
     1
 90
       50
176
     1
 90
       50
176
     1
 90
       50
176
     1
290
     0
176
     1
 90
       50
176
     1
 62
   256
176
     0
 40
1.0
176
     0
 90
        2
176
     1
  1
strokes_ogs.tif
176
     1
290
     0
176
     1
 40
1.0
176
     1
 40
1.0
176
     1
  0
VISUALSTYLE
  5
22D
102
{ACAD_REACTORS
330
22A
102
}
330
22A
100
AcDbVisualStyle
  2
Gouraud
 70
     2
177
     3
291
     1
 70
    58
 90
        2
176
     1
 90
        2
176
     1
 90
        1
176
     1
 90
        2
176
     1
 40
-0.6
176
     1
 40
30.0
176
     1
 62
     7
420
 16777215
176
     1
 90
        0
176
     1
 90
        4
176
     1
 62
     7
176
     1
 62
   257
176
     1
 90
        1
176
     1
 90
        1
176
     1
 40
1.0
176
     1
 90
        0
176
     1
 62
     7
176
     1
 40
1.0
176
     1
 90
        1
176
     1
 90
        6
176
     1
 90
        2
176
     1
 62
     7
176
     1
 90
        5
176
     1
 90
        0
176
     1
 90
        0
176
     1
290
     0
176
     1
 90
       13
176
     1
 40
0.0
176
     1
 90
        0
176
     1
290
     0
176
     1
290
     1
176
     1
290
     1
176
     1
290
     0
176
     1
290
     0
176
     1
290
     0
176
     1
290
     0
176
     1
290
     0
176
     1
290
     0
176
     1
 90
       50
176
     1
 40
0.0
176
     1
 40
1.0
176
     1
 90
        0
176
     1
 62
    18
420
        0
176
     1
 90
       50
176
     1
 90
        3
176
     1
 62
     5
420
      255
176
     1
290
     0
176
     1
 90
       50
176
     1
 90
       50
176
     1
 90
       50
176
     1
290
     0
176
     1
 90
       50
176
     1
 62
   256
176
     0
 40
1.0
176
     0
 90
        2
176
     1
  1
strokes_ogs.tif
176
     1
290
     0
176
     1
 40
1.0
176
     1
 40
1.0
176
     1
  0
VISUALSTYLE
  5
22E
102
{ACAD_REACTORS
330
22A
102
}
330
22A
100
AcDbVisualStyle
  2
GouraudWithEdges
 70
     3
177
     3
291
     1
 70
    58
 90
        2
176
     1
 90
        2
176
     1
 90
        1
176
     1
 90
        2
176
     1
 40
-0.6
176
     1
 40
30.0
176
     1
 62
     7
420
 16777215
176
     1
 90
        1
176
     1
 90
        4
176
     1
 62
     7
176
     1
 62
   257
176
     1
 90
        1
176
     1
 90
        1
176
     1
 40
1.0
176
     1
 90
        0
176
     1
 62
   257
176
     1
 40
1.0
176
     1
 90
        1
176
     1
 90
        6
176
     1
 90
        2
176
     1
 62
     7
176
     1
 90
        5
176
     1
 90
        0
176
     1
 90
        0
176
     1
290
     0
176
     1
 90
       13
176
     1
 40
0.0
176
     1
 90
        0
176
     1
290
     0
176
     1
290
     1
176
     1
290
     1
176
     1
290
     0
176
     1
290
     0
176
     1
290
     0
176
     1
290
     0
176
     1
290
     0
176
     1
290
     0
176
     1
 90
       50
176
     1
 40
0.0
176
     1
 40
1.0
176
     1
 90
        0
176
     1
 62
    18
420
        0
176
     1
 90
       50
176
     1
 90
        3
176
     1
 62
     5
420
      255
176
     1
290
     0
176
     1
 90
       50
176
     1
 90
       50
176
     1
 90
       50
176
     1
290
     0
176
     1
 90
       50
176
     1
 62
   256
176
     0
 40
1.0
176
     0
 90
        2
176
     1
  1
strokes_ogs.tif
176
     1
290
     0
176
     1
 40
1.0
176
     1
 40
1.0
176
     1
  0
VISUALSTYLE
  5
274
102
{ACAD_REACTORS
330
22A
102
}
330
22A
100
AcDbVisualStyle
  2
Hidden
 70
     6
177
     3
291
     0
 70
    58
 90
        1
176
     1
 90
        2
176
     1
 90
        2
176
     1
 90
        0
176
     1
 40
0.6
176
     1
 40
30.0
176
     1
 62
     7
420
 16777215
176
     1
 90
        2
176
     1
 90
        2
176
     1
 62
     7
176
     1
 62
   257
176
     1
 90
        2
176
     1
 90
        1
176
     1
 40
40.0
176
     1
 90
        0
176
     1
 62
   257
176
     1
 40
1.0
176
     1
 90
        1
176
     1
 90
        6
176
     1
 90
        2
176
     1
 62
     7
176
     1
 90
        3
176
     1
 90
        0
176
     1
 90
        0
176
     1
290
     0
176
     1
 90
        1
176
     1
 40
0.0
176
     1
 90
        0
176
     1
290
     0
176
     1
290
     1
176
     1
290
     1
176
     1
290
     0
176
     1
290
     0
176
     1
290
     0
176
     1
290
     0
176
     1
290
     0
176
     1
290
     0
176
     1
 90
       50
176
     1
 40
0.0
176
     1
 40
1.0
176
     1
 90
        0
176
     1
 62
    18
420
        0
176
     1
 90
       50
176
     1
 90
        3
176
     1
 62
     5
420
      255
176
     1
290
     0
176
     1
 90
       50
176
     1
 90
       50
176
     1
 90
       50
176
     1
290
     0
176
     1
 90
       50
176
     1
 62
   256
176
     0
 40
1.0
176
     0
 90
        2
176
     1
  1
strokes_ogs.tif
176
     1
290
     0
176
     1
 40
1.0
176
     1
 40
1.0
176
     1
  0
VISUALSTYLE
  5
275
102
{ACAD_REACTORS
330
22A
102
}
330
22A
100
AcDbVisualStyle
  2
JitterOff
 70
    20
177
     3
291
     1
 70
    58
 90
        2
176
     0
 90
        2
176
     0
 90
        0
176
     0
 90
        0
176
     0
 40
0.6
176
     0
 40
30.0
176
     0
 62
     7
420
 16777215
176
     0
 90
        1
176
     0
 90
        4
176
     0
 62
     7
176
     0
 62
   257
176
     0
 90
        1
176
     0
 90
        1
176
     0
 40
1.0
176
     0
 90
       10
176
     2
 62
     7
176
     0
 40
1.0
176
     0
 90
        1
176
     0
 90
        6
176
     0
 90
        2
176
     0
 62
     7
176
     0
 90
        5
176
     0
 90
        0
176
     0
 90
        0
176
     0
290
     0
176
     0
 90
        1
176
     0
 40
0.0
176
     0
 90
        0
176
     0
290
     0
176
     0
290
     1
176
     0
290
     1
176
     0
290
     0
176
     0
290
     0
176
     0
290
     0
176
     0
290
     0
176
     0
290
     0
176
     0
290
     0
176
     0
 90
       50
176
     0
 40
0.0
176
     0
 40
1.0
176
     0
 90
        0
176
     0
 62
    18
420
        0
176
     0
 90
       50
176
     0
 90
        3
176
     0
 62
     5
420
      255
176
     0
290
     0
176
     0
 90
       50
176
     0
 90
       50
176
     0
 90
       50
176
     0
290
     0
176
     0
 90
       50
176
     0
 62
   256
176
     0
 40
1.0
176
     0
 90
        2
176
     0
  1
strokes_ogs.tif
176
     0
290
     0
176
     0
 40
1.0
176
     0
 40
1.0
176
     0
  0
VISUALSTYLE
  5
238
102
{ACAD_REACTORS
330
22A
102
}
330
22A
100
AcDbVisualStyle
  2
Linepattern
 70
    14
177
     3
291
     1
 70
    58
 90
        2
176
     1
 90
        2
176
     1
 90
        0
176
     1
 90
        0
176
     1
 40
-0.6
176
     1
 40
-30.0
176
     1
 62
     7
420
 16777215
176
     1
 90
        1
176
     1
 90
        4
176
     1
 62
     7
176
     1
 62
   257
176
     1
 90
        7
176
     1
 90
        7
176
     1
 40
1.0
176
     1
 90
        8
176
     1
 62
     7
176
     1
 40
1.0
176
     1
 90
        1
176
     1
 90
        6
176
     1
 90
        2
176
     1
 62
     7
176
     1
 90
        5
176
     1
 90
        0
176
     1
 90
        0
176
     1
290
     0
176
     1
 90
        1
176
     1
 40
0.0
176
     1
 90
        0
176
     1
290
     0
176
     1
290
     1
176
     1
290
     1
176
     1
290
     0
176
     1
290
     0
176
     1
290
     0
176
     1
290
     0
176
     1
290
     0
176
     1
290
     0
176
     1
 90
       50
176
     1
 40
0.0
176
     1
 40
1.0
176
     1
 90
        0
176
     1
 62
    18
420
        0
176
     1
 90
       50
176
     1
 90
        3
176
     1
 62
     5
420
      255
176
     1
290
     0
176
     1
 90
       50
176
     1
 90
       50
176
     1
 90
       50
176
     1
290
     0
176
     1
 90
       50
176
     1
 62
   256
176
     0
 40
1.0
176
     0
 90
        2
176
     1
  1
strokes_ogs.tif
176
     1
290
     0
176
     1
 40
1.0
176
     1
 40
1.0
176
     1
  0
VISUALSTYLE
  5
276
102
{ACAD_REACTORS
330
22A
102
}
330
22A
100
AcDbVisualStyle
  2
OverhangOff
 70
    21
177
     3
291
     1
 70
    58
 90
        2
176
     0
 90
        2
176
     0
 90
        0
176
     0
 90
        0
176
     0
 40
0.6
176
     0
 40
30.0
176
     0
 62
     7
420
 16777215
176
     0
 90
        1
176
     0
 90
        4
176
     0
 62
     7
176
     0
 62
   257
176
     0
 90
        1
176
     0
 90
        1
176
     0
 40
1.0
176
     0
 90
        9
176
     2
 62
     7
176
     0
 40
1.0
176
     0
 90
        1
176
     0
 90
        6
176
     0
 90
        2
176
     0
 62
     7
176
     0
 90
        5
176
     0
 90
        0
176
     0
 90
        0
176
     0
290
     0
176
     0
 90
        1
176
     0
 40
0.0
176
     0
 90
        0
176
     0
290
     0
176
     0
290
     1
176
     0
290
     1
176
     0
290
     0
176
     0
290
     0
176
     0
290
     0
176
     0
290
     0
176
     0
290
     0
176
     0
290
     0
176
     0
 90
       50
176
     0
 40
0.0
176
     0
 40
1.0
176
     0
 90
        0
176
     0
 62
    18
420
        0
176
     0
 90
       50
176
     0
 90
        3
176
     0
 62
     5
420
      255
176
     0
290
     0
176
     0
 90
       50
176
     0
 90
       50
176
     0
 90
       50
176
     0
290
     0
176
     0
 90
       50
176
     0
 62
   256
176
     0
 40
1.0
176
     0
 90
        2
176
     0
  1
strokes_ogs.tif
176
     0
290
     0
176
     0
 40
1.0
176
     0
 40
1.0
176
     0
  0
VISUALSTYLE
  5
233
102
{ACAD_REACTORS
330
22A
102
}
330
22A
100
AcDbVisualStyle
  2
Realistic
 70
     8
177
     3
291
     0
 70
    58
 90
        2
176
     1
 90
        2
176
     1
 90
        0
176
     1
 90
        0
176
     1
 40
-0.6
176
     1
 40
-30.0
176
     1
 62
     7
420
 16777215
176
     1
 90
        1
176
     1
 90
        0
176
     1
 62
     7
176
     1
 62
   257
176
     1
 90
        1
176
     1
 90
        1
176
     1
 40
1.0
176
     1
 90
        8
176
     1
 62
     8
420
  7895160
176
     1
 40
1.0
176
     1
 90
        1
176
     1
 90
        6
176
     1
 90
        2
176
     1
 62
     7
176
     1
 90
        5
176
     1
 90
        0
176
     1
 90
        0
176
     1
290
     0
176
     1
 90
       13
176
     1
 40
0.0
176
     1
 90
        0
176
     1
290
     0
176
     1
290
     1
176
     1
290
     1
176
     1
290
     0
176
     1
290
     0
176
     1
290
     0
176
     1
290
     0
176
     1
290
     0
176
     1
290
     0
176
     1
 90
       50
176
     1
 40
0.0
176
     1
 40
1.0
176
     1
 90
        0
176
     1
 62
    18
420
        0
176
     1
 90
       50
176
     1
 90
        3
176
     1
 62
     5
420
      255
176
     1
290
     0
176
     1
 90
       50
176
     1
 90
       50
176
     1
 90
       50
176
     1
290
     0
176
     1
 90
       50
176
     1
 62
   256
176
     0
 40
1.0
176
     0
 90
        2
176
     1
  1
strokes_ogs.tif
176
     1
290
     0
176
     1
 40
1.0
176
     1
 40
1.0
176
     1
  0
VISUALSTYLE
  5
27C
102
{ACAD_REACTORS
330
22A
102
}
330
22A
100
AcDbVisualStyle
  2
Shaded
 70
    27
177
     3
291
     0
 70
    58
 90
        2
176
     1
 90
        2
176
     1
 90
        1
176
     1
 90
        2
176
     1
 40
0.6
176
     1
 40
30.0
176
     1
 62
     7
420
 16777215
176
     1
 90
        0
176
     1
 90
        4
176
     1
 62
     7
176
     1
 62
   257
176
     1
 90
        1
176
     1
 90
        1
176
     1
 40
1.0
176
     1
 90
        8
176
     1
 62
   257
176
     1
 40
1.0
176
     1
 90
        1
176
     1
 90
        6
176
     1
 90
        2
176
     1
 62
     8
420
  7895160
176
     1
 90
        3
176
     1
 90
        0
176
     1
 90
        0
176
     1
290
     0
176
     1
 90
        5
176
     1
 40
0.0
176
     1
 90
        0
176
     1
290
     0
176
     1
290
     1
176
     1
290
     1
176
     1
290
     0
176
     1
290
     0
176
     1
290
     0
176
     1
290
     0
176
     1
290
     0
176
     1
290
     0
176
     1
 90
       50
176
     1
 40
0.0
176
     1
 40
1.0
176
     1
 90
        0
176
     1
 62
    18
420
        0
176
     1
 90
       50
176
     1
 90
        3
176
     1
 62
     5
420
      255
176
     1
290
     0
176
     1
 90
       50
176
     1
 90
       50
176
     1
 90
       50
176
     1
290
     0
176
     1
 90
       50
176
     1
 62
   256
176
     0
 40
1.0
176
     0
 90
        2
176
     1
  1
strokes_ogs.tif
176
     1
290
     0
176
     1
 40
1.0
176
     1
 40
1.0
176
     1
  0
VISUALSTYLE
  5
27B
102
{ACAD_REACTORS
330
22A
102
}
330
22A
100
AcDbVisualStyle
  2
Shaded with edges
 70
    26
177
     3
291
     0
 70
    58
 90
        2
176
     1
 90
        2
176
     1
 90
        1
176
     1
 90
        2
176
     1
 40
0.6
176
     1
 40
30.0
176
     1
 62
     7
420
 16777215
176
     1
 90
        1
176
     1
 90
       10
176
     1
 62
     7
176
     1
 62
   257
176
     1
 90
        2
176
     1
 90
        1
176
     1
 40
1.0
176
     1
 90
        8
176
     1
 62
   257
176
     1
 40
1.0
176
     1
 90
        1
176
     1
 90
        6
176
     1
 90
        2
176
     1
 62
     7
176
     1
 90
        3
176
     1
 90
        0
176
     1
 90
        0
176
     1
290
     0
176
     1
 90
        5
176
     1
 40
0.0
176
     1
 90
        0
176
     1
290
     0
176
     1
290
     1
176
     1
290
     1
176
     1
290
     0
176
     1
290
     0
176
     1
290
     0
176
     1
290
     0
176
     1
290
     0
176
     1
290
     0
176
     1
 90
       50
176
     1
 40
0.0
176
     1
 40
1.0
176
     1
 90
        0
176
     1
 62
    18
420
        0
176
     1
 90
       50
176
     1
 90
        3
176
     1
 62
     5
420
      255
176
     1
290
     0
176
     1
 90
       50
176
     1
 90
       50
176
     1
 90
       50
176
     1
290
     0
176
     1
 90
       50
176
     1
 62
   256
176
     0
 40
1.0
176
     0
 90
        2
176
     1
  1
strokes_ogs.tif
176
     1
290
     0
176
     1
 40
1.0
176
     1
 40
1.0
176
     1
  0
VISUALSTYLE
  5
278
102
{ACAD_REACTORS
330
22A
102
}
330
22A
100
AcDbVisualStyle
  2
Shades of Gray
 70
    23
177
     3
291
     0
 70
    58
 90
        2
176
     1
 90
        2
176
     1
 90
        3
176
     1
 90
        0
176
     1
 40
0.6
176
     1
 40
30.0
176
     1
 62
     7
420
 16777215
176
     1
 90
        2
176
     1
 90
        2
176
     1
 62
     7
176
     1
 62
     7
176
     1
 90
        1
176
     1
 90
        1
176
     1
 40
40.0
176
     1
 90
        8
176
     1
 62
     7
176
     1
 40
1.0
176
     1
 90
        1
176
     1
 90
        6
176
     1
 90
        2
176
     1
 62
     7
176
     1
 90
        3
176
     1
 90
        0
176
     1
 90
        0
176
     1
290
     0
176
     1
 90
        1
176
     1
 40
0.0
176
     1
 90
        0
176
     1
290
     0
176
     1
290
     1
176
     1
290
     1
176
     1
290
     0
176
     1
290
     0
176
     1
290
     0
176
     1
290
     0
176
     1
290
     0
176
     1
290
     0
176
     1
 90
       50
176
     1
 40
0.0
176
     1
 40
1.0
176
     1
 90
        0
176
     1
 62
    18
420
        0
176
     1
 90
       50
176
     1
 90
        3
176
     1
 62
     5
420
      255
176
     1
290
     0
176
     1
 90
       50
176
     1
 90
       50
176
     1
 90
       50
176
     1
290
     0
176
     1
 90
       50
176
     1
 62
   256
176
     0
 40
1.0
176
     0
 90
        2
176
     1
  1
strokes_ogs.tif
176
     1
290
     0
176
     1
 40
1.0
176
     1
 40
1.0
176
     1
  0
VISUALSTYLE
  5
279
102
{ACAD_REACTORS
330
22A
102
}
330
22A
100
AcDbVisualStyle
  2
Sketchy
 70
    24
177
     3
291
     0
 70
    58
 90
        1
176
     1
 90
        2
176
     1
 90
        2
176
     1
 90
        0
176
     1
 40
0.6
176
     1
 40
30.0
176
     1
 62
     7
420
 16777215
176
     1
 90
        2
176
     1
 90
        2
176
     1
 62
     7
176
     1
 62
     7
176
     1
 90
        1
176
     1
 90
        1
176
     1
 40
40.0
176
     1
 90
       11
176
     1
 62
     7
176
     1
 40
1.0
176
     1
 90
        1
176
     1
 90
        6
176
     1
 90
        2
176
     1
 62
     7
176
     1
 90
        6
176
     1
 90
        0
176
     1
 90
        0
176
     1
290
     0
176
     1
 90
        1
176
     1
 40
0.0
176
     1
 90
        0
176
     1
290
     0
176
     1
290
     1
176
     1
290
     1
176
     1
290
     0
176
     1
290
     0
176
     1
290
     0
176
     1
290
     0
176
     1
290
     0
176
     1
290
     0
176
     1
 90
       50
176
     1
 40
0.0
176
     1
 40
1.0
176
     1
 90
        0
176
     1
 62
    18
420
        0
176
     1
 90
       50
176
     1
 90
        3
176
     1
 62
     5
420
      255
176
     1
290
     0
176
     1
 90
       50
176
     1
 90
       50
176
     1
 90
       50
176
     1
290
     0
176
     1
 90
       50
176
     1
 62
   256
176
     0
 40
1.0
176
     0
 90
        2
176
     1
  1
strokes_ogs.tif
176
     1
290
     0
176
     1
 40
1.0
176
     1
 40
1.0
176
     1
  0
VISUALSTYLE
  5
237
102
{ACAD_REACTORS
330
22A
102
}
330
22A
100
AcDbVisualStyle
  2
Thicken
 70
    13
177
     3
291
     1
 70
    58
 90
        2
176
     1
 90
        2
176
     1
 90
        0
176
     1
 90
        0
176
     1
 40
-0.6
176
     1
 40
-30.0
176
     1
 62
     7
420
 16777215
176
     1
 90
        1
176
     1
 90
        4
176
     1
 62
     7
176
     1
 62
   257
176
     1
 90
        1
176
     1
 90
        1
176
     1
 40
1.0
176
     1
 90
       12
176
     1
 62
     7
176
     1
 40
1.0
176
     1
 90
        1
176
     1
 90
        6
176
     1
 90
        2
176
     1
 62
     7
176
     1
 90
        5
176
     1
 90
        0
176
     1
 90
        0
176
     1
290
     0
176
     1
 90
        1
176
     1
 40
0.0
176
     1
 90
        0
176
     1
290
     0
176
     1
290
     1
176
     1
290
     1
176
     1
290
     0
176
     1
290
     0
176
     1
290
     0
176
     1
290
     0
176
     1
290
     0
176
     1
290
     0
176
     1
 90
       50
176
     1
 40
0.0
176
     1
 40
1.0
176
     1
 90
        0
176
     1
 62
    18
420
        0
176
     1
 90
       50
176
     1
 90
        3
176
     1
 62
     5
420
      255
176
     1
290
     0
176
     1
 90
       50
176
     1
 90
       50
176
     1
 90
       50
176
     1
290
     0
176
     1
 90
       50
176
     1
 62
   256
176
     0
 40
1.0
176
     0
 90
        2
176
     1
  1
strokes_ogs.tif
176
     1
290
     0
176
     1
 40
1.0
176
     1
 40
1.0
176
     1
  0
VISUALSTYLE
  5
273
102
{ACAD_REACTORS
330
22A
102
}
330
22A
100
AcDbVisualStyle
  2
Wireframe
 70
     5
177
     3
291
     0
 70
    58
 90
        0
176
     1
 90
        2
176
     1
 90
        0
176
     1
 90
        0
176
     1
 40
0.6
176
     1
 40
30.0
176
     1
 62
     7
420
 16777215
176
     1
 90
        1
176
     1
 90
        4
176
     1
 62
     7
176
     1
 62
   257
176
     1
 90
        1
176
     1
 90
        1
176
     1
 40
1.0
176
     1
 90
        0
176
     1
 62
   257
176
     1
 40
1.0
176
     1
 90
        1
176
     1
 90
        6
176
     1
 90
        2
176
     1
 62
     7
176
     1
 90
        3
176
     1
 90
        0
176
     1
 90
        0
176
     1
290
     0
176
     1
 90
        1
176
     1
 40
0.0
176
     1
 90
        0
176
     1
290
     0
176
     1
290
     1
176
     1
290
     1
176
     1
290
     0
176
     1
290
     0
176
     1
290
     0
176
     1
290
     0
176
     1
290
     0
176
     1
290
     0
176
     1
 90
       50
176
     1
 40
0.0
176
     1
 40
1.0
176
     1
 90
        0
176
     1
 62
    18
420
        0
176
     1
 90
       50
176
     1
 90
        3
176
     1
 62
     5
420
      255
176
     1
290
     0
176
     1
 90
       50
176
     1
 90
       50
176
     1
 90
       50
176
     1
290
     0
176
     1
 90
       50
176
     1
 62
   256
176
     0
 40
1.0
176
     0
 90
        2
176
     1
  1
strokes_ogs.tif
176
     1
290
     0
176
     1
 40
1.0
176
     1
 40
1.0
176
     1
  0
VISUALSTYLE
  5
27A
102
{ACAD_REACTORS
330
22A
102
}
330
22A
100
AcDbVisualStyle
  2
X-Ray
 70
    25
177
     3
291
     0
 70
    58
 90
        2
176
     1
 90
        2
176
     1
 90
        1
176
     1
 90
        1
176
     1
 40
0.5
176
     1
 40
30.0
176
     1
 62
     7
420
 16777215
176
     1
 90
        1
176
     1
 90
        0
176
     1
 62
     7
176
     1
 62
   257
176
     1
 90
        1
176
     1
 90
        1
176
     1
 40
1.0
176
     1
 90
        8
176
     1
 62
     7
176
     1
 40
1.0
176
     1
 90
        1
176
     1
 90
        6
176
     1
 90
        2
176
     1
 62
     7
176
     1
 90
        3
176
     1
 90
        0
176
     1
 90
        0
176
     1
290
     0
176
     1
 90
       13
176
     1
 40
0.0
176
     1
 90
        0
176
     1
290
     0
176
     1
290
     1
176
     1
290
     1
176
     1
290
     0
176
     1
290
     0
176
     1
290
     0
176
     1
290
     0
176
     1
290
     0
176
     1
290
     0
176
     1
 90
       50
176
     1
 40
0.0
176
     1
 40
1.0
176
     1
 90
        0
176
     1
 62
    18
420
        0
176
     1
 90
       50
176
     1
 90
        3
176
     1
 62
     5
420
      255
176
     1
290
     0
176
     1
 90
       50
176
     1
 90
       50
176
     1
 90
       50
176
     1
290
     0
176
     1
 90
       50
176
     1
 62
   256
176
     0
 40
1.0
176
     0
 90
        2
176
     1
  1
strokes_ogs.tif
176
     1
290
     0
176
     1
 40
1.0
176
     1
 40
1.0
176
     1
  0
DICTIONARYVAR
  5
26A
102
{ACAD_REACTORS
330
269
102
}
330
269
100
DictionaryVariables
280
     0
  1
1:1
  0
DICTIONARYVAR
  5
2FB
102
{ACAD_REACTORS
330
269
102
}
330
269
100
DictionaryVariables
280
     0
  1
Standard
  0
DICTIONARYVAR
  5
26E
102
{ACAD_REACTORS
330
269
102
}
330
269
100
DictionaryVariables
280
     0
  1
Standard
  0
DICTIONARYVAR
  5
3AF
102
{ACAD_REACTORS
330
269
102
}
330
269
100
DictionaryVariables
280
     0
  1
ByLayer
  0
DICTIONARYVAR
  5
3B3
102
{ACAD_REACTORS
330
3B0
102
}
330
3B0
100
DictionaryVariables
280
     0
  1
0.261799
  0
DICTIONARYVAR
  5
3B1
102
{ACAD_REACTORS
330
3B0
102
}
330
3B0
100
DictionaryVariables
280
     0
  1
0.400000
  0
DICTIONARYVAR
  5
3B2
102
{ACAD_REACTORS
330
3B0
102
}
330
3B0
100
DictionaryVariables
280
     0
  1
0.250000
  0
DICTIONARYVAR
  5
3B4
102
{ACAD_REACTORS
330
3B0
102
}
330
3B0
100
DictionaryVariables
280
     0
  1
1
  0
DICTIONARY
  5
7F4
330
23C
100
AcDbDictionary
280
     1
281
     1
  3
ACAD_ROUNDTRIP_2008_TABLESTYLE_CELLSTYLEMAP
360
7F5
  0
CELLSTYLEMAP
  5
7F5
102
{ACAD_REACTORS
330
7F4
102
}
330
7F4
100
AcDbCellStyleMap
 90
        3
300
CELLSTYLE
  1
TABLEFORMAT_BEGIN
 90
        5
170
     1
 91
        0
 92
        0
 62
   257
 93
        1
300
CONTENTFORMAT
  1
CONTENTFORMAT_BEGIN
 90
        0
 91
        0
 92
        4
 93
        0
300

 40
0.0
140
1.0
 94
        5
 62
     0
340
11
144
6.0
309
CONTENTFORMAT_END
171
     1
301
MARGIN
  1
CELLMARGIN_BEGIN
 40
1.5
 40
1.5
 40
1.5
 40
1.5
 40
1.5
 40
1.5
309
CELLMARGIN_END
 94
        6
 95
        1
302
GRIDFORMAT
  1
GRIDFORMAT_BEGIN
 90
        0
 91
        1
 62
     0
 92
       -2
340
14
 93
        0
 40
0.045
309
GRIDFORMAT_END
 95
        2
302
GRIDFORMAT
  1
GRIDFORMAT_BEGIN
 90
        0
 91
        1
 62
     0
 92
       -2
340
14
 93
        0
 40
0.045
309
GRIDFORMAT_END
 95
        4
302
GRIDFORMAT
  1
GRIDFORMAT_BEGIN
 90
        0
 91
        1
 62
     0
 92
       -2
340
14
 93
        0
 40
0.045
309
GRIDFORMAT_END
 95
        8
302
GRIDFORMAT
  1
GRIDFORMAT_BEGIN
 90
        0
 91
        1
 62
     0
 92
       -2
340
14
 93
        0
 40
0.045
309
GRIDFORMAT_END
 95
       16
302
GRIDFORMAT
  1
GRIDFORMAT_BEGIN
 90
        0
 91
        1
 62
     0
 92
       -2
340
14
 93
        0
 40
0.045
309
GRIDFORMAT_END
 95
       32
302
GRIDFORMAT
  1
GRIDFORMAT_BEGIN
 90
        0
 91
        1
 62
     0
 92
       -2
340
14
 93
        0
 40
0.045
309
GRIDFORMAT_END
309
TABLEFORMAT_END
  1
CELLSTYLE_BEGIN
 90
        1
 91
        1
300
_TITLE
309
CELLSTYLE_END
300
CELLSTYLE
  1
TABLEFORMAT_BEGIN
 90
        5
170
     1
 91
        0
 92
        0
 62
   257
 93
        1
300
CONTENTFORMAT
  1
CONTENTFORMAT_BEGIN
 90
        0
 91
        0
 92
        4
 93
        0
300

 40
0.0
140
1.0
 94
        5
 62
     0
340
11
144
4.5
309
CONTENTFORMAT_END
171
     1
301
MARGIN
  1
CELLMARGIN_BEGIN
 40
1.5
 40
1.5
 40
1.5
 40
1.5
 40
1.5
 40
1.5
309
CELLMARGIN_END
 94
        6
 95
        1
302
GRIDFORMAT
  1
GRIDFORMAT_BEGIN
 90
        0
 91
        1
 62
     0
 92
       -2
340
14
 93
        0
 40
0.045
309
GRIDFORMAT_END
 95
        2
302
GRIDFORMAT
  1
GRIDFORMAT_BEGIN
 90
        0
 91
        1
 62
     0
 92
       -2
340
14
 93
        0
 40
0.045
309
GRIDFORMAT_END
 95
        4
302
GRIDFORMAT
  1
GRIDFORMAT_BEGIN
 90
        0
 91
        1
 62
     0
 92
       -2
340
14
 93
        0
 40
0.045
309
GRIDFORMAT_END
 95
        8
302
GRIDFORMAT
  1
GRIDFORMAT_BEGIN
 90
        0
 91
        1
 62
     0
 92
       -2
340
14
 93
        0
 40
0.045
309
GRIDFORMAT_END
 95
       16
302
GRIDFORMAT
  1
GRIDFORMAT_BEGIN
 90
        0
 91
        1
 62
     0
 92
       -2
340
14
 93
        0
 40
0.045
309
GRIDFORMAT_END
 95
       32
302
GRIDFORMAT
  1
GRIDFORMAT_BEGIN
 90
        0
 91
        1
 62
     0
 92
       -2
340
14
 93
        0
 40
0.045
309
GRIDFORMAT_END
309
TABLEFORMAT_END
  1
CELLSTYLE_BEGIN
 90
        2
 91
        1
300
_HEADER
309
CELLSTYLE_END
300
CELLSTYLE
  1
TABLEFORMAT_BEGIN
 90
        5
170
     1
 91
        0
 92
        0
 62
   257
 93
        1
300
CONTENTFORMAT
  1
CONTENTFORMAT_BEGIN
 90
        0
 91
        0
 92
        4
 93
        0
300

 40
0.0
140
1.0
 94
        2
 62
     0
340
11
144
4.5
309
CONTENTFORMAT_END
171
     1
301
MARGIN
  1
CELLMARGIN_BEGIN
 40
1.5
 40
1.5
 40
1.5
 40
1.5
 40
1.5
 40
1.5
309
CELLMARGIN_END
 94
        6
 95
        1
302
GRIDFORMAT
  1
GRIDFORMAT_BEGIN
 90
        0
 91
        1
 62
     0
 92
       -2
340
14
 93
        0
 40
0.045
309
GRIDFORMAT_END
 95
        2
302
GRIDFORMAT
  1
GRIDFORMAT_BEGIN
 90
        0
 91
        1
 62
     0
 92
       -2
340
14
 93
        0
 40
0.045
309
GRIDFORMAT_END
 95
        4
302
GRIDFORMAT
  1
GRIDFORMAT_BEGIN
 90
        0
 91
        1
 62
     0
 92
       -2
340
14
 93
        0
 40
0.045
309
GRIDFORMAT_END
 95
        8
302
GRIDFORMAT
  1
GRIDFORMAT_BEGIN
 90
        0
 91
        1
 62
     0
 92
       -2
340
14
 93
        0
 40
0.045
309
GRIDFORMAT_END
 95
       16
302
GRIDFORMAT
  1
GRIDFORMAT_BEGIN
 90
        0
 91
        1
 62
     0
 92
       -2
340
14
 93
        0
 40
0.045
309
GRIDFORMAT_END
 95
       32
302
GRIDFORMAT
  1
GRIDFORMAT_BEGIN
 90
        0
 91
        1
 62
     0
 92
       -2
340
14
 93
        0
 40
0.045
309
GRIDFORMAT_END
309
TABLEFORMAT_END
  1
CELLSTYLE_BEGIN
 90
        3
 91
        2
300
_DATA
309
CELLSTYLE_END
  0
ENDSEC
  0
SECTION
  2
ACDSDATA
 70
     2
 71
     2
  0
ACDSSCHEMA
 90
        0
  1
AcDb_Thumbnail_Schema
  2
AcDbDs::ID
280
    10
 91
        8
  2
Thumbnail_Data
280
    15
 91
        0
101
ACDSRECORD
 95
        0
 90
        2
  2
AcDbDs::TreatedAsObjectData
280
     1
291
     1
101
ACDSRECORD
 95
        0
 90
        3
  2
AcDbDs::Legacy
280
     1
291
     1
101
ACDSRECORD
  1
AcDbDs::ID
 90
        4
  2
AcDs:Indexable
280
     1
291
     1
101
ACDSRECORD
  1
AcDbDs::ID
 90
        5
  2
AcDbDs::HandleAttribute
280
     7
282
     1
  0
ACDSSCHEMA
 90
        1
  1
AcDb3DSolid_ASM_Data
  2
AcDbDs::ID
280
    10
 91
        8
  2
ASM_Data
280
    15
 91
        0
101
ACDSRECORD
 95
        1
 90
        2
  2
AcDbDs::TreatedAsObjectData
280
     1
291
     1
101
ACDSRECORD
 95
        1
 90
        3
  2
AcDbDs::Legacy
280
     1
291
     1
101
ACDSRECORD
  1
AcDbDs::ID
 90
        4
  2
AcDs:Indexable
280
     1
291
     1
101
ACDSRECORD
  1
AcDbDs::ID
 90
        5
  2
AcDbDs::HandleAttribute
280
     7
282
     1
  0
ACDSSCHEMA
 90
        2
  1
AcDbDs::TreatedAsObjectDataSchema
  2
AcDbDs::TreatedAsObjectData
280
     1
 91
        0
  0
ACDSSCHEMA
 90
        3
  1
AcDbDs::LegacySchema
  2
AcDbDs::Legacy
280
     1
 91
        0
  0
ACDSSCHEMA
 90
        4
  1
AcDbDs::IndexedPropertySchema
  2
AcDs:Indexable
280
     1
 91
        0
  0
ACDSSCHEMA
 90
        5
  1
AcDbDs::HandleAttributeSchema
  2
AcDbDs::HandleAttribute
280
     7
 91
        1
284
     1
  0
ACDSRECORD
 90
        0
  2
AcDbDs::ID
280
    10
320
1E
  2
Thumbnail_Data
280
    15
 94
     3530
310
89504E470D0A1A0A0000000D4948445200000100000000760802000000A81CDA59000000097048597300000EC400000EC401952B0E1B00000D7C49444154789CED9DCB6F1AD717C70FC3806D1E2618BFC2C3601B07E3BEEC284AD3A855D5AEB269FA1FF41FC8AA7F40D7FD3712B55256ADBA68177DAD2255699436D14F8A18
310
3FC031B16130E68D310C30FC16B7193B04270603F760CE475664DFB9639F80BF9E7BCFEBEAEEDEBD0B0431AC08BC0D20089E88BC0D7805BD5E3F3737C7DB0AA287C8B25C2A95743A1D6F43FE039700FC7EFF8D1B37785B41F41049921E3E7CC8DB8A636809440C35240062A8210110430D0980186A4800C45083CB0BA4110A
310
85D8270E87637A7A1A008AC5E28B172FD8A0CFE71B1B1B0380783C9ECD6601C0643279BD5E00A8D7EB1B1B1B6CDACCCCCCC4C4040064B3D9783CCE061717178D46230084C361455100607C7CDCE5720140A5528944226C9AD3E9B4D96C00904AA5F6F7F7D960201010040100363636EAF53A00D8EDF6D9D9590028954A3B3B
310
3B6CDADCDC9CD96C06804422914EA701607474747E7E1E001A8D8624496CDAD4D4D4E4E42400E4F3F9BDBD3D36383F3F3F3A3A0A00B1582C97CB0180C562F1783C0050AD56B7B6B6D8B4D9D959BBDD0E00994C46966536B8B4B4248A22006C6D6D55AB5500B0D96C4EA71300CAE5F2F6F6369BE676BBAD562B002493C98383
310
0336B8BCBCCC5C939224351A8DD35E79AFD76B3299004096E54C2673DA2B3F3D3DED7038002097CBC5623136B8B0B0303232728637BFAFE850458203810073838642A16030C8DB1CA26B288A128D46FD7E3F7383E28903D01288186A4800C4508354008B8B8BBC4D20BA89C160C099E48254006C9F4A5C18743A1DCEF714A9
310
0008A23F201540381CE66D02D14DAAD56A341AE56D450B900A8079E8890B43A3D1C0F99E22150041F407A491E0A9A9A9B34FD602AE443FD1A2E06741AFD7B3D83036900A80E5089C91743ADDD3B0B196F8D00BBA68F9A3478FAC566BB95C5E5B5B63238F1F3F369BCD878787D7AE5DEBD64FD10885426D0980E56E6003A900
310
5051AFD77B24302DE5A92B58ADD6603078F27B9ACDE6A611A209A47B806432C9DB8441A552A9F036A105F57A1DE73215A900B42C45A25D10665C026201D012E8ED28890434FD56399D108F83D3092FD3988F71BB816BC8B3582C6A49DDA55289A32503015201A0FA33F6241CFEE0A38F5E193218C0E90483015CAEE6D9D128
310
180CE0F5F6CDBC937CF3CD37D7AF5F2F168BB158ECD2A54BB55AEDE9D3A7EFBEFB2E17634EA2D3E950BDA71A4897400B0B0BBC4D3826C69E00273F04E1F8DFA60FBF1F54158E8EB4DB1B8D463299FCFBEFBFFFFAEBAF5E2FEDD6D6D6BEF8E20BABD5FAEFBFFFAAAAFAE5975FDEBA75ABA73FF18C180C0656D6830DA44F80C1
310
C6E984DD5D585C040055559F3D7B663018D6D6D66AB5DACECE8E2CCB2B2B2BACB2AC47582C96CF3FFFDCE7F3F5EE475C18900AA05C2EB3CA400CDCBE7DBBBD1B4646E065D85F9224A7D3C9624046A331180C2693C9F5F5F59E062E969797BD5E2F9E17105EA642205C05215D026905AC18D0EBF51DDF9B4AA59A22A0535353
310
7DF0718D8D8DE1293B04806AB5AA1516A302A900061EBB1D00144531180CAF5F1445B156ABF5DD26A205489740A8E824B4A4AA0050ABD5589B86260441A8D7EB2D2F7505AD2B0415D6BD15A40240E2052A140ABBBBBB9DE4F1720D0554ABD5603058ABD5B6B7B7591713EE5049647B60D82D150A855C2E170C0659179DF6A0
310
08D4AB5049E48051A95492C9A4DBEDEEF0FEC3C3AE9A43F40AA402E05E12198944902CC32E06684B2291EE01F896CF1D1D1D31277ABD5EDFDCDCA4CCBCF383B62412A900F8F2ECD9B3AB57AF02C0E6E666201060BD320788C78F1F4B92A4AA6A2FEA602E184805D0564964D70904027B7B7B1E8FA7D16874184E7A3D49AE8F
310
5CBB764DF302F5CED9DA167ABD9E352AC606D23D405B25915DC76AB5EAF57AD677BA435E36942618248001C3E9746A1DD53BBBBF7BB6103D04A9003094442E2D2D755E0BCFD5E321084232994CA552EC88030CA0AD08432A000C8E1751143B2F25E1BA6F0E0402535353333333EC840B0C9000080223480580211582E82294
310
0AD11E1485BD60A04D8643E1241E508AC5623A9D76381CEC48BC57E86F39622E97CBE572A76DD9591AC2C8C8C8CCCC4C3FAD1A08900AA052A9205F053D7DFAF4FBEFBFCF66B382207CF5D5571F7FFCF12B979F3F873E1EF2178D461716168AC562CBABAC2FE7E6E6264701341A8D6AB58A7015845400914804F329918542E1
310
DEBD7B77EEDC29954A2E97EBDB6FBFF5783CDE93AD50AE5CE9A73DA2289ACDE6D382D6822098CD66BE7F50D853C8EFF773B4A12548F700C80987C3168BC5EFF7FFFCF3CF0E87E3F2E5CBCDFD375F9E984B208704D0091E8F4796E5743A6DB1582A95CAFEFE3ECE1D1EF156900A00B917C8E170DCBE7DFBFEFDFB9148E4FEFD
310
FB2B2B2B2B2B2B1CEDC9E7F3A150E8B4427B455142A1D0B9323BCE0D7981DA03F90E1800BC5E6F3018BC73E70E00FCF8E38F7C8D191F1F7F431B74D68FA8CF26354171800166E08AE24BA5D26FBFFD96CBE538DA3028201580D6DF18039DD467724DE7FEF3CF3F1389C4A3478FF2F93C47334E82B62412A900709EF2701293
310
C9C49A8F67B3D94B972E355F3E4F2D41FBD46AB56432C9DCA0AAAADA6C36B3D9EC72B9B49CC264327974A25F6FFF415B12895400A8B0582CAF0F2E2C2CFCFEFBEF3FFDF4D377DF7DF7E1871F365F9E980000411054557DFDDECE0BCD4EA156AB1D1C1CB06658822088A2188FC759740C001445393838A0B3025A827413CCB7
310
22AC89967DBD0541F8FAEBAF33998CDD6E6FD1EA79771782C1D1D1D1968FB2AEC744D9A978DA26F8E6CD9B376FDED4AE62D8045345587BF0AD093E238220381C8E37373A379BCD4D190A8542A1E523E562430218607EF9E5978EEF7DFFFDF725494AA552ECCB542AB5BEBEFEDE7BEF75C9B4D6ECEEEEFEFAEBAFEBEBEB3DFD
310
291703A402C0E3BE800EDCA09188D6154214C5D5D55559961F3C78F0E0C1834422B1BABADAEB4E0DB22CFFF1C71F1B98D23154553D2D578F2F48F7007B7B7BE3E3E3BCADF88FF69EDDC522A82A9C305E14C577DE79A7FB66B5E2F0F0309D4E1B0C86AB57AF3A9DCE743A7DAEDE16DDA356ABC9B28C30190EA9005071C3EF87
310
A620ABD70BD12878BDF0FC79F36C8B05F8BDCD3E9FEF871F7E585A5ABA7CF972A150609F379DD0419C8404F076465CAE16C9FDCBCB00D0CFA4FFB3F0C9279F4C4E4E6A3E9F9999193C27C5A33AB14603E91E80BBDB6E70E9BC954B2F311A8D384FEB402A00A26306AE93295F902E81BA1E2B3D0FE572B947AB88EE3A466459
310
7EFEFCF9C910DBFEFE3EFB97FB1395C912CF7BAA8154009224717FCF34589C153F9F7DF659D3C8A79F7E0A38D6935412491018210110430D5201B8B8F6D727BA8E288AB3B3B3BCAD68015201E00903135D4110049C298048054010FD01A900767777799B407413960BC4DB8A16201540A150E06D02D14DD0668322150041F4
310
07A402A04DF0058336C1ED416ED00B06B941090223480580AA2492383FB4096E8FBDBD3DDE2610DD84DCA0048111120031D4201500861476A28B188D4684C50080560004D11F905684212793C9C46231AD2962BD5EF7783C369B8DAF5544072015402814C2BC0A4AA7D37EBF5F3BC6A6542AEDEFEF9300DE80A228384B2291
310
0A0015FFFCF38FC9643A3952ABD5C2E1B056E2DD68345455EDA070BE50285CBF7EBD3B56121D4102783B2693A9478F23242DAB8619A40240950B142A14A450C80870C61EB9FFCD541400301A8DA7DD6504E8DDA1157600549937687381900A806F36E8BD7BF7565757B5063B0BCBCBAB03959D2A03603B90116D36285201F0
310
45A7D35DB972656C6C8C7D3970CB942200C623795182340EC0371748555545512A2F69A0ECB6F906EC0069DE363481361708E913209FCF73DC06DCBA754B3BD30500FE17896CBB5C5D3FE2D0085028143EE88117A88CEF0980361B14A900F8D2B45DAB542ABDF302E10D760C07480560B55A799B704CA55269F2572A8A6230
310
18B43880AAAAF57ADD6030B4FB9D0F0F0FBB63227A6813DC1E6EB79BB709C7ACAEAE368D84C361B7DBDD1409F6F97CFDB66C702037E885C266B36D6E6EEAF57AF665AD564315B820CE0E5201E4F3F9B38702EC767BFF43AADA6F3F0088A29848241289449F6DE08BDD6E3FFB6455554BA512C255105201B4754AE4ECEC2CCE
310
C72BA181F69448A4710082E80F240062A8412A8065760829715130180C384F8944BA0740789A1A711ED0BEA1489F0004D11F900A802A452E188AA284C361DE56B400A900888B07CE13BC4900C450837413AC280A5B05391C8EE9E9690028168B2F5EBC60577D3E1FAB5689C7E3D96C16004C2693D7EB05807ABDBEB1B1C1A6
310
CDCCCC4C4C4C0040369B8DC7E36C70717191957A85C361455100607C7C9C2532542A954824C2A6399D4ED6E521954AB1F3D601201008B056281B1B1BF57A1D00EC763B8BC1954AA59D9D1D366D6E6ECE6C360340229148A7D300303A3A3A3F3F0F008D46439224366D6A6A6A72721200F2F9BC56FF303F3F3F3A3A0A00B158
310
2C97CB0180C562F1783C0050AD56B7B6B6D8B4D9D9591688CD64325A9EFDD2D292288A00B0B5B555AD5601C066B3399D4E002897CBDBDBDB6C9ADBED66B986C964F2E0E0800D2E2F2FB37DAA2449EC4F75CB57DEEBF5B2FE00B22C673299D35EF9E9E96987C30100B95C2E168BB1FFF8DC1CB61C6D0000DDDDBB7779DB704C
310
2010B871E3066F2B881E2249D2C3870FF138856809440C35240062A8210110430D0980186A4800C45083CB0D1A8D469BBA7012170CCD598C045C02383A3A7AF2E4096F2B88DE82C7070AB40422869CFF039CF53A1C44E524470000000049454E44AE426082
  0
ACDSRECORD
 90
        0
  2
AcDbDs::ID
280
    10
320
22
  2
Thumbnail_Data
280
    15
 94
     1742
310
89504E470D0A1A0A0000000D4948445200000100000000760802000000A81CDA59000000097048597300000EC400000EC401952B0E1B0000068049444154789CEDDDCF4F135B1BC0F1675A0A85FA0265DAF04B945E6E6B03482A31AEDE44131297EEDCF1FFB8F10F71EBC2C4A5212AD4C45423D1B1BD20A0BD37BCA540E196
310
FEA033BD8B86A6D7F26265665A18BF9F553B3973CE93A6CF9C393367CE88000000000000000000000000000000000000000000000000000000000000748CD2E9009C23168B158B459395F8FDFEE5E5E5F3EDBBB0B0A028CAAB57AF0A8542381CF67ABD7EBF7F6969C96448CED6D5E9009CA3582C6A9A66B29268347AEE7DD3
310
E974B55A350C43442A954A32990C854226E3713C57A7038095745DAF542A9D8EE232A107B0CCB0C7232286484EC4105145446457C42DE215E9111191BCC857DB02F07ABDAAAAC662B14AA5120804E2F1B8C7E3B1AD3587A007B0CCD0EFBF6B2249916D918C8826A289FC4FE42F912F275FCB22430DBB783C9E6030D8D3D363
310
4900C160706565259148CCCDCD2D2D2D7DFCF8717C7CDC929A1D8C1EA0ADB645A222BB222272FDFAF5919191FDFDFDC9C9C95C2E974C26AD6AA55C2E57AB55AB6A733612C032A954AAF5C2030303FDFDFDF178BCF6F5EAD5AB9393931B1B1BE6C3585B5B7BFCF871A55271BBDDE66B733C4E812CD3E2E8B32C2222D3D3D31F
310
3E7CA86FFCF6EDDBE8E8689B2381D00358A8ABABA51FB3202222CD8767AB0ED81313133E9FEFE8E8289D4E5B52A1B3D103582312890C0C0CB452D210111145F9FE1664F396F3F1F97C9AA6F5F5F559529BE3D10358201289A4522997ABA5A3895F64DBEE80D0327A00B342A1D0E6E626575D2E2912C01497CBE5F57A4BA5D2
310
D8D8D8F0F0702BBB646D0EC9E7F30583C12B57AED8DC8E439000A68C8F8F67321911E9EFEFDFDE6EE9D4C69A9B5EFF5F7777B7DFEFEFEEEEB6B91D8720014CF9FAF5ABAAAA3F357EF5D9178D8888ECEDED2593C9DDDD5D9BDB710812C0ACCF9F3FCFCECE1E1F1FB7589E09E8170A0960818D8D8D16CF7FDA606F6F2F1008EC
310
EFEF773A90CB81CBA016383C3C6CBDB0DD83E07A2A3215A215F400EDC6E0F4422101DAED3F9D0E008D48001B2D2C2C3C7AF4E8DEBD7B7637140804A2D168F364A4DEDEDE68341A0C06ED0EE0F22201EC72F7EEDDF9F9F9376FDE4C4D4DDDBF7FBFBEBD60435B814040D3B4E649A0854241D33455556D68D3214800BB4C4F4F
310
3F7BF6ECDAB56BCF9F3F6FEC04B80C7AA17015C82EAF5FBF7EF8F0A1AAAA8B8B8B2F5EBCA86F2F752E24342301ECF2FEFDFB7038BCBABADADBDB9B4824EADB0744FEB2BA2D4551CE1803B4384DF5D7C44F63235DD7354D2B14EC38EDFF976AB55A1F030C0E0E3E78F0C0EFF7CBC918A0B652104E4502D8EEBB796976DC08D3
310
753D1008D4A664DFBE7DDBE3F1DCBC795344144509040224C01948007BCDCCCCC462B1E6EDCD576CCC3CC8EB76BBF3F97CED54E7F0F0706666A636374951947C3ECF2DE1333006B0D1D3A74FEFDCB9F3E4C993C68DAA4846A45AAD76757535FEE95B7CA4F8546B6B6BA3A3A3B50488C7E3B5C526DC6E776DDDA1B5B5B573D7
310
EC78F40096697E06C5308C95959572B9DC5C389148DCBA75ABFE351A8D7EFAF4E9DC4D1F1F1F6F6D6DE9BA2E228AA24C4D4DD592A1542A6D6D6D9D1A006A4800CB4C4C4CB452AC761FA0542AADAFAFFFF7C4C1C1C1CECE8E25614C4F4F2F2E2ECECECE5A529BE3710A6499A3A3A31F969911F976F2399BCDBE7CF9D2DA1854
310
5575BBDDD96CB636FCB5B6724722012C73B8B919FDD1E2B85F447E9C25E7954EA7474646FAFAFADEBD7B77E3C68D4C26B3BEBE6E5B6B0E4102586657A4F1ED0099B6076018C6EEEEEEDBB76F755D0F8542D96CB6BFBFBFED515C328C019CA6BED6342BB5B4821EC04A66DEEF52D3DBDB7BEE7D5555EDEAEADADADA12115DD7
310
239108EBC30100000000000000000000000000E07C2CD4671797CB555F8EC1308CDA03BBB868980E6D97F9F9F9FA8BBA8687879797973B1B0F4E450F6099582C562C16EB5FDD6E77FDA8DFF8F96C7EBF9F5469277A00CB94CAE5542A65B2921BD1A8985FC7CA3084C7C15A430F604A381C1E1A1ACAE57222628442462A6518
310
C6192BB155ABD55A015DD79B8BE9BA9E77B9B67FE6A5ABA7E8EE164591D5555395FC32E8014C191919C964329A76F234FC1F7F74341C1111191B93BFFFEE741097060960CAFEFE7EFD054457E6E6F2BFFD5635F38AF6E3E352A1F0E5CF3F4DC5D4D727B99C1C1C98AA04F859E69F88B7AA12B48E1EC0323D3D3D8D7FDFC6B5
310
6FBF5B07F70C838383B60407B4596332705CBFB0E801ECB2B3B353FFDFD72E1301000000000000000000000000000000000000000000000000000000000000000000007E5DFF00A9FE0B6EC6C506BF0000000049454E44AE426082
  0
ENDSEC
  0
EOF
