  0
SECTION
  2
HEADER
  9
$ACADVER
  1
AC1015
  9
$ACADMAINTVER
 70
    20
  9
$DWGCODEPAGE
  3
ANSI_1252
  9
$INSBASE
 10
0.0
 20
0.0
 30
0.0
  9
$EXTMIN
 10
-107.5182599060449
 20
-160.1372959666933
 30
-0.0000000000000098
  9
$EXTMAX
 10
100.051810407967
 20
85.07905665918043
 30
0.0000000000000207
  9
$LIMMIN
 10
-20.0
 20
-575.8499999999997
  9
$LIMMAX
 10
1785.35
 20
579.8499999999997
  9
$ORTHOMODE
 70
     0
  9
$REGENMODE
 70
     1
  9
$FILLMODE
 70
     1
  9
$QTEXTMODE
 70
     0
  9
$MIRRTEXT
 70
     1
  9
$LTSCALE
 40
10.0
  9
$ATTMODE
 70
     1
  9
$TEXTSIZE
 40
0.0
  9
$TRACEWID
 40
0.05
  9
$TEXTSTYLE
  7
Standard
  9
$CLAYER
  8
0
  9
$CELTYPE
  6
Continuous
  9
$CECOLOR
 62
   256
  9
$CELTSCALE
 40
1.0
  9
$DISPSILH
 70
     0
  9
$DIMSCALE
 40
1.0
  9
$DIMASZ
 40
1.25
  9
$DIMEXO
 40
0.0
  9
$DIMDLI
 40
0.38
  9
$DIMRND
 40
0.0
  9
$DIMDLE
 40
0.0
  9
$DIMEXE
 40
0.75
  9
$DIMTP
 40
0.0
  9
$DIMTM
 40
0.0
  9
$DIMTXT
 40
2.5
  9
$DIMCEN
 40
0.09
  9
$DIMTSZ
 40
0.0
  9
$DIMTOL
 70
     0
  9
$DIMLIM
 70
     0
  9
$DIMTIH
 70
     0
  9
$DIMTOH
 70
     0
  9
$DIMSE1
 70
     0
  9
$DIMSE2
 70
     0
  9
$DIMTAD
 70
     1
  9
$DIMZIN
 70
     0
  9
$DIMBLK
  1

  9
$DIMASO
 70
     1
  9
$DIMSHO
 70
     1
  9
$DIMPOST
  1

  9
$DIMAPOST
  1

  9
$DIMALT
 70
     0
  9
$DIMALTD
 70
     2
  9
$DIMALTF
 40
25.4
  9
$DIMLFAC
 40
1.0
  9
$DIMTOFL
 70
     0
  9
$DIMTVP
 40
0.0
  9
$DIMTIX
 70
     0
  9
$DIMSOXD
 70
     0
  9
$DIMSAH
 70
     0
  9
$DIMBLK1
  1

  9
$DIMBLK2
  1

  9
$DIMSTYLE
  2
Standard
  9
$DIMCLRD
 70
     7
  9
$DIMCLRE
 70
     7
  9
$DIMCLRT
 70
     7
  9
$DIMTFAC
 40
0.8
  9
$DIMGAP
 40
1.25
  9
$DIMJUST
 70
     0
  9
$DIMSD1
 70
     0
  9
$DIMSD2
 70
     0
  9
$DIMTOLJ
 70
     1
  9
$DIMTZIN
 70
     0
  9
$DIMALTZ
 70
     0
  9
$DIMALTTZ
 70
     0
  9
$DIMUPT
 70
     0
  9
$DIMDEC
 70
     2
  9
$DIMTDEC
 70
     4
  9
$DIMALTU
 70
     2
  9
$DIMALTTD
 70
     2
  9
$DIMTXSTY
  7
Standard
  9
$DIMAUNIT
 70
     0
  9
$DIMADEC
 70
     0
  9
$DIMALTRND
 40
0.0
  9
$DIMAZIN
 70
     0
  9
$DIMDSEP
 70
     0
  9
$DIMATFIT
 70
     3
  9
$DIMFRAC
 70
     0
  9
$DIMLDRBLK
  1

  9
$DIMLUNIT
 70
     2
  9
$DIMLWD
 70
     0
  9
$DIMLWE
 70
     0
  9
$DIMTMOVE
 70
     0
  9
$LUNITS
 70
     2
  9
$LUPREC
 70
     4
  9
$SKETCHINC
 40
0.1
  9
$FILLETRAD
 40
0.0
  9
$AUNITS
 70
     0
  9
$AUPREC
 70
     0
  9
$MENU
  1
acad
  9
$ELEVATION
 40
0.0
  9
$PELEVATION
 40
0.0
  9
$THICKNESS
 40
0.0
  9
$LIMCHECK
 70
     0
  9
$CHAMFERA
 40
0.0
  9
$CHAMFERB
 40
0.0
  9
$CHAMFERC
 40
0.0
  9
$CHAMFERD
 40
0.0
  9
$SKPOLY
 70
     0
  9
$TDCREATE
 40
2455301.802361111
  9
$TDUCREATE
 40
2455301.719027778
  9
$TDUPDATE
 40
2455303.695796042
  9
$TDUUPDATE
 40
2455303.612462708
  9
$TDINDWG
 40
0.1697800810
  9
$TDUSRTIMER
 40
0.1697797106
  9
$USRTIMER
 70
     1
  9
$ANGBASE
 50
0.0
  9
$ANGDIR
 70
     0
  9
$PDMODE
 70
     0
  9
$PDSIZE
 40
0.0
  9
$PLINEWID
 40
0.0
  9
$SPLFRAME
 70
     0
  9
$SPLINETYPE
 70
     6
  9
$SPLINESEGS
 70
     8
  9
$HANDSEED
  5
B92B
  9
$SURFTAB1
 70
     6
  9
$SURFTAB2
 70
     6
  9
$SURFTYPE
 70
     6
  9
$SURFU
 70
     6
  9
$SURFV
 70
     6
  9
$UCSBASE
  2

  9
$UCSNAME
  2

  9
$UCSORG
 10
0.0
 20
0.0
 30
0.0
  9
$UCSXDIR
 10
1.0
 20
0.0
 30
0.0
  9
$UCSYDIR
 10
0.0
 20
1.0
 30
0.0
  9
$UCSORTHOREF
  2

  9
$UCSORTHOVIEW
 70
     0
  9
$UCSORGTOP
 10
0.0
 20
0.0
 30
0.0
  9
$UCSORGBOTTOM
 10
0.0
 20
0.0
 30
0.0
  9
$UCSORGLEFT
 10
0.0
 20
0.0
 30
0.0
  9
$UCSORGRIGHT
 10
0.0
 20
0.0
 30
0.0
  9
$UCSORGFRONT
 10
0.0
 20
0.0
 30
0.0
  9
$UCSORGBACK
 10
0.0
 20
0.0
 30
0.0
  9
$PUCSBASE
  2

  9
$PUCSNAME
  2

  9
$PUCSORG
 10
0.0
 20
0.0
 30
0.0
  9
$PUCSXDIR
 10
1.0
 20
0.0
 30
0.0
  9
$PUCSYDIR
 10
0.0
 20
1.0
 30
0.0
  9
$PUCSORTHOREF
  2

  9
$PUCSORTHOVIEW
 70
     0
  9
$PUCSORGTOP
 10
0.0
 20
0.0
 30
0.0
  9
$PUCSORGBOTTOM
 10
0.0
 20
0.0
 30
0.0
  9
$PUCSORGLEFT
 10
0.0
 20
0.0
 30
0.0
  9
$PUCSORGRIGHT
 10
0.0
 20
0.0
 30
0.0
  9
$PUCSORGFRONT
 10
0.0
 20
0.0
 30
0.0
  9
$PUCSORGBACK
 10
0.0
 20
0.0
 30
0.0
  9
$USERI1
 70
     0
  9
$USERI2
 70
     0
  9
$USERI3
 70
     0
  9
$USERI4
 70
     0
  9
$USERI5
 70
     0
  9
$USERR1
 40
0.0
  9
$USERR2
 40
0.0
  9
$USERR3
 40
0.0
  9
$USERR4
 40
0.0
  9
$USERR5
 40
0.0
  9
$WORLDVIEW
 70
     1
  9
$SHADEDGE
 70
     3
  9
$SHADEDIF
 70
    70
  9
$TILEMODE
 70
     1
  9
$MAXACTVP
 70
    16
  9
$PINSBASE
 10
0.0
 20
0.0
 30
0.0
  9
$PLIMCHECK
 70
     0
  9
$PEXTMIN
 10
1.000000000000000E+20
 20
1.000000000000000E+20
 30
1.000000000000000E+20
  9
$PEXTMAX
 10
-1.000000000000000E+20
 20
-1.000000000000000E+20
 30
-1.000000000000000E+20
  9
$PLIMMIN
 10
0.0
 20
0.0
  9
$PLIMMAX
 10
12.0
 20
9.0
  9
$UNITMODE
 70
     0
  9
$VISRETAIN
 70
     0
  9
$PLINEGEN
 70
     1
  9
$PSLTSCALE
 70
     0
  9
$TREEDEPTH
 70
  3020
  9
$CMLSTYLE
  2
Standard
  9
$CMLJUST
 70
     0
  9
$CMLSCALE
 40
1.0
  9
$PROXYGRAPHICS
 70
     0
  9
$MEASUREMENT
 70
     1
  9
$CELWEIGHT
370
     0
  9
$ENDCAPS
280
     0
  9
$JOINSTYLE
280
     0
  9
$LWDISPLAY
290
     0
  9
$INSUNITS
 70
     0
  9
$HYPERLINKBASE
  1

  9
$STYLESHEET
  1

  9
$XEDIT
290
     1
  9
$CEPSNTYPE
380
     0
  9
$PSTYLEMODE
290
     1
  9
$FINGERPRINTGUID
  2

  9
$VERSIONGUID
  2
{E5B2334F-5640-464C-9B54-E402B4B9A589}
  9
$EXTNAMES
290
     1
  9
$PSVPSCALE
 40
0.0
  9
$OLESTARTUP
290
     0
  0
ENDSEC
  0
SECTION
  2
CLASSES
  0
CLASS
  1
IMAGE
  2
AcDbRasterImage
  3
ISM
 90
    34943
280
     0
281
     1
  0
CLASS
  1
DICTIONARYVAR
  2
AcDbDictionaryVar
  3
ObjectDBX Classes
 90
        0
280
     0
281
     0
  0
CLASS
  1
RASTERVARIABLES
  2
AcDbRasterVariables
  3
ISM
 90
    32768
280
     0
281
     0
  0
CLASS
  1
IMAGEDEF
  2
AcDbRasterImageDef
  3
ISM
 90
    32768
280
     0
281
     0
  0
CLASS
  1
IMAGEDEF_REACTOR
  2
AcDbRasterImageDefReactor
  3
ISM
 90
    32769
280
     0
281
     0
  0
CLASS
  1
IDBUFFER
  2
AcDbIdBuffer
  3
ObjectDBX Classes
 90
    32768
280
     0
281
     0
  0
CLASS
  1
SPATIAL_FILTER
  2
AcDbSpatialFilter
  3
ObjectDBX Classes
 90
    32768
280
     0
281
     0
  0
CLASS
  1
SORTENTSTABLE
  2
AcDbSortentsTable
  3
ObjectDBX Classes
 90
        0
280
     0
281
     0
  0
CLASS
  1
LAYER_INDEX
  2
AcDbLayerIndex
  3
ObjectDBX Classes
 90
    32768
280
     0
281
     0
  0
CLASS
  1
SPATIAL_INDEX
  2
AcDbSpatialIndex
  3
ObjectDBX Classes
 90
    32768
280
     0
281
     0
  0
CLASS
  1
OBJECT_PTR
  2
CAseDLPNTableRecord
  3
ASE-LPNTableRecord
 90
    32769
280
     0
281
     0
  0
CLASS
  1
LAYOUT
  2
AcDbLayout
  3
ObjectDBX Classes
 90
        0
280
     0
281
     0
  0
CLASS
  1
PLOTSETTINGS
  2
AcDbPlotSettings
  3
ObjectDBX Classes
 90
    32768
280
     0
281
     0
  0
CLASS
  1
ACDBDICTIONARYWDFLT
  2
AcDbDictionaryWithDefault
  3
ObjectDBX Classes
 90
        0
280
     0
281
     0
  0
CLASS
  1
ACDBPLACEHOLDER
  2
AcDbPlaceHolder
  3
ObjectDBX Classes
 90
        0
280
     0
281
     0
  0
CLASS
  1
VBA_PROJECT
  2
AcDbVbaProject
  3
acad
 90
    32768
280
     0
281
     0
  0
CLASS
  1
WIPEOUT
  2
AcDbWipeout
  3
"WipeOut|Product Desc: Object Enabler for WipeOut entity                        |Company: Autodesk, Inc.                        |WEB Address: www.autodesk.com"
 90
    34943
280
     0
281
     1
  0
CLASS
  1
WIPEOUTVARIABLES
  2
AcDbWipeoutVariables
  3
"WipeOut|Product Desc:     WipeOut Dbx Application|Company:          Autodesk, Inc.|WEB Address:      www.autodesk.com"
 90
        0
280
     0
281
     0
  0
CLASS
  1
RTEXT
  2
RText
  3
RText|AutoCAD Express Tool|expresstools@autodesk.com
 90
    35839
280
     0
281
     1
  0
CLASS
  1
ARCALIGNEDTEXT
  2
AcDbArcAlignedText
  3
ATEXT|AutoCAD Express Tool|expresstools@autodesk.com
 90
    32768
280
     0
281
     1
  0
CLASS
  1
MATERIAL
  2
AcDbMaterial
  3
ObjectDBX Classes
 90
     1153
280
     0
281
     0
  0
CLASS
  1
VISUALSTYLE
  2
AcDbVisualStyle
  3
ObjectDBX Classes
 90
     4095
280
     0
281
     0
  0
CLASS
  1
TABLESTYLE
  2
AcDbTableStyle
  3
ObjectDBX Classes
 90
     4095
280
     0
281
     0
  0
CLASS
  1
SCALE
  2
AcDbScale
  3
ObjectDBX Classes
 90
     1153
280
     0
281
     0
  0
CLASS
  1
MLEADERSTYLE
  2
AcDbMLeaderStyle
  3
ACDB_MLEADERSTYLE_CLASS
 90
     4095
280
     0
281
     0
  0
CLASS
  1
CELLSTYLEMAP
  2
AcDbCellStyleMap
  3
ObjectDBX Classes
 90
     1152
280
     0
281
     0
  0
ENDSEC
  0
SECTION
  2
TABLES
  0
TABLE
  2
VPORT
  5
7
330
0
100
AcDbSymbolTable
 70
     1
  0
VPORT
  5
15
330
7
100
AcDbSymbolTableRecord
100
AcDbViewportTableRecord
  2
*ACTIVE
 70
     0
 10
0.0
 20
0.0
 11
1.0
 21
1.0
 12
-3.710900867099269
 22
-40.68476655881068
 13
0.0
 23
0.0
 14
1.0
 24
1.0
 15
0.0
 25
0.0
 16
0.0
 26
0.0
 36
1.0
 17
0.0
 27
0.0
 37
0.0
 40
277.4408026539013
 41
1.611330698287219
 42
50.0
 43
0.0
 44
0.0
 50
0.0
 51
0.0
 71
     0
 72
   100
 73
     1
 74
     1
 75
     0
 76
     0
 77
     0
 78
     0
281
     0
 65
     0
110
0.0
120
0.0
130
0.0
111
1.0
121
0.0
131
0.0
112
0.0
122
1.0
132
0.0
 79
     0
146
0.0
  0
ENDTAB
  0
TABLE
  2
LTYPE
  5
4
330
0
100
AcDbSymbolTable
 70
     3
  0
LTYPE
  5
11
330
4
100
AcDbSymbolTableRecord
100
AcDbLinetypeTableRecord
  2
ByBlock
 70
     0
  3

 72
    65
 73
     0
 40
0.0
  0
LTYPE
  5
12
330
4
100
AcDbSymbolTableRecord
100
AcDbLinetypeTableRecord
  2
ByLayer
 70
     0
  3

 72
    65
 73
     0
 40
0.0
  0
LTYPE
  5
13
330
4
100
AcDbSymbolTableRecord
100
AcDbLinetypeTableRecord
  2
Continuous
 70
     0
  3
Solid line
 72
    65
 73
     0
 40
0.0
  0
LTYPE
  5
108
330
4
100
AcDbSymbolTableRecord
100
AcDbLinetypeTableRecord
  2
CENTER
 70
     0
  3
____ _ ____ _ ____ _ ____ _ ____ _ ____ _ ____
 72
    65
 73
     4
 40
2.0
 49
1.25
 74
     0
 49
-0.25
 74
     0
 49
0.25
 74
     0
 49
-0.25
 74
     0
  0
ENDTAB
  0
TABLE
  2
LAYER
  5
2
330
0
100
AcDbSymbolTable
 70
     1
  0
LAYER
  5
14
102
{ACAD_XDICTIONARY
360
5858
102
}
330
2
100
AcDbSymbolTableRecord
100
AcDbLayerTableRecord
  2
0
 70
     0
 62
     7
  6
Continuous
370
    -3
390
1D
  0
ENDTAB
  0
TABLE
  2
STYLE
  5
3
330
0
100
AcDbSymbolTable
 70
     1
  0
STYLE
  5
17
330
3
100
AcDbSymbolTableRecord
100
AcDbTextStyleTableRecord
  2
Standard
 70
     0
 40
0.0
 41
1.0
 50
0.0
 71
     0
 42
0.0
  3
I011000D.TTF
  4

1001
ACAD
1000
IsonormD
1071
        0
  0
ENDTAB
  0
TABLE
  2
VIEW
  5
5
330
0
100
AcDbSymbolTable
 70
     0
  0
ENDTAB
  0
TABLE
  2
UCS
  5
6
330
0
100
AcDbSymbolTable
 70
     0
  0
ENDTAB
  0
TABLE
  2
APPID
  5
8
330
0
100
AcDbSymbolTable
 70
     5
  0
APPID
  5
16
330
8
100
AcDbSymbolTableRecord
100
AcDbRegAppTableRecord
  2
ACAD
 70
     0
  0
APPID
  5
26
330
8
100
AcDbSymbolTableRecord
100
AcDbRegAppTableRecord
  2
TopSolid'Draft
 70
     0
  0
APPID
  5
5850
330
8
100
AcDbSymbolTableRecord
100
AcDbRegAppTableRecord
  2
ACAD_MLEADERVER
 70
     0
  0
APPID
  5
5856
330
8
100
AcDbSymbolTableRecord
100
AcDbRegAppTableRecord
  2
DCO15
 70
     0
  0
APPID
  5
B631
330
8
100
AcDbSymbolTableRecord
100
AcDbRegAppTableRecord
  2
ACAD_EXEMPT_FROM_CAD_STANDARDS
 70
     0
  0
ENDTAB
  0
TABLE
  2
DIMSTYLE
  5
9
330
0
100
AcDbSymbolTable
 70
     2
100
AcDbDimStyleTable
 71
     1
340
18
  0
DIMSTYLE
105
18
330
9
100
AcDbSymbolTableRecord
100
AcDbDimStyleTableRecord
  2
Standard
 70
     0
 41
1.25
 42
0.0
 44
0.75
 73
     0
 74
     0
 77
     1
140
2.5
146
0.8
147
1.25
176
     7
177
     7
178
     7
271
     2
340
17
  0
ENDTAB
  0
TABLE
  2
BLOCK_RECORD
  5
1
330
0
100
AcDbSymbolTable
 70
     2
  0
BLOCK_RECORD
  5
A
102
{ACAD_XDICTIONARY
360
5864
102
}
330
1
100
AcDbSymbolTableRecord
100
AcDbBlockTableRecord
  2
*MODEL_SPACE
340
20
  0
BLOCK_RECORD
  5
B
330
1
100
AcDbSymbolTableRecord
100
AcDbBlockTableRecord
  2
*PAPER_SPACE
340
21
  0
ENDTAB
  0
ENDSEC
  0
SECTION
  2
BLOCKS
  0
BLOCK
  5
D
330
A
100
AcDbEntity
  8
0
100
AcDbBlockBegin
  2
*MODEL_SPACE
 70
     0
 10
0.0
 20
0.0
 30
0.0
  3
*MODEL_SPACE
  1

  0
ENDBLK
  5
E
330
A
100
AcDbEntity
  8
0
100
AcDbBlockEnd
  0
BLOCK
  5
F
330
B
100
AcDbEntity
 67
     1
  8
0
100
AcDbBlockBegin
  2
*PAPER_SPACE
 70
     0
 10
0.0
 20
0.0
 30
0.0
  3
*PAPER_SPACE
  1

  0
ENDBLK
  5
10
330
B
100
AcDbEntity
 67
     1
  8
0
100
AcDbBlockEnd
  0
ENDSEC
  0
SECTION
  2
ENTITIES
  0
LINE
  5
1F4F
330
A
100
AcDbEntity
  8
0
  6
CENTER
 62
     1
100
AcDbLine
 10
-8.199999999999761
 20
0.0
 30
0.0
 11
8.199999999999988
 21
0.0
 31
0.0
  0
LINE
  5
1F50
330
A
100
AcDbEntity
  8
0
  6
CENTER
 62
     1
100
AcDbLine
 10
0.0
 20
-8.199999999999988
 30
0.0
 11
0.0
 21
8.200000000000017
 31
0.0
  0
LINE
  5
1F51
330
A
100
AcDbEntity
  8
0
  6
CENTER
 62
     1
100
AcDbLine
 10
-8.250000000007446
 20
-49.9999999999759
 30
0.0
 11
8.249999999992553
 21
-49.9999999999759
 31
0.0
  0
LINE
  5
1F52
330
A
100
AcDbEntity
  8
0
  6
CENTER
 62
     1
100
AcDbLine
 10
-0.0000000000074465
 20
-58.24999999997598
 30
0.0
 11
-0.0000000000074465
 21
-41.7499999999759
 31
0.0
  0
LINE
  5
1F53
330
A
100
AcDbEntity
  8
0
  6
CENTER
 62
     1
100
AcDbLine
 10
-75.04999999186378
 20
-36.20000000090832
 30
0.0
 11
-79.54999999186378
 21
-36.2000000006201
 31
0.0
  0
LINE
  5
1F54
330
A
100
AcDbEntity
  8
0
  6
CENTER
 62
     1
100
AcDbLine
 10
-107.4999999918636
 20
-55.00000000001231
 30
0.0
 11
-93.49999999186378
 21
-55.00000000001231
 31
0.0
  0
LINE
  5
1F55
330
A
100
AcDbEntity
  8
0
  6
CENTER
 62
     1
100
AcDbLine
 10
-100.4999999918636
 20
-62.00000000001231
 30
0.0
 11
-100.4999999918636
 21
-48.0000000000123
 31
0.0
  0
LINE
  5
1F56
330
A
100
AcDbEntity
  8
0
  6
CENTER
 62
     1
100
AcDbLine
 10
-107.4999999918636
 20
4.999999999987693
 30
0.0
 11
-93.49999999186378
 21
4.999999999987693
 31
0.0
  0
LINE
  5
1F57
330
A
100
AcDbEntity
  8
0
  6
CENTER
 62
     1
100
AcDbLine
 10
-100.4999999918636
 20
-2.000000000012306
 30
0.0
 11
-100.4999999918636
 21
11.99999999998769
 31
0.0
  0
LINE
  5
1F58
330
A
100
AcDbEntity
  8
0
  6
CENTER
 62
     1
100
AcDbLine
 10
-79.49999999186378
 20
-55.00000000001231
 30
0.0
 11
-65.4999999918636
 21
-55.00000000001231
 31
0.0
  0
LINE
  5
1F59
330
A
100
AcDbEntity
  8
0
  6
CENTER
 62
     1
100
AcDbLine
 10
-72.49999999186377
 20
-62.00000000001231
 30
0.0
 11
-72.49999999186377
 21
-48.0000000000123
 31
0.0
  0
LINE
  5
1F5A
330
A
100
AcDbEntity
  8
0
  6
CENTER
 62
     1
100
AcDbLine
 10
-79.49999999186366
 20
4.999999999987693
 30
0.0
 11
-65.4999999918636
 21
4.999999999987693
 31
0.0
  0
LINE
  5
1F5B
330
A
100
AcDbEntity
  8
0
  6
CENTER
 62
     1
100
AcDbLine
 10
-72.49999999186377
 20
-2.000000000012306
 30
0.0
 11
-72.49999999186377
 21
11.99999999998769
 31
0.0
  0
LINE
  5
1F5C
330
A
100
AcDbEntity
  8
0
  6
CENTER
 62
     1
100
AcDbLine
 10
-79.50000001003076
 20
-49.9999999999759
 30
0.0
 11
-73.75000001003076
 21
-49.9999999999759
 31
0.0
  0
LINE
  5
1F5D
330
A
100
AcDbEntity
  8
0
  6
CENTER
 62
     1
100
AcDbLine
 10
-79.50000001003008
 20
0.0000000000015064
 30
0.0
 11
-73.75000001002939
 21
0.0000000000015064
 31
0.0
  0
LINE
  5
1F5E
330
A
100
AcDbEntity
  8
0
  6
CENTER
 62
     1
100
AcDbLine
 10
-28.99999998292287
 20
-28.40000000001231
 30
0.0
 11
-28.99999998385164
 21
-43.40000000001231
 31
0.0
  0
LINE
  5
1F5F
330
A
100
AcDbEntity
  8
0
  6
CENTER
 62
     1
100
AcDbLine
 10
-21.49999999881726
 20
-49.7500000000123
 30
0.0
 11
-21.49999999881726
 21
-2.000000000012306
 31
0.0
  0
LINE
  5
1F60
330
A
100
AcDbEntity
  8
0
  6
CENTER
 62
     1
100
AcDbLine
 10
-28.99678534580159
 20
53.550000000006
 30
0.0
 11
-28.99678534580159
 21
58.05000000000601
 31
0.0
  0
LINE
  5
1F61
330
A
100
AcDbEntity
  8
0
  6
CENTER
 62
     1
100
AcDbLine
 10
-25.24999999881714
 20
65.00000001730902
 30
0.0
 11
-17.74999999881726
 21
65.00000001730902
 31
0.0
  0
LINE
  5
1F62
330
A
100
AcDbEntity
  8
0
  6
CENTER
 62
     1
100
AcDbLine
 10
-21.49999999881726
 20
61.25000001730902
 30
0.0
 11
-21.49999999881726
 21
68.7500000173089
 31
0.0
  0
LINE
  5
1F63
330
A
100
AcDbEntity
  8
0
  6
CENTER
 62
     1
100
AcDbLine
 10
-0.000000000014893
 20
58.00000001817299
 30
0.0
 11
0.0000000000064233
 21
52.25000001817292
 31
0.0
  0
LINE
  5
1F64
330
A
100
AcDbEntity
  8
0
  6
CENTER
 62
     1
100
AcDbLine
 10
47.35000000813625
 20
-55.00000000001231
 30
0.0
 11
56.65000000813638
 21
-55.00000000001231
 31
0.0
  0
LINE
  5
1F65
330
A
100
AcDbEntity
  8
0
  6
CENTER
 62
     1
100
AcDbLine
 10
52.00000000813639
 20
-59.65000000001231
 30
0.0
 11
52.00000000813639
 21
-50.35000000001218
 31
0.0
  0
LINE
  5
1F66
330
A
100
AcDbEntity
  8
0
  6
CENTER
 62
     1
100
AcDbLine
 10
47.35000000813625
 20
4.999999999987693
 30
0.0
 11
56.6500000081362
 21
4.999999999987693
 31
0.0
  0
LINE
  5
1F67
330
A
100
AcDbEntity
  8
0
  6
CENTER
 62
     1
100
AcDbLine
 10
52.00000000813623
 20
0.3499999999878014
 30
0.0
 11
52.00000000813623
 21
9.649999999987699
 31
0.0
  0
LINE
  5
1F68
330
A
100
AcDbEntity
  8
0
  6
CENTER
 62
     1
100
AcDbLine
 10
75.35000000813636
 20
-55.00000000001231
 30
0.0
 11
84.65000000813608
 21
-55.00000000001231
 31
0.0
  0
LINE
  5
1F69
330
A
100
AcDbEntity
  8
0
  6
CENTER
 62
     1
100
AcDbLine
 10
80.00000000813622
 20
-59.65000000001231
 30
0.0
 11
80.00000000813622
 21
-50.3500000000123
 31
0.0
  0
LINE
  5
1F6A
330
A
100
AcDbEntity
  8
0
  6
CENTER
 62
     1
100
AcDbLine
 10
75.35000000813636
 20
4.999999999987693
 30
0.0
 11
84.65000000813608
 21
4.999999999987693
 31
0.0
  0
LINE
  5
1F6B
330
A
100
AcDbEntity
  8
0
  6
CENTER
 62
     1
100
AcDbLine
 10
80.00000000813622
 20
0.3499999999878014
 30
0.0
 11
80.00000000813622
 21
9.649999999987699
 31
0.0
  0
LINE
  5
1F6C
330
A
100
AcDbEntity
  8
0
  6
CENTER
 62
     1
100
AcDbLine
 10
-28.99678534580159
 20
-98.54999999999421
 30
0.0
 11
-28.99678534580159
 21
-103.0499999999941
 31
0.0
  0
LINE
  5
1F6D
330
A
100
AcDbEntity
  8
0
  6
CENTER
 62
     1
100
AcDbLine
 10
-25.27205953028482
 20
-110.0000000172971
 30
0.0
 11
-17.72794046734964
 21
-110.0000000172971
 31
0.0
  0
LINE
  5
1F6E
330
A
100
AcDbEntity
  8
0
  6
CENTER
 62
     1
100
AcDbLine
 10
-21.49999999881726
 20
-113.7720595487647
 30
0.0
 11
-21.49999999881726
 21
-106.2279404858295
 31
0.0
  0
LINE
  5
1F6F
330
A
100
AcDbEntity
  8
0
  6
CENTER
 62
     1
100
AcDbLine
 10
-0.0000000000180194
 20
-103.0000000181606
 30
0.0
 11
0.0000000000046043
 21
-97.25000001815979
 31
0.0
  0
TEXT
  5
8E0A
330
A
100
AcDbEntity
  8
0
  6
Continuous
 62
     7
370
     0
100
AcDbText
 10
42.69472914430003
 20
60.00732064422257
 30
0.0
 40
10.0
  1
8500R
100
AcDbText
  0
ELLIPSE
  5
8E0B
330
A
100
AcDbEntity
  8
0
  6
Continuous
 62
     7
370
     0
100
AcDbEllipse
 10
62.04693583484635
 20
-127.556038602986
 30
0.0
 11
2.400000000000013
 21
-0.0000000001456057
 31
-0.0000000000000003
210
0.0000000000000001
220
0.0
230
1.0
 40
0.4082482904891406
 41
2.677945044613746
 42
3.14159265358977
  0
ELLIPSE
  5
8E0C
330
A
100
AcDbEntity
  8
0
  6
Continuous
 62
     7
370
     0
100
AcDbEllipse
 10
62.04693583484635
 20
-127.556038602986
 30
0.0
 11
2.400000000000013
 21
-0.0000000001456057
 31
0.0
210
0.0
220
-0.0000000000000001
230
1.0
 40
0.4082482904891421
 41
3.141592653589762
 42
4.539617934200722
  0
ELLIPSE
  5
8E0D
330
A
100
AcDbEntity
  8
0
  6
Continuous
 62
     7
370
     0
100
AcDbEllipse
 10
62.04693583484635
 20
-127.556038602986
 30
0.0
 11
2.400000000000013
 21
-0.0000000001456057
 31
0.0
210
0.0
220
0.0000000000000001
230
1.0
 40
0.4082482904891408
 41
2.095527611296345
 42
2.677945044613746
  0
ELLIPSE
  5
8E0E
330
A
100
AcDbEntity
  8
0
  6
Continuous
 62
     7
370
     0
100
AcDbEllipse
 10
62.04693583484635
 20
-127.556038602986
 30
0.0
 11
2.280000000000002
 21
-0.0000000001383199
 31
-0.0000000000000001
210
0.0
220
0.0000000000000001
230
1.0
 40
0.4082482904891413
 41
2.126272397633764
 42
2.677945044613748
  0
ELLIPSE
  5
8E0F
330
A
100
AcDbEntity
  8
0
  6
Continuous
 62
     7
370
     0
100
AcDbEllipse
 10
62.04693583484635
 20
-127.556038602986
 30
0.0
 11
2.280000000000002
 21
-0.0000000001383199
 31
-0.0000000000000002
210
0.0000000000000001
220
-0.0000000000000001
230
1.0
 40
0.4082482904891392
 41
2.677945044613748
 42
3.605240262627727
  0
ELLIPSE
  5
8E10
330
A
100
AcDbEntity
  8
0
  6
Continuous
 62
     7
370
     0
100
AcDbEllipse
 10
62.04693583484635
 20
-127.556038602986
 30
0.0
 11
2.280000000000002
 21
-0.0000000001383199
 31
-0.0000000000000001
210
0.0
220
-0.0000000000000001
230
1.0
 40
0.4082482904891405
 41
3.605240262627735
 42
4.505493362505985
  0
ELLIPSE
  5
8E11
330
A
100
AcDbEntity
  8
0
  6
Continuous
 62
     9
370
     0
100
AcDbEllipse
 10
68.84458272939861
 20
-120.3991305741628
 30
0.0
 11
8.000000000000008
 21
-0.0000000000040939
 31
0.0000000000000002
210
0.0
220
0.0000000000000001
230
1.0
 40
0.4082482904640754
 41
4.550715843822438
 42
5.25054433386345
  0
ELLIPSE
  5
8E12
330
A
100
AcDbEntity
  8
0
  6
Continuous
 62
     9
370
     0
100
AcDbEllipse
 10
67.68560053724411
 20
-123.3001867116845
 30
0.0
 11
0.0531494518635212
 21
0.7982325073351837
 31
-0.0000000000000001
210
0.0
220
0.0000000000000001
230
1.0
 40
0.1469446042567053
 41
0.4254476571335958
 42
1.9962439839287
  0
ELLIPSE
  5
8E13
330
A
100
AcDbEntity
  8
0
  6
Continuous
 62
     9
370
     0
100
AcDbEllipse
 10
68.84458272939884
 20
-119.6688338308226
 30
0.0
 11
-7.199999999999982
 21
0.0000000000036776
 31
0.0000000000000006
210
0.0000000000000001
220
0.0
230
1.0
 40
0.4082482904640765
 41
1.409123190232653
 42
1.620507374872742
  0
ELLIPSE
  5
8E14
330
A
100
AcDbEntity
  8
0
  6
Continuous
 62
     9
370
     0
100
AcDbEllipse
 10
68.84458272939537
 20
-126.825741915556
 30
0.0
 11
-8.000000000000008
 21
0.0000000000040939
 31
-0.0000000000000005
210
-0.0000000000000001
220
0.0000000000000001
230
1.0
 40
0.4082482904640755
 41
1.409123190232643
 42
2.106811856592305
  0
LINE
  5
8E15
330
A
100
AcDbEntity
  8
0
  6
Continuous
 62
     9
370
     0
100
AcDbLine
 10
67.5568247381156
 20
-123.6225262825202
 30
0.0
 11
67.55682473811259
 21
-130.0491376239135
 31
0.0
  0
ELLIPSE
  5
8E16
330
A
100
AcDbEntity
  8
0
  6
Continuous
 62
     9
370
     0
100
AcDbEllipse
 10
64.19356134961185
 20
-123.46637689893
 30
0.0
 11
3.999999999999948
 21
-0.00000000000204
 31
-0.0000000000000002
210
0.0000000000000001
220
0.0
230
1.0
 40
0.408248290464075
 41
0.6295731970094668
 42
1.584724241463002
  0
ELLIPSE
  5
8E17
330
A
100
AcDbEntity
  8
0
  6
Continuous
 62
     9
370
     0
100
AcDbEllipse
 10
64.13228050639685
 20
-121.6702586465925
 30
0.0
 11
-0.4000000000000116
 21
0.0000000000002082
 31
0.0
210
0.0
220
0.0
230
1.0
 40
0.4082482904640778
 41
0.8051742482397903
 42
1.584724241462881
  0
ELLIPSE
  5
8E18
330
A
100
AcDbEntity
  8
0
  6
Continuous
 62
     9
370
     0
100
AcDbEllipse
 10
68.84458272939884
 20
-119.6688338308226
 30
0.0
 11
-7.199999999999982
 21
0.0000000000036776
 31
-0.0000000000000001
210
0.0
220
0.0
230
1.0
 40
0.408248290464076
 41
0.7849218392068395
 42
0.805174248239804
  0
ELLIPSE
  5
8E19
330
A
100
AcDbEntity
  8
0
  6
Continuous
 62
     9
370
     0
100
AcDbEllipse
 10
67.74998843680862
 20
-122.4087201829265
 30
0.0
 11
-0.4000000000000116
 21
0.0000000000002082
 31
0.0
210
0.0
220
0.0
230
1.0
 40
0.4082482904640779
 41
0.6295731970094253
 42
1.409123190232484
  0
ELLIPSE
  5
8E1A
330
A
100
AcDbEntity
  8
0
  6
Continuous
 62
     9
370
     0
100
AcDbEllipse
 10
67.74998843680828
 20
-123.1390169262666
 30
0.0
 11
1.199999999999978
 21
-0.0000000000006106
 31
0.0
210
0.0
220
0.0
230
1.0
 40
0.4082482904640778
 41
3.771165850599223
 42
4.550715843822391
  0
ELLIPSE
  5
8E1B
330
A
100
AcDbEntity
  8
0
  6
Continuous
 62
     9
370
     0
100
AcDbEllipse
 10
67.42667688342653
 20
-123.2351675368124
 30
0.0
 11
0.3911087577517791
 21
0.6978781696040382
 31
0.0
210
0.0
220
0.0
230
1.0
 40
0.7378542953710501
 41
0.6495751065479717
 42
2.220371433343
  0
ELLIPSE
  5
8E1C
330
A
100
AcDbEntity
  8
0
  6
Continuous
 62
     9
370
     0
100
AcDbEllipse
 10
67.74998843680504
 20
-129.5656282676599
 30
0.0
 11
-1.200000000000034
 21
0.0000000000006106
 31
0.0
210
0.0
220
-0.0000000000000001
230
1.0
 40
0.4082482904640755
 41
0.6295731970094403
 42
1.4091231902326
  0
LINE
  5
8E1D
330
A
100
AcDbEntity
  8
0
  6
Continuous
 62
     9
370
     0
100
AcDbLine
 10
66.78005377666352
 20
-123.427468757904
 30
0.0
 11
66.78005377666034
 21
-129.8540800992973
 31
0.0
  0
ELLIPSE
  5
8E1E
330
A
100
AcDbEntity
  8
0
  6
Continuous
 62
     9
370
     0
100
AcDbEllipse
 10
64.19356134961145
 20
-124.1966736422702
 30
0.0
 11
-3.200000000000035
 21
0.0000000000016376
 31
0.0000000000000002
210
0.0000000000000001
220
0.0
230
1.0
 40
0.4082482904640754
 41
3.771165850599261
 42
4.726316895052786
  0
ELLIPSE
  5
8E1F
330
A
100
AcDbEntity
  8
0
  6
Continuous
 62
     9
370
     0
100
AcDbEllipse
 10
64.13785149214357
 20
-122.5638388674179
 30
0.0
 11
-0.0045490584959507
 21
0.7999870661871969
 31
0.0
210
0.0
220
0.0
230
0.9999999999999998
 40
0.0127139773379206
 41
4.291818495454415
 42
5.862614822254232
  0
ELLIPSE
  5
8E20
330
A
100
AcDbEntity
  8
0
  6
Continuous
 62
     9
370
     0
100
AcDbEllipse
 10
64.19356134960799
 20
-130.6232849836635
 30
0.0
 11
3.199999999999978
 21
-0.0000000000016376
 31
0.0
210
0.0
220
0.0000000000000001
230
1.0
 40
0.4082482904640772
 41
0.6295731970094688
 42
1.58472424146301
  0
LINE
  5
8E21
330
A
100
AcDbEntity
  8
0
  6
Continuous
 62
     9
370
     0
100
AcDbLine
 10
64.14899346363711
 20
-122.8904058223884
 30
0.0
 11
64.14899346363381
 21
-129.3170171637816
 31
0.0
  0
ELLIPSE
  5
8E22
330
A
100
AcDbEntity
  8
0
  6
Continuous
 62
     9
370
     0
100
AcDbEllipse
 10
67.68560053724081
 20
-129.7267980530778
 30
0.0
 11
0.0531494518635212
 21
0.7982325073351837
 31
-0.0000000000000001
210
0.0000000000000001
220
0.0000000000000001
230
1.0
 40
0.1469446042567075
 41
1.996243983928628
 42
3.141593686524192
  0
ELLIPSE
  5
8E23
330
A
100
AcDbEntity
  8
0
  6
Continuous
 62
     9
370
     0
100
AcDbEllipse
 10
64.13228050639673
 20
-122.4005553899327
 30
0.0
 11
1.200000000000034
 21
-0.0000000000006106
 31
0.0
210
0.0
220
0.0000000000000001
230
1.0
 40
0.4082482904640767
 41
3.946766901829603
 42
4.726316895052823
  0
ELLIPSE
  5
8E24
330
A
100
AcDbEntity
  8
0
  6
Continuous
 62
     9
370
     0
100
AcDbEllipse
 10
63.85508625798485
 20
-122.5182862614486
 30
0.0
 11
0.2922348846556289
 21
0.7447138861269437
 31
-0.0000000000000001
210
0.0
220
0.0000000000000001
230
1.0
 40
0.6326064277742766
 41
0.5552198495228798
 42
2.126016176317806
  0
ELLIPSE
  5
8E25
330
A
100
AcDbEntity
  8
0
  6
Continuous
 62
     9
370
     0
100
AcDbEllipse
 10
68.84458272939861
 20
-120.3991305741628
 30
0.0
 11
8.000000000000008
 21
-0.0000000000040939
 31
-0.0000000000000005
210
0.0000000000000001
220
0.0
230
1.0
 40
0.4082482904640762
 41
3.398763803156966
 42
3.946766901829592
  0
ELLIPSE
  5
8E26
330
A
100
AcDbEntity
  8
0
  6
Continuous
 62
     9
370
     0
100
AcDbEllipse
 10
64.13228050639344
 20
-128.827166731326
 30
0.0
 11
-1.199999999999978
 21
0.0000000000006106
 31
0.0
210
0.0
220
0.0
230
1.0
 40
0.4082482904640746
 41
0.8051742482397795
 42
1.58472424146303
  0
LINE
  5
8E27
330
A
100
AcDbEntity
  8
0
  6
Continuous
 62
     9
370
     0
100
AcDbLine
 10
63.30069776116113
 20
-122.7537480044803
 30
0.0
 11
63.30069776115784
 21
-129.1803593458736
 31
0.0
  0
ELLIPSE
  5
8E28
330
A
100
AcDbEntity
  8
0
  6
Continuous
 62
     9
370
     0
100
AcDbEllipse
 10
68.84458272939537
 20
-126.825741915556
 30
0.0
 11
-8.000000000000008
 21
0.0000000000040939
 31
0.0000000000000003
210
0.0
220
0.0
230
1.0
 40
0.408248290464076
 41
0.0000000000000017
 42
0.8051742482398022
  0
ELLIPSE
  5
8E29
330
A
100
AcDbEntity
  8
0
  6
Continuous
 62
     9
370
     0
100
AcDbEllipse
 10
67.42667688342334
 20
-129.6617788782057
 30
0.0
 11
0.3911087577517789
 21
0.6978781696040241
 31
-0.0000000000000001
210
0.0000000000000002
220
0.0
230
1.0
 40
0.7378542953710508
 41
2.22037143334295
 42
3.141598729419607
  0
ELLIPSE
  5
8E2A
330
A
100
AcDbEntity
  8
0
  6
Continuous
 62
     9
370
     0
100
AcDbEllipse
 10
64.13785149214021
 20
-128.9904502088112
 30
0.0
 11
0.0045490584959507
 21
-0.7999870661871969
 31
0.0000000000000001
210
0.0000000000000001
220
0.0000000000000001
230
0.9999999999999998
 40
0.0127139773379207
 41
0.0002581393127592
 42
1.150225841864768
  0
ELLIPSE
  5
8E2B
330
A
100
AcDbEntity
  8
0
  6
Continuous
 62
     9
370
     0
100
AcDbEllipse
 10
63.85508625798149
 20
-128.9448976028419
 30
0.0
 11
-0.2922348846556289
 21
-0.7447138861269437
 31
-0.0000000000000001
210
0.0
220
-0.0000000000000001
230
1.0
 40
0.632606427774276
 41
5.267608829907579
 42
6.283186895473558
  0
LINE
  5
8E2C
330
A
100
AcDbEntity
  8
0
  6
Continuous
 62
     7
370
     0
100
AcDbLine
 10
67.05572808582132
 20
-93.670269714798
 30
0.0
 11
93.88854381581934
 21
-99.1474952898495
 31
0.0
  0
ELLIPSE
  5
8E2D
330
A
100
AcDbEntity
  8
0
  6
Continuous
 62
     7
370
     0
100
AcDbEllipse
 10
93.88854381581927
 20
-102.4338306348811
 30
0.0
 11
-2.276839915321349
 21
2.788548009269267
 31
0.0000000000000001
210
0.0
220
0.0
230
1.0
 40
0.8164965809280829
 41
3.92699081698699
 42
5.497787143782296
  0
LINE
  5
8E2E
330
A
100
AcDbEntity
  8
0
  6
Continuous
 62
     7
370
     0
100
AcDbLine
 10
97.10848170341904
 20
-103.0910977038873
 30
0.0
 11
97.10848170341904
 21
-152.2400685306946
 31
0.0
  0
ELLIPSE
  5
8E2F
330
A
100
AcDbEntity
  8
0
  6
Continuous
 62
     7
370
     0
100
AcDbEllipse
 10
93.88854381581927
 20
-151.5828014616884
 30
0.0
 11
-2.276839915321346
 21
2.788548009269219
 31
0.0000000000000001
210
0.0
220
0.0
230
1.0
 40
0.8164965809280833
 41
3.141592653589607
 42
3.926990816987014
  0
LINE
  5
8E30
330
A
100
AcDbEntity
  8
0
  6
Continuous
 62
     9
370
     0
100
AcDbLine
 10
94.24631469221925
 20
-98.85537659251321
 30
0.0
 11
93.88854381581934
 21
-99.1474952898495
 31
0.0
  0
ELLIPSE
  5
8E31
330
A
100
AcDbEntity
  8
0
  6
Continuous
 62
     7
370
     0
100
AcDbEllipse
 10
94.24631469221925
 20
-102.1417119375449
 30
0.0
 11
-2.276839915321349
 21
2.788548009269267
 31
0.0000000000000001
210
0.0
220
0.0
230
1.0
 40
0.8164965809280829
 41
3.926990816986983
 42
5.497787143782296
  0
LINE
  5
8E32
330
A
100
AcDbEntity
  8
0
  6
Continuous
 62
     9
370
     0
100
AcDbLine
 10
97.46625257981913
 20
-102.7989790065511
 30
0.0
 11
97.10848170341904
 21
-103.0910977038873
 31
0.0
  0
LINE
  5
8E33
330
A
100
AcDbEntity
  8
0
  6
Continuous
 62
     9
370
     0
100
AcDbLine
 10
67.41349896222141
 20
-93.37815101746171
 30
0.0
 11
67.05572808582132
 21
-93.670269714798
 31
0.0
  0
LINE
  5
8E34
330
A
100
AcDbEntity
  8
0
  6
Continuous
 62
     7
370
     0
100
AcDbLine
 10
67.41349896222141
 20
-93.37815101746171
 30
0.0
 11
94.24631469221925
 21
-98.85537659251321
 31
0.0
  0
LINE
  5
8E35
330
A
100
AcDbEntity
  8
0
  6
Continuous
 62
     9
370
     0
100
AcDbLine
 10
97.46625257981913
 20
-151.9479498333583
 30
0.0
 11
97.10848170341904
 21
-152.2400685306946
 31
0.0
  0
LINE
  5
8E36
330
A
100
AcDbEntity
  8
0
  6
Continuous
 62
     7
370
     0
100
AcDbLine
 10
97.46625257981913
 20
-102.7989790065511
 30
0.0
 11
97.46625257981902
 21
-151.9479498333583
 31
0.0
  0
ELLIPSE
  5
8E37
330
A
100
AcDbEntity
  8
0
  6
Continuous
 62
     7
370
     0
100
AcDbEllipse
 10
67.41349896222141
 20
-96.66448636249342
 30
0.0
 11
-2.276839915321349
 21
2.788548009269267
 31
0.0
210
0.0
220
0.0
230
1.0
 40
0.8164965809280829
 41
5.497787143782117
 42
6.283185307179588
  0
ELLIPSE
  5
8E38
330
A
100
AcDbEntity
  8
0
  6
Continuous
 62
     7
370
     0
100
AcDbEllipse
 10
67.05572808582132
 20
-96.95660505982971
 30
0.0
 11
-2.276839915321349
 21
2.788548009269267
 31
0.0
210
0.0
220
0.0
230
1.0
 40
0.8164965809280829
 41
5.497787143782118
 42
6.283185307179584
  0
ELLIPSE
  5
8E39
330
A
100
AcDbEntity
  8
0
  6
Continuous
 62
     7
370
     0
100
AcDbEllipse
 10
94.24631469221907
 20
-151.2906827643521
 30
0.0
 11
-2.276839915321349
 21
2.788548009269205
 31
0.0000000000000001
210
0.0
220
0.0
230
1.0
 40
0.8164965809280831
 41
3.1415926535896
 42
3.926990816987011
  0
LINE
  5
8E3A
330
A
100
AcDbEntity
  8
0
  6
Continuous
 62
     9
370
     0
100
AcDbLine
 10
96.75071082702022
 20
-103.3832164012236
 30
0.0
 11
97.10848170341904
 21
-103.0910977038884
 31
0.0
  0
LINE
  5
8E3B
330
A
100
AcDbEntity
  8
0
  6
Continuous
 62
     9
370
     0
100
AcDbLine
 10
97.10848170341904
 20
-103.0910977038884
 30
0.0
 11
97.46625257982003
 21
-102.7989790065514
 31
0.0
  0
ELLIPSE
  5
8E3C
330
A
100
AcDbEntity
  8
0
  6
Continuous
 62
     7
370
     0
100
AcDbEllipse
 10
93.53077293941936
 20
-102.7259493322172
 30
0.0
 11
2.276839915321349
 21
-2.788548009269267
 31
-0.0000000000000001
210
0.0
220
0.0
230
1.0
 40
0.8164965809277353
 41
0.7853981633974119
 42
2.356194490192308
  0
LINE
  5
8E3D
330
A
100
AcDbEntity
  8
0
  6
Continuous
 62
     9
370
     0
100
AcDbLine
 10
93.53077293941936
 20
-99.43961398718508
 30
0.0
 11
93.88854381581888
 21
-99.14749528984941
 31
0.0
  0
LINE
  5
8E3E
330
A
100
AcDbEntity
  8
0
  6
Continuous
 62
     9
370
     0
100
AcDbLine
 10
93.88854381581888
 20
-99.14749528984941
 30
0.0
 11
94.24631469221907
 21
-98.85537659251291
 31
0.0
  0
ELLIPSE
  5
8E3F
330
A
100
AcDbEntity
  8
0
  6
Continuous
 62
     7
370
     0
100
AcDbEllipse
 10
94.24631469221907
 20
-102.141711937545
 30
0.0
 11
2.276839915321349
 21
-2.788548009269267
 31
-0.0000000000000001
210
0.0
220
0.0
230
1.0
 40
0.8164965809277353
 41
0.7853981633974119
 42
2.356194490192308
  0
ELLIPSE
  5
8E40
330
A
100
AcDbEntity
  8
0
  6
Continuous
 62
     7
370
     0
100
AcDbEllipse
 10
66.69795720941284
 20
-97.24872375716392
 30
0.0
 11
2.276839915321349
 21
-2.788548009269267
 31
-0.0000000000000001
210
0.0
220
0.0
230
1.0
 40
0.8164965809277353
 41
2.356194490192308
 42
3.141592653589778
  0
LINE
  5
8E41
330
A
100
AcDbEntity
  8
0
  6
Continuous
 62
     7
370
     0
100
AcDbLine
 10
93.53077293941936
 20
-99.43961398718508
 30
0.0
 11
66.69795720941294
 21
-93.96238841213191
 31
0.0
  0
LINE
  5
8E42
330
A
100
AcDbEntity
  8
0
  6
Continuous
 62
     7
370
     0
100
AcDbLine
 10
96.75071082702004
 20
-152.5321872280364
 30
0.0
 11
96.75071082702011
 21
-103.3832164012236
 31
0.0
  0
ELLIPSE
  5
8E43
330
A
100
AcDbEntity
  8
0
  6
Continuous
 62
     7
370
     0
100
AcDbEllipse
 10
93.53077293941925
 20
-151.8749201590299
 30
0.0
 11
2.276839915321349
 21
-2.788548009269267
 31
0.0
210
-0.0000000000000001
220
0.0
230
1.0
 40
0.8164965809277353
 41
6.086818113996477
 42
6.283185307179584
  0
LINE
  5
8E44
330
A
100
AcDbEntity
  8
0
  6
Continuous
 62
     9
370
     0
100
AcDbLine
 10
66.69795720941284
 20
-93.96238841213191
 30
0.0
 11
67.05572808581263
 21
-93.6702697147958
 31
0.0
  0
LINE
  5
8E45
330
A
100
AcDbEntity
  8
0
  6
Continuous
 62
     9
370
     0
100
AcDbLine
 10
67.05572808581263
 20
-93.6702697147958
 30
0.0
 11
67.41349896221277
 21
-93.37815101745972
 31
0.0
  0
LINE
  5
8E46
330
A
100
AcDbEntity
  8
0
  6
Continuous
 62
     7
370
     0
100
AcDbLine
 10
94.24631469221907
 20
-98.85537659251291
 30
0.0
 11
67.41349896221277
 21
-93.37815101745972
 31
0.0
  0
LINE
  5
8E47
330
A
100
AcDbEntity
  8
0
  6
Continuous
 62
     9
370
     0
100
AcDbLine
 10
96.75071082702004
 20
-152.5321872280364
 30
0.0
 11
97.10848170341989
 21
-152.2400685307003
 31
0.0
  0
LINE
  5
8E48
330
A
100
AcDbEntity
  8
0
  6
Continuous
 62
     9
370
     0
100
AcDbLine
 10
97.10848170341989
 20
-152.2400685307003
 30
0.0
 11
97.46625257982003
 21
-151.9479498333641
 31
0.0
  0
LINE
  5
8E49
330
A
100
AcDbEntity
  8
0
  6
Continuous
 62
     7
370
     0
100
AcDbLine
 10
97.46625257981987
 20
-151.9479498333641
 30
0.0
 11
97.46625257982003
 21
-102.7989790065514
 31
0.0
  0
ELLIPSE
  5
8E4A
330
A
100
AcDbEntity
  8
0
  6
Continuous
 62
     7
370
     0
100
AcDbEllipse
 10
66.69795720941284
 20
-97.24872375716392
 30
0.0
 11
2.276839915321349
 21
-2.788548009269267
 31
-0.0000000000000001
210
0.0
220
0.0
230
1.0
 40
0.8164965809277353
 41
3.141592653589778
 42
3.310987422383138
  0
ELLIPSE
  5
8E4B
330
A
100
AcDbEntity
  8
0
  6
Continuous
 62
     7
370
     0
100
AcDbEllipse
 10
67.41349896221277
 20
-96.66448636249171
 30
0.0
 11
2.276839915321349
 21
-2.788548009269267
 31
-0.0000000000000001
210
0.0
220
0.0
230
1.0
 40
0.8164965809277353
 41
2.356194490192311
 42
3.141592653589796
  0
ELLIPSE
  5
8E4C
330
A
100
AcDbEntity
  8
0
  6
Continuous
 62
     7
370
     0
100
AcDbEllipse
 10
93.53077293941925
 20
-151.8749201590299
 30
0.0
 11
2.276839915321349
 21
-2.788548009269267
 31
-0.0000000000000001
210
0.0
220
0.0
230
1.0
 40
0.8164965809277353
 41
6.283185307179584
 42
7.068583470576997
  0
ELLIPSE
  5
8E4D
330
A
100
AcDbEntity
  8
0
  6
Continuous
 62
     7
370
     0
100
AcDbEllipse
 10
94.24631469221907
 20
-151.2906827643577
 30
0.0
 11
2.276839915321349
 21
-2.788548009269267
 31
0.0000000000000001
210
0.0
220
0.0
230
1.0
 40
0.8164965809277353
 41
6.283185307179584
 42
7.068583470577002
  0
ELLIPSE
  5
8E4E
330
A
100
AcDbEntity
  8
0
  6
Continuous
 62
     7
370
     0
100
AcDbEllipse
 10
94.96185644500901
 20
-152.605216902355
 30
0.0
 11
2.529822128134683
 21
-3.098386676965908
 31
0.0
210
0.0
220
0.0
230
1.0
 40
0.8164965809277248
 41
5.593368217069713
 42
6.283185307179588
  0
LINE
  5
8E4F
330
A
100
AcDbEntity
  8
0
  6
Continuous
 62
     7
370
     0
100
AcDbLine
 10
62.76247756902773
 20
-94.54662580681292
 30
0.0
 11
62.76247756902773
 21
-91.26029046180601
 31
0.0
  0
LINE
  5
8E50
330
A
100
AcDbEntity
  8
0
  6
Continuous
 62
     7
370
     0
100
AcDbLine
 10
62.76247756902773
 20
-91.26029046180601
 30
0.0
 11
94.96185644500901
 21
-97.83296115186491
 31
0.0
  0
ELLIPSE
  5
8E51
330
A
100
AcDbEntity
  8
0
  6
Continuous
 62
     7
370
     0
100
AcDbEllipse
 10
94.96185644500901
 20
-101.4844448685643
 30
0.0
 11
2.529822128134683
 21
-3.098386676965908
 31
-0.0000000000000001
210
0.0
220
0.0
230
1.0
 40
0.8164965809277248
 41
0.785398163397443
 42
2.356194490192355
  0
LINE
  5
8E52
330
A
100
AcDbEntity
  8
0
  6
Continuous
 62
     7
370
     0
100
AcDbLine
 10
98.53956520900716
 20
-102.2147416119041
 30
0.0
 11
98.53956520900704
 21
-153.3355136456949
 31
0.0
  0
ELLIPSE
  5
8E53
330
A
100
AcDbEntity
  8
0
  6
Continuous
 62
     7
370
     0
100
AcDbEllipse
 10
66.51907177122552
 20
-95.86115994484721
 30
0.0
 11
-2.023857702507791
 21
2.478709341572751
 31
-0.0000000000000001
210
0.0000000000000001
220
0.0000000000000001
230
1.0
 40
0.8164965809277246
 41
0.0
 42
0.596781777214197
  0
ELLIPSE
  5
8E54
330
A
100
AcDbEntity
  8
0
  6
Continuous
 62
     7
370
     0
100
AcDbEllipse
 10
94.78297100680924
 20
-152.386127879353
 30
0.0
 11
-2.023857702507791
 21
2.478709341572751
 31
0.0000000000000001
210
0.0
220
0.0
230
1.0
 40
0.8164965809277246
 41
3.141592653589792
 42
3.926990816987224
  0
LINE
  5
8E55
330
A
100
AcDbEntity
  8
0
  6
Continuous
 62
     7
370
     0
100
AcDbLine
 10
97.64513801800752
 20
-152.970365274025
 30
0.0
 11
97.64513801800774
 21
-102.2147416119041
 31
0.0
  0
ELLIPSE
  5
8E56
330
A
100
AcDbEntity
  8
0
  6
Continuous
 62
     7
370
     0
100
AcDbEllipse
 10
94.78297100680924
 20
-101.6305042172323
 30
0.0
 11
-2.023857702507791
 21
2.478709341572751
 31
-0.0000000000000001
210
0.0
220
0.0
230
1.0
 40
0.8164965809277246
 41
3.926990816987224
 42
5.497787143782129
  0
LINE
  5
8E57
330
A
100
AcDbEntity
  8
0
  6
Continuous
 62
     7
370
     0
100
AcDbLine
 10
94.78297100680924
 20
-98.70931724387281
 30
0.0
 11
66.51907177122552
 21
-92.9399729714877
 31
0.0
  0
LINE
  5
8E58
330
A
100
AcDbEntity
  8
0
  6
Continuous
 62
     9
370
     0
100
AcDbLine
 10
99.97064871460702
 20
-101.0462668225598
 30
0.0
 11
98.53956520900716
 21
-102.2147416119041
 31
0.0
  0
LINE
  5
8E59
330
A
100
AcDbEntity
  8
0
  6
Continuous
 62
     9
370
     0
100
AcDbLine
 10
94.96185644500901
 20
-97.83296115186491
 30
0.0
 11
96.39293995060894
 21
-96.66448636252059
 31
0.0
  0
ELLIPSE
  5
8E5A
330
A
100
AcDbEntity
  8
0
  6
Continuous
 62
     7
370
     0
100
AcDbEllipse
 10
96.39293995060894
 20
-100.3159700792199
 30
0.0
 11
-2.529822128134683
 21
3.098386676965908
 31
-0.0000000000000001
210
0.0
220
0.0
230
1.0
 40
0.816496580927725
 41
3.926990816987241
 42
5.497787143782124
  0
ELLIPSE
  5
8E5B
330
A
100
AcDbEntity
  8
0
  6
Continuous
 62
     7
370
     0
100
AcDbEllipse
 10
94.96185644500901
 20
-152.240068530685
 30
0.0
 11
2.023857702507679
 21
-2.478709341572694
 31
0.0000000000000001
210
0.0
220
0.0
230
1.0
 40
0.8164965809277251
 41
5.623114974952173
 42
6.238976734560947
  0
LINE
  5
8E5C
330
A
100
AcDbEntity
  8
0
  6
Continuous
 62
     7
370
     0
100
AcDbLine
 10
62.76247756902773
 20
-91.26029046180601
 30
0.0
 11
63.4240029008863
 21
-90.72015729014621
 31
0.0
  0
ELLIPSE
  5
8E5D
330
A
100
AcDbEntity
  8
0
  6
Continuous
 62
     7
370
     0
100
AcDbEllipse
 10
65.53520186112558
 20
-93.01300264582222
 30
0.0
 11
6.000000000000003
 21
-0.0000000000000139
 31
-0.0000000000000002
210
0.0
220
0.0000000000000001
230
1.0
 40
0.4082482904636709
 41
1.36607025980051
 42
1.930360694919576
  0
LINE
  5
8E5E
330
A
100
AcDbEntity
  8
0
  6
Continuous
 62
     7
370
     0
100
AcDbLine
 10
66.75499559204059
 20
-90.6146663038961
 30
0.0
 11
96.39293995060894
 21
-96.66448636252059
 31
0.0
  0
LINE
  5
8E5F
330
A
100
AcDbEntity
  8
0
  6
Continuous
 62
     9
370
     0
100
AcDbLine
 10
98.53956520900704
 20
-153.3355136456949
 30
0.0
 11
99.97064871460702
 21
-152.1670388563506
 31
0.0
  0
LINE
  5
8E60
330
A
100
AcDbEntity
  8
0
  6
Continuous
 62
     7
370
     0
100
AcDbLine
 10
99.97064871460702
 20
-152.1670388563506
 30
0.0
 11
99.97064871460702
 21
-101.0462668225598
 31
0.0
  0
ELLIPSE
  5
8E61
330
A
100
AcDbEntity
  8
0
  6
Continuous
 62
     7
370
     0
100
AcDbEllipse
 10
66.51907177122552
 20
-95.86115994484721
 30
0.0
 11
-2.023857702507791
 21
2.478709341572751
 31
0.0
210
0.0
220
0.0
230
1.0
 40
0.8164965809277246
 41
5.497787143782124
 42
6.283185307179584
  0
ELLIPSE
  5
8E62
330
A
100
AcDbEntity
  8
0
  6
Continuous
 62
     7
370
     0
100
AcDbEllipse
 10
66.69795720942551
 20
-95.7151005961791
 30
0.0
 11
2.023857702507736
 21
-2.478709341572724
 31
-0.0000000000000001
210
0.0
220
0.0
230
1.0
 40
0.816496580927725
 41
3.185801226199892
 42
3.801662985811455
  0
ELLIPSE
  5
8E63
330
A
100
AcDbEntity
  8
0
  6
Continuous
 62
     7
370
     0
100
AcDbEllipse
 10
94.96185644500901
 20
-152.605216902355
 30
0.0
 11
2.529822128134683
 21
-3.098386676965908
 31
-0.0000000000000001
210
0.0
220
0.0
230
1.0
 40
0.8164965809277248
 41
0.0000000000000011
 42
0.7853981633974483
  0
ELLIPSE
  5
8E64
330
A
100
AcDbEntity
  8
0
  6
Continuous
 62
     7
370
     0
100
AcDbEllipse
 10
96.39293995060894
 20
-151.4367421130107
 30
0.0
 11
-2.529822128134683
 21
3.098386676965908
 31
0.0000000000000001
210
0.0
220
0.0
230
1.0
 40
0.8164965809277248
 41
3.14159265358979
 42
3.926990816987236
  0
ELLIPSE
  5
8E65
330
A
100
AcDbEntity
  8
0
  6
Continuous
 62
     7
370
     0
100
AcDbEllipse
 10
94.78297100680924
 20
-152.386127879353
 30
0.0
 11
-2.023857702507791
 21
2.478709341572751
 31
0.0000000000000001
210
0.0000000000000001
220
0.0
230
1.0
 40
0.8164965809277246
 41
2.544810876369787
 42
3.141592653589792
  0
LINE
  5
8E66
330
A
100
AcDbEntity
  8
0
  6
Continuous
 62
     7
370
     0
100
AcDbLine
 10
60.67289069323215
 20
-154.0044236258014
 30
0.0
 11
60.67289069323215
 21
-137.6275191563969
 31
0.0
  0
LINE
  5
8E67
330
A
100
AcDbEntity
  8
0
  6
Continuous
 62
     7
370
     0
100
AcDbLine
 10
71.6600099862303
 20
-139.8702554906414
 30
0.0
 11
60.67289069323215
 21
-137.6275191563969
 31
0.0
  0
ELLIPSE
  5
8E68
330
A
100
AcDbEntity
  8
0
  6
Continuous
 62
     7
370
     0
100
AcDbEllipse
 10
71.6600099862303
 20
-138.409662003961
 30
0.0
 11
-1.011928851253894
 21
1.239354670786366
 31
0.0000000000000001
210
0.0
220
0.0
230
1.0
 40
0.8164965809277248
 41
3.141592653589731
 42
3.95712395538231
  0
ELLIPSE
  5
8E69
330
A
100
AcDbEntity
  8
0
  6
Continuous
 62
     7
370
     0
100
AcDbEllipse
 10
441.3921414190927
 20
-202.5065455199517
 30
0.0
 11
260.5469080228697
 21
-319.1034893579432
 31
-0.0000000000000143
210
0.0
220
0.0
230
1.0
 40
0.8164965809277246
 41
3.896857678592133
 42
3.957123955382332
  0
ELLIPSE
  5
8E6A
330
A
100
AcDbEntity
  8
0
  6
Continuous
 62
     7
370
     0
100
AcDbEllipse
 10
71.6600099862303
 20
-115.6609184489131
 30
0.0
 11
-1.01192885125384
 21
1.23935467078634
 31
0.0000000000000001
210
0.0
220
0.0
230
1.0
 40
0.8164965809277248
 41
3.896857678592157
 42
5.497787143782118
  0
LINE
  5
8E6B
330
A
100
AcDbEntity
  8
0
  6
Continuous
 62
     7
370
     0
100
AcDbLine
 10
60.67289069323237
 20
-111.9575886279882
 30
0.0
 11
71.6600099862303
 21
-114.2003249622327
 31
0.0
  0
LINE
  5
8E6C
330
A
100
AcDbEntity
  8
0
  6
Continuous
 62
     7
370
     0
100
AcDbLine
 10
60.67289069323237
 20
-111.9575886279882
 30
0.0
 11
60.67289069323243
 21
-95.58068415858381
 31
0.0
  0
LINE
  5
8E6D
330
A
100
AcDbEntity
  8
0
  6
Continuous
 62
     7
370
     0
100
AcDbLine
 10
90.31083505181511
 20
-101.6305042172111
 30
0.0
 11
60.67289069323237
 21
-95.58068415858381
 31
0.0
  0
ELLIPSE
  5
8E6E
330
A
100
AcDbEntity
  8
0
  6
Continuous
 62
     7
370
     0
100
AcDbEllipse
 10
90.31083505181511
 20
-105.2819879339122
 30
0.0
 11
2.529822128134683
 21
-3.098386676965922
 31
0.0
210
0.0
220
0.0
230
0.9999999999999998
 40
0.8164965809277248
 41
0.7853981633974449
 42
2.356194490192357
  0
LINE
  5
8E6F
330
A
100
AcDbEntity
  8
0
  6
Continuous
 62
     7
370
     0
100
AcDbLine
 10
93.88854381581484
 20
-106.0122846772524
 30
0.0
 11
93.88854381581461
 21
-157.1330567110678
 31
0.0
  0
ELLIPSE
  5
8E70
330
A
100
AcDbEntity
  8
0
  6
Continuous
 62
     7
370
     0
100
AcDbEllipse
 10
90.31083505181511
 20
-156.4027599677276
 30
0.0
 11
2.529822128134683
 21
-3.098386676965908
 31
-0.0000000000000001
210
0.0
220
0.0
230
1.0
 40
0.8164965809277246
 41
5.497787143782152
 42
6.283185307179584
  0
LINE
  5
8E71
330
A
100
AcDbEntity
  8
0
  6
Continuous
 62
     7
370
     0
100
AcDbLine
 10
60.67289069323215
 20
-154.0044236258014
 30
0.0
 11
90.31083505181511
 21
-160.0542436844287
 31
0.0
  0
LINE
  5
8E72
330
A
100
AcDbEntity
  8
0
  6
Continuous
 62
     9
370
     0
100
AcDbLine
 10
95.31962732141449
 20
-104.8438098879081
 30
0.0
 11
93.88854381581484
 21
-106.0122846772524
 31
0.0
  0
LINE
  5
8E73
330
A
100
AcDbEntity
  8
0
  6
Continuous
 62
     9
370
     0
100
AcDbLine
 10
90.31083505181511
 20
-101.6305042172111
 30
0.0
 11
91.74191855741486
 21
-100.4620294278668
 31
0.0
  0
ELLIPSE
  5
8E74
330
A
100
AcDbEntity
  8
0
  6
Continuous
 62
     7
370
     0
100
AcDbEllipse
 10
91.74191855741502
 20
-104.1135131445679
 30
0.0
 11
-2.529822128134683
 21
3.098386676965908
 31
0.0000000000000001
210
0.0
220
0.0
230
1.0
 40
0.8164965809277246
 41
3.926990816987241
 42
5.497787143782124
  0
ELLIPSE
  5
8E75
330
A
100
AcDbEntity
  8
0
  6
Continuous
 62
     7
370
     0
100
AcDbEllipse
 10
64.64077467011748
 20
-93.74329938913659
 30
0.0
 11
6.000000000000003
 21
0.0
 31
0.0
210
0.0
220
0.0
230
1.0
 40
0.4082482904638694
 41
3.425529394258002
 42
3.989819829377658
  0
LINE
  5
8E76
330
A
100
AcDbEntity
  8
0
  6
Continuous
 62
     7
370
     0
100
AcDbLine
 10
58.88101434955927
 20
-94.42949190946441
 30
0.0
 11
59.54253968141802
 21
-93.88935873780459
 31
0.0
  0
LINE
  5
8E77
330
A
100
AcDbEntity
  8
0
  6
Continuous
 62
     7
370
     0
100
AcDbLine
 10
91.74191855741502
 20
-100.4620294278668
 30
0.0
 11
59.54253968141802
 21
-93.88935873780459
 31
0.0
  0
LINE
  5
8E78
330
A
100
AcDbEntity
  8
0
  6
Continuous
 62
     7
370
     0
100
AcDbLine
 10
95.31962732141449
 20
-155.9645819217235
 30
0.0
 11
95.31962732141449
 21
-104.8438098879081
 31
0.0
  0
LINE
  5
8E79
330
A
100
AcDbEntity
  8
0
  6
Continuous
 62
     9
370
     0
100
AcDbLine
 10
93.88854381581484
 20
-157.1330567110678
 30
0.0
 11
95.31962732141449
 21
-155.9645819217235
 31
0.0
  0
ELLIPSE
  5
8E7A
330
A
100
AcDbEntity
  8
0
  6
Continuous
 62
     7
370
     0
100
AcDbEllipse
 10
64.64077467011742
 20
-110.120203858541
 30
0.0
 11
6.000000000000003
 21
0.0
 31
0.0
210
0.0
220
0.0
230
1.0
 40
0.4082482904638694
 41
3.425529394258016
 42
3.989819829377658
  0
LINE
  5
8E7B
330
A
100
AcDbEntity
  8
0
  6
Continuous
 62
     7
370
     0
100
AcDbLine
 10
58.88101434955927
 20
-94.42949190946441
 30
0.0
 11
58.88101434955927
 21
-110.8063963788688
 31
0.0
  0
ELLIPSE
  5
8E7C
330
A
100
AcDbEntity
  8
0
  6
Continuous
 62
     7
370
     0
100
AcDbEllipse
 10
90.31083505181511
 20
-156.4027599677276
 30
0.0
 11
2.529822128134683
 21
-3.098386676965908
 31
0.0000000000000001
210
0.0
220
0.0
230
1.0
 40
0.8164965809277246
 41
6.283185307179584
 42
7.06858347057703
  0
ELLIPSE
  5
8E7D
330
A
100
AcDbEntity
  8
0
  6
Continuous
 62
     7
370
     0
100
AcDbEllipse
 10
91.74191855741486
 20
-155.2342851783833
 30
0.0
 11
-2.529822128134683
 21
3.098386676965908
 31
0.0
210
0.0
220
0.0
230
1.0
 40
0.8164965809277248
 41
3.141592653589836
 42
3.926990816987246
  0
ELLIPSE
  5
8E7E
330
A
100
AcDbEntity
  8
0
  6
Continuous
 62
     7
370
     0
100
AcDbEllipse
 10
71.6600099862303
 20
-138.409662003961
 30
0.0
 11
-1.011928851253894
 21
1.239354670786366
 31
0.0
210
0.0000000000000001
220
0.0
230
1.0
 40
0.8164965809277253
 41
2.356194490192326
 42
3.141592653589758
  0
LINE
  5
8E7F
330
A
100
AcDbEntity
  8
0
  6
Continuous
 62
     7
370
     0
100
AcDbLine
 10
73.09093927502664
 20
-138.7231912577488
 30
0.0
 11
72.32500638247723
 21
-139.3485728457356
 31
0.0
  0
LINE
  5
8E80
330
A
100
AcDbEntity
  8
0
  6
Continuous
 62
     9
370
     0
100
AcDbLine
 10
71.6600099862303
 20
-139.8702554906414
 30
0.0
 11
73.09109349183007
 21
-138.7017807012971
 31
0.0
  0
ELLIPSE
  5
8E81
330
A
100
AcDbEntity
  8
0
  6
Continuous
 62
     7
370
     0
100
AcDbEllipse
 10
72.30399756375021
 20
-137.883848348756
 30
0.0
 11
1.01192885125384
 21
-1.239354670786366
 31
0.0000000000000001
210
0.0
220
0.0
230
1.0
 40
0.8164965809277294
 41
5.51246802950965
 42
5.959357168604755
  0
ELLIPSE
  5
8E82
330
A
100
AcDbEntity
  8
0
  6
Continuous
 62
     7
370
     0
100
AcDbEllipse
 10
64.64077467011742
 20
-135.7901343869498
 30
0.0
 11
-6.000000000000003
 21
0.0000000000000139
 31
0.0000000000000003
210
0.0
220
0.0
230
1.0
 40
0.4082482904638674
 41
0.3793892359392371
 42
0.8482271757878658
  0
LINE
  5
8E83
330
A
100
AcDbEntity
  8
0
  6
Continuous
 62
     7
370
     0
100
AcDbLine
 10
58.88101434955927
 20
-136.6592591095223
 30
0.0
 11
58.88101434955927
 21
-152.853231376682
 31
0.0
  0
ELLIPSE
  5
8E84
330
A
100
AcDbEntity
  8
0
  6
Continuous
 62
     7
370
     0
100
AcDbEllipse
 10
64.64077467011737
 20
-152.1670388563542
 30
0.0
 11
-6.000000000000003
 21
0.0000000000000069
 31
0.0000000000000001
210
0.0
220
-0.0000000000000001
230
1.0
 40
0.4082482904638674
 41
0.2839367406682173
 42
0.8482271757878669
  0
ELLIPSE
  5
8E85
330
A
100
AcDbEntity
  8
0
  6
Continuous
 62
     7
370
     0
100
AcDbEllipse
 10
68.84458311643982
 20
-111.6720839201652
 30
0.0
 11
4.599999999999992
 21
-0.0000000000000139
 31
-0.0000000000000004
210
0.0000000000000001
220
-0.0000000000000001
230
1.0
 40
0.4082482904638644
 41
3.873543400464044
 42
4.623939342303722
  0
ELLIPSE
  5
8E86
330
A
100
AcDbEntity
  8
0
  6
Continuous
 62
     7
370
     0
100
AcDbEllipse
 10
65.26687372195886
 20
-93.59724003756621
 30
0.0
 11
-9.599999999999996
 21
0.0
 31
0.0000000000000007
210
0.0000000000000001
220
0.0
230
1.0
 40
0.4082482904638631
 41
5.106940940494978
 42
6.28318530717958
  0
LINE
  5
8E87
330
A
100
AcDbEntity
  8
0
  6
Continuous
 62
     7
370
     0
100
AcDbLine
 10
55.96282375594438
 20
-94.5628705940685
 30
0.0
 11
55.23365304654163
 21
-95.15823598520851
 31
0.0
  0
ELLIPSE
  5
8E88
330
A
100
AcDbEntity
  8
0
  6
Continuous
 62
     7
370
     0
100
AcDbEllipse
 10
55.90273238546405
 20
-95.33727640812431
 30
0.0
 11
0.7999999999999674
 21
0.0
 31
-0.0000000000000001
210
0.0000000000000001
220
0.0
230
1.0
 40
0.408248290463863
 41
2.561385621872286
 42
2.587285157388267
  0
LINE
  5
8E89
330
A
100
AcDbEntity
  8
0
  6
Continuous
 62
     7
370
     0
100
AcDbLine
 10
51.34057845700624
 20
-97.72542496233771
 30
0.0
 11
55.22252026811355
 21
-95.16536971084839
 31
0.0
  0
ELLIPSE
  5
8E8A
330
A
100
AcDbEntity
  8
0
  6
Continuous
 62
     7
370
     0
100
AcDbEllipse
 10
50.66036633965592
 20
-97.55351826506192
 30
0.0
 11
-0.7999999999999674
 21
0.0
 31
0.0000000000000001
210
0.0000000000000001
220
0.0
230
1.0
 40
0.4082482904638631
 41
1.10714871779412
 42
2.587285157388267
  0
LINE
  5
8E8B
330
A
100
AcDbEntity
  8
0
  6
Continuous
 62
     7
370
     0
100
AcDbLine
 10
48.09387165476045
 20
-97.39478310293542
 30
0.0
 11
50.30259546325595
 21
-97.84563696239791
 31
0.0
  0
LINE
  5
8E8C
330
A
100
AcDbEntity
  8
0
  6
Continuous
 62
     7
370
     0
100
AcDbLine
 10
62.40470671075906
 20
-85.71003520949179
 30
0.0
 11
48.09387165476045
 21
-97.39478310293542
 31
0.0
  0
LINE
  5
8E8D
330
A
100
AcDbEntity
  8
0
  6
Continuous
 62
     7
370
     0
100
AcDbLine
 10
64.61343051925457
 20
-86.1608890689544
 30
0.0
 11
62.40470671075906
 21
-85.71003520949179
 31
0.0
  0
ELLIPSE
  5
8E8E
330
A
100
AcDbEntity
  8
0
  6
Continuous
 62
     7
370
     0
100
AcDbEllipse
 10
64.25565964285465
 20
-86.45300776629049
 30
0.0
 11
-0.8000000000000229
 21
0.0
 31
0.0000000000000001
210
0.0000000000000001
220
0.0
230
1.0
 40
0.408248290463863
 41
2.768604931789711
 42
3.141592653589792
  0
LINE
  5
8E8F
330
A
100
AcDbEntity
  8
0
  6
Continuous
 62
     7
370
     0
100
AcDbLine
 10
62.3131556896987
 20
-89.37589013251921
 30
0.0
 11
65.00065386661919
 21
-86.57202009517382
 31
0.0
  0
ELLIPSE
  5
8E90
330
A
100
AcDbEntity
  8
0
  6
Continuous
 62
     7
370
     0
100
AcDbEllipse
 10
63.05814991346335
 20
-89.49490246140261
 30
0.0
 11
0.8000000000000229
 21
0.0
 31
-0.0000000000000001
210
0.0000000000000001
220
0.0
230
1.0
 40
0.408248290463863
 41
2.768604931789738
 42
2.794504467305752
  0
LINE
  5
8E91
330
A
100
AcDbEntity
  8
0
  6
Continuous
 62
     7
370
     0
100
AcDbLine
 10
62.30585616652922
 20
-89.38380631811231
 30
0.0
 11
61.57668545712664
 21
-89.97917170925219
 31
0.0
  0
LINE
  5
8E92
330
A
100
AcDbEntity
  8
0
  6
Continuous
 62
     9
370
     0
100
AcDbLine
 10
50.30259546325595
 20
-97.84563696239791
 30
0.0
 11
50.30259546325595
 21
-156.2693764296156
 31
0.0
  0
LINE
  5
8E93
330
A
100
AcDbEntity
  8
0
  6
Continuous
 62
     9
370
     0
100
AcDbLine
 10
51.34057845700624
 20
-97.72542496233771
 30
0.0
 11
51.34057845700624
 21
-156.1491644295554
 31
0.0
  0
ELLIPSE
  5
8E94
330
A
100
AcDbEntity
  8
0
  6
Continuous
 62
     7
370
     0
100
AcDbEllipse
 10
50.66036633965592
 20
-155.9772577322796
 30
0.0
 11
-0.8000000000000229
 21
0.0
 31
0.0000000000000001
210
0.0000000000000001
220
0.0
230
1.0
 40
0.4082482904638631
 41
1.107148717794061
 42
2.587285157388267
  0
ELLIPSE
  5
8E95
330
A
100
AcDbEntity
  8
0
  6
Continuous
 62
     7
370
     0
100
AcDbEllipse
 10
53.49295942588724
 20
-147.4267490830436
 30
0.0
 11
-0.9892159654250052
 21
-3.879453761234945
 31
0.0
210
0.0
220
0.0
230
1.0
 40
0.4816110701770013
 41
0.0232806526337347
 42
1.445039993873283
  0
LINE
  5
8E96
330
A
100
AcDbEntity
  8
0
  6
Continuous
 62
     9
370
     0
100
AcDbLine
 10
55.22252026811355
 20
-148.3859852068104
 30
0.0
 11
55.22252026811355
 21
-153.5891091780661
 31
0.0
  0
LINE
  5
8E97
330
A
100
AcDbEntity
  8
0
  6
Continuous
 62
     7
370
     0
100
AcDbLine
 10
51.34057845700624
 20
-156.1491644295554
 30
0.0
 11
55.22252026811355
 21
-153.5891091780661
 31
0.0
  0
LINE
  5
8E98
330
A
100
AcDbEntity
  8
0
  6
Continuous
 62
     9
370
     0
100
AcDbLine
 10
55.22252026811355
 20
-95.16536971084839
 30
0.0
 11
55.22252026811355
 21
-100.3684936821042
 31
0.0
  0
ELLIPSE
  5
8E99
330
A
100
AcDbEntity
  8
0
  6
Continuous
 62
     7
370
     0
100
AcDbEllipse
 10
53.49295942588724
 20
-103.6089444826304
 30
0.0
 11
-0.9892159654250052
 21
-3.879453761234941
 31
0.0
210
0.0
220
0.0
230
1.0
 40
0.4816110701770013
 41
0.0232806526337347
 42
1.445039993873288
  0
LINE
  5
8E9A
330
A
100
AcDbEntity
  8
0
  6
Continuous
 62
     9
370
     0
100
AcDbLine
 10
55.22252026811355
 20
-104.5681806063971
 30
0.0
 11
55.22252026811355
 21
-144.1862982825175
 31
0.0
  0
LINE
  5
8E9B
330
A
100
AcDbEntity
  8
0
  6
Continuous
 62
     7
370
     0
100
AcDbLine
 10
48.09387165476045
 20
-97.39478310293542
 30
0.0
 11
48.09387165476045
 21
-155.8185225701531
 31
0.0
  0
LINE
  5
8E9C
330
A
100
AcDbEntity
  8
0
  6
Continuous
 62
     7
370
     0
100
AcDbLine
 10
48.09387165476045
 20
-155.8185225701531
 30
0.0
 11
50.30259546325595
 21
-156.2693764296156
 31
0.0
  0
ELLIPSE
  5
8E9D
330
A
100
AcDbEntity
  8
0
  6
Continuous
 62
     7
370
     0
100
AcDbEllipse
 10
53.49295942588724
 20
-103.6089444826304
 30
0.0
 11
-0.9892159654250052
 21
-3.879453761234941
 31
0.0
210
0.0
220
0.0
230
1.0
 40
0.4816110701770013
 41
2.670409182985587
 42
3.164873306223528
  0
ELLIPSE
  5
8E9E
330
A
100
AcDbEntity
  8
0
  6
Continuous
 62
     7
370
     0
100
AcDbEllipse
 10
53.49295942588724
 20
-103.6089444826304
 30
0.0
 11
-0.9892159654250052
 21
-3.879453761234941
 31
0.0
210
0.0
220
0.0
230
1.0
 40
0.4816110701770013
 41
3.164873306223528
 42
6.306465959813321
  0
ELLIPSE
  5
8E9F
330
A
100
AcDbEntity
  8
0
  6
Continuous
 62
     7
370
     0
100
AcDbEllipse
 10
52.77709242683602
 20
-103.4628187433493
 30
0.0
 11
-0.8000000000000229
 21
-3.919183588453084
 31
0.0
210
0.0
220
0.0
230
1.0
 40
0.408248290463863
 41
0.463647609000798
 42
2.893600499698886
  0
LINE
  5
8EA0
330
A
100
AcDbEntity
  8
0
  6
Continuous
 62
     7
370
     0
100
AcDbLine
 10
55.22252026811355
 20
-100.3684936821042
 30
0.0
 11
55.23365304654134
 21
-100.3883811941208
 31
0.0
  0
ELLIPSE
  5
8EA1
330
A
100
AcDbEntity
  8
0
  6
Continuous
 62
     7
370
     0
100
AcDbEllipse
 10
53.76096233693579
 20
-103.6636503477678
 30
0.0
 11
0.8000000000000229
 21
3.919183588453084
 31
0.0
210
0.0
220
0.0
230
1.0
 40
0.408248290463848
 41
4.572368898167541
 42
5.779704280603435
  0
LINE
  5
8EA2
330
A
100
AcDbEntity
  8
0
  6
Continuous
 62
     7
370
     0
100
AcDbLine
 10
55.23365304654134
 20
-104.5340256431009
 30
0.0
 11
55.22252026811355
 21
-104.5681806063971
 31
0.0
  0
ELLIPSE
  5
8EA3
330
A
100
AcDbEntity
  8
0
  6
Continuous
 62
     7
370
     0
100
AcDbEllipse
 10
52.77709242683602
 20
-103.4628187433493
 30
0.0
 11
-0.8000000000000229
 21
-3.919183588453084
 31
0.0
210
0.0
220
0.0
230
1.0
 40
0.408248290463863
 41
0.1647069956936993
 42
0.463647609000798
  0
ELLIPSE
  5
8EA4
330
A
100
AcDbEntity
  8
0
  6
Continuous
 62
     7
370
     0
100
AcDbEllipse
 10
51.09556930775608
 20
-103.1195792739794
 30
0.0
 11
-0.4239999999999799
 21
-2.077167301880136
 31
0.0
210
0.0
220
0.0
230
1.0
 40
0.408248290463863
 41
0.7736158149579814
 42
2.246565873346793
  0
LINE
  5
8EA5
330
A
100
AcDbEntity
  8
0
  6
Continuous
 62
     7
370
     0
100
AcDbLine
 10
55.23365304654134
 20
-100.3883811941208
 30
0.0
 11
55.23365304654163
 21
-95.15823598520851
 31
0.0
  0
LINE
  5
8EA6
330
A
100
AcDbEntity
  8
0
  6
Continuous
 62
     7
370
     0
100
AcDbLine
 10
55.96282375594438
 20
-94.5628705940685
 30
0.0
 11
55.96282375594438
 21
-111.1771215050585
 31
0.0
  0
LINE
  5
8EA7
330
A
100
AcDbEntity
  8
0
  6
Continuous
 62
     9
370
     0
100
AcDbLine
 10
55.23365304654163
 20
-111.7724868961985
 30
0.0
 11
55.96282375594438
 21
-111.1771215050585
 31
0.0
  0
LINE
  5
8EA8
330
A
100
AcDbEntity
  8
0
  6
Continuous
 62
     7
370
     0
100
AcDbLine
 10
55.23365304654163
 20
-111.7724868961985
 30
0.0
 11
55.23365304654134
 21
-104.5340256431009
 31
0.0
  0
ELLIPSE
  5
8EA9
330
A
100
AcDbEntity
  8
0
  6
Continuous
 62
     7
370
     0
100
AcDbEllipse
 10
69.56012423875853
 20
-111.8181437839047
 30
0.0
 11
7.199999999999982
 21
0.0
 31
-0.0000000000000005
210
0.0000000000000001
220
0.0
230
1.0
 40
0.4082482904638628
 41
4.466659069592044
 42
5.111209136017332
  0
ELLIPSE
  5
8EAA
330
A
100
AcDbEntity
  8
0
  6
Continuous
 62
     7
370
     0
100
AcDbEllipse
 10
68.00323224633462
 20
-114.3524447172302
 30
0.0
 11
0.7999999999999674
 21
0.0
 31
-0.0000000000000001
210
0.0000000000000001
220
0.0
230
1.0
 40
0.408248290463863
 41
3.671260239407847
 42
4.466659069592028
  0
ELLIPSE
  5
8EAB
330
A
100
AcDbEntity
  8
0
  6
Continuous
 62
     7
370
     0
100
AcDbEllipse
 10
64.55133196915892
 20
-115.1775088032697
 30
0.0
 11
-3.200000000000035
 21
0.0
 31
0.0
210
0.0
220
0.0
230
1.0
 40
0.408248290463863
 41
3.671260239407911
 42
4.892242480177168
  0
ELLIPSE
  5
8EAC
330
A
100
AcDbEntity
  8
0
  6
Continuous
 62
     7
370
     0
100
AcDbEllipse
 10
63.83579021635904
 20
-113.5708559679213
 30
0.0
 11
0.7999999999999674
 21
0.0
 31
0.0
210
0.0
220
0.0
230
1.0
 40
0.4082482904638628
 41
4.248741371383851
 42
4.892242480177155
  0
LINE
  5
8EAD
330
A
100
AcDbEntity
  8
0
  6
Continuous
 62
     7
370
     0
100
AcDbLine
 10
63.4780193399589
 20
-113.8629746652573
 30
0.0
 11
56.26535847173562
 21
-112.3906964306835
 31
0.0
  0
LINE
  5
8EAE
330
A
100
AcDbEntity
  8
0
  6
Continuous
 62
     9
370
     0
100
AcDbLine
 10
56.81483931980074
 20
-111.9420471969531
 30
0.0
 11
56.26535847173562
 21
-112.3906964306835
 31
0.0
  0
ELLIPSE
  5
8EAF
330
A
100
AcDbEntity
  8
0
  6
Continuous
 62
     9
370
     0
100
AcDbEllipse
 10
65.26687372195886
 20
-110.9417876918965
 30
0.0
 11
-8.799999999999975
 21
0.0
 31
0.0000000000000006
210
0.0000000000000001
220
0.0
230
1.0
 40
0.408248290463863
 41
5.524390602408153
 42
6.565337455336824
  0
LINE
  5
8EB0
330
A
100
AcDbEntity
  8
0
  6
Continuous
 62
     9
370
     0
100
AcDbLine
 10
67.8086207472819
 20
-114.6692323338959
 30
0.0
 11
67.8086207472819
 21
-122.5199223248033
 31
0.0
  0
ELLIPSE
  5
8EB1
330
A
100
AcDbEntity
  8
0
  6
Continuous
 62
     7
370
     0
100
AcDbEllipse
 10
69.56012423875853
 20
-119.6688337748121
 30
0.0
 11
7.199999999999982
 21
0.0
 31
-0.0000000000000001
210
0.0
220
0.0
230
1.0
 40
0.4082482904638628
 41
4.466659069592044
 42
5.20358900695906
  0
ELLIPSE
  5
8EB2
330
A
100
AcDbEntity
  8
0
  6
Continuous
 62
     7
370
     0
100
AcDbEllipse
 10
65.26687372195886
 20
-93.59724003756621
 30
0.0
 11
-9.599999999999996
 21
0.0
 31
0.0000000000000007
210
0.0000000000000001
220
0.0
230
1.0
 40
0.4082482904638631
 41
6.283185307179584
 42
6.53213445586258
  0
ELLIPSE
  5
8EB3
330
A
100
AcDbEntity
  8
0
  6
Continuous
 62
     9
370
     0
100
AcDbEllipse
 10
65.26687372195886
 20
-110.2114909485562
 30
0.0
 11
9.599999999999996
 21
0.0
 31
-0.0000000000000007
210
0.0000000000000001
220
0.0
230
1.0
 40
0.4082482904638631
 41
2.298549512430885
 42
2.892643504906798
  0
LINE
  5
8EB4
330
A
100
AcDbEntity
  8
0
  6
Continuous
 62
     7
370
     0
100
AcDbLine
 10
61.57668545712664
 20
-89.97917170925219
 30
0.0
 11
61.57668545712664
 21
-94.3045770055483
 31
0.0
  0
LINE
  5
8EB5
330
A
100
AcDbEntity
  8
0
  6
Continuous
 62
     9
370
     0
100
AcDbLine
 10
67.31285219089961
 20
-114.5174575344381
 30
0.0
 11
67.31285219089961
 21
-122.3681475253455
 31
0.0
  0
ELLIPSE
  5
8EB6
330
A
100
AcDbEntity
  8
0
  6
Continuous
 62
     7
370
     0
100
AcDbEllipse
 10
68.00323224633462
 20
-122.2031347081376
 30
0.0
 11
0.7999999999999674
 21
0.0
 31
-0.0000000000000001
210
0.0000000000000001
220
0.0
230
1.0
 40
0.408248290463863
 41
3.671260239407892
 42
4.466659069592028
  0
LINE
  5
8EB7
330
A
100
AcDbEntity
  8
0
  6
Continuous
 62
     9
370
     0
100
AcDbLine
 10
63.97889856691887
 20
-113.8921865349909
 30
0.0
 11
63.97889856691887
 21
-121.7428765258984
 31
0.0
  0
ELLIPSE
  5
8EB8
330
A
100
AcDbEntity
  8
0
  6
Continuous
 62
     7
370
     0
100
AcDbEllipse
 10
64.55133196915892
 20
-123.0281987941771
 30
0.0
 11
-3.200000000000035
 21
0.0
 31
0.0000000000000002
210
0.0000000000000001
220
0.0
230
1.0
 40
0.4082482904638631
 41
3.671260239407911
 42
4.892242480177168
  0
LINE
  5
8EBF
330
A
100
AcDbEntity
  8
0
  6
Continuous
 62
     7
370
     0
100
AcDbLine
 10
55.23365304654163
 20
-136.9677245414361
 30
0.0
 11
55.23365304654134
 21
-144.2061857945341
 31
0.0
  0
LINE
  5
8EC0
330
A
100
AcDbEntity
  8
0
  6
Continuous
 62
     7
370
     0
100
AcDbLine
 10
55.22252026811355
 20
-144.1862982825175
 30
0.0
 11
55.23365304654134
 21
-144.2061857945341
 31
0.0
  0
LINE
  5
8EC7
330
A
100
AcDbEntity
  8
0
  6
Continuous
 62
     9
370
     0
100
AcDbLine
 10
56.26050326186396
 20
-112.3896885530782
 30
0.0
 11
56.26050326186396
 21
-136.1243663357159
 31
0.0
  0
LINE
  5
8EC8
330
A
100
AcDbEntity
  8
0
  6
Continuous
 62
     9
370
     0
100
AcDbLine
 10
63.4780193399589
 20
-113.8629746652573
 30
0.0
 11
63.4780193399589
 21
-121.7136646561647
 31
0.0
  0
ELLIPSE
  5
8EC9
330
A
100
AcDbEntity
  8
0
  6
Continuous
 62
     7
370
     0
100
AcDbEllipse
 10
63.83579021635904
 20
-121.4215459588287
 30
0.0
 11
0.7999999999999674
 21
0.0
 31
-0.0000000000000001
210
0.0000000000000001
220
0.0
230
1.0
 40
0.408248290463863
 41
4.248741371383851
 42
4.892242480177155
  0
LINE
  5
8ECA
330
A
100
AcDbEntity
  8
0
  6
Continuous
 62
     9
370
     0
100
AcDbLine
 10
63.4780193399589
 20
-129.7469288329072
 30
0.0
 11
63.4780193399589
 21
-137.5976188238146
 31
0.0
  0
LINE
  5
8ECB
330
A
100
AcDbEntity
  8
0
  6
Continuous
 62
     7
370
     0
100
AcDbLine
 10
63.4780193399589
 20
-137.5976188238146
 30
0.0
 11
56.26535847173562
 21
-136.1253405892407
 31
0.0
  0
ELLIPSE
  5
8ECC
330
A
100
AcDbEntity
  8
0
  6
Continuous
 62
     7
370
     0
100
AcDbEllipse
 10
56.26535847173562
 20
-136.8556373325809
 30
0.0
 11
-0.505964425626948
 21
0.6196773353931845
 31
0.0
210
0.0
220
0.0
230
1.0
 40
0.8164965809277271
 41
5.497787143782129
 42
5.504572557924801
  0
ELLIPSE
  5
8ECD
330
A
100
AcDbEntity
  8
0
  6
Continuous
 62
     7
370
     0
100
AcDbEllipse
 10
56.26535847173562
 20
-111.6603996873433
 30
0.0
 11
-0.505964425626948
 21
0.6196773353931845
 31
0.0
210
0.0
220
0.0
230
1.0
 40
0.8164965809277264
 41
2.349409076049739
 42
2.356194490192399
  0
LINE
  5
8ECE
330
A
100
AcDbEntity
  8
0
  6
Continuous
 62
     7
370
     0
100
AcDbLine
 10
58.03990201867953
 20
-120.6036136062876
 30
0.0
 11
58.03990201867953
 21
-128.63687778303
 31
0.0
  0
LINE
  5
8ECF
330
A
100
AcDbEntity
  8
0
  6
Continuous
 62
     7
370
     0
100
AcDbLine
 10
58.03990201867953
 20
-128.63687778303
 30
0.0
 11
63.4780193399589
 21
-129.7469288329072
 31
0.0
  0
LINE
  5
8ED0
330
A
100
AcDbEntity
  8
0
  6
Continuous
 62
     7
370
     0
100
AcDbLine
 10
63.4780193399589
 20
-121.7136646561647
 30
0.0
 11
58.03990201867953
 21
-120.6036136062876
 31
0.0
  0
LINE
  5
8ED1
330
A
100
AcDbEntity
  8
0
  6
Continuous
 62
     7
370
     0
100
AcDbLine
 10
55.96282375594438
 20
-111.1771215050586
 30
0.0
 11
56.07111113777404
 21
-111.5387154090653
 31
0.0
  0
ELLIPSE
  5
8ED2
330
A
100
AcDbEntity
  8
0
  6
Continuous
 62
     7
370
     0
100
AcDbEllipse
 10
69.56012423875853
 20
-127.7020979515545
 30
0.0
 11
-7.20000000000004
 21
0.0000000000000139
 31
0.0000000000000003
210
0.0
220
0.0
230
1.0
 40
0.4082482904638649
 41
1.325066416002254
 42
2.058639172819985
  0
ELLIPSE
  5
8ED3
330
A
100
AcDbEntity
  8
0
  6
Continuous
 62
     7
370
     0
100
AcDbEllipse
 10
68.00323224633462
 20
-130.2363988848801
 30
0.0
 11
-0.8000000000000229
 21
0.0
 31
0.0
210
0.0
220
0.0
230
1.0
 40
0.4082482904638637
 41
1.082191463638328
 42
1.325066416002235
  0
ELLIPSE
  5
8ED4
330
A
100
AcDbEntity
  8
0
  6
Continuous
 62
     7
370
     0
100
AcDbEllipse
 10
63.83579021635904
 20
-129.4548101355711
 30
0.0
 11
-0.8000000000000229
 21
0.0
 31
0.0
210
0.0
220
0.0
230
1.0
 40
0.4082482904638635
 41
1.107148717794059
 42
1.692631893381288
  0
LINE
  5
8ED5
330
A
100
AcDbEntity
  8
0
  6
Continuous
 62
     7
370
     0
100
AcDbLine
 10
60.84458272939463
 20
-126.3468655721371
 30
0.0
 11
59.90031057626953
 21
-127.1178605566291
 31
0.0
  0
LINE
  5
8ED6
330
A
100
AcDbEntity
  8
0
  6
Continuous
 62
     7
370
     0
100
AcDbLine
 10
59.90031057626953
 20
-127.1178605566291
 30
0.0
 11
58.03990201867953
 21
-128.63687778303
 31
0.0
  0
ELLIPSE
  5
8ED7
330
A
100
AcDbEntity
  8
0
  6
Continuous
 62
     7
370
     0
100
AcDbEllipse
 10
69.5601242387583
 20
-135.5527879424619
 30
0.0
 11
7.20000000000004
 21
0.0
 31
-0.0000000000000005
210
0.0000000000000001
220
0.0
230
1.0
 40
0.4082482904638628
 41
4.466659069592051
 42
5.222385518966164
  0
LINE
  5
8ED8
330
A
100
AcDbEntity
  8
0
  6
Continuous
 62
     9
370
     0
100
AcDbLine
 10
67.8086207472819
 20
-130.5531865015458
 30
0.0
 11
67.8086207472819
 21
-138.4038764924531
 31
0.0
  0
ELLIPSE
  5
8EF7
330
A
100
AcDbEntity
  8
0
  6
Continuous
 62
     7
370
     0
100
AcDbEllipse
 10
68.00323224633462
 20
-138.0870888757874
 30
0.0
 11
0.7999999999999674
 21
0.0
 31
0.0
210
0.0
220
0.0
230
1.0
 40
0.4082482904638628
 41
3.671260239407892
 42
4.466659069592028
  0
LINE
  5
8EF8
330
A
100
AcDbEntity
  8
0
  6
Continuous
 62
     9
370
     0
100
AcDbLine
 10
67.31285219089961
 20
-130.4717673827336
 30
0.0
 11
67.31285219089961
 21
-138.2521016929953
 31
0.0
  0
ELLIPSE
  5
8EF9
330
A
100
AcDbEntity
  8
0
  6
Continuous
 62
     7
370
     0
100
AcDbEllipse
 10
64.55133196915892
 20
-138.912152961827
 30
0.0
 11
-3.200000000000035
 21
0.0
 31
0.0
210
0.0
220
0.0
230
1.0
 40
0.408248290463863
 41
3.671260239407911
 42
4.892242480177168
  0
LINE
  5
8EFA
330
A
100
AcDbEntity
  8
0
  6
Continuous
 62
     9
370
     0
100
AcDbLine
 10
63.97889856691887
 20
-129.7836505064055
 30
0.0
 11
63.97889856691887
 21
-137.6268306935482
 31
0.0
  0
LINE
  5
8EFB
330
A
100
AcDbEntity
  8
0
  6
Continuous
 62
     7
370
     0
100
AcDbLine
 10
62.30585616652922
 20
-89.38380631811231
 30
0.0
 11
62.30585616652934
 21
-94.45341835333328
 31
0.0
  0
ELLIPSE
  5
8EFC
330
A
100
AcDbEntity
  8
0
  6
Continuous
 62
     7
370
     0
100
AcDbEllipse
 10
63.83579021635904
 20
-137.3055001264785
 30
0.0
 11
0.7999999999999674
 21
0.0
 31
0.0
210
0.0
220
0.0
230
1.0
 40
0.4082482904638628
 41
4.248741371383876
 42
4.892242480177155
  0
LINE
  5
8EFD
330
A
100
AcDbEntity
  8
0
  6
Continuous
 62
     9
370
     0
100
AcDbLine
 10
62.3131556896987
 20
-89.37589013251921
 30
0.0
 11
62.3131556896987
 21
-94.4549083622609
 31
0.0
  0
LINE
  5
8EFE
330
A
100
AcDbEntity
  8
0
  6
Continuous
 62
     9
370
     0
100
AcDbLine
 10
65.00065386661919
 20
-86.57202009517382
 30
0.0
 11
65.00065386661919
 21
-90.57325339499191
 31
0.0
  0
ELLIPSE
  5
8EFF
330
A
100
AcDbEntity
  8
0
  6
Continuous
 62
     7
370
     0
100
AcDbEllipse
 10
63.51054396508607
 20
-95.42962095721991
 30
0.0
 11
0.6362491642629699
 21
3.952213099278763
 31
0.0
210
0.0
220
0.0
230
1.0
 40
0.3335043680025099
 41
0.9861963520910855
 42
1.377014543950055
  0
ELLIPSE
  5
8F00
330
A
100
AcDbEntity
  8
0
  6
Continuous
 62
     7
370
     0
100
AcDbEllipse
 10
62.0469358343592
 20
-127.6290682772086
 30
0.0
 11
2.439999999999995
 21
0.0
 31
-0.0000000000000002
210
0.0000000000000001
220
0.0
230
1.0
 40
0.4082482904638633
 41
2.880195156560326
 42
3.141592653589792
  0
ELLIPSE
  5
8F01
330
A
100
AcDbEntity
  8
0
  6
Continuous
 62
     7
370
     0
100
AcDbEllipse
 10
62.0469358343592
 20
-127.6290682772086
 30
0.0
 11
2.439999999999995
 21
0.0
 31
-0.0000000000000002
210
0.0000000000000001
220
0.0
230
1.0
 40
0.408248290463863
 41
3.141592653589792
 42
4.583490634785983
  0
ELLIPSE
  5
8F02
330
A
100
AcDbEntity
  8
0
  6
Continuous
 62
     7
370
     0
100
AcDbEllipse
 10
53.49295942588724
 20
-147.4267490830436
 30
0.0
 11
-0.9892159654250052
 21
-3.879453761234945
 31
0.0
210
0.0
220
0.0
230
1.0
 40
0.4816110701770013
 41
2.670409182985586
 42
3.164873306223528
  0
ELLIPSE
  5
8F03
330
A
100
AcDbEntity
  8
0
  6
Continuous
 62
     7
370
     0
100
AcDbEllipse
 10
53.49295942588724
 20
-147.4267490830436
 30
0.0
 11
-0.9892159654250052
 21
-3.879453761234945
 31
0.0
210
0.0
220
0.0
230
1.0
 40
0.4816110701770013
 41
3.164873306223528
 42
6.306465959813321
  0
ELLIPSE
  5
8F04
330
A
100
AcDbEntity
  8
0
  6
Continuous
 62
     7
370
     0
100
AcDbEllipse
 10
52.77709242683602
 20
-147.2806233437625
 30
0.0
 11
-0.8000000000000229
 21
-3.919183588453075
 31
0.0000000000000003
210
0.0
220
0.0000000000000001
230
1.0
 40
0.4082482904638628
 41
2.034443935795695
 42
2.893600499720981
  0
ELLIPSE
  5
8F05
330
A
100
AcDbEntity
  8
0
  6
Continuous
 62
     7
370
     0
100
AcDbEllipse
 10
53.76096233693579
 20
-147.4814549481811
 30
0.0
 11
-0.8000000000000229
 21
-3.919183588453075
 31
-0.0000000000000003
210
0.0
220
-0.0000000000000001
230
1.0
 40
0.4082482904638644
 41
1.430776244577734
 42
2.638111627013639
  0
LINE
  5
8F06
330
A
100
AcDbEntity
  8
0
  6
Continuous
 62
     7
370
     0
100
AcDbLine
 10
55.23365304654134
 20
-148.3518302435142
 30
0.0
 11
55.22252026811355
 21
-148.3859852068104
 31
0.0
  0
ELLIPSE
  5
8F07
330
A
100
AcDbEntity
  8
0
  6
Continuous
 62
     7
370
     0
100
AcDbEllipse
 10
52.77709242683602
 20
-147.2806233437625
 30
0.0
 11
-0.8000000000000229
 21
-3.919183588453075
 31
0.0000000000000003
210
0.0
220
0.0000000000000001
230
1.0
 40
0.408248290463863
 41
0.1647069956605928
 42
2.034443935795692
  0
LINE
  5
8F08
330
A
100
AcDbEntity
  8
0
  6
Continuous
 62
     7
370
     0
100
AcDbLine
 10
56.01031351726641
 20
-136.1335981207014
 30
0.0
 11
55.96282375594438
 21
-136.3723591502962
 31
0.0
  0
LINE
  5
8F24
330
A
100
AcDbEntity
  8
0
  6
Continuous
 62
     9
370
     0
100
AcDbLine
 10
55.96282375594438
 20
-136.3723591502963
 30
0.0
 11
55.23365304654163
 21
-136.9677245414361
 31
0.0
  0
LINE
  5
8F25
330
A
100
AcDbEntity
  8
0
  6
Continuous
 62
     7
370
     0
100
AcDbLine
 10
55.23365304654163
 20
-153.5819754524261
 30
0.0
 11
55.96282375594438
 21
-152.9866100612863
 31
0.0
  0
LINE
  5
8F26
330
A
100
AcDbEntity
  8
0
  6
Continuous
 62
     7
370
     0
100
AcDbLine
 10
55.23365304654134
 20
-148.3518302435142
 30
0.0
 11
55.23365304654163
 21
-153.5819754524261
 31
0.0
  0
LINE
  5
8F27
330
A
100
AcDbEntity
  8
0
  6
Continuous
 62
     7
370
     0
100
AcDbLine
 10
55.96282375594438
 20
-152.9866100612863
 30
0.0
 11
55.96282375594438
 21
-136.3723591502963
 31
0.0
  0
ELLIPSE
  5
8F28
330
A
100
AcDbEntity
  8
0
  6
Continuous
 62
     7
370
     0
100
AcDbEllipse
 10
51.09556930775608
 20
-146.9373838743926
 30
0.0
 11
-0.4239999999999799
 21
-2.077167301880129
 31
0.0
210
0.0
220
0.0
230
1.0
 40
0.4082482904638628
 41
0.773615814960462
 42
2.246565873344394
  0
ELLIPSE
  5
8F29
330
A
100
AcDbEntity
  8
0
  6
Continuous
 62
     7
370
     0
100
AcDbEllipse
 10
64.25565964285465
 20
-86.45300776629049
 30
0.0
 11
-0.8000000000000229
 21
0.0
 31
0.0000000000000001
210
0.0000000000000001
220
0.0
230
1.0
 40
0.4082482904638631
 41
3.141592653589792
 42
4.248741371383935
  0
ELLIPSE
  5
8F2A
330
A
100
AcDbEntity
  8
0
  6
Continuous
 62
     7
370
     0
100
AcDbEllipse
 10
65.26687372195886
 20
-152.0209795047839
 30
0.0
 11
9.599999999999996
 21
0.0
 31
-0.0000000000000007
210
0.0000000000000001
220
0.0
230
1.0
 40
0.4082482904638631
 41
2.298549512430899
 42
2.892643504906796
  0
ELLIPSE
  5
8F2B
330
A
100
AcDbEntity
  8
0
  6
Continuous
 62
     7
370
     0
100
AcDbEllipse
 10
55.90273238546387
 20
-153.761015875342
 30
0.0
 11
0.8000000000000229
 21
0.0
 31
-0.0000000000000001
210
0.0000000000000001
220
0.0
230
1.0
 40
0.408248290463863
 41
2.561385621872255
 42
2.587285157388194
  0
LINE
  5
8F2C
330
A
100
AcDbEntity
  8
0
  6
Continuous
 62
     7
370
     0
100
AcDbLine
 10
59.64693583484643
 20
-127.5560386028404
 30
0.0
 11
59.64693583483108
 21
-127.8086975260638
 31
0.0
  0
ARC
  5
8F2D
330
A
100
AcDbEntity
  8
0
  6
Continuous
 62
     7
370
     0
100
AcDbCircle
 10
68.85361572841742
 20
-113.5125126036817
 30
0.0
 40
17.05628946498961
100
AcDbArc
 50
265.8943301048321
 51
283.9326423077893
  0
LINE
  5
8F2E
330
A
100
AcDbEntity
  8
0
  6
Continuous
 62
     7
370
     0
100
AcDbLine
 10
60.84458272939741
 20
-121.1761166590114
 30
0.0
 11
60.84458272939452
 21
-126.825741915552
 31
0.0
  0
LINE
  5
8F2F
330
A
100
AcDbEntity
  8
0
  6
Continuous
 62
     7
370
     0
100
AcDbLine
 10
67.03556812567137
 20
-130.3596570478098
 30
0.0
 11
67.63245108537711
 21
-130.525030560413
 31
0.0
  0
ARC
  5
8F30
330
A
100
AcDbEntity
  8
0
  6
Continuous
 62
     7
370
     0
100
AcDbCircle
 10
64.39162848732109
 20
-136.1608356193477
 30
0.0
 40
6.37527172990392
100
AcDbArc
 50
65.498444134261
 51
92.24042977180198
  0
LINE
  5
8F31
330
A
100
AcDbEntity
  8
0
  6
Continuous
 62
     7
370
     0
100
AcDbLine
 10
63.56285137332583
 20
-129.6896114889688
 30
0.0
 11
64.14240055063607
 21
-129.7904372749984
 31
0.0
  0
LINE
  5
8F32
330
A
100
AcDbEntity
  8
0
  6
Continuous
 62
     7
370
     0
100
AcDbLine
 10
60.84458273135073
 20
-126.8258303741039
 30
0.0
 11
60.84462236782343
 21
-126.8383336958336
 31
0.0
  0
ARC
  5
8F33
330
A
100
AcDbEntity
  8
0
  6
Continuous
 62
     7
370
     0
100
AcDbCircle
 10
64.21390331758494
 20
-126.3476062687457
 30
0.0
 40
3.404830028962178
100
AcDbArc
 50
188.2867202869809
 51
258.9763463853412
  0
LINE
  5
8F34
330
A
100
AcDbEntity
  8
0
  6
Continuous
 62
     7
370
     0
100
AcDbLine
 10
65.13665904690004
 20
-93.87593835322389
 30
0.0
 11
64.7788881704999
 21
-94.16805705056011
 31
0.0
  0
LINE
  5
8F35
330
A
100
AcDbEntity
  8
0
  6
Continuous
 62
     7
370
     0
100
AcDbLine
 10
96.16538373114076
 20
-154.3713494709579
 30
0.0
 11
96.52315460754074
 21
-154.0792307736217
 31
0.0
  0
LINE
  5
8F36
330
A
100
AcDbEntity
  8
0
  6
Continuous
 62
     7
370
     0
100
AcDbLine
 10
65.13665904689071
 20
-93.8759383532216
 30
0.0
 11
64.77888817049609
 21
-94.16805705055342
 31
0.0
  0
LINE
  5
8F37
330
A
100
AcDbEntity
  8
0
  6
Continuous
 62
     7
370
     0
100
AcDbLine
 10
64.77888817049609
 20
-94.16805705055342
 30
0.0
 11
64.42111729409072
 21
-94.46017574789379
 31
0.0
  0
LINE
  5
8F38
330
A
100
AcDbEntity
  8
0
  6
Continuous
 62
     7
370
     0
100
AcDbLine
 10
95.80761285474137
 20
-154.6634681683001
 30
0.0
 11
96.16538373114304
 21
-154.3713494709627
 31
0.0
  0
LINE
  5
8F39
330
A
100
AcDbEntity
  8
0
  6
Continuous
 62
     7
370
     0
100
AcDbLine
 10
96.16538373114309
 20
-154.3713494709627
 30
0.0
 11
96.52315460754136
 21
-154.0792307736279
 31
0.0
  0
LINE
  5
8F3A
330
A
100
AcDbEntity
  8
0
  6
Continuous
 62
     7
370
     0
100
AcDbLine
 10
97.49167857314256
 20
-155.7036035793194
 30
0.0
 11
98.92276207874239
 21
-154.5351287899751
 31
0.0
  0
LINE
  5
8F3B
330
A
100
AcDbEntity
  8
0
  6
Continuous
 62
     7
370
     0
100
AcDbLine
 10
92.84065717994975
 20
-159.5011466446935
 30
0.0
 11
94.27174068554961
 21
-158.3326718553492
 31
0.0
  0
LINE
  5
8F3C
330
A
100
AcDbEntity
  8
0
  6
Continuous
 62
     7
370
     0
100
AcDbLine
 10
65.05565964285472
 20
-90.5713488599328
 30
0.0
 11
65.05565964285472
 21
-86.45300776629049
 31
0.0
  0
LINE
  5
8F3D
330
A
100
AcDbEntity
  8
0
  6
Continuous
 62
     7
370
     0
100
AcDbLine
 10
-77.04999999199163
 20
-38.2000000007802
 30
0.0
 11
-77.04999999173566
 21
-34.20000000078019
 31
0.0
  0
LINE
  5
8F3E
330
A
100
AcDbEntity
  8
0
  6
Continuous
 62
     9
370
     0
100
AcDbLine
 10
-94.5000000100252
 20
-20.70000000001244
 30
0.0
 11
-96.04751131709599
 21
-20.70000000001244
 31
0.0
  0
ELLIPSE
  5
8F3F
330
A
100
AcDbEntity
  8
0
  6
Continuous
 62
     9
370
     0
100
AcDbEllipse
 10
-95.09276018630396
 20
-20.7000000000138
 30
0.0
 11
0.0000000000016653
 21
1.0
 31
0.0
210
0.0
220
0.0
230
1.0
 40
0.954751130792985
 41
0.0000000000017764
 42
1.570796326796644
  0
LINE
  5
8F40
330
A
100
AcDbEntity
  8
0
  6
Continuous
 62
     7
370
     0
100
AcDbLine
 10
-95.09276018630316
 20
-19.70000000001244
 30
0.0
 11
-94.5000000100252
 21
-19.70000000001244
 31
0.0
  0
LINE
  5
8F41
330
A
100
AcDbEntity
  8
0
  6
Continuous
 62
     9
370
     0
100
AcDbLine
 10
-96.04751131709599
 20
-29.50000000001242
 30
0.0
 11
-94.5000000100252
 21
-29.50000000001242
 31
0.0
  0
LINE
  5
8F42
330
A
100
AcDbEntity
  8
0
  6
Continuous
 62
     9
370
     0
100
AcDbLine
 10
-96.04751131709708
 20
-20.700000000014
 30
0.0
 11
-96.04751131709708
 21
-29.50000000001399
 31
0.0
  0
ELLIPSE
  5
8F43
330
A
100
AcDbEntity
  8
0
  6
Continuous
 62
     9
370
     0
100
AcDbEllipse
 10
-95.09276018630396
 20
-29.50000000001381
 30
0.0
 11
0.0000000000016653
 21
1.0
 31
0.0
210
0.0
220
0.0
230
1.0
 40
0.9547511307929859
 41
1.570796326796644
 42
3.141592653591569
  0
LINE
  5
8F44
330
A
100
AcDbEntity
  8
0
  6
Continuous
 62
     9
370
     0
100
AcDbLine
 10
-76.95248869266163
 20
-20.70000000001244
 30
0.0
 11
-77.50000001003048
 21
-20.70000000001244
 31
0.0
  0
ELLIPSE
  5
8F45
330
A
100
AcDbEntity
  8
0
  6
Continuous
 62
     9
370
     0
100
AcDbEllipse
 10
-77.90723982431126
 20
-20.7000000000138
 30
0.0
 11
0.0000000000016653
 21
-1.0
 31
0.0
210
0.0
220
0.0
230
1.0
 40
0.9547511316506584
 41
1.57079632679312
 42
2.700928484435501
  0
LINE
  5
8F46
330
A
100
AcDbEntity
  8
0
  6
Continuous
 62
     9
370
     0
100
AcDbLine
 10
-77.50000001003048
 20
-29.50000000001242
 30
0.0
 11
-76.95248869266163
 21
-29.50000000001242
 31
0.0
  0
ELLIPSE
  5
8F47
330
A
100
AcDbEntity
  8
0
  6
Continuous
 62
     9
370
     0
100
AcDbEllipse
 10
-77.90723982431126
 20
-29.50000000001381
 30
0.0
 11
0.0000000000016653
 21
-0.9999999999999731
 31
0.0
210
0.0
220
0.0
230
1.0
 40
0.9547511316506591
 41
0.4406641691508846
 42
1.570796326793201
  0
LINE
  5
8F48
330
A
100
AcDbEntity
  8
0
  6
Continuous
 62
     9
370
     0
100
AcDbLine
 10
-76.95248869266061
 20
-20.700000000014
 30
0.0
 11
-76.95248869266061
 21
-29.50000000001399
 31
0.0
  0
LINE
  5
8F49
330
A
100
AcDbEntity
  8
0
  6
Continuous
 62
     7
370
     0
100
AcDbLine
 10
-95.1153846209076
 20
-19.70000000001369
 30
0.0
 11
-95.09276018630396
 21
-19.70000000001369
 31
0.0
  0
LINE
  5
8F4A
330
A
100
AcDbEntity
  8
0
  6
Continuous
 62
     9
370
     0
100
AcDbLine
 10
-96.0475113170969
 20
-20.70000000001369
 30
0.0
 11
-96.11538462090761
 21
-20.70000000001369
 31
0.0
  0
LINE
  5
8F4B
330
A
100
AcDbEntity
  8
0
  6
Continuous
 62
     9
370
     0
100
AcDbLine
 10
-96.11538462090761
 20
-29.5000000000137
 30
0.0
 11
-96.0475113170969
 21
-29.5000000000137
 31
0.0
  0
LINE
  5
8F4C
330
A
100
AcDbEntity
  8
0
  6
Continuous
 62
     9
370
     0
100
AcDbLine
 10
-76.88461539013662
 20
-20.70000000001369
 30
0.0
 11
-76.95248869266078
 21
-20.70000000001369
 31
0.0
  0
LINE
  5
8F4D
330
A
100
AcDbEntity
  8
0
  6
Continuous
 62
     9
370
     0
100
AcDbLine
 10
-76.95248869266078
 20
-29.5000000000137
 30
0.0
 11
-76.88461539013662
 21
-29.5000000000137
 31
0.0
  0
LINE
  5
8F4E
330
A
100
AcDbEntity
  8
0
  6
Continuous
 62
     7
370
     0
100
AcDbLine
 10
-77.20000001003075
 20
-43.7499999999759
 30
0.0
 11
-77.20000001003075
 21
-56.24999999997598
 31
0.0
  0
LINE
  5
8F4F
330
A
100
AcDbEntity
  8
0
  6
Continuous
 62
     9
370
     0
100
AcDbLine
 10
-75.75000001003076
 20
-55.41284210965099
 30
0.0
 11
-75.75000001003076
 21
-44.58715789030091
 31
0.0
  0
LINE
  5
8F50
330
A
100
AcDbEntity
  8
0
  6
Continuous
 62
     7
370
     0
100
AcDbLine
 10
-75.50000001003076
 20
-45.02017059219309
 30
0.0
 11
-75.50000001003076
 21
-54.97982940775881
 31
0.0
  0
LINE
  5
8F51
330
A
100
AcDbEntity
  8
0
  6
Continuous
 62
     7
370
     0
100
AcDbLine
 10
-77.20000001003007
 20
6.250000000001506
 30
0.0
 11
-77.20000001003007
 21
-6.249999999998493
 31
0.0
  0
LINE
  5
8F52
330
A
100
AcDbEntity
  8
0
  6
Continuous
 62
     9
370
     0
100
AcDbLine
 10
-75.75000001003019
 20
-5.412842109673619
 30
0.0
 11
-75.75000001003019
 21
5.412842109676603
 31
0.0
  0
LINE
  5
8F53
330
A
100
AcDbEntity
  8
0
  6
Continuous
 62
     7
370
     0
100
AcDbLine
 10
-75.50000001003019
 20
4.979829407784308
 30
0.0
 11
-75.50000001003008
 21
-4.979829407781409
 31
0.0
  0
LINE
  5
8F54
330
A
100
AcDbEntity
  8
0
  6
Continuous
 62
     9
370
     0
100
AcDbLine
 10
-81.50000001002956
 20
8.65000000003269
 30
0.0
 11
-82.00000001002957
 21
8.65000000003269
 31
0.0
  0
LINE
  5
8F55
330
A
100
AcDbEntity
  8
0
  6
Continuous
 62
     9
370
     0
100
AcDbLine
 10
-81.50000001002927
 20
-58.64999999998161
 30
0.0
 11
-82.00000001002939
 21
-58.64999999998161
 31
0.0
  0
LINE
  5
8F56
330
A
100
AcDbEntity
  8
0
  6
Continuous
 62
     7
370
     0
100
AcDbLine
 10
-82.00000001002957
 20
8.65000000003269
 30
0.0
 11
-82.00000001002939
 21
-58.64999999998161
 31
0.0
  0
LINE
  5
8F57
330
A
100
AcDbEntity
  8
0
  6
Continuous
 62
     7
370
     0
100
AcDbLine
 10
-81.50000001003007
 20
13.15000000003368
 30
0.0
 11
-82.0000000100298
 21
13.15000000003368
 31
0.0
  0
LINE
  5
8F58
330
A
100
AcDbEntity
  8
0
  6
Continuous
 62
     7
370
     0
100
AcDbLine
 10
-82.0000000100298
 20
13.15000000003658
 30
0.0
 11
-82.00000001002967
 21
8.65000000003269
 31
0.0
  0
LINE
  5
8F59
330
A
100
AcDbEntity
  8
0
  6
Continuous
 62
     7
370
     0
100
AcDbLine
 10
-81.50000001002979
 20
-63.14999999998258
 30
0.0
 11
-82.00000001002946
 21
-63.14999999998258
 31
0.0
  0
LINE
  5
8F5A
330
A
100
AcDbEntity
  8
0
  6
Continuous
 62
     7
370
     0
100
AcDbLine
 10
-82.00000001002946
 20
-58.64999999998161
 30
0.0
 11
-82.00000001002946
 21
-63.1499999999873
 31
0.0
  0
LINE
  5
8F5B
330
A
100
AcDbEntity
  8
0
  6
Continuous
 62
     9
370
     0
100
AcDbLine
 10
-83.00000001002945
 20
8.65000000003269
 30
0.0
 11
-82.00000001002957
 21
8.65000000003269
 31
0.0
  0
LINE
  5
8F5C
330
A
100
AcDbEntity
  8
0
  6
Continuous
 62
     9
370
     0
100
AcDbLine
 10
-82.00000001002957
 20
8.65000000003269
 30
0.0
 11
-81.50000001002956
 21
8.65000000003269
 31
0.0
  0
LINE
  5
8F5D
330
A
100
AcDbEntity
  8
0
  6
Continuous
 62
     7
370
     0
100
AcDbLine
 10
-83.00000001002956
 20
13.1500000000342
 30
0.0
 11
-82.0000000100298
 21
13.1500000000342
 31
0.0
  0
LINE
  5
8F5E
330
A
100
AcDbEntity
  8
0
  6
Continuous
 62
     7
370
     0
100
AcDbLine
 10
-82.0000000100298
 20
13.1500000000342
 30
0.0
 11
-81.50000001002956
 21
13.1500000000342
 31
0.0
  0
LINE
  5
8F5F
330
A
100
AcDbEntity
  8
0
  6
Continuous
 62
     7
370
     0
100
AcDbLine
 10
-83.00000001002956
 20
8.65000000003269
 30
0.0
 11
-83.00000001002956
 21
13.1500000000328
 31
0.0
  0
LINE
  5
8F60
330
A
100
AcDbEntity
  8
0
  6
Continuous
 62
     9
370
     0
100
AcDbLine
 10
-83.00000001002928
 20
-58.64999999998921
 30
0.0
 11
-82.00000001002939
 21
-58.64999999998921
 31
0.0
  0
LINE
  5
8F61
330
A
100
AcDbEntity
  8
0
  6
Continuous
 62
     9
370
     0
100
AcDbLine
 10
-82.00000001002939
 20
-58.64999999998921
 30
0.0
 11
-81.50000001002927
 21
-58.64999999998921
 31
0.0
  0
LINE
  5
8F62
330
A
100
AcDbEntity
  8
0
  6
Continuous
 62
     7
370
     0
100
AcDbLine
 10
-83.00000001002928
 20
-58.64999999998921
 30
0.0
 11
-83.00000001002945
 21
8.65000000003269
 31
0.0
  0
LINE
  5
8F63
330
A
100
AcDbEntity
  8
0
  6
Continuous
 62
     7
370
     0
100
AcDbLine
 10
-83.0000000100294
 20
-63.14999999999059
 30
0.0
 11
-82.00000001002946
 21
-63.14999999999059
 31
0.0
  0
LINE
  5
8F64
330
A
100
AcDbEntity
  8
0
  6
Continuous
 62
     7
370
     0
100
AcDbLine
 10
-82.00000001002946
 20
-63.14999999999059
 30
0.0
 11
-81.50000001002927
 21
-63.14999999999059
 31
0.0
  0
LINE
  5
8F65
330
A
100
AcDbEntity
  8
0
  6
Continuous
 62
     7
370
     0
100
AcDbLine
 10
-83.0000000100294
 20
-63.14999999998909
 30
0.0
 11
-83.0000000100294
 21
-58.64999999998921
 31
0.0
  0
LINE
  5
8F66
330
A
100
AcDbEntity
  8
0
  6
Continuous
 62
     7
370
     0
100
AcDbLine
 10
-90.50000001002615
 20
13.14999999997189
 30
0.0
 11
-90.00000001002609
 21
13.14999999997189
 31
0.0
  0
LINE
  5
8F67
330
A
100
AcDbEntity
  8
0
  6
Continuous
 62
     7
370
     0
100
AcDbLine
 10
-90.00000001002609
 20
8.649999999973914
 30
0.0
 11
-90.00000001002609
 21
13.14999999997391
 31
0.0
  0
LINE
  5
8F68
330
A
100
AcDbEntity
  8
0
  6
Continuous
 62
     9
370
     0
100
AcDbLine
 10
-90.50000001002599
 20
-58.6499999999956
 30
0.0
 11
-90.00000001002575
 21
-58.6499999999956
 31
0.0
  0
LINE
  5
8F69
330
A
100
AcDbEntity
  8
0
  6
Continuous
 62
     9
370
     0
100
AcDbLine
 10
-90.50000001002615
 20
8.649999999973914
 30
0.0
 11
-90.00000001002598
 21
8.649999999973914
 31
0.0
  0
LINE
  5
8F6A
330
A
100
AcDbEntity
  8
0
  6
Continuous
 62
     7
370
     0
100
AcDbLine
 10
-90.00000001002575
 20
-58.6499999999956
 30
0.0
 11
-90.00000001002598
 21
8.649999999973914
 31
0.0
  0
LINE
  5
8F6B
330
A
100
AcDbEntity
  8
0
  6
Continuous
 62
     7
370
     0
100
AcDbLine
 10
-90.50000001002599
 20
-63.14999999999341
 30
0.0
 11
-90.00000001002588
 21
-63.14999999999341
 31
0.0
  0
LINE
  5
8F6C
330
A
100
AcDbEntity
  8
0
  6
Continuous
 62
     7
370
     0
100
AcDbLine
 10
-90.00000001002588
 20
-63.14999999999551
 30
0.0
 11
-90.00000001002588
 21
-58.6499999999956
 31
0.0
  0
LINE
  5
8F6D
330
A
100
AcDbEntity
  8
0
  6
Continuous
 62
     9
370
     0
100
AcDbLine
 10
-90.50000001002615
 20
8.65000000003269
 30
0.0
 11
-90.00000001002598
 21
8.65000000003269
 31
0.0
  0
LINE
  5
8F6E
330
A
100
AcDbEntity
  8
0
  6
Continuous
 62
     9
370
     0
100
AcDbLine
 10
-90.00000001002598
 20
8.65000000003269
 30
0.0
 11
-89.00000001002609
 21
8.65000000003269
 31
0.0
  0
LINE
  5
8F6F
330
A
100
AcDbEntity
  8
0
  6
Continuous
 62
     7
370
     0
100
AcDbLine
 10
-90.50000001002615
 20
13.15000000003459
 30
0.0
 11
-90.00000001002609
 21
13.15000000003459
 31
0.0
  0
LINE
  5
8F70
330
A
100
AcDbEntity
  8
0
  6
Continuous
 62
     7
370
     0
100
AcDbLine
 10
-90.00000001002609
 20
13.15000000003459
 30
0.0
 11
-89.00000001002627
 21
13.15000000003459
 31
0.0
  0
LINE
  5
8F71
330
A
100
AcDbEntity
  8
0
  6
Continuous
 62
     7
370
     0
100
AcDbLine
 10
-89.00000001002627
 20
8.65000000003269
 30
0.0
 11
-89.00000001002627
 21
13.1500000000328
 31
0.0
  0
LINE
  5
8F72
330
A
100
AcDbEntity
  8
0
  6
Continuous
 62
     9
370
     0
100
AcDbLine
 10
-90.50000001002599
 20
-58.6499999999956
 30
0.0
 11
-90.00000001002575
 21
-58.6499999999956
 31
0.0
  0
LINE
  5
8F73
330
A
100
AcDbEntity
  8
0
  6
Continuous
 62
     9
370
     0
100
AcDbLine
 10
-90.00000001002575
 20
-58.6499999999956
 30
0.0
 11
-89.00000001002586
 21
-58.6499999999956
 31
0.0
  0
LINE
  5
8F74
330
A
100
AcDbEntity
  8
0
  6
Continuous
 62
     7
370
     0
100
AcDbLine
 10
-89.00000001002586
 20
-58.6499999999956
 30
0.0
 11
-89.00000001002609
 21
8.65000000003269
 31
0.0
  0
LINE
  5
8F75
330
A
100
AcDbEntity
  8
0
  6
Continuous
 62
     7
370
     0
100
AcDbLine
 10
-90.50000001002599
 20
-63.14999999999741
 30
0.0
 11
-90.00000001002588
 21
-63.14999999999741
 31
0.0
  0
LINE
  5
8F76
330
A
100
AcDbEntity
  8
0
  6
Continuous
 62
     7
370
     0
100
AcDbLine
 10
-90.00000001002588
 20
-63.14999999999741
 30
0.0
 11
-89.00000001002599
 21
-63.14999999999741
 31
0.0
  0
LINE
  5
8F77
330
A
100
AcDbEntity
  8
0
  6
Continuous
 62
     7
370
     0
100
AcDbLine
 10
-89.00000001002599
 20
-63.14999999999551
 30
0.0
 11
-89.00000001002599
 21
-58.6499999999956
 31
0.0
  0
LINE
  5
8F78
330
A
100
AcDbEntity
  8
0
  6
Continuous
 62
     9
370
     0
100
AcDbLine
 10
-77.50000001002956
 20
9.999999999995083
 30
0.0
 11
-81.50000001002956
 21
9.999999999995083
 31
0.0
  0
LINE
  5
8F79
330
A
100
AcDbEntity
  8
0
  6
Continuous
 62
     7
370
     0
100
AcDbLine
 10
-81.50000001002956
 20
14.99999999999269
 30
0.0
 11
-77.50000001002956
 21
14.99999999999269
 31
0.0
  0
LINE
  5
8F7A
330
A
100
AcDbEntity
  8
0
  6
Continuous
 62
     7
370
     0
100
AcDbLine
 10
-81.50000001002956
 20
9.999999999995083
 30
0.0
 11
-81.50000001002956
 21
14.99999999999508
 31
0.0
  0
LINE
  5
8F7B
330
A
100
AcDbEntity
  8
0
  6
Continuous
 62
     7
370
     0
100
AcDbLine
 10
-77.50000001002956
 20
14.99999999999508
 30
0.0
 11
-77.50000001002956
 21
9.999999999995083
 31
0.0
  0
LINE
  5
8F7C
330
A
100
AcDbEntity
  8
0
  6
Continuous
 62
     9
370
     0
100
AcDbLine
 10
-81.50000001002927
 20
-59.99999999997118
 30
0.0
 11
-77.50000001002939
 21
-59.99999999997118
 31
0.0
  0
LINE
  5
8F7D
330
A
100
AcDbEntity
  8
0
  6
Continuous
 62
     7
370
     0
100
AcDbLine
 10
-81.50000001002956
 20
9.999999999995083
 30
0.0
 11
-81.50000001002927
 21
-59.99999999997118
 31
0.0
  0
LINE
  5
8F7E
330
A
100
AcDbEntity
  8
0
  6
Continuous
 62
     7
370
     0
100
AcDbLine
 10
-77.50000001002939
 20
-59.99999999997118
 30
0.0
 11
-77.50000001002956
 21
9.999999999995083
 31
0.0
  0
LINE
  5
8F7F
330
A
100
AcDbEntity
  8
0
  6
Continuous
 62
     7
370
     0
100
AcDbLine
 10
-77.50000001002928
 20
-64.99999999996879
 30
0.0
 11
-81.50000001002927
 21
-64.99999999996879
 31
0.0
  0
LINE
  5
8F80
330
A
100
AcDbEntity
  8
0
  6
Continuous
 62
     7
370
     0
100
AcDbLine
 10
-81.50000001002927
 20
-64.99999999997121
 30
0.0
 11
-81.50000001002927
 21
-59.99999999997118
 31
0.0
  0
LINE
  5
8F81
330
A
100
AcDbEntity
  8
0
  6
Continuous
 62
     7
370
     0
100
AcDbLine
 10
-77.50000001002939
 20
-59.99999999997118
 30
0.0
 11
-77.50000001002928
 21
-64.99999999997121
 31
0.0
  0
LINE
  5
8F82
330
A
100
AcDbEntity
  8
0
  6
Continuous
 62
     9
370
     0
100
AcDbLine
 10
-90.50000001002615
 20
10.00000000002401
 30
0.0
 11
-94.50000001002615
 21
10.00000000002401
 31
0.0
  0
LINE
  5
8F83
330
A
100
AcDbEntity
  8
0
  6
Continuous
 62
     7
370
     0
100
AcDbLine
 10
-94.50000001002615
 20
15.00000000002401
 30
0.0
 11
-90.50000001002615
 21
15.00000000002401
 31
0.0
  0
LINE
  5
8F84
330
A
100
AcDbEntity
  8
0
  6
Continuous
 62
     7
370
     0
100
AcDbLine
 10
-90.50000001002615
 20
15.00000000002401
 30
0.0
 11
-90.50000001002615
 21
10.00000000002401
 31
0.0
  0
LINE
  5
8F85
330
A
100
AcDbEntity
  8
0
  6
Continuous
 62
     7
370
     0
100
AcDbLine
 10
-94.50000001002615
 20
10.00000000002401
 30
0.0
 11
-94.50000001002615
 21
15.00000000002401
 31
0.0
  0
LINE
  5
8F86
330
A
100
AcDbEntity
  8
0
  6
Continuous
 62
     9
370
     0
100
AcDbLine
 10
-94.50000001002598
 20
-59.99999999997609
 30
0.0
 11
-90.50000001002599
 21
-59.99999999997609
 31
0.0
  0
LINE
  5
8F87
330
A
100
AcDbEntity
  8
0
  6
Continuous
 62
     7
370
     0
100
AcDbLine
 10
-90.50000001002599
 20
-59.99999999997609
 30
0.0
 11
-90.50000001002615
 21
10.00000000002401
 31
0.0
  0
LINE
  5
8F88
330
A
100
AcDbEntity
  8
0
  6
Continuous
 62
     7
370
     0
100
AcDbLine
 10
-94.50000001002615
 20
10.00000000002401
 30
0.0
 11
-94.50000001002598
 21
-59.99999999997609
 31
0.0
  0
LINE
  5
8F89
330
A
100
AcDbEntity
  8
0
  6
Continuous
 62
     7
370
     0
100
AcDbLine
 10
-90.50000001002599
 20
-64.99999999997598
 30
0.0
 11
-94.50000001002598
 21
-64.99999999997609
 31
0.0
  0
LINE
  5
8F8A
330
A
100
AcDbEntity
  8
0
  6
Continuous
 62
     7
370
     0
100
AcDbLine
 10
-90.50000001002599
 20
-59.99999999997609
 30
0.0
 11
-90.50000001002599
 21
-64.99999999997609
 31
0.0
  0
LINE
  5
8F8B
330
A
100
AcDbEntity
  8
0
  6
Continuous
 62
     7
370
     0
100
AcDbLine
 10
-94.50000001002598
 20
-64.99999999997609
 30
0.0
 11
-94.50000001002598
 21
-59.99999999997609
 31
0.0
  0
LINE
  5
8F8C
330
A
100
AcDbEntity
  8
0
  6
Continuous
 62
     9
370
     0
100
AcDbLine
 10
-83.0000000100294
 20
0.0000000000240163
 30
0.0
 11
-89.00000001002609
 21
0.0000000000240163
 31
0.0
  0
LINE
  5
8F8D
330
A
100
AcDbEntity
  8
0
  6
Continuous
 62
     9
370
     0
100
AcDbLine
 10
-83.00000001002928
 20
-49.99999999997598
 30
0.0
 11
-89.00000001002586
 21
-49.99999999997598
 31
0.0
  0
LINE
  5
8F8E
330
A
100
AcDbEntity
  8
0
  6
Continuous
 62
     9
370
     0
100
AcDbLine
 10
-95.28714777068058
 20
-8.750000000012306
 30
0.0
 11
-95.28714777068058
 21
-19.5000000000125
 31
0.0
  0
LINE
  5
8F8F
330
A
100
AcDbEntity
  8
0
  6
Continuous
 62
     7
370
     0
100
AcDbLine
 10
-94.49999999186365
 20
-8.750000000012306
 30
0.0
 11
-95.28714777068058
 21
-8.750000000012306
 31
0.0
  0
LINE
  5
8F90
330
A
100
AcDbEntity
  8
0
  6
Continuous
 62
     7
370
     0
100
AcDbLine
 10
-94.49999999186365
 20
-19.5000000000125
 30
0.0
 11
-95.28714777068058
 21
-19.5000000000125
 31
0.0
  0
LINE
  5
8F91
330
A
100
AcDbEntity
  8
0
  6
Continuous
 62
     9
370
     0
100
AcDbLine
 10
-95.28714777068058
 20
-30.50000000001231
 30
0.0
 11
-95.28714777068058
 21
-41.25000000001231
 31
0.0
  0
LINE
  5
8F92
330
A
100
AcDbEntity
  8
0
  6
Continuous
 62
     7
370
     0
100
AcDbLine
 10
-94.49999999186365
 20
-41.25000000001231
 30
0.0
 11
-95.28714777068058
 21
-41.25000000001231
 31
0.0
  0
LINE
  5
8F93
330
A
100
AcDbEntity
  8
0
  6
Continuous
 62
     7
370
     0
100
AcDbLine
 10
-95.28714777068058
 20
-30.50000000001231
 30
0.0
 11
-94.49999999186365
 21
-30.50000000001231
 31
0.0
  0
LINE
  5
8F94
330
A
100
AcDbEntity
  8
0
  6
Continuous
 62
     7
370
     0
100
AcDbLine
 10
-95.28714777068058
 20
-8.750000000012306
 30
0.0
 11
-95.31079801747864
 21
-8.750000000012306
 31
0.0
  0
LINE
  5
8F95
330
A
100
AcDbEntity
  8
0
  6
Continuous
 62
     7
370
     0
100
AcDbLine
 10
-95.28714777068058
 20
-19.5000000000125
 30
0.0
 11
-95.31079801747864
 21
-19.5000000000125
 31
0.0
  0
LINE
  5
8F96
330
A
100
AcDbEntity
  8
0
  6
Continuous
 62
     7
370
     0
100
AcDbLine
 10
-95.31079801747864
 20
-30.50000000001231
 30
0.0
 11
-95.28714777068058
 21
-30.50000000001231
 31
0.0
  0
LINE
  5
8F97
330
A
100
AcDbEntity
  8
0
  6
Continuous
 62
     7
370
     0
100
AcDbLine
 10
-95.28714777068058
 20
-41.25000000001231
 30
0.0
 11
-95.31079801747864
 21
-41.25000000001231
 31
0.0
  0
LINE
  5
8F98
330
A
100
AcDbEntity
  8
0
  6
Continuous
 62
     7
370
     0
100
AcDbLine
 10
-95.49999999186377
 20
-8.750000000012306
 30
0.0
 11
-95.49999999186377
 21
-19.5000000000125
 31
0.0
  0
LINE
  5
8F99
330
A
100
AcDbEntity
  8
0
  6
Continuous
 62
     7
370
     0
100
AcDbLine
 10
-95.29999999186367
 20
-8.750000000012306
 30
0.0
 11
-95.49999999186377
 21
-8.750000000012306
 31
0.0
  0
LINE
  5
8F9A
330
A
100
AcDbEntity
  8
0
  6
Continuous
 62
     7
370
     0
100
AcDbLine
 10
-95.29999999186367
 20
-19.5000000000125
 30
0.0
 11
-95.49999999186377
 21
-19.5000000000125
 31
0.0
  0
LINE
  5
8F9B
330
A
100
AcDbEntity
  8
0
  6
Continuous
 62
     7
370
     0
100
AcDbLine
 10
-95.49999999186377
 20
-30.50000000001231
 30
0.0
 11
-95.49999999186377
 21
-41.25000000001231
 31
0.0
  0
LINE
  5
8F9C
330
A
100
AcDbEntity
  8
0
  6
Continuous
 62
     7
370
     0
100
AcDbLine
 10
-95.29999999186367
 20
-41.25000000001231
 30
0.0
 11
-95.49999999186377
 21
-41.25000000001231
 31
0.0
  0
LINE
  5
8F9D
330
A
100
AcDbEntity
  8
0
  6
Continuous
 62
     7
370
     0
100
AcDbLine
 10
-95.49999999186377
 20
-30.50000000001231
 30
0.0
 11
-95.29999999186367
 21
-30.50000000001231
 31
0.0
  0
LINE
  5
8F9E
330
A
100
AcDbEntity
  8
0
  6
Continuous
 62
     7
370
     0
100
AcDbLine
 10
-95.49999999186377
 20
-19.5000000000125
 30
0.0
 11
-95.49999999186377
 21
-19.77692306820492
 31
0.0
  0
LINE
  5
8F9F
330
A
100
AcDbEntity
  8
0
  6
Continuous
 62
     7
370
     0
100
AcDbLine
 10
-95.49999999186377
 20
-30.42307693181732
 30
0.0
 11
-95.49999999186377
 21
-30.50000000001231
 31
0.0
  0
LINE
  5
8FA0
330
A
100
AcDbEntity
  8
0
  6
Continuous
 62
     9
370
     0
100
AcDbLine
 10
-76.59053573790629
 20
-5.898125638425824
 30
0.0
 11
-76.59053573790629
 21
-44.10187436154851
 31
0.0
  0
LINE
  5
8FA1
330
A
100
AcDbEntity
  8
0
  6
Continuous
 62
     7
370
     0
100
AcDbLine
 10
-76.6162956625023
 20
-44.08700186214869
 30
0.0
 11
-76.61629566250247
 21
-42.2500000000123
 31
0.0
  0
LINE
  5
8FA2
330
A
100
AcDbEntity
  8
0
  6
Continuous
 62
     7
370
     0
100
AcDbLine
 10
-77.49999999186366
 20
-41.2500230208465
 30
0.0
 11
-76.61629566250247
 21
-42.2500000000123
 31
0.0
  0
LINE
  5
8FA3
330
A
100
AcDbEntity
  8
0
  6
Continuous
 62
     7
370
     0
100
AcDbLine
 10
-76.61629566250247
 20
-7.750000000012306
 30
0.0
 11
-77.49999999186406
 21
-8.749976979178427
 31
0.0
  0
LINE
  5
8FA4
330
A
100
AcDbEntity
  8
0
  6
Continuous
 62
     7
370
     0
100
AcDbLine
 10
-76.6162956625023
 20
-5.91299813782561
 30
0.0
 11
-76.61629566250247
 21
-7.750000000012306
 31
0.0
  0
LINE
  5
8FA5
330
A
100
AcDbEntity
  8
0
  6
Continuous
 62
     9
370
     0
100
AcDbLine
 10
-77.50000001002945
 20
-7.750000000012306
 30
0.0
 11
-76.61629566250247
 21
-7.750000000012306
 31
0.0
  0
LINE
  5
8FA6
330
A
100
AcDbEntity
  8
0
  6
Continuous
 62
     7
370
     0
100
AcDbLine
 10
-96.38370432122497
 20
-42.2500000000123
 30
0.0
 11
-95.49999999186338
 21
-41.25002302084618
 31
0.0
  0
LINE
  5
8FA7
330
A
100
AcDbEntity
  8
0
  6
Continuous
 62
     7
370
     0
100
AcDbLine
 10
-96.38370432122497
 20
-42.2500000000123
 30
0.0
 11
-96.38370432122577
 21
-52.1616712748841
 31
0.0
  0
LINE
  5
8FA8
330
A
100
AcDbEntity
  8
0
  6
Continuous
 62
     7
370
     0
100
AcDbLine
 10
-96.40946424582114
 20
-52.12467092139391
 30
0.0
 11
-96.38370432122577
 21
-52.1616712748841
 31
0.0
  0
LINE
  5
8FA9
330
A
100
AcDbEntity
  8
0
  6
Continuous
 62
     9
370
     0
100
AcDbLine
 10
-96.40946424582114
 20
2.124670921369414
 30
0.0
 11
-96.40946424582114
 21
-52.12467092139391
 31
0.0
  0
LINE
  5
8FAA
330
A
100
AcDbEntity
  8
0
  6
Continuous
 62
     7
370
     0
100
AcDbLine
 10
-96.38370432122577
 20
2.1616712748596
 30
0.0
 11
-96.40946424582114
 21
2.124670921369414
 31
0.0
  0
LINE
  5
8FAB
330
A
100
AcDbEntity
  8
0
  6
Continuous
 62
     7
370
     0
100
AcDbLine
 10
-96.38370432122497
 20
-7.750000000012306
 30
0.0
 11
-96.38370432122577
 21
2.1616712748596
 31
0.0
  0
LINE
  5
8FAC
330
A
100
AcDbEntity
  8
0
  6
Continuous
 62
     7
370
     0
100
AcDbLine
 10
-95.49999999186377
 20
-8.749976979178114
 30
0.0
 11
-96.38370432122497
 21
-7.750000000012306
 31
0.0
  0
LINE
  5
8FAD
330
A
100
AcDbEntity
  8
0
  6
Continuous
 62
     9
370
     0
100
AcDbLine
 10
-94.5000000100261
 20
-42.2500000000123
 30
0.0
 11
-96.38370432122497
 21
-42.2500000000123
 31
0.0
  0
LINE
  5
8FAE
330
A
100
AcDbEntity
  8
0
  6
Continuous
 62
     9
370
     0
100
AcDbLine
 10
-96.38370432122497
 20
-7.750000000012306
 30
0.0
 11
-94.50000001002615
 21
-7.750000000012306
 31
0.0
  0
LINE
  5
8FAF
330
A
100
AcDbEntity
  8
0
  6
Continuous
 62
     9
370
     0
100
AcDbLine
 10
-76.61629566250247
 20
-42.2500000000123
 30
0.0
 11
-77.50000001002939
 21
-42.2500000000123
 31
0.0
  0
ARC
  5
8FB0
330
A
100
AcDbEntity
  8
0
  6
Continuous
 62
     7
370
     0
100
AcDbCircle
 10
-100.4999999918636
 20
4.999999999987693
 30
0.0
 40
4.999999999999998
100
AcDbArc
 50
325.4123890648031
 51
34.58761093519694
  0
LINE
  5
8FB1
330
A
100
AcDbEntity
  8
0
  6
Continuous
 62
     7
370
     0
100
AcDbLine
 10
-96.38370432122577
 20
7.838328725115815
 30
0.0
 11
-96.38370432122497
 21
14.99999999998769
 31
0.0
  0
LINE
  5
8FB2
330
A
100
AcDbEntity
  8
0
  6
Continuous
 62
     7
370
     0
100
AcDbLine
 10
-94.50000001002615
 20
14.99999999998769
 30
0.0
 11
-96.38370432122497
 21
14.99999999998769
 31
0.0
  0
LINE
  5
8FB3
330
A
100
AcDbEntity
  8
0
  6
Continuous
 62
     7
370
     0
100
AcDbLine
 10
-90.50000001002615
 20
14.99999999998769
 30
0.0
 11
-81.50000001002956
 21
14.99999999998769
 31
0.0
  0
LINE
  5
8FB4
330
A
100
AcDbEntity
  8
0
  6
Continuous
 62
     7
370
     0
100
AcDbLine
 10
-96.38370432122497
 20
-65.00000000001231
 30
0.0
 11
-94.50000001002598
 21
-65.00000000001231
 31
0.0
  0
LINE
  5
8FB5
330
A
100
AcDbEntity
  8
0
  6
Continuous
 62
     7
370
     0
100
AcDbLine
 10
-96.38370432122577
 20
-57.83832872514039
 30
0.0
 11
-96.38370432122497
 21
-65.00000000001231
 31
0.0
  0
ARC
  5
8FB6
330
A
100
AcDbEntity
  8
0
  6
Continuous
 62
     7
370
     0
100
AcDbCircle
 10
-100.4999999918636
 20
-55.00000000001231
 30
0.0
 40
5.000000000000012
100
AcDbArc
 50
325.4123890648031
 51
34.58761093519694
  0
LINE
  5
8FB7
330
A
100
AcDbEntity
  8
0
  6
Continuous
 62
     7
370
     0
100
AcDbLine
 10
-76.61629566250247
 20
14.99999999998769
 30
0.0
 11
-76.61629566250167
 21
7.838328725115815
 31
0.0
  0
ARC
  5
8FB8
330
A
100
AcDbEntity
  8
0
  6
Continuous
 62
     7
370
     0
100
AcDbCircle
 10
-72.49999999186377
 20
4.999999999987693
 30
0.0
 40
5.000000000000027
100
AcDbArc
 50
145.4123890648044
 51
165.5224878139133
  0
LINE
  5
8FB9
330
A
100
AcDbEntity
  8
0
  6
Continuous
 62
     7
370
     0
100
AcDbLine
 10
-76.61629566250247
 20
14.99999999998769
 30
0.0
 11
-77.50000001002956
 21
14.99999999998769
 31
0.0
  0
LINE
  5
8FBA
330
A
100
AcDbEntity
  8
0
  6
Continuous
 62
     7
370
     0
100
AcDbLine
 10
-81.50000001002927
 20
-65.00000000001231
 30
0.0
 11
-90.50000001002599
 21
-65.00000000001231
 31
0.0
  0
LINE
  5
8FBB
330
A
100
AcDbEntity
  8
0
  6
Continuous
 62
     9
370
     0
100
AcDbLine
 10
-76.59053573790629
 20
14.99999999998769
 30
0.0
 11
-76.59053573790629
 21
7.875329078606085
 31
0.0
  0
LINE
  5
8FBC
330
A
100
AcDbEntity
  8
0
  6
Continuous
 62
     7
370
     0
100
AcDbLine
 10
-76.61629566250167
 20
7.838328725115815
 30
0.0
 11
-76.59053573790629
 21
7.875329078606085
 31
0.0
  0
LINE
  5
8FBD
330
A
100
AcDbEntity
  8
0
  6
Continuous
 62
     7
370
     0
100
AcDbLine
 10
-76.59053573790612
 20
14.99999999998769
 30
0.0
 11
-76.61629566250247
 21
14.99999999998769
 31
0.0
  0
LINE
  5
8FBE
330
A
100
AcDbEntity
  8
0
  6
Continuous
 62
     9
370
     0
100
AcDbLine
 10
-96.40946424582114
 20
14.99999999998769
 30
0.0
 11
-96.40946424582114
 21
7.875329078606085
 31
0.0
  0
LINE
  5
8FBF
330
A
100
AcDbEntity
  8
0
  6
Continuous
 62
     7
370
     0
100
AcDbLine
 10
-96.40946424582114
 20
7.875329078606085
 30
0.0
 11
-96.38370432122577
 21
7.838328725115815
 31
0.0
  0
LINE
  5
8FC0
330
A
100
AcDbEntity
  8
0
  6
Continuous
 62
     7
370
     0
100
AcDbLine
 10
-96.38370432122497
 20
14.99999999998769
 30
0.0
 11
-96.40946424582114
 21
14.99999999998769
 31
0.0
  0
LINE
  5
8FC1
330
A
100
AcDbEntity
  8
0
  6
Continuous
 62
     9
370
     0
100
AcDbLine
 10
-96.40946424582114
 20
-57.8753290786307
 30
0.0
 11
-96.40946424582114
 21
-65.00000000001231
 31
0.0
  0
LINE
  5
8FC2
330
A
100
AcDbEntity
  8
0
  6
Continuous
 62
     7
370
     0
100
AcDbLine
 10
-96.38370432122577
 20
-57.83832872514039
 30
0.0
 11
-96.40946424582114
 21
-57.8753290786307
 31
0.0
  0
LINE
  5
8FC3
330
A
100
AcDbEntity
  8
0
  6
Continuous
 62
     7
370
     0
100
AcDbLine
 10
-96.38370432122497
 20
-65.00000000001231
 30
0.0
 11
-96.40946424582114
 21
-65.00000000001231
 31
0.0
  0
ARC
  5
8FC4
330
A
100
AcDbEntity
  8
0
  6
Continuous
 62
     7
370
     0
100
AcDbCircle
 10
-72.49999999186377
 20
-55.00000000001231
 30
0.0
 40
4.99999999999995
100
AcDbArc
 50
194.4775121854997
 51
214.5876109351956
  0
LINE
  5
8FC5
330
A
100
AcDbEntity
  8
0
  6
Continuous
 62
     7
370
     0
100
AcDbLine
 10
-76.61629566250247
 20
-65.00000000001231
 30
0.0
 11
-76.61629566250167
 21
-57.83832872514039
 31
0.0
  0
LINE
  5
8FC6
330
A
100
AcDbEntity
  8
0
  6
Continuous
 62
     7
370
     0
100
AcDbLine
 10
-77.50000001002928
 20
-65.00000000001231
 30
0.0
 11
-76.61629566250247
 21
-65.00000000001231
 31
0.0
  0
LINE
  5
8FC7
330
A
100
AcDbEntity
  8
0
  6
Continuous
 62
     9
370
     0
100
AcDbLine
 10
-76.59053573790629
 20
-57.87532907863059
 30
0.0
 11
-76.59053573790629
 21
-65.00000000001231
 31
0.0
  0
LINE
  5
8FC8
330
A
100
AcDbEntity
  8
0
  6
Continuous
 62
     7
370
     0
100
AcDbLine
 10
-76.59053573790629
 20
-57.8753290786307
 30
0.0
 11
-76.61629566250167
 21
-57.83832872514039
 31
0.0
  0
LINE
  5
8FC9
330
A
100
AcDbEntity
  8
0
  6
Continuous
 62
     7
370
     0
100
AcDbLine
 10
-76.59053573790629
 20
-65.00000000001231
 30
0.0
 11
-76.61629566250247
 21
-65.00000000001231
 31
0.0
  0
LINE
  5
8FCA
330
A
100
AcDbEntity
  8
0
  6
Continuous
 62
     9
370
     0
100
AcDbLine
 10
-105.5905357379061
 20
14.99999999998769
 30
0.0
 11
-105.5905357379061
 21
-65.00000000001231
 31
0.0
  0
ARC
  5
8FCB
330
A
100
AcDbEntity
  8
0
  6
Continuous
 62
     7
370
     0
100
AcDbCircle
 10
-100.4999999918636
 20
4.999999999987693
 30
0.0
 40
4.999999999999993
100
AcDbArc
 50
35.10424144075166
 51
324.8957585592497
  0
ARC
  5
8FCC
330
A
100
AcDbEntity
  8
0
  6
Continuous
 62
     7
370
     0
100
AcDbCircle
 10
-100.4999999918636
 20
-55.00000000001231
 30
0.0
 40
5.000000000000008
100
AcDbArc
 50
35.10424144075033
 51
324.8957585592484
  0
LINE
  5
8FCD
330
A
100
AcDbEntity
  8
0
  6
Continuous
 62
     7
370
     0
100
AcDbLine
 10
-105.5905357379061
 20
-65.00000000001231
 30
0.0
 11
-96.40946424582114
 21
-65.00000000001231
 31
0.0
  0
LINE
  5
8FCE
330
A
100
AcDbEntity
  8
0
  6
Continuous
 62
     7
370
     0
100
AcDbLine
 10
-105.5905357379061
 20
14.99999999998769
 30
0.0
 11
-96.40946424582114
 21
14.99999999998769
 31
0.0
  0
LINE
  5
8FCF
330
A
100
AcDbEntity
  8
0
  6
Continuous
 62
     9
370
     0
100
AcDbLine
 10
-67.40946424582114
 20
14.99999999998769
 30
0.0
 11
-67.40946424582131
 21
-65.00000000001231
 31
0.0
  0
ARC
  5
8FD0
330
A
100
AcDbEntity
  8
0
  6
Continuous
 62
     7
370
     0
100
AcDbCircle
 10
-72.49999999186377
 20
4.999999999987693
 30
0.0
 40
4.999999999999978
100
AcDbArc
 50
233.1301020959248
 51
144.8957585592496
  0
ARC
  5
8FD1
330
A
100
AcDbEntity
  8
0
  6
Continuous
 62
     7
370
     0
100
AcDbCircle
 10
-72.49999999186377
 20
-55.00000000001231
 30
0.0
 40
4.999999999999992
100
AcDbArc
 50
215.1042414407503
 51
126.8698979041983
  0
LINE
  5
8FD2
330
A
100
AcDbEntity
  8
0
  6
Continuous
 62
     7
370
     0
100
AcDbLine
 10
-76.59053573790629
 20
-65.00000000001231
 30
0.0
 11
-67.40946424582131
 21
-65.00000000001231
 31
0.0
  0
LINE
  5
8FD3
330
A
100
AcDbEntity
  8
0
  6
Continuous
 62
     7
370
     0
100
AcDbLine
 10
-76.59053573790629
 20
14.99999999998769
 30
0.0
 11
-67.40946424582114
 21
14.99999999998769
 31
0.0
  0
LINE
  5
8FD4
330
A
100
AcDbEntity
  8
0
  6
Continuous
 62
     7
370
     0
100
AcDbLine
 10
-106.4999999918636
 20
14.99999999998769
 30
0.0
 11
-106.4999999918636
 21
-65.00000000001231
 31
0.0
  0
LINE
  5
8FD5
330
A
100
AcDbEntity
  8
0
  6
Continuous
 62
     7
370
     0
100
AcDbLine
 10
-106.4999999918636
 20
-65.00000000001231
 30
0.0
 11
-105.5905357379061
 21
-65.00000000001231
 31
0.0
  0
LINE
  5
8FD6
330
A
100
AcDbEntity
  8
0
  6
Continuous
 62
     7
370
     0
100
AcDbLine
 10
-106.4999999918636
 20
14.99999999998769
 30
0.0
 11
-105.5905357379061
 21
14.99999999998769
 31
0.0
  0
LINE
  5
8FD7
330
A
100
AcDbEntity
  8
0
  6
Continuous
 62
     7
370
     0
100
AcDbLine
 10
-66.4999999918636
 20
14.99999999998769
 30
0.0
 11
-66.49999999186377
 21
-65.00000000001231
 31
0.0
  0
LINE
  5
8FD8
330
A
100
AcDbEntity
  8
0
  6
Continuous
 62
     7
370
     0
100
AcDbLine
 10
-67.40946424582131
 20
-65.00000000001231
 30
0.0
 11
-66.49999999186377
 21
-65.00000000001231
 31
0.0
  0
LINE
  5
8FD9
330
A
100
AcDbEntity
  8
0
  6
Continuous
 62
     7
370
     0
100
AcDbLine
 10
-67.40946424582114
 20
14.99999999998769
 30
0.0
 11
-66.4999999918636
 21
14.99999999998769
 31
0.0
  0
CIRCLE
  5
8FDA
330
A
100
AcDbEntity
  8
0
  6
Continuous
 62
     7
370
     0
100
AcDbCircle
 10
-100.4999999918636
 20
4.999999999987693
 30
0.0
 40
2.649999999999983
  0
CIRCLE
  5
8FDB
330
A
100
AcDbEntity
  8
0
  6
Continuous
 62
     7
370
     0
100
AcDbCircle
 10
-100.4999999918636
 20
-55.00000000001231
 30
0.0
 40
2.649999999999983
  0
CIRCLE
  5
8FDC
330
A
100
AcDbEntity
  8
0
  6
Continuous
 62
     7
370
     0
100
AcDbCircle
 10
-72.49999999186377
 20
4.999999999987693
 30
0.0
 40
2.649999999999983
  0
CIRCLE
  5
8FDD
330
A
100
AcDbEntity
  8
0
  6
Continuous
 62
     7
370
     0
100
AcDbCircle
 10
-72.49999999186377
 20
-55.00000000001231
 30
0.0
 40
2.650000000000041
  0
LINE
  5
8FDE
330
A
100
AcDbEntity
  8
0
  6
Continuous
 62
     9
370
     0
100
AcDbLine
 10
-77.49999999186366
 20
-38.7000000007514
 30
0.0
 11
-77.29999999202357
 21
-38.70000000076419
 31
0.0
  0
LINE
  5
8FDF
330
A
100
AcDbEntity
  8
0
  6
Continuous
 62
     9
370
     0
100
AcDbLine
 10
-77.29999999170377
 20
-33.70000000076419
 30
0.0
 11
-77.49999999186366
 21
-33.7000000007514
 31
0.0
  0
LINE
  5
8FE0
330
A
100
AcDbEntity
  8
0
  6
Continuous
 62
     7
370
     0
100
AcDbLine
 10
-77.49999999186366
 20
-39.10000000038019
 30
0.0
 11
-77.29999999202357
 21
-38.70000000076419
 31
0.0
  0
LINE
  5
8FE1
330
A
100
AcDbEntity
  8
0
  6
Continuous
 62
     7
370
     0
100
AcDbLine
 10
-77.29999999202357
 20
-38.70000000076419
 30
0.0
 11
-77.04999999199163
 21
-38.2000000007802
 31
0.0
  0
LINE
  5
8FE2
330
A
100
AcDbEntity
  8
0
  6
Continuous
 62
     7
370
     0
100
AcDbLine
 10
-77.04999999173566
 20
-34.20000000078019
 30
0.0
 11
-77.29999999170377
 21
-33.70000000076419
 31
0.0
  0
LINE
  5
8FE3
330
A
100
AcDbEntity
  8
0
  6
Continuous
 62
     7
370
     0
100
AcDbLine
 10
-77.29999999170377
 20
-33.70000000076419
 30
0.0
 11
-77.49999999186366
 21
-33.30000000038032
 31
0.0
  0
ARC
  5
8FE4
330
A
100
AcDbEntity
  8
0
  6
Continuous
 62
     7
370
     0
100
AcDbCircle
 10
-95.11538462090777
 20
-20.70000000001369
 30
0.0
 40
1.0
100
AcDbArc
 50
89.99999999999674
 51
179.9999999999984
  0
LINE
  5
8FE5
330
A
100
AcDbEntity
  8
0
  6
Continuous
 62
     7
370
     0
100
AcDbLine
 10
-96.11538462090777
 20
-20.70000000001369
 30
0.0
 11
-96.11538462090777
 21
-29.5000000000137
 31
0.0
  0
ARC
  5
8FE6
330
A
100
AcDbEntity
  8
0
  6
Continuous
 62
     7
370
     0
100
AcDbCircle
 10
-95.11538462090777
 20
-29.5000000000137
 30
0.0
 40
1.0
100
AcDbArc
 50
180.0
 51
270.0
  0
ARC
  5
8FE7
330
A
100
AcDbEntity
  8
0
  6
Continuous
 62
     7
370
     0
100
AcDbCircle
 10
-77.8846153901365
 20
-20.70000000001369
 30
0.0
 40
1.0
100
AcDbArc
 50
0.0
 51
67.38013533180441
  0
ARC
  5
8FE8
330
A
100
AcDbEntity
  8
0
  6
Continuous
 62
     7
370
     0
100
AcDbCircle
 10
-77.8846153901365
 20
-29.5000000000137
 30
0.0
 40
1.000000000000017
100
AcDbArc
 50
292.6198646681992
 51
0.0
  0
LINE
  5
8FE9
330
A
100
AcDbEntity
  8
0
  6
Continuous
 62
     7
370
     0
100
AcDbLine
 10
-76.8846153901365
 20
-29.5000000000137
 30
0.0
 11
-76.8846153901365
 21
-20.70000000001369
 31
0.0
  0
LINE
  5
8FEA
330
A
100
AcDbEntity
  8
0
  6
Continuous
 62
     7
370
     0
100
AcDbLine
 10
-77.20000001003075
 20
-56.24999999997598
 30
0.0
 11
-75.75000001003076
 21
-55.41284210965099
 31
0.0
  0
LINE
  5
8FEB
330
A
100
AcDbEntity
  8
0
  6
Continuous
 62
     7
370
     0
100
AcDbLine
 10
-75.75000001003076
 20
-44.58715789030091
 30
0.0
 11
-77.20000001003075
 21
-43.7499999999759
 31
0.0
  0
LINE
  5
8FEC
330
A
100
AcDbEntity
  8
0
  6
Continuous
 62
     7
370
     0
100
AcDbLine
 10
-77.20000001003075
 20
-43.74999999997598
 30
0.0
 11
-77.50000001003076
 21
-43.74999999997598
 31
0.0
  0
LINE
  5
8FED
330
A
100
AcDbEntity
  8
0
  6
Continuous
 62
     7
370
     0
100
AcDbLine
 10
-77.50000001003076
 20
-56.24999999997598
 30
0.0
 11
-77.20000001003075
 21
-56.24999999997598
 31
0.0
  0
ARC
  5
8FEE
330
A
100
AcDbEntity
  8
0
  6
Continuous
 62
     7
370
     0
100
AcDbCircle
 10
-76.00000001003076
 20
-45.02017059219309
 30
0.0
 40
0.5000000000000006
100
AcDbArc
 50
0.0
 51
60.00000000000028
  0
ARC
  5
8FEF
330
A
100
AcDbEntity
  8
0
  6
Continuous
 62
     7
370
     0
100
AcDbCircle
 10
-76.00000001003076
 20
-54.97982940775881
 30
0.0
 40
0.5000000000000159
100
AcDbArc
 50
300.0000000000034
 51
0.0000000000032569
  0
LINE
  5
8FF0
330
A
100
AcDbEntity
  8
0
  6
Continuous
 62
     7
370
     0
100
AcDbLine
 10
-77.20000001003007
 20
-6.249999999997896
 30
0.0
 11
-75.75000001003019
 21
-5.412842109672993
 31
0.0
  0
LINE
  5
8FF1
330
A
100
AcDbEntity
  8
0
  6
Continuous
 62
     7
370
     0
100
AcDbLine
 10
-75.75000001003019
 20
5.412842109675978
 30
0.0
 11
-77.20000001003007
 21
6.250000000000881
 31
0.0
  0
LINE
  5
8FF2
330
A
100
AcDbEntity
  8
0
  6
Continuous
 62
     7
370
     0
100
AcDbLine
 10
-77.20000001003007
 20
6.250000000000881
 30
0.0
 11
-77.50000001003019
 21
6.250000000000881
 31
0.0
  0
LINE
  5
8FF3
330
A
100
AcDbEntity
  8
0
  6
Continuous
 62
     7
370
     0
100
AcDbLine
 10
-77.50000001003008
 20
-6.249999999997896
 30
0.0
 11
-77.20000001003007
 21
-6.249999999997896
 31
0.0
  0
ARC
  5
8FF4
330
A
100
AcDbEntity
  8
0
  6
Continuous
 62
     7
370
     0
100
AcDbCircle
 10
-76.00000001003019
 20
4.97982940778391
 30
0.0
 40
0.5000000000000006
100
AcDbArc
 50
0.0
 51
59.99999999999664
  0
ARC
  5
8FF5
330
A
100
AcDbEntity
  8
0
  6
Continuous
 62
     7
370
     0
100
AcDbCircle
 10
-76.00000001003019
 20
-4.979829407780897
 30
0.0
 40
0.499999999999992
100
AcDbArc
 50
300.0000000000042
 51
0.0000000000016284
  0
LINE
  5
8FF6
330
A
100
AcDbEntity
  8
0
  6
Continuous
 62
     7
370
     0
100
AcDbLine
 10
-83.00000001002997
 20
5.500000000024016
 30
0.0
 11
-89.00000001002666
 21
5.500000000024016
 31
0.0
  0
LINE
  5
8FF7
330
A
100
AcDbEntity
  8
0
  6
Continuous
 62
     7
370
     0
100
AcDbLine
 10
-89.00000001002638
 20
-55.49999999997599
 30
0.0
 11
-83.00000001002979
 21
-55.49999999997599
 31
0.0
  0
LINE
  5
8FF8
330
A
100
AcDbEntity
  8
0
  6
Continuous
 62
     7
370
     0
100
AcDbLine
 10
-95.31079801747864
 20
-8.750000000012306
 30
0.0
 11
-95.31079801747864
 21
-19.5000000000125
 31
0.0
  0
LINE
  5
8FF9
330
A
100
AcDbEntity
  8
0
  6
Continuous
 62
     7
370
     0
100
AcDbLine
 10
-95.31079801747864
 20
-30.50000000001231
 30
0.0
 11
-95.31079801747864
 21
-41.25000000001231
 31
0.0
  0
LINE
  5
8FFA
330
A
100
AcDbEntity
  8
0
  6
Continuous
 62
     7
370
     0
100
AcDbLine
 10
46.00000000813622
 20
14.99999999998769
 30
0.0
 11
86.00000000813622
 21
14.99999999998769
 31
0.0
  0
LINE
  5
8FFB
330
A
100
AcDbEntity
  8
0
  6
Continuous
 62
     7
370
     0
100
AcDbLine
 10
86.00000000813622
 20
14.99999999998769
 30
0.0
 11
86.00000000813622
 21
-65.00000000001231
 31
0.0
  0
LINE
  5
8FFC
330
A
100
AcDbEntity
  8
0
  6
Continuous
 62
     7
370
     0
100
AcDbLine
 10
46.00000000813622
 20
-65.00000000001231
 30
0.0
 11
86.00000000813622
 21
-65.00000000001231
 31
0.0
  0
CIRCLE
  5
8FFD
330
A
100
AcDbEntity
  8
0
  6
Continuous
 62
     7
370
     0
100
AcDbCircle
 10
80.00000000813622
 20
-55.00000000001231
 30
0.0
 40
2.649999999999983
  0
CIRCLE
  5
8FFE
330
A
100
AcDbEntity
  8
0
  6
Continuous
 62
     7
370
     0
100
AcDbCircle
 10
52.00000000813639
 20
-55.00000000001231
 30
0.0
 40
2.650000000000041
  0
CIRCLE
  5
8FFF
330
A
100
AcDbEntity
  8
0
  6
Continuous
 62
     7
370
     0
100
AcDbCircle
 10
80.00000000813622
 20
4.999999999987693
 30
0.0
 40
2.649999999999983
  0
CIRCLE
  5
9000
330
A
100
AcDbEntity
  8
0
  6
Continuous
 62
     7
370
     0
100
AcDbCircle
 10
52.00000000813623
 20
4.999999999987693
 30
0.0
 40
2.649999999999983
  0
LINE
  5
9001
330
A
100
AcDbEntity
  8
0
  6
Continuous
 62
     7
370
     0
100
AcDbLine
 10
46.00000000813622
 20
14.99999999998769
 30
0.0
 11
46.00000000813622
 21
-65.00000000001231
 31
0.0
  0
LINE
  5
9002
330
A
100
AcDbEntity
  8
0
  6
Continuous
 62
     7
370
     0
100
AcDbLine
 10
-26.99678534580158
 20
-100.5499999999942
 30
0.0
 11
-30.99678534580159
 21
-100.5499999999942
 31
0.0
  0
LINE
  5
9003
330
A
100
AcDbEntity
  8
0
  6
Continuous
 62
     9
370
     0
100
AcDbLine
 10
-24.29702415777394
 20
-118.9791837488751
 30
0.0
 11
-24.47405875686639
 21
-119.5475113338044
 31
0.0
  0
ARC
  5
9004
330
A
100
AcDbEntity
  8
0
  6
Continuous
 62
     7
370
     0
100
AcDbCircle
 10
-21.49999963485817
 20
-110.0000000172976
 30
0.0
 40
9.999999999999991
100
AcDbArc
 50
244.1580670093737
 51
252.6981373738241
  0
ARC
  5
9005
330
A
100
AcDbEntity
  8
0
  6
Continuous
 62
     7
370
     0
100
AcDbCircle
 10
-21.49999963485817
 20
-110.0000000172976
 30
0.0
 40
9.999999999999976
100
AcDbArc
 50
107.3018627914066
 51
115.8419325357327
  0
LINE
  5
9006
330
A
100
AcDbEntity
  8
0
  6
Continuous
 62
     9
370
     0
100
AcDbLine
 10
-24.30350847397097
 20
-101.0000000181601
 30
0.0
 11
-24.47405878439986
 21
-100.4524887093676
 31
0.0
  0
LINE
  5
9007
330
A
100
AcDbEntity
  8
0
  6
Continuous
 62
     9
370
     0
100
AcDbLine
 10
-23.73453171240112
 20
-118.6823399882453
 30
0.0
 11
-23.33850890516891
 21
-119.4475524675022
 31
0.0
  0
ARC
  5
9008
330
A
100
AcDbEntity
  8
0
  6
Continuous
 62
     7
370
     0
100
AcDbCircle
 10
-24.02794988856505
 20
-118.1153846363282
 30
0.0
 40
1.500000000000004
100
AcDbArc
 50
252.6981373738236
 51
297.3630619049655
  0
ARC
  5
9009
330
A
100
AcDbEntity
  8
0
  6
Continuous
 62
     7
370
     0
100
AcDbCircle
 10
-24.02794991196868
 20
-101.8846154055573
 30
0.0
 40
1.500000000000003
100
AcDbArc
 50
62.63693826026702
 51
107.3018627914066
  0
LINE
  5
900A
330
A
100
AcDbEntity
  8
0
  6
Continuous
 62
     9
370
     0
100
AcDbLine
 10
-23.57013214754449
 20
-101.0000000181598
 30
0.0
 11
-23.3385089324143
 21
-100.552447572395
 31
0.0
  0
ARC
  5
900B
330
A
100
AcDbEntity
  8
0
  6
Continuous
 62
     7
370
     0
100
AcDbCircle
 10
-21.49999965360314
 20
-97.00000001729621
 30
0.0
 40
4.000000000000008
100
AcDbArc
 50
242.636938260267
 51
270.0
  0
ARC
  5
900C
330
A
100
AcDbEntity
  8
0
  6
Continuous
 62
     7
370
     0
100
AcDbCircle
 10
-21.49999965360314
 20
-97.00000001729621
 30
0.0
 40
4.000000000000001
100
AcDbArc
 50
270.0
 51
297.3630619049662
  0
LINE
  5
900D
330
A
100
AcDbEntity
  8
0
  6
Continuous
 62
     9
370
     0
100
AcDbLine
 10
-19.6614903645472
 20
-100.5524475670931
 30
0.0
 11
-19.42986714503661
 21
-101.0000000181602
 31
0.0
  0
LINE
  5
900E
330
A
100
AcDbEntity
  8
0
  6
Continuous
 62
     9
370
     0
100
AcDbLine
 10
-19.26439845236962
 20
-118.6802742591283
 30
0.0
 11
-19.66149033730193
 21
-119.4475524622002
 31
0.0
  0
ARC
  5
900F
330
A
100
AcDbEntity
  8
0
  6
Continuous
 62
     7
370
     0
100
AcDbCircle
 10
-21.49999961611314
 20
-123.000000017299
 30
0.0
 40
4.000000000000008
100
AcDbArc
 50
62.63693826026702
 51
117.3630619049662
  0
LINE
  5
9010
330
A
100
AcDbEntity
  8
0
  6
Continuous
 62
     9
370
     0
100
AcDbLine
 10
-18.75546226743864
 20
-118.8106860974685
 30
0.0
 11
-18.52594048531631
 21
-119.5475113252276
 31
0.0
  0
ARC
  5
9011
330
A
100
AcDbEntity
  8
0
  6
Continuous
 62
     7
370
     0
100
AcDbCircle
 10
-18.97204935774755
 20
-118.1153846290379
 30
0.0
 40
1.499999999999988
100
AcDbArc
 50
242.6369382602678
 51
287.3018627914066
  0
ARC
  5
9012
330
A
100
AcDbEntity
  8
0
  6
Continuous
 62
     7
370
     0
100
AcDbCircle
 10
-18.97204938115112
 20
-101.884615398267
 30
0.0
 40
1.499999999999992
100
AcDbArc
 50
72.69813737382405
 51
117.3630619049655
  0
LINE
  5
9013
330
A
100
AcDbEntity
  8
0
  6
Continuous
 62
     9
370
     0
100
AcDbLine
 10
-18.5259405128499
 20
-100.4524887007909
 30
0.0
 11
-18.6964908242183
 21
-101.0000000181599
 31
0.0
  0
ARC
  5
9014
330
A
100
AcDbEntity
  8
0
  6
Continuous
 62
     7
370
     0
100
AcDbCircle
 10
-21.49999963485817
 20
-110.0000000172976
 30
0.0
 40
10.0
100
AcDbArc
 50
64.15806722548312
 51
72.69813737382405
  0
ARC
  5
9015
330
A
100
AcDbEntity
  8
0
  6
Continuous
 62
     7
370
     0
100
AcDbCircle
 10
-21.49999963485817
 20
-110.0000000172976
 30
0.0
 40
9.999999999999996
100
AcDbArc
 50
287.3018627914066
 51
306.86989763765
  0
LINE
  5
9016
330
A
100
AcDbEntity
  8
0
  6
Continuous
 62
     9
370
     0
100
AcDbLine
 10
5.412842109671714
 20
-99.25000001818162
 30
0.0
 11
0.0000000000244995
 21
-99.2500000181606
 31
0.0
  0
LINE
  5
9017
330
A
100
AcDbEntity
  8
0
  6
Continuous
 62
     7
370
     0
100
AcDbLine
 10
-6.250000000008981
 20
-100.7000000181363
 30
0.0
 11
6.249999999991018
 21
-100.7000000181849
 31
0.0
  0
LINE
  5
9018
330
A
100
AcDbEntity
  8
0
  6
Continuous
 62
     9
370
     0
100
AcDbLine
 10
0.0000000000244995
 20
-99.2500000181606
 30
0.0
 11
-5.412842109678251
 21
-99.2500000181395
 31
0.0
  0
LINE
  5
9019
330
A
100
AcDbEntity
  8
0
  6
Continuous
 62
     7
370
     0
100
AcDbLine
 10
-4.979829407784961
 20
-99.0000000181412
 30
0.0
 11
0.0000000000231353
 21
-99.0000000181606
 31
0.0
  0
LINE
  5
901A
330
A
100
AcDbEntity
  8
0
  6
Continuous
 62
     7
370
     0
100
AcDbLine
 10
0.0000000000231353
 20
-99.0000000181606
 30
0.0
 11
4.979829407780641
 21
-99.00000001817991
 31
0.0
  0
LINE
  5
901B
330
A
100
AcDbEntity
  8
0
  6
Continuous
 62
     7
370
     0
100
AcDbLine
 10
-30.74999999999176
 20
-105.00000001816
 30
0.0
 11
-30.74999999999176
 21
-105.5000000181612
 31
0.0
  0
LINE
  5
901C
330
A
100
AcDbEntity
  8
0
  6
Continuous
 62
     9
370
     0
100
AcDbLine
 10
-26.24999999999176
 20
-105.00000001816
 30
0.0
 11
-26.24999999999176
 21
-105.5000000181611
 31
0.0
  0
LINE
  5
901D
330
A
100
AcDbEntity
  8
0
  6
Continuous
 62
     7
370
     0
100
AcDbLine
 10
-30.74999999999562
 20
-105.5000000181612
 30
0.0
 11
-26.24999999999176
 21
-105.500000018161
 31
0.0
  0
LINE
  5
901E
330
A
100
AcDbEntity
  8
0
  6
Continuous
 62
     9
370
     0
100
AcDbLine
 10
11.25000000000801
 20
-105.00000001816
 30
0.0
 11
11.25000000000824
 21
-105.5000000181601
 31
0.0
  0
LINE
  5
901F
330
A
100
AcDbEntity
  8
0
  6
Continuous
 62
     7
370
     0
100
AcDbLine
 10
-26.24999999999176
 20
-105.5000000181611
 30
0.0
 11
11.25000000000824
 21
-105.5000000181601
 31
0.0
  0
LINE
  5
9020
330
A
100
AcDbEntity
  8
0
  6
Continuous
 62
     7
370
     0
100
AcDbLine
 10
15.75000000000801
 20
-105.0000000181604
 30
0.0
 11
15.75000000000824
 21
-105.5000000181599
 31
0.0
  0
LINE
  5
9021
330
A
100
AcDbEntity
  8
0
  6
Continuous
 62
     7
370
     0
100
AcDbLine
 10
11.25000000000824
 20
-105.5000000181601
 30
0.0
 11
15.75000000001381
 21
-105.5000000181599
 31
0.0
  0
LINE
  5
9022
330
A
100
AcDbEntity
  8
0
  6
Continuous
 62
     9
370
     0
100
AcDbLine
 10
-26.25000000000398
 20
-106.5000000181609
 30
0.0
 11
-26.25000000000398
 21
-105.5000000181611
 31
0.0
  0
LINE
  5
9023
330
A
100
AcDbEntity
  8
0
  6
Continuous
 62
     9
370
     0
100
AcDbLine
 10
-26.25000000000398
 20
-105.5000000181611
 30
0.0
 11
-26.25000000000398
 21
-105.00000001816
 31
0.0
  0
LINE
  5
9024
330
A
100
AcDbEntity
  8
0
  6
Continuous
 62
     7
370
     0
100
AcDbLine
 10
-26.25000000000398
 20
-106.5000000181609
 30
0.0
 11
-30.75000000000398
 21
-106.500000018161
 31
0.0
  0
LINE
  5
9025
330
A
100
AcDbEntity
  8
0
  6
Continuous
 62
     7
370
     0
100
AcDbLine
 10
-30.7500000000054
 20
-106.500000018161
 30
0.0
 11
-30.75000000000546
 21
-105.5000000181612
 31
0.0
  0
LINE
  5
9026
330
A
100
AcDbEntity
  8
0
  6
Continuous
 62
     7
370
     0
100
AcDbLine
 10
-30.75000000000546
 20
-105.5000000181612
 30
0.0
 11
-30.75000000000546
 21
-105.00000001816
 31
0.0
  0
LINE
  5
9027
330
A
100
AcDbEntity
  8
0
  6
Continuous
 62
     9
370
     0
100
AcDbLine
 10
11.25000000000824
 20
-106.5000000181599
 30
0.0
 11
11.25000000000824
 21
-105.5000000181601
 31
0.0
  0
LINE
  5
9028
330
A
100
AcDbEntity
  8
0
  6
Continuous
 62
     9
370
     0
100
AcDbLine
 10
11.25000000000824
 20
-105.5000000181601
 30
0.0
 11
11.25000000000801
 21
-105.00000001816
 31
0.0
  0
LINE
  5
9029
330
A
100
AcDbEntity
  8
0
  6
Continuous
 62
     7
370
     0
100
AcDbLine
 10
11.25000000000824
 20
-106.5000000181599
 30
0.0
 11
-26.25000000000387
 21
-106.5000000181609
 31
0.0
  0
LINE
  5
902A
330
A
100
AcDbEntity
  8
0
  6
Continuous
 62
     7
370
     0
100
AcDbLine
 10
15.75000000000955
 20
-106.5000000181598
 30
0.0
 11
15.75000000000955
 21
-105.5000000181599
 31
0.0
  0
LINE
  5
902B
330
A
100
AcDbEntity
  8
0
  6
Continuous
 62
     7
370
     0
100
AcDbLine
 10
15.75000000000955
 20
-105.5000000181599
 30
0.0
 11
15.75000000000955
 21
-105.00000001816
 31
0.0
  0
LINE
  5
902C
330
A
100
AcDbEntity
  8
0
  6
Continuous
 62
     7
370
     0
100
AcDbLine
 10
15.75000000000824
 20
-106.5000000181598
 30
0.0
 11
11.25000000000824
 21
-106.5000000181599
 31
0.0
  0
LINE
  5
902D
330
A
100
AcDbEntity
  8
0
  6
Continuous
 62
     9
370
     0
100
AcDbLine
 10
-26.2499999999755
 20
-114.0000000181566
 30
0.0
 11
-26.2499999999755
 21
-113.5000000181575
 31
0.0
  0
LINE
  5
902E
330
A
100
AcDbEntity
  8
0
  6
Continuous
 62
     7
370
     0
100
AcDbLine
 10
-30.74999999997334
 20
-114.0000000181566
 30
0.0
 11
-30.74999999997334
 21
-113.5000000181576
 31
0.0
  0
LINE
  5
902F
330
A
100
AcDbEntity
  8
0
  6
Continuous
 62
     7
370
     0
100
AcDbLine
 10
-26.2499999999755
 20
-113.5000000181574
 30
0.0
 11
-30.7499999999755
 21
-113.5000000181576
 31
0.0
  0
LINE
  5
9030
330
A
100
AcDbEntity
  8
0
  6
Continuous
 62
     9
370
     0
100
AcDbLine
 10
11.25000000000733
 20
-114.0000000181566
 30
0.0
 11
11.25000000000733
 21
-113.5000000181564
 31
0.0
  0
LINE
  5
9031
330
A
100
AcDbEntity
  8
0
  6
Continuous
 62
     7
370
     0
100
AcDbLine
 10
11.25000000000733
 20
-113.5000000181564
 30
0.0
 11
-26.2499999999755
 21
-113.5000000181575
 31
0.0
  0
LINE
  5
9032
330
A
100
AcDbEntity
  8
0
  6
Continuous
 62
     7
370
     0
100
AcDbLine
 10
15.7500000000054
 20
-114.0000000181566
 30
0.0
 11
15.7500000000054
 21
-113.5000000181563
 31
0.0
  0
LINE
  5
9033
330
A
100
AcDbEntity
  8
0
  6
Continuous
 62
     7
370
     0
100
AcDbLine
 10
15.75000000000733
 20
-113.5000000181563
 30
0.0
 11
11.25000000000733
 21
-113.5000000181564
 31
0.0
  0
LINE
  5
9034
330
A
100
AcDbEntity
  8
0
  6
Continuous
 62
     9
370
     0
100
AcDbLine
 10
-26.25000000000807
 20
-114.0000000181566
 30
0.0
 11
-26.2500000000083
 21
-113.5000000181575
 31
0.0
  0
LINE
  5
9035
330
A
100
AcDbEntity
  8
0
  6
Continuous
 62
     9
370
     0
100
AcDbLine
 10
-26.2500000000083
 20
-113.5000000181575
 30
0.0
 11
-26.2500000000083
 21
-112.5000000181576
 31
0.0
  0
LINE
  5
9036
330
A
100
AcDbEntity
  8
0
  6
Continuous
 62
     7
370
     0
100
AcDbLine
 10
-30.75000000001006
 20
-114.0000000181566
 30
0.0
 11
-30.75000000001006
 21
-113.5000000181576
 31
0.0
  0
LINE
  5
9037
330
A
100
AcDbEntity
  8
0
  6
Continuous
 62
     7
370
     0
100
AcDbLine
 10
-30.75000000001006
 20
-113.5000000181576
 30
0.0
 11
-30.75000000001006
 21
-112.5000000181577
 31
0.0
  0
LINE
  5
9038
330
A
100
AcDbEntity
  8
0
  6
Continuous
 62
     7
370
     0
100
AcDbLine
 10
-26.2500000000083
 20
-112.5000000181576
 30
0.0
 11
-30.7500000000083
 21
-112.5000000181577
 31
0.0
  0
LINE
  5
9039
330
A
100
AcDbEntity
  8
0
  6
Continuous
 62
     9
370
     0
100
AcDbLine
 10
11.25000000000733
 20
-114.0000000181566
 30
0.0
 11
11.25000000000733
 21
-113.5000000181564
 31
0.0
  0
LINE
  5
903A
330
A
100
AcDbEntity
  8
0
  6
Continuous
 62
     9
370
     0
100
AcDbLine
 10
11.25000000000733
 20
-113.5000000181564
 30
0.0
 11
11.25000000000733
 21
-112.5000000181566
 31
0.0
  0
LINE
  5
903B
330
A
100
AcDbEntity
  8
0
  6
Continuous
 62
     7
370
     0
100
AcDbLine
 10
11.25000000000733
 20
-112.5000000181566
 30
0.0
 11
-26.2500000000083
 21
-112.5000000181576
 31
0.0
  0
LINE
  5
903C
330
A
100
AcDbEntity
  8
0
  6
Continuous
 62
     7
370
     0
100
AcDbLine
 10
15.75000000000932
 20
-114.0000000181566
 30
0.0
 11
15.75000000000932
 21
-113.5000000181563
 31
0.0
  0
LINE
  5
903D
330
A
100
AcDbEntity
  8
0
  6
Continuous
 62
     7
370
     0
100
AcDbLine
 10
15.75000000000932
 20
-113.5000000181563
 30
0.0
 11
15.75000000000932
 21
-112.5000000181564
 31
0.0
  0
LINE
  5
903E
330
A
100
AcDbEntity
  8
0
  6
Continuous
 62
     7
370
     0
100
AcDbLine
 10
15.75000000000733
 20
-112.5000000181564
 30
0.0
 11
11.25000000000733
 21
-112.5000000181566
 31
0.0
  0
LINE
  5
903F
330
A
100
AcDbEntity
  8
0
  6
Continuous
 62
     7
370
     0
100
AcDbLine
 10
-32.49999999998414
 20
-105.00000001816
 30
0.0
 11
-32.49999999998414
 21
-103.1509805045672
 31
0.0
  0
ARC
  5
9040
330
A
100
AcDbEntity
  8
0
  6
Continuous
 62
     7
370
     0
100
AcDbCircle
 10
-26.99999999998664
 20
-108.2500000181599
 30
0.0
 40
7.500000000000007
100
AcDbArc
 50
104.835111581969
 51
137.1665719339189
  0
LINE
  5
9041
330
A
100
AcDbEntity
  8
0
  6
Continuous
 62
     7
370
     0
100
AcDbLine
 10
-28.92028643695295
 20
-101.00000001816
 30
0.0
 11
12.49999999999414
 21
-101.00000001816
 31
0.0
  0
LINE
  5
9042
330
A
100
AcDbEntity
  8
0
  6
Continuous
 62
     9
370
     0
100
AcDbLine
 10
12.49999999999414
 20
-105.00000001816
 30
0.0
 11
12.49999999999414
 21
-101.00000001816
 31
0.0
  0
LINE
  5
9043
330
A
100
AcDbEntity
  8
0
  6
Continuous
 62
     7
370
     0
100
AcDbLine
 10
-32.49999999998414
 20
-105.00000001816
 30
0.0
 11
12.49999999999414
 21
-105.00000001816
 31
0.0
  0
LINE
  5
9044
330
A
100
AcDbEntity
  8
0
  6
Continuous
 62
     7
370
     0
100
AcDbLine
 10
17.49999999999187
 20
-101.00000001816
 30
0.0
 11
17.49999999999187
 21
-105.0000000181599
 31
0.0
  0
LINE
  5
9045
330
A
100
AcDbEntity
  8
0
  6
Continuous
 62
     7
370
     0
100
AcDbLine
 10
12.49999999999414
 20
-101.00000001816
 30
0.0
 11
17.4999999999942
 21
-101.00000001816
 31
0.0
  0
LINE
  5
9046
330
A
100
AcDbEntity
  8
0
  6
Continuous
 62
     7
370
     0
100
AcDbLine
 10
17.4999999999942
 20
-105.0000000181599
 30
0.0
 11
12.49999999999414
 21
-105.0000000181599
 31
0.0
  0
CIRCLE
  5
9047
330
A
100
AcDbEntity
  8
0
  6
Continuous
 62
     7
370
     0
100
AcDbCircle
 10
-21.49999999881726
 20
-110.0000000172971
 30
0.0
 40
1.772059531467596
  0
ARC
  5
9048
330
A
100
AcDbEntity
  8
0
  6
Continuous
 62
     7
370
     0
100
AcDbCircle
 10
-26.99999999999977
 20
-110.7500000181566
 30
0.0
 40
7.5
100
AcDbArc
 50
222.8334280660661
 51
255.1648884180242
  0
LINE
  5
9049
330
A
100
AcDbEntity
  8
0
  6
Continuous
 62
     9
370
     0
100
AcDbLine
 10
12.50000000000011
 20
-118.0000000181566
 30
0.0
 11
12.50000000000011
 21
-114.0000000181566
 31
0.0
  0
LINE
  5
904A
330
A
100
AcDbEntity
  8
0
  6
Continuous
 62
     7
370
     0
100
AcDbLine
 10
12.50000000000011
 20
-118.0000000181566
 30
0.0
 11
-28.92028643696693
 21
-118.0000000181566
 31
0.0
  0
LINE
  5
904B
330
A
100
AcDbEntity
  8
0
  6
Continuous
 62
     7
370
     0
100
AcDbLine
 10
12.50000000000011
 20
-114.0000000181566
 30
0.0
 11
-32.49999999999977
 21
-114.0000000181566
 31
0.0
  0
LINE
  5
904C
330
A
100
AcDbEntity
  8
0
  6
Continuous
 62
     7
370
     0
100
AcDbLine
 10
-32.49999999999977
 20
-115.8490195317494
 30
0.0
 11
-32.49999999999977
 21
-114.0000000181566
 31
0.0
  0
LINE
  5
904D
330
A
100
AcDbEntity
  8
0
  6
Continuous
 62
     7
370
     0
100
AcDbLine
 10
17.50000000000011
 20
-114.0000000181566
 30
0.0
 11
17.50000000000011
 21
-118.0000000181566
 31
0.0
  0
LINE
  5
904E
330
A
100
AcDbEntity
  8
0
  6
Continuous
 62
     7
370
     0
100
AcDbLine
 10
17.50000000000011
 20
-118.0000000181566
 30
0.0
 11
12.50000000000011
 21
-118.0000000181566
 31
0.0
  0
LINE
  5
904F
330
A
100
AcDbEntity
  8
0
  6
Continuous
 62
     7
370
     0
100
AcDbLine
 10
12.50000000000011
 20
-114.0000000181566
 30
0.0
 11
17.50000000000011
 21
-114.0000000181566
 31
0.0
  0
LINE
  5
9050
330
A
100
AcDbEntity
  8
0
  6
Continuous
 62
     7
370
     0
100
AcDbLine
 10
5.500000000000227
 20
-106.5000000181599
 30
0.0
 11
5.500000000000227
 21
-112.5000000181568
 31
0.0
  0
LINE
  5
9051
330
A
100
AcDbEntity
  8
0
  6
Continuous
 62
     9
370
     0
100
AcDbLine
 10
-5.306140278369753
 20
-106.5000000181604
 30
0.0
 11
-5.306140278369753
 21
-112.500000018157
 31
0.0
  0
LINE
  5
9052
330
A
100
AcDbEntity
  8
0
  6
Continuous
 62
     9
370
     0
100
AcDbLine
 10
-9.165151389911557
 20
-106.5000000181605
 30
0.0
 11
-9.165151389911557
 21
-112.5000000181571
 31
0.0
  0
ARC
  5
9053
330
A
100
AcDbEntity
  8
0
  6
Continuous
 62
     7
370
     0
100
AcDbCircle
 10
-21.49999999999977
 20
-110.0000000181566
 30
0.0
 40
2.500000000000002
100
AcDbArc
 50
269.9999999999968
 51
0.0
  0
ARC
  5
9054
330
A
100
AcDbEntity
  8
0
  6
Continuous
 62
     7
370
     0
100
AcDbCircle
 10
-21.49999999999977
 20
-110.0000000181566
 30
0.0
 40
2.500000000000002
100
AcDbArc
 50
0.0
 51
269.9999999999968
  0
LINE
  5
9055
330
A
100
AcDbEntity
  8
0
  6
Continuous
 62
     7
370
     0
100
AcDbLine
 10
-30.7500000000054
 20
-106.0000000181566
 30
0.0
 11
-32.49999999999977
 21
-106.0000000181566
 31
0.0
  0
LINE
  5
9056
330
A
100
AcDbEntity
  8
0
  6
Continuous
 62
     7
370
     0
100
AcDbLine
 10
-32.49999999999977
 20
-106.0000000181566
 30
0.0
 11
-32.49999999999977
 21
-114.0000000181566
 31
0.0
  0
ARC
  5
9057
330
A
100
AcDbEntity
  8
0
  6
Continuous
 62
     7
370
     0
100
AcDbCircle
 10
-26.49999998372766
 20
-109.9999999999941
 30
0.0
 40
11.99999999999997
100
AcDbArc
 50
139.1712132900108
 51
220.8287867099892
  0
ARC
  5
9058
330
A
100
AcDbEntity
  8
0
  6
Continuous
 62
     7
370
     0
100
AcDbCircle
 10
-34.58678534580162
 20
-119.9999999999941
 30
0.0
 40
1.000000000000053
100
AcDbArc
 50
173.3216370158515
 51
174.8055710922652
  0
LINE
  5
9059
330
A
100
AcDbEntity
  8
0
  6
Continuous
 62
     7
370
     0
100
AcDbLine
 10
-36.41732141518605
 20
-129.0905357460366
 30
0.0
 11
-35.58267855226927
 21
-119.9094642539516
 31
0.0
  0
ARC
  5
905A
330
A
100
AcDbEntity
  8
0
  6
Continuous
 62
     7
370
     0
100
AcDbCircle
 10
-37.41321462165377
 20
-128.9999999999941
 30
0.0
 40
1.0
100
AcDbArc
 50
270.0
 51
354.8055710922652
  0
LINE
  5
905B
330
A
100
AcDbEntity
  8
0
  6
Continuous
 62
     7
370
     0
100
AcDbLine
 10
-40.49999998372766
 20
-129.9999999999941
 30
0.0
 11
-37.41321462165377
 21
-129.9999999999941
 31
0.0
  0
LINE
  5
905C
330
A
100
AcDbEntity
  8
0
  6
Continuous
 62
     7
370
     0
100
AcDbLine
 10
-40.49999998372766
 20
-89.9999999999941
 30
0.0
 11
-40.49999998372766
 21
-129.9999999999941
 31
0.0
  0
LINE
  5
905D
330
A
100
AcDbEntity
  8
0
  6
Continuous
 62
     7
370
     0
100
AcDbLine
 10
-37.41321462165377
 20
-89.9999999999941
 30
0.0
 11
-40.49999998372766
 21
-89.9999999999941
 31
0.0
  0
ARC
  5
905E
330
A
100
AcDbEntity
  8
0
  6
Continuous
 62
     7
370
     0
100
AcDbCircle
 10
-37.41321462165377
 20
-90.99999999999409
 30
0.0
 40
0.9999999999999968
100
AcDbArc
 50
5.194428907734805
 51
90.0
  0
LINE
  5
905F
330
A
100
AcDbEntity
  8
0
  6
Continuous
 62
     7
370
     0
100
AcDbLine
 10
-35.58267855226927
 20
-100.0905357460366
 30
0.0
 11
-36.41732141518605
 21
-90.90946425395159
 31
0.0
  0
ARC
  5
9060
330
A
100
AcDbEntity
  8
0
  6
Continuous
 62
     7
370
     0
100
AcDbCircle
 10
-34.58678534580162
 20
-99.9999999999941
 30
0.0
 40
0.999999999999958
100
AcDbArc
 50
185.1944289077348
 51
186.67836298415
  0
LINE
  5
9061
330
A
100
AcDbEntity
  8
0
  6
Continuous
 62
     7
370
     0
100
AcDbLine
 10
-35.57999998372765
 20
-100.1162956706329
 30
0.0
 11
-35.57999998372765
 21
-102.1543897624154
 31
0.0
  0
LINE
  5
9062
330
A
100
AcDbEntity
  8
0
  6
Continuous
 62
     7
370
     0
100
AcDbLine
 10
-35.57999998372765
 20
-117.8456102375728
 30
0.0
 11
-35.57999998372765
 21
-119.8837043293554
 31
0.0
  0
LINE
  5
9063
330
A
100
AcDbEntity
  8
0
  6
Continuous
 62
     7
370
     0
100
AcDbLine
 10
-34.57999998372765
 20
-100.9999999999941
 30
0.0
 11
-34.58678534580162
 21
-100.9999999999941
 31
0.0
  0
LINE
  5
9064
330
A
100
AcDbEntity
  8
0
  6
Continuous
 62
     9
370
     0
100
AcDbLine
 10
-34.57999998372765
 20
-100.9999999999941
 30
0.0
 11
-34.57999998372753
 21
-102.5358456607537
 31
0.0
  0
LINE
  5
9065
330
A
100
AcDbEntity
  8
0
  6
Continuous
 62
     7
370
     0
100
AcDbLine
 10
-34.57999998372753
 20
-102.5358456607537
 30
0.0
 11
-35.57999998372765
 21
-102.1543897624154
 31
0.0
  0
LINE
  5
909B
330
A
100
AcDbEntity
  8
0
  6
Continuous
 62
     7
370
     0
100
AcDbLine
 10
-35.57999998372765
 20
-117.8456102375728
 30
0.0
 11
-34.57999998372765
 21
-117.4641543392344
 31
0.0
  0
LINE
  5
909C
330
A
100
AcDbEntity
  8
0
  6
Continuous
 62
     9
370
     0
100
AcDbLine
 10
-34.57999998372765
 20
-117.4641543392346
 30
0.0
 11
-34.57999998372765
 21
-118.9999999999941
 31
0.0
  0
LINE
  5
909D
330
A
100
AcDbEntity
  8
0
  6
Continuous
 62
     7
370
     0
100
AcDbLine
 10
-34.58678534580162
 20
-118.9999999999941
 30
0.0
 11
-34.57999998372765
 21
-118.9999999999941
 31
0.0
  0
ARC
  5
90D5
330
A
100
AcDbEntity
  8
0
  6
Continuous
 62
     9
370
     0
100
AcDbCircle
 10
-26.49999998372766
 20
-109.9999999999941
 30
0.0
 40
10.99999999999997
100
AcDbArc
 50
137.2688215529602
 51
222.7311784470376
  0
ARC
  5
90D6
330
A
100
AcDbEntity
  8
0
  6
Continuous
 62
     7
370
     0
100
AcDbCircle
 10
-21.49999998372766
 20
-121.9999999999941
 30
0.0
 40
3.999999999999982
100
AcDbArc
 50
56.91276838933892
 51
90.0
  0
ARC
  5
90D7
330
A
100
AcDbEntity
  8
0
  6
Continuous
 62
     7
370
     0
100
AcDbCircle
 10
-21.49999998372766
 20
-121.9999999999941
 30
0.0
 40
4.000000000000001
100
AcDbArc
 50
90.0
 51
126.8698976458447
  0
ARC
  5
90D8
330
A
100
AcDbEntity
  8
0
  6
Continuous
 62
     7
370
     0
100
AcDbCircle
 10
-24.49999998372766
 20
-117.9999999999941
 30
0.0
 40
0.9999999999999895
100
AcDbArc
 50
270.0
 51
306.8698976458447
  0
ARC
  5
90D9
330
A
100
AcDbEntity
  8
0
  6
Continuous
 62
     7
370
     0
100
AcDbCircle
 10
-18.77042367634794
 20
-117.8107980256091
 30
0.0
 40
1.000000000000002
100
AcDbArc
 50
236.9127683893389
 51
282.4857643885343
  0
ARC
  5
90DA
330
A
100
AcDbEntity
  8
0
  6
Continuous
 62
     7
370
     0
100
AcDbCircle
 10
-20.49999998372766
 20
-109.9999999999941
 30
0.0
 40
8.999999999999998
100
AcDbArc
 50
282.4857643885343
 51
297.2660441983442
  0
LINE
  5
90DB
330
A
100
AcDbEntity
  8
0
  6
Continuous
 62
     7
370
     0
100
AcDbLine
 10
-34.57999998372765
 20
-100.9999999999941
 30
0.0
 11
-28.92028643695329
 21
-100.9999999999941
 31
0.0
  0
LINE
  5
90DC
330
A
100
AcDbEntity
  8
0
  6
Continuous
 62
     7
370
     0
100
AcDbLine
 10
-24.49999998372766
 20
-118.9999999999941
 30
0.0
 11
-34.57999998372765
 21
-118.9999999999941
 31
0.0
  0
LINE
  5
90DD
330
A
100
AcDbEntity
  8
0
  6
Continuous
 62
     9
370
     0
100
AcDbLine
 10
-26.49678534580159
 20
-100.9999799999941
 30
0.0
 11
-26.49678534580159
 21
-100.7999999999941
 31
0.0
  0
LINE
  5
90DE
330
A
100
AcDbEntity
  8
0
  6
Continuous
 62
     9
370
     0
100
AcDbLine
 10
-31.49678534580159
 20
-100.7999999999941
 30
0.0
 11
-31.49678534580159
 21
-100.9999799999941
 31
0.0
  0
LINE
  5
90DF
330
A
100
AcDbEntity
  8
0
  6
Continuous
 62
     7
370
     0
100
AcDbLine
 10
-26.09678534580161
 20
-100.9999999999941
 30
0.0
 11
-26.49678534580159
 21
-100.7999999999941
 31
0.0
  0
LINE
  5
90E0
330
A
100
AcDbEntity
  8
0
  6
Continuous
 62
     7
370
     0
100
AcDbLine
 10
-26.49678534580159
 20
-100.7999999999941
 30
0.0
 11
-26.99678534580158
 21
-100.5499999999942
 31
0.0
  0
LINE
  5
90E1
330
A
100
AcDbEntity
  8
0
  6
Continuous
 62
     7
370
     0
100
AcDbLine
 10
-30.99678534580159
 20
-100.5499999999942
 30
0.0
 11
-31.49678534580159
 21
-100.7999999999941
 31
0.0
  0
LINE
  5
90E2
330
A
100
AcDbEntity
  8
0
  6
Continuous
 62
     7
370
     0
100
AcDbLine
 10
-31.49678534580159
 20
-100.7999999999941
 30
0.0
 11
-31.89678534580162
 21
-100.9999999999941
 31
0.0
  0
LINE
  5
90E3
330
A
100
AcDbEntity
  8
0
  6
Continuous
 62
     7
370
     0
100
AcDbLine
 10
6.249999999990563
 20
-100.7000000181849
 30
0.0
 11
5.41284210967126
 21
-99.25000001818162
 31
0.0
  0
LINE
  5
90E4
330
A
100
AcDbEntity
  8
0
  6
Continuous
 62
     7
370
     0
100
AcDbLine
 10
-5.412842109677853
 20
-99.2500000181395
 30
0.0
 11
-6.250000000008128
 21
-100.7000000181363
 31
0.0
  0
LINE
  5
90E5
330
A
100
AcDbEntity
  8
0
  6
Continuous
 62
     7
370
     0
100
AcDbLine
 10
-6.250000000008128
 20
-100.7000000181363
 30
0.0
 11
-6.250000000009436
 21
-101.0000000181363
 31
0.0
  0
LINE
  5
90E6
330
A
100
AcDbEntity
  8
0
  6
Continuous
 62
     7
370
     0
100
AcDbLine
 10
6.249999999989427
 20
-101.0000000181849
 30
0.0
 11
6.249999999990563
 21
-100.7000000181849
 31
0.0
  0
ARC
  5
90E7
330
A
100
AcDbEntity
  8
0
  6
Continuous
 62
     7
370
     0
100
AcDbCircle
 10
-4.979829407786155
 20
-99.50000001814121
 30
0.0
 40
0.5000000000000006
100
AcDbArc
 50
89.99999999980133
 51
149.9999999997879
  0
ARC
  5
90E8
330
A
100
AcDbEntity
  8
0
  6
Continuous
 62
     7
370
     0
100
AcDbCircle
 10
4.979829407777742
 20
-99.5000000181799
 30
0.0
 40
0.4999999999999791
100
AcDbArc
 50
29.99999999976705
 51
89.99999999974923
  0
LINE
  5
90E9
330
A
100
AcDbEntity
  8
0
  6
Continuous
 62
     7
370
     0
100
AcDbLine
 10
-30.99678534580159
 20
55.55000000000601
 30
0.0
 11
-28.99678534580159
 21
55.55000000000601
 31
0.0
  0
LINE
  5
90EA
330
A
100
AcDbEntity
  8
0
  6
Continuous
 62
     7
370
     0
100
AcDbLine
 10
-28.99678534580159
 20
55.55000000000601
 30
0.0
 11
-26.99678534580158
 21
55.55000000000601
 31
0.0
  0
ARC
  5
90EB
330
A
100
AcDbEntity
  8
0
  6
Continuous
 62
     7
370
     0
100
AcDbCircle
 10
-21.49999963486266
 20
65.00000001730936
 30
0.0
 40
9.99999999999998
100
AcDbArc
 50
53.130102362349
 51
72.69813720859336
  0
LINE
  5
90EC
330
A
100
AcDbEntity
  8
0
  6
Continuous
 62
     9
370
     0
100
AcDbLine
 10
-18.52594048532086
 20
74.5475113252393
 30
0.0
 11
-18.75546226744427
 21
73.81068609747709
 31
0.0
  0
ARC
  5
90ED
330
A
100
AcDbEntity
  8
0
  6
Continuous
 62
     7
370
     0
100
AcDbCircle
 10
-21.49999963486266
 20
65.00000001730936
 30
0.0
 40
9.999999999999998
100
AcDbArc
 50
287.3018626261759
 51
295.8419327745133
  0
LINE
  5
90EE
330
A
100
AcDbEntity
  8
0
  6
Continuous
 62
     9
370
     0
100
AcDbLine
 10
-18.69649082422296
 20
56.00000001817156
 30
0.0
 11
-18.52594051285445
 21
55.45248870080261
 31
0.0
  0
ARC
  5
90EF
330
A
100
AcDbEntity
  8
0
  6
Continuous
 62
     7
370
     0
100
AcDbCircle
 10
-18.97204935775215
 20
73.11538462904983
 30
0.0
 40
1.499999999999971
100
AcDbArc
 50
72.69813720859336
 51
117.363061739733
  0
LINE
  5
90F0
330
A
100
AcDbEntity
  8
0
  6
Continuous
 62
     9
370
     0
100
AcDbLine
 10
-19.66149033730642
 20
74.44755246221191
 30
0.0
 11
-19.26439845237286
 21
73.6802742591378
 31
0.0
  0
ARC
  5
90F1
330
A
100
AcDbEntity
  8
0
  6
Continuous
 62
     7
370
     0
100
AcDbCircle
 10
-18.97204938115578
 20
56.88461539827883
 30
0.0
 40
1.499999999999988
100
AcDbArc
 50
242.6369380950338
 51
287.3018626261728
  0
LINE
  5
90F2
330
A
100
AcDbEntity
  8
0
  6
Continuous
 62
     9
370
     0
100
AcDbLine
 10
-19.4298671450415
 20
56.00000001817139
 30
0.0
 11
-19.66149036455175
 21
55.55244756710479
 31
0.0
  0
LINE
  5
90F3
330
A
100
AcDbEntity
  8
0
  6
Continuous
 62
     9
370
     0
100
AcDbLine
 10
-23.73453171240391
 20
73.68233998826051
 30
0.0
 11
-23.33850890517346
 21
74.4475524675141
 31
0.0
  0
ARC
  5
90F4
330
A
100
AcDbEntity
  8
0
  6
Continuous
 62
     7
370
     0
100
AcDbCircle
 10
-21.49999961611763
 20
78.00000001731078
 30
0.0
 40
3.999999999999986
100
AcDbArc
 50
242.6369380950338
 51
297.363061739733
  0
ARC
  5
90F5
330
A
100
AcDbEntity
  8
0
  6
Continuous
 62
     7
370
     0
100
AcDbCircle
 10
-21.4999996536078
 20
52.00000001730799
 30
0.0
 40
3.999999999999986
100
AcDbArc
 50
62.63693809503376
 51
90.0
  0
ARC
  5
90F6
330
A
100
AcDbEntity
  8
0
  6
Continuous
 62
     7
370
     0
100
AcDbCircle
 10
-21.4999996536078
 20
52.00000001730799
 30
0.0
 40
4.000000000000001
100
AcDbArc
 50
90.0
 51
117.363061739733
  0
LINE
  5
90F7
330
A
100
AcDbEntity
  8
0
  6
Continuous
 62
     9
370
     0
100
AcDbLine
 10
-23.57013214754914
 20
56.00000001817168
 30
0.0
 11
-23.33850893241891
 21
55.55244757240669
 31
0.0
  0
ARC
  5
90F8
330
A
100
AcDbEntity
  8
0
  6
Continuous
 62
     7
370
     0
100
AcDbCircle
 10
-24.02794991197317
 20
56.884615405569
 30
0.0
 40
1.500000000000019
100
AcDbArc
 50
252.6981372085934
 51
297.363061739733
  0
LINE
  5
90F9
330
A
100
AcDbEntity
  8
0
  6
Continuous
 62
     9
370
     0
100
AcDbLine
 10
-24.30350847397557
 20
56.0000000181715
 30
0.0
 11
-24.47405878440458
 21
55.45248870937936
 31
0.0
  0
LINE
  5
90FA
330
A
100
AcDbEntity
  8
0
  6
Continuous
 62
     9
370
     0
100
AcDbLine
 10
-24.29702415778093
 20
73.9791837488942
 30
0.0
 11
-24.47405875687088
 21
74.54751133381617
 31
0.0
  0
ARC
  5
90FB
330
A
100
AcDbEntity
  8
0
  6
Continuous
 62
     7
370
     0
100
AcDbCircle
 10
-24.02794988856948
 20
73.11538463634
 30
0.0
 40
1.499999999999988
100
AcDbArc
 50
62.63693809503376
 51
107.3018626261728
  0
ARC
  5
90FC
330
A
100
AcDbEntity
  8
0
  6
Continuous
 62
     7
370
     0
100
AcDbCircle
 10
-21.49999963486266
 20
65.00000001730936
 30
0.0
 40
10.00000000000002
100
AcDbArc
 50
107.3018626261728
 51
115.8419329906262
  0
ARC
  5
90FD
330
A
100
AcDbEntity
  8
0
  6
Continuous
 62
     7
370
     0
100
AcDbCircle
 10
-21.49999963486266
 20
65.00000001730936
 30
0.0
 40
10.00000000000003
100
AcDbArc
 50
244.1580674642673
 51
252.6981372085934
  0
LINE
  5
90FE
330
A
100
AcDbEntity
  8
0
  6
Continuous
 62
     7
370
     0
100
AcDbLine
 10
6.249999999993747
 20
55.70000001819582
 30
0.0
 11
-6.250000000006252
 21
55.70000001815012
 31
0.0
  0
LINE
  5
90FF
330
A
100
AcDbEntity
  8
0
  6
Continuous
 62
     9
370
     0
100
AcDbLine
 10
-5.412842109675978
 20
54.2500000181532
 30
0.0
 11
5.412842109674102
 21
54.25000001819282
 31
0.0
  0
LINE
  5
9100
330
A
100
AcDbEntity
  8
0
  6
Continuous
 62
     7
370
     0
100
AcDbLine
 10
4.979829407782744
 20
54.00000001819117
 30
0.0
 11
-4.979829407782972
 21
54.00000001815468
 31
0.0
  0
LINE
  5
9101
330
A
100
AcDbEntity
  8
0
  6
Continuous
 62
     9
370
     0
100
AcDbLine
 10
11.25000000000784
 20
60.00000001817156
 30
0.0
 11
11.25000000000784
 21
60.5000000181715
 31
0.0
  0
LINE
  5
9102
330
A
100
AcDbEntity
  8
0
  6
Continuous
 62
     9
370
     0
100
AcDbLine
 10
-26.24999999999204
 20
60.00000001817156
 30
0.0
 11
-26.24999999999199
 21
60.5000000181727
 31
0.0
  0
LINE
  5
9103
330
A
100
AcDbEntity
  8
0
  6
Continuous
 62
     7
370
     0
100
AcDbLine
 10
11.25000000000784
 20
60.5000000181715
 30
0.0
 11
-26.24999999999199
 21
60.5000000181727
 31
0.0
  0
LINE
  5
9104
330
A
100
AcDbEntity
  8
0
  6
Continuous
 62
     7
370
     0
100
AcDbLine
 10
15.75000000000796
 20
60.00000001817202
 30
0.0
 11
15.75000000000796
 21
60.5000000181715
 31
0.0
  0
LINE
  5
9105
330
A
100
AcDbEntity
  8
0
  6
Continuous
 62
     7
370
     0
100
AcDbLine
 10
15.75000000001177
 20
60.5000000181715
 30
0.0
 11
11.25000000000784
 21
60.50000001817167
 31
0.0
  0
LINE
  5
9106
330
A
100
AcDbEntity
  8
0
  6
Continuous
 62
     7
370
     0
100
AcDbLine
 10
-30.74999999999204
 20
60.00000001817156
 30
0.0
 11
-30.74999999999204
 21
60.50000001817281
 31
0.0
  0
LINE
  5
9107
330
A
100
AcDbEntity
  8
0
  6
Continuous
 62
     7
370
     0
100
AcDbLine
 10
-26.24999999999199
 20
60.5000000181727
 30
0.0
 11
-30.74999999999779
 21
60.50000001817281
 31
0.0
  0
LINE
  5
9108
330
A
100
AcDbEntity
  8
0
  6
Continuous
 62
     9
370
     0
100
AcDbLine
 10
11.25000000000784
 20
61.50000001817156
 30
0.0
 11
11.25000000000784
 21
60.5000000181715
 31
0.0
  0
LINE
  5
9109
330
A
100
AcDbEntity
  8
0
  6
Continuous
 62
     9
370
     0
100
AcDbLine
 10
11.25000000000784
 20
60.5000000181715
 30
0.0
 11
11.25000000000784
 21
60.00000001817156
 31
0.0
  0
LINE
  5
910A
330
A
100
AcDbEntity
  8
0
  6
Continuous
 62
     7
370
     0
100
AcDbLine
 10
15.75000000000932
 20
61.50000001817139
 30
0.0
 11
15.75000000000932
 21
60.5000000181715
 31
0.0
  0
LINE
  5
910B
330
A
100
AcDbEntity
  8
0
  6
Continuous
 62
     7
370
     0
100
AcDbLine
 10
15.75000000000932
 20
60.5000000181715
 30
0.0
 11
15.75000000000932
 21
60.00000001817156
 31
0.0
  0
LINE
  5
910C
330
A
100
AcDbEntity
  8
0
  6
Continuous
 62
     7
370
     0
100
AcDbLine
 10
11.25000000000784
 20
61.50000001817156
 30
0.0
 11
15.75000000000796
 21
61.50000001817139
 31
0.0
  0
LINE
  5
910D
330
A
100
AcDbEntity
  8
0
  6
Continuous
 62
     9
370
     0
100
AcDbLine
 10
-26.25000000000421
 20
61.50000001817253
 30
0.0
 11
-26.25000000000421
 21
60.5000000181727
 31
0.0
  0
LINE
  5
910E
330
A
100
AcDbEntity
  8
0
  6
Continuous
 62
     9
370
     0
100
AcDbLine
 10
-26.25000000000421
 20
60.5000000181727
 30
0.0
 11
-26.25000000000421
 21
60.00000001817156
 31
0.0
  0
LINE
  5
910F
330
A
100
AcDbEntity
  8
0
  6
Continuous
 62
     7
370
     0
100
AcDbLine
 10
-26.25000000000421
 20
61.50000001817253
 30
0.0
 11
11.25000000000784
 21
61.50000001817156
 31
0.0
  0
LINE
  5
9110
330
A
100
AcDbEntity
  8
0
  6
Continuous
 62
     7
370
     0
100
AcDbLine
 10
-30.75000000000557
 20
61.50000001817258
 30
0.0
 11
-30.75000000000557
 21
60.50000001817281
 31
0.0
  0
LINE
  5
9111
330
A
100
AcDbEntity
  8
0
  6
Continuous
 62
     7
370
     0
100
AcDbLine
 10
-30.75000000000557
 20
60.50000001817281
 30
0.0
 11
-30.75000000000557
 21
60.00000001817156
 31
0.0
  0
LINE
  5
9112
330
A
100
AcDbEntity
  8
0
  6
Continuous
 62
     7
370
     0
100
AcDbLine
 10
-30.75000000000421
 20
61.50000001817258
 30
0.0
 11
-26.25000000000421
 21
61.50000001817253
 31
0.0
  0
LINE
  5
9113
330
A
100
AcDbEntity
  8
0
  6
Continuous
 62
     9
370
     0
100
AcDbLine
 10
11.25000000000705
 20
69.0000000181682
 30
0.0
 11
11.25000000000705
 21
68.50000001816798
 31
0.0
  0
LINE
  5
9114
330
A
100
AcDbEntity
  8
0
  6
Continuous
 62
     7
370
     0
100
AcDbLine
 10
15.75000000000511
 20
69.00000001816843
 30
0.0
 11
15.75000000000511
 21
68.50000001816787
 31
0.0
  0
LINE
  5
9115
330
A
100
AcDbEntity
  8
0
  6
Continuous
 62
     7
370
     0
100
AcDbLine
 10
11.25000000000705
 20
68.50000001816798
 30
0.0
 11
15.75000000000727
 21
68.50000001816787
 31
0.0
  0
LINE
  5
9116
330
A
100
AcDbEntity
  8
0
  6
Continuous
 62
     9
370
     0
100
AcDbLine
 10
-26.24999999997567
 20
69.0000000181682
 30
0.0
 11
-26.24999999997567
 21
68.50000001816912
 31
0.0
  0
LINE
  5
9117
330
A
100
AcDbEntity
  8
0
  6
Continuous
 62
     7
370
     0
100
AcDbLine
 10
-26.24999999997567
 20
68.50000001816912
 30
0.0
 11
11.25000000000705
 21
68.50000001816798
 31
0.0
  0
LINE
  5
9118
330
A
100
AcDbEntity
  8
0
  6
Continuous
 62
     7
370
     0
100
AcDbLine
 10
-30.74999999997357
 20
69.0000000181682
 30
0.0
 11
-30.74999999997357
 21
68.50000001816917
 31
0.0
  0
LINE
  5
9119
330
A
100
AcDbEntity
  8
0
  6
Continuous
 62
     7
370
     0
100
AcDbLine
 10
-30.74999999997567
 20
68.50000001816917
 30
0.0
 11
-26.24999999997567
 21
68.50000001816912
 31
0.0
  0
LINE
  5
911A
330
A
100
AcDbEntity
  8
0
  6
Continuous
 62
     9
370
     0
100
AcDbLine
 10
11.25000000000705
 20
69.0000000181682
 30
0.0
 11
11.25000000000705
 21
68.50000001816798
 31
0.0
  0
LINE
  5
911B
330
A
100
AcDbEntity
  8
0
  6
Continuous
 62
     9
370
     0
100
AcDbLine
 10
11.25000000000705
 20
68.50000001816798
 30
0.0
 11
11.25000000000705
 21
67.50000001816821
 31
0.0
  0
LINE
  5
911C
330
A
100
AcDbEntity
  8
0
  6
Continuous
 62
     7
370
     0
100
AcDbLine
 10
15.75000000000904
 20
69.00000001816843
 30
0.0
 11
15.75000000000904
 21
68.50000001816787
 31
0.0
  0
LINE
  5
911D
330
A
100
AcDbEntity
  8
0
  6
Continuous
 62
     7
370
     0
100
AcDbLine
 10
15.75000000000904
 20
68.50000001816787
 30
0.0
 11
15.75000000000904
 21
67.50000001816809
 31
0.0
  0
LINE
  5
911E
330
A
100
AcDbEntity
  8
0
  6
Continuous
 62
     7
370
     0
100
AcDbLine
 10
11.25000000000705
 20
67.50000001816821
 30
0.0
 11
15.75000000000705
 21
67.50000001816809
 31
0.0
  0
LINE
  5
911F
330
A
100
AcDbEntity
  8
0
  6
Continuous
 62
     9
370
     0
100
AcDbLine
 10
-26.25000000000847
 20
69.0000000181682
 30
0.0
 11
-26.25000000000847
 21
68.50000001816912
 31
0.0
  0
LINE
  5
9120
330
A
100
AcDbEntity
  8
0
  6
Continuous
 62
     9
370
     0
100
AcDbLine
 10
-26.25000000000847
 20
68.50000001816912
 30
0.0
 11
-26.25000000000847
 21
67.50000001816918
 31
0.0
  0
LINE
  5
9121
330
A
100
AcDbEntity
  8
0
  6
Continuous
 62
     7
370
     0
100
AcDbLine
 10
-26.25000000000847
 20
67.50000001816918
 30
0.0
 11
11.25000000000705
 21
67.50000001816821
 31
0.0
  0
LINE
  5
9122
330
A
100
AcDbEntity
  8
0
  6
Continuous
 62
     7
370
     0
100
AcDbLine
 10
-30.75000000001035
 20
69.0000000181682
 30
0.0
 11
-30.75000000001035
 21
68.50000001816917
 31
0.0
  0
LINE
  5
9123
330
A
100
AcDbEntity
  8
0
  6
Continuous
 62
     7
370
     0
100
AcDbLine
 10
-30.75000000001035
 20
68.50000001816917
 30
0.0
 11
-30.75000000001035
 21
67.5000000181694
 31
0.0
  0
LINE
  5
9124
330
A
100
AcDbEntity
  8
0
  6
Continuous
 62
     7
370
     0
100
AcDbLine
 10
-30.75000000000847
 20
67.5000000181694
 30
0.0
 11
-26.25000000000847
 21
67.50000001816918
 31
0.0
  0
LINE
  5
9125
330
A
100
AcDbEntity
  8
0
  6
Continuous
 62
     7
370
     0
100
AcDbLine
 10
17.49999999999153
 20
60.00000001817156
 30
0.0
 11
17.49999999999153
 21
56.0000000181715
 31
0.0
  0
LINE
  5
9126
330
A
100
AcDbEntity
  8
0
  6
Continuous
 62
     7
370
     0
100
AcDbLine
 10
17.4999999999938
 20
56.0000000181715
 30
0.0
 11
12.4999999999938
 21
56.0000000181715
 31
0.0
  0
LINE
  5
9127
330
A
100
AcDbEntity
  8
0
  6
Continuous
 62
     9
370
     0
100
AcDbLine
 10
12.4999999999938
 20
56.0000000181715
 30
0.0
 11
12.4999999999938
 21
60.00000001817156
 31
0.0
  0
LINE
  5
9128
330
A
100
AcDbEntity
  8
0
  6
Continuous
 62
     7
370
     0
100
AcDbLine
 10
12.4999999999938
 20
60.00000001817156
 30
0.0
 11
17.4999999999938
 21
60.00000001817156
 31
0.0
  0
ARC
  5
9129
330
A
100
AcDbEntity
  8
0
  6
Continuous
 62
     7
370
     0
100
AcDbCircle
 10
-26.9999999999871
 20
63.25000001817151
 30
0.0
 40
7.499999999999972
100
AcDbArc
 50
222.8334280660811
 51
255.1648884180309
  0
LINE
  5
912A
330
A
100
AcDbEntity
  8
0
  6
Continuous
 62
     7
370
     0
100
AcDbLine
 10
-32.49999999998443
 20
58.15098050457883
 30
0.0
 11
-32.49999999998443
 21
60.00000001817156
 31
0.0
  0
LINE
  5
912B
330
A
100
AcDbEntity
  8
0
  6
Continuous
 62
     7
370
     0
100
AcDbLine
 10
12.4999999999938
 20
56.0000000181715
 30
0.0
 11
-28.92028643695329
 21
56.0000000181715
 31
0.0
  0
LINE
  5
912C
330
A
100
AcDbEntity
  8
0
  6
Continuous
 62
     7
370
     0
100
AcDbLine
 10
12.4999999999938
 20
60.00000001817156
 30
0.0
 11
-32.49999999998443
 21
60.00000001817156
 31
0.0
  0
CIRCLE
  5
912D
330
A
100
AcDbEntity
  8
0
  6
Continuous
 62
     7
370
     0
100
AcDbCircle
 10
-21.49999999881726
 20
65.00000001730902
 30
0.0
 40
1.749999999999973
  0
LINE
  5
912E
330
A
100
AcDbEntity
  8
0
  6
Continuous
 62
     7
370
     0
100
AcDbLine
 10
17.49999999999994
 20
73.00000001816821
 30
0.0
 11
17.49999999999994
 21
69.0000000181682
 31
0.0
  0
LINE
  5
912F
330
A
100
AcDbEntity
  8
0
  6
Continuous
 62
     7
370
     0
100
AcDbLine
 10
17.49999999999994
 20
69.0000000181682
 30
0.0
 11
12.5
 21
69.0000000181682
 31
0.0
  0
LINE
  5
9130
330
A
100
AcDbEntity
  8
0
  6
Continuous
 62
     9
370
     0
100
AcDbLine
 10
12.5
 20
69.0000000181682
 30
0.0
 11
12.5
 21
73.00000001816821
 31
0.0
  0
LINE
  5
9131
330
A
100
AcDbEntity
  8
0
  6
Continuous
 62
     7
370
     0
100
AcDbLine
 10
12.5
 20
73.00000001816821
 30
0.0
 11
17.49999999999994
 21
73.00000001816821
 31
0.0
  0
LINE
  5
9132
330
A
100
AcDbEntity
  8
0
  6
Continuous
 62
     7
370
     0
100
AcDbLine
 10
-32.50000000000006
 20
69.0000000181682
 30
0.0
 11
-32.50000000000006
 21
70.849019531761
 31
0.0
  0
ARC
  5
9133
330
A
100
AcDbEntity
  8
0
  6
Continuous
 62
     7
370
     0
100
AcDbCircle
 10
-27.00000000000006
 20
65.75000001816821
 30
0.0
 40
7.500000000000023
100
AcDbArc
 50
104.8351115819757
 51
137.1665719339327
  0
LINE
  5
9134
330
A
100
AcDbEntity
  8
0
  6
Continuous
 62
     7
370
     0
100
AcDbLine
 10
-32.50000000000006
 20
69.0000000181682
 30
0.0
 11
12.49999999999994
 21
69.0000000181682
 31
0.0
  0
LINE
  5
9135
330
A
100
AcDbEntity
  8
0
  6
Continuous
 62
     7
370
     0
100
AcDbLine
 10
-28.92028643696716
 20
73.00000001816821
 30
0.0
 11
12.5
 21
73.00000001816821
 31
0.0
  0
LINE
  5
9136
330
A
100
AcDbEntity
  8
0
  6
Continuous
 62
     9
370
     0
100
AcDbLine
 10
-5.266062276209936
 20
61.50000001817201
 30
0.0
 11
-5.266062276209936
 21
67.50000001816855
 31
0.0
  0
LINE
  5
9137
330
A
100
AcDbEntity
  8
0
  6
Continuous
 62
     7
370
     0
100
AcDbLine
 10
5.499999999999943
 20
61.50000001817179
 30
0.0
 11
5.499999999999943
 21
67.50000001816832
 31
0.0
  0
LINE
  5
9138
330
A
100
AcDbEntity
  8
0
  6
Continuous
 62
     9
370
     0
100
AcDbLine
 10
-8.530240324867747
 20
61.50000001817201
 30
0.0
 11
-8.530240324867747
 21
67.50000001816866
 31
0.0
  0
LINE
  5
9139
330
A
100
AcDbEntity
  8
0
  6
Continuous
 62
     7
370
     0
100
AcDbLine
 10
-10.50000000000006
 20
61.50000001817208
 30
0.0
 11
-10.50000000000006
 21
67.50000001816878
 31
0.0
  0
ARC
  5
913A
330
A
100
AcDbEntity
  8
0
  6
Continuous
 62
     7
370
     0
100
AcDbCircle
 10
-21.5
 20
65.00000001816821
 30
0.0
 40
2.500000000000002
100
AcDbArc
 50
270.0
 51
90.0
  0
ARC
  5
913B
330
A
100
AcDbEntity
  8
0
  6
Continuous
 62
     7
370
     0
100
AcDbCircle
 10
-21.5
 20
65.00000001816821
 30
0.0
 40
2.500000000000002
100
AcDbArc
 50
90.0
 51
270.0
  0
LINE
  5
913C
330
A
100
AcDbEntity
  8
0
  6
Continuous
 62
     7
370
     0
100
AcDbLine
 10
-32.5
 20
61.00000001816821
 30
0.0
 11
-30.75000000000557
 21
61.00000001816821
 31
0.0
  0
LINE
  5
913D
330
A
100
AcDbEntity
  8
0
  6
Continuous
 62
     7
370
     0
100
AcDbLine
 10
-32.5
 20
69.0000000181682
 30
0.0
 11
-32.5
 21
61.00000001816821
 31
0.0
  0
LINE
  5
913E
330
A
100
AcDbEntity
  8
0
  6
Continuous
 62
     7
370
     0
100
AcDbLine
 10
-35.58267855226927
 20
55.0905357460484
 30
0.0
 11
-36.41732141518605
 21
45.90946425396339
 31
0.0
  0
ARC
  5
913F
330
A
100
AcDbEntity
  8
0
  6
Continuous
 62
     7
370
     0
100
AcDbCircle
 10
-37.41321462165377
 20
46.00000000000591
 30
0.0
 40
0.9999999999999968
100
AcDbArc
 50
270.0
 51
354.8055710922652
  0
LINE
  5
9140
330
A
100
AcDbEntity
  8
0
  6
Continuous
 62
     7
370
     0
100
AcDbLine
 10
-37.41321462165377
 20
45.00000000000591
 30
0.0
 11
-40.49999998372766
 21
45.00000000000591
 31
0.0
  0
LINE
  5
9141
330
A
100
AcDbEntity
  8
0
  6
Continuous
 62
     7
370
     0
100
AcDbLine
 10
-40.49999998372766
 20
45.00000000000591
 30
0.0
 11
-40.49999998372766
 21
85.00000000000587
 31
0.0
  0
LINE
  5
9142
330
A
100
AcDbEntity
  8
0
  6
Continuous
 62
     7
370
     0
100
AcDbLine
 10
-40.49999998372766
 20
85.00000000000587
 30
0.0
 11
-37.41321462165377
 21
85.00000000000587
 31
0.0
  0
ARC
  5
9143
330
A
100
AcDbEntity
  8
0
  6
Continuous
 62
     7
370
     0
100
AcDbCircle
 10
-37.41321462165377
 20
84.00000000000588
 30
0.0
 40
1.0
100
AcDbArc
 50
5.194428907734805
 51
90.0
  0
LINE
  5
9144
330
A
100
AcDbEntity
  8
0
  6
Continuous
 62
     7
370
     0
100
AcDbLine
 10
-36.41732141518605
 20
84.09053574604834
 30
0.0
 11
-35.58267855226927
 21
74.90946425396342
 31
0.0
  0
ARC
  5
9145
330
A
100
AcDbEntity
  8
0
  6
Continuous
 62
     7
370
     0
100
AcDbCircle
 10
-34.58678534580162
 20
75.00000000000594
 30
0.0
 40
0.9999999999999968
100
AcDbArc
 50
185.1944289077348
 51
186.6783629841484
  0
ARC
  5
9146
330
A
100
AcDbEntity
  8
0
  6
Continuous
 62
     7
370
     0
100
AcDbCircle
 10
-34.58678534580162
 20
55.00000000000594
 30
0.0
 40
0.9999999999999548
100
AcDbArc
 50
173.3216370158515
 51
174.8055710922668
  0
LINE
  5
9147
330
A
100
AcDbEntity
  8
0
  6
Continuous
 62
     7
370
     0
100
AcDbLine
 10
-35.57999998372765
 20
74.88370432936719
 30
0.0
 11
-35.57999998372765
 21
72.84561023758451
 31
0.0
  0
ARC
  5
9148
330
A
100
AcDbEntity
  8
0
  6
Continuous
 62
     7
370
     0
100
AcDbCircle
 10
-26.49999998372766
 20
65.00000000000594
 30
0.0
 40
11.99999999999999
100
AcDbArc
 50
139.1712132900108
 51
220.8287867099892
  0
LINE
  5
9149
330
A
100
AcDbEntity
  8
0
  6
Continuous
 62
     7
370
     0
100
AcDbLine
 10
-35.57999998372765
 20
57.1543897624272
 30
0.0
 11
-35.57999998372765
 21
55.11629567064457
 31
0.0
  0
LINE
  5
914A
330
A
100
AcDbEntity
  8
0
  6
Continuous
 62
     7
370
     0
100
AcDbLine
 10
-34.57999998372765
 20
74.00000000000599
 30
0.0
 11
-34.58678534580162
 21
74.00000000000599
 31
0.0
  0
LINE
  5
914B
330
A
100
AcDbEntity
  8
0
  6
Continuous
 62
     9
370
     0
100
AcDbLine
 10
-34.57999998372765
 20
74.00000000000599
 30
0.0
 11
-34.57999998372753
 21
72.46415433924639
 31
0.0
  0
LINE
  5
914C
330
A
100
AcDbEntity
  8
0
  6
Continuous
 62
     7
370
     0
100
AcDbLine
 10
-34.57999998372753
 20
72.46415433924639
 30
0.0
 11
-35.57999998372765
 21
72.84561023758451
 31
0.0
  0
LINE
  5
9182
330
A
100
AcDbEntity
  8
0
  6
Continuous
 62
     7
370
     0
100
AcDbLine
 10
-35.57999998372765
 20
57.15438976242708
 30
0.0
 11
-34.57999998372765
 21
57.5358456607656
 31
0.0
  0
LINE
  5
9183
330
A
100
AcDbEntity
  8
0
  6
Continuous
 62
     9
370
     0
100
AcDbLine
 10
-34.57999998372765
 20
57.53584566076537
 30
0.0
 11
-34.57999998372765
 21
56.00000000000594
 31
0.0
  0
LINE
  5
9184
330
A
100
AcDbEntity
  8
0
  6
Continuous
 62
     7
370
     0
100
AcDbLine
 10
-34.58678534580162
 20
56.00000000000594
 30
0.0
 11
-34.57999998372765
 21
56.00000000000594
 31
0.0
  0
ARC
  5
91BC
330
A
100
AcDbEntity
  8
0
  6
Continuous
 62
     9
370
     0
100
AcDbCircle
 10
-26.49999998372766
 20
65.00000000000594
 30
0.0
 40
11.0
100
AcDbArc
 50
137.2688215529602
 51
222.7311784470364
  0
ARC
  5
91BD
330
A
100
AcDbEntity
  8
0
  6
Continuous
 62
     7
370
     0
100
AcDbCircle
 10
-21.49999998372766
 20
77.00000000000589
 30
0.0
 40
3.99999999999996
100
AcDbArc
 50
270.0
 51
303.0872316106611
  0
ARC
  5
91BE
330
A
100
AcDbEntity
  8
0
  6
Continuous
 62
     7
370
     0
100
AcDbCircle
 10
-21.49999998372766
 20
77.00000000000589
 30
0.0
 40
4.000000000000001
100
AcDbArc
 50
233.1301023541553
 51
270.0
  0
ARC
  5
91BF
330
A
100
AcDbEntity
  8
0
  6
Continuous
 62
     7
370
     0
100
AcDbCircle
 10
-24.49999998372766
 20
73.00000000000594
 30
0.0
 40
1.000000000000011
100
AcDbArc
 50
53.13010235415793
 51
90.0
  0
ARC
  5
91C0
330
A
100
AcDbEntity
  8
0
  6
Continuous
 62
     7
370
     0
100
AcDbCircle
 10
-18.77042367634794
 20
72.81079802562087
 30
0.0
 40
1.000000000000002
100
AcDbArc
 50
77.5142356114657
 51
123.0872316106611
  0
ARC
  5
91C1
330
A
100
AcDbEntity
  8
0
  6
Continuous
 62
     7
370
     0
100
AcDbCircle
 10
-20.49999998372766
 20
65.00000000000594
 30
0.0
 40
9.000000000000017
100
AcDbArc
 50
62.73395580165868
 51
77.5142356114657
  0
LINE
  5
91C2
330
A
100
AcDbEntity
  8
0
  6
Continuous
 62
     7
370
     0
100
AcDbLine
 10
-34.57999998372765
 20
56.00000000000594
 30
0.0
 11
-28.92028643695312
 21
56.00000000000594
 31
0.0
  0
LINE
  5
91C3
330
A
100
AcDbEntity
  8
0
  6
Continuous
 62
     7
370
     0
100
AcDbLine
 10
-24.49999998372766
 20
74.00000000000599
 30
0.0
 11
-34.57999998372765
 21
74.00000000000599
 31
0.0
  0
LINE
  5
91C4
330
A
100
AcDbEntity
  8
0
  6
Continuous
 62
     9
370
     0
100
AcDbLine
 10
-31.49678534580159
 20
55.99998000000593
 30
0.0
 11
-31.49678534580159
 21
55.80000000000589
 31
0.0
  0
LINE
  5
91C5
330
A
100
AcDbEntity
  8
0
  6
Continuous
 62
     9
370
     0
100
AcDbLine
 10
-26.49678534580159
 20
55.80000000000589
 30
0.0
 11
-26.49678534580159
 21
55.99998000000593
 31
0.0
  0
LINE
  5
91C6
330
A
100
AcDbEntity
  8
0
  6
Continuous
 62
     7
370
     0
100
AcDbLine
 10
-31.89678534580162
 20
56.00000000000594
 30
0.0
 11
-31.49678534580159
 21
55.80000000000589
 31
0.0
  0
LINE
  5
91C7
330
A
100
AcDbEntity
  8
0
  6
Continuous
 62
     7
370
     0
100
AcDbLine
 10
-31.49678534580159
 20
55.80000000000589
 30
0.0
 11
-30.99678534580159
 21
55.55000000000601
 31
0.0
  0
LINE
  5
91C8
330
A
100
AcDbEntity
  8
0
  6
Continuous
 62
     7
370
     0
100
AcDbLine
 10
-26.99678534580158
 20
55.55000000000601
 30
0.0
 11
-26.49678534580159
 21
55.80000000000589
 31
0.0
  0
LINE
  5
91C9
330
A
100
AcDbEntity
  8
0
  6
Continuous
 62
     7
370
     0
100
AcDbLine
 10
-26.49678534580159
 20
55.80000000000589
 30
0.0
 11
-26.09678534580161
 21
56.00000000000594
 31
0.0
  0
LINE
  5
91CA
330
A
100
AcDbEntity
  8
0
  6
Continuous
 62
     7
370
     0
100
AcDbLine
 10
6.249999999993747
 20
55.70000001819582
 30
0.0
 11
6.24999999999278
 21
56.00000001819584
 31
0.0
  0
LINE
  5
91CB
330
A
100
AcDbEntity
  8
0
  6
Continuous
 62
     7
370
     0
100
AcDbLine
 10
-6.250000000007446
 20
56.00000001815013
 30
0.0
 11
-6.250000000006252
 21
55.70000001815012
 31
0.0
  0
LINE
  5
91CC
330
A
100
AcDbEntity
  8
0
  6
Continuous
 62
     7
370
     0
100
AcDbLine
 10
-6.250000000006252
 20
55.70000001815012
 30
0.0
 11
-5.412842109675978
 21
54.2500000181532
 31
0.0
  0
LINE
  5
91CD
330
A
100
AcDbEntity
  8
0
  6
Continuous
 62
     7
370
     0
100
AcDbLine
 10
5.412842109674102
 20
54.25000001819282
 30
0.0
 11
6.249999999993747
 21
55.70000001819582
 31
0.0
  0
ARC
  5
91CE
330
A
100
AcDbEntity
  8
0
  6
Continuous
 62
     7
370
     0
100
AcDbCircle
 10
4.979829407780925
 20
54.50000001819117
 30
0.0
 40
0.5000000000000006
100
AcDbArc
 50
270.0000000002084
 51
330.0000000002111
  0
ARC
  5
91CF
330
A
100
AcDbEntity
  8
0
  6
Continuous
 62
     7
370
     0
100
AcDbCircle
 10
-4.97982940778462
 20
54.50000001815479
 30
0.0
 40
0.5000000000000238
100
AcDbArc
 50
210.0000000002092
 51
270.0000000002084
  0
LINE
  5
91D0
330
A
100
AcDbEntity
  8
0
  6
Continuous
 62
     7
370
     0
100
AcDbLine
 10
-25.99999998304657
 20
-30.40000000019802
 30
0.0
 11
-31.99999998304662
 21
-30.39999999982661
 31
0.0
  0
LINE
  5
91D1
330
A
100
AcDbEntity
  8
0
  6
Continuous
 62
     7
370
     0
100
AcDbLine
 10
-25.99999998372766
 20
-41.40000000019807
 30
0.0
 11
-31.99999998372778
 21
-41.39999999982649
 31
0.0
  0
LINE
  5
91D2
330
A
100
AcDbEntity
  8
0
  6
Continuous
 62
     9
370
     0
100
AcDbLine
 10
-23.33850890516908
 20
-20.7000000000115
 30
0.0
 11
-24.47405875686616
 21
-20.7000000000109
 31
0.0
  0
LINE
  5
91D3
330
A
100
AcDbEntity
  8
0
  6
Continuous
 62
     9
370
     0
100
AcDbLine
 10
-23.33850890516908
 20
-20.7000000000115
 30
0.0
 11
-23.33850890517357
 21
-29.50000000001151
 31
0.0
  0
LINE
  5
91D4
330
A
100
AcDbEntity
  8
0
  6
Continuous
 62
     9
370
     0
100
AcDbLine
 10
-24.47405875687088
 20
-29.50000000001092
 30
0.0
 11
-23.33850890517357
 21
-29.50000000001151
 31
0.0
  0
LINE
  5
91D5
330
A
100
AcDbEntity
  8
0
  6
Continuous
 62
     9
370
     0
100
AcDbLine
 10
-24.47405875686627
 20
-20.7000000000109
 30
0.0
 11
-24.47405875687088
 21
-29.50000000001092
 31
0.0
  0
ELLIPSE
  5
91D6
330
A
100
AcDbEntity
  8
0
  6
Continuous
 62
     9
370
     0
100
AcDbEllipse
 10
-24.17665284466995
 20
-29.50000000001109
 30
0.0
 11
-0.0000000000004996
 21
-1.0
 31
0.0
210
0.0
220
0.0
230
1.0
 40
0.2974059122008171
 41
4.712388980384688
 42
6.283185307179643
  0
ELLIPSE
  5
91D7
330
A
100
AcDbEntity
  8
0
  6
Continuous
 62
     9
370
     0
100
AcDbEllipse
 10
-23.79813622743768
 20
-29.5000000000112
 30
0.0
 11
-0.0000000000004996
 21
-1.0
 31
0.0
210
0.0
220
0.0
230
1.0
 40
0.4596273222639939
 41
6.283185307179584
 42
7.853981633974509
  0
LINE
  5
91D8
330
A
100
AcDbEntity
  8
0
  6
Continuous
 62
     7
370
     0
100
AcDbLine
 10
-24.176652844665
 20
-19.70000000001101
 30
0.0
 11
-23.79813622743262
 21
-19.70000000001121
 31
0.0
  0
ELLIPSE
  5
91D9
330
A
100
AcDbEntity
  8
0
  6
Continuous
 62
     9
370
     0
100
AcDbEllipse
 10
-23.79813622743307
 20
-20.70000000001122
 30
0.0
 11
0.0000000000004996
 21
1.0
 31
0.0
210
0.0
220
0.0
230
1.0
 40
0.4596273222639942
 41
4.712388980384717
 42
6.283185307179584
  0
ELLIPSE
  5
91DA
330
A
100
AcDbEntity
  8
0
  6
Continuous
 62
     9
370
     0
100
AcDbEllipse
 10
-24.17665284466534
 20
-20.70000000001102
 30
0.0
 11
0.0000000000004996
 21
1.0
 31
0.0
210
0.0
220
0.0
230
1.0
 40
0.2974059122008174
 41
0.0000000000000555
 42
1.570796326794896
  0
LINE
  5
91DB
330
A
100
AcDbEntity
  8
0
  6
Continuous
 62
     9
370
     0
100
AcDbLine
 10
-19.6614903373063
 20
-29.50000000001342
 30
0.0
 11
-18.52594048532097
 21
-29.50000000001399
 31
0.0
  0
ELLIPSE
  5
91DC
330
A
100
AcDbEntity
  8
0
  6
Continuous
 62
     9
370
     0
100
AcDbEllipse
 10
-18.82334640027511
 20
-29.50000000001381
 30
0.0
 11
0.0000000000004996
 21
1.0
 31
0.0
210
0.0
220
0.0
230
1.0
 40
0.2974059149541751
 41
3.141592653589681
 42
4.712388980384688
  0
ELLIPSE
  5
91DD
330
A
100
AcDbEntity
  8
0
  6
Continuous
 62
     9
370
     0
100
AcDbEllipse
 10
-19.20186301760361
 20
-29.50000000001362
 30
0.0
 11
0.0000000000004996
 21
1.0
 31
0.0
210
0.0
220
0.0
230
1.0
 40
0.4596273197028144
 41
1.570796326794868
 42
3.141592653589848
  0
LINE
  5
91DE
330
A
100
AcDbEntity
  8
0
  6
Continuous
 62
     9
370
     0
100
AcDbLine
 10
-18.52594048531637
 20
-20.700000000014
 30
0.0
 11
-19.66149033730164
 21
-20.70000000001349
 31
0.0
  0
LINE
  5
91DF
330
A
100
AcDbEntity
  8
0
  6
Continuous
 62
     9
370
     0
100
AcDbLine
 10
-18.52594048531631
 20
-20.700000000014
 30
0.0
 11
-18.52594048532086
 21
-29.50000000001399
 31
0.0
  0
LINE
  5
91E0
330
A
100
AcDbEntity
  8
0
  6
Continuous
 62
     9
370
     0
100
AcDbLine
 10
-19.66149033730175
 20
-20.70000000001349
 30
0.0
 11
-19.66149033730642
 21
-29.50000000001342
 31
0.0
  0
LINE
  5
91E1
330
A
100
AcDbEntity
  8
0
  6
Continuous
 62
     7
370
     0
100
AcDbLine
 10
-19.2018630175985
 20
-19.7000000000136
 30
0.0
 11
-18.82334640027
 21
-19.7000000000138
 31
0.0
  0
ELLIPSE
  5
91E2
330
A
100
AcDbEntity
  8
0
  6
Continuous
 62
     9
370
     0
100
AcDbEllipse
 10
-18.82334640027045
 20
-20.7000000000138
 30
0.0
 11
0.0000000000004996
 21
1.0
 31
0.0
210
0.0
220
0.0
230
1.0
 40
0.2974059149541774
 41
4.712388980384717
 42
6.283185307179531
  0
ELLIPSE
  5
91E3
330
A
100
AcDbEntity
  8
0
  6
Continuous
 62
     9
370
     0
100
AcDbEllipse
 10
-19.20186301759895
 20
-20.7000000000136
 30
0.0
 11
0.0000000000004996
 21
1.0
 31
0.0
210
0.0
220
0.0
230
1.0
 40
0.459627319702814
 41
0.0000000000000555
 42
1.570796326794868
  0
LINE
  5
91E4
330
A
100
AcDbEntity
  8
0
  6
Continuous
 62
     9
370
     0
100
AcDbLine
 10
-31.49999963486266
 20
-29.50000000000719
 30
0.0
 11
-24.47405875687048
 21
-29.50000000001092
 31
0.0
  0
LINE
  5
91E5
330
A
100
AcDbEntity
  8
0
  6
Continuous
 62
     7
370
     0
100
AcDbLine
 10
-30.49999963485755
 20
-19.70000000000769
 30
0.0
 11
-24.17665284466466
 21
-19.70000000001101
 31
0.0
  0
LINE
  5
91E6
330
A
100
AcDbEntity
  8
0
  6
Continuous
 62
     9
370
     0
100
AcDbLine
 10
-24.47405875686599
 20
-20.7000000000109
 30
0.0
 11
-31.49999963485806
 21
-20.70000000000721
 31
0.0
  0
LINE
  5
91E7
330
A
100
AcDbEntity
  8
0
  6
Continuous
 62
     9
370
     0
100
AcDbLine
 10
-18.5259404853212
 20
-29.50000000001399
 30
0.0
 11
-12.38235257011718
 21
-29.5000000000172
 31
0.0
  0
ELLIPSE
  5
91E8
330
A
100
AcDbEntity
  8
0
  6
Continuous
 62
     9
370
     0
100
AcDbEllipse
 10
-13.29411727659078
 20
-29.50000000001671
 30
0.0
 11
0.0000000000004996
 21
1.0
 31
0.0
210
0.0
220
0.0
230
1.0
 40
0.9117647064746682
 41
3.141592653589736
 42
4.712388980384661
  0
LINE
  5
91E9
330
A
100
AcDbEntity
  8
0
  6
Continuous
 62
     9
370
     0
100
AcDbLine
 10
-12.38235257011246
 20
-20.70000000001718
 30
0.0
 11
-18.52594048531671
 21
-20.700000000014
 31
0.0
  0
LINE
  5
91EA
330
A
100
AcDbEntity
  8
0
  6
Continuous
 62
     7
370
     0
100
AcDbLine
 10
-18.82334640027017
 20
-19.7000000000138
 30
0.0
 11
-13.29411727658646
 21
-19.7000000000167
 31
0.0
  0
ELLIPSE
  5
91EB
330
A
100
AcDbEntity
  8
0
  6
Continuous
 62
     9
370
     0
100
AcDbEllipse
 10
-13.29411727658606
 20
-20.7000000000167
 30
0.0
 11
-0.0000000000004996
 21
-1.0
 31
0.0
210
0.0
220
0.0
230
1.0
 40
0.9117647064746691
 41
1.570796326794868
 42
3.141592653589736
  0
LINE
  5
91EC
330
A
100
AcDbEntity
  8
0
  6
Continuous
 62
     9
370
     0
100
AcDbLine
 10
-12.38235257011143
 20
-20.70000000001718
 30
0.0
 11
-12.38235257011598
 21
-29.5000000000172
 31
0.0
  0
LINE
  5
91ED
330
A
100
AcDbEntity
  8
0
  6
Continuous
 62
     7
370
     0
100
AcDbLine
 10
-19.20186301759855
 20
-19.7000000000136
 30
0.0
 11
-23.79813622743217
 21
-19.70000000001121
 31
0.0
  0
LINE
  5
91EE
330
A
100
AcDbEntity
  8
0
  6
Continuous
 62
     9
370
     0
100
AcDbLine
 10
-23.33850890516891
 20
-20.7000000000115
 30
0.0
 11
-19.66149033730193
 21
-20.70000000001349
 31
0.0
  0
LINE
  5
91EF
330
A
100
AcDbEntity
  8
0
  6
Continuous
 62
     7
370
     0
100
AcDbLine
 10
-21.50000145416584
 20
-30.50000000001242
 30
0.0
 11
-19.31633893782396
 21
-30.50000000001361
 31
0.0
  0
LINE
  5
91F0
330
A
100
AcDbEntity
  8
0
  6
Continuous
 62
     7
370
     0
100
AcDbLine
 10
-23.79813622743791
 20
-30.5000000000112
 30
0.0
 11
-21.50000145416596
 21
-30.50000000001242
 31
0.0
  0
LINE
  5
91F1
330
A
100
AcDbEntity
  8
0
  6
Continuous
 62
     9
370
     0
100
AcDbLine
 10
-19.66149033730659
 20
-29.50000000001342
 30
0.0
 11
-23.3385089051734
 21
-29.50000000001151
 31
0.0
  0
LINE
  5
91F2
330
A
100
AcDbEntity
  8
0
  6
Continuous
 62
     9
370
     0
100
AcDbLine
 10
-12.38235257011627
 20
-29.5000000000172
 30
0.0
 11
-12.24999962982792
 21
-29.5000000000172
 31
0.0
  0
LINE
  5
91F3
330
A
100
AcDbEntity
  8
0
  6
Continuous
 62
     9
370
     0
100
AcDbLine
 10
-12.24999962982343
 20
-20.7000000000173
 30
0.0
 11
-12.38235257011178
 21
-20.70000000001718
 31
0.0
  0
LINE
  5
91F4
330
A
100
AcDbEntity
  8
0
  6
Continuous
 62
     7
370
     0
100
AcDbLine
 10
-13.29411727658578
 20
-19.7000000000167
 30
0.0
 11
-13.24999962982298
 21
-19.7000000000167
 31
0.0
  0
LINE
  5
91F5
330
A
100
AcDbEntity
  8
0
  6
Continuous
 62
     7
370
     0
100
AcDbLine
 10
-12.00000000000005
 20
-29.99999999998457
 30
0.0
 11
-12.38397423609245
 21
-29.99999999998457
 31
0.0
  0
LINE
  5
91F6
330
A
100
AcDbEntity
  8
0
  6
Continuous
 62
     7
370
     0
100
AcDbLine
 10
-12.27020373270795
 20
-29.69999999998459
 30
0.0
 11
-12.00000000000005
 21
-29.69999999998459
 31
0.0
  0
LINE
  5
91F7
330
A
100
AcDbEntity
  8
0
  6
Continuous
 62
     7
370
     0
100
AcDbLine
 10
-12.00000000000005
 20
-20.29999999998458
 30
0.0
 11
-12.33348449084616
 21
-20.29999999998458
 31
0.0
  0
LINE
  5
91F8
330
A
100
AcDbEntity
  8
0
  6
Continuous
 62
     7
370
     0
100
AcDbLine
 10
-12.53585679706793
 20
-19.99999999998457
 30
0.0
 11
-12.00000000000005
 21
-19.99999999998457
 31
0.0
  0
LINE
  5
91F9
330
A
100
AcDbEntity
  8
0
  6
Continuous
 62
     7
370
     0
100
AcDbLine
 10
-12.0
 20
-9.249999999987721
 30
0.0
 11
-11.57299138784964
 21
-9.249999999987721
 31
0.0
  0
LINE
  5
91FA
330
A
100
AcDbEntity
  8
0
  6
Continuous
 62
     9
370
     0
100
AcDbLine
 10
-11.57414016688744
 20
-9.749999999987522
 30
0.0
 11
-12.0
 21
-9.749999999987522
 31
0.0
  0
LINE
  5
91FB
330
A
100
AcDbEntity
  8
0
  6
Continuous
 62
     7
370
     0
100
AcDbLine
 10
-12.0
 20
-9.749999999987522
 30
0.0
 11
-12.0
 21
-9.249999999987608
 31
0.0
  0
LINE
  5
91FC
330
A
100
AcDbEntity
  8
0
  6
Continuous
 62
     9
370
     0
100
AcDbLine
 10
-12.00000000000005
 20
-40.24999999997468
 30
0.0
 11
-11.57414016688744
 21
-40.24999999997468
 31
0.0
  0
LINE
  5
91FD
330
A
100
AcDbEntity
  8
0
  6
Continuous
 62
     7
370
     0
100
AcDbLine
 10
-12.00000000000005
 20
-40.24999999997468
 30
0.0
 11
-12.0
 21
-9.749999999987522
 31
0.0
  0
LINE
  5
91FE
330
A
100
AcDbEntity
  8
0
  6
Continuous
 62
     7
370
     0
100
AcDbLine
 10
-11.57299138785066
 20
-40.74999999997451
 30
0.0
 11
-12.00000000000005
 21
-40.74999999997451
 31
0.0
  0
LINE
  5
91FF
330
A
100
AcDbEntity
  8
0
  6
Continuous
 62
     7
370
     0
100
AcDbLine
 10
-12.00000000000005
 20
-40.74999999997467
 30
0.0
 11
-12.00000000000005
 21
-40.24999999997468
 31
0.0
  0
LINE
  5
9200
330
A
100
AcDbEntity
  8
0
  6
Continuous
 62
     7
370
     0
100
AcDbLine
 10
-12.0
 20
-9.249999999987721
 30
0.0
 11
-12.0
 21
-8.180101626211694
 31
0.0
  0
LINE
  5
9201
330
A
100
AcDbEntity
  8
0
  6
Continuous
 62
     7
370
     0
100
AcDbLine
 10
-12.00000000000005
 20
-41.81989837374149
 30
0.0
 11
-12.00000000000005
 21
-40.74999999997451
 31
0.0
  0
LINE
  5
9202
330
A
100
AcDbEntity
  8
0
  6
Continuous
 62
     7
370
     0
100
AcDbLine
 10
-28.92028643696716
 20
-64.9999999999759
 30
0.0
 11
-28.9202864369671
 21
-42.57499999997591
 31
0.0
  0
LINE
  5
9203
330
A
100
AcDbEntity
  8
0
  6
Continuous
 62
     7
370
     0
100
AcDbLine
 10
-13.56532042694044
 20
-42.57499999997591
 30
0.0
 11
-28.9202864369671
 21
-42.57499999997591
 31
0.0
  0
ARC
  5
9204
330
A
100
AcDbEntity
  8
0
  6
Continuous
 62
     7
370
     0
100
AcDbCircle
 10
-13.56532042694044
 20
-40.57499999997591
 30
0.0
 40
1.999999999999993
100
AcDbArc
 50
270.0
 51
1.726501653522072
  0
ARC
  5
9205
330
A
100
AcDbEntity
  8
0
  6
Continuous
 62
     7
370
     0
100
AcDbCircle
 10
503.1510416666638
 20
-24.99999999997792
 30
0.0
 40
514.951041666664
100
AcDbArc
 50
178.2734983464763
 51
181.7265016535221
  0
ARC
  5
9206
330
A
100
AcDbEntity
  8
0
  6
Continuous
 62
     7
370
     0
100
AcDbCircle
 10
-13.56532042694027
 20
-9.424999999975995
 30
0.0
 40
2.0
100
AcDbArc
 50
358.2734983464779
 51
90.0
  0
LINE
  5
9207
330
A
100
AcDbEntity
  8
0
  6
Continuous
 62
     7
370
     0
100
AcDbLine
 10
-28.92028643696693
 20
-7.424999999975909
 30
0.0
 11
-13.56532042694027
 21
-7.424999999975995
 31
0.0
  0
LINE
  5
9208
330
A
100
AcDbEntity
  8
0
  6
Continuous
 62
     7
370
     0
100
AcDbLine
 10
-28.92028643696693
 20
-7.424999999975909
 30
0.0
 11
-28.92028643696693
 21
15.00000000002407
 31
0.0
  0
ARC
  5
9209
330
A
100
AcDbEntity
  8
0
  6
Continuous
 62
     7
370
     0
100
AcDbCircle
 10
12.50000000000011
 20
10.00000000002401
 30
0.0
 40
5.000000000000004
100
AcDbArc
 50
0.0
 51
90.0
  0
LINE
  5
920A
330
A
100
AcDbEntity
  8
0
  6
Continuous
 62
     7
370
     0
100
AcDbLine
 10
17.50000000000011
 20
10.00000000002401
 30
0.0
 11
17.49999999999994
 21
-59.99999999997609
 31
0.0
  0
ARC
  5
920B
330
A
100
AcDbEntity
  8
0
  6
Continuous
 62
     7
370
     0
100
AcDbCircle
 10
12.5
 20
-59.99999999997609
 30
0.0
 40
5.000000000000004
100
AcDbArc
 50
270.0
 51
0.0
  0
LINE
  5
920C
330
A
100
AcDbEntity
  8
0
  6
Continuous
 62
     7
370
     0
100
AcDbLine
 10
-28.92028643696716
 20
-64.9999999999759
 30
0.0
 11
12.5
 21
-64.99999999997609
 31
0.0
  0
LINE
  5
920D
330
A
100
AcDbEntity
  8
0
  6
Continuous
 62
     7
370
     0
100
AcDbLine
 10
12.50000000000011
 20
15.00000000002401
 30
0.0
 11
-28.92028643696693
 21
15.00000000002407
 31
0.0
  0
LINE
  5
920E
330
A
100
AcDbEntity
  8
0
  6
Continuous
 62
     7
370
     0
100
AcDbLine
 10
-28.92028643696693
 20
-7.424999999975909
 30
0.0
 11
-32.49999999999977
 21
-7.424999999975909
 31
0.0
  0
LINE
  5
920F
330
A
100
AcDbEntity
  8
0
  6
Continuous
 62
     7
370
     0
100
AcDbLine
 10
-32.49999999999977
 20
15.00000000002407
 30
0.0
 11
-32.49999999999977
 21
-7.424999999975909
 31
0.0
  0
LINE
  5
9210
330
A
100
AcDbEntity
  8
0
  6
Continuous
 62
     7
370
     0
100
AcDbLine
 10
-28.92028643696693
 20
15.00000000002407
 30
0.0
 11
-32.49999999999977
 21
15.00000000002407
 31
0.0
  0
LINE
  5
9211
330
A
100
AcDbEntity
  8
0
  6
Continuous
 62
     7
370
     0
100
AcDbLine
 10
-32.50000000000006
 20
-64.9999999999759
 30
0.0
 11
-28.92028643696716
 21
-64.9999999999759
 31
0.0
  0
LINE
  5
9212
330
A
100
AcDbEntity
  8
0
  6
Continuous
 62
     7
370
     0
100
AcDbLine
 10
-32.5
 20
-42.57499999997591
 30
0.0
 11
-32.50000000000006
 21
-64.9999999999759
 31
0.0
  0
LINE
  5
9213
330
A
100
AcDbEntity
  8
0
  6
Continuous
 62
     7
370
     0
100
AcDbLine
 10
-32.5
 20
-42.57499999997591
 30
0.0
 11
-28.9202864369671
 21
-42.57499999997591
 31
0.0
  0
LINE
  5
9214
330
A
100
AcDbEntity
  8
0
  6
Continuous
 62
     9
370
     0
100
AcDbLine
 10
-26.58891852625214
 20
-7.7420057187839
 30
0.0
 11
-16.41108144198506
 21
-7.7420057187839
 31
0.0
  0
LINE
  5
9215
330
A
100
AcDbEntity
  8
0
  6
Continuous
 62
     9
370
     0
100
AcDbLine
 10
-15.74999998411857
 20
-8.529851921193682
 30
0.0
 11
-27.24999998411858
 21
-8.529851921193682
 31
0.0
  0
LINE
  5
9216
330
A
100
AcDbEntity
  8
0
  6
Continuous
 62
     7
370
     0
100
AcDbLine
 10
-17.49999998411857
 20
-7.55000000001209
 30
0.0
 11
-25.49999941816651
 21
-7.55000000001209
 31
0.0
  0
LINE
  5
9217
330
A
100
AcDbEntity
  8
0
  6
Continuous
 62
     9
370
     0
100
AcDbLine
 10
-27.25000000001035
 20
-41.47014807883059
 30
0.0
 11
-17.21847888897713
 21
-41.4701480788307
 31
0.0
  0
LINE
  5
9218
330
A
100
AcDbEntity
  8
0
  6
Continuous
 62
     9
370
     0
100
AcDbLine
 10
-16.41108145787683
 20
-42.25799428124043
 30
0.0
 11
-17.7107283181889
 21
-42.25799428124043
 31
0.0
  0
LINE
  5
9219
330
A
100
AcDbEntity
  8
0
  6
Continuous
 62
     9
370
     0
100
AcDbLine
 10
-17.21847888897713
 20
-41.4701480788307
 30
0.0
 11
-15.75000000001034
 21
-41.4701480788307
 31
0.0
  0
LINE
  5
921A
330
A
100
AcDbEntity
  8
0
  6
Continuous
 62
     9
370
     0
100
AcDbLine
 10
-17.7107283181889
 20
-42.25799428124043
 30
0.0
 11
-26.58891854214392
 21
-42.25799428124043
 31
0.0
  0
LINE
  5
921B
330
A
100
AcDbEntity
  8
0
  6
Continuous
 62
     7
370
     0
100
AcDbLine
 10
-25.50000000001034
 20
-42.45000000001232
 30
0.0
 11
-17.50000000001034
 21
-42.45000000001232
 31
0.0
  0
LINE
  5
921C
330
A
100
AcDbEntity
  8
0
  6
Continuous
 62
     7
370
     0
100
AcDbLine
 10
-40.49999998372766
 20
14.99999999998769
 30
0.0
 11
-37.41321462165377
 21
14.99999999998769
 31
0.0
  0
LINE
  5
921D
330
A
100
AcDbEntity
  8
0
  6
Continuous
 62
     9
370
     0
100
AcDbLine
 10
-37.41321462165377
 20
14.99999999998769
 30
0.0
 11
-37.41321462165377
 21
-65.00000000001231
 31
0.0
  0
LINE
  5
921E
330
A
100
AcDbEntity
  8
0
  6
Continuous
 62
     7
370
     0
100
AcDbLine
 10
-40.49999998372766
 20
-65.00000000001231
 30
0.0
 11
-37.41321462165377
 21
-65.00000000001231
 31
0.0
  0
LINE
  5
921F
330
A
100
AcDbEntity
  8
0
  6
Continuous
 62
     7
370
     0
100
AcDbLine
 10
-40.49999998372766
 20
14.99999999998769
 30
0.0
 11
-40.49999998372766
 21
-65.00000000001231
 31
0.0
  0
LINE
  5
9220
330
A
100
AcDbEntity
  8
0
  6
Continuous
 62
     7
370
     0
100
AcDbLine
 10
-37.41321462165377
 20
14.99999999998769
 30
0.0
 11
-36.41732141518605
 21
14.99999999998769
 31
0.0
  0
LINE
  5
9221
330
A
100
AcDbEntity
  8
0
  6
Continuous
 62
     9
370
     0
100
AcDbLine
 10
-36.41732141518605
 20
14.99999999998769
 30
0.0
 11
-36.41732141518605
 21
-65.00000000001231
 31
0.0
  0
LINE
  5
9222
330
A
100
AcDbEntity
  8
0
  6
Continuous
 62
     7
370
     0
100
AcDbLine
 10
-37.41321462165377
 20
-65.00000000001231
 30
0.0
 11
-36.41732141518605
 21
-65.00000000001231
 31
0.0
  0
ELLIPSE
  5
9223
330
A
100
AcDbEntity
  8
0
  6
Continuous
 62
     7
370
     0
100
AcDbEllipse
 10
-35.95454543827316
 20
-55.00000000001231
 30
0.0
 11
0.0
 21
-5.000000000000004
 31
0.0
210
0.0
220
0.0
230
0.9999999999999998
 40
0.0909090909090906
 41
0.0
 42
0.9581117322387433
  0
LINE
  5
9224
330
A
100
AcDbEntity
  8
0
  6
Continuous
 62
     9
370
     0
100
AcDbLine
 10
-35.58267855226927
 20
-57.8753290786307
 30
0.0
 11
-35.58267855226927
 21
-65.00000000001231
 31
0.0
  0
LINE
  5
9225
330
A
100
AcDbEntity
  8
0
  6
Continuous
 62
     9
370
     0
100
AcDbLine
 10
-35.58267855226927
 20
14.99999999998769
 30
0.0
 11
-35.58267855226927
 21
7.875329078606085
 31
0.0
  0
ELLIPSE
  5
9226
330
A
100
AcDbEntity
  8
0
  6
Continuous
 62
     7
370
     0
100
AcDbEllipse
 10
-35.95454543827316
 20
4.999999999987693
 30
0.0
 11
0.0
 21
-5.000000000000004
 31
0.0
210
0.0
220
0.0
230
0.9999999999999998
 40
0.0909090909090906
 41
0.0
 42
0.9581117322387463
  0
LINE
  5
9227
330
A
100
AcDbEntity
  8
0
  6
Continuous
 62
     9
370
     0
100
AcDbLine
 10
-35.58267855226927
 20
2.124670921369414
 30
0.0
 11
-35.58267855226927
 21
-52.12467092139391
 31
0.0
  0
LINE
  5
9228
330
A
100
AcDbEntity
  8
0
  6
Continuous
 62
     7
370
     0
100
AcDbLine
 10
-36.41732141518605
 20
14.99999999998769
 30
0.0
 11
-35.58267855226927
 21
14.99999999998769
 31
0.0
  0
LINE
  5
9229
330
A
100
AcDbEntity
  8
0
  6
Continuous
 62
     7
370
     0
100
AcDbLine
 10
-36.41732141518605
 20
-65.00000000001231
 30
0.0
 11
-35.58267855226927
 21
-65.00000000001231
 31
0.0
  0
ELLIPSE
  5
922A
330
A
100
AcDbEntity
  8
0
  6
Continuous
 62
     7
370
     0
100
AcDbEllipse
 10
-35.95454543827316
 20
-55.00000000001231
 30
0.0
 11
0.0
 21
-5.000000000000004
 31
0.0
210
0.0
220
0.0
230
0.9999999999999998
 40
0.0909090909090906
 41
2.183480921351043
 42
3.141592653589792
  0
ELLIPSE
  5
922B
330
A
100
AcDbEntity
  8
0
  6
Continuous
 62
     7
370
     0
100
AcDbEllipse
 10
-35.95454543827316
 20
-55.00000000001231
 30
0.0
 11
0.0
 21
-5.000000000000004
 31
0.0
210
0.0
220
0.0
230
0.9999999999999998
 40
0.0909090909090906
 41
3.141592653589792
 42
6.283185307179584
  0
LINE
  5
922C
330
A
100
AcDbEntity
  8
0
  6
Continuous
 62
     7
370
     0
100
AcDbLine
 10
-35.58267855226927
 20
-52.12467092139391
 30
0.0
 11
-35.57999998372765
 21
-52.1616712748841
 31
0.0
  0
LINE
  5
922D
330
A
100
AcDbEntity
  8
0
  6
Continuous
 62
     7
370
     0
100
AcDbLine
 10
-35.57999998372765
 20
-57.83832872514039
 30
0.0
 11
-35.57999998372765
 21
-52.1616712748841
 31
0.0
  0
LINE
  5
922E
330
A
100
AcDbEntity
  8
0
  6
Continuous
 62
     7
370
     0
100
AcDbLine
 10
-35.57999998372765
 20
-57.83832872514039
 30
0.0
 11
-35.58267855226927
 21
-57.8753290786307
 31
0.0
  0
ELLIPSE
  5
922F
330
A
100
AcDbEntity
  8
0
  6
Continuous
 62
     7
370
     0
100
AcDbEllipse
 10
-35.95454543827316
 20
4.999999999987693
 30
0.0
 11
0.0
 21
-5.000000000000004
 31
0.0
210
0.0
220
0.0
230
0.9999999999999998
 40
0.0909090909090906
 41
2.183480921351045
 42
3.141592653589792
  0
ELLIPSE
  5
9230
330
A
100
AcDbEntity
  8
0
  6
Continuous
 62
     7
370
     0
100
AcDbEllipse
 10
-35.95454543827316
 20
4.999999999987693
 30
0.0
 11
0.0
 21
-5.000000000000004
 31
0.0
210
0.0
220
0.0
230
0.9999999999999998
 40
0.0909090909090906
 41
3.141592653589792
 42
6.283185307179584
  0
LINE
  5
9231
330
A
100
AcDbEntity
  8
0
  6
Continuous
 62
     7
370
     0
100
AcDbLine
 10
-35.58267855226927
 20
7.875329078606085
 30
0.0
 11
-35.57999998372776
 21
7.838328725115815
 31
0.0
  0
LINE
  5
9232
330
A
100
AcDbEntity
  8
0
  6
Continuous
 62
     7
370
     0
100
AcDbLine
 10
-35.57999998372765
 20
7.838328725115815
 30
0.0
 11
-35.57999998372776
 21
2.1616712748596
 31
0.0
  0
LINE
  5
9233
330
A
100
AcDbEntity
  8
0
  6
Continuous
 62
     7
370
     0
100
AcDbLine
 10
-35.57999998372776
 20
2.1616712748596
 30
0.0
 11
-35.58267855226927
 21
2.124670921369414
 31
0.0
  0
LINE
  5
9269
330
A
100
AcDbEntity
  8
0
  6
Continuous
 62
     7
370
     0
100
AcDbLine
 10
-35.57999998372765
 20
-42.2500000000123
 30
0.0
 11
-35.57999998372765
 21
-52.1616712748841
 31
0.0
  0
LINE
  5
926A
330
A
100
AcDbEntity
  8
0
  6
Continuous
 62
     7
370
     0
100
AcDbLine
 10
-35.57999998372765
 20
-7.750000000012306
 30
0.0
 11
-35.57999998372776
 21
2.1616712748596
 31
0.0
  0
LINE
  5
92A2
330
A
100
AcDbEntity
  8
0
  6
Continuous
 62
     9
370
     0
100
AcDbLine
 10
-34.58678534580162
 20
-8.749976979178114
 30
0.0
 11
-34.58678534580162
 21
-41.2500230208465
 31
0.0
  0
LINE
  5
92A3
330
A
100
AcDbEntity
  8
0
  6
Continuous
 62
     7
370
     0
100
AcDbLine
 10
-35.57999998372765
 20
-57.83832872514039
 30
0.0
 11
-35.57999998372765
 21
-65.00000000001231
 31
0.0
  0
LINE
  5
92A4
330
A
100
AcDbEntity
  8
0
  6
Continuous
 62
     7
370
     0
100
AcDbLine
 10
-35.57999998372765
 20
-65.00000000001231
 30
0.0
 11
-35.58267855226927
 21
-65.00000000001231
 31
0.0
  0
LINE
  5
92A5
330
A
100
AcDbEntity
  8
0
  6
Continuous
 62
     7
370
     0
100
AcDbLine
 10
-35.57999998372776
 20
7.838328725115815
 30
0.0
 11
-35.57999998372765
 21
14.99999999998769
 31
0.0
  0
LINE
  5
92A6
330
A
100
AcDbEntity
  8
0
  6
Continuous
 62
     7
370
     0
100
AcDbLine
 10
-35.57999998372765
 20
14.99999999998769
 30
0.0
 11
-35.58267855226927
 21
14.99999999998769
 31
0.0
  0
LINE
  5
92A7
330
A
100
AcDbEntity
  8
0
  6
Continuous
 62
     9
370
     0
100
AcDbLine
 10
-24.49999998372766
 20
-30.50000000001231
 30
0.0
 11
-24.49999998372766
 21
-41.25000000001231
 31
0.0
  0
LINE
  5
92A8
330
A
100
AcDbEntity
  8
0
  6
Continuous
 62
     7
370
     0
100
AcDbLine
 10
-24.49999998372766
 20
-41.25000000001231
 30
0.0
 11
-34.57999998372765
 21
-41.25000000001231
 31
0.0
  0
LINE
  5
92A9
330
A
100
AcDbEntity
  8
0
  6
Continuous
 62
     7
370
     0
100
AcDbLine
 10
-24.49999998372766
 20
-8.750000000012306
 30
0.0
 11
-34.57999998372765
 21
-8.750000000012306
 31
0.0
  0
LINE
  5
92AA
330
A
100
AcDbEntity
  8
0
  6
Continuous
 62
     9
370
     0
100
AcDbLine
 10
-24.49999998372766
 20
-8.750000000012306
 30
0.0
 11
-24.49999998372766
 21
-19.5000000000125
 31
0.0
  0
LINE
  5
92AB
330
A
100
AcDbEntity
  8
0
  6
Continuous
 62
     7
370
     0
100
AcDbLine
 10
-24.49999998372766
 20
-19.5000000000125
 30
0.0
 11
-32.09999998372763
 21
-19.5000000000125
 31
0.0
  0
LINE
  5
92AC
330
A
100
AcDbEntity
  8
0
  6
Continuous
 62
     7
370
     0
100
AcDbLine
 10
-32.09999998372763
 20
-19.5000000000125
 30
0.0
 11
-32.09999998372763
 21
-30.50000000001231
 31
0.0
  0
LINE
  5
92AD
330
A
100
AcDbEntity
  8
0
  6
Continuous
 62
     7
370
     0
100
AcDbLine
 10
-32.09999998372763
 20
-30.50000000001231
 30
0.0
 11
-24.49999998372766
 21
-30.50000000001231
 31
0.0
  0
ARC
  5
92AE
330
A
100
AcDbEntity
  8
0
  6
Continuous
 62
     7
370
     0
100
AcDbCircle
 10
-34.57999998372765
 20
-7.750000000012306
 30
0.0
 40
1.0
100
AcDbArc
 50
269.6112244073793
 51
270.0
  0
ARC
  5
92AF
330
A
100
AcDbEntity
  8
0
  6
Continuous
 62
     7
370
     0
100
AcDbCircle
 10
-34.57999998372765
 20
-42.2500000000123
 30
0.0
 40
0.9999999999999783
100
AcDbArc
 50
90.0
 51
90.38877559261749
  0
LINE
  5
92B0
330
A
100
AcDbEntity
  8
0
  6
Continuous
 62
     9
370
     0
100
AcDbLine
 10
-23.89999998372781
 20
-30.50000000001231
 30
0.0
 11
-23.89999998372781
 21
-41.25000000001231
 31
0.0
  0
LINE
  5
92B1
330
A
100
AcDbEntity
  8
0
  6
Continuous
 62
     7
370
     0
100
AcDbLine
 10
-24.49999998372766
 20
-30.50000000001231
 30
0.0
 11
-23.89999998372781
 21
-30.50000000001231
 31
0.0
  0
LINE
  5
92B2
330
A
100
AcDbEntity
  8
0
  6
Continuous
 62
     7
370
     0
100
AcDbLine
 10
-23.89999998372781
 20
-41.25000000001231
 30
0.0
 11
-24.49999998372766
 21
-41.25000000001231
 31
0.0
  0
LINE
  5
92B3
330
A
100
AcDbEntity
  8
0
  6
Continuous
 62
     9
370
     0
100
AcDbLine
 10
-23.89999998372781
 20
-8.750000000012306
 30
0.0
 11
-23.89999998372781
 21
-19.5000000000125
 31
0.0
  0
LINE
  5
92B4
330
A
100
AcDbEntity
  8
0
  6
Continuous
 62
     7
370
     0
100
AcDbLine
 10
-23.89999998372781
 20
-8.750000000012306
 30
0.0
 11
-24.49999998372766
 21
-8.750000000012306
 31
0.0
  0
LINE
  5
92B5
330
A
100
AcDbEntity
  8
0
  6
Continuous
 62
     7
370
     0
100
AcDbLine
 10
-23.89999998372781
 20
-19.5000000000125
 30
0.0
 11
-24.49999998372766
 21
-19.5000000000125
 31
0.0
  0
LINE
  5
92B6
330
A
100
AcDbEntity
  8
0
  6
Continuous
 62
     9
370
     0
100
AcDbLine
 10
-18.55422663792558
 20
-30.50000000001231
 30
0.0
 11
-18.55422663792558
 21
-41.25000000001231
 31
0.0
  0
LINE
  5
92B7
330
A
100
AcDbEntity
  8
0
  6
Continuous
 62
     9
370
     0
100
AcDbLine
 10
-19.31633893782396
 20
-30.50000000001231
 30
0.0
 11
-19.31633893782396
 21
-41.25000000001231
 31
0.0
  0
LINE
  5
92B8
330
A
100
AcDbEntity
  8
0
  6
Continuous
 62
     7
370
     0
100
AcDbLine
 10
-19.31633893782396
 20
-30.50000000001231
 30
0.0
 11
-18.55422663792558
 21
-30.50000000001231
 31
0.0
  0
LINE
  5
92B9
330
A
100
AcDbEntity
  8
0
  6
Continuous
 62
     7
370
     0
100
AcDbLine
 10
-18.55422663792558
 20
-41.25000000001231
 30
0.0
 11
-19.31633893782396
 21
-41.25000000001231
 31
0.0
  0
LINE
  5
92BA
330
A
100
AcDbEntity
  8
0
  6
Continuous
 62
     9
370
     0
100
AcDbLine
 10
-19.31633893782396
 20
-8.750000000012306
 30
0.0
 11
-19.31633893782396
 21
-19.5000000000125
 31
0.0
  0
LINE
  5
92BB
330
A
100
AcDbEntity
  8
0
  6
Continuous
 62
     9
370
     0
100
AcDbLine
 10
-18.55422663792558
 20
-8.750000000012306
 30
0.0
 11
-18.55422663792558
 21
-19.5000000000125
 31
0.0
  0
LINE
  5
92BC
330
A
100
AcDbEntity
  8
0
  6
Continuous
 62
     7
370
     0
100
AcDbLine
 10
-18.55422663792558
 20
-8.750000000012306
 30
0.0
 11
-19.31633893782396
 21
-8.750000000012306
 31
0.0
  0
LINE
  5
92BD
330
A
100
AcDbEntity
  8
0
  6
Continuous
 62
     7
370
     0
100
AcDbLine
 10
-18.55422663792558
 20
-19.5000000000125
 30
0.0
 11
-19.31633893782396
 21
-19.5000000000125
 31
0.0
  0
LINE
  5
92BE
330
A
100
AcDbEntity
  8
0
  6
Continuous
 62
     7
370
     0
100
AcDbLine
 10
-21.50000145416596
 20
-30.50000000001231
 30
0.0
 11
-23.89999998372781
 21
-30.50000000001231
 31
0.0
  0
LINE
  5
92BF
330
A
100
AcDbEntity
  8
0
  6
Continuous
 62
     7
370
     0
100
AcDbLine
 10
-19.31633893782396
 20
-30.50000000001231
 30
0.0
 11
-21.50000145416596
 21
-30.50000000001231
 31
0.0
  0
LINE
  5
92C0
330
A
100
AcDbEntity
  8
0
  6
Continuous
 62
     7
370
     0
100
AcDbLine
 10
-23.89999998372781
 20
-41.25000000001231
 30
0.0
 11
-19.31633893782396
 21
-41.25000000001231
 31
0.0
  0
LINE
  5
92C1
330
A
100
AcDbEntity
  8
0
  6
Continuous
 62
     7
370
     0
100
AcDbLine
 10
-23.89999998372781
 20
-8.750000000012306
 30
0.0
 11
-19.31633893782396
 21
-8.750000000012306
 31
0.0
  0
LINE
  5
92C2
330
A
100
AcDbEntity
  8
0
  6
Continuous
 62
     7
370
     0
100
AcDbLine
 10
-23.89999998372781
 20
-19.5000000000125
 30
0.0
 11
-19.31633893782396
 21
-19.5000000000125
 31
0.0
  0
LINE
  5
92C3
330
A
100
AcDbEntity
  8
0
  6
Continuous
 62
     9
370
     0
100
AcDbLine
 10
-12.31818180190953
 20
-30.50000000001231
 30
0.0
 11
-12.31818180190953
 21
-41.25000000001231
 31
0.0
  0
LINE
  5
92C4
330
A
100
AcDbEntity
  8
0
  6
Continuous
 62
     7
370
     0
100
AcDbLine
 10
-18.55422663792558
 20
-30.50000000001231
 30
0.0
 11
-12.31818180190953
 21
-30.50000000001231
 31
0.0
  0
LINE
  5
92C5
330
A
100
AcDbEntity
  8
0
  6
Continuous
 62
     7
370
     0
100
AcDbLine
 10
-12.31818180190953
 20
-41.25000000001231
 30
0.0
 11
-18.55422663792558
 21
-41.25000000001231
 31
0.0
  0
LINE
  5
92C6
330
A
100
AcDbEntity
  8
0
  6
Continuous
 62
     9
370
     0
100
AcDbLine
 10
-12.31818180190953
 20
-8.750000000012306
 30
0.0
 11
-12.31818180190953
 21
-19.5000000000125
 31
0.0
  0
LINE
  5
92C7
330
A
100
AcDbEntity
  8
0
  6
Continuous
 62
     7
370
     0
100
AcDbLine
 10
-12.31818180190953
 20
-8.750000000012306
 30
0.0
 11
-18.55422663792558
 21
-8.750000000012306
 31
0.0
  0
LINE
  5
92C8
330
A
100
AcDbEntity
  8
0
  6
Continuous
 62
     7
370
     0
100
AcDbLine
 10
-12.31818180190953
 20
-19.5000000000125
 30
0.0
 11
-18.55422663792558
 21
-19.5000000000125
 31
0.0
  0
LINE
  5
92C9
330
A
100
AcDbEntity
  8
0
  6
Continuous
 62
     7
370
     0
100
AcDbLine
 10
-12.22727271100041
 20
-41.25000000001231
 30
0.0
 11
-12.31818180190953
 21
-41.25000000001231
 31
0.0
  0
LINE
  5
92CA
330
A
100
AcDbEntity
  8
0
  6
Continuous
 62
     7
370
     0
100
AcDbLine
 10
-12.31818180190953
 20
-30.50000000001231
 30
0.0
 11
-12.22727271100041
 21
-30.50000000001231
 31
0.0
  0
LINE
  5
92CB
330
A
100
AcDbEntity
  8
0
  6
Continuous
 62
     7
370
     0
100
AcDbLine
 10
-12.22727271100041
 20
-8.750000000012306
 30
0.0
 11
-12.31818180190953
 21
-8.750000000012306
 31
0.0
  0
LINE
  5
92CC
330
A
100
AcDbEntity
  8
0
  6
Continuous
 62
     7
370
     0
100
AcDbLine
 10
-12.22727271100041
 20
-19.5000000000125
 30
0.0
 11
-12.31818180190953
 21
-19.5000000000125
 31
0.0
  0
LINE
  5
92CD
330
A
100
AcDbEntity
  8
0
  6
Continuous
 62
     7
370
     0
100
AcDbLine
 10
-25.99999998372766
 20
-41.40000000019807
 30
0.0
 11
-25.9999999837184
 21
-41.25000000001231
 31
0.0
  0
LINE
  5
92CE
330
A
100
AcDbEntity
  8
0
  6
Continuous
 62
     7
370
     0
100
AcDbLine
 10
-31.99999998304662
 20
-30.39999999982661
 30
0.0
 11
-31.99999998305276
 21
-30.50000000001231
 31
0.0
  0
LINE
  5
92CF
330
A
100
AcDbEntity
  8
0
  6
Continuous
 62
     7
370
     0
100
AcDbLine
 10
-31.9999999837184
 20
-41.25000000001231
 30
0.0
 11
-31.99999998372778
 21
-41.39999999982649
 31
0.0
  0
ARC
  5
92D0
330
A
100
AcDbEntity
  8
0
  6
Continuous
 62
     7
370
     0
100
AcDbCircle
 10
-30.4999996348646
 20
-29.5000000000077
 30
0.0
 40
1.0
100
AcDbArc
 50
179.999999999969
 51
244.1580672216434
  0
ARC
  5
92D1
330
A
100
AcDbEntity
  8
0
  6
Continuous
 62
     7
370
     0
100
AcDbCircle
 10
-30.49999963485999
 20
-20.70000000000769
 30
0.0
 40
1.0
100
AcDbArc
 50
89.99999999994138
 51
179.9999999999707
  0
LINE
  5
92D2
330
A
100
AcDbEntity
  8
0
  6
Continuous
 62
     7
370
     0
100
AcDbLine
 10
-31.49999963485908
 20
-20.70000000000721
 30
0.0
 11
-31.4999996348638
 21
-29.50000000000719
 31
0.0
  0
ARC
  5
92D3
330
A
100
AcDbEntity
  8
0
  6
Continuous
 62
     7
370
     0
100
AcDbCircle
 10
-13.24999962982787
 20
-29.50000000001671
 30
0.0
 40
1.0
100
AcDbArc
 50
269.9999999999674
 51
359.9999999999691
  0
ARC
  5
92D4
330
A
100
AcDbEntity
  8
0
  6
Continuous
 62
     7
370
     0
100
AcDbCircle
 10
-13.24999962982326
 20
-20.7000000000169
 30
0.0
 40
1.0
100
AcDbArc
 50
359.9999999999691
 51
89.99999999997069
  0
LINE
  5
92D5
330
A
100
AcDbEntity
  8
0
  6
Continuous
 62
     7
370
     0
100
AcDbLine
 10
-12.24999962982781
 20
-29.50000000001731
 30
0.0
 11
-12.24999962982326
 21
-20.7000000000173
 31
0.0
  0
LINE
  5
92D6
330
A
100
AcDbEntity
  8
0
  6
Continuous
 62
     7
370
     0
100
AcDbLine
 10
-23.99999999881726
 20
-7.424999999975909
 30
0.0
 11
-23.99999999881726
 21
-7.55000000001209
 31
0.0
  0
LINE
  5
92D7
330
A
100
AcDbEntity
  8
0
  6
Continuous
 62
     7
370
     0
100
AcDbLine
 10
-23.99999999881726
 20
-42.45000000001232
 30
0.0
 11
-23.99999999881726
 21
-42.57499999997591
 31
0.0
  0
LINE
  5
92D8
330
A
100
AcDbEntity
  8
0
  6
Continuous
 62
     7
370
     0
100
AcDbLine
 10
-18.99999999881726
 20
-42.57499999997591
 30
0.0
 11
-18.99999999881726
 21
-42.45000000001232
 31
0.0
  0
LINE
  5
92D9
330
A
100
AcDbEntity
  8
0
  6
Continuous
 62
     7
370
     0
100
AcDbLine
 10
-18.99999999881726
 20
-7.55000000001209
 30
0.0
 11
-18.99999999881726
 21
-7.424999999975909
 31
0.0
  0
ARC
  5
92DA
330
A
100
AcDbEntity
  8
0
  6
Continuous
 62
     7
370
     0
100
AcDbCircle
 10
-26.44999998411857
 20
-8.529851921193682
 30
0.0
 40
0.7999999999999985
100
AcDbArc
 50
100.0000000000018
 51
180.0
  0
ARC
  5
92DB
330
A
100
AcDbEntity
  8
0
  6
Continuous
 62
     7
370
     0
100
AcDbCircle
 10
-16.54999998411858
 20
-8.529851921193682
 30
0.0
 40
0.8000000000000229
100
AcDbArc
 50
0.0
 51
79.99999999999819
  0
LINE
  5
92DC
330
A
100
AcDbEntity
  8
0
  6
Continuous
 62
     7
370
     0
100
AcDbLine
 10
-15.74999998411857
 20
-8.750000000012079
 30
0.0
 11
-15.74999998411857
 21
-8.529851921193682
 31
0.0
  0
LINE
  5
92DD
330
A
100
AcDbEntity
  8
0
  6
Continuous
 62
     7
370
     0
100
AcDbLine
 10
-27.24999998411858
 20
-8.529851921193682
 30
0.0
 11
-27.24999998411858
 21
-8.750000000012079
 31
0.0
  0
LINE
  5
92DE
330
A
100
AcDbEntity
  8
0
  6
Continuous
 62
     7
370
     0
100
AcDbLine
 10
-16.41108144198506
 20
-7.7420057187839
 30
0.0
 11
-17.49999998411857
 21
-7.55000000001209
 31
0.0
  0
LINE
  5
92DF
330
A
100
AcDbEntity
  8
0
  6
Continuous
 62
     7
370
     0
100
AcDbLine
 10
-25.49999998411858
 20
-7.55000000001209
 30
0.0
 11
-26.58891852625214
 21
-7.7420057187839
 31
0.0
  0
LINE
  5
92E0
330
A
100
AcDbEntity
  8
0
  6
Continuous
 62
     7
370
     0
100
AcDbLine
 10
-17.99999998411863
 20
-19.70000000001417
 30
0.0
 11
-17.99999998411863
 21
-19.5000000000125
 31
0.0
  0
LINE
  5
92E1
330
A
100
AcDbEntity
  8
0
  6
Continuous
 62
     7
370
     0
100
AcDbLine
 10
-24.99999998411863
 20
-19.5000000000125
 30
0.0
 11
-24.99999998411863
 21
-19.70000000001059
 31
0.0
  0
ARC
  5
92E2
330
A
100
AcDbEntity
  8
0
  6
Continuous
 62
     7
370
     0
100
AcDbCircle
 10
-16.55000000001041
 20
-41.4701480788307
 30
0.0
 40
0.7999999999999985
100
AcDbArc
 50
280.0000000000018
 51
0.0
  0
ARC
  5
92E3
330
A
100
AcDbEntity
  8
0
  6
Continuous
 62
     7
370
     0
100
AcDbCircle
 10
-26.45000000001039
 20
-41.47014807883059
 30
0.0
 40
0.8000000000000229
100
AcDbArc
 50
179.9999999999984
 51
259.9999999999982
  0
LINE
  5
92E4
330
A
100
AcDbEntity
  8
0
  6
Continuous
 62
     7
370
     0
100
AcDbLine
 10
-27.25000000001035
 20
-41.40000000012068
 30
0.0
 11
-27.25000000001035
 21
-41.47014807883059
 31
0.0
  0
LINE
  5
92E5
330
A
100
AcDbEntity
  8
0
  6
Continuous
 62
     7
370
     0
100
AcDbLine
 10
-15.75000000001034
 20
-41.4701480788307
 30
0.0
 11
-15.75000000001034
 21
-41.25000000001231
 31
0.0
  0
LINE
  5
92E6
330
A
100
AcDbEntity
  8
0
  6
Continuous
 62
     7
370
     0
100
AcDbLine
 10
-26.58891854214392
 20
-42.25799428124043
 30
0.0
 11
-25.50000000001034
 21
-42.45000000001232
 31
0.0
  0
LINE
  5
92E7
330
A
100
AcDbEntity
  8
0
  6
Continuous
 62
     7
370
     0
100
AcDbLine
 10
-17.50000000001034
 20
-42.45000000001232
 30
0.0
 11
-16.41108145787683
 21
-42.25799428124043
 31
0.0
  0
LINE
  5
92E8
330
A
100
AcDbEntity
  8
0
  6
Continuous
 62
     7
370
     0
100
AcDbLine
 10
-12.22727271100041
 20
-41.25000000001231
 30
0.0
 11
-12.22727271100041
 21
-30.50000000001231
 31
0.0
  0
LINE
  5
92E9
330
A
100
AcDbEntity
  8
0
  6
Continuous
 62
     7
370
     0
100
AcDbLine
 10
-12.22727271100041
 20
-19.5000000000125
 30
0.0
 11
-12.22727271100041
 21
-8.750000000012306
 31
0.0
  0
LINE
  5
B111
330
A
100
AcDbEntity
  8
0
  6
Continuous
 62
     7
370
     0
100
AcDbLine
 10
55.65696437829422
 20
-136.3195934726263
 30
0.0
 11
55.66448836193541
 21
-136.3135007693085
 31
0.0
  0
LINE
  5
B112
330
A
100
AcDbEntity
  8
0
  6
Continuous
 62
     7
370
     0
100
AcDbLine
 10
55.66448836193541
 20
-136.3135007693085
 30
0.0
 11
55.69382995143048
 21
-136.290704124642
 31
0.0
  0
LINE
  5
B113
330
A
100
AcDbEntity
  8
0
  6
Continuous
 62
     7
370
     0
100
AcDbLine
 10
55.69382995143048
 20
-136.290704124642
 30
0.0
 11
55.72388772001511
 21
-136.2688988531113
 31
0.0
  0
LINE
  5
B114
330
A
100
AcDbEntity
  8
0
  6
Continuous
 62
     7
370
     0
100
AcDbLine
 10
55.72388772001511
 20
-136.2688988531113
 30
0.0
 11
55.74439226873443
 21
-136.254897719931
 31
0.0
  0
LINE
  5
B115
330
A
100
AcDbEntity
  8
0
  6
Continuous
 62
     7
370
     0
100
AcDbLine
 10
55.74439226873443
 20
-136.254897719931
 30
0.0
 11
55.77003624925464
 21
-136.2383618364935
 31
0.0
  0
LINE
  5
B116
330
A
100
AcDbEntity
  8
0
  6
Continuous
 62
     7
370
     0
100
AcDbLine
 10
55.77003624925464
 20
-136.2383618364935
 30
0.0
 11
55.79634155275385
 21
-136.2225048386057
 31
0.0
  0
LINE
  5
B117
330
A
100
AcDbEntity
  8
0
  6
Continuous
 62
     7
370
     0
100
AcDbLine
 10
55.79634155275385
 20
-136.2225048386057
 30
0.0
 11
55.82309559326853
 21
-136.2075057331959
 31
0.0
  0
LINE
  5
B118
330
A
100
AcDbEntity
  8
0
  6
Continuous
 62
     7
370
     0
100
AcDbLine
 10
55.82309559326853
 20
-136.2075057331959
 30
0.0
 11
55.85025952313606
 21
-136.1934258507589
 31
0.0
  0
LINE
  5
B119
330
A
100
AcDbEntity
  8
0
  6
Continuous
 62
     7
370
     0
100
AcDbLine
 10
55.85025952313606
 20
-136.1934258507589
 30
0.0
 11
55.87819200791688
 21
-136.1801450989308
 31
0.0
  0
LINE
  5
B11A
330
A
100
AcDbEntity
  8
0
  6
Continuous
 62
     7
370
     0
100
AcDbLine
 10
55.87819200791688
 20
-136.1801450989308
 30
0.0
 11
55.90651034418107
 21
-136.1679104341747
 31
0.0
  0
LINE
  5
B11B
330
A
100
AcDbEntity
  8
0
  6
Continuous
 62
     7
370
     0
100
AcDbLine
 10
55.90651034418107
 20
-136.1679104341747
 30
0.0
 11
55.93515446706902
 21
-136.1567914577785
 31
0.0
  0
LINE
  5
B11C
330
A
100
AcDbEntity
  8
0
  6
Continuous
 62
     7
370
     0
100
AcDbLine
 10
55.93515446706902
 20
-136.1567914577785
 30
0.0
 11
55.96438780709632
 21
-136.1467504123063
 31
0.0
  0
LINE
  5
B11D
330
A
100
AcDbEntity
  8
0
  6
Continuous
 62
     7
370
     0
100
AcDbLine
 10
55.96438780709632
 20
-136.1467504123063
 30
0.0
 11
55.98834704192751
 21
-136.1395096066309
 31
0.0
  0
LINE
  5
B11E
330
A
100
AcDbEntity
  8
0
  6
Continuous
 62
     7
370
     0
100
AcDbLine
 10
55.98834704192751
 20
-136.1395096066309
 30
0.0
 11
56.01244426693307
 21
-136.1331322300045
 31
0.0
  0
LINE
  5
B11F
330
A
100
AcDbEntity
  8
0
  6
Continuous
 62
     7
370
     0
100
AcDbLine
 10
56.01244426693307
 20
-136.1331322300045
 30
0.0
 11
56.03686193305503
 21
-136.1276066218918
 31
0.0
  0
LINE
  5
B120
330
A
100
AcDbEntity
  8
0
  6
Continuous
 62
     7
370
     0
100
AcDbLine
 10
56.03686193305503
 20
-136.1276066218918
 30
0.0
 11
56.06134985330857
 21
-136.1230240539295
 31
0.0
  0
LINE
  5
B121
330
A
100
AcDbEntity
  8
0
  6
Continuous
 62
     7
370
     0
100
AcDbLine
 10
56.06134985330857
 20
-136.1230240539295
 30
0.0
 11
56.08620463184883
 21
-136.1193726147884
 31
0.0
  0
LINE
  5
B122
330
A
100
AcDbEntity
  8
0
  6
Continuous
 62
     7
370
     0
100
AcDbLine
 10
56.08620463184883
 20
-136.1193726147884
 30
0.0
 11
56.11104611499041
 21
-136.1167489359772
 31
0.0
  0
LINE
  5
B123
330
A
100
AcDbEntity
  8
0
  6
Continuous
 62
     7
370
     0
100
AcDbLine
 10
56.11104611499041
 20
-136.1167489359772
 30
0.0
 11
56.13607465632424
 21
-136.1151689889592
 31
0.0
  0
LINE
  5
B124
330
A
100
AcDbEntity
  8
0
  6
Continuous
 62
     7
370
     0
100
AcDbLine
 10
56.13607465632424
 20
-136.1151689889592
 30
0.0
 11
56.16099027967834
 21
-136.1146844597097
 31
0.0
  0
LINE
  5
B125
330
A
100
AcDbEntity
  8
0
  6
Continuous
 62
     7
370
     0
100
AcDbLine
 10
56.16099027967834
 20
-136.1146844597097
 30
0.0
 11
56.18618853851359
 21
-136.1153357177171
 31
0.0
  0
LINE
  5
B126
330
A
100
AcDbEntity
  8
0
  6
Continuous
 62
     7
370
     0
100
AcDbLine
 10
56.18618853851359
 20
-136.1153357177171
 30
0.0
 11
56.21115752283123
 21
-136.117152182428
 31
0.0
  0
LINE
  5
B127
330
A
100
AcDbEntity
  8
0
  6
Continuous
 62
     7
370
     0
100
AcDbLine
 10
56.21115752283123
 20
-136.117152182428
 30
0.0
 11
56.23600511073772
 21
-136.1201660119644
 31
0.0
  0
LINE
  5
B128
330
A
100
AcDbEntity
  8
0
  6
Continuous
 62
     7
370
     0
100
AcDbLine
 10
56.23600511073772
 20
-136.1201660119644
 30
0.0
 11
56.26050326186396
 21
-136.1243663357159
 31
0.0
  0
LINE
  5
B129
330
A
100
AcDbEntity
  8
0
  6
Continuous
 62
     7
370
     0
100
AcDbLine
 10
56.07111113777404
 20
-111.5387154090653
 30
0.0
 11
56.07435903254054
 21
-111.5437907732553
 31
0.0
  0
LINE
  5
B12A
330
A
100
AcDbEntity
  8
0
  6
Continuous
 62
     7
370
     0
100
AcDbLine
 10
56.07435903254054
 20
-111.5437907732553
 30
0.0
 11
56.09151388289513
 21
-111.56924419565
 31
0.0
  0
LINE
  5
B12B
330
A
100
AcDbEntity
  8
0
  6
Continuous
 62
     7
370
     0
100
AcDbLine
 10
56.09151388289513
 20
-111.56924419565
 30
0.0
 11
56.10997859162456
 21
-111.5943836452231
 31
0.0
  0
LINE
  5
B12C
330
A
100
AcDbEntity
  8
0
  6
Continuous
 62
     7
370
     0
100
AcDbLine
 10
56.10997859162456
 20
-111.5943836452231
 30
0.0
 11
56.12950772192056
 21
-111.6188564723176
 31
0.0
  0
LINE
  5
B12D
330
A
100
AcDbEntity
  8
0
  6
Continuous
 62
     7
370
     0
100
AcDbLine
 10
56.12950772192056
 20
-111.6188564723176
 30
0.0
 11
56.14351931351222
 21
-111.6352622700088
 31
0.0
  0
LINE
  5
B12E
330
A
100
AcDbEntity
  8
0
  6
Continuous
 62
     7
370
     0
100
AcDbLine
 10
56.14351931351222
 20
-111.6352622700088
 30
0.0
 11
56.15800136692638
 21
-111.6513255757452
 31
0.0
  0
LINE
  5
B12F
330
A
100
AcDbEntity
  8
0
  6
Continuous
 62
     7
370
     0
100
AcDbLine
 10
56.15800136692638
 20
-111.6513255757452
 30
0.0
 11
56.18569771457964
 21
-111.6798186704887
 31
0.0
  0
LINE
  5
B130
330
A
100
AcDbEntity
  8
0
  6
Continuous
 62
     7
370
     0
100
AcDbLine
 10
56.18569771457964
 20
-111.6798186704887
 30
0.0
 11
56.21484265376125
 21
-111.7070683586527
 31
0.0
  0
LINE
  5
B131
330
A
100
AcDbEntity
  8
0
  6
Continuous
 62
     7
370
     0
100
AcDbLine
 10
56.21484265376125
 20
-111.7070683586527
 30
0.0
 11
56.2410042612334
 21
-111.7294666141193
 31
0.0
  0
LINE
  5
B132
330
A
100
AcDbEntity
  8
0
  6
Continuous
 62
     7
370
     0
100
AcDbLine
 10
56.2410042612334
 20
-111.7294666141193
 30
0.0
 11
56.26811987118776
 21
-111.7508714491137
 31
0.0
  0
LINE
  5
B133
330
A
100
AcDbEntity
  8
0
  6
Continuous
 62
     7
370
     0
100
AcDbLine
 10
56.26811987118776
 20
-111.7508714491137
 30
0.0
 11
56.29470604655404
 21
-111.7702525334814
 31
0.0
  0
LINE
  5
B134
330
A
100
AcDbEntity
  8
0
  6
Continuous
 62
     7
370
     0
100
AcDbLine
 10
56.29470604655404
 20
-111.7702525334814
 30
0.0
 11
56.32205559646905
 21
-111.788687283024
 31
0.0
  0
LINE
  5
B135
330
A
100
AcDbEntity
  8
0
  6
Continuous
 62
     7
370
     0
100
AcDbLine
 10
56.32205559646905
 20
-111.788687283024
 30
0.0
 11
56.35100882109071
 21
-111.8066830525801
 31
0.0
  0
LINE
  5
B136
330
A
100
AcDbEntity
  8
0
  6
Continuous
 62
     7
370
     0
100
AcDbLine
 10
56.35100882109071
 20
-111.8066830525801
 30
0.0
 11
56.38067134513659
 21
-111.8236283085229
 31
0.0
  0
LINE
  5
B137
330
A
100
AcDbEntity
  8
0
  6
Continuous
 62
     7
370
     0
100
AcDbLine
 10
56.38067134513659
 20
-111.8236283085229
 30
0.0
 11
56.41124932772289
 21
-111.839631719643
 31
0.0
  0
LINE
  5
B138
330
A
100
AcDbEntity
  8
0
  6
Continuous
 62
     7
370
     0
100
AcDbLine
 10
56.41124932772289
 20
-111.839631719643
 30
0.0
 11
56.44244291194576
 21
-111.8545292190869
 31
0.0
  0
LINE
  5
B139
330
A
100
AcDbEntity
  8
0
  6
Continuous
 62
     7
370
     0
100
AcDbLine
 10
56.44244291194576
 20
-111.8545292190869
 30
0.0
 11
56.47454487942025
 21
-111.868446170405
 31
0.0
  0
LINE
  5
B13A
330
A
100
AcDbEntity
  8
0
  6
Continuous
 62
     7
370
     0
100
AcDbLine
 10
56.47454487942025
 20
-111.868446170405
 30
0.0
 11
56.50716797637091
 21
-111.8812020519416
 31
0.0
  0
LINE
  5
B13B
330
A
100
AcDbEntity
  8
0
  6
Continuous
 62
     7
370
     0
100
AcDbLine
 10
56.50716797637091
 20
-111.8812020519416
 30
0.0
 11
56.54053588348194
 21
-111.8928743209721
 31
0.0
  0
LINE
  5
B13C
330
A
100
AcDbEntity
  8
0
  6
Continuous
 62
     7
370
     0
100
AcDbLine
 10
56.54053588348194
 20
-111.8928743209721
 30
0.0
 11
56.57432453495693
 21
-111.9033411222368
 31
0.0
  0
LINE
  5
B13D
330
A
100
AcDbEntity
  8
0
  6
Continuous
 62
     7
370
     0
100
AcDbLine
 10
56.57432453495693
 20
-111.9033411222368
 30
0.0
 11
56.61246478815781
 21
-111.9135846336647
 31
0.0
  0
LINE
  5
B13E
330
A
100
AcDbEntity
  8
0
  6
Continuous
 62
     7
370
     0
100
AcDbLine
 10
56.61246478815781
 20
-111.9135846336647
 30
0.0
 11
56.65100515897433
 21
-111.9223066095687
 31
0.0
  0
LINE
  5
B13F
330
A
100
AcDbEntity
  8
0
  6
Continuous
 62
     7
370
     0
100
AcDbLine
 10
56.65100515897433
 20
-111.9223066095687
 30
0.0
 11
56.68983532378184
 21
-111.9294890013108
 31
0.0
  0
LINE
  5
B140
330
A
100
AcDbEntity
  8
0
  6
Continuous
 62
     7
370
     0
100
AcDbLine
 10
56.68983532378184
 20
-111.9294890013108
 30
0.0
 11
56.72931900908776
 21
-111.9351764742062
 31
0.0
  0
LINE
  5
B141
330
A
100
AcDbEntity
  8
0
  6
Continuous
 62
     7
370
     0
100
AcDbLine
 10
56.72931900908776
 20
-111.9351764742062
 30
0.0
 11
56.76898546925844
 21
-111.9392832259888
 31
0.0
  0
LINE
  5
B142
330
A
100
AcDbEntity
  8
0
  6
Continuous
 62
     7
370
     0
100
AcDbLine
 10
56.76898546925844
 20
-111.9392832259888
 30
0.0
 11
56.80872239969364
 21
-111.9418011264227
 31
0.0
  0
LINE
  5
B143
330
A
100
AcDbEntity
  8
0
  6
Continuous
 62
     7
370
     0
100
AcDbLine
 10
56.80872239969364
 20
-111.9418011264227
 30
0.0
 11
56.81483931980074
 21
-111.9420471969531
 31
0.0
  0
ARC
  5
B144
330
A
100
AcDbEntity
  8
0
  6
Continuous
 62
     7
370
     0
100
AcDbCircle
 10
56.76406950718337
 20
-110.1930161966377
 30
0.0
 40
2.253652236920104
100
AcDbArc
 50
231.1899587837686
 51
257.0885727306784
  0
LINE
  5
B145
330
A
100
AcDbEntity
  8
0
  6
Continuous
 62
     7
370
     0
100
AcDbLine
 10
55.35161464219505
 20
-111.9491254356503
 30
0.0
 11
55.27242191552301
 21
-111.8682517222165
 31
0.0
  0
LINE
  5
B146
330
A
100
AcDbEntity
  8
0
  6
Continuous
 62
     7
370
     0
100
AcDbLine
 10
55.27242191552301
 20
-111.8682517222165
 30
0.0
 11
55.23365304654163
 21
-111.7724868961985
 31
0.0
  0
LINE
  5
B147
330
A
100
AcDbEntity
  8
0
  6
Continuous
 62
     7
370
     0
100
AcDbLine
 10
55.23365304654163
 20
-136.9677245414361
 30
0.0
 11
55.2562122922156
 21
-136.8682314069953
 31
0.0
  0
LINE
  5
B148
330
A
100
AcDbEntity
  8
0
  6
Continuous
 62
     7
370
     0
100
AcDbLine
 10
55.2562122922156
 20
-136.8682314069953
 30
0.0
 11
55.30363051736827
 21
-136.761643706548
 31
0.0
  0
ARC
  5
B149
330
A
100
AcDbEntity
  8
0
  6
Continuous
 62
     7
370
     0
100
AcDbCircle
 10
56.56235560050783
 20
-137.4055152811687
 30
0.0
 40
1.413845620826176
100
AcDbArc
 50
129.8197791678628
 51
152.9090403071243
  0
LINE
  5
B14A
330
A
100
AcDbEntity
  8
0
  6
Continuous
 62
     7
370
     0
100
AcDbLine
 10
-34.58678534580162
 20
-118.9999999999941
 30
0.0
 11
-34.61983953882469
 21
-119.0005468832526
 31
0.0
  0
LINE
  5
B14B
330
A
100
AcDbEntity
  8
0
  6
Continuous
 62
     7
370
     0
100
AcDbLine
 10
-34.61983953882469
 20
-119.0005468832526
 30
0.0
 11
-34.65281444893179
 21
-119.0021823024462
 31
0.0
  0
LINE
  5
B14C
330
A
100
AcDbEntity
  8
0
  6
Continuous
 62
     7
370
     0
100
AcDbLine
 10
-34.65281444893179
 20
-119.0021823024462
 30
0.0
 11
-34.68592813082756
 21
-119.0049272183534
 31
0.0
  0
LINE
  5
B14D
330
A
100
AcDbEntity
  8
0
  6
Continuous
 62
     7
370
     0
100
AcDbLine
 10
-34.68592813082756
 20
-119.0049272183534
 30
0.0
 11
-34.7188188980486
 21
-119.0087547522975
 31
0.0
  0
LINE
  5
B14E
330
A
100
AcDbEntity
  8
0
  6
Continuous
 62
     7
370
     0
100
AcDbLine
 10
-34.7188188980486
 20
-119.0087547522975
 30
0.0
 11
-34.75176250052266
 21
-119.0137030213647
 31
0.0
  0
LINE
  5
B14F
330
A
100
AcDbEntity
  8
0
  6
Continuous
 62
     7
370
     0
100
AcDbLine
 10
-34.75176250052266
 20
-119.0137030213647
 30
0.0
 11
-34.78434505426719
 21
-119.0197091443849
 31
0.0
  0
LINE
  5
B150
330
A
100
AcDbEntity
  8
0
  6
Continuous
 62
     7
370
     0
100
AcDbLine
 10
-34.78434505426719
 20
-119.0197091443849
 30
0.0
 11
-34.81677812880844
 21
-119.0268080301526
 31
0.0
  0
LINE
  5
B151
330
A
100
AcDbEntity
  8
0
  6
Continuous
 62
     7
370
     0
100
AcDbLine
 10
-34.81677812880844
 20
-119.0268080301526
 30
0.0
 11
-34.84872692341316
 21
-119.0349162679178
 31
0.0
  0
LINE
  5
B152
330
A
100
AcDbEntity
  8
0
  6
Continuous
 62
     7
370
     0
100
AcDbLine
 10
-34.84872692341316
 20
-119.0349162679178
 30
0.0
 11
-34.86910222970357
 21
-119.0406788481056
 31
0.0
  0
LINE
  5
B153
330
A
100
AcDbEntity
  8
0
  6
Continuous
 62
     7
370
     0
100
AcDbLine
 10
-34.86910222970357
 20
-119.0406788481056
 30
0.0
 11
-34.88924162120333
 21
-119.0468367393351
 31
0.0
  0
LINE
  5
B154
330
A
100
AcDbEntity
  8
0
  6
Continuous
 62
     7
370
     0
100
AcDbLine
 10
-34.88924162120333
 20
-119.0468367393351
 30
0.0
 11
-34.91589067931562
 21
-119.0557073504212
 31
0.0
  0
LINE
  5
B155
330
A
100
AcDbEntity
  8
0
  6
Continuous
 62
     7
370
     0
100
AcDbLine
 10
-34.91589067931562
 20
-119.0557073504212
 30
0.0
 11
-34.94207888383977
 21
-119.0652457929328
 31
0.0
  0
LINE
  5
B156
330
A
100
AcDbEntity
  8
0
  6
Continuous
 62
     7
370
     0
100
AcDbLine
 10
-34.94207888383977
 20
-119.0652457929328
 30
0.0
 11
-34.96776907364114
 21
-119.0754182571928
 31
0.0
  0
LINE
  5
B157
330
A
100
AcDbEntity
  8
0
  6
Continuous
 62
     7
370
     0
100
AcDbLine
 10
-34.96776907364114
 20
-119.0754182571928
 30
0.0
 11
-35.0056338915814
 21
-119.0919444243737
 31
0.0
  0
LINE
  5
B158
330
A
100
AcDbEntity
  8
0
  6
Continuous
 62
     7
370
     0
100
AcDbLine
 10
-35.0056338915814
 20
-119.0919444243737
 30
0.0
 11
-35.04228994688413
 21
-119.1097665708349
 31
0.0
  0
LINE
  5
B159
330
A
100
AcDbEntity
  8
0
  6
Continuous
 62
     7
370
     0
100
AcDbLine
 10
-35.04228994688413
 20
-119.1097665708349
 30
0.0
 11
-35.07781199640329
 21
-119.1288554491882
 31
0.0
  0
LINE
  5
B15A
330
A
100
AcDbEntity
  8
0
  6
Continuous
 62
     7
370
     0
100
AcDbLine
 10
-35.07781199640329
 20
-119.1288554491882
 30
0.0
 11
-35.11342367429006
 21
-119.1499109016254
 31
0.0
  0
LINE
  5
B15B
330
A
100
AcDbEntity
  8
0
  6
Continuous
 62
     7
370
     0
100
AcDbLine
 10
-35.11342367429006
 20
-119.1499109016254
 30
0.0
 11
-35.14763440453709
 21
-119.1720819283737
 31
0.0
  0
LINE
  5
B15C
330
A
100
AcDbEntity
  8
0
  6
Continuous
 62
     7
370
     0
100
AcDbLine
 10
-35.14763440453709
 20
-119.1720819283737
 30
0.0
 11
-35.18067596663991
 21
-119.1954544395762
 31
0.0
  0
LINE
  5
B15D
330
A
100
AcDbEntity
  8
0
  6
Continuous
 62
     7
370
     0
100
AcDbLine
 10
-35.18067596663991
 20
-119.1954544395762
 30
0.0
 11
-35.21228840949055
 21
-119.2197782896349
 31
0.0
  0
LINE
  5
B15E
330
A
100
AcDbEntity
  8
0
  6
Continuous
 62
     7
370
     0
100
AcDbLine
 10
-35.21228840949055
 20
-119.2197782896349
 30
0.0
 11
-35.24272536404067
 21
-119.2451871315987
 31
0.0
  0
LINE
  5
B15F
330
A
100
AcDbEntity
  8
0
  6
Continuous
 62
     7
370
     0
100
AcDbLine
 10
-35.24272536404067
 20
-119.2451871315987
 30
0.0
 11
-35.27172711616913
 21
-119.2714021882997
 31
0.0
  0
LINE
  5
B160
330
A
100
AcDbEntity
  8
0
  6
Continuous
 62
     7
370
     0
100
AcDbLine
 10
-35.27172711616913
 20
-119.2714021882997
 30
0.0
 11
-35.29948093471342
 21
-119.2985266505961
 31
0.0
  0
LINE
  5
B161
330
A
100
AcDbEntity
  8
0
  6
Continuous
 62
     7
370
     0
100
AcDbLine
 10
-35.29948093471342
 20
-119.2985266505961
 30
0.0
 11
-35.32581417980066
 21
-119.3263262046613
 31
0.0
  0
LINE
  5
B162
330
A
100
AcDbEntity
  8
0
  6
Continuous
 62
     7
370
     0
100
AcDbLine
 10
-35.32581417980066
 20
-119.3263262046613
 30
0.0
 11
-35.35928345238165
 21
-119.3649831662622
 31
0.0
  0
LINE
  5
B163
330
A
100
AcDbEntity
  8
0
  6
Continuous
 62
     7
370
     0
100
AcDbLine
 10
-35.35928345238165
 20
-119.3649831662622
 30
0.0
 11
-35.39022927083556
 21
-119.4046195675596
 31
0.0
  0
LINE
  5
B164
330
A
100
AcDbEntity
  8
0
  6
Continuous
 62
     7
370
     0
100
AcDbLine
 10
-35.39022927083556
 20
-119.4046195675596
 30
0.0
 11
-35.41890480261372
 21
-119.4454038429037
 31
0.0
  0
LINE
  5
B165
330
A
100
AcDbEntity
  8
0
  6
Continuous
 62
     7
370
     0
100
AcDbLine
 10
-35.41890480261372
 20
-119.4454038429037
 30
0.0
 11
-35.44512462006742
 21
-119.486917462528
 31
0.0
  0
LINE
  5
B166
330
A
100
AcDbEntity
  8
0
  6
Continuous
 62
     7
370
     0
100
AcDbLine
 10
-35.44512462006742
 20
-119.486917462528
 30
0.0
 11
-35.4691275329522
 21
-119.5293922369747
 31
0.0
  0
LINE
  5
B167
330
A
100
AcDbEntity
  8
0
  6
Continuous
 62
     7
370
     0
100
AcDbLine
 10
-35.4691275329522
 20
-119.5293922369747
 30
0.0
 11
-35.49073213985963
 21
-119.5723550613918
 31
0.0
  0
LINE
  5
B168
330
A
100
AcDbEntity
  8
0
  6
Continuous
 62
     7
370
     0
100
AcDbLine
 10
-35.49073213985963
 20
-119.5723550613918
 30
0.0
 11
-35.51009942233782
 21
-119.6159562780594
 31
0.0
  0
LINE
  5
B169
330
A
100
AcDbEntity
  8
0
  6
Continuous
 62
     7
370
     0
100
AcDbLine
 10
-35.51009942233782
 20
-119.6159562780594
 30
0.0
 11
-35.52712054713544
 21
-119.659750519271
 31
0.0
  0
LINE
  5
B16A
330
A
100
AcDbEntity
  8
0
  6
Continuous
 62
     7
370
     0
100
AcDbLine
 10
-35.52712054713544
 20
-119.659750519271
 30
0.0
 11
-35.5405489064496
 21
-119.6994420681739
 31
0.0
  0
LINE
  5
B16B
330
A
100
AcDbEntity
  8
0
  6
Continuous
 62
     7
370
     0
100
AcDbLine
 10
-35.5405489064496
 20
-119.6994420681739
 30
0.0
 11
-35.55210820869195
 21
-119.7389524946436
 31
0.0
  0
LINE
  5
B16C
330
A
100
AcDbEntity
  8
0
  6
Continuous
 62
     7
370
     0
100
AcDbLine
 10
-35.55210820869195
 20
-119.7389524946436
 30
0.0
 11
-35.5617915393064
 21
-119.7778223174351
 31
0.0
  0
LINE
  5
B16D
330
A
100
AcDbEntity
  8
0
  6
Continuous
 62
     7
370
     0
100
AcDbLine
 10
-35.5617915393064
 20
-119.7778223174351
 30
0.0
 11
-35.56612776086775
 21
-119.797794607657
 31
0.0
  0
LINE
  5
B16E
330
A
100
AcDbEntity
  8
0
  6
Continuous
 62
     7
370
     0
100
AcDbLine
 10
-35.56612776086775
 20
-119.797794607657
 30
0.0
 11
-35.5699392923641
 21
-119.8172205773045
 31
0.0
  0
LINE
  5
B16F
330
A
100
AcDbEntity
  8
0
  6
Continuous
 62
     7
370
     0
100
AcDbLine
 10
-35.5699392923641
 20
-119.8172205773045
 30
0.0
 11
-35.57303265161755
 21
-119.8347321085132
 31
0.0
  0
LINE
  5
B170
330
A
100
AcDbEntity
  8
0
  6
Continuous
 62
     7
370
     0
100
AcDbLine
 10
-35.57303265161755
 20
-119.8347321085132
 30
0.0
 11
-35.57563433147953
 21
-119.8510782637568
 31
0.0
  0
LINE
  5
B171
330
A
100
AcDbEntity
  8
0
  6
Continuous
 62
     7
370
     0
100
AcDbLine
 10
-35.57563433147953
 20
-119.8510782637568
 30
0.0
 11
-35.57670373625973
 21
-119.8583620240135
 31
0.0
  0
LINE
  5
B172
330
A
100
AcDbEntity
  8
0
  6
Continuous
 62
     7
370
     0
100
AcDbLine
 10
-35.57670373625973
 20
-119.8583620240135
 30
0.0
 11
-35.57764431681932
 21
-119.8650981855001
 31
0.0
  0
LINE
  5
B173
330
A
100
AcDbEntity
  8
0
  6
Continuous
 62
     7
370
     0
100
AcDbLine
 10
-35.57764431681932
 20
-119.8650981855001
 30
0.0
 11
-35.57803238940647
 21
-119.8679799786469
 31
0.0
  0
LINE
  5
B174
330
A
100
AcDbEntity
  8
0
  6
Continuous
 62
     7
370
     0
100
AcDbLine
 10
-35.57803238940647
 20
-119.8679799786469
 30
0.0
 11
-35.57839005609015
 21
-119.8706937799827
 31
0.0
  0
LINE
  5
B175
330
A
100
AcDbEntity
  8
0
  6
Continuous
 62
     7
370
     0
100
AcDbLine
 10
-35.57839005609015
 20
-119.8706937799827
 30
0.0
 11
-35.578807890701
 21
-119.8739397057189
 31
0.0
  0
LINE
  5
B176
330
A
100
AcDbEntity
  8
0
  6
Continuous
 62
     7
370
     0
100
AcDbLine
 10
-35.578807890701
 20
-119.8739397057189
 30
0.0
 11
-35.57916909937444
 21
-119.8768154676374
 31
0.0
  0
LINE
  5
B177
330
A
100
AcDbEntity
  8
0
  6
Continuous
 62
     7
370
     0
100
AcDbLine
 10
-35.57916909937444
 20
-119.8768154676374
 30
0.0
 11
-35.57946971550911
 21
-119.8792616790728
 31
0.0
  0
LINE
  5
B178
330
A
100
AcDbEntity
  8
0
  6
Continuous
 62
     7
370
     0
100
AcDbLine
 10
-35.57946971550911
 20
-119.8792616790728
 30
0.0
 11
-35.57964983331033
 21
-119.8807518571822
 31
0.0
  0
LINE
  5
B179
330
A
100
AcDbEntity
  8
0
  6
Continuous
 62
     7
370
     0
100
AcDbLine
 10
-35.57964983331033
 20
-119.8807518571822
 30
0.0
 11
-35.57979399854332
 21
-119.8819584158798
 31
0.0
  0
LINE
  5
B17A
330
A
100
AcDbEntity
  8
0
  6
Continuous
 62
     7
370
     0
100
AcDbLine
 10
-35.57979399854332
 20
-119.8819584158798
 30
0.0
 11
-35.57988334130607
 21
-119.8827124031066
 31
0.0
  0
LINE
  5
B17B
330
A
100
AcDbEntity
  8
0
  6
Continuous
 62
     7
370
     0
100
AcDbLine
 10
-35.57988334130607
 20
-119.8827124031066
 30
0.0
 11
-35.57994773712113
 21
-119.883258985483
 31
0.0
  0
LINE
  5
B17C
330
A
100
AcDbEntity
  8
0
  6
Continuous
 62
     7
370
     0
100
AcDbLine
 10
-35.57994773712113
 20
-119.883258985483
 30
0.0
 11
-35.5799868851376
 21
-119.8835924638515
 31
0.0
  0
LINE
  5
B17D
330
A
100
AcDbEntity
  8
0
  6
Continuous
 62
     7
370
     0
100
AcDbLine
 10
-35.5799868851376
 20
-119.8835924638515
 30
0.0
 11
-35.57999998372765
 21
-119.8837043293554
 31
0.0
  0
LINE
  5
B17E
330
A
100
AcDbEntity
  8
0
  6
Continuous
 62
     7
370
     0
100
AcDbLine
 10
-35.57999998372765
 20
-100.1162956706329
 30
0.0
 11
-35.57998156970041
 21
-100.1164536230487
 31
0.0
  0
LINE
  5
B17F
330
A
100
AcDbEntity
  8
0
  6
Continuous
 62
     7
370
     0
100
AcDbLine
 10
-35.57998156970041
 20
-100.1164536230487
 30
0.0
 11
-35.57992685405191
 21
-100.116919909432
 31
0.0
  0
LINE
  5
B180
330
A
100
AcDbEntity
  8
0
  6
Continuous
 62
     7
370
     0
100
AcDbLine
 10
-35.57992685405191
 20
-100.116919909432
 30
0.0
 11
-35.57983662643323
 21
-100.1176831734866
 31
0.0
  0
LINE
  5
B181
330
A
100
AcDbEntity
  8
0
  6
Continuous
 62
     7
370
     0
100
AcDbLine
 10
-35.57983662643323
 20
-100.1176831734866
 30
0.0
 11
-35.57971167649498
 21
-100.1187320589161
 31
0.0
  0
LINE
  5
B182
330
A
100
AcDbEntity
  8
0
  6
Continuous
 62
     7
370
     0
100
AcDbLine
 10
-35.57971167649498
 20
-100.1187320589161
 30
0.0
 11
-35.57954627909499
 21
-100.1201072428837
 31
0.0
  0
LINE
  5
B183
330
A
100
AcDbEntity
  8
0
  6
Continuous
 62
     7
370
     0
100
AcDbLine
 10
-35.57954627909499
 20
-100.1201072428837
 30
0.0
 11
-35.57934582453885
 21
-100.1217526848424
 31
0.0
  0
LINE
  5
B184
330
A
100
AcDbEntity
  8
0
  6
Continuous
 62
     7
370
     0
100
AcDbLine
 10
-35.57934582453885
 20
-100.1217526848424
 30
0.0
 11
-35.57911194071073
 21
-100.1236443755397
 31
0.0
  0
LINE
  5
B185
330
A
100
AcDbEntity
  8
0
  6
Continuous
 62
     7
370
     0
100
AcDbLine
 10
-35.57911194071073
 20
-100.1236443755397
 30
0.0
 11
-35.5788462554944
 21
-100.1257583057236
 31
0.0
  0
LINE
  5
B186
330
A
100
AcDbEntity
  8
0
  6
Continuous
 62
     7
370
     0
100
AcDbLine
 10
-35.5788462554944
 20
-100.1257583057236
 30
0.0
 11
-35.57826020399529
 21
-100.1302962138675
 31
0.0
  0
LINE
  5
B187
330
A
100
AcDbEntity
  8
0
  6
Continuous
 62
     7
370
     0
100
AcDbLine
 10
-35.57826020399529
 20
-100.1302962138675
 30
0.0
 11
-35.57757194390172
 21
-100.1354303194632
 31
0.0
  0
LINE
  5
B188
330
A
100
AcDbEntity
  8
0
  6
Continuous
 62
     7
370
     0
100
AcDbLine
 10
-35.57757194390172
 20
-100.1354303194632
 30
0.0
 11
-35.57678914402976
 21
-100.1410407015446
 31
0.0
  0
LINE
  5
B189
330
A
100
AcDbEntity
  8
0
  6
Continuous
 62
     7
370
     0
100
AcDbLine
 10
-35.57678914402976
 20
-100.1410407015446
 30
0.0
 11
-35.57492352325841
 21
-100.1535491474598
 31
0.0
  0
LINE
  5
B18A
330
A
100
AcDbEntity
  8
0
  6
Continuous
 62
     7
370
     0
100
AcDbLine
 10
-35.57492352325841
 20
-100.1535491474598
 30
0.0
 11
-35.57271239363968
 21
-100.1671586831251
 31
0.0
  0
LINE
  5
B18B
330
A
100
AcDbEntity
  8
0
  6
Continuous
 62
     7
370
     0
100
AcDbLine
 10
-35.57271239363968
 20
-100.1671586831251
 30
0.0
 11
-35.57017601426025
 21
-100.1815014963762
 31
0.0
  0
LINE
  5
B18C
330
A
100
AcDbEntity
  8
0
  6
Continuous
 62
     7
370
     0
100
AcDbLine
 10
-35.57017601426025
 20
-100.1815014963762
 30
0.0
 11
-35.56230144127636
 21
-100.2198941231314
 31
0.0
  0
LINE
  5
B18D
330
A
100
AcDbEntity
  8
0
  6
Continuous
 62
     7
370
     0
100
AcDbLine
 10
-35.56230144127636
 20
-100.2198941231314
 30
0.0
 11
-35.55243236526542
 21
-100.259857333547
 31
0.0
  0
LINE
  5
B18E
330
A
100
AcDbEntity
  8
0
  6
Continuous
 62
     7
370
     0
100
AcDbLine
 10
-35.55243236526542
 20
-100.259857333547
 30
0.0
 11
-35.53929532606338
 21
-100.3044993617174
 31
0.0
  0
LINE
  5
B18F
330
A
100
AcDbEntity
  8
0
  6
Continuous
 62
     7
370
     0
100
AcDbLine
 10
-35.53929532606338
 20
-100.3044993617174
 30
0.0
 11
-35.52374740793988
 21
-100.3494311006616
 31
0.0
  0
LINE
  5
B190
330
A
100
AcDbEntity
  8
0
  6
Continuous
 62
     7
370
     0
100
AcDbLine
 10
-35.52374740793988
 20
-100.3494311006616
 30
0.0
 11
-35.50378029166046
 21
-100.3988961516313
 31
0.0
  0
LINE
  5
B191
330
A
100
AcDbEntity
  8
0
  6
Continuous
 62
     7
370
     0
100
AcDbLine
 10
-35.50378029166046
 20
-100.3988961516313
 30
0.0
 11
-35.48079842052039
 21
-100.4480408711566
 31
0.0
  0
LINE
  5
B192
330
A
100
AcDbEntity
  8
0
  6
Continuous
 62
     7
370
     0
100
AcDbLine
 10
-35.48079842052039
 20
-100.4480408711566
 30
0.0
 11
-35.45364093878493
 21
-100.4985593053069
 31
0.0
  0
LINE
  5
B193
330
A
100
AcDbEntity
  8
0
  6
Continuous
 62
     7
370
     0
100
AcDbLine
 10
-35.45364093878493
 20
-100.4985593053069
 30
0.0
 11
-35.43070515113579
 21
-100.5364691321606
 31
0.0
  0
LINE
  5
B194
330
A
100
AcDbEntity
  8
0
  6
Continuous
 62
     7
370
     0
100
AcDbLine
 10
-35.43070515113579
 20
-100.5364691321606
 30
0.0
 11
-35.40576459495389
 21
-100.5738231342942
 31
0.0
  0
LINE
  5
B195
330
A
100
AcDbEntity
  8
0
  6
Continuous
 62
     7
370
     0
100
AcDbLine
 10
-35.40576459495389
 20
-100.5738231342942
 30
0.0
 11
-35.37961811697443
 21
-100.6094391084344
 31
0.0
  0
LINE
  5
B196
330
A
100
AcDbEntity
  8
0
  6
Continuous
 62
     7
370
     0
100
AcDbLine
 10
-35.37961811697443
 20
-100.6094391084344
 30
0.0
 11
-35.3515127031456
 21
-100.6443539934867
 31
0.0
  0
LINE
  5
B197
330
A
100
AcDbEntity
  8
0
  6
Continuous
 62
     7
370
     0
100
AcDbLine
 10
-35.3515127031456
 20
-100.6443539934867
 30
0.0
 11
-35.3233827318831
 21
-100.6763313617222
 31
0.0
  0
LINE
  5
B198
330
A
100
AcDbEntity
  8
0
  6
Continuous
 62
     7
370
     0
100
AcDbLine
 10
-35.3233827318831
 20
-100.6763313617222
 30
0.0
 11
-35.29347337231298
 21
-100.7075252880126
 31
0.0
  0
LINE
  5
B199
330
A
100
AcDbEntity
  8
0
  6
Continuous
 62
     7
370
     0
100
AcDbLine
 10
-35.29347337231298
 20
-100.7075252880126
 30
0.0
 11
-35.26421609535407
 21
-100.735586402356
 31
0.0
  0
LINE
  5
B19A
330
A
100
AcDbEntity
  8
0
  6
Continuous
 62
     7
370
     0
100
AcDbLine
 10
-35.26421609535407
 20
-100.735586402356
 30
0.0
 11
-35.23339483120049
 21
-100.7628211935856
 31
0.0
  0
LINE
  5
B19B
330
A
100
AcDbEntity
  8
0
  6
Continuous
 62
     7
370
     0
100
AcDbLine
 10
-35.23339483120049
 20
-100.7628211935856
 30
0.0
 11
-35.20218140851216
 21
-100.7882180447003
 31
0.0
  0
LINE
  5
B19C
330
A
100
AcDbEntity
  8
0
  6
Continuous
 62
     7
370
     0
100
AcDbLine
 10
-35.20218140851216
 20
-100.7882180447003
 30
0.0
 11
-35.16703757978291
 21
-100.8144368268627
 31
0.0
  0
LINE
  5
B19D
330
A
100
AcDbEntity
  8
0
  6
Continuous
 62
     7
370
     0
100
AcDbLine
 10
-35.16703757978291
 20
-100.8144368268627
 30
0.0
 11
-35.13000811350043
 21
-100.8395881304037
 31
0.0
  0
LINE
  5
B19E
330
A
100
AcDbEntity
  8
0
  6
Continuous
 62
     7
370
     0
100
AcDbLine
 10
-35.13000811350043
 20
-100.8395881304037
 30
0.0
 11
-35.09125778832714
 21
-100.8634277935776
 31
0.0
  0
LINE
  5
B19F
330
A
100
AcDbEntity
  8
0
  6
Continuous
 62
     7
370
     0
100
AcDbLine
 10
-35.09125778832714
 20
-100.8634277935776
 30
0.0
 11
-35.0642835843924
 21
-100.8786320837589
 31
0.0
  0
LINE
  5
B1A0
330
A
100
AcDbEntity
  8
0
  6
Continuous
 62
     7
370
     0
100
AcDbLine
 10
-35.0642835843924
 20
-100.8786320837589
 30
0.0
 11
-35.03654091576237
 21
-100.8931510750193
 31
0.0
  0
LINE
  5
B1A1
330
A
100
AcDbEntity
  8
0
  6
Continuous
 62
     7
370
     0
100
AcDbLine
 10
-35.03654091576237
 20
-100.8931510750193
 30
0.0
 11
-35.00806099584372
 21
-100.9069326472627
 31
0.0
  0
LINE
  5
B1A2
330
A
100
AcDbEntity
  8
0
  6
Continuous
 62
     7
370
     0
100
AcDbLine
 10
-35.00806099584372
 20
-100.9069326472627
 30
0.0
 11
-34.98610149630759
 21
-100.9168132234508
 31
0.0
  0
LINE
  5
B1A3
330
A
100
AcDbEntity
  8
0
  6
Continuous
 62
     7
370
     0
100
AcDbLine
 10
-34.98610149630759
 20
-100.9168132234508
 30
0.0
 11
-34.9637359548874
 21
-100.9262333606057
 31
0.0
  0
LINE
  5
B1A4
330
A
100
AcDbEntity
  8
0
  6
Continuous
 62
     7
370
     0
100
AcDbLine
 10
-34.9637359548874
 20
-100.9262333606057
 30
0.0
 11
-34.93554336507066
 21
-100.9372126077089
 31
0.0
  0
LINE
  5
B1A5
330
A
100
AcDbEntity
  8
0
  6
Continuous
 62
     7
370
     0
100
AcDbLine
 10
-34.93554336507066
 20
-100.9372126077089
 30
0.0
 11
-34.90677115619218
 21
-100.9474223351481
 31
0.0
  0
LINE
  5
B1A6
330
A
100
AcDbEntity
  8
0
  6
Continuous
 62
     7
370
     0
100
AcDbLine
 10
-34.90677115619218
 20
-100.9474223351481
 30
0.0
 11
-34.87726688398164
 21
-100.9568803443104
 31
0.0
  0
LINE
  5
B1A7
330
A
100
AcDbEntity
  8
0
  6
Continuous
 62
     7
370
     0
100
AcDbLine
 10
-34.87726688398164
 20
-100.9568803443104
 30
0.0
 11
-34.84723866164865
 21
-100.9654864422937
 31
0.0
  0
LINE
  5
B1A8
330
A
100
AcDbEntity
  8
0
  6
Continuous
 62
     7
370
     0
100
AcDbLine
 10
-34.84723866164865
 20
-100.9654864422937
 30
0.0
 11
-34.81648788502537
 21
-100.973260568914
 31
0.0
  0
LINE
  5
B1A9
330
A
100
AcDbEntity
  8
0
  6
Continuous
 62
     7
370
     0
100
AcDbLine
 10
-34.81648788502537
 20
-100.973260568914
 30
0.0
 11
-34.78528923510993
 21
-100.9801000999479
 31
0.0
  0
LINE
  5
B1AA
330
A
100
AcDbEntity
  8
0
  6
Continuous
 62
     7
370
     0
100
AcDbLine
 10
-34.78528923510993
 20
-100.9801000999479
 30
0.0
 11
-34.75347538643217
 21
-100.9860089739999
 31
0.0
  0
LINE
  5
B1AB
330
A
100
AcDbEntity
  8
0
  6
Continuous
 62
     7
370
     0
100
AcDbLine
 10
-34.75347538643217
 20
-100.9860089739999
 30
0.0
 11
-34.72131382979109
 21
-100.99090972696
 31
0.0
  0
LINE
  5
B1AC
330
A
100
AcDbEntity
  8
0
  6
Continuous
 62
     7
370
     0
100
AcDbLine
 10
-34.72131382979109
 20
-100.99090972696
 30
0.0
 11
-34.6880353425866
 21
-100.9948605578799
 31
0.0
  0
LINE
  5
B1AD
330
A
100
AcDbEntity
  8
0
  6
Continuous
 62
     7
370
     0
100
AcDbLine
 10
-34.6880353425866
 20
-100.9948605578799
 30
0.0
 11
-34.65452392198529
 21
-100.9977031047786
 31
0.0
  0
LINE
  5
B1AE
330
A
100
AcDbEntity
  8
0
  6
Continuous
 62
     7
370
     0
100
AcDbLine
 10
-34.65452392198529
 20
-100.9977031047786
 30
0.0
 11
-34.6206973316161
 21
-100.9994243313266
 31
0.0
  0
LINE
  5
B1AF
330
A
100
AcDbEntity
  8
0
  6
Continuous
 62
     7
370
     0
100
AcDbLine
 10
-34.6206973316161
 20
-100.9994243313266
 30
0.0
 11
-34.58678534580168
 21
-100.9999999999945
 31
0.0
  0
LINE
  5
B1B0
330
A
100
AcDbEntity
  8
0
  6
Continuous
 62
     7
370
     0
100
AcDbLine
 10
-34.58678534580162
 20
56.00000000000594
 30
0.0
 11
-34.61987644054273
 21
55.99945189366266
 31
0.0
  0
LINE
  5
B1B1
330
A
100
AcDbEntity
  8
0
  6
Continuous
 62
     7
370
     0
100
AcDbLine
 10
-34.61987644054273
 20
55.99945189366266
 30
0.0
 11
-34.65288799558158
 21
55.99781282799117
 31
0.0
  0
LINE
  5
B1B2
330
A
100
AcDbEntity
  8
0
  6
Continuous
 62
     7
370
     0
100
AcDbLine
 10
-34.65288799558158
 20
55.99781282799117
 30
0.0
 11
-34.68601674588155
 21
55.99506394784819
 31
0.0
  0
LINE
  5
B1B3
330
A
100
AcDbEntity
  8
0
  6
Continuous
 62
     7
370
     0
100
AcDbLine
 10
-34.68601674588155
 20
55.99506394784819
 30
0.0
 11
-34.71892218805266
 21
55.99123148402973
 31
0.0
  0
LINE
  5
B1B4
330
A
100
AcDbEntity
  8
0
  6
Continuous
 62
     7
370
     0
100
AcDbLine
 10
-34.71892218805266
 20
55.99123148402973
 30
0.0
 11
-34.75185000537317
 21
55.9862823385873
 31
0.0
  0
LINE
  5
B1B5
330
A
100
AcDbEntity
  8
0
  6
Continuous
 62
     7
370
     0
100
AcDbLine
 10
-34.75185000537317
 20
55.9862823385873
 30
0.0
 11
-34.78441693124074
 21
55.9802763673824
 31
0.0
  0
LINE
  5
B1B6
330
A
100
AcDbEntity
  8
0
  6
Continuous
 62
     7
370
     0
100
AcDbLine
 10
-34.78441693124074
 20
55.9802763673824
 30
0.0
 11
-34.81681356505391
 21
55.97318359621849
 31
0.0
  0
LINE
  5
B1B7
330
A
100
AcDbEntity
  8
0
  6
Continuous
 62
     7
370
     0
100
AcDbLine
 10
-34.81681356505391
 20
55.97318359621849
 30
0.0
 11
-34.84872692341316
 21
55.9650837320822
 31
0.0
  0
LINE
  5
B1B8
330
A
100
AcDbEntity
  8
0
  6
Continuous
 62
     7
370
     0
100
AcDbLine
 10
-34.84872692341316
 20
55.9650837320822
 30
0.0
 11
-34.86912932227995
 21
55.95931317816658
 31
0.0
  0
LINE
  5
B1B9
330
A
100
AcDbEntity
  8
0
  6
Continuous
 62
     7
370
     0
100
AcDbLine
 10
-34.86912932227995
 20
55.95931317816658
 30
0.0
 11
-34.88929515982369
 21
55.95314627021858
 31
0.0
  0
LINE
  5
B1BA
330
A
100
AcDbEntity
  8
0
  6
Continuous
 62
     7
370
     0
100
AcDbLine
 10
-34.88929515982369
 20
55.95314627021858
 30
0.0
 11
-34.91594172727776
 21
55.94427485702917
 31
0.0
  0
LINE
  5
B1BB
330
A
100
AcDbEntity
  8
0
  6
Continuous
 62
     7
370
     0
100
AcDbLine
 10
-34.91594172727776
 20
55.94427485702917
 30
0.0
 11
-34.9421274511023
 21
55.93473574580738
 31
0.0
  0
LINE
  5
B1BC
330
A
100
AcDbEntity
  8
0
  6
Continuous
 62
     7
370
     0
100
AcDbLine
 10
-34.9421274511023
 20
55.93473574580738
 30
0.0
 11
-34.96781518488507
 21
55.92456274083431
 31
0.0
  0
LINE
  5
B1BD
330
A
100
AcDbEntity
  8
0
  6
Continuous
 62
     7
370
     0
100
AcDbLine
 10
-34.96781518488507
 20
55.92456274083431
 30
0.0
 11
-35.00565379975217
 21
55.90804639401742
 31
0.0
  0
LINE
  5
B1BE
330
A
100
AcDbEntity
  8
0
  6
Continuous
 62
     7
370
     0
100
AcDbLine
 10
-35.00565379975217
 20
55.90804639401742
 30
0.0
 11
-35.04228523271598
 21
55.89023584124195
 31
0.0
  0
LINE
  5
B1BF
330
A
100
AcDbEntity
  8
0
  6
Continuous
 62
     7
370
     0
100
AcDbLine
 10
-35.04228523271598
 20
55.89023584124195
 30
0.0
 11
-35.07781199640329
 21
55.87114455081181
 31
0.0
  0
LINE
  5
B1C0
330
A
100
AcDbEntity
  8
0
  6
Continuous
 62
     7
370
     0
100
AcDbLine
 10
-35.07781199640329
 20
55.87114455081181
 30
0.0
 11
-35.11345538275367
 21
55.85006945265937
 31
0.0
  0
LINE
  5
B1C1
330
A
100
AcDbEntity
  8
0
  6
Continuous
 62
     7
370
     0
100
AcDbLine
 10
-35.11345538275367
 20
55.85006945265937
 30
0.0
 11
-35.14769526846442
 21
55.8278768378619
 31
0.0
  0
LINE
  5
B1C2
330
A
100
AcDbEntity
  8
0
  6
Continuous
 62
     7
370
     0
100
AcDbLine
 10
-35.14769526846442
 20
55.8278768378619
 30
0.0
 11
-35.18074638863095
 21
55.8044935721114
 31
0.0
  0
LINE
  5
B1C3
330
A
100
AcDbEntity
  8
0
  6
Continuous
 62
     7
370
     0
100
AcDbLine
 10
-35.18074638863095
 20
55.8044935721114
 30
0.0
 11
-35.21236732504394
 21
55.78015843727829
 31
0.0
  0
LINE
  5
B1C4
330
A
100
AcDbEntity
  8
0
  6
Continuous
 62
     7
370
     0
100
AcDbLine
 10
-35.21236732504394
 20
55.78015843727829
 30
0.0
 11
-35.24278962084299
 21
55.7547570240986
 31
0.0
  0
LINE
  5
B1C5
330
A
100
AcDbEntity
  8
0
  6
Continuous
 62
     7
370
     0
100
AcDbLine
 10
-35.24278962084299
 20
55.7547570240986
 30
0.0
 11
-35.27177780566763
 21
55.72855015608772
 31
0.0
  0
LINE
  5
B1C6
330
A
100
AcDbEntity
  8
0
  6
Continuous
 62
     7
370
     0
100
AcDbLine
 10
-35.27177780566763
 20
55.72855015608772
 30
0.0
 11
-35.29950500749129
 21
55.70144889103969
 31
0.0
  0
LINE
  5
B1C7
330
A
100
AcDbEntity
  8
0
  6
Continuous
 62
     7
370
     0
100
AcDbLine
 10
-35.29950500749129
 20
55.70144889103969
 30
0.0
 11
-35.32581417980066
 21
55.67367379533866
 31
0.0
  0
LINE
  5
B1C8
330
A
100
AcDbEntity
  8
0
  6
Continuous
 62
     7
370
     0
100
AcDbLine
 10
-35.32581417980066
 20
55.67367379533866
 30
0.0
 11
-35.35931252815146
 21
55.63498146059012
 31
0.0
  0
LINE
  5
B1C9
330
A
100
AcDbEntity
  8
0
  6
Continuous
 62
     7
370
     0
100
AcDbLine
 10
-35.35931252815146
 20
55.63498146059012
 30
0.0
 11
-35.3902829114449
 21
55.59530803959998
 31
0.0
  0
LINE
  5
B1CA
330
A
100
AcDbEntity
  8
0
  6
Continuous
 62
     7
370
     0
100
AcDbLine
 10
-35.3902829114449
 20
55.59530803959998
 30
0.0
 11
-35.41896425353957
 21
55.55450694566352
 31
0.0
  0
LINE
  5
B1CB
330
A
100
AcDbEntity
  8
0
  6
Continuous
 62
     7
370
     0
100
AcDbLine
 10
-35.41896425353957
 20
55.55450694566352
 30
0.0
 11
-35.44518815572355
 21
55.51297623329358
 31
0.0
  0
LINE
  5
B1CC
330
A
100
AcDbEntity
  8
0
  6
Continuous
 62
     7
370
     0
100
AcDbLine
 10
-35.44518815572355
 20
55.51297623329358
 30
0.0
 11
-35.46917657936507
 21
55.47051579479571
 31
0.0
  0
LINE
  5
B1CD
330
A
100
AcDbEntity
  8
0
  6
Continuous
 62
     7
370
     0
100
AcDbLine
 10
-35.46917657936507
 20
55.47051579479571
 30
0.0
 11
-35.49076856055587
 21
55.42756794483139
 31
0.0
  0
LINE
  5
B1CE
330
A
100
AcDbEntity
  8
0
  6
Continuous
 62
     7
370
     0
100
AcDbLine
 10
-35.49076856055587
 20
55.42756794483139
 30
0.0
 11
-35.51011553813811
 21
55.38400498048227
 31
0.0
  0
LINE
  5
B1CF
330
A
100
AcDbEntity
  8
0
  6
Continuous
 62
     7
370
     0
100
AcDbLine
 10
-35.51011553813811
 20
55.38400498048227
 30
0.0
 11
-35.52712054713544
 21
55.34024948072906
 31
0.0
  0
LINE
  5
B1D0
330
A
100
AcDbEntity
  8
0
  6
Continuous
 62
     7
370
     0
100
AcDbLine
 10
-35.52712054713544
 20
55.34024948072906
 30
0.0
 11
-35.54054434102574
 21
55.30057241894858
 31
0.0
  0
LINE
  5
B1D1
330
A
100
AcDbEntity
  8
0
  6
Continuous
 62
     7
370
     0
100
AcDbLine
 10
-35.54054434102574
 20
55.30057241894858
 30
0.0
 11
-35.55210626929028
 21
55.26105466977819
 31
0.0
  0
LINE
  5
B1D2
330
A
100
AcDbEntity
  8
0
  6
Continuous
 62
     7
370
     0
100
AcDbLine
 10
-35.55210626929028
 20
55.26105466977819
 30
0.0
 11
-35.5617915393064
 21
55.22217768256499
 31
0.0
  0
LINE
  5
B1D3
330
A
100
AcDbEntity
  8
0
  6
Continuous
 62
     7
370
     0
100
AcDbLine
 10
-35.5617915393064
 20
55.22217768256499
 30
0.0
 11
-35.56606286013761
 21
55.20251971506579
 31
0.0
  0
LINE
  5
B1D4
330
A
100
AcDbEntity
  8
0
  6
Continuous
 62
     7
370
     0
100
AcDbLine
 10
-35.56606286013761
 20
55.20251971506579
 30
0.0
 11
-35.56982619296463
 21
55.1833867301938
 31
0.0
  0
LINE
  5
B1D5
330
A
100
AcDbEntity
  8
0
  6
Continuous
 62
     7
370
     0
100
AcDbLine
 10
-35.56982619296463
 20
55.1833867301938
 30
0.0
 11
-35.57295407427108
 21
55.16573601325709
 31
0.0
  0
LINE
  5
B1D6
330
A
100
AcDbEntity
  8
0
  6
Continuous
 62
     7
370
     0
100
AcDbLine
 10
-35.57295407427108
 20
55.16573601325709
 30
0.0
 11
-35.5755846735396
 21
55.14925109536247
 31
0.0
  0
LINE
  5
B1D7
330
A
100
AcDbEntity
  8
0
  6
Continuous
 62
     7
370
     0
100
AcDbLine
 10
-35.5755846735396
 20
55.14925109536247
 30
0.0
 11
-35.57668167839768
 21
55.14179197306109
 31
0.0
  0
LINE
  5
B1D8
330
A
100
AcDbEntity
  8
0
  6
Continuous
 62
     7
370
     0
100
AcDbLine
 10
-35.57668167839768
 20
55.14179197306109
 30
0.0
 11
-35.57764431681932
 21
55.13490181450001
 31
0.0
  0
LINE
  5
B1D9
330
A
100
AcDbEntity
  8
0
  6
Continuous
 62
     7
370
     0
100
AcDbLine
 10
-35.57764431681932
 20
55.13490181450001
 30
0.0
 11
-35.57802677191268
 21
55.1320621951206
 31
0.0
  0
LINE
  5
B1DA
330
A
100
AcDbEntity
  8
0
  6
Continuous
 62
     7
370
     0
100
AcDbLine
 10
-35.57802677191268
 20
55.1320621951206
 30
0.0
 11
-35.57837974731598
 21
55.12938524988166
 31
0.0
  0
LINE
  5
B1DB
330
A
100
AcDbEntity
  8
0
  6
Continuous
 62
     7
370
     0
100
AcDbLine
 10
-35.57837974731598
 20
55.12938524988166
 30
0.0
 11
-35.57879880931927
 21
55.12613173354989
 31
0.0
  0
LINE
  5
B1DC
330
A
100
AcDbEntity
  8
0
  6
Continuous
 62
     7
370
     0
100
AcDbLine
 10
-35.57879880931927
 20
55.12613173354989
 30
0.0
 11
-35.57916133661559
 21
55.12324704769762
 31
0.0
  0
LINE
  5
B1DD
330
A
100
AcDbEntity
  8
0
  6
Continuous
 62
     7
370
     0
100
AcDbLine
 10
-35.57916133661559
 20
55.12324704769762
 30
0.0
 11
-35.5794633712934
 21
55.12079047026791
 31
0.0
  0
LINE
  5
B1DE
330
A
100
AcDbEntity
  8
0
  6
Continuous
 62
     7
370
     0
100
AcDbLine
 10
-35.5794633712934
 20
55.12079047026791
 30
0.0
 11
-35.57964722925329
 21
55.11926982463595
 31
0.0
  0
LINE
  5
B1DF
330
A
100
AcDbEntity
  8
0
  6
Continuous
 62
     7
370
     0
100
AcDbLine
 10
-35.57964722925329
 20
55.11926982463595
 30
0.0
 11
-35.57979399854332
 21
55.11804158412016
 31
0.0
  0
LINE
  5
B1E0
330
A
100
AcDbEntity
  8
0
  6
Continuous
 62
     7
370
     0
100
AcDbLine
 10
-35.57979399854332
 20
55.11804158412016
 30
0.0
 11
-35.57988334130607
 21
55.11728759689342
 31
0.0
  0
LINE
  5
B1E1
330
A
100
AcDbEntity
  8
0
  6
Continuous
 62
     7
370
     0
100
AcDbLine
 10
-35.57988334130607
 20
55.11728759689342
 30
0.0
 11
-35.57994773712113
 21
55.11674101451697
 31
0.0
  0
LINE
  5
B1E2
330
A
100
AcDbEntity
  8
0
  6
Continuous
 62
     7
370
     0
100
AcDbLine
 10
-35.57994773712113
 20
55.11674101451697
 30
0.0
 11
-35.5799868851376
 21
55.1164075361485
 31
0.0
  0
LINE
  5
B1E3
330
A
100
AcDbEntity
  8
0
  6
Continuous
 62
     7
370
     0
100
AcDbLine
 10
-35.5799868851376
 20
55.1164075361485
 30
0.0
 11
-35.57999998372765
 21
55.11629567064457
 31
0.0
  0
LINE
  5
B1E4
330
A
100
AcDbEntity
  8
0
  6
Continuous
 62
     7
370
     0
100
AcDbLine
 10
-35.57999998372765
 20
74.88370432936719
 30
0.0
 11
-35.57998156970041
 21
74.88354637695144
 31
0.0
  0
LINE
  5
B1E5
330
A
100
AcDbEntity
  8
0
  6
Continuous
 62
     7
370
     0
100
AcDbLine
 10
-35.57998156970041
 20
74.88354637695144
 30
0.0
 11
-35.57992685405191
 21
74.88308009056808
 31
0.0
  0
LINE
  5
B1E6
330
A
100
AcDbEntity
  8
0
  6
Continuous
 62
     7
370
     0
100
AcDbLine
 10
-35.57992685405191
 20
74.88308009056808
 30
0.0
 11
-35.57983662643323
 21
74.88231682651352
 31
0.0
  0
LINE
  5
B1E7
330
A
100
AcDbEntity
  8
0
  6
Continuous
 62
     7
370
     0
100
AcDbLine
 10
-35.57983662643323
 20
74.88231682651352
 30
0.0
 11
-35.57971167649498
 21
74.88126794108402
 31
0.0
  0
LINE
  5
B1E8
330
A
100
AcDbEntity
  8
0
  6
Continuous
 62
     7
370
     0
100
AcDbLine
 10
-35.57971167649498
 20
74.88126794108402
 30
0.0
 11
-35.57954627909499
 21
74.87989275711632
 31
0.0
  0
LINE
  5
B1E9
330
A
100
AcDbEntity
  8
0
  6
Continuous
 62
     7
370
     0
100
AcDbLine
 10
-35.57954627909499
 20
74.87989275711632
 30
0.0
 11
-35.57934582453885
 21
74.87824731515766
 31
0.0
  0
LINE
  5
B1EA
330
A
100
AcDbEntity
  8
0
  6
Continuous
 62
     7
370
     0
100
AcDbLine
 10
-35.57934582453885
 20
74.87824731515766
 30
0.0
 11
-35.57911194071073
 21
74.87635562446033
 31
0.0
  0
LINE
  5
B1EB
330
A
100
AcDbEntity
  8
0
  6
Continuous
 62
     7
370
     0
100
AcDbLine
 10
-35.57911194071073
 20
74.87635562446033
 30
0.0
 11
-35.5788462554944
 21
74.87424169427649
 31
0.0
  0
LINE
  5
B1EC
330
A
100
AcDbEntity
  8
0
  6
Continuous
 62
     7
370
     0
100
AcDbLine
 10
-35.5788462554944
 20
74.87424169427649
 30
0.0
 11
-35.57825928696565
 21
74.86969681955869
 31
0.0
  0
LINE
  5
B1ED
330
A
100
AcDbEntity
  8
0
  6
Continuous
 62
     7
370
     0
100
AcDbLine
 10
-35.57825928696565
 20
74.86969681955869
 30
0.0
 11
-35.57756982509307
 21
74.86455419244006
 31
0.0
  0
LINE
  5
B1EE
330
A
100
AcDbEntity
  8
0
  6
Continuous
 62
     7
370
     0
100
AcDbLine
 10
-35.57756982509307
 20
74.86455419244006
 30
0.0
 11
-35.57678556813369
 21
74.85893420052687
 31
0.0
  0
LINE
  5
B1EF
330
A
100
AcDbEntity
  8
0
  6
Continuous
 62
     7
370
     0
100
AcDbLine
 10
-35.57678556813369
 20
74.85893420052687
 30
0.0
 11
-35.57492063195696
 21
74.84643218866413
 31
0.0
  0
LINE
  5
B1F0
330
A
100
AcDbEntity
  8
0
  6
Continuous
 62
     7
370
     0
100
AcDbLine
 10
-35.57492063195696
 20
74.84643218866413
 30
0.0
 11
-35.57271071329689
 21
74.83283134928942
 31
0.0
  0
LINE
  5
B1F1
330
A
100
AcDbEntity
  8
0
  6
Continuous
 62
     7
370
     0
100
AcDbLine
 10
-35.57271071329689
 20
74.83283134928942
 30
0.0
 11
-35.57017601426025
 21
74.81849850362383
 31
0.0
  0
LINE
  5
B1F2
330
A
100
AcDbEntity
  8
0
  6
Continuous
 62
     7
370
     0
100
AcDbLine
 10
-35.57017601426025
 20
74.81849850362383
 30
0.0
 11
-35.56258171294411
 21
74.78134948579557
 31
0.0
  0
LINE
  5
B1F3
330
A
100
AcDbEntity
  8
0
  6
Continuous
 62
     7
370
     0
100
AcDbLine
 10
-35.56258171294411
 20
74.78134948579557
 30
0.0
 11
-35.55311684896145
 21
74.74269973572117
 31
0.0
  0
LINE
  5
B1F4
330
A
100
AcDbEntity
  8
0
  6
Continuous
 62
     7
370
     0
100
AcDbLine
 10
-35.55311684896145
 20
74.74269973572117
 30
0.0
 11
-35.54012860348649
 21
74.69811993100913
 31
0.0
  0
LINE
  5
B1F5
330
A
100
AcDbEntity
  8
0
  6
Continuous
 62
     7
370
     0
100
AcDbLine
 10
-35.54012860348649
 20
74.69811993100913
 30
0.0
 11
-35.52473431413273
 21
74.65322668383746
 31
0.0
  0
LINE
  5
B1F6
330
A
100
AcDbEntity
  8
0
  6
Continuous
 62
     7
370
     0
100
AcDbLine
 10
-35.52473431413273
 20
74.65322668383746
 30
0.0
 11
-35.50456577050369
 21
74.6029146644664
 31
0.0
  0
LINE
  5
B1F7
330
A
100
AcDbEntity
  8
0
  6
Continuous
 62
     7
370
     0
100
AcDbLine
 10
-35.50456577050369
 20
74.6029146644664
 30
0.0
 11
-35.48128145039442
 21
74.552924258248
 31
0.0
  0
LINE
  5
B1F8
330
A
100
AcDbEntity
  8
0
  6
Continuous
 62
     7
370
     0
100
AcDbLine
 10
-35.48128145039442
 20
74.552924258248
 30
0.0
 11
-35.4536409387851
 21
74.50144069469328
 31
0.0
  0
LINE
  5
B1F9
330
A
100
AcDbEntity
  8
0
  6
Continuous
 62
     7
370
     0
100
AcDbLine
 10
-35.4536409387851
 20
74.50144069469328
 30
0.0
 11
-35.43052264784888
 21
74.463243886002
 31
0.0
  0
LINE
  5
B1FA
330
A
100
AcDbEntity
  8
0
  6
Continuous
 62
     7
370
     0
100
AcDbLine
 10
-35.43052264784888
 20
74.463243886002
 30
0.0
 11
-35.40536861695455
 21
74.4256121274071
 31
0.0
  0
LINE
  5
B1FB
330
A
100
AcDbEntity
  8
0
  6
Continuous
 62
     7
370
     0
100
AcDbLine
 10
-35.40536861695455
 20
74.4256121274071
 30
0.0
 11
-35.3789124741005
 21
74.38964400948012
 31
0.0
  0
LINE
  5
B1FC
330
A
100
AcDbEntity
  8
0
  6
Continuous
 62
     7
370
     0
100
AcDbLine
 10
-35.3789124741005
 20
74.38964400948012
 30
0.0
 11
-35.35045596397907
 21
74.35439393828383
 31
0.0
  0
LINE
  5
B1FD
330
A
100
AcDbEntity
  8
0
  6
Continuous
 62
     7
370
     0
100
AcDbLine
 10
-35.35045596397907
 20
74.35439393828383
 30
0.0
 11
-35.32212527739392
 21
74.3223016896977
 31
0.0
  0
LINE
  5
B1FE
330
A
100
AcDbEntity
  8
0
  6
Continuous
 62
     7
370
     0
100
AcDbLine
 10
-35.32212527739392
 20
74.3223016896977
 30
0.0
 11
-35.29199773404213
 21
74.2910038875539
 31
0.0
  0
LINE
  5
B1FF
330
A
100
AcDbEntity
  8
0
  6
Continuous
 62
     7
370
     0
100
AcDbLine
 10
-35.29199773404213
 20
74.2910038875539
 30
0.0
 11
-35.26307001528465
 21
74.26335976803565
 31
0.0
  0
LINE
  5
B200
330
A
100
AcDbEntity
  8
0
  6
Continuous
 62
     7
370
     0
100
AcDbLine
 10
-35.26307001528465
 20
74.26335976803565
 30
0.0
 11
-35.23261992441786
 21
74.2365226283284
 31
0.0
  0
LINE
  5
B201
330
A
100
AcDbEntity
  8
0
  6
Continuous
 62
     7
370
     0
100
AcDbLine
 10
-35.23261992441786
 20
74.2365226283284
 30
0.0
 11
-35.20218140851239
 21
74.21178195529998
 31
0.0
  0
LINE
  5
B202
330
A
100
AcDbEntity
  8
0
  6
Continuous
 62
     7
370
     0
100
AcDbLine
 10
-35.20218140851239
 20
74.21178195529998
 30
0.0
 11
-35.16708474543242
 21
74.1855967787524
 31
0.0
  0
LINE
  5
B203
330
A
100
AcDbEntity
  8
0
  6
Continuous
 62
     7
370
     0
100
AcDbLine
 10
-35.16708474543242
 20
74.1855967787524
 30
0.0
 11
-35.13005476116445
 21
74.16044205296751
 31
0.0
  0
LINE
  5
B204
330
A
100
AcDbEntity
  8
0
  6
Continuous
 62
     7
370
     0
100
AcDbLine
 10
-35.13005476116445
 20
74.16044205296751
 30
0.0
 11
-35.09130365436761
 21
74.13659900607448
 31
0.0
  0
LINE
  5
B205
330
A
100
AcDbEntity
  8
0
  6
Continuous
 62
     7
370
     0
100
AcDbLine
 10
-35.09130365436761
 20
74.13659900607448
 30
0.0
 11
-35.06431291285668
 21
74.12138385717176
 31
0.0
  0
LINE
  5
B206
330
A
100
AcDbEntity
  8
0
  6
Continuous
 62
     7
370
     0
100
AcDbLine
 10
-35.06431291285668
 20
74.12138385717176
 30
0.0
 11
-35.03655268756245
 21
74.10685485440379
 31
0.0
  0
LINE
  5
B207
330
A
100
AcDbEntity
  8
0
  6
Continuous
 62
     7
370
     0
100
AcDbLine
 10
-35.03655268756245
 20
74.10685485440379
 30
0.0
 11
-35.00805424896339
 21
74.0930642188014
 31
0.0
  0
LINE
  5
B208
330
A
100
AcDbEntity
  8
0
  6
Continuous
 62
     7
370
     0
100
AcDbLine
 10
-35.00805424896339
 20
74.0930642188014
 30
0.0
 11
-34.98609805918869
 21
74.0831852794856
 31
0.0
  0
LINE
  5
B209
330
A
100
AcDbEntity
  8
0
  6
Continuous
 62
     7
370
     0
100
AcDbLine
 10
-34.98609805918869
 20
74.0831852794856
 30
0.0
 11
-34.96373595488762
 21
74.07376663939439
 31
0.0
  0
LINE
  5
B20A
330
A
100
AcDbEntity
  8
0
  6
Continuous
 62
     7
370
     0
100
AcDbLine
 10
-34.96373595488762
 20
74.07376663939439
 30
0.0
 11
-34.93556818556829
 21
74.06279662822166
 31
0.0
  0
LINE
  5
B20B
330
A
100
AcDbEntity
  8
0
  6
Continuous
 62
     7
370
     0
100
AcDbLine
 10
-34.93556818556829
 20
74.06279662822166
 30
0.0
 11
-34.90682178237029
 21
74.05259476502542
 31
0.0
  0
LINE
  5
B20C
330
A
100
AcDbEntity
  8
0
  6
Continuous
 62
     7
370
     0
100
AcDbLine
 10
-34.90682178237029
 20
74.05259476502542
 30
0.0
 11
-34.87732945692977
 21
74.043138652853
 31
0.0
  0
LINE
  5
B20D
330
A
100
AcDbEntity
  8
0
  6
Continuous
 62
     7
370
     0
100
AcDbLine
 10
-34.87732945692977
 20
74.043138652853
 30
0.0
 11
-34.84731349182045
 21
74.03453374729068
 31
0.0
  0
LINE
  5
B20E
330
A
100
AcDbEntity
  8
0
  6
Continuous
 62
     7
370
     0
100
AcDbLine
 10
-34.84731349182045
 20
74.03453374729068
 30
0.0
 11
-34.81655299092591
 21
74.02675479962969
 31
0.0
  0
LINE
  5
B20F
330
A
100
AcDbEntity
  8
0
  6
Continuous
 62
     7
370
     0
100
AcDbLine
 10
-34.81655299092591
 20
74.02675479962969
 30
0.0
 11
-34.7853442032698
 21
74.01991103459469
 31
0.0
  0
LINE
  5
B210
330
A
100
AcDbEntity
  8
0
  6
Continuous
 62
     7
370
     0
100
AcDbLine
 10
-34.7853442032698
 20
74.01991103459469
 30
0.0
 11
-34.75350319740414
 21
74.01399572926758
 31
0.0
  0
LINE
  5
B211
330
A
100
AcDbEntity
  8
0
  6
Continuous
 62
     7
370
     0
100
AcDbLine
 10
-34.75350319740414
 20
74.01399572926758
 30
0.0
 11
-34.72131382979143
 21
74.00909027304007
 31
0.0
  0
LINE
  5
B212
330
A
100
AcDbEntity
  8
0
  6
Continuous
 62
     7
370
     0
100
AcDbLine
 10
-34.72131382979143
 20
74.00909027304007
 30
0.0
 11
-34.68803651729593
 21
74.0051395616097
 31
0.0
  0
LINE
  5
B213
330
A
100
AcDbEntity
  8
0
  6
Continuous
 62
     7
370
     0
100
AcDbLine
 10
-34.68803651729593
 20
74.0051395616097
 30
0.0
 11
-34.65452628523514
 21
74.002297055676
 31
0.0
  0
LINE
  5
B214
330
A
100
AcDbEntity
  8
0
  6
Continuous
 62
     7
370
     0
100
AcDbLine
 10
-34.65452628523514
 20
74.002297055676
 30
0.0
 11
-34.62069851757116
 21
74.00057570898397
 31
0.0
  0
LINE
  5
B215
330
A
100
AcDbEntity
  8
0
  6
Continuous
 62
     7
370
     0
100
AcDbLine
 10
-34.62069851757116
 20
74.00057570898397
 30
0.0
 11
-34.58678534580168
 21
74.00000000000559
 31
0.0
  0
LINE
  5
B216
330
A
100
AcDbEntity
  8
0
  6
Continuous
 62
     7
370
     0
100
AcDbLine
 10
-34.58678534580162
 20
-8.749976979178114
 30
0.0
 11
-34.61983953882469
 21
-8.749205645338918
 31
0.0
  0
LINE
  5
B217
330
A
100
AcDbEntity
  8
0
  6
Continuous
 62
     7
370
     0
100
AcDbLine
 10
-34.61983953882469
 20
-8.749205645338918
 30
0.0
 11
-34.65281444893179
 21
-8.747345503665485
 31
0.0
  0
LINE
  5
B218
330
A
100
AcDbEntity
  8
0
  6
Continuous
 62
     7
370
     0
100
AcDbLine
 10
-34.65281444893179
 20
-8.747345503665485
 30
0.0
 11
-34.68592813082756
 21
-8.744373349935415
 31
0.0
  0
LINE
  5
B219
330
A
100
AcDbEntity
  8
0
  6
Continuous
 62
     7
370
     0
100
AcDbLine
 10
-34.68592813082756
 20
-8.744373349935415
 30
0.0
 11
-34.7188188980486
 21
-8.740317781851416
 31
0.0
  0
LINE
  5
B21A
330
A
100
AcDbEntity
  8
0
  6
Continuous
 62
     7
370
     0
100
AcDbLine
 10
-34.7188188980486
 20
-8.740317781851416
 30
0.0
 11
-34.75176250052266
 21
-8.735137973924196
 31
0.0
  0
LINE
  5
B21B
330
A
100
AcDbEntity
  8
0
  6
Continuous
 62
     7
370
     0
100
AcDbLine
 10
-34.75176250052266
 20
-8.735137973924196
 30
0.0
 11
-34.78434505426719
 21
-8.728898918259915
 31
0.0
  0
LINE
  5
B21C
330
A
100
AcDbEntity
  8
0
  6
Continuous
 62
     7
370
     0
100
AcDbLine
 10
-34.78434505426719
 20
-8.728898918259915
 30
0.0
 11
-34.81677812880844
 21
-8.721563378423184
 31
0.0
  0
LINE
  5
B21D
330
A
100
AcDbEntity
  8
0
  6
Continuous
 62
     7
370
     0
100
AcDbLine
 10
-34.81677812880844
 20
-8.721563378423184
 30
0.0
 11
-34.84872692341316
 21
-8.713216399315825
 31
0.0
  0
LINE
  5
B21E
330
A
100
AcDbEntity
  8
0
  6
Continuous
 62
     7
370
     0
100
AcDbLine
 10
-34.84872692341316
 20
-8.713216399315825
 30
0.0
 11
-34.86910222970357
 21
-8.707298170072903
 31
0.0
  0
LINE
  5
B21F
330
A
100
AcDbEntity
  8
0
  6
Continuous
 62
     7
370
     0
100
AcDbLine
 10
-34.86910222970357
 20
-8.707298170072903
 30
0.0
 11
-34.88924162120333
 21
-8.700983496005505
 31
0.0
  0
LINE
  5
B220
330
A
100
AcDbEntity
  8
0
  6
Continuous
 62
     7
370
     0
100
AcDbLine
 10
-34.88924162120333
 20
-8.700983496005505
 30
0.0
 11
-34.91589067931562
 21
-8.691900400930308
 31
0.0
  0
LINE
  5
B221
330
A
100
AcDbEntity
  8
0
  6
Continuous
 62
     7
370
     0
100
AcDbLine
 10
-34.91589067931562
 20
-8.691900400930308
 30
0.0
 11
-34.94207888383977
 21
-8.682146872530893
 31
0.0
  0
LINE
  5
B222
330
A
100
AcDbEntity
  8
0
  6
Continuous
 62
     7
370
     0
100
AcDbLine
 10
-34.94207888383977
 20
-8.682146872530893
 30
0.0
 11
-34.96776907364114
 21
-8.671756547538592
 31
0.0
  0
LINE
  5
B223
330
A
100
AcDbEntity
  8
0
  6
Continuous
 62
     7
370
     0
100
AcDbLine
 10
-34.96776907364114
 20
-8.671756547538592
 30
0.0
 11
-35.0056338915814
 21
-8.65489491480082
 31
0.0
  0
LINE
  5
B224
330
A
100
AcDbEntity
  8
0
  6
Continuous
 62
     7
370
     0
100
AcDbLine
 10
-35.0056338915814
 20
-8.65489491480082
 30
0.0
 11
-35.04228994688413
 21
-8.636728814230423
 31
0.0
  0
LINE
  5
B225
330
A
100
AcDbEntity
  8
0
  6
Continuous
 62
     7
370
     0
100
AcDbLine
 10
-35.04228994688413
 20
-8.636728814230423
 30
0.0
 11
-35.07781199640329
 21
-8.617284958970913
 31
0.0
  0
LINE
  5
B226
330
A
100
AcDbEntity
  8
0
  6
Continuous
 62
     7
370
     0
100
AcDbLine
 10
-35.07781199640329
 20
-8.617284958970913
 30
0.0
 11
-35.11342367429006
 21
-8.59584784442768
 31
0.0
  0
LINE
  5
B227
330
A
100
AcDbEntity
  8
0
  6
Continuous
 62
     7
370
     0
100
AcDbLine
 10
-35.11342367429006
 20
-8.59584784442768
 30
0.0
 11
-35.14763440453709
 21
-8.573280732394891
 31
0.0
  0
LINE
  5
B228
330
A
100
AcDbEntity
  8
0
  6
Continuous
 62
     7
370
     0
100
AcDbLine
 10
-35.14763440453709
 20
-8.573280732394891
 30
0.0
 11
-35.18067596663991
 21
-8.549492342558522
 31
0.0
  0
LINE
  5
B229
330
A
100
AcDbEntity
  8
0
  6
Continuous
 62
     7
370
     0
100
AcDbLine
 10
-35.18067596663991
 20
-8.549492342558522
 30
0.0
 11
-35.21228840949055
 21
-8.524733080915893
 31
0.0
  0
LINE
  5
B22A
330
A
100
AcDbEntity
  8
0
  6
Continuous
 62
     7
370
     0
100
AcDbLine
 10
-35.21228840949055
 20
-8.524733080915893
 30
0.0
 11
-35.24272536404067
 21
-8.498862384285416
 31
0.0
  0
LINE
  5
B22B
330
A
100
AcDbEntity
  8
0
  6
Continuous
 62
     7
370
     0
100
AcDbLine
 10
-35.24272536404067
 20
-8.498862384285416
 30
0.0
 11
-35.27172711616913
 21
-8.472158967445608
 31
0.0
  0
LINE
  5
B22C
330
A
100
AcDbEntity
  8
0
  6
Continuous
 62
     7
370
     0
100
AcDbLine
 10
-35.27172711616913
 20
-8.472158967445608
 30
0.0
 11
-35.29948093471342
 21
-8.444512108435077
 31
0.0
  0
LINE
  5
B22D
330
A
100
AcDbEntity
  8
0
  6
Continuous
 62
     7
370
     0
100
AcDbLine
 10
-35.29948093471342
 20
-8.444512108435077
 30
0.0
 11
-35.32581417980066
 21
-8.416154024946592
 31
0.0
  0
LINE
  5
B22E
330
A
100
AcDbEntity
  8
0
  6
Continuous
 62
     7
370
     0
100
AcDbLine
 10
-35.32581417980066
 20
-8.416154024946592
 30
0.0
 11
-35.35928345238165
 21
-8.3766715642071
 31
0.0
  0
LINE
  5
B22F
330
A
100
AcDbEntity
  8
0
  6
Continuous
 62
     7
370
     0
100
AcDbLine
 10
-35.35928345238165
 20
-8.3766715642071
 30
0.0
 11
-35.39022927083556
 21
-8.336113045689074
 31
0.0
  0
LINE
  5
B230
330
A
100
AcDbEntity
  8
0
  6
Continuous
 62
     7
370
     0
100
AcDbLine
 10
-35.39022927083556
 20
-8.336113045689074
 30
0.0
 11
-35.41890480261372
 21
-8.294278365058517
 31
0.0
  0
LINE
  5
B231
330
A
100
AcDbEntity
  8
0
  6
Continuous
 62
     7
370
     0
100
AcDbLine
 10
-35.41890480261372
 20
-8.294278365058517
 30
0.0
 11
-35.44512462006742
 21
-8.251556939549402
 31
0.0
  0
LINE
  5
B232
330
A
100
AcDbEntity
  8
0
  6
Continuous
 62
     7
370
     0
100
AcDbLine
 10
-35.44512462006742
 20
-8.251556939549402
 30
0.0
 11
-35.4691275329522
 21
-8.207660144841412
 31
0.0
  0
LINE
  5
B233
330
A
100
AcDbEntity
  8
0
  6
Continuous
 62
     7
370
     0
100
AcDbLine
 10
-35.4691275329522
 20
-8.207660144841412
 30
0.0
 11
-35.49073213985963
 21
-8.162997505800518
 31
0.0
  0
LINE
  5
B234
330
A
100
AcDbEntity
  8
0
  6
Continuous
 62
     7
370
     0
100
AcDbLine
 10
-35.49073213985963
 20
-8.162997505800518
 30
0.0
 11
-35.51009942233782
 21
-8.117309901918702
 31
0.0
  0
LINE
  5
B235
330
A
100
AcDbEntity
  8
0
  6
Continuous
 62
     7
370
     0
100
AcDbLine
 10
-35.51009942233782
 20
-8.117309901918702
 30
0.0
 11
-35.52712054713544
 21
-8.070877918183896
 31
0.0
  0
LINE
  5
B236
330
A
100
AcDbEntity
  8
0
  6
Continuous
 62
     7
370
     0
100
AcDbLine
 10
-35.52712054713544
 20
-8.070877918183896
 30
0.0
 11
-35.5405489064496
 21
-8.028111069654926
 31
0.0
  0
LINE
  5
B237
330
A
100
AcDbEntity
  8
0
  6
Continuous
 62
     7
370
     0
100
AcDbLine
 10
-35.5405489064496
 20
-8.028111069654926
 30
0.0
 11
-35.55210820869195
 21
-7.984544609312507
 31
0.0
  0
LINE
  5
B238
330
A
100
AcDbEntity
  8
0
  6
Continuous
 62
     7
370
     0
100
AcDbLine
 10
-35.55210820869195
 20
-7.984544609312507
 30
0.0
 11
-35.5617915393064
 21
-7.939961420817667
 31
0.0
  0
LINE
  5
B239
330
A
100
AcDbEntity
  8
0
  6
Continuous
 62
     7
370
     0
100
AcDbLine
 10
-35.5617915393064
 20
-7.939961420817667
 30
0.0
 11
-35.56612776086775
 21
-7.915991744650426
 31
0.0
  0
LINE
  5
B23A
330
A
100
AcDbEntity
  8
0
  6
Continuous
 62
     7
370
     0
100
AcDbLine
 10
-35.56612776086775
 20
-7.915991744650426
 30
0.0
 11
-35.5699392923641
 21
-7.891492633094884
 31
0.0
  0
LINE
  5
B23B
330
A
100
AcDbEntity
  8
0
  6
Continuous
 62
     7
370
     0
100
AcDbLine
 10
-35.5699392923641
 20
-7.891492633094884
 30
0.0
 11
-35.57303265161755
 21
-7.867848720018116
 31
0.0
  0
LINE
  5
B23C
330
A
100
AcDbEntity
  8
0
  6
Continuous
 62
     7
370
     0
100
AcDbLine
 10
-35.57303265161755
 20
-7.867848720018116
 30
0.0
 11
-35.57563433147953
 21
-7.843339410643011
 31
0.0
  0
LINE
  5
B23D
330
A
100
AcDbEntity
  8
0
  6
Continuous
 62
     7
370
     0
100
AcDbLine
 10
-35.57563433147953
 20
-7.843339410643011
 30
0.0
 11
-35.57670373625973
 21
-7.831128226800302
 31
0.0
  0
LINE
  5
B23E
330
A
100
AcDbEntity
  8
0
  6
Continuous
 62
     7
370
     0
100
AcDbLine
 10
-35.57670373625973
 20
-7.831128226800302
 30
0.0
 11
-35.57764431681932
 21
-7.818598721941185
 31
0.0
  0
LINE
  5
B23F
330
A
100
AcDbEntity
  8
0
  6
Continuous
 62
     7
370
     0
100
AcDbLine
 10
-35.57764431681932
 20
-7.818598721941185
 30
0.0
 11
-35.57803238940647
 21
-7.812700245957813
 31
0.0
  0
LINE
  5
B240
330
A
100
AcDbEntity
  8
0
  6
Continuous
 62
     7
370
     0
100
AcDbLine
 10
-35.57803238940647
 20
-7.812700245957813
 30
0.0
 11
-35.57839005609015
 21
-7.806720925676103
 31
0.0
  0
LINE
  5
B241
330
A
100
AcDbEntity
  8
0
  6
Continuous
 62
     7
370
     0
100
AcDbLine
 10
-35.57839005609015
 20
-7.806720925676103
 30
0.0
 11
-35.578807890701
 21
-7.798812358369019
 31
0.0
  0
LINE
  5
B242
330
A
100
AcDbEntity
  8
0
  6
Continuous
 62
     7
370
     0
100
AcDbLine
 10
-35.578807890701
 20
-7.798812358369019
 30
0.0
 11
-35.57916909937444
 21
-7.790754859932093
 31
0.0
  0
LINE
  5
B243
330
A
100
AcDbEntity
  8
0
  6
Continuous
 62
     7
370
     0
100
AcDbLine
 10
-35.57916909937444
 20
-7.790754859932093
 30
0.0
 11
-35.57946971550911
 21
-7.78256156098368
 31
0.0
  0
LINE
  5
B244
330
A
100
AcDbEntity
  8
0
  6
Continuous
 62
     7
370
     0
100
AcDbLine
 10
-35.57946971550911
 20
-7.78256156098368
 30
0.0
 11
-35.57964983331033
 21
-7.776460288745482
 31
0.0
  0
LINE
  5
B245
330
A
100
AcDbEntity
  8
0
  6
Continuous
 62
     7
370
     0
100
AcDbLine
 10
-35.57964983331033
 20
-7.776460288745482
 30
0.0
 11
-35.57979399854332
 21
-7.770296007969932
 31
0.0
  0
LINE
  5
B246
330
A
100
AcDbEntity
  8
0
  6
Continuous
 62
     7
370
     0
100
AcDbLine
 10
-35.57979399854332
 20
-7.770296007969932
 30
0.0
 11
-35.57988334130607
 21
-7.765272564133169
 31
0.0
  0
LINE
  5
B247
330
A
100
AcDbEntity
  8
0
  6
Continuous
 62
     7
370
     0
100
AcDbLine
 10
-35.57988334130607
 20
-7.765272564133169
 30
0.0
 11
-35.57994773712113
 21
-7.760222058688981
 31
0.0
  0
LINE
  5
B248
330
A
100
AcDbEntity
  8
0
  6
Continuous
 62
     7
370
     0
100
AcDbLine
 10
-35.57994773712113
 20
-7.760222058688981
 30
0.0
 11
-35.5799868851376
 21
-7.755115904884405
 31
0.0
  0
LINE
  5
B249
330
A
100
AcDbEntity
  8
0
  6
Continuous
 62
     7
370
     0
100
AcDbLine
 10
-35.5799868851376
 20
-7.755115904884405
 30
0.0
 11
-35.57999998372765
 21
-7.750000000012306
 31
0.0
  0
LINE
  5
B24A
330
A
100
AcDbEntity
  8
0
  6
Continuous
 62
     7
370
     0
100
AcDbLine
 10
-35.57999998372765
 20
-42.2500000000123
 30
0.0
 11
-35.57997453484029
 21
-42.24300127461018
 31
0.0
  0
LINE
  5
B24B
330
A
100
AcDbEntity
  8
0
  6
Continuous
 62
     7
370
     0
100
AcDbLine
 10
-35.57997453484029
 20
-42.24300127461018
 30
0.0
 11
-35.57989945712012
 21
-42.2360092153178
 31
0.0
  0
LINE
  5
B24C
330
A
100
AcDbEntity
  8
0
  6
Continuous
 62
     7
370
     0
100
AcDbLine
 10
-35.57989945712012
 20
-42.2360092153178
 30
0.0
 11
-35.57977665398062
 21
-42.22904750657119
 31
0.0
  0
LINE
  5
B24D
330
A
100
AcDbEntity
  8
0
  6
Continuous
 62
     7
370
     0
100
AcDbLine
 10
-35.57977665398062
 20
-42.22904750657119
 30
0.0
 11
-35.57960802883509
 21
-42.2221398328065
 31
0.0
  0
LINE
  5
B24E
330
A
100
AcDbEntity
  8
0
  6
Continuous
 62
     7
370
     0
100
AcDbLine
 10
-35.57960802883509
 20
-42.2221398328065
 30
0.0
 11
-35.57939548509665
 21
-42.21530987845949
 31
0.0
  0
LINE
  5
B24F
330
A
100
AcDbEntity
  8
0
  6
Continuous
 62
     7
370
     0
100
AcDbLine
 10
-35.57939548509665
 20
-42.21530987845949
 30
0.0
 11
-35.57914092617864
 21
-42.20858132796633
 31
0.0
  0
LINE
  5
B250
330
A
100
AcDbEntity
  8
0
  6
Continuous
 62
     7
370
     0
100
AcDbLine
 10
-35.57914092617864
 20
-42.20858132796633
 30
0.0
 11
-35.5788462554944
 21
-42.2019778657629
 31
0.0
  0
LINE
  5
B251
330
A
100
AcDbEntity
  8
0
  6
Continuous
 62
     7
370
     0
100
AcDbLine
 10
-35.5788462554944
 20
-42.2019778657629
 30
0.0
 11
-35.57825928696565
 21
-42.1910210056188
 31
0.0
  0
LINE
  5
B252
330
A
100
AcDbEntity
  8
0
  6
Continuous
 62
     7
370
     0
100
AcDbLine
 10
-35.57825928696565
 20
-42.1910210056188
 30
0.0
 11
-35.57756982509307
 21
-42.18032526780092
 31
0.0
  0
LINE
  5
B253
330
A
100
AcDbEntity
  8
0
  6
Continuous
 62
     7
370
     0
100
AcDbLine
 10
-35.57756982509307
 20
-42.18032526780092
 30
0.0
 11
-35.57678556813369
 21
-42.16988446643319
 31
0.0
  0
LINE
  5
B254
330
A
100
AcDbEntity
  8
0
  6
Continuous
 62
     7
370
     0
100
AcDbLine
 10
-35.57678556813369
 20
-42.16988446643319
 30
0.0
 11
-35.57492063195696
 21
-42.14931607177809
 31
0.0
  0
LINE
  5
B255
330
A
100
AcDbEntity
  8
0
  6
Continuous
 62
     7
370
     0
100
AcDbLine
 10
-35.57492063195696
 20
-42.14931607177809
 30
0.0
 11
-35.57271071329689
 21
-42.1294608338911
 31
0.0
  0
LINE
  5
B256
330
A
100
AcDbEntity
  8
0
  6
Continuous
 62
     7
370
     0
100
AcDbLine
 10
-35.57271071329689
 20
-42.1294608338911
 30
0.0
 11
-35.57017601426025
 21
-42.11017357704881
 31
0.0
  0
LINE
  5
B257
330
A
100
AcDbEntity
  8
0
  6
Continuous
 62
     7
370
     0
100
AcDbLine
 10
-35.57017601426025
 20
-42.11017357704881
 30
0.0
 11
-35.56679413542378
 21
-42.0880206736204
 31
0.0
  0
LINE
  5
B258
330
A
100
AcDbEntity
  8
0
  6
Continuous
 62
     7
370
     0
100
AcDbLine
 10
-35.56679413542378
 20
-42.0880206736204
 30
0.0
 11
-35.56049598857567
 21
-42.05345262035109
 31
0.0
  0
LINE
  5
B259
330
A
100
AcDbEntity
  8
0
  6
Continuous
 62
     7
370
     0
100
AcDbLine
 10
-35.56049598857567
 20
-42.05345262035109
 30
0.0
 11
-35.55311684896145
 21
-42.01968811018068
 31
0.0
  0
LINE
  5
B25A
330
A
100
AcDbEntity
  8
0
  6
Continuous
 62
     7
370
     0
100
AcDbLine
 10
-35.55311684896145
 20
-42.01968811018068
 30
0.0
 11
-35.54012860348649
 21
-41.97043271737641
 31
0.0
  0
LINE
  5
B25B
330
A
100
AcDbEntity
  8
0
  6
Continuous
 62
     7
370
     0
100
AcDbLine
 10
-35.54012860348649
 20
-41.97043271737641
 30
0.0
 11
-35.52473431413273
 21
-41.92216308178299
 31
0.0
  0
LINE
  5
B25C
330
A
100
AcDbEntity
  8
0
  6
Continuous
 62
     7
370
     0
100
AcDbLine
 10
-35.52473431413273
 20
-41.92216308178299
 30
0.0
 11
-35.50456577050369
 21
-41.86897449292331
 31
0.0
  0
LINE
  5
B25D
330
A
100
AcDbEntity
  8
0
  6
Continuous
 62
     7
370
     0
100
AcDbLine
 10
-35.50456577050369
 20
-41.86897449292331
 30
0.0
 11
-35.48128145039442
 21
-41.8167659779836
 31
0.0
  0
LINE
  5
B25E
330
A
100
AcDbEntity
  8
0
  6
Continuous
 62
     7
370
     0
100
AcDbLine
 10
-35.48128145039442
 20
-41.8167659779836
 30
0.0
 11
-35.4536409387851
 21
-41.76342885244349
 31
0.0
  0
LINE
  5
B25F
330
A
100
AcDbEntity
  8
0
  6
Continuous
 62
     7
370
     0
100
AcDbLine
 10
-35.4536409387851
 20
-41.76342885244349
 30
0.0
 11
-35.43052264784888
 21
-41.72406140732658
 31
0.0
  0
LINE
  5
B260
330
A
100
AcDbEntity
  8
0
  6
Continuous
 62
     7
370
     0
100
AcDbLine
 10
-35.43052264784888
 20
-41.72406140732658
 30
0.0
 11
-35.40536861695455
 21
-41.68540579238592
 31
0.0
  0
LINE
  5
B261
330
A
100
AcDbEntity
  8
0
  6
Continuous
 62
     7
370
     0
100
AcDbLine
 10
-35.40536861695455
 20
-41.68540579238592
 30
0.0
 11
-35.3789124741005
 21
-41.64855268844291
 31
0.0
  0
LINE
  5
B262
330
A
100
AcDbEntity
  8
0
  6
Continuous
 62
     7
370
     0
100
AcDbLine
 10
-35.3789124741005
 20
-41.64855268844291
 30
0.0
 11
-35.35045596397907
 21
-41.61250679809191
 31
0.0
  0
LINE
  5
B263
330
A
100
AcDbEntity
  8
0
  6
Continuous
 62
     7
370
     0
100
AcDbLine
 10
-35.35045596397907
 20
-41.61250679809191
 30
0.0
 11
-35.32212527739392
 21
-41.5797388908071
 31
0.0
  0
LINE
  5
B264
330
A
100
AcDbEntity
  8
0
  6
Continuous
 62
     7
370
     0
100
AcDbLine
 10
-35.32212527739392
 20
-41.5797388908071
 30
0.0
 11
-35.29199773404213
 21
-41.5478182546307
 31
0.0
  0
LINE
  5
B265
330
A
100
AcDbEntity
  8
0
  6
Continuous
 62
     7
370
     0
100
AcDbLine
 10
-35.29199773404213
 20
-41.5478182546307
 30
0.0
 11
-35.26307001528465
 21
-41.51964724015411
 31
0.0
  0
LINE
  5
B266
330
A
100
AcDbEntity
  8
0
  6
Continuous
 62
     7
370
     0
100
AcDbLine
 10
-35.26307001528465
 20
-41.51964724015411
 30
0.0
 11
-35.23261992441786
 21
-41.49231456857418
 31
0.0
  0
LINE
  5
B267
330
A
100
AcDbEntity
  8
0
  6
Continuous
 62
     7
370
     0
100
AcDbLine
 10
-35.23261992441786
 20
-41.49231456857418
 30
0.0
 11
-35.20218140851239
 21
-41.46712691026351
 31
0.0
  0
LINE
  5
B268
330
A
100
AcDbEntity
  8
0
  6
Continuous
 62
     7
370
     0
100
AcDbLine
 10
-35.20218140851239
 20
-41.46712691026351
 30
0.0
 11
-35.16708474543242
 21
-41.44047453248569
 31
0.0
  0
LINE
  5
B269
330
A
100
AcDbEntity
  8
0
  6
Continuous
 62
     7
370
     0
100
AcDbLine
 10
-35.16708474543242
 20
-41.44047453248569
 30
0.0
 11
-35.13005476116445
 21
-41.41487189212432
 31
0.0
  0
LINE
  5
B26A
330
A
100
AcDbEntity
  8
0
  6
Continuous
 62
     7
370
     0
100
AcDbLine
 10
-35.13005476116445
 20
-41.41487189212432
 30
0.0
 11
-35.09130365436761
 21
-41.39059988575218
 31
0.0
  0
LINE
  5
B26B
330
A
100
AcDbEntity
  8
0
  6
Continuous
 62
     7
370
     0
100
AcDbLine
 10
-35.09130365436761
 20
-41.39059988575218
 30
0.0
 11
-35.06431291285668
 21
-41.37510578328852
 31
0.0
  0
LINE
  5
B26C
330
A
100
AcDbEntity
  8
0
  6
Continuous
 62
     7
370
     0
100
AcDbLine
 10
-35.06431291285668
 20
-41.37510578328852
 30
0.0
 11
-35.03655268756245
 21
-41.36030424221249
 31
0.0
  0
LINE
  5
B26D
330
A
100
AcDbEntity
  8
0
  6
Continuous
 62
     7
370
     0
100
AcDbLine
 10
-35.03655268756245
 20
-41.36030424221249
 30
0.0
 11
-35.00805424896339
 21
-41.34624696626159
 31
0.0
  0
LINE
  5
B26E
330
A
100
AcDbEntity
  8
0
  6
Continuous
 62
     7
370
     0
100
AcDbLine
 10
-35.00805424896339
 20
-41.34624696626159
 30
0.0
 11
-34.98609805918869
 21
-41.33617056977931
 31
0.0
  0
LINE
  5
B26F
330
A
100
AcDbEntity
  8
0
  6
Continuous
 62
     7
370
     0
100
AcDbLine
 10
-34.98609805918869
 20
-41.33617056977931
 30
0.0
 11
-34.96373595488762
 21
-41.326557146102
 31
0.0
  0
LINE
  5
B270
330
A
100
AcDbEntity
  8
0
  6
Continuous
 62
     7
370
     0
100
AcDbLine
 10
-34.96373595488762
 20
-41.326557146102
 30
0.0
 11
-34.93556818556829
 21
-41.31534986125467
 31
0.0
  0
LINE
  5
B271
330
A
100
AcDbEntity
  8
0
  6
Continuous
 62
     7
370
     0
100
AcDbLine
 10
-34.93556818556829
 20
-41.31534986125467
 30
0.0
 11
-34.90682178237029
 21
-41.30491401877461
 31
0.0
  0
LINE
  5
B272
330
A
100
AcDbEntity
  8
0
  6
Continuous
 62
     7
370
     0
100
AcDbLine
 10
-34.90682178237029
 20
-41.30491401877461
 30
0.0
 11
-34.87732945692977
 21
-41.295225314111
 31
0.0
  0
LINE
  5
B273
330
A
100
AcDbEntity
  8
0
  6
Continuous
 62
     7
370
     0
100
AcDbLine
 10
-34.87732945692977
 20
-41.295225314111
 30
0.0
 11
-34.84731349182045
 21
-41.28639038590958
 31
0.0
  0
LINE
  5
B274
330
A
100
AcDbEntity
  8
0
  6
Continuous
 62
     7
370
     0
100
AcDbLine
 10
-34.84731349182045
 20
-41.28639038590958
 30
0.0
 11
-34.81655299092591
 21
-41.27838172942
 31
0.0
  0
LINE
  5
B275
330
A
100
AcDbEntity
  8
0
  6
Continuous
 62
     7
370
     0
100
AcDbLine
 10
-34.81655299092591
 20
-41.27838172942
 30
0.0
 11
-34.7853442032698
 21
-41.2713101862814
 31
0.0
  0
LINE
  5
B276
330
A
100
AcDbEntity
  8
0
  6
Continuous
 62
     7
370
     0
100
AcDbLine
 10
-34.7853442032698
 20
-41.2713101862814
 30
0.0
 11
-34.75350319740414
 21
-41.26516707147442
 31
0.0
  0
LINE
  5
B277
330
A
100
AcDbEntity
  8
0
  6
Continuous
 62
     7
370
     0
100
AcDbLine
 10
-34.75350319740414
 20
-41.26516707147442
 30
0.0
 11
-34.72131382979143
 21
-41.26003515371181
 31
0.0
  0
LINE
  5
B278
330
A
100
AcDbEntity
  8
0
  6
Continuous
 62
     7
370
     0
100
AcDbLine
 10
-34.72131382979143
 20
-41.26003515371181
 30
0.0
 11
-34.68803651729593
 21
-41.25585353306291
 31
0.0
  0
LINE
  5
B279
330
A
100
AcDbEntity
  8
0
  6
Continuous
 62
     7
370
     0
100
AcDbLine
 10
-34.68803651729593
 20
-41.25585353306291
 30
0.0
 11
-34.65452628523514
 21
-41.25278095166649
 31
0.0
  0
LINE
  5
B27A
330
A
100
AcDbEntity
  8
0
  6
Continuous
 62
     7
370
     0
100
AcDbLine
 10
-34.65452628523514
 20
-41.25278095166649
 30
0.0
 11
-34.62069851757116
 21
-41.25082902087467
 31
0.0
  0
LINE
  5
B27B
330
A
100
AcDbEntity
  8
0
  6
Continuous
 62
     7
370
     0
100
AcDbLine
 10
-34.62069851757116
 20
-41.25082902087467
 30
0.0
 11
-34.58678534580168
 21
-41.25002302084618
 31
0.0
  0
LINE
  5
B90A
330
A
100
AcDbEntity
  8
0
  6
CENTER
 62
     1
100
AcDbLine
 10
8.500000000000198
 20
0.0000000000000426
 30
0.0
 11
8.500000000000198
 21
-49.99999999999996
 31
0.0
  0
ARC
  5
B90B
330
A
100
AcDbEntity
  8
0
  6
CENTER
 62
     1
100
AcDbCircle
 10
0.500000000000199
 20
-49.99999999999996
 30
0.0
 40
8.0
100
AcDbArc
 50
202.619865000001
 51
0.0
  0
ARC
  5
B90C
330
A
100
AcDbEntity
  8
0
  6
CENTER
 62
     1
100
AcDbCircle
 10
-11.4999999999998
 20
-54.99999999999996
 30
0.0
 40
5.0
100
AcDbArc
 50
22.61986500000126
 51
90.0
  0
LINE
  5
B90D
330
A
100
AcDbEntity
  8
0
  6
CENTER
 62
     1
100
AcDbLine
 10
-11.4999999999998
 20
-49.99999999999996
 30
0.0
 11
-32.4999999999998
 21
-49.99999999999996
 31
0.0
  0
LINE
  5
B90E
330
A
100
AcDbEntity
  8
0
  6
CENTER
 62
     1
100
AcDbLine
 10
-32.4999999999998
 20
0.0000000000000426
 30
0.0
 11
-11.4999999999998
 21
0.0000000000000426
 31
0.0
  0
ARC
  5
B90F
330
A
100
AcDbEntity
  8
0
  6
CENTER
 62
     1
100
AcDbCircle
 10
-11.4999999999998
 20
5.000000000000042
 30
0.0
 40
5.0
100
AcDbArc
 50
270.0
 51
337.3801349999987
  0
ARC
  5
B910
330
A
100
AcDbEntity
  8
0
  6
CENTER
 62
     1
100
AcDbCircle
 10
0.500000000000199
 20
0.0000000000000426
 30
0.0
 40
8.0
100
AcDbArc
 50
0.0
 51
157.380134999999
  0
ENDSEC
  0
SECTION
  2
OBJECTS
  0
DICTIONARY
  5
19
330
0
100
AcDbDictionary
281
     1
  3
ACAD_COLOR
350
5829
  3
ACAD_GROUP
350
1A
  3
ACAD_LAYOUT
350
1E
  3
ACAD_MATERIAL
350
57FF
  3
ACAD_MLEADERSTYLE
350
584E
  3
ACAD_MLINESTYLE
350
1B
  3
ACAD_PLOTSETTINGS
350
22
  3
ACAD_PLOTSTYLENAME
350
1F
  3
ACAD_SCALELIST
350
582C
  3
ACAD_TABLESTYLE
350
582A
  3
ACAD_VISUALSTYLE
350
5818
  3
ACAD_WIPEOUT_VARS
350
23
  3
ACDB_RECOMPOSE_DATA
350
AB90
  3
AcDbVariableDictionary
350
AB91
  3
ASE_INDEX_DICTIONARY
350
B60C
  3
DWGPROPS
350
B925
  0
DICTIONARY
  5
5858
330
14
100
AcDbDictionary
280
     1
281
     1
  3
ADSK_XREC_LAYER_RECONCILED
360
5859
  0
DICTIONARY
  5
5864
330
A
100
AcDbDictionary
280
     1
281
     1
  3
ACAD_SORTENTS
360
5865
  0
DICTIONARY
  5
5829
102
{ACAD_REACTORS
330
19
102
}
330
19
100
AcDbDictionary
281
     1
  0
DICTIONARY
  5
1A
102
{ACAD_REACTORS
330
19
102
}
330
19
100
AcDbDictionary
281
     1
  0
DICTIONARY
  5
1E
102
{ACAD_REACTORS
330
19
102
}
330
19
100
AcDbDictionary
281
     1
  3
Layout1
350
21
  3
Model
350
20
  0
DICTIONARY
  5
57FF
102
{ACAD_REACTORS
330
19
102
}
330
19
100
AcDbDictionary
281
     1
  3
ByBlock
350
5808
  3
ByLayer
350
5800
  3
Global
350
5810
  0
DICTIONARY
  5
584E
102
{ACAD_REACTORS
330
19
102
}
330
19
100
AcDbDictionary
281
     1
  3
Standard
350
584F
  0
DICTIONARY
  5
1B
102
{ACAD_REACTORS
330
19
102
}
330
19
100
AcDbDictionary
281
     1
  3
Standard
350
1C
  0
DICTIONARY
  5
22
102
{ACAD_REACTORS
330
19
102
}
330
19
100
AcDbDictionary
281
     1
  0
ACDBDICTIONARYWDFLT
  5
1F
102
{ACAD_REACTORS
330
19
102
}
330
19
100
AcDbDictionary
281
     1
  3
Normal
350
1D
100
AcDbDictionaryWithDefault
340
1D
  0
DICTIONARY
  5
582C
102
{ACAD_REACTORS
330
19
102
}
330
19
100
AcDbDictionary
281
     1
  3
A0
350
582D
  3
A1
350
582E
  3
A2
350
582F
  3
A3
350
5830
  3
A4
350
5831
  3
A5
350
5832
  3
A6
350
5833
  3
A7
350
5834
  3
A8
350
5835
  3
A9
350
5836
  3
B0
350
5837
  3
B1
350
5838
  3
B2
350
5839
  3
B3
350
583A
  3
B4
350
583B
  3
B5
350
583C
  3
B6
350
583D
  3
B7
350
583E
  3
B8
350
583F
  3
B9
350
5840
  3
C0
350
5841
  3
C1
350
5842
  3
C2
350
5843
  3
C3
350
5844
  3
C4
350
5845
  3
C5
350
5846
  3
C6
350
5847
  3
C7
350
5848
  3
C8
350
5849
  3
C9
350
584A
  3
D0
350
584B
  3
D1
350
584C
  3
D2
350
584D
  0
DICTIONARY
  5
582A
102
{ACAD_REACTORS
330
19
102
}
330
19
100
AcDbDictionary
281
     1
  3
Standard
350
582B
  0
DICTIONARY
  5
5818
102
{ACAD_REACTORS
330
19
102
}
330
19
100
AcDbDictionary
281
     1
  3
2dWireframe
350
581E
  3
3D Hidden
350
5820
  3
3dWireframe
350
581F
  3
Basic
350
581D
  3
Brighten
350
5824
  3
ColorChange
350
5828
  3
Conceptual
350
5821
  3
Dim
350
5823
  3
Facepattern
350
5827
  3
Flat
350
5819
  3
FlatWithEdges
350
581A
  3
Gouraud
350
581B
  3
GouraudWithEdges
350
581C
  3
Linepattern
350
5826
  3
Realistic
350
5822
  3
Thicken
350
5825
  0
WIPEOUTVARIABLES
  5
23
330
19
100
AcDbWipeoutVariables
 70
     1
  0
XRECORD
  5
AB90
102
{ACAD_REACTORS
330
19
102
}
330
19
100
AcDbXrecord
280
     1
 90
        1
330
582B
  0
DICTIONARY
  5
AB91
102
{ACAD_REACTORS
330
19
102
}
330
19
100
AcDbDictionary
281
     1
  3
CANNOSCALE
350
AB95
  3
CMLEADERSTYLE
350
AB93
  3
CTABLESTYLE
350
AB92
  3
DIMASSOC
350
B616
  3
INDEXCTL
350
B615
  3
LIGHTINGUNITS
350
AB96
  3
MSLTSCALE
350
AB94
  3
SORTENTS
350
B614
  0
DICTIONARY
  5
B60C
102
{ACAD_REACTORS
330
19
102
}
330
19
100
AcDbDictionary
281
     1
  3
ASEBlockHierarchyIndexRecord
350
B60D
1001
DCO15
1040
1684841650.294
  0
XRECORD
  5
B925
102
{ACAD_REACTORS
330
19
102
}
330
19
100
AcDbXrecord
280
     1
  1
DWGPROPS COOKIE
  2

  3

  4

  6

  7

  8
renzo.ceresoli
  9

300
=
301
=
302
=
303
=
304
=
305
=
306
=
307
=
308
=
309
=
 40
0.1697799074074074
 41
2455301.802361111
 42
2455303.695796042
  1

 90
        0
  0
XRECORD
  5
5859
102
{ACAD_REACTORS
330
5858
102
}
330
5858
100
AcDbXrecord
280
     1
290
     1
  0
SORTENTSTABLE
  5
5865
102
{ACAD_REACTORS
330
5864
102
}
330
5864
100
AcDbSortentsTable
330
A
331
9055
  5
6EAF
331
8FD9
  5
6F7D
331
8FB4
  5
6F58
331
9231
  5
6D77
331
8F38
  5
708A
331
8E9B
  5
702E
331
8E6E
  5
7001
331
90D8
  5
6EC8
331
904B
  5
6EA5
331
8E1F
  5
6FB2
331
8FCF
  5
6F73
331
8FFC
  5
6EDB
331
92D9
  5
6DCE
331
92B4
  5
6DA9
331
8F53
  5
6EF7
331
8F80
  5
6F24
331
91D8
  5
6D05
331
8EB7
  5
704A
331
90FB
  5
6DF1
331
8E15
  5
6FA8
331
8E3A
  5
6FCD
331
901F
  5
6E79
331
8FF2
  5
6F96
331
1F69
  5
70A9
331
92CF
  5
6DC4
331
8FA3
  5
6F47
331
8F76
  5
6F1A
331
91F3
  5
6D20
331
9220
  5
6D4D
331
9117
  5
6E0D
331
8E5D
  5
6FF0
331
9015
  5
6E6F
331
903A
  5
6E94
331
1F5F
  5
709F
331
8FBE
  5
6F62
331
8F99
  5
6F3D
331
92A3
  5
6D98
331
9216
  5
6D43
331
8F42
  5
6EE6
331
913A
  5
6E30
331
8E80
  5
7013
331
905D
  5
6EB7
331
8FE1
  5
6F85
331
9269
  5
6D94
331
92BE
  5
6DB3
331
8F65
  5
6F09
331
91E2
  5
6D0F
331
91BD
  5
6E49
331
8EC9
  5
7052
331
8EA3
  5
7036
331
90E0
  5
6ED0
331
8E27
  5
6FBA
331
9004
  5
6E5E
331
8FD7
  5
6F7B
331
92E1
  5
6DD6
331
8F88
  5
6F2C
331
8F5B
  5
6EFF
331
9205
  5
6D32
331
8EFC
  5
7068
331
8EBF
  5
704D
331
9129
  5
6E1F
331
9103
  5
6DF9
331
8E42
  5
6FD5
331
9027
  5
6E81
331
92D7
  5
6DCC
331
8FAB
  5
6F4F
331
8F7E
  5
6F22
331
9228
  5
6D55
331
91FB
  5
6D28
331
8F2F
  5
7081
331
914C
  5
6E42
331
911F
  5
6E15
331
8E92
  5
7025
331
8E65
  5
6FF8
331
9042
  5
6E9C
331
1F67
  5
70A7
331
8FC6
  5
6F6A
331
92AB
  5
6DA0
331
921E
  5
6D4B
331
8F4A
  5
6EEE
331
8F25
  5
7077
331
91CF
  5
6E5B
331
9142
  5
6E38
331
8EAE
  5
7041
331
8E88
  5
701B
331
90F2
  5
6DE8
331
9065
  5
6EBF
331
8E31
  5
6FC4
331
8E0C
  5
6F9F
331
8FE9
  5
6F8D
331
92C6
  5
6DBB
331
8F6D
  5
6F11
331
91EA
  5
6D17
331
91C5
  5
6E51
331
8ED1
  5
705A
331
910E
  5
6E04
331
90E8
  5
6ED8
331
8E54
  5
6FE7
331
8E2F
  5
6FC2
331
9031
  5
6E8B
331
900C
  5
6E66
331
1F56
  5
7096
331
92E9
  5
6DDE
331
8F90
  5
6F34
331
920D
  5
6D3A
331
8F04
  5
7070
331
8EC7
  5
7050
331
9131
  5
6E27
331
8E77
  5
700A
331
8E4A
  5
6FDD
331
9054
  5
6EAE
331
902F
  5
6E89
331
8FD8
  5
6F7C
331
8FB3
  5
6F57
331
9230
  5
6D76
331
8F37
  5
7089
331
9184
  5
6E46
331
9127
  5
6E1D
331
8E9A
  5
702D
331
8E6D
  5
7000
331
90D7
  5
6EC7
331
904A
  5
6EA4
331
8E1E
  5
6FB1
331
8FFB
  5
6EDA
331
8FCE
  5
6F72
331
92D8
  5
6DCD
331
92B3
  5
6DA8
331
8F52
  5
6EF6
331
91D7
  5
6D04
331
8EB6
  5
7049
331
90FA
  5
6DF0
331
909D
  5
6EC3
331
8E39
  5
6FCC
331
8E14
  5
6FA7
331
8FF1
  5
6F95
331
901E
  5
6E78
331
1F68
  5
70A8
331
92CE
  5
6DC3
331
8F75
  5
6F19
331
8FA2
  5
6F46
331
91F2
  5
6D1F
331
9116
  5
6E0C
331
8E5C
  5
6FEF
331
9039
  5
6E93
331
9014
  5
6E6E
331
1F5E
  5
709E
331
8FBD
  5
6F61
331
8F98
  5
6F3C
331
9215
  5
6D42
331
92A2
  5
6D97
331
8F41
  5
6EE5
331
9139
  5
6E2F
331
8E7F
  5
7012
331
905C
  5
6EB6
331
8FE0
  5
6F84
331
92BD
  5
6DB2
331
8F64
  5
6F08
331
8F3F
  5
6EE3
331
91E1
  5
6D0E
331
91BC
  5
6E48
331
8EC8
  5
7051
331
8EA2
  5
7035
331
90DF
  5
6ECF
331
8E26
  5
6FB9
331
9003
  5
6E5D
331
8FD6
  5
6F7A
331
92E0
  5
6DD5
331
8F87
  5
6F2B
331
8F5A
  5
6EFE
331
9204
  5
6D31
331
91DF
  5
6D0C
331
8EFB
  5
7067
331
9128
  5
6E1E
331
9102
  5
6DF8
331
8E41
  5
6FD4
331
9026
  5
6E80
331
92D6
  5
6DCB
331
8FAA
  5
6F4E
331
8F7D
  5
6F21
331
9227
  5
6D54
331
91FA
  5
6D27
331
8F2E
  5
7080
331
914B
  5
6E41
331
911E
  5
6E14
331
8E91
  5
7024
331
8E64
  5
6FF7
331
9041
  5
6E9B
331
1F66
  5
70A6
331
8FC5
  5
6F69
331
92AA
  5
6D9F
331
921D
  5
6D4A
331
8F24
  5
7076
331
8F49
  5
6EED
331
91CE
  5
6E5A
331
9141
  5
6E37
331
8EAD
  5
7040
331
8E87
  5
701A
331
9064
  5
6EBE
331
90F1
  5
6DE7
331
8E30
  5
6FC3
331
8E0B
  5
6F9E
331
8FE8
  5
6F8C
331
92C5
  5
6DBA
331
8F6C
  5
6F10
331
91E9
  5
6D16
331
91C4
  5
6E50
331
8ED0
  5
7059
331
910D
  5
6E03
331
90E7
  5
6ED7
331
8E53
  5
6FE6
331
8E2E
  5
6FC1
331
9030
  5
6E8A
331
900B
  5
6E65
331
1F55
  5
7095
331
92E8
  5
6DDD
331
8F8F
  5
6F33
331
920C
  5
6D39
331
8F03
  5
706F
331
9130
  5
6E26
331
8E76
  5
7009
331
8E49
  5
6FDC
331
9053
  5
6EAD
331
902E
  5
6E88
331
8FB2
  5
6F56
331
922F
  5
6D75
331
8F36
  5
7088
331
9126
  5
6E1C
331
9183
  5
6E45
331
8E99
  5
702C
331
8E6C
  5
6FFF
331
90D6
  5
6EC6
331
9049
  5
6EA3
331
8E1D
  5
6FB0
331
8FFA
  5
6ED9
331
8FCD
  5
6F71
331
92B2
  5
6DA7
331
8F51
  5
6EF5
331
91D6
  5
6D03
331
8EB5
  5
7048
331
8E8F
  5
7022
331
90F9
  5
6DEF
331
909C
  5
6EC2
331
8E13
  5
6FA6
331
8E38
  5
6FCB
331
901D
  5
6E77
331
8FF0
  5
6F94
331
92CD
  5
6DC2
331
8FA1
  5
6F45
331
8F74
  5
6F18
331
91F1
  5
6D1E
331
8ED8
  5
7061
331
9115
  5
6E0B
331
90EF
  5
6DE5
331
8E5B
  5
6FEE
331
9013
  5
6E6D
331
9038
  5
6E92
331
1F5D
  5
709D
331
8F97
  5
6F3B
331
8FBC
  5
6F60
331
9214
  5
6D41
331
8F40
  5
6EE4
331
9138
  5
6E2E
331
8E7E
  5
7011
331
905B
  5
6EB5
331
8FDF
  5
6F83
331
92BC
  5
6DB1
331
8F63
  5
6F07
331
8F3E
  5
6EE2
331
91E0
  5
6D0D
331
8EA1
  5
7034
331
90DE
  5
6ECE
331
8E25
  5
6FB8
331
9002
  5
6E5C
331
8FD5
  5
6F79
331
92DF
  5
6DD4
331
8F86
  5
6F2A
331
8F59
  5
6EFD
331
9203
  5
6D30
331
91DE
  5
6D0B
331
8EFA
  5
7066
331
9101
  5
6DF7
331
8E40
  5
6FD3
331
9025
  5
6E7F
331
1F6F
  5
70AF
331
92D5
  5
6DCA
331
8FA9
  5
6F4D
331
8F7C
  5
6F20
331
9226
  5
6D53
331
91F9
  5
6D26
331
8F2D
  5
707F
331
914A
  5
6E40
331
911D
  5
6E13
331
8E90
  5
7023
331
8E63
  5
6FF6
331
9040
  5
6E9A
331
1F65
  5
70A5
331
8FC4
  5
6F68
331
8F9F
  5
6F43
331
92A9
  5
6D9E
331
921C
  5
6D49
331
8F48
  5
6EEC
331
91CD
  5
6E59
331
9140
  5
6E36
331
8EAC
  5
703F
331
8E86
  5
7019
331
90F0
  5
6DE6
331
9063
  5
6EBD
331
8E0A
  5
70B0
331
8FE7
  5
6F8B
331
92C4
  5
6DB9
331
8F6B
  5
6F0F
331
91E8
  5
6D15
331
91C3
  5
6E4F
331
8ECF
  5
7058
331
910C
  5
6E02
331
90E6
  5
6ED6
331
8E52
  5
6FE5
331
8E2D
  5
6FC0
331
900A
  5
6E64
331
1F54
  5
7094
331
92E7
  5
6DDC
331
8F8E
  5
6F32
331
920B
  5
6D38
331
8F02
  5
706E
331
912F
  5
6E25
331
8E75
  5
7008
331
8E48
  5
6FDB
331
9052
  5
6EAC
331
902D
  5
6E87
331
8FB1
  5
6F55
331
922E
  5
6D5B
331
8F35
  5
7087
331
9182
  5
6E44
331
9125
  5
6E1B
331
8E98
  5
702B
331
8E6B
  5
6FFE
331
90D5
  5
6EC5
331
9048
  5
6EA2
331
8E1C
  5
6FAF
331
8FF9
  5
6F9D
331
8FCC
  5
6F70
331
92B1
  5
6DA6
331
8F50
  5
6EF4
331
91D5
  5
6D02
331
8EB4
  5
7047
331
8E8E
  5
7021
331
90F8
  5
6DEE
331
909B
  5
6EC1
331
8E37
  5
6FCA
331
8E12
  5
6FA5
331
901C
  5
6E76
331
8FEF
  5
6F93
331
92CC
  5
6DC1
331
8F73
  5
6F17
331
8FA0
  5
6F44
331
91F0
  5
6D1D
331
8ED7
  5
7060
331
9114
  5
6E0A
331
90EE
  5
6DE4
331
8E5A
  5
6FED
331
9037
  5
6E91
331
9012
  5
6E6C
331
1F5C
  5
709C
331
8FBB
  5
6F5F
331
8F96
  5
6F3A
331
9213
  5
6D40
331
9137
  5
6E2D
331
8E7D
  5
7010
331
905A
  5
6EB4
331
8FDE
  5
6F82
331
92BB
  5
6DB0
331
8F62
  5
6F06
331
8F3D
  5
6EE1
331
8EA0
  5
7033
331
90DD
  5
6ECD
331
8E24
  5
6FB7
331
9001
  5
6EE0
331
8FD4
  5
6F78
331
92DE
  5
6DD3
331
8F85
  5
6F29
331
8F58
  5
6EFC
331
9202
  5
6D2F
331
91DD
  5
6D0A
331
8EF9
  5
7065
331
9100
  5
6DF6
331
8E3F
  5
6FD2
331
9024
  5
6E7E
331
8FF7
  5
6F9B
331
1F6E
  5
70AE
331
92D4
  5
6DC9
331
8FA8
  5
6F4C
331
8F7B
  5
6F1F
331
9225
  5
6D52
331
91F8
  5
6D25
331
8F2C
  5
707E
331
9149
  5
6E3F
331
911C
  5
6E12
331
8E62
  5
6FF5
331
903F
  5
6E99
331
1F64
  5
70A4
331
8FC3
  5
6F67
331
8F9E
  5
6F42
331
92A8
  5
6D9D
331
921B
  5
6D48
331
8F47
  5
6EEB
331
91CC
  5
6E58
331
913F
  5
6E35
331
8EAB
  5
703E
331
8E85
  5
7018
331
9062
  5
6EBC
331
8FE6
  5
6F8A
331
92C3
  5
6DB8
331
8F6A
  5
6F0E
331
91E7
  5
6D14
331
91C2
  5
6E4E
331
8ECE
  5
7057
331
910B
  5
6E01
331
90E5
  5
6ED5
331
8E51
  5
6FE4
331
8E2C
  5
6FBF
331
9009
  5
6E63
331
1F53
  5
7093
331
92E6
  5
6DDB
331
8F8D
  5
6F31
331
920A
  5
6D37
331
8F01
  5
706D
331
912E
  5
6E24
331
8E74
  5
7007
331
8E47
  5
6FDA
331
9051
  5
6EAB
331
902C
  5
6E86
331
8FB0
  5
6F54
331
922D
  5
6D5A
331
8F34
  5
7086
331
8EF7
  5
7063
331
9124
  5
6E1A
331
8E97
  5
702A
331
8E6A
  5
6FFD
331
9047
  5
6EA1
331
8E1B
  5
6FAE
331
8FF8
  5
6F9C
331
8FCB
  5
6F6F
331
92B0
  5
6DA5
331
8F4F
  5
6EF3
331
91D4
  5
6D01
331
9147
  5
6E3D
331
8EB3
  5
7046
331
8E8D
  5
7020
331
90F7
  5
6DED
331
8E11
  5
6FA4
331
8E36
  5
6FC9
331
901B
  5
6E75
331
8FEE
  5
6F92
331
92CB
  5
6DC0
331
8F72
  5
6F16
331
91EF
  5
6D1C
331
8ED6
  5
705F
331
9113
  5
6E09
331
90ED
  5
6DE3
331
8E59
  5
6FEC
331
9036
  5
6E90
331
9011
  5
6E6B
331
1F5B
  5
709B
331
8F95
  5
6F39
331
8FBA
  5
6F5E
331
9212
  5
6D3F
331
9136
  5
6E2C
331
8E4F
  5
6FE2
331
8E7C
  5
700F
331
9059
  5
6EB3
331
8FDD
  5
6F81
331
92BA
  5
6DAF
331
8F61
  5
6F05
331
8F3C
  5
708E
331
8E9F
  5
7032
331
904F
  5
6EA9
331
90DC
  5
6ECC
331
8E23
  5
6FB6
331
8FD3
  5
6F77
331
9000
  5
6EDF
331
92DD
  5
6DD2
331
8F84
  5
6F28
331
8F57
  5
6EFB
331
9201
  5
6D2E
331
91DC
  5
6D09
331
8EF8
  5
7064
331
90FF
  5
6DF5
331
8E3E
  5
6FD1
331
9023
  5
6E7D
331
8FF6
  5
6F9A
331
1F6D
  5
70AD
331
92D3
  5
6DC8
331
8FA7
  5
6F4B
331
8F7A
  5
6F1E
331
9224
  5
6D51
331
91F7
  5
6D24
331
8F2B
  5
707D
331
9148
  5
6E3E
331
911B
  5
6E11
331
8E61
  5
6FF4
331
903E
  5
6E98
331
1F63
  5
70A3
331
8FC2
  5
6F66
331
8F9D
  5
6F41
331
92A7
  5
6D9C
331
921A
  5
6D47
331
8F46
  5
6EEA
331
91CB
  5
6E57
331
913E
  5
6E34
331
8EAA
  5
703D
331
8E84
  5
7017
331
9061
  5
6EBB
331
8FE5
  5
6F89
331
92C2
  5
6DB7
331
8F69
  5
6F0D
331
91E6
  5
6D13
331
91C1
  5
6E4D
331
8ECD
  5
7056
331
910A
  5
6E00
331
8EA7
  5
703A
331
90E4
  5
6ED4
331
8E50
  5
6FE3
331
8E2B
  5
6FBE
331
9008
  5
6E62
331
1F52
  5
7092
331
92E5
  5
6DDA
331
8F8C
  5
6F30
331
8F5F
  5
6F03
331
9209
  5
6D36
331
8F00
  5
706C
331
912D
  5
6E23
331
9107
  5
6DFD
331
8E73
  5
7006
331
8E46
  5
6FD9
331
9050
  5
6EAA
331
902B
  5
6E85
331
8FAF
  5
6F53
331
922C
  5
6D59
331
91FF
  5
6D2C
331
8F33
  5
7085
331
9123
  5
6E19
331
8E96
  5
7029
331
8E69
  5
6FFC
331
9046
  5
6EA0
331
8E1A
  5
6FAD
331
8FCA
  5
6F6E
331
92AF
  5
6DA4
331
8F4E
  5
6EF2
331
9146
  5
6E3C
331
91D3
  5
6D00
331
8EB2
  5
7045
331
8E8C
  5
701F
331
90F6
  5
6DEC
331
8E35
  5
6FC8
331
8E10
  5
6FA3
331
901A
  5
6E74
331
8FED
  5
6F91
331
92CA
  5
6DBF
331
8F71
  5
6F15
331
91EE
  5
6D1B
331
8ED5
  5
705E
331
9112
  5
6E08
331
90EC
  5
6DE2
331
8E58
  5
6FEB
331
9035
  5
6E8F
331
9010
  5
6E6A
331
1F5A
  5
709A
331
8FB9
  5
6F5D
331
8F94
  5
6F38
331
9211
  5
6D3E
331
8F08
  5
7074
331
9135
  5
6E2B
331
8E7B
  5
700E
331
8E4E
  5
6FE1
331
9058
  5
6EB2
331
8FB7
  5
6F5B
331
8FDC
  5
6F80
331
92B9
  5
6DAE
331
8F60
  5
6F04
331
8F3B
  5
708D
331
8E9E
  5
7031
331
90DB
  5
6ECB
331
904E
  5
6EA8
331
8E22
  5
6FB5
331
8FFF
  5
6EDE
331
8FD2
  5
6F76
331
92B7
  5
6DAC
331
92DC
  5
6DD1
331
8F83
  5
6F27
331
8F56
  5
6EFA
331
91DB
  5
6D08
331
9200
  5
6D2D
331
90FE
  5
6DF4
331
8E3D
  5
6FD0
331
8FF5
  5
6F99
331
9022
  5
6E7C
331
1F6C
  5
70AC
331
92D2
  5
6DC7
331
8FA6
  5
6F4A
331
8F79
  5
6F1D
331
9223
  5
6D50
331
91F6
  5
6D23
331
8F2A
  5
707C
331
911A
  5
6E10
331
8E60
  5
6FF3
331
903D
  5
6E97
331
1F62
  5
70A2
331
8FC1
  5
6F65
331
8F9C
  5
6F40
331
92A6
  5
6D9B
331
9219
  5
6D46
331
8F45
  5
6EE9
331
91CA
  5
6E56
331
913D
  5
6E33
331
8EA9
  5
703C
331
8E83
  5
7016
331
9060
  5
6EBA
331
8FE4
  5
6F88
331
92C1
  5
6DB6
331
8F68
  5
6F0C
331
91E5
  5
6D12
331
91C0
  5
6E4C
331
8ECC
  5
7055
331
9109
  5
6DFF
331
8EA6
  5
7039
331
90E3
  5
6ED3
331
8E2A
  5
6FBD
331
9007
  5
6E61
331
1F51
  5
7091
331
92E4
  5
6DD9
331
8F8B
  5
6F2F
331
8F5E
  5
6F02
331
9208
  5
6D35
331
8EFF
  5
706B
331
912C
  5
6E22
331
9106
  5
6DFC
331
8E72
  5
7005
331
8E45
  5
6FD8
331
902A
  5
6E84
331
8FAE
  5
6F52
331
922B
  5
6D58
331
91FE
  5
6D2B
331
8F32
  5
7084
331
9122
  5
6E18
331
8E95
  5
7028
331
8E68
  5
6FFB
331
9045
  5
6E9F
331
8E19
  5
6FAC
331
8FC9
  5
6F6D
331
92AE
  5
6DA3
331
8F4D
  5
6EF1
331
91D2
  5
6CFF
331
9145
  5
6E3B
331
8EB1
  5
7044
331
8E8B
  5
701E
331
90F5
  5
6DEB
331
8E34
  5
6FC7
331
8E0F
  5
6FA2
331
9019
  5
6E73
331
8FEC
  5
6F90
331
92C9
  5
6DBE
331
8F70
  5
6F14
331
91ED
  5
6D1A
331
8ED4
  5
705D
331
9111
  5
6E07
331
90EB
  5
6DE1
331
8E57
  5
6FEA
331
9034
  5
6E8E
331
900F
  5
6E69
331
1F59
  5
7099
331
8F93
  5
6F37
331
8FB8
  5
6F5C
331
9210
  5
6D3D
331
8F07
  5
7073
331
9134
  5
6E2A
331
8E4D
  5
6FE0
331
8E7A
  5
700D
331
9057
  5
6EB1
331
8FDB
  5
6F7F
331
8FB6
  5
6F5A
331
92B8
  5
6DAD
331
9233
  5
6D79
331
8F3A
  5
708C
331
8E9D
  5
7030
331
90DA
  5
6ECA
331
904D
  5
6EA7
331
8E21
  5
6FB4
331
8FD1
  5
6F75
331
8FFE
  5
6EDD
331
92DB
  5
6DD0
331
92B6
  5
6DAB
331
8F82
  5
6F26
331
8F55
  5
6EF9
331
91DA
  5
6D07
331
90FD
  5
6DF3
331
8E3C
  5
6FCF
331
8E17
  5
6FAA
331
9021
  5
6E7B
331
8FF4
  5
6F98
331
1F6B
  5
70AB
331
92D1
  5
6DC6
331
8FA5
  5
6F49
331
8F78
  5
6F1C
331
91F5
  5
6D22
331
9222
  5
6D4F
331
8F29
  5
707B
331
9119
  5
6E0F
331
8E5F
  5
6FF2
331
9017
  5
6E71
331
903C
  5
6E96
331
1F61
  5
70A1
331
8FC0
  5
6F64
331
8F9B
  5
6F3F
331
92A5
  5
6D9A
331
9218
  5
6D45
331
8F44
  5
6EE8
331
91C9
  5
6E55
331
913C
  5
6E32
331
8EA8
  5
703B
331
8E82
  5
7015
331
905F
  5
6EB9
331
8FE3
  5
6F87
331
92C0
  5
6DB5
331
8F67
  5
6F0B
331
91E4
  5
6D11
331
91BF
  5
6E4B
331
8ECB
  5
7054
331
9108
  5
6DFE
331
8EA5
  5
7038
331
90E2
  5
6ED2
331
8E29
  5
6FBC
331
9006
  5
6E60
331
1F50
  5
7090
331
92E3
  5
6DD8
331
8F8A
  5
6F2E
331
8F5D
  5
6F01
331
9207
  5
6D34
331
8EFE
  5
706A
331
912B
  5
6E21
331
9105
  5
6DFB
331
8E71
  5
7004
331
8E44
  5
6FD7
331
9029
  5
6E83
331
8FAD
  5
6F51
331
922A
  5
6D57
331
91FD
  5
6D2A
331
8F31
  5
7083
331
9121
  5
6E17
331
8E94
  5
7027
331
8E67
  5
6FFA
331
9044
  5
6E9E
331
8E18
  5
6FAB
331
8FC8
  5
6F6C
331
92AD
  5
6DA2
331
8F4C
  5
6EF0
331
8F27
  5
7079
331
9144
  5
6E3A
331
91D1
  5
6CFE
331
8EB0
  5
7043
331
8E8A
  5
701D
331
90F4
  5
6DEA
331
8E33
  5
6FC6
331
8E0E
  5
6FA1
331
9018
  5
6E72
331
8FEB
  5
6F8F
331
92C8
  5
6DBD
331
8F6F
  5
6F13
331
91EC
  5
6D19
331
91C7
  5
6E53
331
8ED3
  5
705C
331
9110
  5
6E06
331
90EA
  5
6DE0
331
8E56
  5
6FE9
331
9033
  5
6E8D
331
900E
  5
6E68
331
1F58
  5
7098
331
8F92
  5
6F36
331
920F
  5
6D3C
331
8F06
  5
7072
331
9133
  5
6E29
331
8E79
  5
700C
331
8E4C
  5
6FDF
331
9056
  5
6EB0
331
8FB5
  5
6F59
331
8FDA
  5
6F7E
331
9232
  5
6D78
331
8F39
  5
708B
331
8E6F
  5
7002
331
8E9C
  5
702F
331
90D9
  5
6EC9
331
904C
  5
6EA6
331
8E20
  5
6FB3
331
8FFD
  5
6EDC
331
8FD0
  5
6F74
331
92DA
  5
6DCF
331
92B5
  5
6DAA
331
8F81
  5
6F25
331
8F54
  5
6EF8
331
91D9
  5
6D06
331
8EB8
  5
704B
331
90FC
  5
6DF2
331
8E3B
  5
6FCE
331
8E16
  5
6FA9
331
8FF3
  5
6F97
331
9020
  5
6E7A
331
1F6A
  5
70AA
331
92D0
  5
6DC5
331
8FA4
  5
6F48
331
8F77
  5
6F1B
331
9221
  5
6D4E
331
91F4
  5
6D21
331
8F28
  5
707A
331
9118
  5
6E0E
331
8E5E
  5
6FF1
331
903B
  5
6E95
331
9016
  5
6E70
331
1F60
  5
70A0
331
8FBF
  5
6F63
331
8F9A
  5
6F3E
331
9217
  5
6D44
331
92A4
  5
6D99
331
8F43
  5
6EE7
331
91C8
  5
6E54
331
913B
  5
6E31
331
8E81
  5
7014
331
905E
  5
6EB8
331
8FE2
  5
6F86
331
92BF
  5
6DB4
331
926A
  5
6D95
331
8F66
  5
6F0A
331
91E3
  5
6D10
331
91BE
  5
6E4A
331
8ECA
  5
7053
331
8EA4
  5
7037
331
90E1
  5
6ED1
331
8E28
  5
6FBB
331
9005
  5
6E5F
331
1F4F
  5
708F
331
92E2
  5
6DD7
331
8F89
  5
6F2D
331
8F5C
  5
6F00
331
9206
  5
6D33
331
8EC0
  5
704E
331
8EFD
  5
7069
331
912A
  5
6E20
331
9104
  5
6DFA
331
8E70
  5
7003
331
8E43
  5
6FD6
331
9028
  5
6E82
331
8FAC
  5
6F50
331
8F7F
  5
6F23
331
9229
  5
6D56
331
91FC
  5
6D29
331
8F30
  5
7082
331
9120
  5
6E16
331
8E93
  5
7026
331
8E66
  5
6FF9
331
9043
  5
6E9D
331
8FC7
  5
6F6B
331
92AC
  5
6DA1
331
921F
  5
6D4C
331
8F26
  5
7078
331
8F4B
  5
6EEF
331
91D0
  5
6CFD
331
9143
  5
6E39
331
8EAF
  5
7042
331
8E89
  5
701C
331
90F3
  5
6DE9
331
8E32
  5
6FC5
331
8E0D
  5
6FA0
331
8FEA
  5
6F8E
331
92C7
  5
6DBC
331
8F6E
  5
6F12
331
91C6
  5
6E52
331
91EB
  5
6D18
331
8ED2
  5
705B
331
910F
  5
6E05
331
90E9
  5
6DDF
331
8E55
  5
6FE8
331
9032
  5
6E8C
331
900D
  5
6E67
331
1F57
  5
7097
331
8F91
  5
6F35
331
920E
  5
6D3B
331
8F05
  5
7071
331
9132
  5
6E28
331
8E78
  5
700B
331
8E4B
  5
6FDE
  0
LAYOUT
  5
21
102
{ACAD_XDICTIONARY
360
B928
102
}
102
{ACAD_REACTORS
330
1E
102
}
330
1E
100
AcDbPlotSettings
  1

  2

  4

  6

 40
0.0
 41
0.0
 42
0.0
 43
0.0
 44
0.0
 45
0.0
 46
0.0
 47
0.0
 48
0.0
 49
0.0
140
0.0
141
0.0
142
1.0
143
1.0
 70
     0
 72
     0
 73
     0
 74
     0
  7

 75
     0
147
1.0
148
0.0
149
0.0
100
AcDbLayout
  1
Layout1
 70
     0
 71
     1
 10
0.0
 20
0.0
 11
12.0
 21
9.0
 12
0.0
 22
0.0
 32
0.0
 14
1.000000000000000E+20
 24
1.000000000000000E+20
 34
1.000000000000000E+20
 15
-1.000000000000000E+20
 25
-1.000000000000000E+20
 35
-1.000000000000000E+20
146
0.0
 13
0.0
 23
0.0
 33
0.0
 16
1.0
 26
0.0
 36
0.0
 17
0.0
 27
1.0
 37
0.0
 76
     0
330
B
  0
LAYOUT
  5
20
102
{ACAD_XDICTIONARY
360
B926
102
}
102
{ACAD_REACTORS
330
1E
102
}
330
1E
100
AcDbPlotSettings
  1

  2

  4

  6

 40
0.0
 41
0.0
 42
0.0
 43
0.0
 44
0.0
 45
0.0
 46
0.0
 47
0.0
 48
0.0
 49
0.0
140
0.0
141
0.0
142
1.0
143
1.0
 70
  1024
 72
     0
 73
     0
 74
     0
  7

 75
     0
147
1.0
148
0.0
149
0.0
100
AcDbLayout
  1
Model
 70
     0
 71
     0
 10
0.0
 20
0.0
 11
0.0
 21
0.0
 12
0.0
 22
0.0
 32
0.0
 14
0.0
 24
0.0
 34
0.0
 15
0.0
 25
0.0
 35
0.0
146
0.0
 13
0.0
 23
0.0
 33
0.0
 16
0.0
 26
0.0
 36
0.0
 17
0.0
 27
0.0
 37
0.0
 76
     0
330
A
331
15
  0
MATERIAL
  5
5808
102
{ACAD_XDICTIONARY
360
5809
102
}
102
{ACAD_REACTORS
330
57FF
102
}
330
57FF
100
AcDbMaterial
  1
ByBlock
 72
     0
 43
0.0208333333333333
 43
0.0
 43
0.0
 43
0.0
 43
0.0
 43
0.0208333333333333
 43
0.0
 43
0.0
 43
0.0
 43
0.0
 43
1.0
 43
0.0
 43
0.0
 43
0.0
 43
0.0
 43
1.0
 77
     0
 47
0.0208333333333333
 47
0.0
 47
0.0
 47
0.0
 47
0.0
 47
0.0208333333333333
 47
0.0
 47
0.0
 47
0.0
 47
0.0
 47
1.0
 47
0.0
 47
0.0
 47
0.0
 47
0.0
 47
1.0
171
     0
 49
0.0208333333333333
 49
0.0
 49
0.0
 49
0.0
 49
0.0
 49
0.0208333333333333
 49
0.0
 49
0.0
 49
0.0
 49
0.0
 49
1.0
 49
0.0
 49
0.0
 49
0.0
 49
0.0
 49
1.0
175
     0
142
0.0208333333333333
142
0.0
142
0.0
142
0.0
142
0.0
142
0.0208333333333333
142
0.0
142
0.0
142
0.0
142
0.0
142
1.0
142
0.0
142
0.0
142
0.0
142
0.0
142
1.0
179
     0
144
0.0208333333333333
144
0.0
144
0.0
144
0.0
144
0.0
144
0.0208333333333333
144
0.0
144
0.0
144
0.0
144
0.0
144
1.0
144
0.0
144
0.0
144
0.0
144
0.0
144
1.0
147
0.0208333333333333
147
0.0
147
0.0
147
0.0
147
0.0
147
0.0208333333333333
147
0.0
147
0.0
147
0.0
147
0.0
147
1.0
147
0.0
147
0.0
147
0.0
147
0.0
147
1.0
  0
MATERIAL
  5
5800
102
{ACAD_XDICTIONARY
360
5801
102
}
102
{ACAD_REACTORS
330
57FF
102
}
330
57FF
100
AcDbMaterial
  1
ByLayer
 72
     0
 43
0.0208333333333333
 43
0.0
 43
0.0
 43
0.0
 43
0.0
 43
0.0208333333333333
 43
0.0
 43
0.0
 43
0.0
 43
0.0
 43
1.0
 43
0.0
 43
0.0
 43
0.0
 43
0.0
 43
1.0
 77
     0
 47
0.0208333333333333
 47
0.0
 47
0.0
 47
0.0
 47
0.0
 47
0.0208333333333333
 47
0.0
 47
0.0
 47
0.0
 47
0.0
 47
1.0
 47
0.0
 47
0.0
 47
0.0
 47
0.0
 47
1.0
171
     0
 49
0.0208333333333333
 49
0.0
 49
0.0
 49
0.0
 49
0.0
 49
0.0208333333333333
 49
0.0
 49
0.0
 49
0.0
 49
0.0
 49
1.0
 49
0.0
 49
0.0
 49
0.0
 49
0.0
 49
1.0
175
     0
142
0.0208333333333333
142
0.0
142
0.0
142
0.0
142
0.0
142
0.0208333333333333
142
0.0
142
0.0
142
0.0
142
0.0
142
1.0
142
0.0
142
0.0
142
0.0
142
0.0
142
1.0
179
     0
144
0.0208333333333333
144
0.0
144
0.0
144
0.0
144
0.0
144
0.0208333333333333
144
0.0
144
0.0
144
0.0
144
0.0
144
1.0
144
0.0
144
0.0
144
0.0
144
0.0
144
1.0
147
0.0208333333333333
147
0.0
147
0.0
147
0.0
147
0.0
147
0.0208333333333333
147
0.0
147
0.0
147
0.0
147
0.0
147
1.0
147
0.0
147
0.0
147
0.0
147
0.0
147
1.0
  0
MATERIAL
  5
5810
102
{ACAD_XDICTIONARY
360
5811
102
}
102
{ACAD_REACTORS
330
57FF
102
}
330
57FF
100
AcDbMaterial
  1
Global
 72
     0
 43
0.0208333333333333
 43
0.0
 43
0.0
 43
0.0
 43
0.0
 43
0.0208333333333333
 43
0.0
 43
0.0
 43
0.0
 43
0.0
 43
1.0
 43
0.0
 43
0.0
 43
0.0
 43
0.0
 43
1.0
 77
     0
 47
0.0208333333333333
 47
0.0
 47
0.0
 47
0.0
 47
0.0
 47
0.0208333333333333
 47
0.0
 47
0.0
 47
0.0
 47
0.0
 47
1.0
 47
0.0
 47
0.0
 47
0.0
 47
0.0
 47
1.0
171
     0
 49
0.0208333333333333
 49
0.0
 49
0.0
 49
0.0
 49
0.0
 49
0.0208333333333333
 49
0.0
 49
0.0
 49
0.0
 49
0.0
 49
1.0
 49
0.0
 49
0.0
 49
0.0
 49
0.0
 49
1.0
175
     0
142
0.0208333333333333
142
0.0
142
0.0
142
0.0
142
0.0
142
0.0208333333333333
142
0.0
142
0.0
142
0.0
142
0.0
142
1.0
142
0.0
142
0.0
142
0.0
142
0.0
142
1.0
179
     0
144
0.0208333333333333
144
0.0
144
0.0
144
0.0
144
0.0
144
0.0208333333333333
144
0.0
144
0.0
144
0.0
144
0.0
144
1.0
144
0.0
144
0.0
144
0.0
144
0.0
144
1.0
147
0.0208333333333333
147
0.0
147
0.0
147
0.0
147
0.0
147
0.0208333333333333
147
0.0
147
0.0
147
0.0
147
0.0
147
1.0
147
0.0
147
0.0
147
0.0
147
0.0
147
1.0
  0
MLEADERSTYLE
  5
584F
102
{ACAD_REACTORS
330
584E
102
}
330
584E
100
AcDbMLeaderStyle
170
     2
171
     1
172
     0
 90
        2
 40
0.0
 41
0.0
173
     1
 91
-1056964608
340
11
 92
       -2
290
     1
 42
2.0
291
     1
 43
0.36
  3
Standard
 44
4.0
300

342
17
174
     1
178
     6
175
     1
176
     0
 93
-1056964608
 45
4.0
292
     0
297
     0
 46
4.0
 94
-1056964608
 47
1.0
 49
1.0
140
1.0
293
     1
141
0.0
294
     1
177
     0
142
1.0
295
     0
296
     0
143
0.125
1001
ACAD_MLEADERVER
1070
     2
  0
MLINESTYLE
  5
1C
102
{ACAD_REACTORS
330
1B
102
}
330
1B
100
AcDbMlineStyle
  2
STANDARD
 70
     0
  3

 62
     0
 51
90.0
 52
90.0
 71
     2
 49
0.5
 62
   256
  6
BYLAYER
 49
-0.5
 62
   256
  6
BYLAYER
  0
ACDBPLACEHOLDER
  5
1D
102
{ACAD_REACTORS
330
1F
102
}
330
1F
  0
SCALE
  5
582D
102
{ACAD_REACTORS
330
582C
102
}
330
582C
100
AcDbScale
 70
     0
300
1:1
140
1.0
141
1.0
290
     1
  0
SCALE
  5
582E
102
{ACAD_REACTORS
330
582C
102
}
330
582C
100
AcDbScale
 70
     0
300
1:2
140
1.0
141
2.0
290
     0
  0
SCALE
  5
582F
102
{ACAD_REACTORS
330
582C
102
}
330
582C
100
AcDbScale
 70
     0
300
1:4
140
1.0
141
4.0
290
     0
  0
SCALE
  5
5830
102
{ACAD_REACTORS
330
582C
102
}
330
582C
100
AcDbScale
 70
     0
300
1:5
140
1.0
141
5.0
290
     0
  0
SCALE
  5
5831
102
{ACAD_REACTORS
330
582C
102
}
330
582C
100
AcDbScale
 70
     0
300
1:8
140
1.0
141
8.0
290
     0
  0
SCALE
  5
5832
102
{ACAD_REACTORS
330
582C
102
}
330
582C
100
AcDbScale
 70
     0
300
1:10
140
1.0
141
10.0
290
     0
  0
SCALE
  5
5833
102
{ACAD_REACTORS
330
582C
102
}
330
582C
100
AcDbScale
 70
     0
300
1:16
140
1.0
141
16.0
290
     0
  0
SCALE
  5
5834
102
{ACAD_REACTORS
330
582C
102
}
330
582C
100
AcDbScale
 70
     0
300
1:20
140
1.0
141
20.0
290
     0
  0
SCALE
  5
5835
102
{ACAD_REACTORS
330
582C
102
}
330
582C
100
AcDbScale
 70
     0
300
1:30
140
1.0
141
30.0
290
     0
  0
SCALE
  5
5836
102
{ACAD_REACTORS
330
582C
102
}
330
582C
100
AcDbScale
 70
     0
300
1:40
140
1.0
141
40.0
290
     0
  0
SCALE
  5
5837
102
{ACAD_REACTORS
330
582C
102
}
330
582C
100
AcDbScale
 70
     0
300
1:50
140
1.0
141
50.0
290
     0
  0
SCALE
  5
5838
102
{ACAD_REACTORS
330
582C
102
}
330
582C
100
AcDbScale
 70
     0
300
1:100
140
1.0
141
100.0
290
     0
  0
SCALE
  5
5839
102
{ACAD_REACTORS
330
582C
102
}
330
582C
100
AcDbScale
 70
     0
300
2:1
140
2.0
141
1.0
290
     0
  0
SCALE
  5
583A
102
{ACAD_REACTORS
330
582C
102
}
330
582C
100
AcDbScale
 70
     0
300
4:1
140
4.0
141
1.0
290
     0
  0
SCALE
  5
583B
102
{ACAD_REACTORS
330
582C
102
}
330
582C
100
AcDbScale
 70
     0
300
8:1
140
8.0
141
1.0
290
     0
  0
SCALE
  5
583C
102
{ACAD_REACTORS
330
582C
102
}
330
582C
100
AcDbScale
 70
     0
300
10:1
140
10.0
141
1.0
290
     0
  0
SCALE
  5
583D
102
{ACAD_REACTORS
330
582C
102
}
330
582C
100
AcDbScale
 70
     0
300
100:1
140
100.0
141
1.0
290
     0
  0
SCALE
  5
583E
102
{ACAD_REACTORS
330
582C
102
}
330
582C
100
AcDbScale
 70
     0
300
1/128" = 1'-0"
140
0.0078125
141
12.0
290
     0
  0
SCALE
  5
583F
102
{ACAD_REACTORS
330
582C
102
}
330
582C
100
AcDbScale
 70
     0
300
1/64" = 1'-0"
140
0.015625
141
12.0
290
     0
  0
SCALE
  5
5840
102
{ACAD_REACTORS
330
582C
102
}
330
582C
100
AcDbScale
 70
     0
300
1/32" = 1'-0"
140
0.03125
141
12.0
290
     0
  0
SCALE
  5
5841
102
{ACAD_REACTORS
330
582C
102
}
330
582C
100
AcDbScale
 70
     0
300
1/16" = 1'-0"
140
0.0625
141
12.0
290
     0
  0
SCALE
  5
5842
102
{ACAD_REACTORS
330
582C
102
}
330
582C
100
AcDbScale
 70
     0
300
3/32" = 1'-0"
140
0.09375
141
12.0
290
     0
  0
SCALE
  5
5843
102
{ACAD_REACTORS
330
582C
102
}
330
582C
100
AcDbScale
 70
     0
300
1/8" = 1'-0"
140
0.125
141
12.0
290
     0
  0
SCALE
  5
5844
102
{ACAD_REACTORS
330
582C
102
}
330
582C
100
AcDbScale
 70
     0
300
3/16" = 1'-0"
140
0.1875
141
12.0
290
     0
  0
SCALE
  5
5845
102
{ACAD_REACTORS
330
582C
102
}
330
582C
100
AcDbScale
 70
     0
300
1/4" = 1'-0"
140
0.25
141
12.0
290
     0
  0
SCALE
  5
5846
102
{ACAD_REACTORS
330
582C
102
}
330
582C
100
AcDbScale
 70
     0
300
3/8" = 1'-0"
140
0.375
141
12.0
290
     0
  0
SCALE
  5
5847
102
{ACAD_REACTORS
330
582C
102
}
330
582C
100
AcDbScale
 70
     0
300
1/2" = 1'-0"
140
0.5
141
12.0
290
     0
  0
SCALE
  5
5848
102
{ACAD_REACTORS
330
582C
102
}
330
582C
100
AcDbScale
 70
     0
300
3/4" = 1'-0"
140
0.75
141
12.0
290
     0
  0
SCALE
  5
5849
102
{ACAD_REACTORS
330
582C
102
}
330
582C
100
AcDbScale
 70
     0
300
1" = 1'-0"
140
1.0
141
12.0
290
     0
  0
SCALE
  5
584A
102
{ACAD_REACTORS
330
582C
102
}
330
582C
100
AcDbScale
 70
     0
300
1-1/2" = 1'-0"
140
1.5
141
12.0
290
     0
  0
SCALE
  5
584B
102
{ACAD_REACTORS
330
582C
102
}
330
582C
100
AcDbScale
 70
     0
300
3" = 1'-0"
140
3.0
141
12.0
290
     0
  0
SCALE
  5
584C
102
{ACAD_REACTORS
330
582C
102
}
330
582C
100
AcDbScale
 70
     0
300
6" = 1'-0"
140
6.0
141
12.0
290
     0
  0
SCALE
  5
584D
102
{ACAD_REACTORS
330
582C
102
}
330
582C
100
AcDbScale
 70
     0
300
1'-0" = 1'-0"
140
12.0
141
12.0
290
     0
  0
TABLESTYLE
  5
582B
102
{ACAD_XDICTIONARY
360
AB8E
102
}
102
{ACAD_REACTORS
330
582A
102
}
330
582A
100
AcDbTableStyle
  3
Standard
 70
     0
 71
     0
 40
1.5
 41
1.5
280
     0
281
     0
  7
Standard
140
4.5
170
     2
 62
     0
 63
     7
283
     0
274
    -2
284
     1
 64
     0
275
    -2
285
     1
 65
     0
276
    -2
286
     1
 66
     0
277
    -2
287
     1
 67
     0
278
    -2
288
     1
 68
     0
279
    -2
289
     1
 69
     0
  7
Standard
140
6.0
170
     5
 62
     0
 63
     7
283
     0
274
    -2
284
     1
 64
     0
275
    -2
285
     1
 65
     0
276
    -2
286
     1
 66
     0
277
    -2
287
     1
 67
     0
278
    -2
288
     1
 68
     0
279
    -2
289
     1
 69
     0
  7
Standard
140
4.5
170
     5
 62
     0
 63
     7
283
     0
274
    -2
284
     1
 64
     0
275
    -2
285
     1
 65
     0
276
    -2
286
     1
 66
     0
277
    -2
287
     1
 67
     0
278
    -2
288
     1
 68
     0
279
    -2
289
     1
 69
     0
  0
VISUALSTYLE
  5
581E
102
{ACAD_REACTORS
330
5818
102
}
330
5818
100
AcDbVisualStyle
  2
2dWireframe
 70
     4
 71
     0
 72
     2
 73
     0
 90
        0
 40
-0.6
 41
-30.0
 62
     5
 63
     7
 74
     1
 91
        4
 64
     7
 65
   257
 75
     1
175
     1
 42
1.0
 92
        0
 66
   257
 43
1.0
 76
     1
 77
     6
 78
     2
 67
     7
 79
     5
170
     0
171
     0
290
     0
174
     0
 93
        1
 44
0.0
173
     0
291
     0
 45
0.0
1001
ACAD
1000
AcDbSavedByObjectVersion
1070
     0
1000
AcDbSavedByObjectVersion
1070
     0
1000
AcDbSavedByObjectVersion
1070
     0
  0
VISUALSTYLE
  5
5820
102
{ACAD_REACTORS
330
5818
102
}
330
5818
100
AcDbVisualStyle
  2
3D Hidden
 70
     6
 71
     1
 72
     2
 73
     2
 90
        0
 40
-0.6
 41
-30.0
 62
     5
 63
     7
 74
     2
 91
        2
 64
     7
 65
   257
 75
     2
175
     1
 42
40.0
 92
        0
 66
   257
 43
1.0
 76
     1
 77
     6
 78
     2
 67
     7
 79
     3
170
     0
171
     0
290
     0
174
     0
 93
        1
 44
0.0
173
     0
291
     0
 45
0.0
1001
ACAD
1000
AcDbSavedByObjectVersion
1070
     0
1000
AcDbSavedByObjectVersion
1070
     0
1000
AcDbSavedByObjectVersion
1070
     0
  0
VISUALSTYLE
  5
581F
102
{ACAD_REACTORS
330
5818
102
}
330
5818
100
AcDbVisualStyle
  2
3dWireframe
 70
     5
 71
     0
 72
     2
 73
     0
 90
        0
 40
-0.6
 41
-30.0
 62
     5
 63
     7
 74
     1
 91
        4
 64
     7
 65
   257
 75
     1
175
     1
 42
1.0
 92
        0
 66
   257
 43
1.0
 76
     1
 77
     6
 78
     2
 67
     7
 79
     5
170
     0
171
     0
290
     0
174
     0
 93
        1
 44
0.0
173
     0
291
     0
 45
0.0
1001
ACAD
1000
AcDbSavedByObjectVersion
1070
     0
1000
AcDbSavedByObjectVersion
1070
     0
1000
AcDbSavedByObjectVersion
1070
     0
  0
VISUALSTYLE
  5
581D
102
{ACAD_REACTORS
330
5818
102
}
330
5818
100
AcDbVisualStyle
  2
Basic
 70
     7
 71
     1
 72
     0
 73
     1
 90
        0
 40
-0.6
 41
-30.0
 62
     5
 63
     7
 74
     0
 91
        4
 64
     7
 65
   257
 75
     1
175
     1
 42
1.0
 92
        8
 66
     7
 43
1.0
 76
     1
 77
     6
 78
     2
 67
     7
 79
     5
170
     0
171
     0
290
     0
174
     0
 93
        1
 44
0.0
173
     0
291
     1
 45
0.0
1001
ACAD
1000
AcDbSavedByObjectVersion
1070
     0
1000
AcDbSavedByObjectVersion
1070
     0
1000
AcDbSavedByObjectVersion
1070
     0
  0
VISUALSTYLE
  5
5824
102
{ACAD_REACTORS
330
5818
102
}
330
5818
100
AcDbVisualStyle
  2
Brighten
 70
    12
 71
     2
 72
     2
 73
     0
 90
        0
 40
-0.6
 41
-30.0
 62
     5
 63
     7
 74
     1
 91
        4
 64
     7
 65
   257
 75
     1
175
     1
 42
1.0
 92
        8
 66
     7
 43
1.0
 76
     1
 77
     6
 78
     2
 67
     7
 79
     5
170
     0
171
     0
290
     0
174
     0
 93
        1
 44
50.0
173
     0
291
     1
 45
0.0
1001
ACAD
1000
AcDbSavedByObjectVersion
1070
     0
1000
AcDbSavedByObjectVersion
1070
     0
1000
AcDbSavedByObjectVersion
1070
     0
  0
VISUALSTYLE
  5
5828
102
{ACAD_REACTORS
330
5818
102
}
330
5818
100
AcDbVisualStyle
  2
ColorChange
 70
    16
 71
     2
 72
     2
 73
     3
 90
        0
 40
-0.6
 41
-30.0
 62
     5
 63
     8
 74
     1
 91
        4
 64
     7
 65
   257
 75
     1
175
     1
 42
1.0
 92
        8
 66
     8
 43
1.0
 76
     1
 77
     6
 78
     2
 67
     7
 79
     5
170
     0
171
     0
290
     0
174
     0
 93
        1
 44
0.0
173
     0
291
     1
 45
0.0
1001
ACAD
1000
AcDbSavedByObjectVersion
1070
     0
1000
AcDbSavedByObjectVersion
1070
     0
1000
AcDbSavedByObjectVersion
1070
     0
  0
VISUALSTYLE
  5
5821
102
{ACAD_REACTORS
330
5818
102
}
330
5818
100
AcDbVisualStyle
  2
Conceptual
 70
     9
 71
     3
 72
     2
 73
     0
 90
        0
 40
-0.6
 41
-30.0
 62
     5
 63
     7
 74
     2
 91
        2
 64
     7
 65
   257
 75
     1
175
     1
 42
40.0
 92
        8
 66
     7
 43
1.0
 76
     1
 77
     6
 78
     2
 67
     7
 79
     3
170
     0
171
     0
290
     0
174
     0
 93
        1
 44
0.0
173
     0
291
     0
 45
0.0
1001
ACAD
1000
AcDbSavedByObjectVersion
1070
     0
1000
AcDbSavedByObjectVersion
1070
     0
1000
AcDbSavedByObjectVersion
1070
     0
  0
VISUALSTYLE
  5
5823
102
{ACAD_REACTORS
330
5818
102
}
330
5818
100
AcDbVisualStyle
  2
Dim
 70
    11
 71
     2
 72
     2
 73
     0
 90
        0
 40
-0.6
 41
-30.0
 62
     5
 63
     7
 74
     1
 91
        4
 64
     7
 65
   257
 75
     1
175
     1
 42
1.0
 92
        8
 66
     7
 43
1.0
 76
     1
 77
     6
 78
     2
 67
     7
 79
     5
170
     0
171
     0
290
     0
174
     0
 93
        1
 44
-50.0
173
     0
291
     1
 45
0.0
1001
ACAD
1000
AcDbSavedByObjectVersion
1070
     0
1000
AcDbSavedByObjectVersion
1070
     0
1000
AcDbSavedByObjectVersion
1070
     0
  0
VISUALSTYLE
  5
5827
102
{ACAD_REACTORS
330
5818
102
}
330
5818
100
AcDbVisualStyle
  2
Facepattern
 70
    15
 71
     2
 72
     2
 73
     0
 90
        0
 40
-0.6
 41
-30.0
 62
     5
 63
     7
 74
     1
 91
        4
 64
     7
 65
   257
 75
     1
175
     1
 42
1.0
 92
        8
 66
     7
 43
1.0
 76
     1
 77
     6
 78
     2
 67
     7
 79
     5
170
     0
171
     0
290
     0
174
     0
 93
        1
 44
0.0
173
     0
291
     1
 45
0.0
1001
ACAD
1000
AcDbSavedByObjectVersion
1070
     0
1000
AcDbSavedByObjectVersion
1070
     0
1000
AcDbSavedByObjectVersion
1070
     0
  0
VISUALSTYLE
  5
5819
102
{ACAD_REACTORS
330
5818
102
}
330
5818
100
AcDbVisualStyle
  2
Flat
 70
     0
 71
     2
 72
     1
 73
     1
 90
        2
 40
-0.6
 41
30.0
 62
     5
 63
     7
 74
     0
 91
        4
 64
     7
 65
   257
 75
     1
175
     1
 42
1.0
 92
        8
 66
     7
 43
1.0
 76
     1
 77
     6
 78
     2
 67
     7
 79
     5
170
     0
171
     0
290
     0
174
     0
 93
       13
 44
0.0
173
     0
291
     1
 45
0.0
1001
ACAD
1000
AcDbSavedByObjectVersion
1070
     0
1000
AcDbSavedByObjectVersion
1070
     0
1000
AcDbSavedByObjectVersion
1070
     0
  0
VISUALSTYLE
  5
581A
102
{ACAD_REACTORS
330
5818
102
}
330
5818
100
AcDbVisualStyle
  2
FlatWithEdges
 70
     1
 71
     2
 72
     1
 73
     1
 90
        2
 40
-0.6
 41
30.0
 62
     5
 63
     7
 74
     1
 91
        4
 64
     7
 65
   257
 75
     1
175
     1
 42
1.0
 92
        0
 66
   257
 43
1.0
 76
     1
 77
     6
 78
     2
 67
     7
 79
     5
170
     0
171
     0
290
     0
174
     0
 93
       13
 44
0.0
173
     0
291
     1
 45
0.0
1001
ACAD
1000
AcDbSavedByObjectVersion
1070
     0
1000
AcDbSavedByObjectVersion
1070
     0
1000
AcDbSavedByObjectVersion
1070
     0
  0
VISUALSTYLE
  5
581B
102
{ACAD_REACTORS
330
5818
102
}
330
5818
100
AcDbVisualStyle
  2
Gouraud
 70
     2
 71
     2
 72
     2
 73
     1
 90
        2
 40
-0.6
 41
30.0
 62
     5
 63
     7
 74
     0
 91
        4
 64
     7
 65
   257
 75
     1
175
     1
 42
1.0
 92
        0
 66
     7
 43
1.0
 76
     1
 77
     6
 78
     2
 67
     7
 79
     5
170
     0
171
     0
290
     0
174
     0
 93
       13
 44
0.0
173
     0
291
     1
 45
0.0
1001
ACAD
1000
AcDbSavedByObjectVersion
1070
     0
1000
AcDbSavedByObjectVersion
1070
     0
1000
AcDbSavedByObjectVersion
1070
     0
  0
VISUALSTYLE
  5
581C
102
{ACAD_REACTORS
330
5818
102
}
330
5818
100
AcDbVisualStyle
  2
GouraudWithEdges
 70
     3
 71
     2
 72
     2
 73
     1
 90
        2
 40
-0.6
 41
30.0
 62
     5
 63
     7
 74
     1
 91
        4
 64
     7
 65
   257
 75
     1
175
     1
 42
1.0
 92
        0
 66
   257
 43
1.0
 76
     1
 77
     6
 78
     2
 67
     7
 79
     5
170
     0
171
     0
290
     0
174
     0
 93
       13
 44
0.0
173
     0
291
     1
 45
0.0
1001
ACAD
1000
AcDbSavedByObjectVersion
1070
     0
1000
AcDbSavedByObjectVersion
1070
     0
1000
AcDbSavedByObjectVersion
1070
     0
  0
VISUALSTYLE
  5
5826
102
{ACAD_REACTORS
330
5818
102
}
330
5818
100
AcDbVisualStyle
  2
Linepattern
 70
    14
 71
     2
 72
     2
 73
     0
 90
        0
 40
-0.6
 41
-30.0
 62
     5
 63
     7
 74
     1
 91
        4
 64
     7
 65
   257
 75
     7
175
     7
 42
1.0
 92
        8
 66
     7
 43
1.0
 76
     1
 77
     6
 78
     2
 67
     7
 79
     5
170
     0
171
     0
290
     0
174
     0
 93
        1
 44
0.0
173
     0
291
     1
 45
0.0
1001
ACAD
1000
AcDbSavedByObjectVersion
1070
     0
1000
AcDbSavedByObjectVersion
1070
     0
1000
AcDbSavedByObjectVersion
1070
     0
  0
VISUALSTYLE
  5
5822
102
{ACAD_REACTORS
330
5818
102
}
330
5818
100
AcDbVisualStyle
  2
Realistic
 70
     8
 71
     2
 72
     2
 73
     0
 90
        0
 40
-0.6
 41
-30.0
 62
     5
 63
     7
 74
     1
 91
        0
 64
     7
 65
   257
 75
     1
175
     1
 42
1.0
 92
        8
 66
     8
 43
1.0
 76
     1
 77
     6
 78
     2
 67
     7
 79
     5
170
     0
171
     0
290
     0
174
     0
 93
       13
 44
0.0
173
     0
291
     0
 45
0.0
1001
ACAD
1000
AcDbSavedByObjectVersion
1070
     0
1000
AcDbSavedByObjectVersion
1070
     0
1000
AcDbSavedByObjectVersion
1070
     0
  0
VISUALSTYLE
  5
5825
102
{ACAD_REACTORS
330
5818
102
}
330
5818
100
AcDbVisualStyle
  2
Thicken
 70
    13
 71
     2
 72
     2
 73
     0
 90
        0
 40
-0.6
 41
-30.0
 62
     5
 63
     7
 74
     1
 91
        4
 64
     7
 65
   257
 75
     1
175
     1
 42
1.0
 92
       12
 66
     7
 43
1.0
 76
     1
 77
     6
 78
     2
 67
     7
 79
     5
170
     0
171
     0
290
     0
174
     0
 93
        1
 44
0.0
173
     0
291
     1
 45
0.0
1001
ACAD
1000
AcDbSavedByObjectVersion
1070
     0
1000
AcDbSavedByObjectVersion
1070
     0
1000
AcDbSavedByObjectVersion
1070
     0
  0
DICTIONARYVAR
  5
AB95
102
{ACAD_REACTORS
330
AB91
102
}
330
AB91
100
DictionaryVariables
280
     0
  1
1:1
  0
DICTIONARYVAR
  5
AB93
102
{ACAD_REACTORS
330
AB91
102
}
330
AB91
100
DictionaryVariables
280
     0
  1
STANDARD
  0
DICTIONARYVAR
  5
AB92
102
{ACAD_REACTORS
330
AB91
102
}
330
AB91
100
DictionaryVariables
280
     0
  1
STANDARD
  0
DICTIONARYVAR
  5
B616
102
{ACAD_REACTORS
330
AB91
102
}
330
AB91
100
DictionaryVariables
280
     0
  1
1
  0
DICTIONARYVAR
  5
B615
102
{ACAD_REACTORS
330
AB91
102
}
330
AB91
100
DictionaryVariables
280
     0
  1
0
  0
DICTIONARYVAR
  5
AB96
102
{ACAD_REACTORS
330
AB91
102
}
330
AB91
100
DictionaryVariables
280
     0
  1
0
  0
DICTIONARYVAR
  5
AB94
102
{ACAD_REACTORS
330
AB91
102
}
330
AB91
100
DictionaryVariables
280
     0
  1
0
  0
DICTIONARYVAR
  5
B614
102
{ACAD_REACTORS
330
AB91
102
}
330
AB91
100
DictionaryVariables
280
     0
  1
127
  0
XRECORD
  5
B60D
102
{ACAD_REACTORS
330
B60C
102
}
330
B60C
100
AcDbXrecord
280
     1
  0
DICTIONARY
  5
B928
330
21
100
AcDbDictionary
280
     1
281
     1
  3
ACAD_XREC_ROUNDTRIP
360
B929
  0
DICTIONARY
  5
B926
330
20
100
AcDbDictionary
280
     1
281
     1
  3
ACAD_XREC_ROUNDTRIP
360
B927
  0
DICTIONARY
  5
5809
330
5808
100
AcDbDictionary
280
     1
281
     1
  3
ACAD_XREC_ROUNDTRIP
360
B61E
  3
BUMPTILE
360
580B
  3
DIFFUSETILE
360
580A
  3
OPACITYTILE
360
580E
  3
REFLECTIONTILE
360
580D
  3
REFRACTIONTILE
360
580F
  3
SPECULARTILE
360
580C
  0
DICTIONARY
  5
5801
330
5800
100
AcDbDictionary
280
     1
281
     1
  3
ACAD_XREC_ROUNDTRIP
360
B61D
  3
BUMPTILE
360
5803
  3
DIFFUSETILE
360
5802
  3
OPACITYTILE
360
5806
  3
REFLECTIONTILE
360
5805
  3
REFRACTIONTILE
360
5807
  3
SPECULARTILE
360
5804
  0
DICTIONARY
  5
5811
330
5810
100
AcDbDictionary
280
     1
281
     1
  3
ACAD_XREC_ROUNDTRIP
360
B61F
  3
BUMPTILE
360
5813
  3
DIFFUSETILE
360
5812
  3
OPACITYTILE
360
5816
  3
REFLECTIONTILE
360
5815
  3
REFRACTIONTILE
360
5817
  3
SPECULARTILE
360
5814
  0
DICTIONARY
  5
AB8E
330
582B
100
AcDbDictionary
280
     1
281
     1
  3
ACAD_ROUNDTRIP_2008_TABLESTYLE_CELLSTYLEMAP
360
B924
  3
ACAD_XREC_ROUNDTRIP
360
B92A
  0
XRECORD
  5
B929
102
{ACAD_REACTORS
330
B928
102
}
330
B928
100
AcDbXrecord
280
     1
102
SHADEPLOT
 70
     0
102
SHADEPLOTRESLEVEL
 70
     2
102
SHADEPLOTCUSTOMDPI
 70
   300
  0
XRECORD
  5
B927
102
{ACAD_REACTORS
330
B926
102
}
330
B926
100
AcDbXrecord
280
     1
102
SHADEPLOT
 70
     0
102
SHADEPLOTRESLEVEL
 70
     2
102
SHADEPLOTCUSTOMDPI
 70
   300
  0
XRECORD
  5
B61E
102
{ACAD_REACTORS
330
5809
102
}
330
5809
100
AcDbXrecord
280
     1
102
MATERIAL
148
0.0
149
0.0
149
0.0
 93
        0
 94
      127
282
     0
 72
     0
 77
     0
171
     0
175
     0
179
     0
273
     0
  0
XRECORD
  5
580B
102
{ACAD_REACTORS
330
5809
102
}
330
5809
100
AcDbXrecord
280
     1
270
     1
271
     1
  0
XRECORD
  5
580A
102
{ACAD_REACTORS
330
5809
102
}
330
5809
100
AcDbXrecord
280
     1
270
     1
271
     1
  0
XRECORD
  5
580E
102
{ACAD_REACTORS
330
5809
102
}
330
5809
100
AcDbXrecord
280
     1
270
     1
271
     1
  0
XRECORD
  5
580D
102
{ACAD_REACTORS
330
5809
102
}
330
5809
100
AcDbXrecord
280
     1
270
     1
271
     1
  0
XRECORD
  5
580F
102
{ACAD_REACTORS
330
5809
102
}
330
5809
100
AcDbXrecord
280
     1
270
     1
271
     1
  0
XRECORD
  5
580C
102
{ACAD_REACTORS
330
5809
102
}
330
5809
100
AcDbXrecord
280
     1
270
     1
271
     1
  0
XRECORD
  5
B61D
102
{ACAD_REACTORS
330
5801
102
}
330
5801
100
AcDbXrecord
280
     1
102
MATERIAL
148
0.0
149
0.0
149
0.0
 93
        0
 94
      127
282
     0
 72
     0
 77
     0
171
     0
175
     0
179
     0
273
     0
  0
XRECORD
  5
5803
102
{ACAD_REACTORS
330
5801
102
}
330
5801
100
AcDbXrecord
280
     1
270
     1
271
     1
  0
XRECORD
  5
5802
102
{ACAD_REACTORS
330
5801
102
}
330
5801
100
AcDbXrecord
280
     1
270
     1
271
     1
  0
XRECORD
  5
5806
102
{ACAD_REACTORS
330
5801
102
}
330
5801
100
AcDbXrecord
280
     1
270
     1
271
     1
  0
XRECORD
  5
5805
102
{ACAD_REACTORS
330
5801
102
}
330
5801
100
AcDbXrecord
280
     1
270
     1
271
     1
  0
XRECORD
  5
5807
102
{ACAD_REACTORS
330
5801
102
}
330
5801
100
AcDbXrecord
280
     1
270
     1
271
     1
  0
XRECORD
  5
5804
102
{ACAD_REACTORS
330
5801
102
}
330
5801
100
AcDbXrecord
280
     1
270
     1
271
     1
  0
XRECORD
  5
B61F
102
{ACAD_REACTORS
330
5811
102
}
330
5811
100
AcDbXrecord
280
     1
102
MATERIAL
148
0.0
149
0.0
149
0.0
 93
        0
 94
      127
282
     0
 72
     0
 77
     0
171
     0
175
     0
179
     0
273
     0
  0
XRECORD
  5
5813
102
{ACAD_REACTORS
330
5811
102
}
330
5811
100
AcDbXrecord
280
     1
270
     1
271
     1
  0
XRECORD
  5
5812
102
{ACAD_REACTORS
330
5811
102
}
330
5811
100
AcDbXrecord
280
     1
270
     1
271
     1
  0
XRECORD
  5
5816
102
{ACAD_REACTORS
330
5811
102
}
330
5811
100
AcDbXrecord
280
     1
270
     1
271
     1
  0
XRECORD
  5
5815
102
{ACAD_REACTORS
330
5811
102
}
330
5811
100
AcDbXrecord
280
     1
270
     1
271
     1
  0
XRECORD
  5
5817
102
{ACAD_REACTORS
330
5811
102
}
330
5811
100
AcDbXrecord
280
     1
270
     1
271
     1
  0
XRECORD
  5
5814
102
{ACAD_REACTORS
330
5811
102
}
330
5811
100
AcDbXrecord
280
     1
270
     1
271
     1
  0
CELLSTYLEMAP
  5
B924
102
{ACAD_REACTORS
330
AB8E
102
}
330
AB8E
100
AcDbCellStyleMap
 90
        3
300
CELLSTYLE
  1
TABLEFORMAT_BEGIN
 90
        5
170
     1
 91
        0
 92
    32768
 62
   257
 93
        1
300
CONTENTFORMAT
  1
CONTENTFORMAT_BEGIN
 90
        0
 91
        0
 92
      512
 93
        0
300

 40
0.0
140
1.0
 94
        5
 62
     0
340
17
144
6.0
309
CONTENTFORMAT_END
171
     1
301
MARGIN
  1
CELLMARGIN_BEGIN
 40
1.5
 40
1.5
 40
1.5
 40
1.5
 40
0.18
 40
0.18
309
CELLMARGIN_END
 94
        6
 95
        1
302
GRIDFORMAT
  1
GRIDFORMAT_BEGIN
 90
        0
 91
        1
 62
     0
 92
       -2
340
0
 93
        0
 40
1.125
309
GRIDFORMAT_END
 95
        2
302
GRIDFORMAT
  1
GRIDFORMAT_BEGIN
 90
        0
 91
        1
 62
     0
 92
       -2
340
0
 93
        0
 40
1.125
309
GRIDFORMAT_END
 95
        4
302
GRIDFORMAT
  1
GRIDFORMAT_BEGIN
 90
        0
 91
        1
 62
     0
 92
       -2
340
0
 93
        0
 40
1.125
309
GRIDFORMAT_END
 95
        8
302
GRIDFORMAT
  1
GRIDFORMAT_BEGIN
 90
        0
 91
        1
 62
     0
 92
       -2
340
0
 93
        0
 40
1.125
309
GRIDFORMAT_END
 95
       16
302
GRIDFORMAT
  1
GRIDFORMAT_BEGIN
 90
        0
 91
        1
 62
     0
 92
       -2
340
0
 93
        0
 40
1.125
309
GRIDFORMAT_END
 95
       32
302
GRIDFORMAT
  1
GRIDFORMAT_BEGIN
 90
        0
 91
        1
 62
     0
 92
       -2
340
0
 93
        0
 40
1.125
309
GRIDFORMAT_END
309
TABLEFORMAT_END
  1
CELLSTYLE_BEGIN
 90
        1
 91
        1
300
_TITLE
309
CELLSTYLE_END
300
CELLSTYLE
  1
TABLEFORMAT_BEGIN
 90
        5
170
     1
 91
        0
 92
        0
 62
   257
 93
        1
300
CONTENTFORMAT
  1
CONTENTFORMAT_BEGIN
 90
        0
 91
        0
 92
      512
 93
        0
300

 40
0.0
140
1.0
 94
        5
 62
     0
340
17
144
4.5
309
CONTENTFORMAT_END
171
     1
301
MARGIN
  1
CELLMARGIN_BEGIN
 40
1.5
 40
1.5
 40
1.5
 40
1.5
 40
0.18
 40
0.18
309
CELLMARGIN_END
 94
        6
 95
        1
302
GRIDFORMAT
  1
GRIDFORMAT_BEGIN
 90
        0
 91
        1
 62
     0
 92
       -2
340
0
 93
        0
 40
1.125
309
GRIDFORMAT_END
 95
        2
302
GRIDFORMAT
  1
GRIDFORMAT_BEGIN
 90
        0
 91
        1
 62
     0
 92
       -2
340
0
 93
        0
 40
1.125
309
GRIDFORMAT_END
 95
        4
302
GRIDFORMAT
  1
GRIDFORMAT_BEGIN
 90
        0
 91
        1
 62
     0
 92
       -2
340
0
 93
        0
 40
1.125
309
GRIDFORMAT_END
 95
        8
302
GRIDFORMAT
  1
GRIDFORMAT_BEGIN
 90
        0
 91
        1
 62
     0
 92
       -2
340
0
 93
        0
 40
1.125
309
GRIDFORMAT_END
 95
       16
302
GRIDFORMAT
  1
GRIDFORMAT_BEGIN
 90
        0
 91
        1
 62
     0
 92
       -2
340
0
 93
        0
 40
1.125
309
GRIDFORMAT_END
 95
       32
302
GRIDFORMAT
  1
GRIDFORMAT_BEGIN
 90
        0
 91
        1
 62
     0
 92
       -2
340
0
 93
        0
 40
1.125
309
GRIDFORMAT_END
309
TABLEFORMAT_END
  1
CELLSTYLE_BEGIN
 90
        2
 91
        1
300
_HEADER
309
CELLSTYLE_END
300
CELLSTYLE
  1
TABLEFORMAT_BEGIN
 90
        5
170
     1
 91
        0
 92
        0
 62
   257
 93
        1
300
CONTENTFORMAT
  1
CONTENTFORMAT_BEGIN
 90
        0
 91
        0
 92
      512
 93
        0
300

 40
0.0
140
1.0
 94
        2
 62
     0
340
17
144
4.5
309
CONTENTFORMAT_END
171
     1
301
MARGIN
  1
CELLMARGIN_BEGIN
 40
1.5
 40
1.5
 40
1.5
 40
1.5
 40
0.18
 40
0.18
309
CELLMARGIN_END
 94
        6
 95
        1
302
GRIDFORMAT
  1
GRIDFORMAT_BEGIN
 90
        0
 91
        1
 62
     0
 92
       -2
340
0
 93
        0
 40
1.125
309
GRIDFORMAT_END
 95
        2
302
GRIDFORMAT
  1
GRIDFORMAT_BEGIN
 90
        0
 91
        1
 62
     0
 92
       -2
340
0
 93
        0
 40
1.125
309
GRIDFORMAT_END
 95
        4
302
GRIDFORMAT
  1
GRIDFORMAT_BEGIN
 90
        0
 91
        1
 62
     0
 92
       -2
340
0
 93
        0
 40
1.125
309
GRIDFORMAT_END
 95
        8
302
GRIDFORMAT
  1
GRIDFORMAT_BEGIN
 90
        0
 91
        1
 62
     0
 92
       -2
340
0
 93
        0
 40
1.125
309
GRIDFORMAT_END
 95
       16
302
GRIDFORMAT
  1
GRIDFORMAT_BEGIN
 90
        0
 91
        1
 62
     0
 92
       -2
340
0
 93
        0
 40
1.125
309
GRIDFORMAT_END
 95
       32
302
GRIDFORMAT
  1
GRIDFORMAT_BEGIN
 90
        0
 91
        1
 62
     0
 92
       -2
340
0
 93
        0
 40
1.125
309
GRIDFORMAT_END
309
TABLEFORMAT_END
  1
CELLSTYLE_BEGIN
 90
        3
 91
        2
300
_DATA
309
CELLSTYLE_END
  0
XRECORD
  5
B92A
102
{ACAD_REACTORS
330
AB8E
102
}
330
AB8E
100
AcDbXrecord
280
     1
102
ACAD_ROUNDTRIP_PRE2007_TABLESTYLE
 90
      512
 91
        0
  1

 92
      512
 93
        0
  2

 94
      512
 95
        0
  3

  0
ENDSEC
  0
EOF
