  0
SECTION
  2
HEADER
  9
$ACADVER
  1
AC1015
  9
$ACADMAINTVER
 70
    20
  9
$DWGCODEPAGE
  3
ANSI_1252
  9
$INSBASE
 10
0.0
 20
0.0
 30
0.0
  9
$EXTMIN
 10
-101.3200825611829
 20
-134.1120114758923
 30
-0.0000000000000098
  9
$EXTMAX
 10
92.20078577114099
 20
86.3337242799389
 30
0.0000000000000055
  9
$LIMMIN
 10
-20.0
 20
-575.8499999999998
  9
$LIMMAX
 10
1785.35
 20
579.8499999999998
  9
$ORTHOMODE
 70
     0
  9
$REGENMODE
 70
     1
  9
$FILLMODE
 70
     1
  9
$QTEXTMODE
 70
     0
  9
$MIRRTEXT
 70
     1
  9
$LTSCALE
 40
10.0
  9
$ATTMODE
 70
     1
  9
$TEXTSIZE
 40
0.0
  9
$TRACEWID
 40
0.05
  9
$TEXTSTYLE
  7
Standard
  9
$CLAYER
  8
0
  9
$CELTYPE
  6
Continuous
  9
$CECOLOR
 62
   256
  9
$CELTSCALE
 40
1.0
  9
$DISPSILH
 70
     0
  9
$DIMSCALE
 40
1.0
  9
$DIMASZ
 40
1.25
  9
$DIMEXO
 40
0.0
  9
$DIMDLI
 40
0.38
  9
$DIMRND
 40
0.0
  9
$DIMDLE
 40
0.0
  9
$DIMEXE
 40
0.75
  9
$DIMTP
 40
0.0
  9
$DIMTM
 40
0.0
  9
$DIMTXT
 40
2.5
  9
$DIMCEN
 40
0.09
  9
$DIMTSZ
 40
0.0
  9
$DIMTOL
 70
     0
  9
$DIMLIM
 70
     0
  9
$DIMTIH
 70
     0
  9
$DIMTOH
 70
     0
  9
$DIMSE1
 70
     0
  9
$DIMSE2
 70
     0
  9
$DIMTAD
 70
     1
  9
$DIMZIN
 70
     0
  9
$DIMBLK
  1

  9
$DIMASO
 70
     1
  9
$DIMSHO
 70
     1
  9
$DIMPOST
  1

  9
$DIMAPOST
  1

  9
$DIMALT
 70
     0
  9
$DIMALTD
 70
     2
  9
$DIMALTF
 40
25.4
  9
$DIMLFAC
 40
1.0
  9
$DIMTOFL
 70
     0
  9
$DIMTVP
 40
0.0
  9
$DIMTIX
 70
     0
  9
$DIMSOXD
 70
     0
  9
$DIMSAH
 70
     0
  9
$DIMBLK1
  1

  9
$DIMBLK2
  1

  9
$DIMSTYLE
  2
Standard
  9
$DIMCLRD
 70
     7
  9
$DIMCLRE
 70
     7
  9
$DIMCLRT
 70
     7
  9
$DIMTFAC
 40
0.8
  9
$DIMGAP
 40
1.25
  9
$DIMJUST
 70
     0
  9
$DIMSD1
 70
     0
  9
$DIMSD2
 70
     0
  9
$DIMTOLJ
 70
     1
  9
$DIMTZIN
 70
     0
  9
$DIMALTZ
 70
     0
  9
$DIMALTTZ
 70
     0
  9
$DIMUPT
 70
     0
  9
$DIMDEC
 70
     2
  9
$DIMTDEC
 70
     4
  9
$DIMALTU
 70
     2
  9
$DIMALTTD
 70
     2
  9
$DIMTXSTY
  7
Standard
  9
$DIMAUNIT
 70
     0
  9
$DIMADEC
 70
     0
  9
$DIMALTRND
 40
0.0
  9
$DIMAZIN
 70
     0
  9
$DIMDSEP
 70
     0
  9
$DIMATFIT
 70
     3
  9
$DIMFRAC
 70
     0
  9
$DIMLDRBLK
  1

  9
$DIMLUNIT
 70
     2
  9
$DIMLWD
 70
     0
  9
$DIMLWE
 70
     0
  9
$DIMTMOVE
 70
     0
  9
$LUNITS
 70
     2
  9
$LUPREC
 70
     4
  9
$SKETCHINC
 40
0.1
  9
$FILLETRAD
 40
0.0
  9
$AUNITS
 70
     0
  9
$AUPREC
 70
     0
  9
$MENU
  1
acad
  9
$ELEVATION
 40
0.0
  9
$PELEVATION
 40
0.0
  9
$THICKNESS
 40
0.0
  9
$LIMCHECK
 70
     0
  9
$CHAMFERA
 40
0.0
  9
$CHAMFERB
 40
0.0
  9
$CHAMFERC
 40
0.0
  9
$CHAMFERD
 40
0.0
  9
$SKPOLY
 70
     0
  9
$TDCREATE
 40
2455301.802361111
  9
$TDUCREATE
 40
2455301.719027778
  9
$TDUPDATE
 40
2455303.659960359
  9
$TDUUPDATE
 40
2455303.576627025
  9
$TDINDWG
 40
0.1722923727
  9
$TDUSRTIMER
 40
0.1722923727
  9
$USRTIMER
 70
     1
  9
$ANGBASE
 50
0.0
  9
$ANGDIR
 70
     0
  9
$PDMODE
 70
     0
  9
$PDSIZE
 40
0.0
  9
$PLINEWID
 40
0.0
  9
$SPLFRAME
 70
     0
  9
$SPLINETYPE
 70
     6
  9
$SPLINESEGS
 70
     8
  9
$HANDSEED
  5
B694
  9
$SURFTAB1
 70
     6
  9
$SURFTAB2
 70
     6
  9
$SURFTYPE
 70
     6
  9
$SURFU
 70
     6
  9
$SURFV
 70
     6
  9
$UCSBASE
  2

  9
$UCSNAME
  2

  9
$UCSORG
 10
0.0
 20
0.0
 30
0.0
  9
$UCSXDIR
 10
1.0
 20
0.0
 30
0.0
  9
$UCSYDIR
 10
0.0
 20
1.0
 30
0.0
  9
$UCSORTHOREF
  2

  9
$UCSORTHOVIEW
 70
     0
  9
$UCSORGTOP
 10
0.0
 20
0.0
 30
0.0
  9
$UCSORGBOTTOM
 10
0.0
 20
0.0
 30
0.0
  9
$UCSORGLEFT
 10
0.0
 20
0.0
 30
0.0
  9
$UCSORGRIGHT
 10
0.0
 20
0.0
 30
0.0
  9
$UCSORGFRONT
 10
0.0
 20
0.0
 30
0.0
  9
$UCSORGBACK
 10
0.0
 20
0.0
 30
0.0
  9
$PUCSBASE
  2

  9
$PUCSNAME
  2

  9
$PUCSORG
 10
0.0
 20
0.0
 30
0.0
  9
$PUCSXDIR
 10
1.0
 20
0.0
 30
0.0
  9
$PUCSYDIR
 10
0.0
 20
1.0
 30
0.0
  9
$PUCSORTHOREF
  2

  9
$PUCSORTHOVIEW
 70
     0
  9
$PUCSORGTOP
 10
0.0
 20
0.0
 30
0.0
  9
$PUCSORGBOTTOM
 10
0.0
 20
0.0
 30
0.0
  9
$PUCSORGLEFT
 10
0.0
 20
0.0
 30
0.0
  9
$PUCSORGRIGHT
 10
0.0
 20
0.0
 30
0.0
  9
$PUCSORGFRONT
 10
0.0
 20
0.0
 30
0.0
  9
$PUCSORGBACK
 10
0.0
 20
0.0
 30
0.0
  9
$USERI1
 70
     0
  9
$USERI2
 70
     0
  9
$USERI3
 70
     0
  9
$USERI4
 70
     0
  9
$USERI5
 70
     0
  9
$USERR1
 40
0.0
  9
$USERR2
 40
0.0
  9
$USERR3
 40
0.0
  9
$USERR4
 40
0.0
  9
$USERR5
 40
0.0
  9
$WORLDVIEW
 70
     1
  9
$SHADEDGE
 70
     3
  9
$SHADEDIF
 70
    70
  9
$TILEMODE
 70
     1
  9
$MAXACTVP
 70
    16
  9
$PINSBASE
 10
0.0
 20
0.0
 30
0.0
  9
$PLIMCHECK
 70
     0
  9
$PEXTMIN
 10
1.000000000000000E+20
 20
1.000000000000000E+20
 30
1.000000000000000E+20
  9
$PEXTMAX
 10
-1.000000000000000E+20
 20
-1.000000000000000E+20
 30
-1.000000000000000E+20
  9
$PLIMMIN
 10
0.0
 20
0.0
  9
$PLIMMAX
 10
12.0
 20
9.0
  9
$UNITMODE
 70
     0
  9
$VISRETAIN
 70
     0
  9
$PLINEGEN
 70
     1
  9
$PSLTSCALE
 70
     0
  9
$TREEDEPTH
 70
  3020
  9
$CMLSTYLE
  2
Standard
  9
$CMLJUST
 70
     0
  9
$CMLSCALE
 40
1.0
  9
$PROXYGRAPHICS
 70
     0
  9
$MEASUREMENT
 70
     1
  9
$CELWEIGHT
370
     0
  9
$ENDCAPS
280
     0
  9
$JOINSTYLE
280
     0
  9
$LWDISPLAY
290
     0
  9
$INSUNITS
 70
     0
  9
$HYPERLINKBASE
  1

  9
$STYLESHEET
  1

  9
$XEDIT
290
     1
  9
$CEPSNTYPE
380
     0
  9
$PSTYLEMODE
290
     1
  9
$FINGERPRINTGUID
  2

  9
$VERSIONGUID
  2
{E84C86F4-C2E0-41E1-9269-21F341C8ED41}
  9
$EXTNAMES
290
     1
  9
$PSVPSCALE
 40
0.0
  9
$OLESTARTUP
290
     0
  0
ENDSEC
  0
SECTION
  2
CLASSES
  0
CLASS
  1
IMAGE
  2
AcDbRasterImage
  3
ISM
 90
    34943
280
     0
281
     1
  0
CLASS
  1
DICTIONARYVAR
  2
AcDbDictionaryVar
  3
ObjectDBX Classes
 90
        0
280
     0
281
     0
  0
CLASS
  1
RASTERVARIABLES
  2
AcDbRasterVariables
  3
ISM
 90
    32768
280
     0
281
     0
  0
CLASS
  1
IMAGEDEF
  2
AcDbRasterImageDef
  3
ISM
 90
    32768
280
     0
281
     0
  0
CLASS
  1
IMAGEDEF_REACTOR
  2
AcDbRasterImageDefReactor
  3
ISM
 90
    32769
280
     0
281
     0
  0
CLASS
  1
IDBUFFER
  2
AcDbIdBuffer
  3
ObjectDBX Classes
 90
    32768
280
     0
281
     0
  0
CLASS
  1
SPATIAL_FILTER
  2
AcDbSpatialFilter
  3
ObjectDBX Classes
 90
    32768
280
     0
281
     0
  0
CLASS
  1
SORTENTSTABLE
  2
AcDbSortentsTable
  3
ObjectDBX Classes
 90
        0
280
     0
281
     0
  0
CLASS
  1
LAYER_INDEX
  2
AcDbLayerIndex
  3
ObjectDBX Classes
 90
    32768
280
     0
281
     0
  0
CLASS
  1
SPATIAL_INDEX
  2
AcDbSpatialIndex
  3
ObjectDBX Classes
 90
    32768
280
     0
281
     0
  0
CLASS
  1
OBJECT_PTR
  2
CAseDLPNTableRecord
  3
ASE-LPNTableRecord
 90
    32769
280
     0
281
     0
  0
CLASS
  1
LAYOUT
  2
AcDbLayout
  3
ObjectDBX Classes
 90
        0
280
     0
281
     0
  0
CLASS
  1
PLOTSETTINGS
  2
AcDbPlotSettings
  3
ObjectDBX Classes
 90
    32768
280
     0
281
     0
  0
CLASS
  1
ACDBDICTIONARYWDFLT
  2
AcDbDictionaryWithDefault
  3
ObjectDBX Classes
 90
        0
280
     0
281
     0
  0
CLASS
  1
ACDBPLACEHOLDER
  2
AcDbPlaceHolder
  3
ObjectDBX Classes
 90
        0
280
     0
281
     0
  0
CLASS
  1
VBA_PROJECT
  2
AcDbVbaProject
  3
acad
 90
    32768
280
     0
281
     0
  0
CLASS
  1
WIPEOUT
  2
AcDbWipeout
  3
"WipeOut|Product Desc: Object Enabler for WipeOut entity                        |Company: Autodesk, Inc.                        |WEB Address: www.autodesk.com"
 90
    34943
280
     0
281
     1
  0
CLASS
  1
WIPEOUTVARIABLES
  2
AcDbWipeoutVariables
  3
"WipeOut|Product Desc:     WipeOut Dbx Application|Company:          Autodesk, Inc.|WEB Address:      www.autodesk.com"
 90
        0
280
     0
281
     0
  0
CLASS
  1
RTEXT
  2
RText
  3
RText|AutoCAD Express Tool|expresstools@autodesk.com
 90
    35839
280
     0
281
     1
  0
CLASS
  1
ARCALIGNEDTEXT
  2
AcDbArcAlignedText
  3
ATEXT|AutoCAD Express Tool|expresstools@autodesk.com
 90
    32768
280
     0
281
     1
  0
CLASS
  1
MATERIAL
  2
AcDbMaterial
  3
ObjectDBX Classes
 90
     1153
280
     0
281
     0
  0
CLASS
  1
VISUALSTYLE
  2
AcDbVisualStyle
  3
ObjectDBX Classes
 90
     4095
280
     0
281
     0
  0
CLASS
  1
TABLESTYLE
  2
AcDbTableStyle
  3
ObjectDBX Classes
 90
     4095
280
     0
281
     0
  0
CLASS
  1
SCALE
  2
AcDbScale
  3
ObjectDBX Classes
 90
     1153
280
     0
281
     0
  0
CLASS
  1
MLEADERSTYLE
  2
AcDbMLeaderStyle
  3
ACDB_MLEADERSTYLE_CLASS
 90
     4095
280
     0
281
     0
  0
CLASS
  1
CELLSTYLEMAP
  2
AcDbCellStyleMap
  3
ObjectDBX Classes
 90
     1152
280
     0
281
     0
  0
ENDSEC
  0
SECTION
  2
TABLES
  0
TABLE
  2
VPORT
  5
7
330
0
100
AcDbSymbolTable
 70
     1
  0
VPORT
  5
15
330
7
100
AcDbSymbolTableRecord
100
AcDbViewportTableRecord
  2
*ACTIVE
 70
     0
 10
0.0
 20
0.0
 11
1.0
 21
1.0
 12
-4.559648395021
 22
-23.88914359797673
 13
0.0
 23
0.0
 14
1.0
 24
1.0
 15
0.0
 25
0.0
 16
0.0
 26
0.0
 36
1.0
 17
0.0
 27
0.0
 37
0.0
 40
222.1860968275878
 41
1.611330698287219
 42
50.0
 43
0.0
 44
0.0
 50
0.0
 51
0.0
 71
     0
 72
   100
 73
     1
 74
     1
 75
     0
 76
     0
 77
     0
 78
     0
281
     0
 65
     0
110
0.0
120
0.0
130
0.0
111
1.0
121
0.0
131
0.0
112
0.0
122
1.0
132
0.0
 79
     0
146
0.0
  0
ENDTAB
  0
TABLE
  2
LTYPE
  5
4
330
0
100
AcDbSymbolTable
 70
     3
  0
LTYPE
  5
11
330
4
100
AcDbSymbolTableRecord
100
AcDbLinetypeTableRecord
  2
ByBlock
 70
     0
  3

 72
    65
 73
     0
 40
0.0
  0
LTYPE
  5
12
330
4
100
AcDbSymbolTableRecord
100
AcDbLinetypeTableRecord
  2
ByLayer
 70
     0
  3

 72
    65
 73
     0
 40
0.0
  0
LTYPE
  5
13
330
4
100
AcDbSymbolTableRecord
100
AcDbLinetypeTableRecord
  2
Continuous
 70
     0
  3
Solid line
 72
    65
 73
     0
 40
0.0
  0
LTYPE
  5
108
330
4
100
AcDbSymbolTableRecord
100
AcDbLinetypeTableRecord
  2
CENTER
 70
     0
  3
____ _ ____ _ ____ _ ____ _ ____ _ ____ _ ____
 72
    65
 73
     4
 40
2.0
 49
1.25
 74
     0
 49
-0.25
 74
     0
 49
0.25
 74
     0
 49
-0.25
 74
     0
  0
ENDTAB
  0
TABLE
  2
LAYER
  5
2
330
0
100
AcDbSymbolTable
 70
     2
  0
LAYER
  5
14
102
{ACAD_XDICTIONARY
360
5858
102
}
330
2
100
AcDbSymbolTableRecord
100
AcDbLayerTableRecord
  2
0
 70
     0
 62
     7
  6
Continuous
370
    -3
390
1D
  0
LAYER
  5
B663
330
2
100
AcDbSymbolTableRecord
100
AcDbLayerTableRecord
  2
Defpoints
 70
     0
 62
     7
  6
Continuous
290
     0
370
    -3
390
1D
  0
ENDTAB
  0
TABLE
  2
STYLE
  5
3
330
0
100
AcDbSymbolTable
 70
     1
  0
STYLE
  5
17
330
3
100
AcDbSymbolTableRecord
100
AcDbTextStyleTableRecord
  2
Standard
 70
     0
 40
0.0
 41
1.0
 50
0.0
 71
     0
 42
0.0
  3
I011000D.TTF
  4

1001
ACAD
1000
IsonormD
1071
        0
  0
ENDTAB
  0
TABLE
  2
VIEW
  5
5
330
0
100
AcDbSymbolTable
 70
     0
  0
ENDTAB
  0
TABLE
  2
UCS
  5
6
330
0
100
AcDbSymbolTable
 70
     0
  0
ENDTAB
  0
TABLE
  2
APPID
  5
8
330
0
100
AcDbSymbolTable
 70
     5
  0
APPID
  5
16
330
8
100
AcDbSymbolTableRecord
100
AcDbRegAppTableRecord
  2
ACAD
 70
     0
  0
APPID
  5
26
330
8
100
AcDbSymbolTableRecord
100
AcDbRegAppTableRecord
  2
TopSolid'Draft
 70
     0
  0
APPID
  5
5850
330
8
100
AcDbSymbolTableRecord
100
AcDbRegAppTableRecord
  2
ACAD_MLEADERVER
 70
     0
  0
APPID
  5
5856
330
8
100
AcDbSymbolTableRecord
100
AcDbRegAppTableRecord
  2
DCO15
 70
     0
  0
APPID
  5
B672
330
8
100
AcDbSymbolTableRecord
100
AcDbRegAppTableRecord
  2
ACAD_EXEMPT_FROM_CAD_STANDARDS
 70
     0
  0
ENDTAB
  0
TABLE
  2
DIMSTYLE
  5
9
330
0
100
AcDbSymbolTable
 70
     2
100
AcDbDimStyleTable
 71
     1
340
18
  0
DIMSTYLE
105
18
330
9
100
AcDbSymbolTableRecord
100
AcDbDimStyleTableRecord
  2
Standard
 70
     0
 41
1.25
 42
0.0
 44
0.75
 73
     0
 74
     0
 77
     1
140
2.5
146
0.8
147
1.25
176
     7
177
     7
178
     7
271
     2
340
17
  0
ENDTAB
  0
TABLE
  2
BLOCK_RECORD
  5
1
330
0
100
AcDbSymbolTable
 70
     2
  0
BLOCK_RECORD
  5
A
102
{ACAD_XDICTIONARY
360
5864
102
}
330
1
100
AcDbSymbolTableRecord
100
AcDbBlockTableRecord
  2
*MODEL_SPACE
340
20
  0
BLOCK_RECORD
  5
B
330
1
100
AcDbSymbolTableRecord
100
AcDbBlockTableRecord
  2
*PAPER_SPACE
340
21
  0
BLOCK_RECORD
  5
B664
330
1
100
AcDbSymbolTableRecord
100
AcDbBlockTableRecord
  2
*D0
340
0
  0
ENDTAB
  0
ENDSEC
  0
SECTION
  2
BLOCKS
  0
BLOCK
  5
D
330
A
100
AcDbEntity
  8
0
100
AcDbBlockBegin
  2
*MODEL_SPACE
 70
     0
 10
0.0
 20
0.0
 30
0.0
  3
*MODEL_SPACE
  1

  0
ENDBLK
  5
E
330
A
100
AcDbEntity
  8
0
100
AcDbBlockEnd
  0
BLOCK
  5
F
330
B
100
AcDbEntity
 67
     1
  8
0
100
AcDbBlockBegin
  2
*PAPER_SPACE
 70
     0
 10
0.0
 20
0.0
 30
0.0
  3
*PAPER_SPACE
  1

  0
ENDBLK
  5
10
330
B
100
AcDbEntity
 67
     1
  8
0
100
AcDbBlockEnd
  0
BLOCK
  5
B665
330
B664
100
AcDbEntity
  8
0
370
     0
100
AcDbBlockBegin
  2
*D0
 70
     1
 10
0.0
 20
0.0
 30
0.0
  3
*D0
  1

  0
LINE
  5
B667
330
B664
100
AcDbEntity
  8
0
  6
Continuous
 62
     7
370
     0
100
AcDbLine
 10
135.4047190990523
 20
381.5500000000038
 30
0.0
 11
135.4047190990523
 21
382.6645010369125
 31
0.0
  0
LINE
  5
B668
330
B664
100
AcDbEntity
  8
0
  6
Continuous
 62
     7
370
     0
100
AcDbLine
 10
135.5003905053078
 20
381.5499999999987
 30
0.0
 11
135.5003905053078
 21
382.6645010369125
 31
0.0
  0
LINE
  5
B669
330
B664
100
AcDbEntity
  8
0
  6
Continuous
 62
     7
370
     0
100
AcDbLine
 10
134.1547190990523
 20
381.9145010369125
 30
0.0
 11
132.9047190990523
 21
381.9145010369125
 31
0.0
  0
LINE
  5
B66A
330
B664
100
AcDbEntity
  8
0
  6
Continuous
 62
     7
370
     0
100
AcDbLine
 10
136.7503905053078
 20
381.9145010369125
 30
0.0
 11
145.798706757138
 21
381.9145010369125
 31
0.0
  0
SOLID
  5
B66B
330
B664
100
AcDbEntity
  8
0
  6
Continuous
 62
     7
370
     0
100
AcDbTrace
 10
134.1547190990523
 20
382.1228343702458
 30
0.0
 11
134.1547190990523
 21
381.7061677035792
 31
0.0
 12
135.4047190990523
 22
381.9145010369125
 32
0.0
 13
135.4047190990523
 23
381.9145010369125
 33
0.0
  0
SOLID
  5
B66C
330
B664
100
AcDbEntity
  8
0
  6
Continuous
 62
     7
370
     0
100
AcDbTrace
 10
136.7503905053078
 20
382.1228343702458
 30
0.0
 11
136.7503905053078
 21
381.7061677035792
 31
0.0
 12
135.5003905053078
 22
381.9145010369125
 32
0.0
 13
135.5003905053078
 23
381.9145010369125
 33
0.0
  0
MTEXT
  5
B66D
330
B664
100
AcDbEntity
  8
0
  6
Continuous
 62
     7
370
     0
100
AcDbMText
 10
141.8995486312229
 20
384.419991520075
 30
0.0
 40
2.5
 41
0.0
 71
     5
 72
     1
  1
\A1;0.10
 73
     1
 44
1.0
1001
ACAD
1000
MTEXTBEGIN
1070
    73
1070
     1
1070
    44
1040
1.0
1070
    74
1070
     0
1000
MTEXTEND
  0
POINT
  5
B66E
330
B664
100
AcDbEntity
  8
Defpoints
  6
Continuous
 62
     0
370
     0
100
AcDbPoint
 10
135.4047190990523
 20
381.5500000000038
 30
0.0
  0
POINT
  5
B66F
330
B664
100
AcDbEntity
  8
Defpoints
  6
Continuous
 62
     0
370
     0
100
AcDbPoint
 10
135.5003905053078
 20
381.5499999999987
 30
0.0
  0
POINT
  5
B670
330
B664
100
AcDbEntity
  8
Defpoints
  6
Continuous
 62
     0
370
     0
100
AcDbPoint
 10
135.5003905053078
 20
381.9145010369125
 30
0.0
  0
ENDBLK
  5
B666
330
B664
100
AcDbEntity
  8
0
370
     0
100
AcDbBlockEnd
  0
ENDSEC
  0
SECTION
  2
ENTITIES
  0
LINE
  5
109
330
A
100
AcDbEntity
  8
0
  6
CENTER
 62
     1
100
AcDbLine
 10
-29.90432859360969
 20
26.80016344722628
 30
0.0
 11
-29.90432859206352
 21
2.700163447226316
 31
0.0
  0
LINE
  5
10A
330
A
100
AcDbEntity
  8
0
  6
CENTER
 62
     1
100
AcDbLine
 10
-29.90432859126285
 20
-54.79983655277374
 30
0.0
 11
-29.90432859280601
 21
-30.69983655277349
 31
0.0
  0
LINE
  5
10B
330
A
100
AcDbEntity
  8
0
  6
CENTER
 62
     1
100
AcDbLine
 10
55.54528090094897
 20
-27.99983655277339
 30
0.0
 11
60.99528090094896
 21
-27.99983655277339
 31
0.0
  0
LINE
  5
10C
330
A
100
AcDbEntity
  8
0
  6
CENTER
 62
     1
100
AcDbLine
 10
55.54528090094382
 20
0.0000000000000568
 30
0.0
 11
60.99528090094384
 21
-0.0000000000001137
 31
0.0
  0
LINE
  5
10D
330
A
100
AcDbEntity
  8
0
  6
CENTER
 62
     1
100
AcDbLine
 10
62.24528090095154
 20
-38.99983655277373
 30
0.0
 11
71.54528090095158
 21
-38.99983655277373
 31
0.0
  0
LINE
  5
10E
330
A
100
AcDbEntity
  8
0
  6
CENTER
 62
     1
100
AcDbLine
 10
66.89528090095158
 20
-43.6498365527737
 30
0.0
 11
66.89528090095158
 21
-34.34983655277375
 31
0.0
  0
LINE
  5
10F
330
A
100
AcDbEntity
  8
0
  6
CENTER
 62
     1
100
AcDbLine
 10
62.2452809009516
 20
-13.99983655277373
 30
0.0
 11
71.54528090095164
 21
-13.99983655277373
 31
0.0
  0
LINE
  5
110
330
A
100
AcDbEntity
  8
0
  6
CENTER
 62
     1
100
AcDbLine
 10
66.89528090095163
 20
-18.6498365527737
 30
0.0
 11
66.89528090095163
 21
-9.349836552773695
 31
0.0
  0
LINE
  5
111
330
A
100
AcDbEntity
  8
0
  6
CENTER
 62
     1
100
AcDbLine
 10
62.2452809009516
 20
11.00016344722632
 30
0.0
 11
71.54528090095164
 21
11.00016344722632
 31
0.0
  0
LINE
  5
112
330
A
100
AcDbEntity
  8
0
  6
CENTER
 62
     1
100
AcDbLine
 10
66.89528090095163
 20
6.35016344722635
 30
0.0
 11
66.89528090095163
 21
15.6501634472263
 31
0.0
  0
LINE
  5
113
330
A
100
AcDbEntity
  8
0
  6
CENTER
 62
     1
100
AcDbLine
 10
82.89528060779266
 20
26.80016344722628
 30
0.0
 11
82.89528060779266
 21
2.700163447226316
 31
0.0
  0
LINE
  5
114
330
A
100
AcDbEntity
  8
0
  6
CENTER
 62
     1
100
AcDbLine
 10
82.8952809009516
 20
-54.79983655277374
 30
0.0
 11
82.8952809009516
 21
-30.69983655277349
 31
0.0
  0
LINE
  5
115
330
A
100
AcDbEntity
  8
0
  6
CENTER
 62
     1
100
AcDbLine
 10
0.0956714062528192
 20
-109.7998365527778
 30
0.0
 11
0.0956714062528192
 21
-99.79983655278296
 31
0.0
  0
LINE
  5
117
330
A
100
AcDbEntity
  8
0
  6
CENTER
 62
     1
100
AcDbLine
 10
0.0
 20
-91.94983655276997
 30
0.0
 11
0.0
 21
-97.3998365527699
 31
0.0
  0
LINE
  5
118
330
A
100
AcDbEntity
  8
0
  6
CENTER
 62
     1
100
AcDbLine
 10
-37.90432859343648
 20
-119.2998362596188
 30
0.0
 11
-21.90432859343646
 21
-119.2998362596188
 31
0.0
  0
LINE
  5
119
330
A
100
AcDbEntity
  8
0
  6
CENTER
 62
     1
100
AcDbLine
 10
-29.90432859343646
 20
-127.2998362596188
 30
0.0
 11
-29.90432859343646
 21
-111.2998362596188
 31
0.0
  0
LINE
  5
11A
330
A
100
AcDbEntity
  8
0
  6
CENTER
 62
     1
100
AcDbLine
 10
-8.250000000000014
 20
0.0
 30
0.0
 11
8.25
 21
0.0
 31
0.0
  0
LINE
  5
11B
330
A
100
AcDbEntity
  8
0
  6
CENTER
 62
     1
100
AcDbLine
 10
0.0
 20
-8.25
 30
0.0
 11
0.0
 21
8.25
 31
0.0
  0
LINE
  5
11C
330
A
100
AcDbEntity
  8
0
  6
CENTER
 62
     1
100
AcDbLine
 10
-8.154328593744452
 20
-27.99983655277339
 30
0.0
 11
8.345671406255547
 21
-27.99983655277339
 31
0.0
  0
LINE
  5
11D
330
A
100
AcDbEntity
  8
0
  6
CENTER
 62
     1
100
AcDbLine
 10
0.0956714062555477
 20
-36.24983655277339
 30
0.0
 11
0.0956714062555477
 21
-19.74983655277339
 31
0.0
  0
LINE
  5
795
330
A
100
AcDbEntity
  8
0
  6
CENTER
 62
     1
100
AcDbLine
 10
0.0956714062528192
 20
68.80016344723026
 30
0.0
 11
0.0956714062528192
 21
58.80016344723026
 31
0.0
  0
LINE
  5
796
330
A
100
AcDbEntity
  8
0
  6
CENTER
 62
     1
100
AcDbLine
 10
0.0
 20
50.95016344722239
 30
0.0
 11
0.0
 21
56.40016344722233
 31
0.0
  0
LINE
  5
797
330
A
100
AcDbEntity
  8
0
  6
CENTER
 62
     1
100
AcDbLine
 10
-37.90432859343641
 20
78.30016315407124
 30
0.0
 11
-21.90432859343639
 21
78.30016315407124
 31
0.0
  0
LINE
  5
798
330
A
100
AcDbEntity
  8
0
  6
CENTER
 62
     1
100
AcDbLine
 10
-29.90432859343639
 20
70.30016315407124
 30
0.0
 11
-29.90432859343639
 21
86.30016315407123
 31
0.0
  0
LINE
  5
A5F3
330
A
100
AcDbEntity
  8
0
  6
Continuous
 62
     9
370
     0
100
AcDbLine
 10
-5.91532859374675
 20
60.80016344722981
 30
0.0
 11
-5.91532859374675
 21
59.30016344723004
 31
0.0
  0
LINE
  5
A5F4
330
A
100
AcDbEntity
  8
0
  6
Continuous
 62
     7
370
     0
100
AcDbLine
 10
-8.904328593746541
 20
59.30016344723014
 30
0.0
 11
-8.904328593746541
 21
60.80016344722992
 31
0.0
  0
LINE
  5
A5F5
330
A
100
AcDbEntity
  8
0
  6
Continuous
 62
     7
370
     0
100
AcDbLine
 10
-8.904328593745987
 20
60.80016344722981
 30
0.0
 11
-5.915328593747005
 21
60.80016344722981
 31
0.0
  0
LINE
  5
A5F6
330
A
100
AcDbEntity
  8
0
  6
Continuous
 62
     7
370
     0
100
AcDbLine
 10
11.21658140922864
 20
60.80016344722981
 30
0.0
 11
11.21658140922864
 21
59.30016344723004
 31
0.0
  0
LINE
  5
A5F7
330
A
100
AcDbEntity
  8
0
  6
Continuous
 62
     7
370
     0
100
AcDbLine
 10
11.21658140921835
 20
60.80016344722981
 30
0.0
 11
-5.915328593750103
 21
60.80016344722981
 31
0.0
  0
LINE
  5
A5F8
330
A
100
AcDbEntity
  8
0
  6
Continuous
 62
     7
370
     0
100
AcDbLine
 10
14.09567140624386
 20
60.80016344722981
 30
0.0
 11
11.21658140922156
 21
60.80016344722981
 31
0.0
  0
LINE
  5
A5F9
330
A
100
AcDbEntity
  8
0
  6
Continuous
 62
     9
370
     0
100
AcDbLine
 10
-5.412842109674983
 20
52.95016344722228
 30
0.0
 11
-5.317170703416508
 21
52.95016344722228
 31
0.0
  0
LINE
  5
A5FA
330
A
100
AcDbEntity
  8
0
  6
Continuous
 62
     7
370
     0
100
AcDbLine
 10
-4.884158001527254
 20
52.70016344722217
 30
0.0
 11
-4.979829407782773
 21
52.70016344722217
 31
0.0
  0
LINE
  5
A5FB
330
A
100
AcDbEntity
  8
0
  6
Continuous
 62
     9
370
     0
100
AcDbLine
 10
-5.317170703419463
 20
52.95016344722739
 30
0.0
 11
5.508513515930616
 21
52.95016344722739
 31
0.0
  0
LINE
  5
A5FC
330
A
100
AcDbEntity
  8
0
  6
Continuous
 62
     7
370
     0
100
AcDbLine
 10
5.075500814038406
 20
52.70016344722751
 30
0.0
 11
-4.884158001527254
 21
52.70016344722751
 31
0.0
  0
LINE
  5
A5FD
330
A
100
AcDbEntity
  8
0
  6
Continuous
 62
     7
370
     0
100
AcDbLine
 10
-6.754328593747175
 20
66.80016344723026
 30
0.0
 11
-6.754328593747175
 21
60.80016344723015
 31
0.0
  0
ARC
  5
A5FE
330
A
100
AcDbEntity
  8
0
  6
Continuous
 62
     9
370
     0
100
AcDbCircle
 10
-11.69096354256233
 20
57.18142728009616
 30
0.0
 40
2.885319125683516
100
AcDbArc
 50
177.6415077293526
 51
266.9618956144278
  0
ARC
  5
A5FF
330
A
100
AcDbEntity
  8
0
  6
Continuous
 62
     9
370
     0
100
AcDbCircle
 10
-11.83596476942279
 20
57.29466763794028
 30
0.0
 40
2.994514666710267
100
AcDbArc
 50
179.8948454461
 51
269.8484443190158
  0
LINE
  5
A600
330
A
100
AcDbEntity
  8
0
  6
Continuous
 62
     9
370
     0
100
AcDbLine
 10
-14.573838527651
 20
57.30016344722731
 30
0.0
 11
-14.83047439292096
 21
57.30016344722731
 31
0.0
  0
ELLIPSE
  5
A601
330
A
100
AcDbEntity
  8
0
  6
Continuous
 62
     9
370
     0
100
AcDbEllipse
 10
9.550561975753936
 20
57.30016344722731
 30
0.0
 11
0.0
 21
-3.000000000000002
 31
0.0
210
0.0
220
0.0
230
1.0
 40
0.90753406361715
 41
0.0
 42
1.570796326794896
  0
LINE
  5
A602
330
A
100
AcDbEntity
  8
0
  6
Continuous
 62
     7
370
     0
100
AcDbLine
 10
9.550561975754561
 20
54.30016344722719
 30
0.0
 11
-11.84388568758032
 21
54.30016344722719
 31
0.0
  0
LINE
  5
A603
330
A
100
AcDbEntity
  8
0
  6
Continuous
 62
     9
370
     0
100
AcDbLine
 10
-14.57383852765085
 20
57.30016344722731
 30
0.0
 11
12.27316416660639
 21
57.30016344722731
 31
0.0
  0
ARC
  5
A604
330
A
100
AcDbEntity
  8
0
  6
Continuous
 62
     7
370
     0
100
AcDbCircle
 10
-12.06812084006672
 20
57.30571664802176
 30
0.0
 40
3.00556336889165
100
AcDbArc
 50
180.1058620665405
 51
270.1490371889399
  0
LINE
  5
A605
330
A
100
AcDbEntity
  8
0
  6
Continuous
 62
     9
370
     0
100
AcDbLine
 10
-15.07367907879448
 20
57.30016344722731
 30
0.0
 11
-14.83047439292096
 21
57.30016344722731
 31
0.0
  0
LINE
  5
A606
330
A
100
AcDbEntity
  8
0
  6
Continuous
 62
     7
370
     0
100
AcDbLine
 10
-11.84388568758035
 20
54.30016344722719
 30
0.0
 11
-12.06030280854078
 21
54.3001634472273
 31
0.0
  0
LINE
  5
A607
330
A
100
AcDbEntity
  8
0
  6
Continuous
 62
     9
370
     0
100
AcDbLine
 10
-14.573838527651
 20
59.3001634472273
 30
0.0
 11
-14.573838527651
 21
57.30016344722731
 31
0.0
  0
LINE
  5
A608
330
A
100
AcDbEntity
  8
0
  6
Continuous
 62
     9
370
     0
100
AcDbLine
 10
-14.83047439292096
 20
57.30016344722731
 30
0.0
 11
-14.83047439292096
 21
59.3001634472273
 31
0.0
  0
LINE
  5
A609
330
A
100
AcDbEntity
  8
0
  6
Continuous
 62
     7
370
     0
100
AcDbLine
 10
-14.83047439292096
 20
59.3001634472273
 30
0.0
 11
-14.573838527651
 21
59.3001634472273
 31
0.0
  0
LINE
  5
A60A
330
A
100
AcDbEntity
  8
0
  6
Continuous
 62
     9
370
     0
100
AcDbLine
 10
12.27316416660537
 20
59.3001634472273
 30
0.0
 11
12.27316416660537
 21
57.30016344722731
 31
0.0
  0
LINE
  5
A60B
330
A
100
AcDbEntity
  8
0
  6
Continuous
 62
     7
370
     0
100
AcDbLine
 10
-14.57383852765085
 20
59.3001634472273
 30
0.0
 11
12.27316416660639
 21
59.3001634472273
 31
0.0
  0
LINE
  5
A60C
330
A
100
AcDbEntity
  8
0
  6
Continuous
 62
     7
370
     0
100
AcDbLine
 10
-15.07367907879448
 20
59.3001634472273
 30
0.0
 11
-15.07367907879448
 21
57.30016344722731
 31
0.0
  0
LINE
  5
A60D
330
A
100
AcDbEntity
  8
0
  6
Continuous
 62
     7
370
     0
100
AcDbLine
 10
-15.07367907879448
 20
59.3001634472273
 30
0.0
 11
-14.83047439292096
 21
59.3001634472273
 31
0.0
  0
LINE
  5
A60E
330
A
100
AcDbEntity
  8
0
  6
Continuous
 62
     7
370
     0
100
AcDbLine
 10
12.04714225809164
 20
54.30016344722719
 30
0.0
 11
9.550561975754391
 21
54.30016344722719
 31
0.0
  0
LINE
  5
A60F
330
A
100
AcDbEntity
  8
0
  6
Continuous
 62
     9
370
     0
100
AcDbLine
 10
12.27316416660582
 20
57.30016344722731
 30
0.0
 11
15.04714225809172
 21
57.30016344722731
 31
0.0
  0
LINE
  5
A610
330
A
100
AcDbEntity
  8
0
  6
Continuous
 62
     7
370
     0
100
AcDbLine
 10
12.27316416660585
 20
59.3001634472273
 30
0.0
 11
15.04714225809172
 21
59.3001634472273
 31
0.0
  0
LINE
  5
A611
330
A
100
AcDbEntity
  8
0
  6
Continuous
 62
     9
370
     0
100
AcDbLine
 10
-5.915328593747091
 20
68.30016344723003
 30
0.0
 11
-5.915328593747091
 21
66.80016344723004
 31
0.0
  0
LINE
  5
A612
330
A
100
AcDbEntity
  8
0
  6
Continuous
 62
     7
370
     0
100
AcDbLine
 10
-5.915328593747091
 20
66.80016344723004
 30
0.0
 11
-8.904328593747123
 21
66.80016344723004
 31
0.0
  0
LINE
  5
A613
330
A
100
AcDbEntity
  8
0
  6
Continuous
 62
     7
370
     0
100
AcDbLine
 10
-8.904328593747123
 20
66.80016344723004
 30
0.0
 11
-8.904328593747123
 21
68.30016344723003
 31
0.0
  0
LINE
  5
A614
330
A
100
AcDbEntity
  8
0
  6
Continuous
 62
     7
370
     0
100
AcDbLine
 10
11.21658140922938
 20
68.30016344723003
 30
0.0
 11
11.21658140922938
 21
66.80016344723004
 31
0.0
  0
LINE
  5
A615
330
A
100
AcDbEntity
  8
0
  6
Continuous
 62
     7
370
     0
100
AcDbLine
 10
11.21658140922938
 20
66.80016344723004
 30
0.0
 11
-5.915328593747091
 21
66.80016344723004
 31
0.0
  0
LINE
  5
A616
330
A
100
AcDbEntity
  8
0
  6
Continuous
 62
     7
370
     0
100
AcDbLine
 10
14.0956714062529
 20
66.80016344723004
 30
0.0
 11
11.21658140922938
 21
66.80016344723004
 31
0.0
  0
CIRCLE
  5
A617
330
A
100
AcDbEntity
  8
0
  6
Continuous
 62
     7
370
     0
100
AcDbCircle
 10
-29.90432859348132
 20
78.30016315407124
 30
0.0
 40
5.299999999999971
  0
CIRCLE
  5
A618
330
A
100
AcDbEntity
  8
0
  6
Continuous
 62
     7
370
     0
100
AcDbCircle
 10
-29.90432859343639
 20
78.30016315407124
 30
0.0
 40
6.000000000000005
  0
LINE
  5
A619
330
A
100
AcDbEntity
  8
0
  6
Continuous
 62
     7
370
     0
100
AcDbLine
 10
-23.48079918198242
 20
77.30604580017109
 30
0.0
 11
-23.40432859374714
 21
77.30016344723003
 31
0.0
  0
LINE
  5
A61A
330
A
100
AcDbEntity
  8
0
  6
Continuous
 62
     7
370
     0
100
AcDbLine
 10
-23.40432859374714
 20
77.30016344723015
 30
0.0
 11
-20.10432859374717
 21
77.30016344723015
 31
0.0
  0
ARC
  5
A61B
330
A
100
AcDbEntity
  8
0
  6
Continuous
 62
     7
370
     0
100
AcDbCircle
 10
-20.06167171666334
 20
-28.70320111985348
 30
0.0
 40
106.0033731498729
100
AcDbArc
 50
72.23709904482828
 51
90.02305642752167
  0
LINE
  5
A61C
330
A
100
AcDbEntity
  8
0
  6
Continuous
 62
     9
370
     0
100
AcDbLine
 10
12.27770344808044
 20
72.24668710745039
 30
0.0
 11
12.27770344808044
 21
68.30016344723003
 31
0.0
  0
LINE
  5
A61D
330
A
100
AcDbEntity
  8
0
  6
Continuous
 62
     7
370
     0
100
AcDbLine
 10
12.27770344808044
 20
68.30016344723003
 30
0.0
 11
-9.904328593747152
 21
68.30016344723003
 31
0.0
  0
ARC
  5
A61E
330
A
100
AcDbEntity
  8
0
  6
Continuous
 62
     7
370
     0
100
AcDbCircle
 10
-21.56623250613419
 20
53.30016354262181
 30
0.0
 40
18.99999999999985
100
AcDbArc
 50
52.13635316960413
 51
89.9942586239719
  0
LINE
  5
A61F
330
A
100
AcDbEntity
  8
0
  6
Continuous
 62
     7
370
     0
100
AcDbLine
 10
-21.56432859374716
 20
72.30016344723003
 30
0.0
 11
-26.90432859374711
 21
72.30016344723003
 31
0.0
  0
LINE
  5
A620
330
A
100
AcDbEntity
  8
0
  6
Continuous
 62
     7
370
     0
100
AcDbLine
 10
-26.90432859374714
 20
72.53388214989468
 30
0.0
 11
-26.90432859374714
 21
72.30016344723015
 31
0.0
  0
ARC
  5
A621
330
A
100
AcDbEntity
  8
0
  6
Continuous
 62
     7
370
     0
100
AcDbCircle
 10
-29.90432859374747
 20
78.30016344723026
 30
0.0
 40
6.500000000000413
100
AcDbArc
 50
297.486426250382
 51
351.202589290007
  0
ARC
  5
A622
330
A
100
AcDbEntity
  8
0
  6
Continuous
 62
     7
370
     0
100
AcDbCircle
 10
-23.40432859374714
 20
77.80016344723015
 30
0.0
 40
0.4999999999999304
100
AcDbArc
 50
180.0
 51
261.2025892900105
  0
LINE
  5
A623
330
A
100
AcDbEntity
  8
0
  6
Continuous
 62
     7
370
     0
100
AcDbLine
 10
-29.90432859374714
 20
72.30016344723003
 30
0.0
 11
-26.90432859374714
 21
72.30016344723003
 31
0.0
  0
LINE
  5
A624
330
A
100
AcDbEntity
  8
0
  6
Continuous
 62
     7
370
     0
100
AcDbLine
 10
15.09489039564261
 20
68.30016344723003
 30
0.0
 11
12.27770344808047
 21
68.30016344723003
 31
0.0
  0
LINE
  5
A631
330
A
100
AcDbEntity
  8
0
  6
Continuous
 62
     7
370
     0
100
AcDbLine
 10
12.27770344808047
 20
72.24668710745039
 30
0.0
 11
14.75992172228345
 21
71.41756979795502
 31
0.0
  0
LINE
  5
A632
330
A
100
AcDbEntity
  8
0
  6
Continuous
 62
     7
370
     0
100
AcDbLine
 10
-31.40432859374714
 20
72.30016344723003
 30
0.0
 11
-29.90432859374714
 21
72.30016344723003
 31
0.0
  0
ARC
  5
A633
330
A
100
AcDbEntity
  8
0
  6
Continuous
 62
     7
370
     0
100
AcDbCircle
 10
-31.40432859374714
 20
71.30016344723014
 30
0.0
 40
1.0
100
AcDbArc
 50
90.0
 51
180.0
  0
LINE
  5
A634
330
A
100
AcDbEntity
  8
0
  6
Continuous
 62
     7
370
     0
100
AcDbLine
 10
-32.40432859374716
 20
54.30016344723004
 30
0.0
 11
-32.40432859374716
 21
71.30016344723003
 31
0.0
  0
LINE
  5
A635
330
A
100
AcDbEntity
  8
0
  6
Continuous
 62
     7
370
     0
100
AcDbLine
 10
-35.90432859374715
 20
54.30016344723004
 30
0.0
 11
-32.40432859374716
 21
54.30016344723004
 31
0.0
  0
LINE
  5
A636
330
A
100
AcDbEntity
  8
0
  6
Continuous
 62
     7
370
     0
100
AcDbLine
 10
-35.90432859374715
 20
78.30016344723003
 30
0.0
 11
-35.90432859374715
 21
54.30016344723004
 31
0.0
  0
LINE
  5
A637
330
A
100
AcDbEntity
  8
0
  6
Continuous
 62
     9
370
     0
100
AcDbLine
 10
-24.09472337785712
 20
79.80015843723015
 30
0.0
 11
-24.09485228086189
 21
79.80015843723015
 31
0.0
  0
LINE
  5
A638
330
A
100
AcDbEntity
  8
0
  6
Continuous
 62
     7
370
     0
100
AcDbLine
 10
14.09567140625194
 20
59.30016344723014
 30
0.0
 11
14.09567140625194
 21
60.80016344722992
 31
0.0
  0
LINE
  5
A639
330
A
100
AcDbEntity
  8
0
  6
Continuous
 62
     7
370
     0
100
AcDbLine
 10
-6.192264973083808
 20
54.30016344722719
 30
0.0
 11
-5.412842109674983
 21
52.95016344722228
 31
0.0
  0
ARC
  5
A63A
330
A
100
AcDbEntity
  8
0
  6
Continuous
 62
     7
370
     0
100
AcDbCircle
 10
-4.979829407782773
 20
53.20016344722239
 30
0.0
 40
0.499999999999988
100
AcDbArc
 50
209.9999999999961
 51
269.9999999999968
  0
LINE
  5
A63B
330
A
100
AcDbEntity
  8
0
  6
Continuous
 62
     7
370
     0
100
AcDbLine
 10
-6.096593566825362
 20
54.30016344722719
 30
0.0
 11
-5.317170703419463
 21
52.95016344722739
 31
0.0
  0
LINE
  5
A63C
330
A
100
AcDbEntity
  8
0
  6
Continuous
 62
     7
370
     0
100
AcDbLine
 10
5.508513515930616
 20
52.95016344722739
 30
0.0
 11
6.287936379336485
 21
54.30016344722719
 31
0.0
  0
ARC
  5
A63D
330
A
100
AcDbEntity
  8
0
  6
Continuous
 62
     7
370
     0
100
AcDbCircle
 10
5.075500814038406
 20
53.20016344722751
 30
0.0
 40
0.499999999999945
100
AcDbArc
 50
270.0
 51
330.0000000000003
  0
ARC
  5
A63E
330
A
100
AcDbEntity
  8
0
  6
Continuous
 62
     7
370
     0
100
AcDbCircle
 10
-4.884158001527254
 20
53.20016344722751
 30
0.0
 40
0.499999999999988
100
AcDbArc
 50
209.9999999999961
 51
269.9999999999968
  0
LINE
  5
A63F
330
A
100
AcDbEntity
  8
0
  6
Continuous
 62
     7
370
     0
100
AcDbLine
 10
6.995671406252938
 20
60.80016344723003
 30
0.0
 11
6.995671406252938
 21
66.80016344723014
 31
0.0
  0
ARC
  5
A640
330
A
100
AcDbEntity
  8
0
  6
Continuous
 62
     7
370
     0
100
AcDbCircle
 10
12.04714225809135
 20
57.30016344722731
 30
0.0
 40
3.000000000000002
100
AcDbArc
 50
269.9999999999984
 51
0.0
  0
LINE
  5
A641
330
A
100
AcDbEntity
  8
0
  6
Continuous
 62
     7
370
     0
100
AcDbLine
 10
15.04714225809113
 20
57.30016344722731
 30
0.0
 11
15.04714225809113
 21
59.3001634472273
 31
0.0
  0
LINE
  5
A642
330
A
100
AcDbEntity
  8
0
  6
Continuous
 62
     7
370
     0
100
AcDbLine
 10
14.0956714062529
 20
66.80016344723004
 30
0.0
 11
14.0956714062529
 21
68.30016344723003
 31
0.0
  0
LINE
  5
A643
330
A
100
AcDbEntity
  8
0
  6
Continuous
 62
     7
370
     0
100
AcDbLine
 10
15.09489039564261
 20
68.30016344723003
 30
0.0
 11
15.09489039564261
 21
70.97342257799528
 31
0.0
  0
ARC
  5
A644
330
A
100
AcDbEntity
  8
0
  6
Continuous
 62
     9
370
     0
100
AcDbCircle
 10
-95.20465384546207
 20
-41.49981181457076
 30
0.0
 40
1.499975263216382
100
AcDbArc
 50
90.00249254479935
 51
311.5218115679333
  0
LINE
  5
A645
330
A
100
AcDbEntity
  8
0
  6
Continuous
 62
     7
370
     0
100
AcDbLine
 10
-77.70471909905594
 20
-26.59737840094198
 30
0.0
 11
-76.20471909905621
 21
-26.59737840094198
 31
0.0
  0
LINE
  5
A646
330
A
100
AcDbEntity
  8
0
  6
Continuous
 62
     7
370
     0
100
AcDbLine
 10
-77.70471909905594
 20
-2.062186966168212
 30
0.0
 11
-77.70471909905594
 21
-26.5973784009351
 31
0.0
  0
LINE
  5
A647
330
A
100
AcDbEntity
  8
0
  6
Continuous
 62
     7
370
     0
100
AcDbLine
 10
-77.70471909905594
 20
-2.062186966164915
 30
0.0
 11
-76.20471909905621
 21
-2.062186966164915
 31
0.0
  0
LINE
  5
A648
330
A
100
AcDbEntity
  8
0
  6
Continuous
 62
     9
370
     0
100
AcDbLine
 10
-76.20471909905621
 20
17.00562384700498
 30
0.0
 11
-77.70471909905594
 21
17.00562384700498
 31
0.0
  0
LINE
  5
A649
330
A
100
AcDbEntity
  8
0
  6
Continuous
 62
     7
370
     0
100
AcDbLine
 10
-77.70471909905594
 20
17.005623846996
 30
0.0
 11
-77.70471909905594
 21
-2.062186966167587
 31
0.0
  0
LINE
  5
A64A
330
A
100
AcDbEntity
  8
0
  6
Continuous
 62
     9
370
     0
100
AcDbLine
 10
-77.70471909905594
 20
-45.00529695255102
 30
0.0
 11
-76.20471909905621
 21
-45.00529695255102
 31
0.0
  0
LINE
  5
A64B
330
A
100
AcDbEntity
  8
0
  6
Continuous
 62
     7
370
     0
100
AcDbLine
 10
-77.70471909905594
 20
-26.59737840093709
 30
0.0
 11
-77.70471909905594
 21
-45.00529695253817
 31
0.0
  0
LINE
  5
A64C
330
A
100
AcDbEntity
  8
0
  6
Continuous
 62
     7
370
     0
100
AcDbLine
 10
-77.70471909905594
 20
17.00562384700464
 30
0.0
 11
-77.70471909905594
 21
17.26726858987206
 31
0.0
  0
LINE
  5
A64D
330
A
100
AcDbEntity
  8
0
  6
Continuous
 62
     7
370
     0
100
AcDbLine
 10
-77.70471909905594
 20
-45.26694169541804
 30
0.0
 11
-77.70471909905594
 21
-45.00529695255056
 31
0.0
  0
LINE
  5
A64E
330
A
100
AcDbEntity
  8
0
  6
Continuous
 62
     9
370
     0
100
AcDbLine
 10
-69.85471909904842
 20
-5.412842109675068
 30
0.0
 11
-69.85471909904842
 21
4.762918960771628
 31
0.0
  0
LINE
  5
A64F
330
A
100
AcDbEntity
  8
0
  6
Continuous
 62
     9
370
     0
100
AcDbLine
 10
-69.85471909904842
 20
4.762918960771628
 30
0.0
 11
-69.85471909904842
 21
5.412842109675068
 31
0.0
  0
LINE
  5
A650
330
A
100
AcDbEntity
  8
0
  6
Continuous
 62
     7
370
     0
100
AcDbLine
 10
-69.60471909904843
 20
4.979829407782858
 30
0.0
 11
-69.60471909904843
 21
4.38189834973059
 31
0.0
  0
LINE
  5
A651
330
A
100
AcDbEntity
  8
0
  6
Continuous
 62
     7
370
     0
100
AcDbLine
 10
-69.60471909904843
 20
4.38189834973059
 30
0.0
 11
-69.60471909904843
 21
-4.979829407782858
 31
0.0
  0
LINE
  5
A652
330
A
100
AcDbEntity
  8
0
  6
Continuous
 62
     9
370
     0
100
AcDbLine
 10
-69.85471909905355
 20
-33.4126786624484
 30
0.0
 11
-69.85471909905355
 21
-27.56947460700974
 31
0.0
  0
LINE
  5
A653
330
A
100
AcDbEntity
  8
0
  6
Continuous
 62
     9
370
     0
100
AcDbLine
 10
-69.85471909905355
 20
-27.56947460700974
 30
0.0
 11
-69.85471909905355
 21
-22.58699444309832
 31
0.0
  0
LINE
  5
A654
330
A
100
AcDbEntity
  8
0
  6
Continuous
 62
     7
370
     0
100
AcDbLine
 10
-69.60471909905355
 20
-23.02000714499053
 30
0.0
 11
-69.60471909905355
 21
-27.60390239654265
 31
0.0
  0
LINE
  5
A655
330
A
100
AcDbEntity
  8
0
  6
Continuous
 62
     7
370
     0
100
AcDbLine
 10
-69.60471909905355
 20
-27.60390239654265
 30
0.0
 11
-69.60471909905355
 21
-32.97966596055619
 31
0.0
  0
LINE
  5
A656
330
A
100
AcDbEntity
  8
0
  6
Continuous
 62
     9
370
     0
100
AcDbLine
 10
-76.20471909905337
 20
-1.266060669293153
 30
0.0
 11
-74.20471909905335
 21
-1.266060669293153
 31
0.0
  0
LINE
  5
A657
330
A
100
AcDbEntity
  8
0
  6
Continuous
 62
     9
370
     0
100
AcDbLine
 10
-74.20471909905339
 20
-26.65052787373099
 30
0.0
 11
-74.20471909905342
 21
-1.266060669292699
 31
0.0
  0
LINE
  5
A658
330
A
100
AcDbEntity
  8
0
  6
Continuous
 62
     9
370
     0
100
AcDbLine
 10
-76.20471909905339
 20
-26.65052787373082
 30
0.0
 11
-74.20471909905335
 21
-26.65052787373088
 31
0.0
  0
LINE
  5
A659
330
A
100
AcDbEntity
  8
0
  6
Continuous
 62
     7
370
     0
100
AcDbLine
 10
-76.2047190990534
 20
-26.65052787373099
 30
0.0
 11
-76.2047190990534
 21
-1.266060669292699
 31
0.0
  0
LINE
  5
A65A
330
A
100
AcDbEntity
  8
0
  6
Continuous
 62
     7
370
     0
100
AcDbLine
 10
-71.20471909905335
 20
-2.544571950767306
 30
0.0
 11
-71.20471909905335
 21
-25.39059243476186
 31
0.0
  0
ELLIPSE
  5
A65B
330
A
100
AcDbEntity
  8
0
  6
Continuous
 62
     9
370
     0
100
AcDbEllipse
 10
-74.20471909905337
 20
-25.3905924347614
 30
0.0
 11
3.000000000000002
 21
0.0
 31
0.0
210
0.0
220
0.0
230
1.0
 40
0.4199784796564668
 41
4.712388980384698
 42
6.283185307179586
  0
ELLIPSE
  5
A65C
330
A
100
AcDbEntity
  8
0
  6
Continuous
 62
     9
370
     0
100
AcDbEllipse
 10
-74.20471909905337
 20
-2.544571950767533
 30
0.0
 11
3.000000000000002
 21
0.0
 31
0.0
210
0.0
220
0.0
230
1.0
 40
0.4261704271581161
 41
0.0
 42
1.570796326794887
  0
LINE
  5
A65D
330
A
100
AcDbEntity
  8
0
  6
Continuous
 62
     7
370
     0
100
AcDbLine
 10
-71.20471909905335
 20
-25.39059243476174
 30
0.0
 11
-71.20471909905333
 21
-45.70996465076951
 31
0.0
  0
LINE
  5
A65E
330
A
100
AcDbEntity
  8
0
  6
Continuous
 62
     9
370
     0
100
AcDbLine
 10
-74.20471909905322
 20
-49.83125920640254
 30
0.0
 11
-73.26368148300062
 21
-49.63201702403177
 31
0.0
  0
LINE
  5
A65F
330
A
100
AcDbEntity
  8
0
  6
Continuous
 62
     9
370
     0
100
AcDbLine
 10
-74.20471909905339
 20
-49.83125920640304
 30
0.0
 11
-74.20471909905341
 21
-26.65052787373105
 31
0.0
  0
LINE
  5
A660
330
A
100
AcDbEntity
  8
0
  6
Continuous
 62
     9
370
     0
100
AcDbLine
 10
-76.20471909905339
 20
-49.83125920640254
 30
0.0
 11
-74.20471909905339
 21
-49.83125920640254
 31
0.0
  0
LINE
  5
A661
330
A
100
AcDbEntity
  8
0
  6
Continuous
 62
     7
370
     0
100
AcDbLine
 10
-76.20471909905339
 20
-49.83125920640304
 30
0.0
 11
-76.2047190990534
 21
-26.65052787373105
 31
0.0
  0
LINE
  5
A662
330
A
100
AcDbEntity
  8
0
  6
Continuous
 62
     9
370
     0
100
AcDbLine
 10
-74.20471909905339
 20
-1.266060669292812
 30
0.0
 11
-74.20471909905339
 21
21.73066686776804
 31
0.0
  0
ARC
  5
A663
330
A
100
AcDbEntity
  8
0
  6
Continuous
 62
     7
370
     0
100
AcDbCircle
 10
-75.33581158552886
 20
17.97474596074886
 30
0.0
 40
4.145608747926255
100
AcDbArc
 50
355.2037957060508
 51
55.67856697640401
  0
LINE
  5
A664
330
A
100
AcDbEntity
  8
0
  6
Continuous
 62
     7
370
     0
100
AcDbLine
 10
-71.20471909905335
 20
17.62812403549219
 30
0.0
 11
-71.20471909905335
 21
-2.544571950767306
 31
0.0
  0
LINE
  5
A665
330
A
100
AcDbEntity
  8
0
  6
Continuous
 62
     9
370
     0
100
AcDbLine
 10
-74.20471909905341
 20
21.73066686776724
 30
0.0
 11
-76.2047190990534
 21
21.73066686776724
 31
0.0
  0
LINE
  5
A666
330
A
100
AcDbEntity
  8
0
  6
Continuous
 62
     7
370
     0
100
AcDbLine
 10
-76.2047190990534
 20
-1.266060669292812
 30
0.0
 11
-76.20471909905339
 21
21.73066686776804
 31
0.0
  0
ARC
  5
A667
330
A
100
AcDbEntity
  8
0
  6
Continuous
 62
     7
370
     0
100
AcDbCircle
 10
-75.15789937287197
 20
-46.13613476712032
 30
0.0
 40
3.97608541726402
100
AcDbArc
 50
298.4507212521175
 51
6.152972776538016
  0
LINE
  5
A668
330
A
100
AcDbEntity
  8
0
  6
Continuous
 62
     9
370
     0
100
AcDbLine
 10
-74.20471909905339
 20
-49.83125920640254
 30
0.0
 11
-74.20471909905339
 21
-49.83944615543555
 31
0.0
  0
ARC
  5
A669
330
A
100
AcDbEntity
  8
0
  6
Continuous
 62
     9
370
     0
100
AcDbCircle
 10
-74.21827095443276
 20
19.32446577516452
 30
0.0
 40
2.406239254693228
100
AcDbArc
 50
59.53757434191498
 51
89.67731046647106
  0
LINE
  5
A66A
330
A
100
AcDbEntity
  8
0
  6
Continuous
 62
     7
370
     0
100
AcDbLine
 10
-76.2047190990534
 20
-49.83944615543555
 30
0.0
 11
-76.2047190990534
 21
-49.83125920640254
 31
0.0
  0
LINE
  5
A66B
330
A
100
AcDbEntity
  8
0
  6
Continuous
 62
     9
370
     0
100
AcDbLine
 10
-74.20471909905341
 20
21.73847125890745
 30
0.0
 11
-74.20471909905341
 21
21.73066686776724
 31
0.0
  0
LINE
  5
A66C
330
A
100
AcDbEntity
  8
0
  6
Continuous
 62
     7
370
     0
100
AcDbLine
 10
-76.2047190990534
 20
21.73066686776724
 30
0.0
 11
-76.2047190990534
 21
21.73847125890745
 31
0.0
  0
LINE
  5
A66D
330
A
100
AcDbEntity
  8
0
  6
Continuous
 62
     7
370
     0
100
AcDbLine
 10
-85.20471909905614
 20
-26.59737840094403
 30
0.0
 11
-83.70471909905615
 21
-26.59737840094403
 31
0.0
  0
LINE
  5
A66E
330
A
100
AcDbEntity
  8
0
  6
Continuous
 62
     7
370
     0
100
AcDbLine
 10
-85.20471909905614
 20
-2.06218696616446
 30
0.0
 11
-83.70471909905615
 21
-2.06218696616446
 31
0.0
  0
LINE
  5
A66F
330
A
100
AcDbEntity
  8
0
  6
Continuous
 62
     7
370
     0
100
AcDbLine
 10
-83.70471909905615
 20
-2.06218696616446
 30
0.0
 11
-83.70471909905615
 21
-26.59737840094403
 31
0.0
  0
LINE
  5
A670
330
A
100
AcDbEntity
  8
0
  6
Continuous
 62
     9
370
     0
100
AcDbLine
 10
-83.70471909905615
 20
17.00562384700754
 30
0.0
 11
-85.20471909905616
 21
17.00562384700754
 31
0.0
  0
LINE
  5
A671
330
A
100
AcDbEntity
  8
0
  6
Continuous
 62
     7
370
     0
100
AcDbLine
 10
-83.70471909905615
 20
17.00562384700765
 30
0.0
 11
-83.70471909905615
 21
-2.06218696616446
 31
0.0
  0
LINE
  5
A672
330
A
100
AcDbEntity
  8
0
  6
Continuous
 62
     9
370
     0
100
AcDbLine
 10
-85.20471909905614
 20
-45.005296952555
 30
0.0
 11
-83.70471909905615
 21
-45.005296952555
 31
0.0
  0
LINE
  5
A673
330
A
100
AcDbEntity
  8
0
  6
Continuous
 62
     7
370
     0
100
AcDbLine
 10
-83.70471909905615
 20
-26.59737840094403
 30
0.0
 11
-83.70471909905615
 21
-45.00529695255494
 31
0.0
  0
LINE
  5
A674
330
A
100
AcDbEntity
  8
0
  6
Continuous
 62
     7
370
     0
100
AcDbLine
 10
-83.70471909905615
 20
17.26726858987513
 30
0.0
 11
-83.70471909905615
 21
17.00562384700754
 31
0.0
  0
LINE
  5
A675
330
A
100
AcDbEntity
  8
0
  6
Continuous
 62
     7
370
     0
100
AcDbLine
 10
-83.70471909905615
 20
-45.00529695255494
 30
0.0
 11
-83.70471909905615
 21
-45.26694169542259
 31
0.0
  0
LINE
  5
A676
330
A
100
AcDbEntity
  8
0
  6
Continuous
 62
     7
370
     0
100
AcDbLine
 10
-101.2047188058972
 20
23.50016344722627
 30
0.0
 11
-95.20471880589724
 21
23.50016344722627
 31
0.0
  0
LINE
  5
A677
330
A
100
AcDbEntity
  8
0
  6
Continuous
 62
     7
370
     0
100
AcDbLine
 10
-89.20471880589724
 20
24.1001634472263
 30
0.0
 11
-95.20471880589724
 21
24.1001634472263
 31
0.0
  0
LINE
  5
A678
330
A
100
AcDbEntity
  8
0
  6
Continuous
 62
     7
370
     0
100
AcDbLine
 10
-95.20471880589724
 20
24.1001634472263
 30
0.0
 11
-101.2047188058972
 21
24.1001634472263
 31
0.0
  0
LINE
  5
A679
330
A
100
AcDbEntity
  8
0
  6
Continuous
 62
     7
370
     0
100
AcDbLine
 10
-95.20471880589724
 20
23.50016344722627
 30
0.0
 11
-89.57948594111162
 21
23.50016344722627
 31
0.0
  0
LINE
  5
A67A
330
A
100
AcDbEntity
  8
0
  6
Continuous
 62
     7
370
     0
100
AcDbLine
 10
-89.57948594111162
 20
23.50016344722627
 30
0.0
 11
-89.5583397281668
 21
23.50016344722627
 31
0.0
  0
LINE
  5
A67B
330
A
100
AcDbEntity
  8
0
  6
Continuous
 62
     7
370
     0
100
AcDbLine
 10
-100.5047188058972
 20
24.80016344722623
 30
0.0
 11
-95.20471880589724
 21
24.80016344722623
 31
0.0
  0
LINE
  5
A67C
330
A
100
AcDbEntity
  8
0
  6
Continuous
 62
     7
370
     0
100
AcDbLine
 10
-95.20471880589724
 20
24.80016344722623
 30
0.0
 11
-89.90471880589725
 21
24.80016344722623
 31
0.0
  0
LINE
  5
A67D
330
A
100
AcDbEntity
  8
0
  6
Continuous
 62
     7
370
     0
100
AcDbLine
 10
-89.55833972816719
 20
-51.49983655277373
 30
0.0
 11
-89.57948594111162
 21
-51.49983655277373
 31
0.0
  0
LINE
  5
A67E
330
A
100
AcDbEntity
  8
0
  6
Continuous
 62
     7
370
     0
100
AcDbLine
 10
-89.57948594111162
 20
-51.49983655277373
 30
0.0
 11
-101.2047188058972
 21
-51.49983655277373
 31
0.0
  0
LINE
  5
A67F
330
A
100
AcDbEntity
  8
0
  6
Continuous
 62
     7
370
     0
100
AcDbLine
 10
-101.2047188058972
 20
-52.09983655277375
 30
0.0
 11
-89.20471880589722
 21
-52.09983655277375
 31
0.0
  0
LINE
  5
A680
330
A
100
AcDbEntity
  8
0
  6
Continuous
 62
     7
370
     0
100
AcDbLine
 10
-89.90471880589723
 20
-52.79983655277374
 30
0.0
 11
-100.5047188058972
 21
-52.79983655277374
 31
0.0
  0
LINE
  5
A681
330
A
100
AcDbEntity
  8
0
  6
Continuous
 62
     7
370
     0
100
AcDbLine
 10
-94.21060145199735
 20
6.000163447226327
 30
0.0
 11
-95.20471909905621
 21
6.000163447226327
 31
0.0
  0
LINE
  5
A682
330
A
100
AcDbEntity
  8
0
  6
Continuous
 62
     7
370
     0
100
AcDbLine
 10
-95.20471909905621
 20
6.000163447226327
 30
0.0
 11
-101.2047190990562
 21
6.000163447226327
 31
0.0
  0
LINE
  5
A683
330
A
100
AcDbEntity
  8
0
  6
Continuous
 62
     7
370
     0
100
AcDbLine
 10
-94.21060145199735
 20
4.700163447226316
 30
0.0
 11
-94.70471909905615
 21
4.700163447226316
 31
0.0
  0
LINE
  5
A684
330
A
100
AcDbEntity
  8
0
  6
Continuous
 62
     7
370
     0
100
AcDbLine
 10
-94.70471909905617
 20
4.700163447226316
 30
0.0
 11
-95.20471909905618
 21
4.700163447226316
 31
0.0
  0
LINE
  5
A685
330
A
100
AcDbEntity
  8
0
  6
Continuous
 62
     7
370
     0
100
AcDbLine
 10
-95.20471909905618
 20
4.700163447226316
 30
0.0
 11
-101.2047190990562
 21
4.700163447226316
 31
0.0
  0
LINE
  5
A686
330
A
100
AcDbEntity
  8
0
  6
Continuous
 62
     7
370
     0
100
AcDbLine
 10
-101.2047190990562
 20
-33.99983655277345
 30
0.0
 11
-95.20471909905621
 21
-33.99983655277345
 31
0.0
  0
LINE
  5
A687
330
A
100
AcDbEntity
  8
0
  6
Continuous
 62
     7
370
     0
100
AcDbLine
 10
-101.2047190990562
 20
-32.69983655277349
 30
0.0
 11
-95.20471909905621
 21
-32.69983655277349
 31
0.0
  0
LINE
  5
A688
330
A
100
AcDbEntity
  8
0
  6
Continuous
 62
     7
370
     0
100
AcDbLine
 10
-95.20471909905621
 20
-32.69983655277349
 30
0.0
 11
-94.70471909905436
 21
-32.69983655277349
 31
0.0
  0
LINE
  5
A689
330
A
100
AcDbEntity
  8
0
  6
Continuous
 62
     7
370
     0
100
AcDbLine
 10
-94.70471909905436
 20
-32.69983655277349
 30
0.0
 11
-94.21060145199735
 21
-32.69983655277349
 31
0.0
  0
LINE
  5
A68A
330
A
100
AcDbEntity
  8
0
  6
Continuous
 62
     7
370
     0
100
AcDbLine
 10
-95.20471909905621
 20
-33.99983655277345
 30
0.0
 11
-94.21060145199735
 21
-33.99983655277345
 31
0.0
  0
ARC
  5
A68B
330
A
100
AcDbEntity
  8
0
  6
Continuous
 62
     7
370
     0
100
AcDbCircle
 10
-95.20471909905618
 20
-41.49983655277373
 30
0.0
 40
1.0
100
AcDbArc
 50
6.217650251915618
 51
180.0
  0
ARC
  5
A68C
330
A
100
AcDbEntity
  8
0
  6
Continuous
 62
     7
370
     0
100
AcDbCircle
 10
-95.20471909905618
 20
-41.49983655277373
 30
0.0
 40
1.0
100
AcDbArc
 50
180.0
 51
353.7823497480844
  0
LINE
  5
A68D
330
A
100
AcDbEntity
  8
0
  6
Continuous
 62
     7
370
     0
100
AcDbLine
 10
-95.20471909905618
 20
-42.3658619565582
 30
0.0
 11
-95.95471909905619
 21
-41.93284925466594
 31
0.0
  0
LINE
  5
A68E
330
A
100
AcDbEntity
  8
0
  6
Continuous
 62
     7
370
     0
100
AcDbLine
 10
-95.95471909905619
 20
-41.93284925466594
 30
0.0
 11
-95.95471909905619
 21
-41.06682385088151
 31
0.0
  0
LINE
  5
A68F
330
A
100
AcDbEntity
  8
0
  6
Continuous
 62
     7
370
     0
100
AcDbLine
 10
-94.45471909905618
 20
-41.06682385088151
 30
0.0
 11
-94.45471909905618
 21
-41.93284925466594
 31
0.0
  0
LINE
  5
A690
330
A
100
AcDbEntity
  8
0
  6
Continuous
 62
     7
370
     0
100
AcDbLine
 10
-94.45471909905618
 20
-41.93284925466594
 30
0.0
 11
-95.20471909905618
 21
-42.3658619565582
 31
0.0
  0
LINE
  5
A691
330
A
100
AcDbEntity
  8
0
  6
Continuous
 62
     7
370
     0
100
AcDbLine
 10
-95.95471909905619
 20
-41.06682385088151
 30
0.0
 11
-95.20471909905618
 21
-40.6338111489893
 31
0.0
  0
LINE
  5
A692
330
A
100
AcDbEntity
  8
0
  6
Continuous
 62
     7
370
     0
100
AcDbLine
 10
-95.20471909905618
 20
-40.6338111489893
 30
0.0
 11
-94.45471909905618
 21
-41.06682385088151
 31
0.0
  0
LINE
  5
A693
330
A
100
AcDbEntity
  8
0
  6
Continuous
 62
     9
370
     0
100
AcDbLine
 10
-89.15124275927647
 20
-1.307528860466049
 30
0.0
 11
-85.20471909905619
 21
-1.307528860466049
 31
0.0
  0
LINE
  5
A694
330
A
100
AcDbEntity
  8
0
  6
Continuous
 62
     7
370
     0
100
AcDbLine
 10
-85.20471909905618
 20
-1.307528860466049
 30
0.0
 11
-85.20471909905618
 21
-26.69214424508141
 31
0.0
  0
LINE
  5
A695
330
A
100
AcDbEntity
  8
0
  6
Continuous
 62
     9
370
     0
100
AcDbLine
 10
-89.15124275927647
 20
-26.69214424508141
 30
0.0
 11
-85.20471909905619
 21
-26.69214424508141
 31
0.0
  0
ARC
  5
A696
330
A
100
AcDbEntity
  8
0
  6
Continuous
 62
     7
370
     0
100
AcDbCircle
 10
-174.2306908433502
 20
-13.95967698844714
 30
0.0
 40
86.02690398202105
100
AcDbArc
 50
351.4886316925638
 51
356.9943841446427
  0
ARC
  5
A69C
330
A
100
AcDbEntity
  8
0
  6
Continuous
 62
     7
370
     0
100
AcDbCircle
 10
-174.2272441858708
 20
-14.03964854090856
 30
0.0
 40
86.02344384117039
100
AcDbArc
 50
3.005505040489866
 51
8.511479122301496
  0
LINE
  5
A69D
330
A
100
AcDbEntity
  8
0
  6
Continuous
 62
     9
370
     0
100
AcDbLine
 10
-88.32212544978114
 20
-18.47039763494388
 30
0.0
 11
-88.32212544978114
 21
-9.529275470603579
 31
0.0
  0
LINE
  5
A6A3
330
A
100
AcDbEntity
  8
0
  6
Continuous
 62
     7
370
     0
100
AcDbLine
 10
-94.20471909905614
 20
-50.9934078312624
 30
0.0
 11
-94.20471909905618
 21
22.99373472571494
 31
0.0
  0
LINE
  5
A6AA
330
A
100
AcDbEntity
  8
0
  6
Continuous
 62
     7
370
     0
100
AcDbLine
 10
-89.55833972816723
 20
23.50016344722627
 30
0.0
 11
-94.21060145199735
 21
23.38066483547919
 31
0.0
  0
LINE
  5
A6AB
330
A
100
AcDbEntity
  8
0
  6
Continuous
 62
     7
370
     0
100
AcDbLine
 10
-89.20471909905618
 20
23.50016344722627
 30
0.0
 11
-89.20471909905618
 21
23.19425671549936
 31
0.0
  0
LINE
  5
A6B3
330
A
100
AcDbEntity
  8
0
  6
Continuous
 62
     7
370
     0
100
AcDbLine
 10
-94.20471909905618
 20
22.99373472571494
 30
0.0
 11
-94.20471909905618
 21
23.37488327138368
 31
0.0
  0
LINE
  5
A6B4
330
A
100
AcDbEntity
  8
0
  6
Continuous
 62
     7
370
     0
100
AcDbLine
 10
-94.20471909905618
 20
23.37488327138368
 30
0.0
 11
-94.21060145199735
 21
23.38066483547919
 31
0.0
  0
LINE
  5
A6B5
330
A
100
AcDbEntity
  8
0
  6
Continuous
 62
     7
370
     0
100
AcDbLine
 10
-85.20471909905618
 20
20.09096540929824
 30
0.0
 11
-85.20471909905618
 21
-1.307528860465936
 31
0.0
  0
LINE
  5
A6B6
330
A
100
AcDbEntity
  8
0
  6
Continuous
 62
     7
370
     0
100
AcDbLine
 10
-89.55833972816723
 20
-51.49983655277367
 30
0.0
 11
-94.21060145199733
 21
-51.3803379410266
 31
0.0
  0
LINE
  5
A6B7
330
A
100
AcDbEntity
  8
0
  6
Continuous
 62
     7
370
     0
100
AcDbLine
 10
-94.21060145199733
 20
-51.3803379410266
 30
0.0
 11
-94.20471909905614
 21
-51.37455637693119
 31
0.0
  0
LINE
  5
A6B8
330
A
100
AcDbEntity
  8
0
  6
Continuous
 62
     7
370
     0
100
AcDbLine
 10
-94.20471909905614
 20
-51.37455637693119
 30
0.0
 11
-94.20471909905614
 21
-50.99340783126246
 31
0.0
  0
LINE
  5
A6BF
330
A
100
AcDbEntity
  8
0
  6
Continuous
 62
     7
370
     0
100
AcDbLine
 10
-89.20471909905618
 20
-51.19392982104682
 30
0.0
 11
-89.20471909905618
 21
-51.49983655277373
 31
0.0
  0
LINE
  5
A6C0
330
A
100
AcDbEntity
  8
0
  6
Continuous
 62
     7
370
     0
100
AcDbLine
 10
-85.20471909905618
 20
-26.69214424508141
 30
0.0
 11
-85.20471909905618
 21
-48.09063851484563
 31
0.0
  0
LINE
  5
A6C1
330
A
100
AcDbEntity
  8
0
  6
Continuous
 62
     7
370
     0
100
AcDbLine
 10
-94.21060145199733
 20
-51.3803379410266
 30
0.0
 11
-94.21060145199735
 21
-32.69983655277372
 31
0.0
  0
LINE
  5
A6C2
330
A
100
AcDbEntity
  8
0
  6
Continuous
 62
     7
370
     0
100
AcDbLine
 10
-94.70471909905617
 20
-32.69983655277372
 30
0.0
 11
-94.21060145199735
 21
-32.69983655277372
 31
0.0
  0
LINE
  5
A6C3
330
A
100
AcDbEntity
  8
0
  6
Continuous
 62
     9
370
     0
100
AcDbLine
 10
-94.70471909905617
 20
-32.69983655277372
 30
0.0
 11
-94.70471909905617
 21
4.700163447226202
 31
0.0
  0
LINE
  5
A6C4
330
A
100
AcDbEntity
  8
0
  6
Continuous
 62
     7
370
     0
100
AcDbLine
 10
-94.70471909905617
 20
4.700163447226202
 30
0.0
 11
-94.21060145199735
 21
4.700163447226202
 31
0.0
  0
LINE
  5
A6C5
330
A
100
AcDbEntity
  8
0
  6
Continuous
 62
     7
370
     0
100
AcDbLine
 10
-94.21060145199735
 20
23.38066483547919
 30
0.0
 11
-94.21060145199735
 21
4.700163447226202
 31
0.0
  0
LINE
  5
A6C6
330
A
100
AcDbEntity
  8
0
  6
Continuous
 62
     9
370
     0
100
AcDbLine
 10
-95.20471909905618
 20
-32.69983655277372
 30
0.0
 11
-95.20471909905616
 21
4.700163447226202
 31
0.0
  0
LINE
  5
A6C7
330
A
100
AcDbEntity
  8
0
  6
Continuous
 62
     7
370
     0
100
AcDbLine
 10
-94.70471909905617
 20
4.700163447226202
 30
0.0
 11
-95.20471909905616
 21
4.700163447226202
 31
0.0
  0
LINE
  5
A6C8
330
A
100
AcDbEntity
  8
0
  6
Continuous
 62
     7
370
     0
100
AcDbLine
 10
-94.70471909905617
 20
-32.69983655277372
 30
0.0
 11
-95.20471909905618
 21
-32.69983655277372
 31
0.0
  0
LINE
  5
A6C9
330
A
100
AcDbEntity
  8
0
  6
Continuous
 62
     7
370
     0
100
AcDbLine
 10
-101.2047190990561
 20
-32.69983655277372
 30
0.0
 11
-101.2047190990561
 21
4.700163447226202
 31
0.0
  0
LINE
  5
A6CA
330
A
100
AcDbEntity
  8
0
  6
Continuous
 62
     7
370
     0
100
AcDbLine
 10
-95.20471909905616
 20
4.700163447226202
 30
0.0
 11
-101.2047190990561
 21
4.700163447226202
 31
0.0
  0
LINE
  5
A6CB
330
A
100
AcDbEntity
  8
0
  6
Continuous
 62
     7
370
     0
100
AcDbLine
 10
-95.20471909905618
 20
-32.69983655277372
 30
0.0
 11
-101.2047190990561
 21
-32.69983655277372
 31
0.0
  0
LINE
  5
A6CC
330
A
100
AcDbEntity
  8
0
  6
Continuous
 62
     7
370
     0
100
AcDbLine
 10
-94.21060145199735
 20
-33.99983655277373
 30
0.0
 11
-101.2047190990562
 21
-33.99983655277373
 31
0.0
  0
LINE
  5
A6E1
330
A
100
AcDbEntity
  8
0
  6
Continuous
 62
     7
370
     0
100
AcDbLine
 10
-89.55833972816719
 20
-51.49983655277373
 30
0.0
 11
-101.2047190990562
 21
-51.49983655277373
 31
0.0
  0
LINE
  5
A6E2
330
A
100
AcDbEntity
  8
0
  6
Continuous
 62
     7
370
     0
100
AcDbLine
 10
-101.2047190990562
 20
6.000163447226327
 30
0.0
 11
-95.20471909905621
 21
6.000163447226327
 31
0.0
  0
LINE
  5
A6E3
330
A
100
AcDbEntity
  8
0
  6
Continuous
 62
     7
370
     0
100
AcDbLine
 10
-95.20471909905621
 20
6.000163447226327
 30
0.0
 11
-94.21060145199735
 21
6.000163447226327
 31
0.0
  0
LINE
  5
A6E4
330
A
100
AcDbEntity
  8
0
  6
Continuous
 62
     7
370
     0
100
AcDbLine
 10
-89.55833972816719
 20
23.50016344722627
 30
0.0
 11
-101.2047190990562
 21
23.50016344722627
 31
0.0
  0
LINE
  5
A6E5
330
A
100
AcDbEntity
  8
0
  6
Continuous
 62
     9
370
     0
100
AcDbLine
 10
-88.20471909905618
 20
23.50016344722627
 30
0.0
 11
-88.20471909905618
 21
22.01592837678191
 31
0.0
  0
LINE
  5
A6E6
330
A
100
AcDbEntity
  8
0
  6
Continuous
 62
     7
370
     0
100
AcDbLine
 10
-88.20471909905618
 20
23.50016344722627
 30
0.0
 11
-89.2047190990562
 21
23.50016344722627
 31
0.0
  0
LINE
  5
A6E7
330
A
100
AcDbEntity
  8
0
  6
Continuous
 62
     9
370
     0
100
AcDbLine
 10
-88.20471909905618
 20
-50.01550262319693
 30
0.0
 11
-88.20471909905618
 21
-51.49983655277373
 31
0.0
  0
LINE
  5
A6E8
330
A
100
AcDbEntity
  8
0
  6
Continuous
 62
     7
370
     0
100
AcDbLine
 10
-89.20471909905618
 20
-51.49983655277373
 30
0.0
 11
-88.20471909905618
 21
-51.49983655277373
 31
0.0
  0
ARC
  5
A6E9
330
A
100
AcDbEntity
  8
0
  6
Continuous
 62
     7
370
     0
100
AcDbCircle
 10
-79.20471909905618
 20
-38.99983655277373
 30
0.0
 40
5.200000000000001
100
AcDbArc
 50
143.4050690444308
 51
149.926652355025
  0
ARC
  5
A6EA
330
A
100
AcDbEntity
  8
0
  6
Continuous
 62
     7
370
     0
100
AcDbCircle
 10
-79.20471909905618
 20
-38.99983655277373
 30
0.0
 40
5.19999999999998
100
AcDbArc
 50
210.073347644975
 51
286.7658729726738
  0
ARC
  5
A6EB
330
A
100
AcDbEntity
  8
0
  6
Continuous
 62
     7
370
     0
100
AcDbCircle
 10
-79.20471909905621
 20
11.00016344722632
 30
0.0
 40
5.200000000000001
100
AcDbArc
 50
73.23412702732622
 51
149.926652355025
  0
ARC
  5
A6EC
330
A
100
AcDbEntity
  8
0
  6
Continuous
 62
     7
370
     0
100
AcDbCircle
 10
-79.20471909905621
 20
11.00016344722632
 30
0.0
 40
5.200000000000038
100
AcDbArc
 50
281.2547126183682
 51
286.7658729726738
  0
ARC
  5
A6ED
330
A
100
AcDbEntity
  8
0
  6
Continuous
 62
     7
370
     0
100
AcDbCircle
 10
-79.20471909905621
 20
11.00016344722632
 30
0.0
 40
5.20000000000002
100
AcDbArc
 50
210.073347644975
 51
258.7452873816318
  0
LINE
  5
A6EE
330
A
100
AcDbEntity
  8
0
  6
Continuous
 62
     7
370
     0
100
AcDbLine
 10
-71.20471909905621
 20
23.50016344722627
 30
0.0
 11
-71.20471909905621
 21
17.62812403918923
 31
0.0
  0
LINE
  5
A6EF
330
A
100
AcDbEntity
  8
0
  6
Continuous
 62
     7
370
     0
100
AcDbLine
 10
-71.20471909905477
 20
-45.70996465076882
 30
0.0
 11
-71.20471909905619
 21
-51.49983655277373
 31
0.0
  0
ARC
  5
A6F0
330
A
100
AcDbEntity
  8
0
  6
Continuous
 62
     7
370
     0
100
AcDbCircle
 10
-79.20471909905621
 20
-13.99983655277373
 30
0.0
 40
5.200000000000001
100
AcDbArc
 50
73.23412702732622
 51
149.926652355025
  0
ARC
  5
A6F1
330
A
100
AcDbEntity
  8
0
  6
Continuous
 62
     7
370
     0
100
AcDbCircle
 10
-79.20471909905621
 20
-13.99983655277373
 30
0.0
 40
5.200000000000043
100
AcDbArc
 50
210.073347644975
 51
286.7658729726753
  0
LINE
  5
A6F2
330
A
100
AcDbEntity
  8
0
  6
Continuous
 62
     7
370
     0
100
AcDbLine
 10
-71.20471909905621
 20
23.50016344722627
 30
0.0
 11
-88.20471909905618
 21
23.50016344722627
 31
0.0
  0
LINE
  5
A6F3
330
A
100
AcDbEntity
  8
0
  6
Continuous
 62
     7
370
     0
100
AcDbLine
 10
-71.20471909905619
 20
-51.49983655277373
 30
0.0
 11
-88.20471909905618
 21
-51.49983655277373
 31
0.0
  0
ARC
  5
A6F4
330
A
100
AcDbEntity
  8
0
  6
Continuous
 62
     7
370
     0
100
AcDbCircle
 10
-79.20471909905621
 20
-13.99983655277373
 30
0.0
 40
2.649999999999999
100
AcDbArc
 50
55.52561539015542
 51
180.0
  0
ARC
  5
A6F5
330
A
100
AcDbEntity
  8
0
  6
Continuous
 62
     7
370
     0
100
AcDbCircle
 10
-79.20471909905621
 20
-13.99983655277373
 30
0.0
 40
2.650000000000031
100
AcDbArc
 50
180.0
 51
304.4743846098445
  0
ARC
  5
A6F6
330
A
100
AcDbEntity
  8
0
  6
Continuous
 62
     7
370
     0
100
AcDbCircle
 10
-79.20471909905621
 20
11.00016344722632
 30
0.0
 40
2.649999999999999
100
AcDbArc
 50
55.52561539015677
 51
180.0
  0
ARC
  5
A6F7
330
A
100
AcDbEntity
  8
0
  6
Continuous
 62
     7
370
     0
100
AcDbCircle
 10
-79.20471909905621
 20
11.00016344722632
 30
0.0
 40
2.65000000000002
100
AcDbArc
 50
180.0
 51
304.4743846098445
  0
ARC
  5
A6F8
330
A
100
AcDbEntity
  8
0
  6
Continuous
 62
     7
370
     0
100
AcDbCircle
 10
-79.20471909905618
 20
-38.99983655277373
 30
0.0
 40
2.649999999999999
100
AcDbArc
 50
55.52561539015542
 51
180.0
  0
ARC
  5
A6F9
330
A
100
AcDbEntity
  8
0
  6
Continuous
 62
     7
370
     0
100
AcDbCircle
 10
-79.20471909905618
 20
-38.99983655277373
 30
0.0
 40
2.65000000000002
100
AcDbArc
 50
180.0
 51
304.4743846098445
  0
LINE
  5
A6FA
330
A
100
AcDbEntity
  8
0
  6
Continuous
 62
     7
370
     0
100
AcDbLine
 10
-76.20471909905621
 20
17.26726858987257
 30
0.0
 11
-77.70471909905594
 21
17.26726858987257
 31
0.0
  0
LINE
  5
A6FB
330
A
100
AcDbEntity
  8
0
  6
Continuous
 62
     7
370
     0
100
AcDbLine
 10
-77.70471909905594
 20
-45.26694169541849
 30
0.0
 11
-76.20471909905621
 21
-45.26694169541849
 31
0.0
  0
LINE
  5
A6FC
330
A
100
AcDbEntity
  8
0
  6
Continuous
 62
     7
370
     0
100
AcDbLine
 10
-71.20471909905622
 20
-6.192264973085571
 30
0.0
 11
-69.85471909904842
 21
-5.412842109675068
 31
0.0
  0
LINE
  5
A6FD
330
A
100
AcDbEntity
  8
0
  6
Continuous
 62
     7
370
     0
100
AcDbLine
 10
-69.85471909904842
 20
5.412842109675068
 30
0.0
 11
-71.20471909905621
 21
6.192264973085571
 31
0.0
  0
ARC
  5
A6FE
330
A
100
AcDbEntity
  8
0
  6
Continuous
 62
     7
370
     0
100
AcDbCircle
 10
-70.10471909904842
 20
4.979829407782858
 30
0.0
 40
0.5000000000000005
100
AcDbArc
 50
0.0
 51
59.99999999999946
  0
ARC
  5
A6FF
330
A
100
AcDbEntity
  8
0
  6
Continuous
 62
     7
370
     0
100
AcDbCircle
 10
-70.10471909904842
 20
-4.979829407782858
 30
0.0
 40
0.500000000000002
100
AcDbArc
 50
300.0000000000005
 51
0.0
  0
LINE
  5
A700
330
A
100
AcDbEntity
  8
0
  6
Continuous
 62
     7
370
     0
100
AcDbLine
 10
-71.20471909905621
 20
-34.19210152585595
 30
0.0
 11
-69.85471909905355
 21
-33.4126786624484
 31
0.0
  0
LINE
  5
A701
330
A
100
AcDbEntity
  8
0
  6
Continuous
 62
     7
370
     0
100
AcDbLine
 10
-69.85471909905355
 20
-22.58699444309832
 30
0.0
 11
-71.20471909905621
 21
-21.80757157969083
 31
0.0
  0
ARC
  5
A702
330
A
100
AcDbEntity
  8
0
  6
Continuous
 62
     7
370
     0
100
AcDbCircle
 10
-70.10471909905355
 20
-23.02000714499053
 30
0.0
 40
0.5000000000000005
100
AcDbArc
 50
0.0
 51
59.99999999999946
  0
ARC
  5
A703
330
A
100
AcDbEntity
  8
0
  6
Continuous
 62
     7
370
     0
100
AcDbCircle
 10
-70.10471909905355
 20
-32.97966596055619
 30
0.0
 40
0.500000000000002
100
AcDbArc
 50
300.0000000000005
 51
0.0
  0
LINE
  5
A704
330
A
100
AcDbEntity
  8
0
  6
Continuous
 62
     7
370
     0
100
AcDbLine
 10
-77.70471909905591
 20
5.900163447228749
 30
0.0
 11
-83.70471909905738
 21
5.900163447228749
 31
0.0
  0
LINE
  5
A705
330
A
100
AcDbEntity
  8
0
  6
Continuous
 62
     7
370
     0
100
AcDbLine
 10
-83.70471909905738
 20
-7.899836552776378
 30
0.0
 11
-77.70471909905591
 21
-7.899836552776378
 31
0.0
  0
LINE
  5
A706
330
A
100
AcDbEntity
  8
0
  6
Continuous
 62
     7
370
     0
100
AcDbLine
 10
-77.70471909905615
 20
-22.09983655277358
 30
0.0
 11
-83.70471909905621
 21
-22.09983655277358
 31
0.0
  0
LINE
  5
A707
330
A
100
AcDbEntity
  8
0
  6
Continuous
 62
     7
370
     0
100
AcDbLine
 10
-83.70471909905619
 20
-35.89983655277382
 30
0.0
 11
-77.70471909905612
 21
-35.89983655277382
 31
0.0
  0
ARC
  5
A708
330
A
100
AcDbEntity
  8
0
  6
Continuous
 62
     7
370
     0
100
AcDbCircle
 10
-74.21177562909182
 20
-47.47293148002603
 30
0.0
 40
2.365993003478551
100
AcDbArc
 50
270.1708838479361
 51
294.0574942575391
  0
ARC
  5
A709
330
A
100
AcDbEntity
  8
0
  6
Continuous
 62
     7
370
     0
100
AcDbCircle
 10
-74.21797077225697
 20
19.31956422875532
 30
0.0
 40
2.418361134992734
100
AcDbArc
 50
57.88287407340146
 51
89.68603996535186
  0
LINE
  5
A70A
330
A
100
AcDbEntity
  8
0
  6
Continuous
 62
     7
370
     0
100
AcDbLine
 10
-76.2047190990534
 20
-49.83944615543555
 30
0.0
 11
-74.20471909905339
 21
-49.83944615543555
 31
0.0
  0
LINE
  5
A70B
330
A
100
AcDbEntity
  8
0
  6
Continuous
 62
     7
370
     0
100
AcDbLine
 10
-74.20471909905341
 20
21.73847125890745
 30
0.0
 11
-76.20471909905342
 21
21.73847125890745
 31
0.0
  0
LINE
  5
A70C
330
A
100
AcDbEntity
  8
0
  6
Continuous
 62
     7
370
     0
100
AcDbLine
 10
-83.70471909905615
 20
17.26726858987513
 30
0.0
 11
-85.20471909905616
 21
17.26726858987513
 31
0.0
  0
LINE
  5
A70D
330
A
100
AcDbEntity
  8
0
  6
Continuous
 62
     7
370
     0
100
AcDbLine
 10
-85.20471909905614
 20
-45.26694169542259
 30
0.0
 11
-83.70471909905615
 21
-45.26694169542259
 31
0.0
  0
LINE
  5
A70E
330
A
100
AcDbEntity
  8
0
  6
Continuous
 62
     7
370
     0
100
AcDbLine
 10
-101.2047188058972
 20
24.1001634472263
 30
0.0
 11
-101.2047188058972
 21
23.50016344722627
 31
0.0
  0
LINE
  5
A70F
330
A
100
AcDbEntity
  8
0
  6
Continuous
 62
     7
370
     0
100
AcDbLine
 10
-89.20471880589724
 20
23.50016344722627
 30
0.0
 11
-89.20471880589724
 21
24.1001634472263
 31
0.0
  0
LINE
  5
A710
330
A
100
AcDbEntity
  8
0
  6
Continuous
 62
     7
370
     0
100
AcDbLine
 10
-89.20471880589724
 20
24.1001634472263
 30
0.0
 11
-89.90471880589725
 21
24.80016344722623
 31
0.0
  0
LINE
  5
A711
330
A
100
AcDbEntity
  8
0
  6
Continuous
 62
     7
370
     0
100
AcDbLine
 10
-100.5047188058972
 20
24.80016344722623
 30
0.0
 11
-101.2047188058972
 21
24.1001634472263
 31
0.0
  0
LINE
  5
A712
330
A
100
AcDbEntity
  8
0
  6
Continuous
 62
     7
370
     0
100
AcDbLine
 10
-89.20471880589722
 20
-52.09983655277375
 30
0.0
 11
-89.20471880589722
 21
-51.49983655277373
 31
0.0
  0
LINE
  5
A713
330
A
100
AcDbEntity
  8
0
  6
Continuous
 62
     7
370
     0
100
AcDbLine
 10
-101.2047188058972
 20
-51.49983655277373
 30
0.0
 11
-101.2047188058972
 21
-52.09983655277375
 31
0.0
  0
LINE
  5
A714
330
A
100
AcDbEntity
  8
0
  6
Continuous
 62
     7
370
     0
100
AcDbLine
 10
-101.2047188058972
 20
-52.09983655277375
 30
0.0
 11
-100.5047188058972
 21
-52.79983655277374
 31
0.0
  0
LINE
  5
A715
330
A
100
AcDbEntity
  8
0
  6
Continuous
 62
     7
370
     0
100
AcDbLine
 10
-89.90471880589723
 20
-52.79983655277374
 30
0.0
 11
-89.20471880589722
 21
-52.09983655277375
 31
0.0
  0
LINE
  5
A716
330
A
100
AcDbEntity
  8
0
  6
Continuous
 62
     7
370
     0
100
AcDbLine
 10
-101.2047190990562
 20
6.000163447226327
 30
0.0
 11
-101.2047190990562
 21
4.700163447226316
 31
0.0
  0
LINE
  5
A717
330
A
100
AcDbEntity
  8
0
  6
Continuous
 62
     7
370
     0
100
AcDbLine
 10
-101.2047190990562
 20
-32.69983655277349
 30
0.0
 11
-101.2047190990562
 21
-33.99983655277345
 31
0.0
  0
LINE
  5
A718
330
A
100
AcDbEntity
  8
0
  6
Continuous
 62
     7
370
     0
100
AcDbLine
 10
-89.20471909905618
 20
23.50016344722627
 30
0.0
 11
-89.55833972816719
 21
23.50016344722627
 31
0.0
  0
LINE
  5
A719
330
A
100
AcDbEntity
  8
0
  6
Continuous
 62
     7
370
     0
100
AcDbLine
 10
-89.55833972816719
 20
-51.49983655277373
 30
0.0
 11
-89.20471909905614
 21
-51.49983655277373
 31
0.0
  0
LINE
  5
A71A
330
A
100
AcDbEntity
  8
0
  6
Continuous
 62
     7
370
     0
100
AcDbLine
 10
-101.2047190990562
 20
-33.99983655277373
 30
0.0
 11
-101.2047190990562
 21
-51.49983655277373
 31
0.0
  0
LINE
  5
A71B
330
A
100
AcDbEntity
  8
0
  6
Continuous
 62
     7
370
     0
100
AcDbLine
 10
-101.2047190990562
 20
23.50016344722627
 30
0.0
 11
-101.2047190990562
 21
6.000163447226327
 31
0.0
  0
ELLIPSE
  5
A9E6
330
A
100
AcDbEntity
  8
0
  6
Continuous
 62
     7
370
     0
100
AcDbEllipse
 10
74.85479220687676
 20
-80.88811576790499
 30
0.0
 11
1.011928851253868
 21
-1.239354670786341
 31
0.0
210
0.0
220
0.0
230
1.0
 40
0.8164965809275857
 41
1.83893500916481
 42
3.141592653589766
  0
ELLIPSE
  5
A9E7
330
A
100
AcDbEntity
  8
0
  6
Continuous
 62
     7
370
     0
100
AcDbEllipse
 10
60.701376336495
 20
-103.389365512292
 30
0.0
 11
-21.25050587633151
 21
26.02644808651383
 31
-0.0000000000000012
210
0.0
220
0.0
230
1.0
 40
0.8164965809275861
 41
4.355133814559139
 42
4.980527662754574
  0
ELLIPSE
  5
A9E8
330
A
100
AcDbEntity
  8
0
  6
Continuous
 62
     7
370
     0
100
AcDbEllipse
 10
69.13045818447767
 20
-101.0933125512307
 30
0.0
 11
-14.6729683431813
 21
17.97064272640242
 31
0.0
210
0.0
220
0.0
230
1.0
 40
0.8164965809275852
 41
3.477621007269263
 42
4.351247074103882
  0
ELLIPSE
  5
A9E9
330
A
100
AcDbEntity
  8
0
  6
Continuous
 62
     7
370
     0
100
AcDbEllipse
 10
60.701376336495
 20
-95.35610133555053
 30
0.0
 11
-21.25050587633151
 21
26.02644808651383
 31
-0.0000000000000012
210
0.0
220
0.0000000000000001
230
1.0
 40
0.8164965809275855
 41
3.269614126114133
 42
3.481507747724365
  0
LINE
  5
A9EA
330
A
100
AcDbEntity
  8
0
  6
Continuous
 62
     7
370
     0
100
AcDbLine
 10
73.42370870127703
 20
-81.52194407352039
 30
0.0
 11
73.42370870127703
 21
-80.59599707056884
 31
0.0
  0
LINE
  5
A9EB
330
A
100
AcDbEntity
  8
0
  6
Continuous
 62
     7
370
     0
100
AcDbLine
 10
88.04151768525091
 20
-96.23548979101968
 30
0.0
 11
88.57817399985078
 21
-95.79731174501569
 31
0.0
  0
LINE
  5
A9EC
330
A
100
AcDbEntity
  8
0
  6
Continuous
 62
     9
370
     0
100
AcDbLine
 10
76.09911931499571
 20
-79.3248752346816
 30
0.0
 11
75.56246300039584
 21
-79.76305328068559
 31
0.0
  0
ELLIPSE
  5
A9ED
330
A
100
AcDbEntity
  8
0
  6
Continuous
 62
     7
370
     0
100
AcDbEllipse
 10
61.23803265109486
 20
-102.951187466288
 30
0.0
 11
-21.25050587633151
 21
26.02644808651383
 31
-0.0000000000000012
210
0.0
220
0.0
230
1.0
 40
0.8164965809275861
 41
4.355133814559139
 42
4.980527662754574
  0
ELLIPSE
  5
A9EE
330
A
100
AcDbEntity
  8
0
  6
Continuous
 62
     7
370
     0
100
AcDbEllipse
 10
79.86358447647598
 20
-93.06004837448922
 30
0.0
 11
3.03578655376166
 21
-3.718064012359134
 31
0.0
210
0.0
220
0.0
230
1.0
 40
0.816496580927585
 41
1.870105364419785
 42
2.158594665340282
  0
LINE
  5
A9EF
330
A
100
AcDbEntity
  8
0
  6
Continuous
 62
     7
370
     0
100
AcDbLine
 10
87.82105991273557
 20
-114.1084594386918
 30
0.0
 11
88.3577162273354
 21
-113.6702813926877
 31
0.0
  0
ELLIPSE
  5
A9F0
330
A
100
AcDbEntity
  8
0
  6
Continuous
 62
     7
370
     0
100
AcDbEllipse
 10
69.66711449907757
 20
-100.6551345052266
 30
0.0
 11
-14.6729683431813
 21
17.97064272640242
 31
0.0
210
0.0
220
0.0
230
1.0
 40
0.8164965809275852
 41
3.477621007269261
 42
4.351247074103882
  0
ELLIPSE
  5
A9F1
330
A
100
AcDbEntity
  8
0
  6
Continuous
 62
     7
370
     0
100
AcDbEllipse
 10
75.39144852147663
 20
-80.44993772190087
 30
0.0
 11
-1.011928851253923
 21
1.239354670786396
 31
0.0
210
0.0
220
0.0
230
1.0
 40
0.8164965809275855
 41
4.980527662754644
 42
6.283185307179586
  0
ELLIPSE
  5
A9F2
330
A
100
AcDbEntity
  8
0
  6
Continuous
 62
     7
370
     0
100
AcDbEllipse
 10
74.85479220687676
 20
-80.88811576790499
 30
0.0
 11
1.011928851253868
 21
-1.239354670786341
 31
0.0
210
0.0
220
0.0
230
1.0
 40
0.8164965809275857
 41
3.141592653589798
 42
3.926990816987198
  0
ELLIPSE
  5
A9F3
330
A
100
AcDbEntity
  8
0
  6
Continuous
 62
     7
370
     0
100
AcDbEllipse
 10
61.23803265109486
 20
-94.91792328954648
 30
0.0
 11
-21.25050587633151
 21
26.02644808651383
 31
-0.0000000000000012
210
0.0
220
0.0000000000000001
230
1.0
 40
0.8164965809275855
 41
3.224933147859254
 42
3.481507747724365
  0
ELLIPSE
  5
A9F4
330
A
100
AcDbEntity
  8
0
  6
Continuous
 62
     7
370
     0
100
AcDbEllipse
 10
79.86358447647603
 20
-93.79034511782895
 30
0.0
 11
-3.491154536825884
 21
4.275773614212996
 31
-0.0000000000000002
210
0.0
220
0.0
230
1.0
 40
0.8164965809279268
 41
5.079455882866289
 42
5.312618223392988
  0
ELLIPSE
  5
A9F5
330
A
100
AcDbEntity
  8
0
  6
Continuous
 62
     7
370
     0
100
AcDbEllipse
 10
79.86358447647603
 20
-93.79034511782895
 30
0.0
 11
-3.491154536825884
 21
4.275773614212996
 31
-0.0000000000000002
210
0.0
220
0.0
230
1.0
 40
0.8164965809279271
 41
3.786719248774177
 42
5.079455882866353
  0
ELLIPSE
  5
A9F6
330
A
100
AcDbEntity
  8
0
  6
Continuous
 62
     7
370
     0
100
AcDbEllipse
 10
69.68904467134866
 20
-74.70610052420273
 30
0.0
 11
0.1011928851253896
 21
-0.1239354670786175
 31
0.0
210
0.0
220
0.0000000000000001
230
1.0
 40
0.8164965809277344
 41
2.075914574213022
 42
3.141592653589658
  0
ELLIPSE
  5
A9F7
330
A
100
AcDbEntity
  8
0
  6
Continuous
 62
     7
370
     0
100
AcDbEllipse
 10
61.21736295399358
 20
-103.0138287631775
 30
0.0
 11
21.75647030195849
 21
-26.64612542190703
 31
0.0000000000000024
210
0.0
220
0.0000000000000001
230
1.0
 40
0.8164965809277347
 41
1.225653455522476
 42
2.075914574213194
  0
ELLIPSE
  5
A9F8
330
A
100
AcDbEntity
  8
0
  6
Continuous
 62
     7
370
     0
100
AcDbEllipse
 10
69.63238986734023
 20
-100.6855375631688
 30
0.0
 11
15.17893276880824
 21
-18.59032006179561
 31
0.0000000000000008
210
0.0
220
0.0
230
1.0
 40
0.8164965809277342
 41
0.3519765564447571
 42
1.225653455522481
  0
ELLIPSE
  5
A9F9
330
A
100
AcDbEntity
  8
0
  6
Continuous
 62
     7
370
     0
100
AcDbEllipse
 10
61.19046917745899
 20
-94.97512181067174
 30
0.0
 11
21.75647030195846
 21
-26.64612542190703
 31
0.0000000000000012
210
0.0
220
0.0000000000000001
230
1.0
 40
0.8164965809277344
 41
6.207577302787754
 42
6.283185307179583
  0
LINE
  5
A9FA
330
A
100
AcDbEntity
  8
0
  6
Continuous
 62
     7
370
     0
100
AcDbLine
 10
69.54593715616955
 20
-74.67738788582209
 30
0.0
 11
69.56042777371667
 21
-79.00871814254793
 31
0.0
  0
LINE
  5
A9FB
330
A
100
AcDbEntity
  8
0
  6
Continuous
 62
     9
370
     0
100
AcDbLine
 10
89.05168274429422
 20
-95.31255787084097
 30
0.0
 11
89.76722449709418
 21
-94.72832047616879
 31
0.0
  0
LINE
  5
A9FC
330
A
100
AcDbEntity
  8
0
  6
Continuous
 62
     9
370
     0
100
AcDbLine
 10
70.44417372189323
 20
-73.9895840256101
 30
0.0
 11
69.72863196909333
 21
-74.57382142028229
 31
0.0
  0
ELLIPSE
  5
A9FD
330
A
100
AcDbEntity
  8
0
  6
Continuous
 62
     9
370
     0
100
AcDbEllipse
 10
61.93290470679349
 20
-102.4295913685053
 30
0.0
 11
21.75647030195846
 21
-26.64612542190698
 31
0.0000000000000012
210
0.0
220
0.0
230
1.0
 40
0.8164965809277349
 41
1.225653455522474
 42
2.075914574213191
  0
ELLIPSE
  5
A9FE
330
A
100
AcDbEntity
  8
0
  6
Continuous
 62
     9
370
     0
100
AcDbEllipse
 10
87.82529520939878
 20
-95.26561844540163
 30
0.0
 11
2.21130943873149
 21
0.9327971731180607
 31
-0.0000000000000001
210
0.0
220
0.0000000000000001
230
1.0
 40
0.1953355669271094
 41
5.696055522638959
 42
6.283184206153906
  0
ELLIPSE
  5
AA18
330
A
100
AcDbEntity
  8
0
  6
Continuous
 62
     9
370
     0
100
AcDbEllipse
 10
70.34793162014023
 20
-100.1013001684966
 30
0.0
 11
15.17893276880827
 21
-18.59032006179556
 31
0.0000000000000017
210
0.0
220
0.0000000000000001
230
1.0
 40
0.8164965809277344
 41
0.3519765564447549
 42
1.225653455522481
  0
LINE
  5
AA19
330
A
100
AcDbEntity
  8
0
  6
Continuous
 62
     9
370
     0
100
AcDbLine
 10
89.113745305528
 20
-113.8634200689312
 30
0.0
 11
89.82928705832794
 21
-113.279182674259
 31
0.0
  0
ELLIPSE
  5
AA1A
330
A
100
AcDbEntity
  8
0
  6
Continuous
 62
     9
370
     0
100
AcDbEllipse
 10
87.88115151450913
 20
-111.9613944236828
 30
0.0
 11
2.146912979402726
 21
-1.072736994268408
 31
0.0000000000000002
210
-0.0000000000000001
220
0.0
230
1.0
 40
0.5419547263607894
 41
6.044071358924368
 42
6.283186086409354
  0
ELLIPSE
  5
AA1B
330
A
100
AcDbEntity
  8
0
  6
Continuous
 62
     9
370
     0
100
AcDbEllipse
 10
70.40458642414861
 20
-74.1218631295306
 30
0.0
 11
-0.1011928851254173
 21
0.1239354670786174
 31
0.0
210
0.0
220
0.0
230
1.0
 40
0.8164965809276869
 41
5.217507227803065
 42
6.283976169649223
  0
ELLIPSE
  5
AA1C
330
A
100
AcDbEntity
  8
0
  6
Continuous
 62
     7
370
     0
100
AcDbEllipse
 10
69.68904467134866
 20
-74.70610052420273
 30
0.0
 11
0.1011928851254173
 21
-0.1239354670786174
 31
0.0
210
0.0
220
0.0000000000000001
230
1.0
 40
0.8164965809277347
 41
3.141592653589658
 42
3.930407659572838
  0
ELLIPSE
  5
AA1D
330
A
100
AcDbEntity
  8
0
  6
Continuous
 62
     7
370
     0
100
AcDbEllipse
 10
61.90601093025884
 20
-94.39088441599954
 30
0.0
 11
21.75647030195846
 21
-26.64612542190709
 31
0.0000000000000012
210
0.0
220
0.0
230
1.0
 40
0.8164965809277347
 41
6.283185307179586
 42
6.341977479577456
  0
ELLIPSE
  5
AA1E
330
A
100
AcDbEntity
  8
0
  6
Continuous
 62
     7
370
     0
100
AcDbEllipse
 10
61.19046917745899
 20
-94.97512181067174
 30
0.0
 11
21.75647030195846
 21
-26.64612542190703
 31
0.0000000000000012
210
0.0
220
0.0
230
1.0
 40
0.8164965809277347
 41
6.283185307179586
 42
6.635161863624345
  0
ELLIPSE
  5
AA1F
330
A
100
AcDbEntity
  8
0
  6
Continuous
 62
     9
370
     0
100
AcDbEllipse
 10
61.90601093025884
 20
-94.39088441599954
 30
0.0
 11
21.75647030195846
 21
-26.64612542190703
 31
0.0000000000000012
210
0.0
220
0.0000000000000001
230
1.0
 40
0.8164965809277344
 41
0.0587921723978668
 42
0.351976556444755
  0
LINE
  5
AA20
330
A
100
AcDbEntity
  8
0
  6
Continuous
 62
     9
370
     0
100
AcDbLine
 10
73.41583774199569
 20
-81.51576546470028
 30
0.0
 11
73.40343637736769
 21
-81.52589113651794
 31
0.0
  0
ELLIPSE
  5
AA21
330
A
100
AcDbEntity
  8
0
  6
Continuous
 62
     7
370
     0
100
AcDbEllipse
 10
58.55475107809391
 20
-105.1420776963094
 30
0.0
 11
-21.25050587633154
 21
26.02644808651387
 31
0.0
210
0.0
220
0.0
230
1.0
 40
0.8164965809277262
 41
4.368367846959151
 42
4.980527662754635
  0
ELLIPSE
  5
AA22
330
A
100
AcDbEntity
  8
0
  6
Continuous
 62
     7
370
     0
100
AcDbEllipse
 10
52.1363416605524
 20
-75.67898579739313
 30
0.0
 11
-4.239999999999993
 21
-0.000000000266509
 31
-0.0000000000000001
210
0.0
220
0.0
230
1.0
 40
0.4082482904376753
 41
5.819537698217268
 42
8.961130351742919
  0
ELLIPSE
  5
AA23
330
A
100
AcDbEntity
  8
0
  6
Continuous
 62
     7
370
     0
100
AcDbEllipse
 10
52.1363416605524
 20
-75.67898579739313
 30
0.0
 11
-4.239999999999993
 21
-0.000000000266509
 31
0.0000000000000003
210
0.0000000000000001
220
0.0000000000000001
230
1.0
 40
0.4082482904376759
 41
3.605240262552105
 42
5.819537698217268
  0
ELLIPSE
  5
AA24
330
A
100
AcDbEntity
  8
0
  6
Continuous
 62
     7
370
     0
100
AcDbEllipse
 10
52.13634166058452
 20
-76.1901935177379
 30
0.0
 11
4.799999999999998
 21
0.0000000003017031
 31
-0.0000000000000001
210
0.0
220
0.0
230
1.0
 40
0.4082482904376765
 41
0.0
 42
0.463647608962336
  0
ELLIPSE
  5
AA25
330
A
100
AcDbEntity
  8
0
  6
Continuous
 62
     7
370
     0
100
AcDbEllipse
 10
52.1363416605524
 20
-75.67898579739313
 30
0.0
 11
-4.239999999999993
 21
-0.000000000266509
 31
-0.0000000000000001
210
0.0
220
0.0
230
1.0
 40
0.4082482904376753
 41
2.677945044563333
 42
3.605240262552117
  0
ELLIPSE
  5
AA26
330
A
100
AcDbEntity
  8
0
  6
Continuous
 62
     7
370
     0
100
AcDbEllipse
 10
52.13634166058452
 20
-76.1901935177379
 30
0.0
 11
4.799999999999998
 21
0.0000000003017031
 31
0.0000000000000002
210
0.0
220
0.0
230
1.0
 40
0.408248290437675
 41
3.141592653589805
 42
5.81953769815313
  0
ELLIPSE
  5
AA27
330
A
100
AcDbEntity
  8
0
  6
Continuous
 62
     7
370
     0
100
AcDbEllipse
 10
52.13634166061201
 20
-76.62837156374758
 30
0.0
 11
-4.79999999999997
 21
-0.0000000003017031
 31
0.0
210
0.0
220
0.0
230
1.0
 40
0.4082482904376751
 41
0.0000000000000116
 42
2.677945044563316
  0
ELLIPSE
  5
AA28
330
A
100
AcDbEntity
  8
0
  6
Continuous
 62
     7
370
     0
100
AcDbEllipse
 10
52.13634166058452
 20
-76.1901935177379
 30
0.0
 11
4.799999999999998
 21
0.0000000003017031
 31
0.0000000000000003
210
-0.0000000000000001
220
0.0000000000000001
230
1.0
 40
0.4082482904376754
 41
5.81953769815313
 42
6.283185307179597
  0
ELLIPSE
  5
AA29
330
A
100
AcDbEntity
  8
0
  6
Continuous
 62
     7
370
     0
100
AcDbEllipse
 10
52.13634166058452
 20
-76.1901935177379
 30
0.0
 11
4.799999999999998
 21
0.0000000003017031
 31
0.0000000000000001
210
0.0
220
0.0
230
1.0
 40
0.4082482904376754
 41
2.677945044627461
 42
3.141592653589782
  0
ELLIPSE
  5
AA2A
330
A
100
AcDbEntity
  8
0
  6
Continuous
 62
     7
370
     0
100
AcDbEllipse
 10
52.13634166061201
 20
-76.62837156374758
 30
0.0
 11
-4.79999999999997
 21
-0.0000000003017031
 31
-0.0000000000000001
210
0.0
220
0.0
230
1.0
 40
0.4082482904376761
 41
2.677945044563316
 42
3.141592653589781
  0
ELLIPSE
  5
AA2B
330
A
100
AcDbEntity
  8
0
  6
Continuous
 62
     7
370
     0
100
AcDbEllipse
 10
52.13634166061211
 20
-131.4006273142642
 30
0.0
 11
4.799999999999998
 21
-0.0000000003018696
 31
0.0000000000000003
210
-0.0000000000000001
220
0.0000000000000001
230
1.0
 40
0.4082482904900651
 41
3.141592653589782
 42
6.283185307179573
  0
ELLIPSE
  5
AA2C
330
A
100
AcDbEntity
  8
0
  6
Continuous
 62
     7
370
     0
100
AcDbEllipse
 10
52.13634166058458
 20
-131.8388053602627
 30
0.0
 11
-4.79999999999997
 21
0.0000000003018696
 31
-0.0000000000000003
210
-0.0000000000000001
220
0.0000000000000001
230
1.0
 40
0.4082482904900651
 41
6.283185307179586
 42
6.7468329162189
  0
ELLIPSE
  5
AA2D
330
A
100
AcDbEntity
  8
0
  6
Continuous
 62
     7
370
     0
100
AcDbEllipse
 10
52.1363416605524
 20
-132.3500130805943
 30
0.0
 11
4.239999999999993
 21
-0.0000000002666201
 31
0.0
210
0.0
220
0.0
230
1.0
 40
0.4082482904900651
 41
3.605240262629102
 42
5.819537698140254
  0
ELLIPSE
  5
AA2E
330
A
100
AcDbEntity
  8
0
  6
Continuous
 62
     7
370
     0
100
AcDbEllipse
 10
52.13634166058458
 20
-131.8388053602627
 30
0.0
 11
-4.79999999999997
 21
0.0000000003018696
 31
-0.0000000000000003
210
-0.0000000000000001
220
0.0000000000000001
230
1.0
 40
0.4082482904900655
 41
2.677945044550466
 42
3.14159265358977
  0
ELLIPSE
  5
AA2F
330
A
100
AcDbEntity
  8
0
  6
Continuous
 62
     7
370
     0
100
AcDbEllipse
 10
52.13634166058458
 20
-131.8388053602627
 30
0.0
 11
-4.79999999999997
 21
0.0000000003018696
 31
0.0
210
0.0
220
0.0000000000000001
230
1.0
 40
0.4082482904900652
 41
0.4636476090393141
 42
2.677945044550466
  0
ELLIPSE
  5
AA30
330
A
100
AcDbEntity
  8
0
  6
Continuous
 62
     7
370
     0
100
AcDbEllipse
 10
52.13634155630979
 20
-89.40856465795736
 30
0.0
 11
4.799999999999998
 21
-0.000000000303535
 31
-0.0000000000000001
210
0.0
220
0.0
230
1.0
 40
0.4082482904902125
 41
3.141592653589793
 42
6.283185307179586
  0
ELLIPSE
  5
AA31
330
A
100
AcDbEntity
  8
0
  6
Continuous
 62
     7
370
     0
100
AcDbEllipse
 10
52.1363415562497
 20
-90.35795042428736
 30
0.0
 11
4.800000000000026
 21
-0.000000000303535
 31
0.0
210
0.0
220
0.0
230
1.0
 40
0.4082482904902126
 41
5.819537697845315
 42
6.283185307179597
  0
ELLIPSE
  5
AA32
330
A
100
AcDbEntity
  8
0
  6
Continuous
 62
     7
370
     0
100
AcDbEllipse
 10
52.1363415562497
 20
-90.35795042428736
 30
0.0
 11
4.800000000000026
 21
-0.000000000303535
 31
0.0000000000000001
210
0.0
220
0.0
230
1.0
 40
0.4082482904902129
 41
4.248741371230071
 42
5.819537697845315
  0
ELLIPSE
  5
AA33
330
A
100
AcDbEntity
  8
0
  6
Continuous
 62
     7
370
     0
100
AcDbEllipse
 10
52.1363415562497
 20
-90.35795042428736
 30
0.0
 11
4.800000000000026
 21
-0.000000000303535
 31
0.0000000000000002
210
0.0
220
0.0
230
1.0
 40
0.4082482904902126
 41
3.141592653589793
 42
4.248741371230071
  0
ELLIPSE
  5
AA34
330
A
100
AcDbEntity
  8
0
  6
Continuous
 62
     7
370
     0
100
AcDbEllipse
 10
52.13634155630316
 20
-118.6204343915647
 30
0.0
 11
-4.800000000000026
 21
-0.000000000301148
 31
0.0
210
0.0
220
0.0000000000000001
230
1.0
 40
0.4082482904377235
 41
0.0000000000000116
 42
2.677945044563375
  0
ELLIPSE
  5
AA35
330
A
100
AcDbEntity
  8
0
  6
Continuous
 62
     7
370
     0
100
AcDbEllipse
 10
52.13634155624362
 20
-117.6710486252102
 30
0.0
 11
-4.800000000000054
 21
-0.000000000301148
 31
-0.0000000000000003
210
-0.0000000000000001
220
0.0
230
1.0
 40
0.4082482904377235
 41
0.0000000000000116
 42
1.107148717590261
  0
ELLIPSE
  5
AA36
330
A
100
AcDbEntity
  8
0
  6
Continuous
 62
     7
370
     0
100
AcDbEllipse
 10
52.13634155624362
 20
-117.6710486252102
 30
0.0
 11
-4.800000000000026
 21
-0.000000000301148
 31
-0.0000000000000001
210
0.0
220
0.0000000000000001
230
1.0
 40
0.4082482904377242
 41
1.107148717590261
 42
2.677945044563375
  0
ELLIPSE
  5
AA37
330
A
100
AcDbEntity
  8
0
  6
Continuous
 62
     7
370
     0
100
AcDbEllipse
 10
52.13634155630316
 20
-118.6204343915647
 30
0.0
 11
-4.800000000000054
 21
-0.000000000301148
 31
-0.0000000000000002
210
0.0
220
0.0
230
1.0
 40
0.4082482904377235
 41
2.677945044563375
 42
3.14159265358977
  0
ELLIPSE
  5
AA38
330
A
100
AcDbEntity
  8
0
  6
Continuous
 62
     7
370
     0
100
AcDbEllipse
 10
55.78560449475813
 20
-124.8425626446552
 30
0.0
 11
-0.1599999999999935
 21
-0.7838367176906113
 31
0.0000000000000001
210
0.0000000000000001
220
0.0000000000000001
230
1.0
 40
0.408248290463863
 41
0.7743385955910264
 42
1.107148717794143
  0
ELLIPSE
  5
AA39
330
A
100
AcDbEntity
  8
0
  6
Continuous
 62
     7
370
     0
100
AcDbEllipse
 10
55.78560449475813
 20
-124.8425626446552
 30
0.0
 11
-0.1599999999999935
 21
-0.7838367176906113
 31
0.0000000000000001
210
0.0
220
0.0000000000000001
230
1.0
 40
0.4082482904638633
 41
1.107148717794144
 42
2.034443935795718
  0
ELLIPSE
  5
AA3A
330
A
100
AcDbEntity
  8
0
  6
Continuous
 62
     7
370
     0
100
AcDbEllipse
 10
55.78560449475813
 20
-124.8425626446552
 30
0.0
 11
-0.1599999999999935
 21
-0.7838367176906113
 31
0.0
210
0.0
220
0.0
230
1.0
 40
0.408248290463863
 41
2.034443935795719
 42
2.197089022053245
  0
LINE
  5
AA3B
330
A
100
AcDbEntity
  8
0
  6
Continuous
 62
     7
370
     0
100
AcDbLine
 10
56.05393265205814
 20
-124.93970138767
 30
0.0
 11
55.88930740729037
 21
-125.2681300487068
 31
0.0
  0
LINE
  5
AA3C
330
A
100
AcDbEntity
  8
0
  6
Continuous
 62
     7
370
     0
100
AcDbLine
 10
56.05393265205814
 20
-124.6049742749978
 30
0.0
 11
56.05393265205814
 21
-124.93970138767
 31
0.0
  0
LINE
  5
AA3D
330
A
100
AcDbEntity
  8
0
  6
Continuous
 62
     7
370
     0
100
AcDbLine
 10
56.05393265205814
 20
-124.93970138767
 30
0.0
 11
55.94347957473525
 21
-124.9171552476732
 31
0.0
  0
LINE
  5
AA3E
330
A
100
AcDbEntity
  8
0
  6
Continuous
 62
     9
370
     0
100
AcDbLine
 10
86.55786907591192
 20
-111.7924327425905
 30
0.0
 11
86.55786907591192
 21
-105.2627603441657
 31
0.0
  0
ARC
  5
AA3F
330
A
100
AcDbEntity
  8
0
  6
Continuous
 62
     7
370
     0
100
AcDbCircle
 10
67.81708571165359
 20
-108.4976231097771
 30
0.0
 40
19.02820883905107
100
AcDbArc
 50
331.1592245914777
 51
350.0287523872885
  0
ARC
  5
AA40
330
A
100
AcDbEntity
  8
0
  6
Continuous
 62
     7
370
     0
100
AcDbCircle
 10
60.49000636237829
 20
-105.5483742092972
 30
0.0
 40
26.63983680599711
100
AcDbArc
 50
267.8840686091662
 51
309.7415140373162
  0
LINE
  5
AA41
330
A
100
AcDbEntity
  8
0
  6
Continuous
 62
     9
370
     0
100
AcDbLine
 10
59.50642160931775
 20
-132.1700470734075
 30
0.0
 11
59.50642160931773
 21
-78.13747781499819
 31
0.0
  0
ARC
  5
AA42
330
A
100
AcDbEntity
  8
0
  6
Continuous
 62
     7
370
     0
100
AcDbCircle
 10
44.22555223296052
 20
-121.6684003132438
 30
0.0
 40
46.13508624079467
100
AcDbArc
 50
29.23252515549156
 51
70.65715070097218
  0
ARC
  5
AA43
330
A
100
AcDbEntity
  8
0
  6
Continuous
 62
     7
370
     0
100
AcDbCircle
 10
65.58355873230562
 20
-108.94800230923
 30
0.0
 40
21.29560289663061
100
AcDbArc
 50
9.965303576116628
 51
27.42932485810208
  0
ARC
  5
AA44
330
A
100
AcDbEntity
  8
0
  6
Continuous
 62
     7
370
     0
100
AcDbCircle
 10
99.55254161661541
 20
42.3796655003357
 30
0.0
 40
125.0343512320543
100
AcDbArc
 50
251.6796726925102
 51
256.3402044461591
  0
ELLIPSE
  5
AA45
330
A
100
AcDbEntity
  8
0
  6
Continuous
 62
     7
370
     0
100
AcDbEllipse
 10
58.01809476349394
 20
-105.5802557423136
 30
0.0
 11
-21.75647030195846
 21
26.64612542190703
 31
-0.0000000000000012
210
0.0
220
0.0000000000000001
230
1.0
 40
0.816496580927726
 41
4.363829266526101
 42
5.096902980675586
  0
LINE
  5
AA46
330
A
100
AcDbEntity
  8
0
  6
Continuous
 62
     9
370
     0
100
AcDbLine
 10
84.48510423470015
 20
-99.13809505422035
 30
0.0
 11
85.89705546335039
 21
-97.98524170359076
 31
0.0
  0
ELLIPSE
  5
AA47
330
A
100
AcDbEntity
  8
0
  6
Continuous
 62
     7
370
     0
100
AcDbEllipse
 10
54.79815687589419
 20
-108.2093240183383
 30
0.0
 11
21.75647030195846
 21
-26.64612542190703
 31
0.0000000000000012
210
0.0
220
0.0000000000000001
230
1.0
 40
0.8164965809277257
 41
2.202567650640478
 42
2.279841254486691
  0
LINE
  5
AA48
330
A
100
AcDbEntity
  8
0
  6
Continuous
 62
     7
370
     0
100
AcDbLine
 10
57.145133825078
 20
-77.37713042276283
 30
0.0
 11
57.08831139176743
 21
-77.36345726630111
 31
0.0
  0
ELLIPSE
  5
AA50
330
A
100
AcDbEntity
  8
0
  6
Continuous
 62
     7
370
     0
100
AcDbEllipse
 10
56.58701125789403
 20
-106.7487305316578
 30
0.0
 11
-21.75647030195846
 21
26.64612542190703
 31
-0.0000000000000012
210
0.0
220
0.0000000000000001
230
1.0
 40
0.816496580927726
 41
5.378434211915018
 42
5.502903445173054
  0
LINE
  5
AA51
330
A
100
AcDbEntity
  8
0
  6
Continuous
 62
     9
370
     0
100
AcDbLine
 10
84.48510423470015
 20
-117.6763970005491
 30
0.0
 11
85.89705546335039
 21
-116.5235436499195
 31
0.0
  0
ARC
  5
AA52
330
A
100
AcDbEntity
  8
0
  6
Continuous
 62
     7
370
     0
100
AcDbCircle
 10
73.3727818481423
 20
-108.5275965433781
 30
0.0
 40
13.5832868117986
100
AcDbArc
 50
346.0923963799285
 51
13.90760362007155
  0
ELLIPSE
  5
AA53
330
A
100
AcDbEntity
  8
0
  6
Continuous
 62
     7
370
     0
100
AcDbEllipse
 10
66.44661776577613
 20
-103.2840887073508
 30
0.0
 11
-15.17893276880822
 21
18.59032006179562
 31
0.0
210
0.0
220
0.0
230
1.0
 40
0.8164965809277251
 41
3.490152367448386
 42
4.363829266526102
  0
ELLIPSE
  5
AA54
330
A
100
AcDbEntity
  8
0
  6
Continuous
 62
     7
370
     0
100
AcDbEllipse
 10
54.79815687589419
 20
-100.1760598415958
 30
0.0
 11
21.75647030195846
 21
-26.64612542190703
 31
0.0000000000000012
210
0.0
220
0.0000000000000001
230
1.0
 40
0.8164965809277259
 41
5.574140379487785
 42
5.651413983334003
  0
LINE
  5
AA55
330
A
100
AcDbEntity
  8
0
  6
Continuous
 62
     9
370
     0
100
AcDbLine
 10
57.14513382507803
 20
-131.9664027644336
 30
0.0
 11
57.14513382507803
 21
-77.37713042276289
 31
0.0
  0
LINE
  5
AA56
330
A
100
AcDbEntity
  8
0
  6
Continuous
 62
     7
370
     0
100
AcDbLine
 10
57.08831139176743
 20
-131.9611741228325
 30
0.0
 11
57.145133825078
 21
-131.9664027644336
 31
0.0
  0
LINE
  5
AA57
330
A
100
AcDbEntity
  8
0
  6
Continuous
 62
     7
370
     0
100
AcDbLine
 10
57.08831139176743
 20
-131.9611741228325
 30
0.0
 11
57.08831139176743
 21
-118.3188647950289
 31
0.0
  0
ELLIPSE
  5
AA58
330
A
100
AcDbEntity
  8
0
  6
Continuous
 62
     7
370
     0
100
AcDbEllipse
 10
56.96624838687805
 20
-118.4743750427285
 30
0.0
 11
-0.4000000000000115
 21
0.0
 31
0.0
210
-0.0000000000000001
220
0.0000000000000001
230
1.0
 40
0.4082482904638631
 41
4.40228515392351
 42
5.81953769817878
  0
LINE
  5
AA59
330
A
100
AcDbEntity
  8
0
  6
Continuous
 62
     9
370
     0
100
AcDbLine
 10
56.60847751047805
 20
-118.4013453683944
 30
0.0
 11
56.60847751047805
 21
-91.08824716747017
 31
0.0
  0
ELLIPSE
  5
AA5A
330
A
100
AcDbEntity
  8
0
  6
Continuous
 62
     7
370
     0
100
AcDbEllipse
 10
56.96624838687805
 20
-91.16127684180417
 30
0.0
 11
-0.4000000000000115
 21
0.0
 31
0.0
210
-0.0000000000000001
220
0.0000000000000001
230
1.0
 40
0.4082482904638631
 41
4.402285153923426
 42
5.81953769817878
  0
LINE
  5
AA5B
330
A
100
AcDbEntity
  8
0
  6
Continuous
 62
     7
370
     0
100
AcDbLine
 10
57.08831139176743
 20
-77.36345726630111
 30
0.0
 11
57.08831139176746
 21
-91.00576659410473
 31
0.0
  0
ELLIPSE
  5
AA5C
330
A
100
AcDbEntity
  8
0
  6
Continuous
 62
     7
370
     0
100
AcDbEllipse
 10
52.1363415554785
 20
-90.35795042412997
 30
0.0
 11
-5.200000000000009
 21
0.0
 31
-0.0000000000000004
210
-0.0000000000000001
220
0.0000000000000001
230
1.0
 40
0.4082482904638633
 41
3.451696480051056
 42
3.541134638053672
  0
LINE
  5
AA6A
330
A
100
AcDbEntity
  8
0
  6
Continuous
 62
     7
370
     0
100
AcDbLine
 10
56.60847751047805
 20
-91.08824716747017
 30
0.0
 11
56.4295920722781
 21
-91.23430651613825
 31
0.0
  0
ELLIPSE
  5
AA6B
330
A
100
AcDbEntity
  8
0
  6
Continuous
 62
     7
370
     0
100
AcDbEllipse
 10
52.1363415554785
 20
-90.35795042412997
 30
0.0
 11
4.79999999999997
 21
0.0
 31
0.0
210
0.0
220
0.0000000000000001
230
1.0
 40
0.4082482904638631
 41
4.248741371383878
 42
5.819537698178787
  0
ELLIPSE
  5
AA6C
330
A
100
AcDbEntity
  8
0
  6
Continuous
 62
     7
370
     0
100
AcDbEllipse
 10
52.1363415554785
 20
-90.35795042412997
 30
0.0
 11
4.79999999999997
 21
0.0
 31
0.0
210
0.0
220
0.0000000000000001
230
1.0
 40
0.4082482904638631
 41
3.141592653589793
 42
4.248741371383878
  0
ELLIPSE
  5
AA6D
330
A
100
AcDbEntity
  8
0
  6
Continuous
 62
     7
370
     0
100
AcDbEllipse
 10
52.1363415554785
 20
-117.6710486250542
 30
0.0
 11
4.79999999999997
 21
0.0
 31
0.0
210
0.0
220
0.0000000000000001
230
1.0
 40
0.4082482904638631
 41
4.248741371383878
 42
5.819537698178787
  0
LINE
  5
AA6E
330
A
100
AcDbEntity
  8
0
  6
Continuous
 62
     9
370
     0
100
AcDbLine
 10
56.42959207227807
 20
-118.5474047170625
 30
0.0
 11
56.42959207227807
 21
-91.23430651613825
 31
0.0
  0
ELLIPSE
  5
AA6F
330
A
100
AcDbEntity
  8
0
  6
Continuous
 62
     7
370
     0
100
AcDbEllipse
 10
52.1363415554785
 20
-117.6710486250542
 30
0.0
 11
4.79999999999997
 21
0.0
 31
0.0
210
0.0
220
0.0000000000000001
230
1.0
 40
0.4082482904638631
 41
3.141592653589793
 42
4.248741371383888
  0
ARC
  5
AA70
330
A
100
AcDbEntity
  8
0
  6
Continuous
 62
     7
370
     0
100
AcDbCircle
 10
59.44202017805619
 20
-103.8868638811029
 30
0.0
 40
28.58858658136917
100
AcDbArc
 50
309.2276224978661
 51
331.1613956190015
  0
LINE
  5
AA71
330
A
100
AcDbEntity
  8
0
  6
Continuous
 62
     7
370
     0
100
AcDbLine
 10
56.93728805846368
 20
-130.5760335288901
 30
0.0
 11
57.08933162345346
 21
-130.7366859628377
 31
0.0
  0
ELLIPSE
  5
AA72
330
A
100
AcDbEntity
  8
0
  6
Continuous
 62
     7
370
     0
100
AcDbEllipse
 10
58.01809476349394
 20
-97.54699156557116
 30
0.0
 11
-21.75647030195846
 21
26.64612542190709
 31
-0.0000000000000012
210
0.0
220
0.0
230
1.0
 40
0.8164965809277255
 41
3.141592653589794
 42
3.490152367448387
  0
LINE
  5
AA73
330
A
100
AcDbEntity
  8
0
  6
Continuous
 62
     7
370
     0
100
AcDbLine
 10
56.60847751047805
 20
-118.4013453683944
 30
0.0
 11
56.4295920722781
 21
-118.5474047170625
 31
0.0
  0
LINE
  5
AA74
330
A
100
AcDbEntity
  8
0
  6
Continuous
 62
     7
370
     0
100
AcDbLine
 10
49.64965151360559
 20
-74.27696510630863
 30
0.0
 11
56.42959207227804
 21
-68.74116682125941
 31
0.0
  0
LINE
  5
AA75
330
A
100
AcDbEntity
  8
0
  6
Continuous
 62
     7
370
     0
100
AcDbLine
 10
56.42959207227807
 20
-68.74116682125941
 30
0.0
 11
58.93398820707784
 21
-69.25237454159753
 31
0.0
  0
LINE
  5
AA76
330
A
100
AcDbEntity
  8
0
  6
Continuous
 62
     7
370
     0
100
AcDbLine
 10
58.93398820707782
 20
-69.25237454159753
 30
0.0
 11
53.1246349778171
 21
-73.99569159069034
 31
0.0
  0
ELLIPSE
  5
AA77
330
A
100
AcDbEntity
  8
0
  6
Continuous
 62
     7
370
     0
100
AcDbEllipse
 10
52.13634155547845
 20
-76.62837164933382
 30
0.0
 11
4.79999999999997
 21
0.0
 31
0.0
210
0.0
220
0.0000000000000001
230
1.0
 40
0.4082482904638633
 41
5.819537747038582
 42
6.283185307179586
  0
ELLIPSE
  5
AA78
330
A
100
AcDbEntity
  8
0
  6
Continuous
 62
     7
370
     0
100
AcDbEllipse
 10
52.13634155547845
 20
-76.62837164933382
 30
0.0
 11
4.79999999999997
 21
0.0
 31
0.0
210
0.0
220
0.0000000000000001
230
1.0
 40
0.4082482904638633
 41
3.141592653589793
 42
5.819537747038582
  0
ELLIPSE
  5
AA79
330
A
100
AcDbEntity
  8
0
  6
Continuous
 62
     7
370
     0
100
AcDbEllipse
 10
52.1363415554785
 20
-89.40856465778768
 30
0.0
 11
-4.799999999999998
 21
0.0
 31
0.0
210
0.0
220
0.0000000000000001
230
1.0
 40
0.4082482904638633
 41
6.283185307179586
 42
9.424777960769379
  0
LINE
  5
AA7A
330
A
100
AcDbEntity
  8
0
  6
Continuous
 62
     7
370
     0
100
AcDbLine
 10
58.93398820707782
 20
-69.25237454159753
 30
0.0
 11
58.93398820707784
 21
-75.91653693608248
 31
0.0
  0
ELLIPSE
  5
AA7B
330
A
100
AcDbEntity
  8
0
  6
Continuous
 62
     7
370
     0
100
AcDbEllipse
 10
52.1363415554785
 20
-131.4006273998504
 30
0.0
 11
4.79999999999997
 21
0.0
 31
0.0
210
0.0
220
0.0000000000000001
230
1.0
 40
0.4082482904638633
 41
3.141592653589793
 42
6.283185307179586
  0
ELLIPSE
  5
AA7C
330
A
100
AcDbEntity
  8
0
  6
Continuous
 62
     7
370
     0
100
AcDbEllipse
 10
52.1363415554785
 20
-118.6204343913965
 30
0.0
 11
4.79999999999997
 21
0.0
 31
0.0
210
0.0
220
0.0000000000000001
230
1.0
 40
0.4082482904638633
 41
5.819537698178785
 42
6.283185307179586
  0
ELLIPSE
  5
AA7D
330
A
100
AcDbEntity
  8
0
  6
Continuous
 62
     7
370
     0
100
AcDbEllipse
 10
52.1363415554785
 20
-118.6204343913965
 30
0.0
 11
4.79999999999997
 21
0.0
 31
0.0
210
0.0
220
0.0000000000000001
230
1.0
 40
0.4082482904638633
 41
3.141592653589793
 42
5.819537698178785
  0
LINE
  5
AA8A
330
A
100
AcDbEntity
  8
0
  6
Continuous
 62
     7
370
     0
100
AcDbLine
 10
56.61091871925808
 20
-123.9904084791259
 30
0.0
 11
56.4295920722781
 21
-124.0611451292812
 31
0.0
  0
LINE
  5
AA97
330
A
100
AcDbEntity
  8
0
  6
Continuous
 62
     7
370
     0
100
AcDbLine
 10
74.37951967022286
 20
-79.21058305111467
 30
0.0
 11
73.842863355623
 21
-79.64876109711872
 31
0.0
  0
ARC
  5
AA98
330
A
100
AcDbEntity
  8
0
  6
Continuous
 62
     7
370
     0
100
AcDbCircle
 10
52.32744616659516
 20
-110.3129351619288
 30
0.0
 40
40.95539858567565
100
AcDbArc
 50
22.96590734219442
 51
62.38313059240845
  0
ARC
  5
AA99
330
A
100
AcDbEntity
  8
0
  6
Continuous
 62
     7
370
     0
100
AcDbCircle
 10
69.62626970845639
 20
-103.6741576963404
 30
0.0
 40
22.44643264612624
100
AcDbArc
 50
335.355200617105
 51
24.59246991984934
  0
LINE
  5
AA9A
330
A
100
AcDbEntity
  8
0
  6
Continuous
 62
     7
370
     0
100
AcDbLine
 10
71.31854477471603
 20
-74.02676272993597
 30
0.0
 11
71.27360828135505
 21
-74.00420829698163
 31
0.0
  0
LINE
  5
AAA4
330
A
100
AcDbEntity
  8
0
  6
Continuous
 62
     7
370
     0
100
AcDbLine
 10
70.30339353902324
 20
-73.9979276624519
 30
0.0
 11
69.5878517862233
 21
-74.58216505712414
 31
0.0
  0
LINE
  5
AAA5
330
A
100
AcDbEntity
  8
0
  6
Continuous
 62
     7
370
     0
100
AcDbLine
 10
82.94693947941746
 20
-121.6212472325789
 30
0.0
 11
83.6624812322174
 21
-121.0370098379067
 31
0.0
  0
LINE
  5
AAA6
330
A
100
AcDbEntity
  8
0
  6
Continuous
 62
     7
370
     0
100
AcDbLine
 10
84.94643018242118
 20
-119.9092743237437
 30
0.0
 11
85.18163151454855
 21
-119.6841439915853
 31
0.0
  0
LINE
  5
AAA7
330
A
100
AcDbEntity
  8
0
  6
Continuous
 62
     7
370
     0
100
AcDbLine
 10
85.18163151454851
 20
-119.6841439915853
 30
0.0
 11
86.30809489737188
 21
-118.5140269406778
 31
0.0
  0
ARC
  5
AAA8
330
A
100
AcDbEntity
  8
0
  6
Continuous
 62
     7
370
     0
100
AcDbCircle
 10
67.91972195974264
 20
-102.0286939169452
 30
0.0
 40
24.69612245265859
100
AcDbArc
 50
318.1235027930583
 51
333.5360762728149
  0
LINE
  5
AAA9
330
A
100
AcDbEntity
  8
0
  6
Continuous
 62
     7
370
     0
100
AcDbLine
 10
56.42959217741164
 20
-75.31383742558341
 30
0.0
 11
55.92871295041632
 21
-74.90487124932338
 31
0.0
  0
LINE
  5
AAAA
330
A
100
AcDbEntity
  8
0
  6
Continuous
 62
     7
370
     0
100
AcDbLine
 10
48.34397037059116
 20
-74.90487124980012
 30
0.0
 11
47.84309114364726
 21
-75.31383742612309
 31
0.0
  0
LINE
  5
AAAB
330
A
100
AcDbEntity
  8
0
  6
Continuous
 62
     7
370
     0
100
AcDbLine
 10
47.33634166058457
 20
-76.19019351803951
 30
0.0
 11
47.3363416606121
 21
-76.6283715640493
 31
0.0
  0
LINE
  5
AAAC
330
A
100
AcDbEntity
  8
0
  6
Continuous
 62
     7
370
     0
100
AcDbLine
 10
56.93634166061205
 20
-76.62837156344591
 30
0.0
 11
56.9363416605845
 21
-76.19019351743617
 31
0.0
  0
LINE
  5
AAAD
330
A
100
AcDbEntity
  8
0
  6
Continuous
 62
     7
370
     0
100
AcDbLine
 10
56.93634166058462
 20
-131.8388053605646
 30
0.0
 11
56.93634166061219
 21
-131.4006273145661
 31
0.0
  0
LINE
  5
AAAE
330
A
100
AcDbEntity
  8
0
  6
Continuous
 62
     7
370
     0
100
AcDbLine
 10
47.3363416606121
 20
-131.4006273139623
 30
0.0
 11
47.33634166058453
 21
-131.8388053599609
 31
0.0
  0
LINE
  5
AAAF
330
A
100
AcDbEntity
  8
0
  6
Continuous
 62
     7
370
     0
100
AcDbLine
 10
47.8430911438125
 20
-132.7151614521247
 30
0.0
 11
48.34397037073711
 21
-133.1241276284057
 31
0.0
  0
LINE
  5
AAB0
330
A
100
AcDbEntity
  8
0
  6
Continuous
 62
     7
370
     0
100
AcDbLine
 10
55.92871295027038
 20
-133.1241276288827
 30
0.0
 11
56.42959217724637
 21
-132.7151614526647
 31
0.0
  0
LINE
  5
AAB1
330
A
100
AcDbEntity
  8
0
  6
Continuous
 62
     7
370
     0
100
AcDbLine
 10
56.93634155624974
 20
-90.3579504245909
 30
0.0
 11
56.93634155630977
 21
-89.40856465826085
 31
0.0
  0
LINE
  5
AAB2
330
A
100
AcDbEntity
  8
0
  6
Continuous
 62
     7
370
     0
100
AcDbLine
 10
47.33634155630975
 20
-89.40856465765381
 30
0.0
 11
47.33634155624971
 21
-90.35795042398381
 31
0.0
  0
LINE
  5
AAB3
330
A
100
AcDbEntity
  8
0
  6
Continuous
 62
     7
370
     0
100
AcDbLine
 10
47.33634155624358
 20
-117.6710486255114
 30
0.0
 11
47.33634155630315
 21
-118.6204343918658
 31
0.0
  0
LINE
  5
AAB4
330
A
100
AcDbEntity
  8
0
  6
Continuous
 62
     7
370
     0
100
AcDbLine
 10
56.93634155630315
 20
-118.6204343912636
 30
0.0
 11
56.93634155628377
 21
-118.3115327972454
 31
0.0
  0
LINE
  5
AAB5
330
A
100
AcDbEntity
  8
0
  6
Continuous
 62
     7
370
     0
100
AcDbLine
 10
55.9287128453181
 20
-125.419497071894
 30
0.0
 11
56.00026702059813
 21
-125.2515288209257
 31
0.0
  0
LINE
  5
AAB6
330
A
100
AcDbEntity
  8
0
  6
Continuous
 62
     7
370
     0
100
AcDbLine
 10
56.14337537115813
 20
-124.5504439473191
 30
0.0
 11
56.1433753711581
 21
-124.4275787488478
 31
0.0
  0
LINE
  5
AAB7
330
A
100
AcDbEntity
  8
0
  6
Continuous
 62
     7
370
     0
100
AcDbLine
 10
47.33634155547846
 20
-90.35795042412997
 30
0.0
 11
47.33634155547846
 21
-117.6710486250542
 31
0.0
  0
LINE
  5
AAB8
330
A
100
AcDbEntity
  8
0
  6
Continuous
 62
     7
370
     0
100
AcDbLine
 10
77.52164049573375
 20
-126.0326221957414
 30
0.0
 11
79.77456506545237
 21
-124.1931169874781
 31
0.0
  0
LINE
  5
AAB9
330
A
100
AcDbEntity
  8
0
  6
Continuous
 62
     7
370
     0
100
AcDbLine
 10
56.93634155547846
 20
-89.40856465778768
 30
0.0
 11
56.93634155547844
 21
-76.62837164933382
 31
0.0
  0
LINE
  5
AABA
330
A
100
AcDbEntity
  8
0
  6
Continuous
 62
     7
370
     0
100
AcDbLine
 10
47.33634155547846
 20
-76.62837164933382
 30
0.0
 11
47.33634155547849
 21
-89.40856465778768
 31
0.0
  0
LINE
  5
AABB
330
A
100
AcDbEntity
  8
0
  6
Continuous
 62
     7
370
     0
100
AcDbLine
 10
56.93634155547846
 20
-131.4006273998504
 30
0.0
 11
56.93634155547846
 21
-118.6204343913965
 31
0.0
  0
LINE
  5
AABC
330
A
100
AcDbEntity
  8
0
  6
Continuous
 62
     7
370
     0
100
AcDbLine
 10
47.33634155547853
 20
-118.6204343913965
 30
0.0
 11
47.33634155547853
 21
-131.4006273998504
 31
0.0
  0
LINE
  5
AABD
330
A
100
AcDbEntity
  8
0
  6
Continuous
 62
     7
370
     0
100
AcDbLine
 10
65.39528090095135
 20
-41.18444178027004
 30
0.0
 11
65.39528090095135
 21
-36.81523132528059
 31
0.0
  0
LINE
  5
AABE
330
A
100
AcDbEntity
  8
0
  6
Continuous
 62
     7
370
     0
100
AcDbLine
 10
65.39528090095135
 20
-16.18444178027533
 30
0.0
 11
65.39528090095135
 21
-11.81523132528588
 31
0.0
  0
LINE
  5
AABF
330
A
100
AcDbEntity
  8
0
  6
Continuous
 62
     7
370
     0
100
AcDbLine
 10
65.39528090095135
 20
8.815558219719434
 30
0.0
 11
65.39528090095135
 21
13.18476867470883
 31
0.0
  0
LINE
  5
AAC0
330
A
100
AcDbEntity
  8
0
  6
Continuous
 62
     9
370
     0
100
AcDbLine
 10
57.54528090094382
 20
5.412842109675068
 30
0.0
 11
57.54528090094382
 21
-5.412842109675011
 31
0.0
  0
LINE
  5
AAC1
330
A
100
AcDbEntity
  8
0
  6
Continuous
 62
     7
370
     0
100
AcDbLine
 10
57.2952809009438
 20
-4.979829407782858
 30
0.0
 11
57.2952809009438
 21
4.979829407782801
 31
0.0
  0
LINE
  5
AAC2
330
A
100
AcDbEntity
  8
0
  6
Continuous
 62
     9
370
     0
100
AcDbLine
 10
57.54528090094893
 20
-22.58699444309832
 30
0.0
 11
57.54528090094893
 21
-33.4126786624484
 31
0.0
  0
LINE
  5
AAC3
330
A
100
AcDbEntity
  8
0
  6
Continuous
 62
     7
370
     0
100
AcDbLine
 10
57.29528090094897
 20
-32.97966596055619
 30
0.0
 11
57.29528090094897
 21
-23.02000714499053
 31
0.0
  0
LINE
  5
AAC4
330
A
100
AcDbEntity
  8
0
  6
Continuous
 62
     7
370
     0
100
AcDbLine
 10
77.59528060779266
 20
24.80016344722623
 30
0.0
 11
88.19528060779266
 21
24.80016344722623
 31
0.0
  0
LINE
  5
AAC5
330
A
100
AcDbEntity
  8
0
  6
Continuous
 62
     7
370
     0
100
AcDbLine
 10
88.89528060779264
 20
24.10016344722618
 30
0.0
 11
76.89528060779264
 21
24.10016344722618
 31
0.0
  0
LINE
  5
AAC6
330
A
100
AcDbEntity
  8
0
  6
Continuous
 62
     7
370
     0
100
AcDbLine
 10
82.89528060779264
 20
23.50016344722627
 30
0.0
 11
88.89528060779264
 21
23.50016344722627
 31
0.0
  0
LINE
  5
AAC7
330
A
100
AcDbEntity
  8
0
  6
Continuous
 62
     7
370
     0
100
AcDbLine
 10
88.1952806077926
 20
-52.79983655277374
 30
0.0
 11
82.89528060779261
 21
-52.79983655277374
 31
0.0
  0
LINE
  5
AAC8
330
A
100
AcDbEntity
  8
0
  6
Continuous
 62
     7
370
     0
100
AcDbLine
 10
76.89528060779264
 20
-52.09983655277375
 30
0.0
 11
82.89528060779264
 21
-52.09983655277375
 31
0.0
  0
LINE
  5
AAC9
330
A
100
AcDbEntity
  8
0
  6
Continuous
 62
     7
370
     0
100
AcDbLine
 10
82.89528060779264
 20
-52.79983655277374
 30
0.0
 11
77.59528060779263
 21
-52.79983655277374
 31
0.0
  0
LINE
  5
AACA
330
A
100
AcDbEntity
  8
0
  6
Continuous
 62
     7
370
     0
100
AcDbLine
 10
82.89528060779264
 20
-52.09983655277375
 30
0.0
 11
88.89528060779264
 21
-52.09983655277375
 31
0.0
  0
LINE
  5
AACB
330
A
100
AcDbEntity
  8
0
  6
Continuous
 62
     7
370
     0
100
AcDbLine
 10
88.89528060779264
 20
-51.49983655277373
 30
0.0
 11
82.89528060779264
 21
-51.49983655277373
 31
0.0
  0
LINE
  5
AACC
330
A
100
AcDbEntity
  8
0
  6
Continuous
 62
     7
370
     0
100
AcDbLine
 10
88.89528090095158
 20
6.000163447226327
 30
0.0
 11
82.89528090095158
 21
6.000163447226327
 31
0.0
  0
LINE
  5
AACD
330
A
100
AcDbEntity
  8
0
  6
Continuous
 62
     7
370
     0
100
AcDbLine
 10
88.89528090095158
 20
4.700163447226316
 30
0.0
 11
82.89528090095158
 21
4.700163447226316
 31
0.0
  0
LINE
  5
AACE
330
A
100
AcDbEntity
  8
0
  6
Continuous
 62
     7
370
     0
100
AcDbLine
 10
82.89528090095158
 20
4.700163447226316
 30
0.0
 11
76.89528090095158
 21
4.700163447226316
 31
0.0
  0
LINE
  5
AACF
330
A
100
AcDbEntity
  8
0
  6
Continuous
 62
     7
370
     0
100
AcDbLine
 10
82.89528090095158
 20
-33.99983655277345
 30
0.0
 11
88.89528090095158
 21
-33.99983655277345
 31
0.0
  0
LINE
  5
AAD0
330
A
100
AcDbEntity
  8
0
  6
Continuous
 62
     7
370
     0
100
AcDbLine
 10
76.89528090095158
 20
-32.69983655277349
 30
0.0
 11
82.89528090095158
 21
-32.69983655277349
 31
0.0
  0
LINE
  5
AAD1
330
A
100
AcDbEntity
  8
0
  6
Continuous
 62
     7
370
     0
100
AcDbLine
 10
82.89528090095158
 20
-32.69983655277349
 30
0.0
 11
88.89528090095158
 21
-32.69983655277349
 31
0.0
  0
LINE
  5
AAD4
330
A
100
AcDbEntity
  8
0
  6
Continuous
 62
     7
370
     0
100
AcDbLine
 10
88.89528090095158
 20
-32.69983655277372
 30
0.0
 11
82.89528090095158
 21
-32.69983655277372
 31
0.0
  0
LINE
  5
AAD5
330
A
100
AcDbEntity
  8
0
  6
Continuous
 62
     7
370
     0
100
AcDbLine
 10
88.89528090095158
 20
4.700163447226316
 30
0.0
 11
82.89528090095158
 21
4.700163447226316
 31
0.0
  0
LINE
  5
AAD6
330
A
100
AcDbEntity
  8
0
  6
Continuous
 62
     7
370
     0
100
AcDbLine
 10
88.89528090095158
 20
-32.69983655277372
 30
0.0
 11
88.89528090095158
 21
4.700163447226259
 31
0.0
  0
LINE
  5
AAD7
330
A
100
AcDbEntity
  8
0
  6
Continuous
 62
     7
370
     0
100
AcDbLine
 10
76.89528090095158
 20
-32.69983655277372
 30
0.0
 11
76.89528090095158
 21
4.700163447226259
 31
0.0
  0
LINE
  5
AAD8
330
A
100
AcDbEntity
  8
0
  6
Continuous
 62
     7
370
     0
100
AcDbLine
 10
82.89528090095158
 20
-32.69983655277372
 30
0.0
 11
76.8952809009516
 21
-32.69983655277372
 31
0.0
  0
LINE
  5
AAD9
330
A
100
AcDbEntity
  8
0
  6
Continuous
 62
     7
370
     0
100
AcDbLine
 10
82.89528090095158
 20
4.700163447226316
 30
0.0
 11
76.8952809009516
 21
4.700163447226316
 31
0.0
  0
LINE
  5
AADA
330
A
100
AcDbEntity
  8
0
  6
Continuous
 62
     7
370
     0
100
AcDbLine
 10
76.89528090095158
 20
4.700163447226316
 30
0.0
 11
76.89528090095158
 21
5.986770321958147
 31
0.0
  0
LINE
  5
AADB
330
A
100
AcDbEntity
  8
0
  6
Continuous
 62
     7
370
     0
100
AcDbLine
 10
76.89528090095158
 20
-32.69983655277372
 30
0.0
 11
76.89528090095158
 21
-33.98644342750555
 31
0.0
  0
LINE
  5
AADC
330
A
100
AcDbEntity
  8
0
  6
Continuous
 62
     7
370
     0
100
AcDbLine
 10
88.89528090095158
 20
-51.49983655277373
 30
0.0
 11
82.89528090095158
 21
-51.49983655277373
 31
0.0
  0
LINE
  5
AADD
330
A
100
AcDbEntity
  8
0
  6
Continuous
 62
     7
370
     0
100
AcDbLine
 10
88.89528090095158
 20
-33.99983655277373
 30
0.0
 11
82.89528090095158
 21
-33.99983655277373
 31
0.0
  0
LINE
  5
AADE
330
A
100
AcDbEntity
  8
0
  6
Continuous
 62
     7
370
     0
100
AcDbLine
 10
82.89528090095158
 20
-51.49983655277373
 30
0.0
 11
58.8952809009516
 21
-51.49983655277373
 31
0.0
  0
LINE
  5
AADF
330
A
100
AcDbEntity
  8
0
  6
Continuous
 62
     7
370
     0
100
AcDbLine
 10
58.8952809009516
 20
23.50016344722627
 30
0.0
 11
58.8952809009516
 21
-51.49983655277373
 31
0.0
  0
LINE
  5
AAE0
330
A
100
AcDbEntity
  8
0
  6
Continuous
 62
     7
370
     0
100
AcDbLine
 10
82.89528090095158
 20
23.50016344722627
 30
0.0
 11
58.89528090095158
 21
23.50016344722627
 31
0.0
  0
ARC
  5
AAE1
330
A
100
AcDbEntity
  8
0
  6
Continuous
 62
     7
370
     0
100
AcDbCircle
 10
77.09528090095159
 20
4.50016344722627
 30
0.0
 40
1.500000000000001
100
AcDbArc
 50
90.0
 51
180.0
  0
LINE
  5
AAE2
330
A
100
AcDbEntity
  8
0
  6
Continuous
 62
     7
370
     0
100
AcDbLine
 10
75.5952809009516
 20
-32.49983655277373
 30
0.0
 11
75.5952809009516
 21
4.50016344722627
 31
0.0
  0
ARC
  5
AAE3
330
A
100
AcDbEntity
  8
0
  6
Continuous
 62
     7
370
     0
100
AcDbCircle
 10
77.09528090095159
 20
-32.49983655277373
 30
0.0
 40
1.500000000000001
100
AcDbArc
 50
180.0
 51
270.0
  0
CIRCLE
  5
AAE4
330
A
100
AcDbEntity
  8
0
  6
Continuous
 62
     7
370
     0
100
AcDbCircle
 10
66.89528090095163
 20
11.00016344722632
 30
0.0
 40
2.650000000000013
  0
CIRCLE
  5
AAE5
330
A
100
AcDbEntity
  8
0
  6
Continuous
 62
     7
370
     0
100
AcDbCircle
 10
66.89528090095163
 20
-13.99983655277373
 30
0.0
 40
2.650000000000013
  0
LINE
  5
AAE6
330
A
100
AcDbEntity
  8
0
  6
Continuous
 62
     7
370
     0
100
AcDbLine
 10
82.89528090095158
 20
-33.99983655277373
 30
0.0
 11
77.09528090095159
 21
-33.99983655277373
 31
0.0
  0
LINE
  5
AAE7
330
A
100
AcDbEntity
  8
0
  6
Continuous
 62
     7
370
     0
100
AcDbLine
 10
77.09528090095159
 20
6.000163447226213
 30
0.0
 11
82.8952809009516
 21
6.000163447226213
 31
0.0
  0
CIRCLE
  5
AAE8
330
A
100
AcDbEntity
  8
0
  6
Continuous
 62
     7
370
     0
100
AcDbCircle
 10
66.89528090095158
 20
-38.99983655277373
 30
0.0
 40
2.650000000000013
  0
LINE
  5
AAE9
330
A
100
AcDbEntity
  8
0
  6
Continuous
 62
     7
370
     0
100
AcDbLine
 10
88.89528090095158
 20
23.50016344722627
 30
0.0
 11
82.89528090095158
 21
23.50016344722627
 31
0.0
  0
LINE
  5
AAEA
330
A
100
AcDbEntity
  8
0
  6
Continuous
 62
     7
370
     0
100
AcDbLine
 10
82.89528090095158
 20
6.000163447226213
 30
0.0
 11
88.89528090095158
 21
6.000163447226213
 31
0.0
  0
LINE
  5
AAEB
330
A
100
AcDbEntity
  8
0
  6
Continuous
 62
     7
370
     0
100
AcDbLine
 10
58.8952809009516
 20
6.192264973085457
 30
0.0
 11
57.54528090094382
 21
5.412842109674954
 31
0.0
  0
LINE
  5
AAEC
330
A
100
AcDbEntity
  8
0
  6
Continuous
 62
     7
370
     0
100
AcDbLine
 10
57.54528090094382
 20
-5.412842109675068
 30
0.0
 11
58.8952809009516
 21
-6.192264973085571
 31
0.0
  0
ARC
  5
AAED
330
A
100
AcDbEntity
  8
0
  6
Continuous
 62
     7
370
     0
100
AcDbCircle
 10
57.79528090094379
 20
-4.979829407782858
 30
0.0
 40
0.5000000000000005
100
AcDbArc
 50
180.0
 51
239.9999999999995
  0
ARC
  5
AAEE
330
A
100
AcDbEntity
  8
0
  6
Continuous
 62
     7
370
     0
100
AcDbCircle
 10
57.79528090094379
 20
4.979829407782744
 30
0.0
 40
0.500000000000002
100
AcDbArc
 50
120.0000000000005
 51
180.0
  0
LINE
  5
AAEF
330
A
100
AcDbEntity
  8
0
  6
Continuous
 62
     7
370
     0
100
AcDbLine
 10
58.8952809009516
 20
-21.80757157969072
 30
0.0
 11
57.54528090094897
 21
-22.58699444309826
 31
0.0
  0
LINE
  5
AAF0
330
A
100
AcDbEntity
  8
0
  6
Continuous
 62
     7
370
     0
100
AcDbLine
 10
57.54528090094893
 20
-33.4126786624484
 30
0.0
 11
58.89528090095158
 21
-34.19210152585595
 31
0.0
  0
ARC
  5
AAF1
330
A
100
AcDbEntity
  8
0
  6
Continuous
 62
     7
370
     0
100
AcDbCircle
 10
57.79528090094896
 20
-32.97966596055619
 30
0.0
 40
0.5000000000000005
100
AcDbArc
 50
180.0
 51
239.9999999999995
  0
ARC
  5
AAF2
330
A
100
AcDbEntity
  8
0
  6
Continuous
 62
     7
370
     0
100
AcDbCircle
 10
57.79528090094896
 20
-23.02000714499053
 30
0.0
 40
0.500000000000002
100
AcDbArc
 50
120.0000000000005
 51
180.0
  0
LINE
  5
AAF3
330
A
100
AcDbEntity
  8
0
  6
Continuous
 62
     7
370
     0
100
AcDbLine
 10
88.89528060779264
 20
24.10016344722618
 30
0.0
 11
88.19528060779266
 21
24.80016344722617
 31
0.0
  0
LINE
  5
AAF4
330
A
100
AcDbEntity
  8
0
  6
Continuous
 62
     7
370
     0
100
AcDbLine
 10
77.59528060779266
 20
24.80016344722623
 30
0.0
 11
76.89528060779264
 21
24.10016344722624
 31
0.0
  0
LINE
  5
AAF5
330
A
100
AcDbEntity
  8
0
  6
Continuous
 62
     7
370
     0
100
AcDbLine
 10
76.89528060779264
 20
24.10016344722618
 30
0.0
 11
76.89528060779264
 21
23.50016344722622
 31
0.0
  0
LINE
  5
AAF6
330
A
100
AcDbEntity
  8
0
  6
Continuous
 62
     7
370
     0
100
AcDbLine
 10
88.89528060779264
 20
23.50016344722627
 30
0.0
 11
88.89528060779264
 21
24.10016344722624
 31
0.0
  0
LINE
  5
AAF7
330
A
100
AcDbEntity
  8
0
  6
Continuous
 62
     7
370
     0
100
AcDbLine
 10
76.89528060779264
 20
-52.09983655277375
 30
0.0
 11
77.59528060779263
 21
-52.79983655277374
 31
0.0
  0
LINE
  5
AAF8
330
A
100
AcDbEntity
  8
0
  6
Continuous
 62
     7
370
     0
100
AcDbLine
 10
88.1952806077926
 20
-52.79983655277374
 30
0.0
 11
88.89528060779261
 21
-52.09983655277375
 31
0.0
  0
LINE
  5
AAF9
330
A
100
AcDbEntity
  8
0
  6
Continuous
 62
     7
370
     0
100
AcDbLine
 10
88.89528060779264
 20
-52.09983655277375
 30
0.0
 11
88.89528060779264
 21
-51.49983655277373
 31
0.0
  0
LINE
  5
AAFA
330
A
100
AcDbEntity
  8
0
  6
Continuous
 62
     7
370
     0
100
AcDbLine
 10
76.89528060779264
 20
-51.49983655277373
 30
0.0
 11
76.89528060779264
 21
-52.09983655277375
 31
0.0
  0
LINE
  5
AAFB
330
A
100
AcDbEntity
  8
0
  6
Continuous
 62
     7
370
     0
100
AcDbLine
 10
88.89528090095158
 20
4.700163447226316
 30
0.0
 11
88.89528090095158
 21
6.000163447226327
 31
0.0
  0
LINE
  5
AAFC
330
A
100
AcDbEntity
  8
0
  6
Continuous
 62
     7
370
     0
100
AcDbLine
 10
76.89528090095158
 20
5.986770321958033
 30
0.0
 11
76.89528090095158
 21
4.700163447226259
 31
0.0
  0
LINE
  5
AAFD
330
A
100
AcDbEntity
  8
0
  6
Continuous
 62
     7
370
     0
100
AcDbLine
 10
76.89528090095158
 20
-32.69983655277349
 30
0.0
 11
76.89528090095158
 21
-33.98644342750555
 31
0.0
  0
LINE
  5
AAFE
330
A
100
AcDbEntity
  8
0
  6
Continuous
 62
     7
370
     0
100
AcDbLine
 10
88.89528090095158
 20
-33.99983655277345
 30
0.0
 11
88.89528090095158
 21
-32.69983655277349
 31
0.0
  0
LINE
  5
AAFF
330
A
100
AcDbEntity
  8
0
  6
Continuous
 62
     7
370
     0
100
AcDbLine
 10
88.89528090095158
 20
-51.49983655277373
 30
0.0
 11
88.8952809009516
 21
-33.99983655277373
 31
0.0
  0
LINE
  5
AB00
330
A
100
AcDbEntity
  8
0
  6
Continuous
 62
     7
370
     0
100
AcDbLine
 10
88.89528090095158
 20
6.000163447226213
 30
0.0
 11
88.89528090095158
 21
23.50016344722622
 31
0.0
  0
LINE
  5
AB01
330
A
100
AcDbEntity
  8
0
  6
Continuous
 62
     7
370
     0
100
AcDbLine
 10
-8.904328593746569
 20
-101.7998365527775
 30
0.0
 11
-8.904328593746569
 21
-100.2998365527778
 31
0.0
  0
LINE
  5
AB02
330
A
100
AcDbEntity
  8
0
  6
Continuous
 62
     9
370
     0
100
AcDbLine
 10
-5.915328593746778
 20
-100.2998365527778
 30
0.0
 11
-5.915328593746778
 21
-101.7998365527775
 31
0.0
  0
LINE
  5
AB03
330
A
100
AcDbEntity
  8
0
  6
Continuous
 62
     7
370
     0
100
AcDbLine
 10
-5.915328593747005
 20
-101.7998365527775
 30
0.0
 11
-8.904328593745731
 21
-101.7998365527775
 31
0.0
  0
LINE
  5
AB04
330
A
100
AcDbEntity
  8
0
  6
Continuous
 62
     7
370
     0
100
AcDbLine
 10
11.52468051267391
 20
-101.7998365527775
 30
0.0
 11
11.52468051267391
 21
-100.2998365527778
 31
0.0
  0
LINE
  5
AB05
330
A
100
AcDbEntity
  8
0
  6
Continuous
 62
     7
370
     0
100
AcDbLine
 10
-5.915328593751866
 20
-101.7998365527775
 30
0.0
 11
11.5246805126599
 21
-101.7998365527775
 31
0.0
  0
LINE
  5
AB06
330
A
100
AcDbEntity
  8
0
  6
Continuous
 62
     7
370
     0
100
AcDbLine
 10
11.52468051266669
 20
-101.7998365527775
 30
0.0
 11
14.09567140624296
 21
-101.7998365527775
 31
0.0
  0
LINE
  5
AB07
330
A
100
AcDbEntity
  8
0
  6
Continuous
 62
     9
370
     0
100
AcDbLine
 10
5.412842109675068
 20
-93.94983655277002
 30
0.0
 11
2.571665350972637
 21
-93.94983655277002
 31
0.0
  0
LINE
  5
AB08
330
A
100
AcDbEntity
  8
0
  6
Continuous
 62
     9
370
     0
100
AcDbLine
 10
2.571665350972637
 20
-93.94983655277002
 30
0.0
 11
-5.412842109675011
 21
-93.94983655277002
 31
0.0
  0
LINE
  5
AB09
330
A
100
AcDbEntity
  8
0
  6
Continuous
 62
     7
370
     0
100
AcDbLine
 10
-4.979829407782801
 20
-93.69983655276996
 30
0.0
 11
2.365939091195571
 21
-93.69983655276996
 31
0.0
  0
LINE
  5
AB0A
330
A
100
AcDbEntity
  8
0
  6
Continuous
 62
     7
370
     0
100
AcDbLine
 10
2.365939091195542
 20
-93.69983655276996
 30
0.0
 11
4.97982940778283
 21
-93.69983655276996
 31
0.0
  0
LINE
  5
AB0F
330
A
100
AcDbEntity
  8
0
  6
Continuous
 62
     7
370
     0
100
AcDbLine
 10
-6.754328593748027
 20
-101.7998365527775
 30
0.0
 11
-6.754328593748027
 21
-107.7998365527789
 31
0.0
  0
ELLIPSE
  5
AB10
330
A
100
AcDbEntity
  8
0
  6
Continuous
 62
     9
370
     0
100
AcDbEllipse
 10
9.472500416254689
 20
-98.299836552775
 30
0.0
 11
0.0
 21
3.000000000000002
 31
0.0
210
0.0
220
0.0
230
1.0
 40
0.9046428947468076
 41
4.712388980384707
 42
6.283185307179586
  0
LINE
  5
AB11
330
A
100
AcDbEntity
  8
0
  6
Continuous
 62
     9
370
     0
100
AcDbLine
 10
12.18642910049579
 20
-98.29983655277494
 30
0.0
 11
-14.81835531577313
 21
-98.299836552775
 31
0.0
  0
ARC
  5
AB12
330
A
100
AcDbEntity
  8
0
  6
Continuous
 62
     9
370
     0
100
AcDbCircle
 10
-11.91625292791987
 20
-98.20007786968773
 30
0.0
 40
2.903816465349523
100
AcDbArc
 50
92.84344384489211
 51
181.9687457813248
  0
LINE
  5
AB13
330
A
100
AcDbEntity
  8
0
  6
Continuous
 62
     7
370
     0
100
AcDbLine
 10
-12.06030280854063
 20
-95.29983655277494
 30
0.0
 11
9.472500416255627
 21
-95.29983655277494
 31
0.0
  0
ARC
  5
AB14
330
A
100
AcDbEntity
  8
0
  6
Continuous
 62
     7
370
     0
100
AcDbCircle
 10
-12.06811752411103
 20
-98.30539308431026
 30
0.0
 40
3.005566690997573
100
AcDbArc
 50
89.85102618880196
 51
179.8940745557211
  0
LINE
  5
AB15
330
A
100
AcDbEntity
  8
0
  6
Continuous
 62
     9
370
     0
100
AcDbLine
 10
-15.07368024627472
 20
-98.299836552775
 30
0.0
 11
-14.81835531577312
 21
-98.299836552775
 31
0.0
  0
LINE
  5
AB16
330
A
100
AcDbEntity
  8
0
  6
Continuous
 62
     9
370
     0
100
AcDbLine
 10
12.1864291004951
 20
-100.299836552775
 30
0.0
 11
12.1864291004951
 21
-98.29983655277494
 31
0.0
  0
LINE
  5
AB17
330
A
100
AcDbEntity
  8
0
  6
Continuous
 62
     9
370
     0
100
AcDbLine
 10
-14.81835531577312
 20
-98.299836552775
 30
0.0
 11
-14.81835531577312
 21
-100.299836552775
 31
0.0
  0
LINE
  5
AB18
330
A
100
AcDbEntity
  8
0
  6
Continuous
 62
     7
370
     0
100
AcDbLine
 10
12.18642910049579
 20
-100.2998365527749
 30
0.0
 11
-14.81835531577313
 21
-100.299836552775
 31
0.0
  0
LINE
  5
AB19
330
A
100
AcDbEntity
  8
0
  6
Continuous
 62
     7
370
     0
100
AcDbLine
 10
-15.07367907879451
 20
-100.299836552775
 30
0.0
 11
-15.07367907879451
 21
-98.299836552775
 31
0.0
  0
LINE
  5
AB1A
330
A
100
AcDbEntity
  8
0
  6
Continuous
 62
     7
370
     0
100
AcDbLine
 10
-14.81835531577312
 20
-100.299836552775
 30
0.0
 11
-15.07368024627472
 21
-100.299836552775
 31
0.0
  0
LINE
  5
AB1B
330
A
100
AcDbEntity
  8
0
  6
Continuous
 62
     9
370
     0
100
AcDbLine
 10
15.04714225809166
 20
-98.299836552775
 30
0.0
 11
12.18642910049559
 21
-98.299836552775
 31
0.0
  0
LINE
  5
AB1C
330
A
100
AcDbEntity
  8
0
  6
Continuous
 62
     7
370
     0
100
AcDbLine
 10
9.472500416255144
 20
-95.29983655277494
 30
0.0
 11
12.04714225809167
 21
-95.29983655277494
 31
0.0
  0
LINE
  5
AB1D
330
A
100
AcDbEntity
  8
0
  6
Continuous
 62
     7
370
     0
100
AcDbLine
 10
15.04714225809166
 20
-100.299836552775
 30
0.0
 11
12.18642910049559
 21
-100.299836552775
 31
0.0
  0
LINE
  5
AB1E
330
A
100
AcDbEntity
  8
0
  6
Continuous
 62
     7
370
     0
100
AcDbLine
 10
-8.904328593747123
 20
-109.2998365527777
 30
0.0
 11
-8.904328593747123
 21
-107.7998365527777
 31
0.0
  0
LINE
  5
AB1F
330
A
100
AcDbEntity
  8
0
  6
Continuous
 62
     9
370
     0
100
AcDbLine
 10
-5.915328593747148
 20
-107.7998365527777
 30
0.0
 11
-5.915328593747148
 21
-109.2998365527777
 31
0.0
  0
LINE
  5
AB20
330
A
100
AcDbEntity
  8
0
  6
Continuous
 62
     7
370
     0
100
AcDbLine
 10
-8.90432859374718
 20
-107.7998365527777
 30
0.0
 11
-5.915328593747148
 21
-107.7998365527777
 31
0.0
  0
LINE
  5
AB21
330
A
100
AcDbEntity
  8
0
  6
Continuous
 62
     7
370
     0
100
AcDbLine
 10
11.52468051267468
 20
-109.2998365527777
 30
0.0
 11
11.52468051267468
 21
-107.7998365527777
 31
0.0
  0
LINE
  5
AB22
330
A
100
AcDbEntity
  8
0
  6
Continuous
 62
     7
370
     0
100
AcDbLine
 10
-5.915328593747148
 20
-107.7998365527777
 30
0.0
 11
11.52468051267468
 21
-107.7998365527777
 31
0.0
  0
LINE
  5
AB23
330
A
100
AcDbEntity
  8
0
  6
Continuous
 62
     7
370
     0
100
AcDbLine
 10
11.52468051267468
 20
-107.7998365527777
 30
0.0
 11
14.09567140625287
 21
-107.7998365527777
 31
0.0
  0
CIRCLE
  5
AB24
330
A
100
AcDbEntity
  8
0
  6
Continuous
 62
     7
370
     0
100
AcDbCircle
 10
-29.90432859348137
 20
-119.2998362596188
 30
0.0
 40
5.300000000000027
  0
CIRCLE
  5
AB25
330
A
100
AcDbEntity
  8
0
  6
Continuous
 62
     7
370
     0
100
AcDbCircle
 10
-29.90432859343646
 20
-119.2998362596188
 30
0.0
 40
6.000000000000005
  0
ARC
  5
AB26
330
A
100
AcDbEntity
  8
0
  6
Continuous
 62
     7
370
     0
100
AcDbCircle
 10
-21.56623250613434
 20
-94.29983664816921
 30
0.0
 40
19.00000000000019
100
AcDbArc
 50
270.0057413760281
 51
307.8636468303959
  0
LINE
  5
AB27
330
A
100
AcDbEntity
  8
0
  6
Continuous
 62
     7
370
     0
100
AcDbLine
 10
-9.90432859374718
 20
-109.2998365527777
 30
0.0
 11
12.27770344808044
 21
-109.2998365527777
 31
0.0
  0
LINE
  5
AB28
330
A
100
AcDbEntity
  8
0
  6
Continuous
 62
     9
370
     0
100
AcDbLine
 10
12.27770344808039
 20
-113.246360212998
 30
0.0
 11
12.27770344808039
 21
-109.2998365527777
 31
0.0
  0
ARC
  5
AB29
330
A
100
AcDbEntity
  8
0
  6
Continuous
 62
     7
370
     0
100
AcDbCircle
 10
-20.0611452762097
 20
-12.29984534899762
 30
0.0
 40
106.0000000000017
100
AcDbArc
 50
269.9766582838806
 51
287.7631862437704
  0
LINE
  5
AB2A
330
A
100
AcDbEntity
  8
0
  6
Continuous
 62
     7
370
     0
100
AcDbLine
 10
-20.10432859374718
 20
-118.2998365527777
 30
0.0
 11
-23.40432859374713
 21
-118.2998365527777
 31
0.0
  0
LINE
  5
AB2B
330
A
100
AcDbEntity
  8
0
  6
Continuous
 62
     7
370
     0
100
AcDbLine
 10
-23.40432859374718
 20
-118.2998365527778
 30
0.0
 11
-23.48079918198246
 21
-118.3057189057189
 31
0.0
  0
ARC
  5
AB2C
330
A
100
AcDbEntity
  8
0
  6
Continuous
 62
     7
370
     0
100
AcDbCircle
 10
-29.90432859374727
 20
-119.2998365527778
 30
0.0
 40
6.500000000000107
100
AcDbArc
 50
8.79741070999275
 51
62.51357374961799
  0
LINE
  5
AB2D
330
A
100
AcDbEntity
  8
0
  6
Continuous
 62
     7
370
     0
100
AcDbLine
 10
-26.90432859374718
 20
-113.5335552554423
 30
0.0
 11
-26.90432859374718
 21
-113.2998365527777
 31
0.0
  0
LINE
  5
AB2E
330
A
100
AcDbEntity
  8
0
  6
Continuous
 62
     7
370
     0
100
AcDbLine
 10
-26.90432859374718
 20
-113.2998365527777
 30
0.0
 11
-21.56432859374719
 21
-113.2998365527777
 31
0.0
  0
LINE
  5
AB2F
330
A
100
AcDbEntity
  8
0
  6
Continuous
 62
     7
370
     0
100
AcDbLine
 10
-23.90432859374718
 20
-118.7998365527777
 30
0.0
 11
-23.90432859374718
 21
-119.2998365527777
 31
0.0
  0
ARC
  5
AB30
330
A
100
AcDbEntity
  8
0
  6
Continuous
 62
     7
370
     0
100
AcDbCircle
 10
-23.40432859374718
 20
-118.7998365527777
 30
0.0
 40
0.4999999999999874
100
AcDbArc
 50
98.79741070999115
 51
180.0
  0
LINE
  5
AB31
330
A
100
AcDbEntity
  8
0
  6
Continuous
 62
     7
370
     0
100
AcDbLine
 10
-29.90432859374718
 20
-113.2998365527777
 30
0.0
 11
-26.90432859374718
 21
-113.2998365527777
 31
0.0
  0
LINE
  5
AB3E
330
A
100
AcDbEntity
  8
0
  6
Continuous
 62
     7
370
     0
100
AcDbLine
 10
12.27770344808039
 20
-109.2998365527777
 30
0.0
 11
15.09489039564255
 21
-109.2998365527777
 31
0.0
  0
LINE
  5
AB3F
330
A
100
AcDbEntity
  8
0
  6
Continuous
 62
     7
370
     0
100
AcDbLine
 10
14.75992172228342
 20
-112.4172429035027
 30
0.0
 11
12.27770344808039
 21
-113.246360212998
 31
0.0
  0
LINE
  5
AB40
330
A
100
AcDbEntity
  8
0
  6
Continuous
 62
     7
370
     0
100
AcDbLine
 10
-35.9043285937472
 20
-119.2998365527778
 30
0.0
 11
-35.9043285937472
 21
-95.29983655277773
 31
0.0
  0
LINE
  5
AB41
330
A
100
AcDbEntity
  8
0
  6
Continuous
 62
     7
370
     0
100
AcDbLine
 10
-35.9043285937472
 20
-95.29983655277773
 30
0.0
 11
-32.40432859374718
 21
-95.29983655277773
 31
0.0
  0
LINE
  5
AB42
330
A
100
AcDbEntity
  8
0
  6
Continuous
 62
     7
370
     0
100
AcDbLine
 10
-32.40432859374718
 20
-95.29983655277773
 30
0.0
 11
-32.40432859374718
 21
-112.2998365527777
 31
0.0
  0
ARC
  5
AB43
330
A
100
AcDbEntity
  8
0
  6
Continuous
 62
     7
370
     0
100
AcDbCircle
 10
-31.40432859374718
 20
-112.2998365527777
 30
0.0
 40
1.0
100
AcDbArc
 50
180.0
 51
270.0
  0
LINE
  5
AB44
330
A
100
AcDbEntity
  8
0
  6
Continuous
 62
     7
370
     0
100
AcDbLine
 10
-31.40432859374718
 20
-113.2998365527777
 30
0.0
 11
-29.90432859374718
 21
-113.2998365527777
 31
0.0
  0
LINE
  5
AB45
330
A
100
AcDbEntity
  8
0
  6
Continuous
 62
     9
370
     0
100
AcDbLine
 10
-24.09485228086193
 20
-120.7998315427777
 30
0.0
 11
-24.09472337785717
 21
-120.7998315427777
 31
0.0
  0
LINE
  5
AB46
330
A
100
AcDbEntity
  8
0
  6
Continuous
 62
     7
370
     0
100
AcDbLine
 10
14.09567140625191
 20
-101.7998365527775
 30
0.0
 11
14.09567140625191
 21
-100.2998365527778
 31
0.0
  0
LINE
  5
AB47
330
A
100
AcDbEntity
  8
0
  6
Continuous
 62
     7
370
     0
100
AcDbLine
 10
6.192264973083894
 20
-95.29983655277494
 30
0.0
 11
5.412842109675068
 21
-93.94983655277002
 31
0.0
  0
LINE
  5
AB48
330
A
100
AcDbEntity
  8
0
  6
Continuous
 62
     7
370
     0
100
AcDbLine
 10
-5.412842109675011
 20
-93.94983655277002
 30
0.0
 11
-6.192264973083865
 21
-95.29983655277494
 31
0.0
  0
ARC
  5
AB49
330
A
100
AcDbEntity
  8
0
  6
Continuous
 62
     7
370
     0
100
AcDbCircle
 10
-4.979829407782801
 20
-94.19983655276997
 30
0.0
 40
0.5000000000000005
100
AcDbArc
 50
90.0
 51
150.0000000000002
  0
ARC
  5
AB4A
330
A
100
AcDbEntity
  8
0
  6
Continuous
 62
     7
370
     0
100
AcDbCircle
 10
4.979829407782858
 20
-94.19983655276997
 30
0.0
 40
0.499999999999988
100
AcDbArc
 50
29.99999999999609
 51
89.99999999999674
  0
LINE
  5
AB4D
330
A
100
AcDbEntity
  8
0
  6
Continuous
 62
     7
370
     0
100
AcDbLine
 10
6.995671406253677
 20
-107.7998365527789
 30
0.0
 11
6.995671406253677
 21
-101.7998365527775
 31
0.0
  0
ARC
  5
AB4E
330
A
100
AcDbEntity
  8
0
  6
Continuous
 62
     7
370
     0
100
AcDbCircle
 10
12.04714225809133
 20
-98.299836552775
 30
0.0
 40
3.000000000000002
100
AcDbArc
 50
0.0
 51
90.00000000000161
  0
LINE
  5
AB4F
330
A
100
AcDbEntity
  8
0
  6
Continuous
 62
     7
370
     0
100
AcDbLine
 10
15.04714225809107
 20
-100.299836552775
 30
0.0
 11
15.04714225809107
 21
-98.299836552775
 31
0.0
  0
LINE
  5
AB50
330
A
100
AcDbEntity
  8
0
  6
Continuous
 62
     7
370
     0
100
AcDbLine
 10
14.09567140625284
 20
-109.2998365527777
 30
0.0
 11
14.09567140625284
 21
-107.7998365527777
 31
0.0
  0
LINE
  5
AB51
330
A
100
AcDbEntity
  8
0
  6
Continuous
 62
     7
370
     0
100
AcDbLine
 10
15.09489039564255
 20
-111.9730808830257
 30
0.0
 11
15.09489039564255
 21
-109.2998365527777
 31
0.0
  0
ARC
  5
AB52
330
A
100
AcDbEntity
  8
0
  6
Continuous
 62
     9
370
     0
100
AcDbCircle
 10
-18.11778036829058
 20
-41.50299804844763
 30
0.0
 40
5.97701019534611
100
AcDbArc
 50
167.785164406407
 51
194.503066065906
  0
LINE
  5
AB53
330
A
100
AcDbEntity
  8
0
  6
Continuous
 62
     9
370
     0
100
AcDbLine
 10
-23.95947788574075
 20
-40.23839495265519
 30
0.0
 11
-23.90432859374735
 21
-39.99984156277441
 31
0.0
  0
LINE
  5
AB54
330
A
100
AcDbEntity
  8
0
  6
Continuous
 62
     7
370
     0
100
AcDbLine
 10
-35.90432859339799
 20
23.50016344684133
 30
0.0
 11
-23.90432859339799
 21
23.50016344761116
 31
0.0
  0
LINE
  5
AB55
330
A
100
AcDbEntity
  8
0
  6
Continuous
 62
     7
370
     0
100
AcDbLine
 10
-23.90432859343646
 20
24.10016344761113
 30
0.0
 11
-35.90432859343646
 21
24.10016344684141
 31
0.0
  0
LINE
  5
AB56
330
A
100
AcDbEntity
  8
0
  6
Continuous
 62
     7
370
     0
100
AcDbLine
 10
-35.20432859348137
 20
24.8001634468863
 30
0.0
 11
-24.60432859348137
 21
24.80016344756626
 31
0.0
  0
LINE
  5
AB57
330
A
100
AcDbEntity
  8
0
  6
Continuous
 62
     7
370
     0
100
AcDbLine
 10
-24.60432859348137
 20
-52.79983655311389
 30
0.0
 11
-35.20432859348137
 21
-52.79983655243359
 31
0.0
  0
LINE
  5
AB58
330
A
100
AcDbEntity
  8
0
  6
Continuous
 62
     7
370
     0
100
AcDbLine
 10
-23.90432859339794
 20
-51.49983655315884
 30
0.0
 11
-35.90432859339794
 21
-51.49983655238867
 31
0.0
  0
LINE
  5
AB59
330
A
100
AcDbEntity
  8
0
  6
Continuous
 62
     7
370
     0
100
AcDbLine
 10
-35.90432859343643
 20
-52.09983655238864
 30
0.0
 11
-23.90432859343643
 21
-52.0998365531588
 31
0.0
  0
LINE
  5
AB5A
330
A
100
AcDbEntity
  8
0
  6
Continuous
 62
     7
370
     0
100
AcDbLine
 10
-23.90432859258542
 20
6.000163446839053
 30
0.0
 11
-35.90432859258543
 21
6.000163447613545
 31
0.0
  0
LINE
  5
AB5B
330
A
100
AcDbEntity
  8
0
  6
Continuous
 62
     7
370
     0
100
AcDbLine
 10
-23.90432859266931
 20
4.700163446839098
 30
0.0
 11
-35.90432859266933
 21
4.70016344761359
 31
0.0
  0
LINE
  5
AB5C
330
A
100
AcDbEntity
  8
0
  6
Continuous
 62
     7
370
     0
100
AcDbLine
 10
-35.9043285925947
 20
-33.99983655315765
 30
0.0
 11
-23.90432859259468
 21
-33.9998365523893
 31
0.0
  0
LINE
  5
AB5D
330
A
100
AcDbEntity
  8
0
  6
Continuous
 62
     7
370
     0
100
AcDbLine
 10
-35.90432859267793
 20
-32.69983655315764
 30
0.0
 11
-23.90432859267793
 21
-32.69983655238929
 31
0.0
  0
LINE
  5
AB5E
330
A
100
AcDbEntity
  8
0
  6
Continuous
 62
     7
370
     0
100
AcDbLine
 10
-29.90432859374718
 20
-32.69983655277372
 30
0.0
 11
-35.9043285937472
 21
-32.69983655277372
 31
0.0
  0
LINE
  5
AB5F
330
A
100
AcDbEntity
  8
0
  6
Continuous
 62
     7
370
     0
100
AcDbLine
 10
-35.9043285937472
 20
-32.69983655277372
 30
0.0
 11
-35.9043285937472
 21
4.700163447226259
 31
0.0
  0
LINE
  5
AB60
330
A
100
AcDbEntity
  8
0
  6
Continuous
 62
     7
370
     0
100
AcDbLine
 10
-29.90432859374718
 20
4.700163447226316
 30
0.0
 11
-35.9043285937472
 21
4.700163447226316
 31
0.0
  0
LINE
  5
AB61
330
A
100
AcDbEntity
  8
0
  6
Continuous
 62
     7
370
     0
100
AcDbLine
 10
-23.90432859374718
 20
-32.69983655277372
 30
0.0
 11
-29.90432859374718
 21
-32.69983655277372
 31
0.0
  0
LINE
  5
AB62
330
A
100
AcDbEntity
  8
0
  6
Continuous
 62
     7
370
     0
100
AcDbLine
 10
-23.90432859374718
 20
4.700163447226316
 30
0.0
 11
-29.90432859374718
 21
4.700163447226316
 31
0.0
  0
LINE
  5
AB63
330
A
100
AcDbEntity
  8
0
  6
Continuous
 62
     7
370
     0
100
AcDbLine
 10
-23.90432859374718
 20
-32.69983655277372
 30
0.0
 11
-23.90432859374718
 21
4.700163447226259
 31
0.0
  0
LINE
  5
AB64
330
A
100
AcDbEntity
  8
0
  6
Continuous
 62
     9
370
     0
100
AcDbLine
 10
-23.40432859374718
 20
-51.37455637693119
 30
0.0
 11
-23.40432859374718
 21
23.37488327138368
 31
0.0
  0
LINE
  5
AB65
330
A
100
AcDbEntity
  8
0
  6
Continuous
 62
     7
370
     0
100
AcDbLine
 10
-23.48079918198246
 20
-51.3803379410266
 30
0.0
 11
-23.40432859374718
 21
-51.37455637693119
 31
0.0
  0
LINE
  5
AB66
330
A
100
AcDbEntity
  8
0
  6
Continuous
 62
     7
370
     0
100
AcDbLine
 10
-23.48079918198246
 20
-51.3803379410266
 30
0.0
 11
-23.48079918198246
 21
-32.69983655277372
 31
0.0
  0
LINE
  5
AB67
330
A
100
AcDbEntity
  8
0
  6
Continuous
 62
     7
370
     0
100
AcDbLine
 10
-23.48079918198246
 20
23.38066483547919
 30
0.0
 11
-23.48079918198246
 21
4.700163447226259
 31
0.0
  0
LINE
  5
AB68
330
A
100
AcDbEntity
  8
0
  6
Continuous
 62
     7
370
     0
100
AcDbLine
 10
-23.40432859374718
 20
23.37488327138379
 30
0.0
 11
-23.48079918198246
 21
23.38066483547925
 31
0.0
  0
LINE
  5
AB69
330
A
100
AcDbEntity
  8
0
  6
Continuous
 62
     7
370
     0
100
AcDbLine
 10
-23.90432859374718
 20
4.700163447226316
 30
0.0
 11
-23.48079918198246
 21
4.700163447226316
 31
0.0
  0
LINE
  5
AB6A
330
A
100
AcDbEntity
  8
0
  6
Continuous
 62
     7
370
     0
100
AcDbLine
 10
-23.90432859374718
 20
-32.69983655277372
 30
0.0
 11
-23.48079918198246
 21
-32.69983655277372
 31
0.0
  0
LINE
  5
AB6B
330
A
100
AcDbEntity
  8
0
  6
Continuous
 62
     7
370
     0
100
AcDbLine
 10
-23.90305809772993
 20
23.41012190010747
 30
0.0
 11
-23.48079918198246
 21
23.38066483547925
 31
0.0
  0
LINE
  5
AB6C
330
A
100
AcDbEntity
  8
0
  6
Continuous
 62
     7
370
     0
100
AcDbLine
 10
-23.9030580977299
 20
-51.40979500565487
 30
0.0
 11
-23.48079918198246
 21
-51.3803379410266
 31
0.0
  0
LINE
  5
AB6D
330
A
100
AcDbEntity
  8
0
  6
Continuous
 62
     9
370
     0
100
AcDbLine
 10
14.75992172228342
 20
-18.47039763494388
 30
0.0
 11
14.75992172228342
 21
-9.529275470603579
 31
0.0
  0
ARC
  5
AB6E
330
A
100
AcDbEntity
  8
0
  6
Continuous
 62
     7
370
     0
100
AcDbCircle
 10
-14.90510960435802
 20
-13.99983655277373
 30
0.0
 40
30.00000000000056
100
AcDbArc
 50
334.9710005123857
 51
351.4299367612863
  0
LINE
  5
AB6F
330
A
100
AcDbEntity
  8
0
  6
Continuous
 62
     9
370
     0
100
AcDbLine
 10
-20.10432859374718
 20
-50.9934078312624
 30
0.0
 11
-20.10432859374718
 21
22.99373472571494
 31
0.0
  0
ARC
  5
AB70
330
A
100
AcDbEntity
  8
0
  6
Continuous
 62
     7
370
     0
100
AcDbCircle
 10
-14.90510960435499
 20
-13.99983655277293
 30
0.0
 40
29.99999999999745
100
AcDbArc
 50
8.570063238713713
 51
25.02899948761426
  0
ARC
  5
AB71
330
A
100
AcDbEntity
  8
0
  6
Continuous
 62
     7
370
     0
100
AcDbCircle
 10
-26.6843285937471
 20
-19.49983655277356
 30
0.0
 40
42.99999999999982
100
AcDbArc
 50
25.02899948761426
 51
81.19783047374379
  0
ARC
  5
AB72
330
A
100
AcDbEntity
  8
0
  6
Continuous
 62
     7
370
     0
100
AcDbCircle
 10
-26.6843285937471
 20
-8.499836552773786
 30
0.0
 40
42.99999999999991
100
AcDbArc
 50
278.8021695262562
 51
334.9710005123857
  0
ARC
  5
AB73
330
A
100
AcDbEntity
  8
0
  6
Continuous
 62
     7
370
     0
100
AcDbCircle
 10
-26.68432859374718
 20
-19.49983655277378
 30
0.0
 40
42.99999999999998
100
AcDbArc
 50
81.19783047374379
 51
85.62528184189821
  0
ARC
  5
AB74
330
A
100
AcDbEntity
  8
0
  6
Continuous
 62
     7
370
     0
100
AcDbCircle
 10
-26.68432859374718
 20
-8.499836552773672
 30
0.0
 40
43.00000000000001
100
AcDbArc
 50
274.3747181581018
 51
278.8021695262562
  0
ARC
  5
AB75
330
A
100
AcDbEntity
  8
0
  6
Continuous
 62
     7
370
     0
100
AcDbCircle
 10
-14.90510960435749
 20
-13.99983655277361
 30
0.0
 40
30.00000000000003
100
AcDbArc
 50
351.4299367612863
 51
8.570063238713713
  0
LINE
  5
AB76
330
A
100
AcDbEntity
  8
0
  6
Continuous
 62
     7
370
     0
100
AcDbLine
 10
-23.90432859374718
 20
23.50016344722627
 30
0.0
 11
-35.9043285937472
 21
23.50016344722627
 31
0.0
  0
LINE
  5
AB77
330
A
100
AcDbEntity
  8
0
  6
Continuous
 62
     7
370
     0
100
AcDbLine
 10
-35.9043285937472
 20
6.000163447226213
 30
0.0
 11
-23.90432859374718
 21
6.000163447226213
 31
0.0
  0
LINE
  5
AB78
330
A
100
AcDbEntity
  8
0
  6
Continuous
 62
     7
370
     0
100
AcDbLine
 10
-35.9043285937472
 20
23.50016344722627
 30
0.0
 11
-35.9043285937472
 21
6.00016344722627
 31
0.0
  0
LINE
  5
AB79
330
A
100
AcDbEntity
  8
0
  6
Continuous
 62
     7
370
     0
100
AcDbLine
 10
-23.90432859374718
 20
-51.49983655277373
 30
0.0
 11
-35.9043285937472
 21
-51.49983655277373
 31
0.0
  0
LINE
  5
AB7A
330
A
100
AcDbEntity
  8
0
  6
Continuous
 62
     7
370
     0
100
AcDbLine
 10
-23.90432859374718
 20
-33.99983655277373
 30
0.0
 11
-35.9043285937472
 21
-33.99983655277373
 31
0.0
  0
LINE
  5
AB7B
330
A
100
AcDbEntity
  8
0
  6
Continuous
 62
     7
370
     0
100
AcDbLine
 10
-35.9043285937472
 20
-33.99983655277373
 30
0.0
 11
-35.9043285937472
 21
-51.49983655277373
 31
0.0
  0
ARC
  5
AB7C
330
A
100
AcDbEntity
  8
0
  6
Continuous
 62
     7
370
     0
100
AcDbCircle
 10
-18.03572289051202
 20
-41.49983655277367
 30
0.0
 40
6.00025273634738
100
AcDbArc
 50
167.9758148803468
 51
192.0241851196532
  0
LINE
  5
AB7D
330
A
100
AcDbEntity
  8
0
  6
Continuous
 62
     7
370
     0
100
AcDbLine
 10
-35.90432859343646
 20
24.10016344684141
 30
0.0
 11
-35.90432859339796
 21
23.50016344684133
 31
0.0
  0
LINE
  5
AB7E
330
A
100
AcDbEntity
  8
0
  6
Continuous
 62
     7
370
     0
100
AcDbLine
 10
-23.90432859339799
 20
23.50016344761105
 30
0.0
 11
-23.90432859343646
 21
24.10016344761107
 31
0.0
  0
LINE
  5
AB7F
330
A
100
AcDbEntity
  8
0
  6
Continuous
 62
     7
370
     0
100
AcDbLine
 10
-23.90432859343646
 20
24.10016344761113
 30
0.0
 11
-24.60432859348137
 21
24.80016344756626
 31
0.0
  0
LINE
  5
AB80
330
A
100
AcDbEntity
  8
0
  6
Continuous
 62
     7
370
     0
100
AcDbLine
 10
-35.20432859348137
 20
24.8001634468863
 30
0.0
 11
-35.90432859343646
 21
24.10016344684141
 31
0.0
  0
LINE
  5
AB81
330
A
100
AcDbEntity
  8
0
  6
Continuous
 62
     7
370
     0
100
AcDbLine
 10
-35.90432859343643
 20
-52.09983655238864
 30
0.0
 11
-35.20432859348137
 21
-52.79983655243359
 31
0.0
  0
LINE
  5
AB82
330
A
100
AcDbEntity
  8
0
  6
Continuous
 62
     7
370
     0
100
AcDbLine
 10
-24.60432859348137
 20
-52.79983655311389
 30
0.0
 11
-23.90432859343643
 21
-52.0998365531588
 31
0.0
  0
LINE
  5
AB83
330
A
100
AcDbEntity
  8
0
  6
Continuous
 62
     7
370
     0
100
AcDbLine
 10
-23.90432859343643
 20
-52.0998365531588
 30
0.0
 11
-23.90432859339794
 21
-51.49983655315884
 31
0.0
  0
LINE
  5
AB84
330
A
100
AcDbEntity
  8
0
  6
Continuous
 62
     7
370
     0
100
AcDbLine
 10
-35.90432859339794
 20
-51.49983655238867
 30
0.0
 11
-35.90432859343643
 21
-52.09983655238864
 31
0.0
  0
LINE
  5
AB85
330
A
100
AcDbEntity
  8
0
  6
Continuous
 62
     7
370
     0
100
AcDbLine
 10
-23.90432859266931
 20
4.700163446839098
 30
0.0
 11
-23.90432859258542
 21
6.000163446839053
 31
0.0
  0
LINE
  5
AB86
330
A
100
AcDbEntity
  8
0
  6
Continuous
 62
     7
370
     0
100
AcDbLine
 10
-35.90432859258543
 20
6.000163447613545
 30
0.0
 11
-35.90432859266933
 21
4.70016344761359
 31
0.0
  0
LINE
  5
AB87
330
A
100
AcDbEntity
  8
0
  6
Continuous
 62
     7
370
     0
100
AcDbLine
 10
-35.90432859267791
 20
-32.69983655315764
 30
0.0
 11
-35.90432859259467
 21
-33.99983655315765
 31
0.0
  0
LINE
  5
AB88
330
A
100
AcDbEntity
  8
0
  6
Continuous
 62
     7
370
     0
100
AcDbLine
 10
-23.90432859259468
 20
-33.9998365523893
 30
0.0
 11
-23.90432859267793
 21
-32.69983655238929
 31
0.0
  0
LINE
  5
AB89
330
A
100
AcDbEntity
  8
0
  6
Continuous
 62
     7
370
     0
100
AcDbLine
 10
-23.90432859374718
 20
6.000163447226213
 30
0.0
 11
-23.90432859374718
 21
23.50016344722622
 31
0.0
  0
LINE
  5
AB8A
330
A
100
AcDbEntity
  8
0
  6
Continuous
 62
     7
370
     0
100
AcDbLine
 10
-23.90432859374718
 20
-39.99984156277373
 30
0.0
 11
-23.90432859374718
 21
-33.99983655277373
 31
0.0
  0
LINE
  5
AB8B
330
A
100
AcDbEntity
  8
0
  6
Continuous
 62
     7
370
     0
100
AcDbLine
 10
-23.90432859374718
 20
-51.49983655277373
 30
0.0
 11
-23.90432859374718
 21
-42.99983154277373
 31
0.0
  0
LINE
  5
AB8C
330
A
100
AcDbEntity
  8
0
  6
Continuous
 62
     7
370
     0
100
AcDbLine
 10
-23.90432859374718
 20
-42.99955692840399
 30
0.0
 11
-23.90432859374718
 21
-42.99938668863404
 31
0.0
  0
LINE
  5
AB8D
330
A
100
AcDbEntity
  8
0
  6
Continuous
 62
     7
370
     0
100
AcDbLine
 10
-23.90432859374718
 20
-42.74983655277373
 30
0.0
 11
-23.90432859374718
 21
-42.74965269275537
 31
0.0
  0
LINE
  5
B521
330
A
100
AcDbEntity
  8
0
  6
Continuous
 62
     7
370
     0
100
AcDbLine
 10
14.75992172228345
 20
71.41756979795514
 30
0.0
 11
14.89219195316883
 21
71.34790401939858
 31
0.0
  0
LINE
  5
B522
330
A
100
AcDbEntity
  8
0
  6
Continuous
 62
     7
370
     0
100
AcDbLine
 10
14.89219195316883
 20
71.34790401939858
 30
0.0
 11
15.00606530577238
 21
71.23093453152364
 31
0.0
  0
LINE
  5
B523
330
A
100
AcDbEntity
  8
0
  6
Continuous
 62
     7
370
     0
100
AcDbLine
 10
15.00606530577238
 20
71.23093453152364
 30
0.0
 11
15.0736499830229
 21
71.09207104929772
 31
0.0
  0
LINE
  5
B524
330
A
100
AcDbEntity
  8
0
  6
Continuous
 62
     7
370
     0
100
AcDbLine
 10
15.0736499830229
 20
71.09207104929772
 30
0.0
 11
15.08979741045695
 21
71.02173449138115
 31
0.0
  0
LINE
  5
B525
330
A
100
AcDbEntity
  8
0
  6
Continuous
 62
     7
370
     0
100
AcDbLine
 10
15.08979741045695
 20
71.02173449138115
 30
0.0
 11
15.09372661470471
 21
70.98937481017287
 31
0.0
  0
LINE
  5
B526
330
A
100
AcDbEntity
  8
0
  6
Continuous
 62
     7
370
     0
100
AcDbLine
 10
15.09372661470471
 20
70.98937481017287
 30
0.0
 11
15.09444763770665
 21
70.98027891434242
 31
0.0
  0
LINE
  5
B527
330
A
100
AcDbEntity
  8
0
  6
Continuous
 62
     7
370
     0
100
AcDbLine
 10
15.09444763770665
 20
70.98027891434242
 30
0.0
 11
15.09481213423964
 21
70.97461866782203
 31
0.0
  0
LINE
  5
B528
330
A
100
AcDbEntity
  8
0
  6
Continuous
 62
     7
370
     0
100
AcDbLine
 10
15.09481213423964
 20
70.97461866782203
 30
0.0
 11
15.09488294383422
 21
70.97339358384556
 31
0.0
  0
LINE
  5
B529
330
A
100
AcDbEntity
  8
0
  6
Continuous
 62
     7
370
     0
100
AcDbLine
 10
15.09488294383422
 20
70.97339358384556
 30
0.0
 11
15.09489039564261
 21
70.97325357434067
 31
0.0
  0
ARC
  5
B52A
330
A
100
AcDbEntity
  8
0
  6
Continuous
 62
     7
370
     0
100
AcDbCircle
 10
-95.20478322710323
 20
-41.49991133256128
 30
0.0
 40
1.250096328183664
100
AcDbArc
 50
37.30141440907922
 51
57.89949222769678
  0
ARC
  5
B52B
330
A
100
AcDbEntity
  8
0
  6
Continuous
 62
     7
370
     0
100
AcDbCircle
 10
-95.2047174154122
 20
-41.49982352473574
 30
0.0
 40
1.249986971963147
100
AcDbArc
 50
57.8999088229262
 51
90.00007717335984
  0
LINE
  5
B52C
330
A
100
AcDbEntity
  8
0
  6
Continuous
 62
     7
370
     0
100
AcDbLine
 10
-95.20471909905618
 20
-40.24983655277373
 30
0.0
 11
-95.32292881222753
 21
-40.25544193414282
 31
0.0
  0
LINE
  5
B52D
330
A
100
AcDbEntity
  8
0
  6
Continuous
 62
     7
370
     0
100
AcDbLine
 10
-95.32292881222753
 20
-40.25544193414282
 30
0.0
 11
-95.43509546696293
 21
-40.27125163743443
 31
0.0
  0
LINE
  5
B52E
330
A
100
AcDbEntity
  8
0
  6
Continuous
 62
     7
370
     0
100
AcDbLine
 10
-95.43509546696293
 20
-40.27125163743443
 30
0.0
 11
-95.54052103613535
 21
-40.29578628012979
 31
0.0
  0
ARC
  5
B52F
330
A
100
AcDbEntity
  8
0
  6
Continuous
 62
     7
370
     0
100
AcDbCircle
 10
-95.20472229804813
 20
-41.49983023169363
 30
0.0
 40
1.249993051900074
100
AcDbArc
 50
105.5833837204716
 51
149.3790009583955
  0
ARC
  5
B530
330
A
100
AcDbEntity
  8
0
  6
Continuous
 62
     7
370
     0
100
AcDbCircle
 10
-95.2047303311623
 20
-41.49983550496142
 30
0.0
 40
1.249988824965088
100
AcDbArc
 50
149.3786054003455
 51
182.5251920880642
  0
ARC
  5
B531
330
A
100
AcDbEntity
  8
0
  6
Continuous
 62
     7
370
     0
100
AcDbCircle
 10
-95.20468100209967
 20
-41.49982154813483
 30
0.0
 40
1.250038721100892
100
AcDbArc
 50
182.5257315639165
 51
220.4686665647725
  0
LINE
  5
B532
330
A
100
AcDbEntity
  8
0
  6
Continuous
 62
     7
370
     0
100
AcDbLine
 10
-96.15566173032352
 20
-42.31113681287377
 30
0.0
 11
-96.06198612708382
 21
-42.40955381705879
 31
0.0
  0
LINE
  5
B533
330
A
100
AcDbEntity
  8
0
  6
Continuous
 62
     7
370
     0
100
AcDbLine
 10
-96.06198612708382
 20
-42.40955381705879
 30
0.0
 11
-95.97089948873607
 21
-42.48749419106241
 31
0.0
  0
LINE
  5
B534
330
A
100
AcDbEntity
  8
0
  6
Continuous
 62
     7
370
     0
100
AcDbLine
 10
-95.97089948873607
 20
-42.48749419106241
 30
0.0
 11
-95.88127961903486
 21
-42.55091233355978
 31
0.0
  0
ARC
  5
B535
330
A
100
AcDbEntity
  8
0
  6
Continuous
 62
     7
370
     0
100
AcDbCircle
 10
-95.20466587611089
 20
-41.49971920390362
 30
0.0
 40
1.250125254904445
100
AcDbArc
 50
237.2321297752223
 51
259.1773102649021
  0
ARC
  5
B536
330
A
100
AcDbEntity
  8
0
  6
Continuous
 62
     7
370
     0
100
AcDbCircle
 10
-95.20472547330708
 20
-41.49979256163618
 30
0.0
 40
1.250042012206453
100
AcDbArc
 50
259.1793619686193
 51
297.3100233990138
  0
ARC
  5
B537
330
A
100
AcDbEntity
  8
0
  6
Continuous
 62
     7
370
     0
100
AcDbCircle
 10
-95.2047190990561
 20
-41.49983655277373
 30
0.0
 40
1.249999999999944
100
AcDbArc
 50
297.310688928283
 51
322.6887161857876
  0
ARC
  5
B538
330
A
100
AcDbEntity
  8
0
  6
Continuous
 62
     7
370
     0
100
AcDbCircle
 10
-80.34786635479781
 20
-58.84195200191044
 30
0.0
 40
11.79744719320885
100
AcDbArc
 50
114.3108381976887
 51
138.1670498614133
  0
LINE
  5
B539
330
A
100
AcDbEntity
  8
0
  6
Continuous
 62
     7
370
     0
100
AcDbLine
 10
-89.13805650117501
 20
-50.97351394425982
 30
0.0
 11
-89.1879347429157
 21
-51.09106440567353
 31
0.0
  0
LINE
  5
B53A
330
A
100
AcDbEntity
  8
0
  6
Continuous
 62
     7
370
     0
100
AcDbLine
 10
-89.1879347429157
 20
-51.09106440567353
 30
0.0
 11
-89.20471909905618
 21
-51.19392982104677
 31
0.0
  0
LINE
  5
B53B
330
A
100
AcDbEntity
  8
0
  6
Continuous
 62
     7
370
     0
100
AcDbLine
 10
-89.20471909905618
 20
23.19425671549936
 30
0.0
 11
-89.18886288372442
 21
23.09447797438537
 31
0.0
  0
LINE
  5
B53C
330
A
100
AcDbEntity
  8
0
  6
Continuous
 62
     7
370
     0
100
AcDbLine
 10
-89.18886288372442
 20
23.09447797438537
 30
0.0
 11
-89.14173496939307
 21
22.98082052281813
 31
0.0
  0
LINE
  5
B53D
330
A
100
AcDbEntity
  8
0
  6
Continuous
 62
     7
370
     0
100
AcDbLine
 10
-89.14173496939307
 20
22.98082052281813
 30
0.0
 11
-89.06376412197406
 21
22.85375625784786
 31
0.0
  0
ARC
  5
B53E
330
A
100
AcDbEntity
  8
0
  6
Continuous
 62
     7
370
     0
100
AcDbCircle
 10
-79.79777998315009
 20
31.71987404789149
 30
0.0
 40
12.82444956822185
100
AcDbArc
 50
223.7366637766846
 51
245.063611691145
  0
ARC
  5
B53F
330
A
100
AcDbEntity
  8
0
  6
Continuous
 62
     7
370
     0
100
AcDbCircle
 10
-497.5629867394241
 20
-75.28303138015957
 30
0.0
 40
415.0572582113784
100
AcDbArc
 50
10.26665784717612
 51
13.60830471734343
  0
LINE
  5
B540
330
A
100
AcDbEntity
  8
0
  6
Continuous
 62
     7
370
     0
100
AcDbLine
 10
-94.15766921653952
 20
22.37288184688225
 30
0.0
 11
-94.19318641855189
 21
22.71362067554782
 31
0.0
  0
LINE
  5
B541
330
A
100
AcDbEntity
  8
0
  6
Continuous
 62
     7
370
     0
100
AcDbLine
 10
-94.19318641855189
 20
22.71362067554782
 30
0.0
 11
-94.20471909905618
 21
22.99373472571494
 31
0.0
  0
ARC
  5
B542
330
A
100
AcDbEntity
  8
0
  6
Continuous
 62
     7
370
     0
100
AcDbCircle
 10
248.078124763879
 20
-118.2727024882833
 30
0.0
 40
348.8324077439548
100
AcDbArc
 50
166.0874658483961
 51
168.8796802708851
  0
ARC
  5
B543
330
A
100
AcDbEntity
  8
0
  6
Continuous
 62
     7
370
     0
100
AcDbCircle
 10
-235.9114525192009
 20
-4.586271561616968
 30
0.0
 40
148.4157295433154
100
AcDbArc
 50
348.411860768126
 51
351.4341714191198
  0
ARC
  5
B544
330
A
100
AcDbEntity
  8
0
  6
Continuous
 62
     7
370
     0
100
AcDbCircle
 10
-123.3127503881497
 20
-12.95621670825295
 30
0.0
 40
35.4224508591636
100
AcDbArc
 50
351.0443962835838
 51
358.8038917793557
  0
ARC
  5
B545
330
A
100
AcDbEntity
  8
0
  6
Continuous
 62
     7
370
     0
100
AcDbCircle
 10
6.427994683288005
 20
-1.989135733334592
 30
0.0
 40
95.04966581997321
100
AcDbArc
 50
184.5499643062244
 51
187.0746261746804
  0
TEXT
  5
B5C5
330
A
100
AcDbEntity
  8
0
  6
Continuous
 62
     7
370
     0
100
AcDbText
 10
32.79184153894315
 20
61.00748409144284
 30
0.0
 40
10.0
  1
8400
100
AcDbText
  0
ARC
  5
B5C6
330
A
100
AcDbEntity
  8
0
  6
Continuous
 62
     7
370
     0
100
AcDbCircle
 10
70.64346669882036
 20
-75.22979809223432
 30
0.0
 40
1.37809606351186
100
AcDbArc
 50
62.78986849382103
 51
83.24947580447725
  0
LINE
  5
B5C7
330
A
100
AcDbEntity
  8
0
  6
Continuous
 62
     7
370
     0
100
AcDbLine
 10
70.80545704428712
 20
-73.86125584288925
 30
0.0
 11
70.66612856740698
 21
-73.85915717509999
 31
0.0
  0
LINE
  5
B5C8
330
A
100
AcDbEntity
  8
0
  6
Continuous
 62
     7
370
     0
100
AcDbLine
 10
70.66612856740698
 20
-73.85915717509999
 30
0.0
 11
70.54591440713423
 21
-73.8777388021482
 31
0.0
  0
LINE
  5
B5C9
330
A
100
AcDbEntity
  8
0
  6
Continuous
 62
     7
370
     0
100
AcDbLine
 10
70.54591440713423
 20
-73.8777388021482
 30
0.0
 11
70.44642093037913
 21
-73.91104887968896
 31
0.0
  0
LINE
  5
B5CA
330
A
100
AcDbEntity
  8
0
  6
Continuous
 62
     7
370
     0
100
AcDbLine
 10
70.44642093037913
 20
-73.91104887968896
 30
0.0
 11
70.3433388377195
 21
-73.96795840176685
 31
0.0
  0
LINE
  5
B5CB
330
A
100
AcDbEntity
  8
0
  6
Continuous
 62
     7
370
     0
100
AcDbLine
 10
70.3433388377195
 20
-73.96795840176685
 30
0.0
 11
70.30331358303891
 21
-73.9979930107695
 31
0.0
  0
LINE
  5
B5CC
330
A
100
AcDbEntity
  8
0
  6
Continuous
 62
     7
370
     0
100
AcDbLine
 10
56.21091676716119
 20
-125.9499998748744
 30
0.0
 11
56.32133980507532
 21
-125.9455207823286
 31
0.0
  0
LINE
  5
B5CD
330
A
100
AcDbEntity
  8
0
  6
Continuous
 62
     7
370
     0
100
AcDbLine
 10
56.32133980507532
 20
-125.9455207823286
 30
0.0
 11
56.41538737181647
 21
-125.8979323881098
 31
0.0
  0
LINE
  5
B5CE
330
A
100
AcDbEntity
  8
0
  6
Continuous
 62
     7
370
     0
100
AcDbLine
 10
56.41538737181647
 20
-125.8979323881098
 30
0.0
 11
56.49271672293522
 21
-125.8236070506387
 31
0.0
  0
LINE
  5
B5CF
330
A
100
AcDbEntity
  8
0
  6
Continuous
 62
     7
370
     0
100
AcDbLine
 10
56.49271672293522
 20
-125.8236070506387
 30
0.0
 11
56.55406524118518
 21
-125.7357710464884
 31
0.0
  0
LINE
  5
B5D0
330
A
100
AcDbEntity
  8
0
  6
Continuous
 62
     7
370
     0
100
AcDbLine
 10
56.55406524118518
 20
-125.7357710464884
 30
0.0
 11
56.60108333881755
 21
-125.645462376527
 31
0.0
  0
ARC
  5
B5D1
330
A
100
AcDbEntity
  8
0
  6
Continuous
 62
     7
370
     0
100
AcDbCircle
 10
53.85441780405949
 20
-124.6323865620408
 30
0.0
 40
2.927540634342189
100
AcDbArc
 50
339.7540872682571
 51
8.377871108158307
  0
LINE
  5
B5D2
330
A
100
AcDbEntity
  8
0
  6
Continuous
 62
     7
370
     0
100
AcDbLine
 10
56.75071771448634
 20
-124.2058411429045
 30
0.0
 11
56.71945445733476
 21
-124.1016761992068
 31
0.0
  0
LINE
  5
B5D3
330
A
100
AcDbEntity
  8
0
  6
Continuous
 62
     7
370
     0
100
AcDbLine
 10
56.71945445733476
 20
-124.1016761992068
 30
0.0
 11
56.65998703264754
 21
-124.0141333742609
 31
0.0
  0
LINE
  5
B5D4
330
A
100
AcDbEntity
  8
0
  6
Continuous
 62
     7
370
     0
100
AcDbLine
 10
56.65998703264754
 20
-124.0141333742609
 30
0.0
 11
56.61091871925808
 21
-123.9904084791259
 31
0.0
  0
LINE
  5
B5D5
330
A
100
AcDbEntity
  8
0
  6
Continuous
 62
     7
370
     0
100
AcDbLine
 10
56.42959207227807
 20
-124.0611451292812
 30
0.0
 11
56.34400364862603
 21
-124.1434353876599
 31
0.0
  0
ARC
  5
B5D6
330
A
100
AcDbEntity
  8
0
  6
Continuous
 62
     7
370
     0
100
AcDbCircle
 10
57.80240998705713
 20
-125.3825851812719
 30
0.0
 40
1.913750573869197
100
AcDbArc
 50
139.6467687706918
 51
179.3189333771608
  0
LINE
  5
B5D7
330
A
100
AcDbEntity
  8
0
  6
Continuous
 62
     7
370
     0
100
AcDbLine
 10
55.88879461551113
 20
-125.3598372414183
 30
0.0
 11
55.90081075481904
 21
-125.4945220647465
 31
0.0
  0
LINE
  5
B5D8
330
A
100
AcDbEntity
  8
0
  6
Continuous
 62
     7
370
     0
100
AcDbLine
 10
55.90081075481904
 20
-125.4945220647465
 30
0.0
 11
55.92278464301594
 21
-125.5998859806013
 31
0.0
  0
LINE
  5
B5D9
330
A
100
AcDbEntity
  8
0
  6
Continuous
 62
     7
370
     0
100
AcDbLine
 10
55.92278464301594
 20
-125.5998859806013
 30
0.0
 11
55.95980660147407
 21
-125.7062574317917
 31
0.0
  0
LINE
  5
B5DA
330
A
100
AcDbEntity
  8
0
  6
Continuous
 62
     7
370
     0
100
AcDbLine
 10
55.95980660147407
 20
-125.7062574317917
 30
0.0
 11
56.01895172885938
 21
-125.8119097787897
 31
0.0
  0
LINE
  5
B5DB
330
A
100
AcDbEntity
  8
0
  6
Continuous
 62
     7
370
     0
100
AcDbLine
 10
56.01895172885938
 20
-125.8119097787897
 30
0.0
 11
56.09928900030701
 21
-125.8969566045541
 31
0.0
  0
LINE
  5
B5DC
330
A
100
AcDbEntity
  8
0
  6
Continuous
 62
     7
370
     0
100
AcDbLine
 10
56.09928900030701
 20
-125.8969566045541
 30
0.0
 11
56.19516889878354
 21
-125.946220279408
 31
0.0
  0
LINE
  5
B5DD
330
A
100
AcDbEntity
  8
0
  6
Continuous
 62
     7
370
     0
100
AcDbLine
 10
56.19516889878354
 20
-125.946220279408
 30
0.0
 11
56.21091676716119
 21
-125.9499998748744
 31
0.0
  0
LINE
  5
B5DE
330
A
100
AcDbEntity
  8
0
  6
Continuous
 62
     7
370
     0
100
AcDbLine
 10
57.33634155547798
 20
-76.68555303440729
 30
0.0
 11
57.33178028843636
 21
-76.77971445307588
 31
0.0
  0
LINE
  5
B5DF
330
A
100
AcDbEntity
  8
0
  6
Continuous
 62
     7
370
     0
100
AcDbLine
 10
57.33178028843636
 20
-76.77971445307588
 30
0.0
 11
57.31766451442567
 21
-76.87569396071956
 31
0.0
  0
LINE
  5
B5E0
330
A
100
AcDbEntity
  8
0
  6
Continuous
 62
     7
370
     0
100
AcDbLine
 10
57.31766451442567
 20
-76.87569396071956
 30
0.0
 11
57.30330362586082
 21
-76.93800210873326
 31
0.0
  0
LINE
  5
B5E1
330
A
100
AcDbEntity
  8
0
  6
Continuous
 62
     7
370
     0
100
AcDbLine
 10
57.30330362586082
 20
-76.93800210873326
 30
0.0
 11
57.2848913844515
 21
-76.99995690000339
 31
0.0
  0
LINE
  5
B5E2
330
A
100
AcDbEntity
  8
0
  6
Continuous
 62
     7
370
     0
100
AcDbLine
 10
57.2848913844515
 20
-76.99995690000339
 30
0.0
 11
57.2623544563954
 21
-77.06170959689683
 31
0.0
  0
LINE
  5
B5E3
330
A
100
AcDbEntity
  8
0
  6
Continuous
 62
     7
370
     0
100
AcDbLine
 10
57.2623544563954
 20
-77.06170959689683
 30
0.0
 11
57.23576929364028
 21
-77.12297997506681
 31
0.0
  0
LINE
  5
B5E4
330
A
100
AcDbEntity
  8
0
  6
Continuous
 62
     7
370
     0
100
AcDbLine
 10
57.23576929364028
 20
-77.12297997506681
 30
0.0
 11
57.20501393680814
 21
-77.18396751623515
 31
0.0
  0
LINE
  5
B5E5
330
A
100
AcDbEntity
  8
0
  6
Continuous
 62
     7
370
     0
100
AcDbLine
 10
57.20501393680814
 20
-77.18396751623515
 30
0.0
 11
57.17022026883737
 21
-77.24434632293008
 31
0.0
  0
LINE
  5
B5E6
330
A
100
AcDbEntity
  8
0
  6
Continuous
 62
     7
370
     0
100
AcDbLine
 10
57.17022026883737
 20
-77.24434632293008
 30
0.0
 11
57.13126995229493
 21
-77.30426677143299
 31
0.0
  0
LINE
  5
B5E7
330
A
100
AcDbEntity
  8
0
  6
Continuous
 62
     7
370
     0
100
AcDbLine
 10
57.13126995229493
 20
-77.30426677143299
 30
0.0
 11
57.08831139176743
 21
-77.36345726630111
 31
0.0
  0
ARC
  5
B5E8
330
A
100
AcDbEntity
  8
0
  6
Continuous
 62
     7
370
     0
100
AcDbCircle
 10
55.71506326066523
 20
-76.99976329071001
 30
0.0
 40
1.699052305833782
100
AcDbArc
 50
27.55169528832114
 51
52.26735687772245
  0
LINE
  5
B5E9
330
A
100
AcDbEntity
  8
0
  6
Continuous
 62
     7
370
     0
100
AcDbLine
 10
57.22143259965585
 20
-76.21386879874046
 30
0.0
 11
57.29401693276471
 21
-76.39831437858703
 31
0.0
  0
LINE
  5
B5EA
330
A
100
AcDbEntity
  8
0
  6
Continuous
 62
     7
370
     0
100
AcDbLine
 10
57.29401693276471
 20
-76.39831437858703
 30
0.0
 11
57.33142192399279
 21
-76.58755885757284
 31
0.0
  0
LINE
  5
B5EB
330
A
100
AcDbEntity
  8
0
  6
Continuous
 62
     7
370
     0
100
AcDbLine
 10
57.33142192399279
 20
-76.58755885757284
 30
0.0
 11
57.33634155547798
 21
-76.68555303440729
 31
0.0
  0
LINE
  5
B5EC
330
A
100
AcDbEntity
  8
0
  6
Continuous
 62
     9
370
     0
100
AcDbLine
 10
71.31271102339161
 20
-74.02375684149621
 30
0.0
 11
71.3091141736594
 21
-74.02191576033255
 31
0.0
  0
LINE
  5
B5ED
330
A
100
AcDbEntity
  8
0
  6
Continuous
 62
     9
370
     0
100
AcDbLine
 10
71.3091141736594
 20
-74.02191576033255
 30
0.0
 11
71.24201116696707
 21
-73.98931471729736
 31
0.0
  0
LINE
  5
B5EE
330
A
100
AcDbEntity
  8
0
  6
Continuous
 62
     9
370
     0
100
AcDbLine
 10
71.24201116696707
 20
-73.98931471729736
 30
0.0
 11
71.17505159414986
 21
-73.96022339727085
 31
0.0
  0
LINE
  5
B5EF
330
A
100
AcDbEntity
  8
0
  6
Continuous
 62
     9
370
     0
100
AcDbLine
 10
71.17505159414986
 20
-73.96022339727085
 30
0.0
 11
71.10831927617891
 21
-73.93487473123065
 31
0.0
  0
LINE
  5
B5F0
330
A
100
AcDbEntity
  8
0
  6
Continuous
 62
     9
370
     0
100
AcDbLine
 10
71.10831927617891
 20
-73.93487473123065
 30
0.0
 11
71.04340482114736
 21
-73.91396173293634
 31
0.0
  0
LINE
  5
B5F1
330
A
100
AcDbEntity
  8
0
  6
Continuous
 62
     9
370
     0
100
AcDbLine
 10
71.04340482114736
 20
-73.91396173293634
 30
0.0
 11
70.97906453031845
 21
-73.89717262407788
 31
0.0
  0
LINE
  5
B5F2
330
A
100
AcDbEntity
  8
0
  6
Continuous
 62
     9
370
     0
100
AcDbLine
 10
70.97906453031845
 20
-73.89717262407788
 30
0.0
 11
70.91514107339421
 21
-73.8847229713366
 31
0.0
  0
LINE
  5
B5F3
330
A
100
AcDbEntity
  8
0
  6
Continuous
 62
     9
370
     0
100
AcDbLine
 10
70.91514107339421
 20
-73.8847229713366
 30
0.0
 11
70.88351009924835
 21
-73.88024870139293
 31
0.0
  0
LINE
  5
B5F4
330
A
100
AcDbEntity
  8
0
  6
Continuous
 62
     9
370
     0
100
AcDbLine
 10
70.88351009924835
 20
-73.88024870139293
 30
0.0
 11
70.85219688757397
 21
-73.87699528263607
 31
0.0
  0
LINE
  5
B5F5
330
A
100
AcDbEntity
  8
0
  6
Continuous
 62
     9
370
     0
100
AcDbLine
 10
70.85219688757397
 20
-73.87699528263607
 30
0.0
 11
70.82097347123943
 21
-73.87498136343464
 31
0.0
  0
LINE
  5
B5F6
330
A
100
AcDbEntity
  8
0
  6
Continuous
 62
     9
370
     0
100
AcDbLine
 10
70.82097347123943
 20
-73.87498136343464
 30
0.0
 11
70.79013787688712
 21
-73.87426817854367
 31
0.0
  0
LINE
  5
B5F7
330
A
100
AcDbEntity
  8
0
  6
Continuous
 62
     9
370
     0
100
AcDbLine
 10
70.79013787688712
 20
-73.87426817854367
 30
0.0
 11
70.75962490927671
 21
-73.87488829452706
 31
0.0
  0
LINE
  5
B5F8
330
A
100
AcDbEntity
  8
0
  6
Continuous
 62
     9
370
     0
100
AcDbLine
 10
70.75962490927671
 20
-73.87488829452706
 30
0.0
 11
70.72957213561341
 21
-73.87687157871386
 31
0.0
  0
LINE
  5
B5F9
330
A
100
AcDbEntity
  8
0
  6
Continuous
 62
     9
370
     0
100
AcDbLine
 10
70.72957213561341
 20
-73.87687157871386
 30
0.0
 11
70.69284398063562
 21
-73.88128456176514
 31
0.0
  0
LINE
  5
B5FA
330
A
100
AcDbEntity
  8
0
  6
Continuous
 62
     9
370
     0
100
AcDbLine
 10
70.69284398063562
 20
-73.88128456176514
 30
0.0
 11
70.65695670381296
 21
-73.8878883262546
 31
0.0
  0
LINE
  5
B5FB
330
A
100
AcDbEntity
  8
0
  6
Continuous
 62
     9
370
     0
100
AcDbLine
 10
70.65695670381296
 20
-73.8878883262546
 30
0.0
 11
70.62177341639767
 21
-73.89677866727106
 31
0.0
  0
LINE
  5
B5FC
330
A
100
AcDbEntity
  8
0
  6
Continuous
 62
     9
370
     0
100
AcDbLine
 10
70.62177341639767
 20
-73.89677866727106
 30
0.0
 11
70.58758619028347
 21
-73.90794482176625
 31
0.0
  0
LINE
  5
B5FD
330
A
100
AcDbEntity
  8
0
  6
Continuous
 62
     9
370
     0
100
AcDbLine
 10
70.58758619028347
 20
-73.90794482176625
 30
0.0
 11
70.5542532042175
 21
-73.92150151393707
 31
0.0
  0
LINE
  5
B5FE
330
A
100
AcDbEntity
  8
0
  6
Continuous
 62
     9
370
     0
100
AcDbLine
 10
70.5542532042175
 20
-73.92150151393707
 30
0.0
 11
70.52207192753058
 21
-73.93738541619973
 31
0.0
  0
LINE
  5
B5FF
330
A
100
AcDbEntity
  8
0
  6
Continuous
 62
     9
370
     0
100
AcDbLine
 10
70.52207192753058
 20
-73.93738541619973
 30
0.0
 11
70.49089939489448
 21
-73.95572924768925
 31
0.0
  0
LINE
  5
B600
330
A
100
AcDbEntity
  8
0
  6
Continuous
 62
     9
370
     0
100
AcDbLine
 10
70.49089939489448
 20
-73.95572924768925
 30
0.0
 11
70.46102608230146
 21
-73.97640992085133
 31
0.0
  0
LINE
  5
B601
330
A
100
AcDbEntity
  8
0
  6
Continuous
 62
     9
370
     0
100
AcDbLine
 10
70.46102608230146
 20
-73.97640992085133
 30
0.0
 11
70.44417372189329
 21
-73.9895840256101
 31
0.0
  0
LINE
  5
B602
330
A
100
AcDbEntity
  8
0
  6
Continuous
 62
     7
370
     0
100
AcDbLine
 10
15.09489039564255
 20
-111.9729266798882
 30
0.0
 11
15.09487887712379
 21
-111.9731317643176
 31
0.0
  0
LINE
  5
B603
330
A
100
AcDbEntity
  8
0
  6
Continuous
 62
     7
370
     0
100
AcDbLine
 10
15.09487887712379
 20
-111.9731317643176
 30
0.0
 11
15.09467681145361
 21
-111.9765125380507
 31
0.0
  0
LINE
  5
B604
330
A
100
AcDbEntity
  8
0
  6
Continuous
 62
     7
370
     0
100
AcDbLine
 10
15.09467681145361
 20
-111.9765125380507
 30
0.0
 11
15.09422326160981
 21
-111.983017959756
 31
0.0
  0
LINE
  5
B605
330
A
100
AcDbEntity
  8
0
  6
Continuous
 62
     7
370
     0
100
AcDbLine
 10
15.09422326160981
 20
-111.983017959756
 30
0.0
 11
15.09334812763708
 21
-111.9931354047837
 31
0.0
  0
LINE
  5
B606
330
A
100
AcDbEntity
  8
0
  6
Continuous
 62
     7
370
     0
100
AcDbLine
 10
15.09334812763708
 20
-111.9931354047837
 30
0.0
 11
15.08924614990838
 21
-112.0248907931098
 31
0.0
  0
LINE
  5
B607
330
A
100
AcDbEntity
  8
0
  6
Continuous
 62
     7
370
     0
100
AcDbLine
 10
15.08924614990838
 20
-112.0248907931098
 30
0.0
 11
15.07332598574206
 21
-112.0927952998109
 31
0.0
  0
LINE
  5
B608
330
A
100
AcDbEntity
  8
0
  6
Continuous
 62
     7
370
     0
100
AcDbLine
 10
15.07332598574206
 20
-112.0927952998109
 30
0.0
 11
15.01054308235672
 21
-112.2240635857763
 31
0.0
  0
LINE
  5
B609
330
A
100
AcDbEntity
  8
0
  6
Continuous
 62
     7
370
     0
100
AcDbLine
 10
15.01054308235672
 20
-112.2240635857763
 30
0.0
 11
14.90624080035402
 21
-112.3368413203823
 31
0.0
  0
LINE
  5
B60A
330
A
100
AcDbEntity
  8
0
  6
Continuous
 62
     7
370
     0
100
AcDbLine
 10
14.90624080035402
 20
-112.3368413203823
 30
0.0
 11
14.75992172228342
 21
-112.4172429035027
 31
0.0
  0
CIRCLE
  5
B679
330
A
100
AcDbEntity
  8
0
  6
CENTER
 62
     1
100
AcDbCircle
 10
0.0956714062555477
 20
-27.99983655277339
 30
0.0
 40
7.0
  0
CIRCLE
  5
B67A
330
A
100
AcDbEntity
  8
0
  6
CENTER
 62
     1
100
AcDbCircle
 10
0.0
 20
0.0
 30
0.0
 40
7.0
  0
ENDSEC
  0
SECTION
  2
OBJECTS
  0
DICTIONARY
  5
19
330
0
100
AcDbDictionary
281
     1
  3
ACAD_COLOR
350
5829
  3
ACAD_GROUP
350
1A
  3
ACAD_LAYOUT
350
1E
  3
ACAD_MATERIAL
350
57FF
  3
ACAD_MLEADERSTYLE
350
584E
  3
ACAD_MLINESTYLE
350
1B
  3
ACAD_PLOTSETTINGS
350
22
  3
ACAD_PLOTSTYLENAME
350
1F
  3
ACAD_SCALELIST
350
582C
  3
ACAD_TABLESTYLE
350
582A
  3
ACAD_VISUALSTYLE
350
5818
  3
ACAD_WIPEOUT_VARS
350
23
  3
ACDB_RECOMPOSE_DATA
350
AB90
  3
AcDbVariableDictionary
350
AB91
  3
ASE_INDEX_DICTIONARY
350
ABA6
  3
DWGPROPS
350
B68B
  0
DICTIONARY
  5
5858
330
14
100
AcDbDictionary
280
     1
281
     1
  3
ADSK_XREC_LAYER_RECONCILED
360
5859
  0
DICTIONARY
  5
5864
330
A
100
AcDbDictionary
280
     1
281
     1
  3
ACAD_SORTENTS
360
5865
  0
DICTIONARY
  5
5829
102
{ACAD_REACTORS
330
19
102
}
330
19
100
AcDbDictionary
281
     1
  0
DICTIONARY
  5
1A
102
{ACAD_REACTORS
330
19
102
}
330
19
100
AcDbDictionary
281
     1
  0
DICTIONARY
  5
1E
102
{ACAD_REACTORS
330
19
102
}
330
19
100
AcDbDictionary
281
     1
  3
Layout1
350
21
  3
Model
350
20
  0
DICTIONARY
  5
57FF
102
{ACAD_REACTORS
330
19
102
}
330
19
100
AcDbDictionary
281
     1
  3
ByBlock
350
5808
  3
ByLayer
350
5800
  3
Global
350
5810
  0
DICTIONARY
  5
584E
102
{ACAD_REACTORS
330
19
102
}
330
19
100
AcDbDictionary
281
     1
  3
Standard
350
584F
  0
DICTIONARY
  5
1B
102
{ACAD_REACTORS
330
19
102
}
330
19
100
AcDbDictionary
281
     1
  3
Standard
350
1C
  0
DICTIONARY
  5
22
102
{ACAD_REACTORS
330
19
102
}
330
19
100
AcDbDictionary
281
     1
  0
ACDBDICTIONARYWDFLT
  5
1F
102
{ACAD_REACTORS
330
19
102
}
330
19
100
AcDbDictionary
281
     1
  3
Normal
350
1D
100
AcDbDictionaryWithDefault
340
1D
  0
DICTIONARY
  5
582C
102
{ACAD_REACTORS
330
19
102
}
330
19
100
AcDbDictionary
281
     1
  3
A0
350
582D
  3
A1
350
582E
  3
A2
350
582F
  3
A3
350
5830
  3
A4
350
5831
  3
A5
350
5832
  3
A6
350
5833
  3
A7
350
5834
  3
A8
350
5835
  3
A9
350
5836
  3
B0
350
5837
  3
B1
350
5838
  3
B2
350
5839
  3
B3
350
583A
  3
B4
350
583B
  3
B5
350
583C
  3
B6
350
583D
  3
B7
350
583E
  3
B8
350
583F
  3
B9
350
5840
  3
C0
350
5841
  3
C1
350
5842
  3
C2
350
5843
  3
C3
350
5844
  3
C4
350
5845
  3
C5
350
5846
  3
C6
350
5847
  3
C7
350
5848
  3
C8
350
5849
  3
C9
350
584A
  3
D0
350
584B
  3
D1
350
584C
  3
D2
350
584D
  0
DICTIONARY
  5
582A
102
{ACAD_REACTORS
330
19
102
}
330
19
100
AcDbDictionary
281
     1
  3
Standard
350
582B
  0
DICTIONARY
  5
5818
102
{ACAD_REACTORS
330
19
102
}
330
19
100
AcDbDictionary
281
     1
  3
2dWireframe
350
581E
  3
3D Hidden
350
5820
  3
3dWireframe
350
581F
  3
Basic
350
581D
  3
Brighten
350
5824
  3
ColorChange
350
5828
  3
Conceptual
350
5821
  3
Dim
350
5823
  3
Facepattern
350
5827
  3
Flat
350
5819
  3
FlatWithEdges
350
581A
  3
Gouraud
350
581B
  3
GouraudWithEdges
350
581C
  3
Linepattern
350
5826
  3
Realistic
350
5822
  3
Thicken
350
5825
  0
WIPEOUTVARIABLES
  5
23
330
19
100
AcDbWipeoutVariables
 70
     1
  0
XRECORD
  5
AB90
102
{ACAD_REACTORS
330
19
102
}
330
19
100
AcDbXrecord
280
     1
 90
        1
330
582B
  0
DICTIONARY
  5
AB91
102
{ACAD_REACTORS
330
19
102
}
330
19
100
AcDbDictionary
281
     1
  3
CANNOSCALE
350
AB95
  3
CMLEADERSTYLE
350
AB93
  3
CTABLESTYLE
350
AB92
  3
DIMASSOC
350
B67E
  3
INDEXCTL
350
B67D
  3
LIGHTINGUNITS
350
AB96
  3
MSLTSCALE
350
AB94
  3
SORTENTS
350
B67C
  0
DICTIONARY
  5
ABA6
102
{ACAD_REACTORS
330
19
102
}
330
19
100
AcDbDictionary
281
     1
  3
ASEBlockHierarchyIndexRecord
350
ABA7
1001
DCO15
1040
1684836916.841
  0
XRECORD
  5
B68B
102
{ACAD_REACTORS
330
19
102
}
330
19
100
AcDbXrecord
280
     1
  1
DWGPROPS COOKIE
  2

  3

  4

  6

  7

  8
renzo.ceresoli
  9

300
=
301
=
302
=
303
=
304
=
305
=
306
=
307
=
308
=
309
=
 40
0.1722921875
 41
2455301.802361111
 42
2455303.659960359
  1

 90
        0
  0
XRECORD
  5
5859
102
{ACAD_REACTORS
330
5858
102
}
330
5858
100
AcDbXrecord
280
     1
290
     1
  0
SORTENTSTABLE
  5
5865
102
{ACAD_REACTORS
330
5864
102
}
330
5864
100
AcDbSortentsTable
330
A
331
AA75
  5
31F7
331
A9F9
  5
269A
331
A61B
  5
5AAE
331
A6C9
  5
5A3A
331
A64D
  5
59CE
331
AB41
  5
15D2
331
AB14
  5
AF6
331
AAC5
  5
15F0
331
AA98
  5
3571
331
AA1C
  5
26A5
331
A6BF
  5
5A30
331
A6EC
  5
5A4B
331
109
  5
1F61
331
A643
  5
5ACB
331
A670
  5
59F1
331
AB5C
  5
113
331
AAE0
  5
1A40
331
AABB
  5
38AE
331
AA3F
  5
2D3B
331
A70F
  5
5A6E
331
A9E8
  5
221F
331
A693
  5
5A1C
331
A666
  5
59E7
331
AB7F
  5
786
331
AB03
  5
797
331
A9E6
  5
221D
331
A600
  5
5A93
331
A632
  5
5ABA
331
AB26
  5
E22
331
AAAA
  5
357B
331
AA7D
  5
31FF
331
AA2E
  5
26B7
331
A623
  5
5AB6
331
A655
  5
59D6
331
AB49
  5
15DF
331
AACD
  5
15F8
331
AA51
  5
2D47
331
AA24
  5
26AD
331
A719
  5
5A78
331
A6F4
  5
5A53
331
111
  5
1F69
331
A678
  5
59FD
331
AB64
  5
11B
331
AAE8
  5
1A48
331
AA47
  5
2D43
331
AA6C
  5
31EE
331
A717
  5
5A76
331
A9F0
  5
2227
331
A612
  5
5AA5
331
A6C0
  5
5A31
331
AB87
  5
78E
331
797
  5
5BF4
331
A608
  5
5A9B
331
A6B6
  5
5A2C
331
A6E3
  5
5A42
331
A63A
  5
5AC2
331
798
  5
5BF5
331
AB53
  5
10A
331
AB2E
  5
1239
331
AAB2
  5
38A5
331
AA36
  5
2D32
331
A706
  5
5A65
331
A68A
  5
5A13
331
A65D
  5
59DE
331
AB76
  5
6CC
331
AAD5
  5
1A35
331
AAFA
  5
1F5A
331
AA59
  5
31E7
331
A6FC
  5
5A5B
331
119
  5
2179
331
A5F7
  5
5A8A
331
A680
  5
5A09
331
AB6C
  5
5B8
331
AAF0
  5
1F50
331
AB1D
  5
E19
331
AA74
  5
31F6
331
A9F8
  5
2699
331
A61A
  5
5AAD
331
A6C8
  5
5A39
331
A64C
  5
59CD
331
AB13
  5
AF5
331
AB40
  5
15D1
331
AA97
  5
3570
331
AAC4
  5
15EF
331
AA1B
  5
26A4
331
AA48
  5
2D44
331
A6EB
  5
5A4A
331
A66F
  5
59F0
331
A642
  5
5ACA
331
AB5B
  5
112
331
AABA
  5
38AD
331
AADF
  5
1A3F
331
AA3E
  5
2D3A
331
A70E
  5
5A6D
331
A665
  5
59E6
331
A692
  5
5A1B
331
AB7E
  5
785
331
AB02
  5
796
331
A5FF
  5
5A92
331
A631
  5
5AB9
331
AB25
  5
E21
331
AA7C
  5
31FE
331
AAA9
  5
357A
331
AA2D
  5
26B6
331
A622
  5
5AB5
331
A654
  5
59D5
331
AB48
  5
15DE
331
AACC
  5
15F7
331
AA23
  5
26AC
331
AA50
  5
2D46
331
A6F3
  5
5A52
331
A718
  5
5A77
331
110
  5
1F68
331
A677
  5
59FC
331
AB63
  5
11A
331
AAE7
  5
1A47
331
AA46
  5
2D42
331
AA6B
  5
31ED
331
A716
  5
5A75
331
A9EF
  5
2226
331
A611
  5
5AA4
331
AB86
  5
78D
331
AB0A
  5
AEC
331
796
  5
5BF3
331
A607
  5
5A9A
331
A6E2
  5
5A41
331
A6B5
  5
5A2B
331
A639
  5
5AC1
331
AB2D
  5
1238
331
AB52
  5
109
331
AAB1
  5
38A4
331
AA35
  5
2D31
331
A705
  5
5A64
331
A65C
  5
59DD
331
A689
  5
5A12
331
AB75
  5
6CB
331
AAD4
  5
1A34
331
AAF9
  5
1F59
331
AA58
  5
31E6
331
A6FB
  5
5A5A
331
118
  5
2178
331
A5F6
  5
5A89
331
A67F
  5
5A08
331
AB6B
  5
5B7
331
AAEF
  5
1F4F
331
AB1C
  5
E18
331
AA73
  5
31F5
331
A9F7
  5
222E
331
A619
  5
5AAC
331
A6C7
  5
5A38
331
A64B
  5
59CC
331
AB12
  5
AF4
331
AB3F
  5
123F
331
AAC3
  5
15EE
331
AA1A
  5
26A3
331
A60F
  5
5AA2
331
A6EA
  5
5A49
331
A641
  5
5AC9
331
A66E
  5
59EF
331
AB5A
  5
111
331
AAB9
  5
38AC
331
AADE
  5
1A3E
331
AA3D
  5
2D39
331
A70D
  5
5A6C
331
A691
  5
5A1A
331
A664
  5
59E5
331
AB7D
  5
784
331
AB01
  5
795
331
A5FE
  5
5A91
331
A687
  5
5A10
331
AAF7
  5
1F57
331
AB24
  5
E20
331
AA7B
  5
31FD
331
AAA8
  5
3579
331
AA2C
  5
26B5
331
A621
  5
5AB4
331
A653
  5
59D4
331
AB47
  5
15D8
331
AACB
  5
15F6
331
AA22
  5
26AB
331
A6F2
  5
5A51
331
10F
  5
1F67
331
A676
  5
59F7
331
AB62
  5
119
331
AAE6
  5
1A46
331
AA45
  5
2D41
331
AA6A
  5
31EC
331
A715
  5
5A74
331
A9EE
  5
2225
331
A610
  5
5AA3
331
AB85
  5
78C
331
AB09
  5
AEB
331
795
  5
5BF2
331
A606
  5
5A99
331
A6E1
  5
5A40
331
A6B4
  5
5A2A
331
A638
  5
5AC0
331
AB2C
  5
E28
331
AB51
  5
15E7
331
AAB0
  5
3581
331
AA34
  5
2D30
331
A704
  5
5A63
331
A688
  5
5A11
331
A65B
  5
59DC
331
AB4F
  5
15E5
331
AB74
  5
6CA
331
AAF8
  5
1F58
331
AA57
  5
31E5
331
A6FA
  5
5A59
331
117
  5
1F6F
331
A5F5
  5
5A88
331
A67E
  5
5A07
331
A6A3
  5
5A24
331
AB6A
  5
5B6
331
AAEE
  5
1A4E
331
AB1B
  5
E17
331
AA72
  5
31F4
331
A9F6
  5
222D
331
A618
  5
5AAB
331
A6C6
  5
5A37
331
A64A
  5
59CB
331
AB8D
  5
794
331
AB11
  5
AF3
331
AB3E
  5
123E
331
AAC2
  5
15ED
331
AA19
  5
26A2
331
A60E
  5
5AA1
331
A6E9
  5
5A48
331
A66D
  5
59EE
331
A640
  5
5AC8
331
AB59
  5
110
331
AAB8
  5
38AB
331
AADD
  5
1A3D
331
AA3C
  5
2D38
331
A70C
  5
5A6B
331
A663
  5
59E4
331
A690
  5
5A19
331
AB7C
  5
783
331
AB00
  5
1F60
331
A5FD
  5
5A90
331
A686
  5
5A0F
331
A6AB
  5
5A27
331
AAF6
  5
1F56
331
AB23
  5
E1F
331
AA7A
  5
31FC
331
AAA7
  5
3578
331
A9FE
  5
269F
331
AA2B
  5
26B4
331
A620
  5
5AB3
331
A652
  5
59D3
331
AB46
  5
15D7
331
AACA
  5
15F5
331
AA21
  5
26AA
331
A6F1
  5
5A50
331
10E
  5
1F66
331
A675
  5
59F6
331
AB61
  5
118
331
AAE5
  5
1A45
331
AA44
  5
2D40
331
A714
  5
5A73
331
A9ED
  5
2224
331
AB84
  5
78B
331
AB08
  5
AEA
331
A605
  5
5A98
331
A6B3
  5
5A29
331
A637
  5
5ABF
331
AB2B
  5
E27
331
AB50
  5
15E6
331
AAAF
  5
3580
331
AA33
  5
2D2F
331
A703
  5
5A62
331
A65A
  5
59DB
331
AB4E
  5
15E4
331
AB73
  5
6C9
331
AA56
  5
31E4
331
A6F9
  5
5A58
331
A5F4
  5
5A87
331
A67D
  5
5A06
331
AB69
  5
5B5
331
AAED
  5
1A4D
331
AB1A
  5
E16
331
AA71
  5
31F3
331
A9F5
  5
222C
331
A617
  5
5AAA
331
A6C5
  5
5A36
331
A649
  5
59CA
331
AB8C
  5
793
331
AB10
  5
AF2
331
AAC1
  5
15EC
331
AA18
  5
26A1
331
A60D
  5
5AA0
331
A6E8
  5
5A47
331
A63F
  5
5AC7
331
A66C
  5
59ED
331
AB58
  5
10F
331
AAB7
  5
38AA
331
AADC
  5
1A3C
331
AA3B
  5
2D37
331
A70B
  5
5A6A
331
A68F
  5
5A18
331
A662
  5
59E3
331
AB7B
  5
782
331
AAFF
  5
1F5F
331
A5FC
  5
5A8F
331
A6AA
  5
5A26
331
A685
  5
5A0E
331
AAF5
  5
1F55
331
AB22
  5
E1E
331
AA79
  5
31FB
331
AAA6
  5
3577
331
A9FD
  5
269E
331
AA2A
  5
26B3
331
A61F
  5
5AB2
331
A651
  5
59D2
331
AB45
  5
15D6
331
AAC9
  5
15F4
331
AA20
  5
26A9
331
A6F0
  5
5A4F
331
10D
  5
1F65
331
A647
  5
59C8
331
A674
  5
59F5
331
AB60
  5
117
331
AABF
  5
15EA
331
AAE4
  5
1A44
331
AA43
  5
2D3F
331
A713
  5
5A72
331
A9EC
  5
2223
331
AB83
  5
78A
331
AB07
  5
AE9
331
A604
  5
5A97
331
A636
  5
5ABE
331
AB2A
  5
E26
331
AAAE
  5
357F
331
AA32
  5
2D2E
331
A702
  5
5A61
331
A659
  5
59DA
331
AB4D
  5
15E3
331
AB72
  5
6C8
331
AAD1
  5
15FC
331
AA55
  5
2D4B
331
A6F8
  5
5A57
331
115
  5
1F6D
331
A5F3
  5
5A86
331
A67C
  5
5A05
331
AB68
  5
5B4
331
AAEC
  5
1A4C
331
AB19
  5
E15
331
AA70
  5
31F2
331
A9F4
  5
222B
331
A616
  5
5AA9
331
A6C4
  5
5A35
331
A648
  5
59C9
331
AB8B
  5
792
331
AB0F
  5
AF1
331
AAC0
  5
15EB
331
A60C
  5
5A9F
331
A6E7
  5
5A46
331
A66B
  5
59EC
331
A63E
  5
5AC6
331
AB57
  5
10E
331
AAB6
  5
38A9
331
AADB
  5
1A3B
331
AA3A
  5
2D36
331
A70A
  5
5A69
331
A661
  5
59E2
331
A68E
  5
5A17
331
AB7A
  5
781
331
AAFE
  5
1F5E
331
11D
  5
221C
331
A5FB
  5
5A8E
331
A684
  5
5A0D
331
AAF4
  5
1F54
331
AB21
  5
E1D
331
AA78
  5
31FA
331
AAA5
  5
3576
331
A9FC
  5
269D
331
AA29
  5
26B2
331
A61E
  5
5AB1
331
A6CC
  5
5A3D
331
A650
  5
59D1
331
AB17
  5
AF9
331
AB44
  5
15D5
331
AAC8
  5
15F3
331
AA1F
  5
26A8
331
A6EF
  5
5A4E
331
10C
  5
1F64
331
A673
  5
59F4
331
A646
  5
59C7
331
AB5F
  5
116
331
AABE
  5
15E9
331
AAE3
  5
1A43
331
AA42
  5
2D3E
331
A712
  5
5A71
331
A9EB
  5
2222
331
A696
  5
5A1F
331
AB82
  5
789
331
AB06
  5
AE8
331
AA8A
  5
3201
331
A603
  5
5A96
331
A635
  5
5ABD
331
AB29
  5
E25
331
AAAD
  5
357E
331
AA31
  5
2D2D
331
A701
  5
5A60
331
A658
  5
59D9
331
AB71
  5
5BD
331
AAD0
  5
15FB
331
AA27
  5
26B0
331
AA54
  5
2D4A
331
A6F7
  5
5A56
331
114
  5
1F6C
331
A67B
  5
5A04
331
AB67
  5
5B3
331
AAEB
  5
1A4B
331
AB18
  5
AFA
331
AA6F
  5
31F1
331
A9F3
  5
222A
331
A615
  5
5AA8
331
A6C3
  5
5A34
331
AB8A
  5
791
331
A60B
  5
5A9E
331
A6E6
  5
5A45
331
A66A
  5
59EB
331
A63D
  5
5AC5
331
AB31
  5
123C
331
AB56
  5
10D
331
AAB5
  5
38A8
331
AADA
  5
1A3A
331
AA39
  5
2D35
331
A709
  5
5A68
331
A68D
  5
5A16
331
A660
  5
59E1
331
AB79
  5
780
331
AAFD
  5
1F5D
331
AA5C
  5
31EA
331
A6FF
  5
5A5E
331
11C
  5
221B
331
A5FA
  5
5A8D
331
A683
  5
5A0C
331
AB6F
  5
5BB
331
AAF3
  5
1F53
331
AB20
  5
E1C
331
AA77
  5
31F9
331
AAA4
  5
3575
331
A9FB
  5
269C
331
AA28
  5
26B1
331
A61D
  5
5AB0
331
A6CB
  5
5A3C
331
A64F
  5
59D0
331
AB16
  5
AF8
331
AB43
  5
15D4
331
AA9A
  5
3573
331
AAC7
  5
15F2
331
AA1E
  5
26A7
331
A6EE
  5
5A4D
331
10B
  5
1F63
331
A645
  5
59C6
331
A672
  5
59F3
331
AB5E
  5
115
331
AABD
  5
15E8
331
AAE2
  5
1A42
331
AA41
  5
2D3D
331
A711
  5
5A70
331
A9EA
  5
2221
331
A695
  5
5A1E
331
AB81
  5
788
331
AB05
  5
AE7
331
A602
  5
5A95
331
A634
  5
5ABC
331
AB28
  5
E24
331
AAAC
  5
357D
331
AA30
  5
2D2C
331
A700
  5
5A5F
331
A657
  5
59D8
331
AB70
  5
5BC
331
AACF
  5
15FA
331
AA26
  5
26AF
331
AA53
  5
2D49
331
A71B
  5
5A7A
331
A6F6
  5
5A55
331
113
  5
1F6B
331
A67A
  5
5A03
331
AB66
  5
11D
331
AAEA
  5
1A4A
331
AA6E
  5
31F0
331
A9F2
  5
2229
331
A614
  5
5AA7
331
A6C2
  5
5A33
331
A69D
  5
5A22
331
AB89
  5
790
331
A60A
  5
5A9D
331
A6B8
  5
5A2E
331
A6E5
  5
5A44
331
A669
  5
59EA
331
A63C
  5
5AC4
331
AB30
  5
123B
331
AB55
  5
10C
331
AAB4
  5
38A7
331
AAD9
  5
1A39
331
AA38
  5
2D34
331
A708
  5
5A67
331
A68C
  5
5A15
331
A65F
  5
59E0
331
AB78
  5
77F
331
AAD7
  5
1A37
331
AAFC
  5
1F5C
331
AA5B
  5
31E9
331
A6FE
  5
5A5D
331
11B
  5
217B
331
A5F9
  5
5A8C
331
A682
  5
5A0B
331
AB6E
  5
5BA
331
AAF2
  5
1F52
331
AB1F
  5
E1B
331
AA76
  5
31F8
331
A9FA
  5
269B
331
A61C
  5
5AAF
331
A6CA
  5
5A3B
331
A64E
  5
59CF
331
AB15
  5
AF7
331
AB42
  5
15D3
331
AA99
  5
3572
331
AAC6
  5
15F1
331
AA1D
  5
26A6
331
A6ED
  5
5A4C
331
10A
  5
1F62
331
A671
  5
59F2
331
A644
  5
59C5
331
AB5D
  5
114
331
AABC
  5
38AF
331
AAE1
  5
1A41
331
AA40
  5
2D3C
331
A710
  5
5A6F
331
A9E9
  5
2220
331
A667
  5
59E8
331
A694
  5
5A1D
331
AB80
  5
787
331
AB04
  5
798
331
A9E7
  5
221E
331
A601
  5
5A94
331
A633
  5
5ABB
331
AB27
  5
E23
331
AAAB
  5
357C
331
AA2F
  5
26B8
331
A624
  5
5AB7
331
A656
  5
59D7
331
AB4A
  5
15E0
331
AACE
  5
15F9
331
AA25
  5
26AE
331
AA52
  5
2D48
331
A6F5
  5
5A54
331
A71A
  5
5A79
331
112
  5
1F6A
331
A679
  5
59FE
331
AB65
  5
11C
331
AAE9
  5
1A49
331
AA6D
  5
31EF
331
A9F1
  5
2228
331
A613
  5
5AA6
331
A69C
  5
5A21
331
A6C1
  5
5A32
331
AB88
  5
78F
331
A609
  5
5A9C
331
A6E4
  5
5A43
331
A6B7
  5
5A2D
331
A668
  5
59E9
331
A63B
  5
5AC3
331
AB2F
  5
123A
331
AB54
  5
10B
331
AAB3
  5
38A6
331
AAD8
  5
1A38
331
AA37
  5
2D33
331
A707
  5
5A66
331
A68B
  5
5A14
331
A65E
  5
59DF
331
AB77
  5
6CD
331
AAD6
  5
1A36
331
AAFB
  5
1F5B
331
AA5A
  5
31E8
331
A6FD
  5
5A5C
331
11A
  5
217A
331
A5F8
  5
5A8B
331
A681
  5
5A0A
331
AB6D
  5
5B9
331
AAF1
  5
1F51
331
AB1E
  5
E1A
  0
LAYOUT
  5
21
102
{ACAD_XDICTIONARY
360
B68E
102
}
102
{ACAD_REACTORS
330
1E
102
}
330
1E
100
AcDbPlotSettings
  1

  2

  4

  6

 40
0.0
 41
0.0
 42
0.0
 43
0.0
 44
0.0
 45
0.0
 46
0.0
 47
0.0
 48
0.0
 49
0.0
140
0.0
141
0.0
142
1.0
143
1.0
 70
     0
 72
     0
 73
     0
 74
     0
  7

 75
     0
147
1.0
148
0.0
149
0.0
100
AcDbLayout
  1
Layout1
 70
     0
 71
     1
 10
0.0
 20
0.0
 11
12.0
 21
9.0
 12
0.0
 22
0.0
 32
0.0
 14
1.000000000000000E+20
 24
1.000000000000000E+20
 34
1.000000000000000E+20
 15
-1.000000000000000E+20
 25
-1.000000000000000E+20
 35
-1.000000000000000E+20
146
0.0
 13
0.0
 23
0.0
 33
0.0
 16
1.0
 26
0.0
 36
0.0
 17
0.0
 27
1.0
 37
0.0
 76
     0
330
B
  0
LAYOUT
  5
20
102
{ACAD_XDICTIONARY
360
B68C
102
}
102
{ACAD_REACTORS
330
1E
102
}
330
1E
100
AcDbPlotSettings
  1

  2

  4

  6

 40
0.0
 41
0.0
 42
0.0
 43
0.0
 44
0.0
 45
0.0
 46
0.0
 47
0.0
 48
0.0
 49
0.0
140
0.0
141
0.0
142
1.0
143
1.0
 70
  1024
 72
     0
 73
     0
 74
     0
  7

 75
     0
147
1.0
148
0.0
149
0.0
100
AcDbLayout
  1
Model
 70
     0
 71
     0
 10
0.0
 20
0.0
 11
0.0
 21
0.0
 12
0.0
 22
0.0
 32
0.0
 14
0.0
 24
0.0
 34
0.0
 15
0.0
 25
0.0
 35
0.0
146
0.0
 13
0.0
 23
0.0
 33
0.0
 16
0.0
 26
0.0
 36
0.0
 17
0.0
 27
0.0
 37
0.0
 76
     0
330
A
331
15
  0
MATERIAL
  5
5808
102
{ACAD_XDICTIONARY
360
5809
102
}
102
{ACAD_REACTORS
330
57FF
102
}
330
57FF
100
AcDbMaterial
  1
ByBlock
 72
     0
 43
0.0208333333333333
 43
0.0
 43
0.0
 43
0.0
 43
0.0
 43
0.0208333333333333
 43
0.0
 43
0.0
 43
0.0
 43
0.0
 43
1.0
 43
0.0
 43
0.0
 43
0.0
 43
0.0
 43
1.0
 77
     0
 47
0.0208333333333333
 47
0.0
 47
0.0
 47
0.0
 47
0.0
 47
0.0208333333333333
 47
0.0
 47
0.0
 47
0.0
 47
0.0
 47
1.0
 47
0.0
 47
0.0
 47
0.0
 47
0.0
 47
1.0
171
     0
 49
0.0208333333333333
 49
0.0
 49
0.0
 49
0.0
 49
0.0
 49
0.0208333333333333
 49
0.0
 49
0.0
 49
0.0
 49
0.0
 49
1.0
 49
0.0
 49
0.0
 49
0.0
 49
0.0
 49
1.0
175
     0
142
0.0208333333333333
142
0.0
142
0.0
142
0.0
142
0.0
142
0.0208333333333333
142
0.0
142
0.0
142
0.0
142
0.0
142
1.0
142
0.0
142
0.0
142
0.0
142
0.0
142
1.0
179
     0
144
0.0208333333333333
144
0.0
144
0.0
144
0.0
144
0.0
144
0.0208333333333333
144
0.0
144
0.0
144
0.0
144
0.0
144
1.0
144
0.0
144
0.0
144
0.0
144
0.0
144
1.0
147
0.0208333333333333
147
0.0
147
0.0
147
0.0
147
0.0
147
0.0208333333333333
147
0.0
147
0.0
147
0.0
147
0.0
147
1.0
147
0.0
147
0.0
147
0.0
147
0.0
147
1.0
  0
MATERIAL
  5
5800
102
{ACAD_XDICTIONARY
360
5801
102
}
102
{ACAD_REACTORS
330
57FF
102
}
330
57FF
100
AcDbMaterial
  1
ByLayer
 72
     0
 43
0.0208333333333333
 43
0.0
 43
0.0
 43
0.0
 43
0.0
 43
0.0208333333333333
 43
0.0
 43
0.0
 43
0.0
 43
0.0
 43
1.0
 43
0.0
 43
0.0
 43
0.0
 43
0.0
 43
1.0
 77
     0
 47
0.0208333333333333
 47
0.0
 47
0.0
 47
0.0
 47
0.0
 47
0.0208333333333333
 47
0.0
 47
0.0
 47
0.0
 47
0.0
 47
1.0
 47
0.0
 47
0.0
 47
0.0
 47
0.0
 47
1.0
171
     0
 49
0.0208333333333333
 49
0.0
 49
0.0
 49
0.0
 49
0.0
 49
0.0208333333333333
 49
0.0
 49
0.0
 49
0.0
 49
0.0
 49
1.0
 49
0.0
 49
0.0
 49
0.0
 49
0.0
 49
1.0
175
     0
142
0.0208333333333333
142
0.0
142
0.0
142
0.0
142
0.0
142
0.0208333333333333
142
0.0
142
0.0
142
0.0
142
0.0
142
1.0
142
0.0
142
0.0
142
0.0
142
0.0
142
1.0
179
     0
144
0.0208333333333333
144
0.0
144
0.0
144
0.0
144
0.0
144
0.0208333333333333
144
0.0
144
0.0
144
0.0
144
0.0
144
1.0
144
0.0
144
0.0
144
0.0
144
0.0
144
1.0
147
0.0208333333333333
147
0.0
147
0.0
147
0.0
147
0.0
147
0.0208333333333333
147
0.0
147
0.0
147
0.0
147
0.0
147
1.0
147
0.0
147
0.0
147
0.0
147
0.0
147
1.0
  0
MATERIAL
  5
5810
102
{ACAD_XDICTIONARY
360
5811
102
}
102
{ACAD_REACTORS
330
57FF
102
}
330
57FF
100
AcDbMaterial
  1
Global
 72
     0
 43
0.0208333333333333
 43
0.0
 43
0.0
 43
0.0
 43
0.0
 43
0.0208333333333333
 43
0.0
 43
0.0
 43
0.0
 43
0.0
 43
1.0
 43
0.0
 43
0.0
 43
0.0
 43
0.0
 43
1.0
 77
     0
 47
0.0208333333333333
 47
0.0
 47
0.0
 47
0.0
 47
0.0
 47
0.0208333333333333
 47
0.0
 47
0.0
 47
0.0
 47
0.0
 47
1.0
 47
0.0
 47
0.0
 47
0.0
 47
0.0
 47
1.0
171
     0
 49
0.0208333333333333
 49
0.0
 49
0.0
 49
0.0
 49
0.0
 49
0.0208333333333333
 49
0.0
 49
0.0
 49
0.0
 49
0.0
 49
1.0
 49
0.0
 49
0.0
 49
0.0
 49
0.0
 49
1.0
175
     0
142
0.0208333333333333
142
0.0
142
0.0
142
0.0
142
0.0
142
0.0208333333333333
142
0.0
142
0.0
142
0.0
142
0.0
142
1.0
142
0.0
142
0.0
142
0.0
142
0.0
142
1.0
179
     0
144
0.0208333333333333
144
0.0
144
0.0
144
0.0
144
0.0
144
0.0208333333333333
144
0.0
144
0.0
144
0.0
144
0.0
144
1.0
144
0.0
144
0.0
144
0.0
144
0.0
144
1.0
147
0.0208333333333333
147
0.0
147
0.0
147
0.0
147
0.0
147
0.0208333333333333
147
0.0
147
0.0
147
0.0
147
0.0
147
1.0
147
0.0
147
0.0
147
0.0
147
0.0
147
1.0
  0
MLEADERSTYLE
  5
584F
102
{ACAD_REACTORS
330
584E
102
}
330
584E
100
AcDbMLeaderStyle
170
     2
171
     1
172
     0
 90
        2
 40
0.0
 41
0.0
173
     1
 91
-1056964608
340
11
 92
       -2
290
     1
 42
2.0
291
     1
 43
0.36
  3
Standard
 44
4.0
300

342
17
174
     1
178
     6
175
     1
176
     0
 93
-1056964608
 45
4.0
292
     0
297
     0
 46
4.0
 94
-1056964608
 47
1.0
 49
1.0
140
1.0
293
     1
141
0.0
294
     1
177
     0
142
1.0
295
     0
296
     0
143
0.125
1001
ACAD_MLEADERVER
1070
     2
  0
MLINESTYLE
  5
1C
102
{ACAD_REACTORS
330
1B
102
}
330
1B
100
AcDbMlineStyle
  2
STANDARD
 70
     0
  3

 62
     0
 51
90.0
 52
90.0
 71
     2
 49
0.5
 62
   256
  6
BYLAYER
 49
-0.5
 62
   256
  6
BYLAYER
  0
ACDBPLACEHOLDER
  5
1D
102
{ACAD_REACTORS
330
1F
102
}
330
1F
  0
SCALE
  5
582D
102
{ACAD_REACTORS
330
582C
102
}
330
582C
100
AcDbScale
 70
     0
300
1:1
140
1.0
141
1.0
290
     1
  0
SCALE
  5
582E
102
{ACAD_REACTORS
330
582C
102
}
330
582C
100
AcDbScale
 70
     0
300
1:2
140
1.0
141
2.0
290
     0
  0
SCALE
  5
582F
102
{ACAD_REACTORS
330
582C
102
}
330
582C
100
AcDbScale
 70
     0
300
1:4
140
1.0
141
4.0
290
     0
  0
SCALE
  5
5830
102
{ACAD_REACTORS
330
582C
102
}
330
582C
100
AcDbScale
 70
     0
300
1:5
140
1.0
141
5.0
290
     0
  0
SCALE
  5
5831
102
{ACAD_REACTORS
330
582C
102
}
330
582C
100
AcDbScale
 70
     0
300
1:8
140
1.0
141
8.0
290
     0
  0
SCALE
  5
5832
102
{ACAD_REACTORS
330
582C
102
}
330
582C
100
AcDbScale
 70
     0
300
1:10
140
1.0
141
10.0
290
     0
  0
SCALE
  5
5833
102
{ACAD_REACTORS
330
582C
102
}
330
582C
100
AcDbScale
 70
     0
300
1:16
140
1.0
141
16.0
290
     0
  0
SCALE
  5
5834
102
{ACAD_REACTORS
330
582C
102
}
330
582C
100
AcDbScale
 70
     0
300
1:20
140
1.0
141
20.0
290
     0
  0
SCALE
  5
5835
102
{ACAD_REACTORS
330
582C
102
}
330
582C
100
AcDbScale
 70
     0
300
1:30
140
1.0
141
30.0
290
     0
  0
SCALE
  5
5836
102
{ACAD_REACTORS
330
582C
102
}
330
582C
100
AcDbScale
 70
     0
300
1:40
140
1.0
141
40.0
290
     0
  0
SCALE
  5
5837
102
{ACAD_REACTORS
330
582C
102
}
330
582C
100
AcDbScale
 70
     0
300
1:50
140
1.0
141
50.0
290
     0
  0
SCALE
  5
5838
102
{ACAD_REACTORS
330
582C
102
}
330
582C
100
AcDbScale
 70
     0
300
1:100
140
1.0
141
100.0
290
     0
  0
SCALE
  5
5839
102
{ACAD_REACTORS
330
582C
102
}
330
582C
100
AcDbScale
 70
     0
300
2:1
140
2.0
141
1.0
290
     0
  0
SCALE
  5
583A
102
{ACAD_REACTORS
330
582C
102
}
330
582C
100
AcDbScale
 70
     0
300
4:1
140
4.0
141
1.0
290
     0
  0
SCALE
  5
583B
102
{ACAD_REACTORS
330
582C
102
}
330
582C
100
AcDbScale
 70
     0
300
8:1
140
8.0
141
1.0
290
     0
  0
SCALE
  5
583C
102
{ACAD_REACTORS
330
582C
102
}
330
582C
100
AcDbScale
 70
     0
300
10:1
140
10.0
141
1.0
290
     0
  0
SCALE
  5
583D
102
{ACAD_REACTORS
330
582C
102
}
330
582C
100
AcDbScale
 70
     0
300
100:1
140
100.0
141
1.0
290
     0
  0
SCALE
  5
583E
102
{ACAD_REACTORS
330
582C
102
}
330
582C
100
AcDbScale
 70
     0
300
1/128" = 1'-0"
140
0.0078125
141
12.0
290
     0
  0
SCALE
  5
583F
102
{ACAD_REACTORS
330
582C
102
}
330
582C
100
AcDbScale
 70
     0
300
1/64" = 1'-0"
140
0.015625
141
12.0
290
     0
  0
SCALE
  5
5840
102
{ACAD_REACTORS
330
582C
102
}
330
582C
100
AcDbScale
 70
     0
300
1/32" = 1'-0"
140
0.03125
141
12.0
290
     0
  0
SCALE
  5
5841
102
{ACAD_REACTORS
330
582C
102
}
330
582C
100
AcDbScale
 70
     0
300
1/16" = 1'-0"
140
0.0625
141
12.0
290
     0
  0
SCALE
  5
5842
102
{ACAD_REACTORS
330
582C
102
}
330
582C
100
AcDbScale
 70
     0
300
3/32" = 1'-0"
140
0.09375
141
12.0
290
     0
  0
SCALE
  5
5843
102
{ACAD_REACTORS
330
582C
102
}
330
582C
100
AcDbScale
 70
     0
300
1/8" = 1'-0"
140
0.125
141
12.0
290
     0
  0
SCALE
  5
5844
102
{ACAD_REACTORS
330
582C
102
}
330
582C
100
AcDbScale
 70
     0
300
3/16" = 1'-0"
140
0.1875
141
12.0
290
     0
  0
SCALE
  5
5845
102
{ACAD_REACTORS
330
582C
102
}
330
582C
100
AcDbScale
 70
     0
300
1/4" = 1'-0"
140
0.25
141
12.0
290
     0
  0
SCALE
  5
5846
102
{ACAD_REACTORS
330
582C
102
}
330
582C
100
AcDbScale
 70
     0
300
3/8" = 1'-0"
140
0.375
141
12.0
290
     0
  0
SCALE
  5
5847
102
{ACAD_REACTORS
330
582C
102
}
330
582C
100
AcDbScale
 70
     0
300
1/2" = 1'-0"
140
0.5
141
12.0
290
     0
  0
SCALE
  5
5848
102
{ACAD_REACTORS
330
582C
102
}
330
582C
100
AcDbScale
 70
     0
300
3/4" = 1'-0"
140
0.75
141
12.0
290
     0
  0
SCALE
  5
5849
102
{ACAD_REACTORS
330
582C
102
}
330
582C
100
AcDbScale
 70
     0
300
1" = 1'-0"
140
1.0
141
12.0
290
     0
  0
SCALE
  5
584A
102
{ACAD_REACTORS
330
582C
102
}
330
582C
100
AcDbScale
 70
     0
300
1-1/2" = 1'-0"
140
1.5
141
12.0
290
     0
  0
SCALE
  5
584B
102
{ACAD_REACTORS
330
582C
102
}
330
582C
100
AcDbScale
 70
     0
300
3" = 1'-0"
140
3.0
141
12.0
290
     0
  0
SCALE
  5
584C
102
{ACAD_REACTORS
330
582C
102
}
330
582C
100
AcDbScale
 70
     0
300
6" = 1'-0"
140
6.0
141
12.0
290
     0
  0
SCALE
  5
584D
102
{ACAD_REACTORS
330
582C
102
}
330
582C
100
AcDbScale
 70
     0
300
1'-0" = 1'-0"
140
12.0
141
12.0
290
     0
  0
TABLESTYLE
  5
582B
102
{ACAD_XDICTIONARY
360
AB8E
102
}
102
{ACAD_REACTORS
330
582A
102
}
330
582A
100
AcDbTableStyle
  3
Standard
 70
     0
 71
     0
 40
1.5
 41
1.5
280
     0
281
     0
  7
Standard
140
4.5
170
     2
 62
     0
 63
     7
283
     0
274
    -2
284
     1
 64
     0
275
    -2
285
     1
 65
     0
276
    -2
286
     1
 66
     0
277
    -2
287
     1
 67
     0
278
    -2
288
     1
 68
     0
279
    -2
289
     1
 69
     0
  7
Standard
140
6.0
170
     5
 62
     0
 63
     7
283
     0
274
    -2
284
     1
 64
     0
275
    -2
285
     1
 65
     0
276
    -2
286
     1
 66
     0
277
    -2
287
     1
 67
     0
278
    -2
288
     1
 68
     0
279
    -2
289
     1
 69
     0
  7
Standard
140
4.5
170
     5
 62
     0
 63
     7
283
     0
274
    -2
284
     1
 64
     0
275
    -2
285
     1
 65
     0
276
    -2
286
     1
 66
     0
277
    -2
287
     1
 67
     0
278
    -2
288
     1
 68
     0
279
    -2
289
     1
 69
     0
  0
VISUALSTYLE
  5
581E
102
{ACAD_REACTORS
330
5818
102
}
330
5818
100
AcDbVisualStyle
  2
2dWireframe
 70
     4
 71
     0
 72
     2
 73
     0
 90
        0
 40
-0.6
 41
-30.0
 62
     5
 63
     7
 74
     1
 91
        4
 64
     7
 65
   257
 75
     1
175
     1
 42
1.0
 92
        0
 66
   257
 43
1.0
 76
     1
 77
     6
 78
     2
 67
     7
 79
     5
170
     0
171
     0
290
     0
174
     0
 93
        1
 44
0.0
173
     0
291
     0
 45
0.0
1001
ACAD
1000
AcDbSavedByObjectVersion
1070
     0
  0
VISUALSTYLE
  5
5820
102
{ACAD_REACTORS
330
5818
102
}
330
5818
100
AcDbVisualStyle
  2
3D Hidden
 70
     6
 71
     1
 72
     2
 73
     2
 90
        0
 40
-0.6
 41
-30.0
 62
     5
 63
     7
 74
     2
 91
        2
 64
     7
 65
   257
 75
     2
175
     1
 42
40.0
 92
        0
 66
   257
 43
1.0
 76
     1
 77
     6
 78
     2
 67
     7
 79
     3
170
     0
171
     0
290
     0
174
     0
 93
        1
 44
0.0
173
     0
291
     0
 45
0.0
1001
ACAD
1000
AcDbSavedByObjectVersion
1070
     0
  0
VISUALSTYLE
  5
581F
102
{ACAD_REACTORS
330
5818
102
}
330
5818
100
AcDbVisualStyle
  2
3dWireframe
 70
     5
 71
     0
 72
     2
 73
     0
 90
        0
 40
-0.6
 41
-30.0
 62
     5
 63
     7
 74
     1
 91
        4
 64
     7
 65
   257
 75
     1
175
     1
 42
1.0
 92
        0
 66
   257
 43
1.0
 76
     1
 77
     6
 78
     2
 67
     7
 79
     5
170
     0
171
     0
290
     0
174
     0
 93
        1
 44
0.0
173
     0
291
     0
 45
0.0
1001
ACAD
1000
AcDbSavedByObjectVersion
1070
     0
  0
VISUALSTYLE
  5
581D
102
{ACAD_REACTORS
330
5818
102
}
330
5818
100
AcDbVisualStyle
  2
Basic
 70
     7
 71
     1
 72
     0
 73
     1
 90
        0
 40
-0.6
 41
-30.0
 62
     5
 63
     7
 74
     0
 91
        4
 64
     7
 65
   257
 75
     1
175
     1
 42
1.0
 92
        8
 66
     7
 43
1.0
 76
     1
 77
     6
 78
     2
 67
     7
 79
     5
170
     0
171
     0
290
     0
174
     0
 93
        1
 44
0.0
173
     0
291
     1
 45
0.0
1001
ACAD
1000
AcDbSavedByObjectVersion
1070
     0
  0
VISUALSTYLE
  5
5824
102
{ACAD_REACTORS
330
5818
102
}
330
5818
100
AcDbVisualStyle
  2
Brighten
 70
    12
 71
     2
 72
     2
 73
     0
 90
        0
 40
-0.6
 41
-30.0
 62
     5
 63
     7
 74
     1
 91
        4
 64
     7
 65
   257
 75
     1
175
     1
 42
1.0
 92
        8
 66
     7
 43
1.0
 76
     1
 77
     6
 78
     2
 67
     7
 79
     5
170
     0
171
     0
290
     0
174
     0
 93
        1
 44
50.0
173
     0
291
     1
 45
0.0
1001
ACAD
1000
AcDbSavedByObjectVersion
1070
     0
  0
VISUALSTYLE
  5
5828
102
{ACAD_REACTORS
330
5818
102
}
330
5818
100
AcDbVisualStyle
  2
ColorChange
 70
    16
 71
     2
 72
     2
 73
     3
 90
        0
 40
-0.6
 41
-30.0
 62
     5
 63
     8
 74
     1
 91
        4
 64
     7
 65
   257
 75
     1
175
     1
 42
1.0
 92
        8
 66
     8
 43
1.0
 76
     1
 77
     6
 78
     2
 67
     7
 79
     5
170
     0
171
     0
290
     0
174
     0
 93
        1
 44
0.0
173
     0
291
     1
 45
0.0
1001
ACAD
1000
AcDbSavedByObjectVersion
1070
     0
  0
VISUALSTYLE
  5
5821
102
{ACAD_REACTORS
330
5818
102
}
330
5818
100
AcDbVisualStyle
  2
Conceptual
 70
     9
 71
     3
 72
     2
 73
     0
 90
        0
 40
-0.6
 41
-30.0
 62
     5
 63
     7
 74
     2
 91
        2
 64
     7
 65
   257
 75
     1
175
     1
 42
40.0
 92
        8
 66
     7
 43
1.0
 76
     1
 77
     6
 78
     2
 67
     7
 79
     3
170
     0
171
     0
290
     0
174
     0
 93
        1
 44
0.0
173
     0
291
     0
 45
0.0
1001
ACAD
1000
AcDbSavedByObjectVersion
1070
     0
  0
VISUALSTYLE
  5
5823
102
{ACAD_REACTORS
330
5818
102
}
330
5818
100
AcDbVisualStyle
  2
Dim
 70
    11
 71
     2
 72
     2
 73
     0
 90
        0
 40
-0.6
 41
-30.0
 62
     5
 63
     7
 74
     1
 91
        4
 64
     7
 65
   257
 75
     1
175
     1
 42
1.0
 92
        8
 66
     7
 43
1.0
 76
     1
 77
     6
 78
     2
 67
     7
 79
     5
170
     0
171
     0
290
     0
174
     0
 93
        1
 44
-50.0
173
     0
291
     1
 45
0.0
1001
ACAD
1000
AcDbSavedByObjectVersion
1070
     0
  0
VISUALSTYLE
  5
5827
102
{ACAD_REACTORS
330
5818
102
}
330
5818
100
AcDbVisualStyle
  2
Facepattern
 70
    15
 71
     2
 72
     2
 73
     0
 90
        0
 40
-0.6
 41
-30.0
 62
     5
 63
     7
 74
     1
 91
        4
 64
     7
 65
   257
 75
     1
175
     1
 42
1.0
 92
        8
 66
     7
 43
1.0
 76
     1
 77
     6
 78
     2
 67
     7
 79
     5
170
     0
171
     0
290
     0
174
     0
 93
        1
 44
0.0
173
     0
291
     1
 45
0.0
1001
ACAD
1000
AcDbSavedByObjectVersion
1070
     0
  0
VISUALSTYLE
  5
5819
102
{ACAD_REACTORS
330
5818
102
}
330
5818
100
AcDbVisualStyle
  2
Flat
 70
     0
 71
     2
 72
     1
 73
     1
 90
        2
 40
-0.6
 41
30.0
 62
     5
 63
     7
 74
     0
 91
        4
 64
     7
 65
   257
 75
     1
175
     1
 42
1.0
 92
        8
 66
     7
 43
1.0
 76
     1
 77
     6
 78
     2
 67
     7
 79
     5
170
     0
171
     0
290
     0
174
     0
 93
       13
 44
0.0
173
     0
291
     1
 45
0.0
1001
ACAD
1000
AcDbSavedByObjectVersion
1070
     0
  0
VISUALSTYLE
  5
581A
102
{ACAD_REACTORS
330
5818
102
}
330
5818
100
AcDbVisualStyle
  2
FlatWithEdges
 70
     1
 71
     2
 72
     1
 73
     1
 90
        2
 40
-0.6
 41
30.0
 62
     5
 63
     7
 74
     1
 91
        4
 64
     7
 65
   257
 75
     1
175
     1
 42
1.0
 92
        0
 66
   257
 43
1.0
 76
     1
 77
     6
 78
     2
 67
     7
 79
     5
170
     0
171
     0
290
     0
174
     0
 93
       13
 44
0.0
173
     0
291
     1
 45
0.0
1001
ACAD
1000
AcDbSavedByObjectVersion
1070
     0
  0
VISUALSTYLE
  5
581B
102
{ACAD_REACTORS
330
5818
102
}
330
5818
100
AcDbVisualStyle
  2
Gouraud
 70
     2
 71
     2
 72
     2
 73
     1
 90
        2
 40
-0.6
 41
30.0
 62
     5
 63
     7
 74
     0
 91
        4
 64
     7
 65
   257
 75
     1
175
     1
 42
1.0
 92
        0
 66
     7
 43
1.0
 76
     1
 77
     6
 78
     2
 67
     7
 79
     5
170
     0
171
     0
290
     0
174
     0
 93
       13
 44
0.0
173
     0
291
     1
 45
0.0
1001
ACAD
1000
AcDbSavedByObjectVersion
1070
     0
  0
VISUALSTYLE
  5
581C
102
{ACAD_REACTORS
330
5818
102
}
330
5818
100
AcDbVisualStyle
  2
GouraudWithEdges
 70
     3
 71
     2
 72
     2
 73
     1
 90
        2
 40
-0.6
 41
30.0
 62
     5
 63
     7
 74
     1
 91
        4
 64
     7
 65
   257
 75
     1
175
     1
 42
1.0
 92
        0
 66
   257
 43
1.0
 76
     1
 77
     6
 78
     2
 67
     7
 79
     5
170
     0
171
     0
290
     0
174
     0
 93
       13
 44
0.0
173
     0
291
     1
 45
0.0
1001
ACAD
1000
AcDbSavedByObjectVersion
1070
     0
  0
VISUALSTYLE
  5
5826
102
{ACAD_REACTORS
330
5818
102
}
330
5818
100
AcDbVisualStyle
  2
Linepattern
 70
    14
 71
     2
 72
     2
 73
     0
 90
        0
 40
-0.6
 41
-30.0
 62
     5
 63
     7
 74
     1
 91
        4
 64
     7
 65
   257
 75
     7
175
     7
 42
1.0
 92
        8
 66
     7
 43
1.0
 76
     1
 77
     6
 78
     2
 67
     7
 79
     5
170
     0
171
     0
290
     0
174
     0
 93
        1
 44
0.0
173
     0
291
     1
 45
0.0
1001
ACAD
1000
AcDbSavedByObjectVersion
1070
     0
  0
VISUALSTYLE
  5
5822
102
{ACAD_REACTORS
330
5818
102
}
330
5818
100
AcDbVisualStyle
  2
Realistic
 70
     8
 71
     2
 72
     2
 73
     0
 90
        0
 40
-0.6
 41
-30.0
 62
     5
 63
     7
 74
     1
 91
        0
 64
     7
 65
   257
 75
     1
175
     1
 42
1.0
 92
        8
 66
     8
 43
1.0
 76
     1
 77
     6
 78
     2
 67
     7
 79
     5
170
     0
171
     0
290
     0
174
     0
 93
       13
 44
0.0
173
     0
291
     0
 45
0.0
1001
ACAD
1000
AcDbSavedByObjectVersion
1070
     0
  0
VISUALSTYLE
  5
5825
102
{ACAD_REACTORS
330
5818
102
}
330
5818
100
AcDbVisualStyle
  2
Thicken
 70
    13
 71
     2
 72
     2
 73
     0
 90
        0
 40
-0.6
 41
-30.0
 62
     5
 63
     7
 74
     1
 91
        4
 64
     7
 65
   257
 75
     1
175
     1
 42
1.0
 92
       12
 66
     7
 43
1.0
 76
     1
 77
     6
 78
     2
 67
     7
 79
     5
170
     0
171
     0
290
     0
174
     0
 93
        1
 44
0.0
173
     0
291
     1
 45
0.0
1001
ACAD
1000
AcDbSavedByObjectVersion
1070
     0
  0
DICTIONARYVAR
  5
AB95
102
{ACAD_REACTORS
330
AB91
102
}
330
AB91
100
DictionaryVariables
280
     0
  1
1:1
  0
DICTIONARYVAR
  5
AB93
102
{ACAD_REACTORS
330
AB91
102
}
330
AB91
100
DictionaryVariables
280
     0
  1
STANDARD
  0
DICTIONARYVAR
  5
AB92
102
{ACAD_REACTORS
330
AB91
102
}
330
AB91
100
DictionaryVariables
280
     0
  1
STANDARD
  0
DICTIONARYVAR
  5
B67E
102
{ACAD_REACTORS
330
AB91
102
}
330
AB91
100
DictionaryVariables
280
     0
  1
1
  0
DICTIONARYVAR
  5
B67D
102
{ACAD_REACTORS
330
AB91
102
}
330
AB91
100
DictionaryVariables
280
     0
  1
0
  0
DICTIONARYVAR
  5
AB96
102
{ACAD_REACTORS
330
AB91
102
}
330
AB91
100
DictionaryVariables
280
     0
  1
0
  0
DICTIONARYVAR
  5
AB94
102
{ACAD_REACTORS
330
AB91
102
}
330
AB91
100
DictionaryVariables
280
     0
  1
0
  0
DICTIONARYVAR
  5
B67C
102
{ACAD_REACTORS
330
AB91
102
}
330
AB91
100
DictionaryVariables
280
     0
  1
127
  0
XRECORD
  5
ABA7
102
{ACAD_REACTORS
330
ABA6
102
}
330
ABA6
100
AcDbXrecord
280
     1
  0
DICTIONARY
  5
B68E
330
21
100
AcDbDictionary
280
     1
281
     1
  3
ACAD_XREC_ROUNDTRIP
360
B68F
  0
DICTIONARY
  5
B68C
330
20
100
AcDbDictionary
280
     1
281
     1
  3
ACAD_XREC_ROUNDTRIP
360
B68D
  0
DICTIONARY
  5
5809
330
5808
100
AcDbDictionary
280
     1
281
     1
  3
ACAD_XREC_ROUNDTRIP
360
B691
  3
BUMPTILE
360
580B
  3
DIFFUSETILE
360
580A
  3
OPACITYTILE
360
580E
  3
REFLECTIONTILE
360
580D
  3
REFRACTIONTILE
360
580F
  3
SPECULARTILE
360
580C
  0
DICTIONARY
  5
5801
330
5800
100
AcDbDictionary
280
     1
281
     1
  3
ACAD_XREC_ROUNDTRIP
360
B690
  3
BUMPTILE
360
5803
  3
DIFFUSETILE
360
5802
  3
OPACITYTILE
360
5806
  3
REFLECTIONTILE
360
5805
  3
REFRACTIONTILE
360
5807
  3
SPECULARTILE
360
5804
  0
DICTIONARY
  5
5811
330
5810
100
AcDbDictionary
280
     1
281
     1
  3
ACAD_XREC_ROUNDTRIP
360
B692
  3
BUMPTILE
360
5813
  3
DIFFUSETILE
360
5812
  3
OPACITYTILE
360
5816
  3
REFLECTIONTILE
360
5815
  3
REFRACTIONTILE
360
5817
  3
SPECULARTILE
360
5814
  0
DICTIONARY
  5
AB8E
330
582B
100
AcDbDictionary
280
     1
281
     1
  3
ACAD_ROUNDTRIP_2008_TABLESTYLE_CELLSTYLEMAP
360
B68A
  3
ACAD_XREC_ROUNDTRIP
360
B693
  0
XRECORD
  5
B68F
102
{ACAD_REACTORS
330
B68E
102
}
330
B68E
100
AcDbXrecord
280
     1
102
SHADEPLOT
 70
     0
102
SHADEPLOTRESLEVEL
 70
     2
102
SHADEPLOTCUSTOMDPI
 70
   300
  0
XRECORD
  5
B68D
102
{ACAD_REACTORS
330
B68C
102
}
330
B68C
100
AcDbXrecord
280
     1
102
SHADEPLOT
 70
     0
102
SHADEPLOTRESLEVEL
 70
     2
102
SHADEPLOTCUSTOMDPI
 70
   300
  0
XRECORD
  5
B691
102
{ACAD_REACTORS
330
5809
102
}
330
5809
100
AcDbXrecord
280
     1
102
MATERIAL
148
0.0
149
0.0
149
0.0
 93
        0
 94
      127
282
     0
 72
     0
 77
     0
171
     0
175
     0
179
     0
273
     0
  0
XRECORD
  5
580B
102
{ACAD_REACTORS
330
5809
102
}
330
5809
100
AcDbXrecord
280
     1
270
     1
271
     1
  0
XRECORD
  5
580A
102
{ACAD_REACTORS
330
5809
102
}
330
5809
100
AcDbXrecord
280
     1
270
     1
271
     1
  0
XRECORD
  5
580E
102
{ACAD_REACTORS
330
5809
102
}
330
5809
100
AcDbXrecord
280
     1
270
     1
271
     1
  0
XRECORD
  5
580D
102
{ACAD_REACTORS
330
5809
102
}
330
5809
100
AcDbXrecord
280
     1
270
     1
271
     1
  0
XRECORD
  5
580F
102
{ACAD_REACTORS
330
5809
102
}
330
5809
100
AcDbXrecord
280
     1
270
     1
271
     1
  0
XRECORD
  5
580C
102
{ACAD_REACTORS
330
5809
102
}
330
5809
100
AcDbXrecord
280
     1
270
     1
271
     1
  0
XRECORD
  5
B690
102
{ACAD_REACTORS
330
5801
102
}
330
5801
100
AcDbXrecord
280
     1
102
MATERIAL
148
0.0
149
0.0
149
0.0
 93
        0
 94
      127
282
     0
 72
     0
 77
     0
171
     0
175
     0
179
     0
273
     0
  0
XRECORD
  5
5803
102
{ACAD_REACTORS
330
5801
102
}
330
5801
100
AcDbXrecord
280
     1
270
     1
271
     1
  0
XRECORD
  5
5802
102
{ACAD_REACTORS
330
5801
102
}
330
5801
100
AcDbXrecord
280
     1
270
     1
271
     1
  0
XRECORD
  5
5806
102
{ACAD_REACTORS
330
5801
102
}
330
5801
100
AcDbXrecord
280
     1
270
     1
271
     1
  0
XRECORD
  5
5805
102
{ACAD_REACTORS
330
5801
102
}
330
5801
100
AcDbXrecord
280
     1
270
     1
271
     1
  0
XRECORD
  5
5807
102
{ACAD_REACTORS
330
5801
102
}
330
5801
100
AcDbXrecord
280
     1
270
     1
271
     1
  0
XRECORD
  5
5804
102
{ACAD_REACTORS
330
5801
102
}
330
5801
100
AcDbXrecord
280
     1
270
     1
271
     1
  0
XRECORD
  5
B692
102
{ACAD_REACTORS
330
5811
102
}
330
5811
100
AcDbXrecord
280
     1
102
MATERIAL
148
0.0
149
0.0
149
0.0
 93
        0
 94
      127
282
     0
 72
     0
 77
     0
171
     0
175
     0
179
     0
273
     0
  0
XRECORD
  5
5813
102
{ACAD_REACTORS
330
5811
102
}
330
5811
100
AcDbXrecord
280
     1
270
     1
271
     1
  0
XRECORD
  5
5812
102
{ACAD_REACTORS
330
5811
102
}
330
5811
100
AcDbXrecord
280
     1
270
     1
271
     1
  0
XRECORD
  5
5816
102
{ACAD_REACTORS
330
5811
102
}
330
5811
100
AcDbXrecord
280
     1
270
     1
271
     1
  0
XRECORD
  5
5815
102
{ACAD_REACTORS
330
5811
102
}
330
5811
100
AcDbXrecord
280
     1
270
     1
271
     1
  0
XRECORD
  5
5817
102
{ACAD_REACTORS
330
5811
102
}
330
5811
100
AcDbXrecord
280
     1
270
     1
271
     1
  0
XRECORD
  5
5814
102
{ACAD_REACTORS
330
5811
102
}
330
5811
100
AcDbXrecord
280
     1
270
     1
271
     1
  0
CELLSTYLEMAP
  5
B68A
102
{ACAD_REACTORS
330
AB8E
102
}
330
AB8E
100
AcDbCellStyleMap
 90
        3
300
CELLSTYLE
  1
TABLEFORMAT_BEGIN
 90
        5
170
     1
 91
        0
 92
    32768
 62
   257
 93
        1
300
CONTENTFORMAT
  1
CONTENTFORMAT_BEGIN
 90
        0
 91
        0
 92
      512
 93
        0
300

 40
0.0
140
1.0
 94
        5
 62
     0
340
17
144
6.0
309
CONTENTFORMAT_END
171
     1
301
MARGIN
  1
CELLMARGIN_BEGIN
 40
1.5
 40
1.5
 40
1.5
 40
1.5
 40
4.5
 40
4.5
309
CELLMARGIN_END
 94
        6
 95
        1
302
GRIDFORMAT
  1
GRIDFORMAT_BEGIN
 90
        0
 91
        1
 62
     0
 92
       -2
340
0
 93
        0
 40
1.125
309
GRIDFORMAT_END
 95
        2
302
GRIDFORMAT
  1
GRIDFORMAT_BEGIN
 90
        0
 91
        1
 62
     0
 92
       -2
340
0
 93
        0
 40
1.125
309
GRIDFORMAT_END
 95
        4
302
GRIDFORMAT
  1
GRIDFORMAT_BEGIN
 90
        0
 91
        1
 62
     0
 92
       -2
340
0
 93
        0
 40
1.125
309
GRIDFORMAT_END
 95
        8
302
GRIDFORMAT
  1
GRIDFORMAT_BEGIN
 90
        0
 91
        1
 62
     0
 92
       -2
340
0
 93
        0
 40
1.125
309
GRIDFORMAT_END
 95
       16
302
GRIDFORMAT
  1
GRIDFORMAT_BEGIN
 90
        0
 91
        1
 62
     0
 92
       -2
340
0
 93
        0
 40
1.125
309
GRIDFORMAT_END
 95
       32
302
GRIDFORMAT
  1
GRIDFORMAT_BEGIN
 90
        0
 91
        1
 62
     0
 92
       -2
340
0
 93
        0
 40
1.125
309
GRIDFORMAT_END
309
TABLEFORMAT_END
  1
CELLSTYLE_BEGIN
 90
        1
 91
        1
300
_TITLE
309
CELLSTYLE_END
300
CELLSTYLE
  1
TABLEFORMAT_BEGIN
 90
        5
170
     1
 91
        0
 92
        0
 62
   257
 93
        1
300
CONTENTFORMAT
  1
CONTENTFORMAT_BEGIN
 90
        0
 91
        0
 92
      512
 93
        0
300

 40
0.0
140
1.0
 94
        5
 62
     0
340
17
144
4.5
309
CONTENTFORMAT_END
171
     1
301
MARGIN
  1
CELLMARGIN_BEGIN
 40
1.5
 40
1.5
 40
1.5
 40
1.5
 40
4.5
 40
4.5
309
CELLMARGIN_END
 94
        6
 95
        1
302
GRIDFORMAT
  1
GRIDFORMAT_BEGIN
 90
        0
 91
        1
 62
     0
 92
       -2
340
0
 93
        0
 40
1.125
309
GRIDFORMAT_END
 95
        2
302
GRIDFORMAT
  1
GRIDFORMAT_BEGIN
 90
        0
 91
        1
 62
     0
 92
       -2
340
0
 93
        0
 40
1.125
309
GRIDFORMAT_END
 95
        4
302
GRIDFORMAT
  1
GRIDFORMAT_BEGIN
 90
        0
 91
        1
 62
     0
 92
       -2
340
0
 93
        0
 40
1.125
309
GRIDFORMAT_END
 95
        8
302
GRIDFORMAT
  1
GRIDFORMAT_BEGIN
 90
        0
 91
        1
 62
     0
 92
       -2
340
0
 93
        0
 40
1.125
309
GRIDFORMAT_END
 95
       16
302
GRIDFORMAT
  1
GRIDFORMAT_BEGIN
 90
        0
 91
        1
 62
     0
 92
       -2
340
0
 93
        0
 40
1.125
309
GRIDFORMAT_END
 95
       32
302
GRIDFORMAT
  1
GRIDFORMAT_BEGIN
 90
        0
 91
        1
 62
     0
 92
       -2
340
0
 93
        0
 40
1.125
309
GRIDFORMAT_END
309
TABLEFORMAT_END
  1
CELLSTYLE_BEGIN
 90
        2
 91
        1
300
_HEADER
309
CELLSTYLE_END
300
CELLSTYLE
  1
TABLEFORMAT_BEGIN
 90
        5
170
     1
 91
        0
 92
        0
 62
   257
 93
        1
300
CONTENTFORMAT
  1
CONTENTFORMAT_BEGIN
 90
        0
 91
        0
 92
      512
 93
        0
300

 40
0.0
140
1.0
 94
        2
 62
     0
340
17
144
4.5
309
CONTENTFORMAT_END
171
     1
301
MARGIN
  1
CELLMARGIN_BEGIN
 40
1.5
 40
1.5
 40
1.5
 40
1.5
 40
4.5
 40
4.5
309
CELLMARGIN_END
 94
        6
 95
        1
302
GRIDFORMAT
  1
GRIDFORMAT_BEGIN
 90
        0
 91
        1
 62
     0
 92
       -2
340
0
 93
        0
 40
1.125
309
GRIDFORMAT_END
 95
        2
302
GRIDFORMAT
  1
GRIDFORMAT_BEGIN
 90
        0
 91
        1
 62
     0
 92
       -2
340
0
 93
        0
 40
1.125
309
GRIDFORMAT_END
 95
        4
302
GRIDFORMAT
  1
GRIDFORMAT_BEGIN
 90
        0
 91
        1
 62
     0
 92
       -2
340
0
 93
        0
 40
1.125
309
GRIDFORMAT_END
 95
        8
302
GRIDFORMAT
  1
GRIDFORMAT_BEGIN
 90
        0
 91
        1
 62
     0
 92
       -2
340
0
 93
        0
 40
1.125
309
GRIDFORMAT_END
 95
       16
302
GRIDFORMAT
  1
GRIDFORMAT_BEGIN
 90
        0
 91
        1
 62
     0
 92
       -2
340
0
 93
        0
 40
1.125
309
GRIDFORMAT_END
 95
       32
302
GRIDFORMAT
  1
GRIDFORMAT_BEGIN
 90
        0
 91
        1
 62
     0
 92
       -2
340
0
 93
        0
 40
1.125
309
GRIDFORMAT_END
309
TABLEFORMAT_END
  1
CELLSTYLE_BEGIN
 90
        3
 91
        2
300
_DATA
309
CELLSTYLE_END
  0
XRECORD
  5
B693
102
{ACAD_REACTORS
330
AB8E
102
}
330
AB8E
100
AcDbXrecord
280
     1
102
ACAD_ROUNDTRIP_PRE2007_TABLESTYLE
 90
      512
 91
        0
  1

 92
      512
 93
        0
  2

 94
      512
 95
        0
  3

  0
ENDSEC
  0
EOF
