  0
SECTION
  2
HEADER
  9
$ACADVER
  1
AC1015
  9
$ACADMAINTVER
 70
     6
  9
$DWGCODEPAGE
  3
ANSI_1252
  9
$INSBASE
 10
0.0
 20
0.0
 30
0.0
  9
$EXTMIN
 10
-769.5733352608298
 20
-343.0523846700626
 30
0.0
  9
$EXTMAX
 10
-300.5534513496661
 20
152.0108815329446
 30
0.0
  9
$LIMMIN
 10
-656.35
 20
-384.35
  9
$LIMMAX
 10
2061.85
 20
268.85
  9
$ORTHOMODE
 70
     0
  9
$REGENMODE
 70
     1
  9
$FILLMODE
 70
     1
  9
$QTEXTMODE
 70
     0
  9
$MIRRTEXT
 70
     1
  9
$LTSCALE
 40
10.0
  9
$ATTMODE
 70
     1
  9
$TEXTSIZE
 40
0.0
  9
$TRACEWID
 40
0.05
  9
$TEXTSTYLE
  7
Standard
  9
$CLAYER
  8
0
  9
$CELTYPE
  6
Continuous
  9
$CECOLOR
 62
   256
  9
$CELTSCALE
 40
1.0
  9
$DISPSILH
 70
     0
  9
$DIMSCALE
 40
1.0
  9
$DIMASZ
 40
1.25
  9
$DIMEXO
 40
0.0
  9
$DIMDLI
 40
0.38
  9
$DIMRND
 40
0.0
  9
$DIMDLE
 40
0.0
  9
$DIMEXE
 40
0.75
  9
$DIMTP
 40
0.0
  9
$DIMTM
 40
0.0
  9
$DIMTXT
 40
2.5
  9
$DIMCEN
 40
0.09
  9
$DIMTSZ
 40
0.0
  9
$DIMTOL
 70
     0
  9
$DIMLIM
 70
     0
  9
$DIMTIH
 70
     0
  9
$DIMTOH
 70
     0
  9
$DIMSE1
 70
     0
  9
$DIMSE2
 70
     0
  9
$DIMTAD
 70
     1
  9
$DIMZIN
 70
     0
  9
$DIMBLK
  1

  9
$DIMASO
 70
     1
  9
$DIMSHO
 70
     1
  9
$DIMPOST
  1

  9
$DIMAPOST
  1

  9
$DIMALT
 70
     0
  9
$DIMALTD
 70
     2
  9
$DIMALTF
 40
25.4
  9
$DIMLFAC
 40
1.0
  9
$DIMTOFL
 70
     0
  9
$DIMTVP
 40
0.0
  9
$DIMTIX
 70
     0
  9
$DIMSOXD
 70
     0
  9
$DIMSAH
 70
     0
  9
$DIMBLK1
  1

  9
$DIMBLK2
  1

  9
$DIMSTYLE
  2
Standard
  9
$DIMCLRD
 70
     7
  9
$DIMCLRE
 70
     7
  9
$DIMCLRT
 70
     7
  9
$DIMTFAC
 40
0.8
  9
$DIMGAP
 40
1.25
  9
$DIMJUST
 70
     0
  9
$DIMSD1
 70
     0
  9
$DIMSD2
 70
     0
  9
$DIMTOLJ
 70
     1
  9
$DIMTZIN
 70
     0
  9
$DIMALTZ
 70
     0
  9
$DIMALTTZ
 70
     0
  9
$DIMUPT
 70
     0
  9
$DIMDEC
 70
     2
  9
$DIMTDEC
 70
     4
  9
$DIMALTU
 70
     2
  9
$DIMALTTD
 70
     2
  9
$DIMTXSTY
  7
Standard
  9
$DIMAUNIT
 70
     0
  9
$DIMADEC
 70
     0
  9
$DIMALTRND
 40
0.0
  9
$DIMAZIN
 70
     0
  9
$DIMDSEP
 70
     0
  9
$DIMATFIT
 70
     3
  9
$DIMFRAC
 70
     0
  9
$DIMLDRBLK
  1

  9
$DIMLUNIT
 70
     2
  9
$DIMLWD
 70
     0
  9
$DIMLWE
 70
     0
  9
$DIMTMOVE
 70
     0
  9
$LUNITS
 70
     2
  9
$LUPREC
 70
     4
  9
$SKETCHINC
 40
0.1
  9
$FILLETRAD
 40
9.0
  9
$AUNITS
 70
     0
  9
$AUPREC
 70
     0
  9
$MENU
  1
acad
  9
$ELEVATION
 40
0.0
  9
$PELEVATION
 40
0.0
  9
$THICKNESS
 40
0.0
  9
$LIMCHECK
 70
     0
  9
$CHAMFERA
 40
0.0
  9
$CHAMFERB
 40
0.0
  9
$CHAMFERC
 40
0.0
  9
$CHAMFERD
 40
0.0
  9
$SKPOLY
 70
     0
  9
$TDCREATE
 40
2455323.528193981
  9
$TDUCREATE
 40
2455323.486527315
  9
$TDUPDATE
 40
2457417.427360232
  9
$TDUUPDATE
 40
2457417.385693565
  9
$TDINDWG
 40
0.1267178125
  9
$TDUSRTIMER
 40
2457417.385464363
  9
$USRTIMER
 70
     1
  9
$ANGBASE
 50
0.0
  9
$ANGDIR
 70
     0
  9
$PDMODE
 70
     0
  9
$PDSIZE
 40
0.0
  9
$PLINEWID
 40
0.0
  9
$SPLFRAME
 70
     0
  9
$SPLINETYPE
 70
     6
  9
$SPLINESEGS
 70
     8
  9
$HANDSEED
  5
539E
  9
$SURFTAB1
 70
     6
  9
$SURFTAB2
 70
     6
  9
$SURFTYPE
 70
     6
  9
$SURFU
 70
     6
  9
$SURFV
 70
     6
  9
$UCSBASE
  2

  9
$UCSNAME
  2

  9
$UCSORG
 10
0.0
 20
0.0
 30
0.0
  9
$UCSXDIR
 10
1.0
 20
0.0
 30
0.0
  9
$UCSYDIR
 10
0.0
 20
1.0
 30
0.0
  9
$UCSORTHOREF
  2

  9
$UCSORTHOVIEW
 70
     0
  9
$UCSORGTOP
 10
0.0
 20
0.0
 30
0.0
  9
$UCSORGBOTTOM
 10
0.0
 20
0.0
 30
0.0
  9
$UCSORGLEFT
 10
0.0
 20
0.0
 30
0.0
  9
$UCSORGRIGHT
 10
0.0
 20
0.0
 30
0.0
  9
$UCSORGFRONT
 10
0.0
 20
0.0
 30
0.0
  9
$UCSORGBACK
 10
0.0
 20
0.0
 30
0.0
  9
$PUCSBASE
  2

  9
$PUCSNAME
  2

  9
$PUCSORG
 10
0.0
 20
0.0
 30
0.0
  9
$PUCSXDIR
 10
1.0
 20
0.0
 30
0.0
  9
$PUCSYDIR
 10
0.0
 20
1.0
 30
0.0
  9
$PUCSORTHOREF
  2

  9
$PUCSORTHOVIEW
 70
     0
  9
$PUCSORGTOP
 10
0.0
 20
0.0
 30
0.0
  9
$PUCSORGBOTTOM
 10
0.0
 20
0.0
 30
0.0
  9
$PUCSORGLEFT
 10
0.0
 20
0.0
 30
0.0
  9
$PUCSORGRIGHT
 10
0.0
 20
0.0
 30
0.0
  9
$PUCSORGFRONT
 10
0.0
 20
0.0
 30
0.0
  9
$PUCSORGBACK
 10
0.0
 20
0.0
 30
0.0
  9
$USERI1
 70
     0
  9
$USERI2
 70
     0
  9
$USERI3
 70
     0
  9
$USERI4
 70
     0
  9
$USERI5
 70
     0
  9
$USERR1
 40
0.0
  9
$USERR2
 40
0.0
  9
$USERR3
 40
0.0
  9
$USERR4
 40
0.0
  9
$USERR5
 40
0.0
  9
$WORLDVIEW
 70
     1
  9
$SHADEDGE
 70
     3
  9
$SHADEDIF
 70
    70
  9
$TILEMODE
 70
     1
  9
$MAXACTVP
 70
    16
  9
$PINSBASE
 10
0.0
 20
0.0
 30
0.0
  9
$PLIMCHECK
 70
     0
  9
$PEXTMIN
 10
1.000000000000000E+20
 20
1.000000000000000E+20
 30
1.000000000000000E+20
  9
$PEXTMAX
 10
-1.000000000000000E+20
 20
-1.000000000000000E+20
 30
-1.000000000000000E+20
  9
$PLIMMIN
 10
0.0
 20
0.0
  9
$PLIMMAX
 10
0.0
 20
0.0
  9
$UNITMODE
 70
     0
  9
$VISRETAIN
 70
     0
  9
$PLINEGEN
 70
     1
  9
$PSLTSCALE
 70
     0
  9
$TREEDEPTH
 70
  3020
  9
$CMLSTYLE
  2
Standard
  9
$CMLJUST
 70
     0
  9
$CMLSCALE
 40
1.0
  9
$PROXYGRAPHICS
 70
     0
  9
$MEASUREMENT
 70
     1
  9
$CELWEIGHT
370
     0
  9
$ENDCAPS
280
     0
  9
$JOINSTYLE
280
     0
  9
$LWDISPLAY
290
     0
  9
$INSUNITS
 70
     0
  9
$HYPERLINKBASE
  1

  9
$STYLESHEET
  1

  9
$XEDIT
290
     1
  9
$CEPSNTYPE
380
     0
  9
$PSTYLEMODE
290
     1
  9
$FINGERPRINTGUID
  2

  9
$VERSIONGUID
  2
{3C41C1E8-8B13-4549-929C-8EC12EB5B225}
  9
$EXTNAMES
290
     1
  9
$PSVPSCALE
 40
0.0
  9
$OLESTARTUP
290
     0
  0
ENDSEC
  0
SECTION
  2
CLASSES
  0
CLASS
  1
IMAGE
  2
AcDbRasterImage
  3
ISM
 90
      127
280
     0
281
     1
  0
CLASS
  1
DICTIONARYVAR
  2
AcDbDictionaryVar
  3
ObjectDBX Classes
 90
        0
280
     0
281
     0
  0
CLASS
  1
RASTERVARIABLES
  2
AcDbRasterVariables
  3
ISM
 90
        0
280
     0
281
     0
  0
CLASS
  1
IMAGEDEF
  2
AcDbRasterImageDef
  3
ISM
 90
        0
280
     0
281
     0
  0
CLASS
  1
IMAGEDEF_REACTOR
  2
AcDbRasterImageDefReactor
  3
ISM
 90
        1
280
     0
281
     0
  0
CLASS
  1
IDBUFFER
  2
AcDbIdBuffer
  3
ObjectDBX Classes
 90
        0
280
     0
281
     0
  0
CLASS
  1
SPATIAL_FILTER
  2
AcDbSpatialFilter
  3
ObjectDBX Classes
 90
        0
280
     0
281
     0
  0
CLASS
  1
SORTENTSTABLE
  2
AcDbSortentsTable
  3
ObjectDBX Classes
 90
        0
280
     0
281
     0
  0
CLASS
  1
LAYER_INDEX
  2
AcDbLayerIndex
  3
ObjectDBX Classes
 90
        0
280
     0
281
     0
  0
CLASS
  1
SPATIAL_INDEX
  2
AcDbSpatialIndex
  3
AutoCAD 2000
 90
        0
280
     0
281
     0
  0
CLASS
  1
OBJECT_PTR
  2
CAseDLPNTableRecord
  3
ASE-LPNTableRecord
 90
        1
280
     0
281
     0
  0
CLASS
  1
LAYOUT
  2
AcDbLayout
  3
ObjectDBX Classes
 90
        0
280
     0
281
     0
  0
CLASS
  1
PLOTSETTINGS
  2
AcDbPlotSettings
  3
ObjectDBX Classes
 90
        0
280
     0
281
     0
  0
CLASS
  1
ACDBDICTIONARYWDFLT
  2
AcDbDictionaryWithDefault
  3
ObjectDBX Classes
 90
        0
280
     0
281
     0
  0
CLASS
  1
ACDBPLACEHOLDER
  2
AcDbPlaceHolder
  3
ObjectDBX Classes
 90
        0
280
     0
281
     0
  0
CLASS
  1
VBA_PROJECT
  2
AcDbVbaProject
  3
ObjectDBX Classes
 90
        0
280
     0
281
     0
  0
CLASS
  1
WIPEOUT
  2
AcDbWipeout
  3
WipeOut|AutoCAD Express Tool|expresstools@autodesk.com
 90
      127
280
     0
281
     1
  0
CLASS
  1
WIPEOUTVARIABLES
  2
AcDbWipeoutVariables
  3
WipeOut|AutoCAD Express Tool|expresstools@autodesk.com
 90
        0
280
     0
281
     0
  0
CLASS
  1
RTEXT
  2
RText
  3
RText|AutoCAD Express Tool|expresstools@autodesk.com
 90
        0
280
     0
281
     1
  0
CLASS
  1
ARCALIGNEDTEXT
  2
AcDbArcAlignedText
  3
ATEXT|AutoCAD Express Tool|expresstools@autodesk.com
 90
        0
280
     0
281
     1
  0
CLASS
  1
MATERIAL
  2
AcDbMaterial
  3
ObjectDBX Classes
 90
     1153
280
     0
281
     0
  0
CLASS
  1
VISUALSTYLE
  2
AcDbVisualStyle
  3
ObjectDBX Classes
 90
     4095
280
     0
281
     0
  0
CLASS
  1
TABLESTYLE
  2
AcDbTableStyle
  3
ObjectDBX Classes
 90
     4095
280
     0
281
     0
  0
CLASS
  1
SCALE
  2
AcDbScale
  3
ObjectDBX Classes
 90
     1153
280
     0
281
     0
  0
CLASS
  1
MLEADERSTYLE
  2
AcDbMLeaderStyle
  3
ACDB_MLEADERSTYLE_CLASS
 90
     4095
280
     0
281
     0
  0
CLASS
  1
CELLSTYLEMAP
  2
AcDbCellStyleMap
  3
ObjectDBX Classes
 90
     1152
280
     0
281
     0
  0
CLASS
  1
SUN
  2
AcDbSun
  3
SCENEOE
 90
     1153
280
     0
281
     0
  0
ENDSEC
  0
SECTION
  2
TABLES
  0
TABLE
  2
VPORT
  5
7
330
0
100
AcDbSymbolTable
 70
     1
  0
VPORT
  5
15
330
7
100
AcDbSymbolTableRecord
100
AcDbViewportTableRecord
  2
*ACTIVE
 70
     0
 10
0.0
 20
0.0
 11
1.0
 21
1.0
 12
-535.0633933052479
 22
-95.520751568559
 13
0.0
 23
0.0
 14
1.0
 24
1.0
 15
0.0
 25
0.0
 16
0.0
 26
0.0
 36
1.0
 17
0.0
 27
0.0
 37
0.0
 40
504.9645315270673
 41
2.026760563380282
 42
50.0
 43
0.0
 44
0.0
 50
0.0
 51
0.0
 71
    16
 72
   100
 73
     1
 74
     1
 75
     0
 76
     0
 77
     0
 78
     0
281
     0
 65
     0
110
0.0
120
0.0
130
0.0
111
1.0
121
0.0
131
0.0
112
0.0
122
1.0
132
0.0
 79
     0
146
0.0
  0
ENDTAB
  0
TABLE
  2
LTYPE
  5
4
330
0
100
AcDbSymbolTable
 70
     5
  0
LTYPE
  5
11
330
4
100
AcDbSymbolTableRecord
100
AcDbLinetypeTableRecord
  2
ByBlock
 70
     0
  3

 72
    65
 73
     0
 40
0.0
  0
LTYPE
  5
12
330
4
100
AcDbSymbolTableRecord
100
AcDbLinetypeTableRecord
  2
ByLayer
 70
     0
  3

 72
    65
 73
     0
 40
0.0
  0
LTYPE
  5
13
330
4
100
AcDbSymbolTableRecord
100
AcDbLinetypeTableRecord
  2
Continuous
 70
     0
  3
Solid line
 72
    65
 73
     0
 40
0.0
  0
LTYPE
  5
690
330
4
100
AcDbSymbolTableRecord
100
AcDbLinetypeTableRecord
  2
CENTER
 70
     0
  3
____ _ ____ _ ____ _ ____ _ ____ _ ____ _ ____
 72
    65
 73
     4
 40
2.0
 49
1.25
 74
     0
 49
-0.25
 74
     0
 49
0.25
 74
     0
 49
-0.25
 74
     0
  0
LTYPE
  5
44D0
330
4
100
AcDbSymbolTableRecord
100
AcDbLinetypeTableRecord
  2
________________
 70
     0
  3

 72
    65
 73
     0
 40
0.0
  0
LTYPE
  5
47D2
330
4
100
AcDbSymbolTableRecord
100
AcDbLinetypeTableRecord
  2
CENTERX2
 70
     0
  3
Center (2x) ________  __  ________  __  _____
 72
    65
 73
     4
 40
20.32
 49
12.7
 74
     0
 49
-2.54
 74
     0
 49
2.54
 74
     0
 49
-2.54
 74
     0
  0
LTYPE
  5
47D3
330
4
100
AcDbSymbolTableRecord
100
AcDbLinetypeTableRecord
  2
PHANTOM
 70
     0
  3
Phantom ______  __  __  ______  __  __  ______
 72
    65
 73
     6
 40
12.7
 49
6.35
 74
     0
 49
-1.27
 74
     0
 49
1.27
 74
     0
 49
-1.27
 74
     0
 49
1.27
 74
     0
 49
-1.27
 74
     0
  0
ENDTAB
  0
TABLE
  2
LAYER
  5
2
330
0
100
AcDbSymbolTable
 70
     4
  0
LAYER
  5
14
102
{ACAD_XDICTIONARY
360
4441
102
}
330
2
100
AcDbSymbolTableRecord
100
AcDbLayerTableRecord
  2
0
 70
     0
 62
     7
  6
Continuous
370
    -3
390
1D
  0
LAYER
  5
47CF
330
2
100
AcDbSymbolTableRecord
100
AcDbLayerTableRecord
  2
QUOTE
 70
     0
 62
     3
  6
Continuous
370
    -3
390
1D
  0
LAYER
  5
47D1
330
2
100
AcDbSymbolTableRecord
100
AcDbLayerTableRecord
  2
ASSI
 70
     0
 62
     1
  6
CENTERX2
370
    -3
390
1D
  0
LAYER
  5
4D15
330
2
100
AcDbSymbolTableRecord
100
AcDbLayerTableRecord
  2
Defpoints
 70
     0
 62
     7
  6
Continuous
290
     0
370
    -3
390
1D
  0
ENDTAB
  0
TABLE
  2
STYLE
  5
3
330
0
100
AcDbSymbolTable
 70
     2
  0
STYLE
  5
17
330
3
100
AcDbSymbolTableRecord
100
AcDbTextStyleTableRecord
  2
Standard
 70
     0
 40
0.0
 41
1.0
 50
0.0
 71
     0
 42
0.0
  3
I011000D_0.TTF
  4

1001
ACAD
1000
IsonormD
1071
        0
  0
STYLE
  5
47D7
330
3
100
AcDbSymbolTableRecord
100
AcDbTextStyleTableRecord
  2
SLDTEXTSTYLE0
 70
     0
 40
0.0
 41
0.75
 50
0.0
 71
     0
 42
0.0
  3
TXT
  4

  0
ENDTAB
  0
TABLE
  2
VIEW
  5
5
330
0
100
AcDbSymbolTable
 70
     0
  0
ENDTAB
  0
TABLE
  2
UCS
  5
6
330
0
100
AcDbSymbolTable
 70
     0
  0
ENDTAB
  0
TABLE
  2
APPID
  5
8
330
0
100
AcDbSymbolTable
 70
     5
  0
APPID
  5
16
330
8
100
AcDbSymbolTableRecord
100
AcDbRegAppTableRecord
  2
ACAD
 70
     0
  0
APPID
  5
26
330
8
100
AcDbSymbolTableRecord
100
AcDbRegAppTableRecord
  2
TopSolid_Draft
 70
     0
  0
APPID
  5
2336
330
8
100
AcDbSymbolTableRecord
100
AcDbRegAppTableRecord
  2
ACAD_MLEADERVER
 70
     0
  0
APPID
  5
443F
330
8
100
AcDbSymbolTableRecord
100
AcDbRegAppTableRecord
  2
DCO15
 70
     0
  0
APPID
  5
44BB
330
8
100
AcDbSymbolTableRecord
100
AcDbRegAppTableRecord
  2
ACAD_EXEMPT_FROM_CAD_STANDARDS
 70
     0
  0
ENDTAB
  0
TABLE
  2
DIMSTYLE
  5
9
330
0
100
AcDbSymbolTable
 70
     9
100
AcDbDimStyleTable
  0
DIMSTYLE
105
18
330
9
100
AcDbSymbolTableRecord
100
AcDbDimStyleTableRecord
  2
Standard
 70
     0
 41
1.25
 42
0.0
 44
0.75
 73
     0
 74
     0
 77
     1
140
2.5
146
0.8
147
1.25
176
     7
177
     7
271
     2
178
     7
271
     2
340
17
  0
DIMSTYLE
105
47D4
330
9
100
AcDbSymbolTableRecord
100
AcDbDimStyleTableRecord
  2
ISO-25
 70
     0
 41
2.5
 42
0.625
 43
3.75
 44
1.25
 73
     0
 74
     0
 77
     1
 78
     8
140
2.5
141
2.5
143
0.0393700787
147
0.625
171
     3
172
     1
178
     0
271
     2
272
     2
274
     3
278
    44
283
     0
284
     8
340
17
  0
DIMSTYLE
105
47D6
330
9
100
AcDbSymbolTableRecord
100
AcDbDimStyleTableRecord
  2
SLDDIMSTYLE0
 70
     0
 41
3.2
 44
0.0
 45
0.000000001
 73
     0
 74
     0
 77
     1
 78
    12
 79
     3
140
3.2
147
0.8
173
     1
178
     0
271
     1
272
     1
276
     2
284
    12
340
47D7
  0
DIMSTYLE
105
47D8
330
9
100
AcDbSymbolTableRecord
100
AcDbDimStyleTableRecord
  2
SLDDIMSTYLE1
 70
     0
 41
3.2
 44
0.0
 45
0.000000001
 73
     0
 74
     0
 77
     1
 78
    12
 79
     3
140
3.2
147
0.8
173
     1
178
     0
271
     0
272
     2
276
     2
284
    12
340
47D7
  0
DIMSTYLE
105
47D9
330
9
100
AcDbSymbolTableRecord
100
AcDbDimStyleTableRecord
  2
SLDDIMSTYLE2
 70
     0
 41
3.2
 44
0.0
 45
0.000000001
 73
     0
 74
     0
 77
     1
 78
    12
 79
     3
140
3.2
147
0.8
173
     1
178
     0
271
     2
272
     2
276
     2
284
    12
340
47D7
  0
DIMSTYLE
105
47DA
330
9
100
AcDbSymbolTableRecord
100
AcDbDimStyleTableRecord
  2
SLDDIMSTYLE3
 70
     0
 41
3.2
 44
0.0
 45
0.000000001
 73
     0
 74
     0
 77
     1
 78
    12
 79
     3
140
3.2
141
0.0
147
0.8
172
     1
173
     1
178
     0
271
     2
272
     2
276
     2
284
    12
340
47D7
  0
DIMSTYLE
105
47DB
330
9
100
AcDbSymbolTableRecord
100
AcDbDimStyleTableRecord
  2
SLDDIMSTYLE4
 70
     0
 41
3.2
 44
0.0
 45
0.000000001
 73
     0
 74
     0
 77
     1
 78
    12
 79
     3
140
3.2
147
0.8
172
     1
173
     1
178
     0
271
     2
272
     2
276
     2
284
    12
289
     0
340
47D7
  0
DIMSTYLE
105
47DC
330
9
100
AcDbSymbolTableRecord
100
AcDbDimStyleTableRecord
  2
SLDDIMSTYLE5
 70
     0
 41
3.2
 44
0.0
 45
0.000000001
 73
     0
 74
     0
 77
     1
 78
    12
 79
     3
140
3.2
141
0.0
147
0.8
173
     1
178
     0
271
     2
272
     2
276
     2
284
    12
340
47D7
  0
DIMSTYLE
105
47DD
330
9
100
AcDbSymbolTableRecord
100
AcDbDimStyleTableRecord
  2
SLDDIMSTYLE6
 70
     0
 41
3.2
 44
0.0
 45
0.000000001
 73
     0
 74
     0
 77
     1
 78
    12
 79
     3
140
3.2
147
0.8
172
     1
173
     1
178
     0
271
     0
272
     0
276
     2
284
    12
289
     0
340
47D7
  0
ENDTAB
  0
TABLE
  2
BLOCK_RECORD
  5
1
330
0
100
AcDbSymbolTable
 70
    51
  0
BLOCK_RECORD
  5
A
102
{ACAD_XDICTIONARY
360
233E
102
}
330
1
100
AcDbSymbolTableRecord
100
AcDbBlockTableRecord
  2
*MODEL_SPACE
340
20
  0
BLOCK_RECORD
  5
B
330
1
100
AcDbSymbolTableRecord
100
AcDbBlockTableRecord
  2
*PAPER_SPACE
340
21
  0
BLOCK_RECORD
  5
44D1
330
1
100
AcDbSymbolTableRecord
100
AcDbBlockTableRecord
  2
D_FRAME_VIEW@403
340
0
  0
BLOCK_RECORD
  5
4500
330
1
100
AcDbSymbolTableRecord
100
AcDbBlockTableRecord
  2
D_FRAME_VIEW@416
340
0
  0
BLOCK_RECORD
  5
4555
330
1
100
AcDbSymbolTableRecord
100
AcDbBlockTableRecord
  2
D_FRAME_VIEW@409
340
0
  0
BLOCK_RECORD
  5
4577
330
1
100
AcDbSymbolTableRecord
100
AcDbBlockTableRecord
  2
D_FRAME_VIEW@411
340
0
  0
BLOCK_RECORD
  5
489D
330
1
100
AcDbSymbolTableRecord
100
AcDbBlockTableRecord
  2
_D
340
0
  0
BLOCK_RECORD
  5
48A7
330
1
100
AcDbSymbolTableRecord
100
AcDbBlockTableRecord
  2
_D_1
340
0
  0
BLOCK_RECORD
  5
48B1
330
1
100
AcDbSymbolTableRecord
100
AcDbBlockTableRecord
  2
_D_2
340
0
  0
BLOCK_RECORD
  5
48BB
330
1
100
AcDbSymbolTableRecord
100
AcDbBlockTableRecord
  2
_D_3
340
0
  0
BLOCK_RECORD
  5
48C6
330
1
100
AcDbSymbolTableRecord
100
AcDbBlockTableRecord
  2
_D_4
340
0
  0
BLOCK_RECORD
  5
4931
330
1
100
AcDbSymbolTableRecord
100
AcDbBlockTableRecord
  2
_D_5
340
0
  0
BLOCK_RECORD
  5
493B
330
1
100
AcDbSymbolTableRecord
100
AcDbBlockTableRecord
  2
_D_6
340
0
  0
BLOCK_RECORD
  5
495B
330
1
100
AcDbSymbolTableRecord
100
AcDbBlockTableRecord
  2
_D_7
340
0
  0
BLOCK_RECORD
  5
4965
330
1
100
AcDbSymbolTableRecord
100
AcDbBlockTableRecord
  2
_D_8
340
0
  0
BLOCK_RECORD
  5
496F
330
1
100
AcDbSymbolTableRecord
100
AcDbBlockTableRecord
  2
_D_9
340
0
  0
BLOCK_RECORD
  5
4979
330
1
100
AcDbSymbolTableRecord
100
AcDbBlockTableRecord
  2
_D_10
340
0
  0
BLOCK_RECORD
  5
4985
330
1
100
AcDbSymbolTableRecord
100
AcDbBlockTableRecord
  2
_D_11
340
0
  0
BLOCK_RECORD
  5
498D
330
1
100
AcDbSymbolTableRecord
100
AcDbBlockTableRecord
  2
_D_12
340
0
  0
BLOCK_RECORD
  5
4995
330
1
100
AcDbSymbolTableRecord
100
AcDbBlockTableRecord
  2
_D_13
340
0
  0
BLOCK_RECORD
  5
49B8
330
1
100
AcDbSymbolTableRecord
100
AcDbBlockTableRecord
  2
_D_14
340
0
  0
BLOCK_RECORD
  5
49C2
330
1
100
AcDbSymbolTableRecord
100
AcDbBlockTableRecord
  2
_D_15
340
0
  0
BLOCK_RECORD
  5
49CB
330
1
100
AcDbSymbolTableRecord
100
AcDbBlockTableRecord
  2
_D_16
340
0
  0
BLOCK_RECORD
  5
49D4
330
1
100
AcDbSymbolTableRecord
100
AcDbBlockTableRecord
  2
_D_17
340
0
  0
BLOCK_RECORD
  5
49DC
330
1
100
AcDbSymbolTableRecord
100
AcDbBlockTableRecord
  2
_D_18
340
0
  0
BLOCK_RECORD
  5
49E4
330
1
100
AcDbSymbolTableRecord
100
AcDbBlockTableRecord
  2
_D_19
340
0
  0
BLOCK_RECORD
  5
49EC
330
1
100
AcDbSymbolTableRecord
100
AcDbBlockTableRecord
  2
_D_20
340
0
  0
BLOCK_RECORD
  5
4A6D
330
1
100
AcDbSymbolTableRecord
100
AcDbBlockTableRecord
  2
_D_21
340
0
  0
BLOCK_RECORD
  5
4A77
330
1
100
AcDbSymbolTableRecord
100
AcDbBlockTableRecord
  2
_D_22
340
0
  0
ENDTAB
  0
ENDSEC
  0
SECTION
  2
BLOCKS
  0
BLOCK
  5
D
330
A
100
AcDbEntity
  8
0
100
AcDbBlockBegin
  2
*MODEL_SPACE
 70
     0
 10
0.0
 20
0.0
 30
0.0
  3
*MODEL_SPACE
  1
*MODEL_SPACE
  0
ENDBLK
  5
E
330
A
100
AcDbEntity
  8
0
100
AcDbBlockEnd
  0
BLOCK
  5
F
330
B
100
AcDbEntity
 67
     1
  8
0
100
AcDbBlockBegin
  2
*PAPER_SPACE
 70
     0
 10
0.0
 20
0.0
 30
0.0
  3
*PAPER_SPACE
  1
*PAPER_SPACE
  0
ENDBLK
  5
10
330
B
100
AcDbEntity
 67
     1
  8
0
100
AcDbBlockEnd
  0
BLOCK
  5
44D2
330
44D1
100
AcDbEntity
  8
0
100
AcDbBlockBegin
  2
D_FRAME_VIEW@403
 70
     0
 10
0.0
 20
0.0
 30
0.0
  3
D_FRAME_VIEW@403
  1
D_FRAME_VIEW@403
  0
LINE
  5
44D3
330
44D1
100
AcDbEntity
  8
0
  6
________________
 62
     7
370
     9
100
AcDbLine
 10
331.1250000000001
 20
233.9999999999997
 30
0.0
 11
329.6250000000001
 21
233.9999999999997
 31
0.0
  0
LINE
  5
44D4
330
44D1
100
AcDbEntity
  8
0
  6
________________
 62
     7
370
     9
100
AcDbLine
 10
331.1250000000001
 20
232.4999999999997
 30
0.0
 11
331.1250000000001
 21
233.9999999999997
 31
0.0
  0
LINE
  5
44D5
330
44D1
100
AcDbEntity
  8
0
  6
________________
 62
     7
370
     9
100
AcDbLine
 10
330.1250000000001
 20
230.4999999999997
 30
0.0
 11
331.1250000000001
 21
232.4999999999997
 31
0.0
  0
LINE
  5
44D6
330
44D1
100
AcDbEntity
  8
0
  6
________________
 62
     7
370
     9
100
AcDbLine
 10
330.1250000000001
 20
228.9999999999997
 30
0.0
 11
330.1250000000001
 21
230.4999999999997
 31
0.0
  0
LINE
  5
44D7
330
44D1
100
AcDbEntity
  8
0
  6
________________
 62
     7
370
     9
100
AcDbLine
 10
332.0551887631789
 20
225.1396224736417
 30
0.0
 11
330.1250000000001
 21
228.9999999999997
 31
0.0
  0
LINE
  5
44D8
330
44D1
100
AcDbEntity
  8
0
  6
________________
 62
     7
370
     9
100
AcDbLine
 10
330.4869157498637
 20
222.0030764470112
 30
0.0
 11
332.0551887631789
 21
225.1396224736417
 31
0.0
  0
LINE
  5
44D9
330
44D1
100
AcDbEntity
  8
0
  6
________________
 62
     7
370
     9
100
AcDbLine
 10
333.5551887631789
 20
225.1396224736417
 30
0.0
 11
330.4869157498637
 21
222.0030764470112
 31
0.0
  0
LINE
  5
44DA
330
44D1
100
AcDbEntity
  8
0
  6
________________
 62
     7
370
     9
100
AcDbLine
 10
331.6250000000001
 20
228.9999999999997
 30
0.0
 11
333.5551887631789
 21
225.1396224736417
 31
0.0
  0
LINE
  5
44DB
330
44D1
100
AcDbEntity
  8
0
  6
________________
 62
     7
370
     9
100
AcDbLine
 10
331.6250000000001
 20
230.2899175830392
 30
0.0
 11
331.6250000000001
 21
228.9999999999997
 31
0.0
  0
LINE
  5
44DC
330
44D1
100
AcDbEntity
  8
0
  6
________________
 62
     7
370
     9
100
AcDbLine
 10
332.6250000000001
 20
232.2899175830392
 30
0.0
 11
331.6250000000001
 21
230.2899175830392
 31
0.0
  0
LINE
  5
44DD
330
44D1
100
AcDbEntity
  8
0
  6
________________
 62
     7
370
     9
100
AcDbLine
 10
332.6250000000001
 20
235.4999999999997
 30
0.0
 11
332.6250000000001
 21
232.2899175830392
 31
0.0
  0
LINE
  5
44DE
330
44D1
100
AcDbEntity
  8
0
  6
________________
 62
     7
370
     9
100
AcDbLine
 10
329.6250000000001
 20
235.4999999999997
 30
0.0
 11
332.6250000000001
 21
235.4999999999997
 31
0.0
  0
LINE
  5
44DF
330
44D1
100
AcDbEntity
  8
0
  6
________________
 62
     7
370
     9
100
AcDbLine
 10
329.6250000000001
 20
233.9999999999997
 30
0.0
 11
329.6250000000001
 21
235.4999999999997
 31
0.0
  0
CIRCLE
  5
44E0
330
44D1
100
AcDbEntity
  8
0
  6
________________
 62
     7
370
     9
100
AcDbCircle
 10
331.6250000000001
 20
228.9999999999997
 30
0.0
 40
8.000000000000007
  0
ARC
  5
44E1
330
44D1
100
AcDbEntity
  8
0
  6
________________
 62
     7
370
     9
100
AcDbCircle
 10
-331.6250000000001
 20
228.9999999999997
 30
0.0
 40
8.750000000000005
210
0.0
220
0.0
230
-1.0
100
AcDbArc
 50
308.9448035940941
 51
231.0551964059066
  0
LINE
  5
44E2
330
44D1
100
AcDbEntity
  8
0
  6
________________
 62
     7
370
     9
100
AcDbLine
 10
337.125
 20
222.1946712055912
 30
0.0
 11
337.125
 21
208.9999999999998
 31
0.0
  0
ARC
  5
44E3
330
44D1
100
AcDbEntity
  8
0
  6
________________
 62
     7
370
     9
100
AcDbCircle
 10
-331.6250000000001
 20
208.9999999999998
 30
0.0
 40
5.500000000000004
210
0.0
220
0.0
230
-1.0
100
AcDbArc
 50
180.0
 51
0.0
  0
LINE
  5
44E4
330
44D1
100
AcDbEntity
  8
0
  6
________________
 62
     7
370
     9
100
AcDbLine
 10
326.1250000000001
 20
208.9999999999998
 30
0.0
 11
326.1250000000001
 21
222.1946712055912
 31
0.0
  0
LINE
  5
44E5
330
44D1
100
AcDbEntity
  8
0
  6
________________
 62
     7
370
     9
100
AcDbLine
 10
313.3749999999999
 20
289.4949979983983
 30
0.0
 11
313.3749999999999
 21
283.2499999999993
 31
0.0
  0
LINE
  5
44E6
330
44D1
100
AcDbEntity
  8
0
  6
________________
 62
   253
370
     9
100
AcDbLine
 10
313.6250000000002
 20
283.2499999999992
 30
0.0
 11
313.3749999999999
 21
283.2499999999992
 31
0.0
  0
LINE
  5
44E7
330
44D1
100
AcDbEntity
  8
0
  6
________________
 62
   253
370
     9
100
AcDbLine
 10
313.6250000000002
 20
187.2499999999997
 30
0.0
 11
313.3750000000002
 21
187.2499999999997
 31
0.0
  0
LINE
  5
44E8
330
44D1
100
AcDbEntity
  8
0
  6
________________
 62
     7
370
     9
100
AcDbLine
 10
313.3750000000001
 20
187.2499999999997
 30
0.0
 11
313.3750000000001
 21
181.0050020016012
 31
0.0
  0
LINE
  5
44E9
330
44D1
100
AcDbEntity
  8
0
  6
________________
 62
     7
370
     9
100
AcDbLine
 10
313.3749999999999
 20
283.2499999999992
 30
0.0
 11
313.3750000000002
 21
187.2499999999997
 31
0.0
  0
LINE
  5
44EA
330
44D1
100
AcDbEntity
  8
0
  6
________________
 62
     7
370
     9
100
AcDbLine
 10
310.3749999999999
 20
241.2499999999997
 30
0.0
 11
310.3749999999999
 21
247.2499999999997
 31
0.0
  0
LINE
  5
44EB
330
44D1
100
AcDbEntity
  8
0
  6
________________
 62
   253
370
     9
100
AcDbLine
 10
312.3749999999999
 20
249.2499999999997
 30
0.0
 11
312.3749999999999
 21
239.2499999999997
 31
0.0
  0
LINE
  5
44EC
330
44D1
100
AcDbEntity
  8
0
  6
________________
 62
     7
370
     9
100
AcDbLine
 10
313.3750000000001
 20
181.0050020016012
 30
0.0
 11
313.6250000000002
 21
181.0050020016012
 31
0.0
  0
LINE
  5
44ED
330
44D1
100
AcDbEntity
  8
0
  6
________________
 62
     7
370
     9
100
AcDbLine
 10
313.6250000000002
 20
289.4949979983983
 30
0.0
 11
313.3749999999999
 21
289.4949979983983
 31
0.0
  0
LINE
  5
44EE
330
44D1
100
AcDbEntity
  8
0
  6
________________
 62
     7
370
     9
100
AcDbLine
 10
313.3749999999999
 20
289.4949979983983
 30
0.0
 11
313.3750000000002
 21
299.5000000000003
 31
0.0
  0
ARC
  5
44EF
330
44D1
100
AcDbEntity
  8
0
  6
________________
 62
     7
370
     9
100
AcDbCircle
 10
313.8749999999999
 20
299.5000000000002
 30
0.0
 40
0.4999999999999939
100
AcDbArc
 50
119.9999999999729
 51
180.0
  0
LINE
  5
44F0
330
44D1
100
AcDbEntity
  8
0
  6
________________
 62
     7
370
     9
100
AcDbLine
 10
313.6250000000002
 20
171.4999999999997
 30
0.0
 11
313.3750000000002
 21
171.4999999999997
 31
0.0
  0
LINE
  5
44F1
330
44D1
100
AcDbEntity
  8
0
  6
________________
 62
     7
370
     9
100
AcDbLine
 10
313.3750000000001
 20
171.4999999999997
 30
0.0
 11
313.3750000000001
 21
181.0050020016012
 31
0.0
  0
LINE
  5
44F2
330
44D1
100
AcDbEntity
  8
0
  6
________________
 62
     7
370
     9
100
AcDbLine
 10
313.6250000000002
 20
301.0000000000003
 30
0.0
 11
313.3749999999997
 21
301.0000000000003
 31
0.0
  0
LINE
  5
44F3
330
44D1
100
AcDbEntity
  8
0
  6
________________
 62
     7
370
     9
100
AcDbLine
 10
313.3750000000001
 20
150.9999999999997
 30
0.0
 11
313.6250000000002
 21
150.9999999999997
 31
0.0
  0
LINE
  5
44F4
330
44D1
100
AcDbEntity
  8
0
  6
________________
 62
     7
370
     9
100
AcDbLine
 10
313.3749999999999
 20
171.4999999999997
 30
0.0
 11
313.3750000000001
 21
150.9999999999997
 31
0.0
  0
LINE
  5
44F5
330
44D1
100
AcDbEntity
  8
0
  6
________________
 62
     7
370
     9
100
AcDbLine
 10
313.3749999999997
 20
301.0000000000003
 30
0.0
 11
313.3749999999997
 21
299.5000000000003
 31
0.0
  0
LINE
  5
44F6
330
44D1
100
AcDbEntity
  8
0
  6
________________
 62
     7
370
     9
100
AcDbLine
 10
363.6250000000001
 20
150.9999999999997
 30
0.0
 11
363.625
 21
300.9999999999993
 31
0.0
  0
LINE
  5
44F7
330
44D1
100
AcDbEntity
  8
0
  6
________________
 62
     7
370
     9
100
AcDbLine
 10
313.6250000000002
 20
150.9999999999997
 30
0.0
 11
363.6250000000001
 21
150.9999999999997
 31
0.0
  0
LINE
  5
44F8
330
44D1
100
AcDbEntity
  8
0
  6
________________
 62
     7
370
     9
100
AcDbLine
 10
313.6250000000002
 20
300.9999999999993
 30
0.0
 11
313.6250000000002
 21
150.9999999999997
 31
0.0
  0
LINE
  5
44F9
330
44D1
100
AcDbEntity
  8
0
  6
________________
 62
     7
370
     9
100
AcDbLine
 10
363.625
 20
300.9999999999993
 30
0.0
 11
313.6250000000002
 21
300.9999999999993
 31
0.0
  0
ARC
  5
44FA
330
44D1
100
AcDbEntity
  8
0
  6
________________
 62
     7
370
     9
100
AcDbCircle
 10
312.3749999999999
 20
241.2499999999997
 30
0.0
 40
2.000000000000002
100
AcDbArc
 50
180.0
 51
270.0
  0
ARC
  5
44FB
330
44D1
100
AcDbEntity
  8
0
  6
________________
 62
     7
370
     9
100
AcDbCircle
 10
312.3749999999999
 20
247.2499999999997
 30
0.0
 40
2.000000000000002
100
AcDbArc
 50
90.0
 51
180.0
  0
LINE
  5
44FC
330
44D1
100
AcDbEntity
  8
0
  6
________________
 62
     7
370
     9
100
AcDbLine
 10
313.3749999999999
 20
249.2499999999997
 30
0.0
 11
312.3749999999999
 21
249.2499999999997
 31
0.0
  0
LINE
  5
44FD
330
44D1
100
AcDbEntity
  8
0
  6
________________
 62
     7
370
     9
100
AcDbLine
 10
312.3749999999999
 20
239.2499999999997
 30
0.0
 11
313.3749999999999
 21
239.2499999999997
 31
0.0
  0
ENDBLK
  5
44FE
330
44D1
100
AcDbEntity
  8
0
100
AcDbBlockEnd
  0
BLOCK
  5
4501
330
4500
100
AcDbEntity
  8
0
100
AcDbBlockBegin
  2
D_FRAME_VIEW@416
 70
     0
 10
0.0
 20
0.0
 30
0.0
  3
D_FRAME_VIEW@416
  1
D_FRAME_VIEW@416
  0
ELLIPSE
  5
4502
330
4500
100
AcDbEntity
  8
0
  6
________________
 62
     7
370
     9
100
AcDbEllipse
 10
424.267752934961
 20
66.76164048166194
 30
0.0
 11
-4.427188724235746
 21
5.422176684690398
 31
0.0
210
0.0
220
0.0
230
-1.0
 40
0.8164965809277261
 41
4.606705866246703
 42
6.283185307179586
  0
LINE
  5
4503
330
4500
100
AcDbEntity
  8
0
  6
________________
 62
     7
370
     9
100
AcDbLine
 10
428.2032325753605
 20
60.9884046080718
 30
0.0
 11
428.2032325753605
 21
51.35237919718332
 31
0.0
  0
ELLIPSE
  5
4504
330
4500
100
AcDbEntity
  8
0
  6
________________
 62
     7
370
     9
100
AcDbEllipse
 10
424.267752934961
 20
52.15570561485755
 30
0.0
 11
-2.782804340948198
 21
3.408225344662554
 31
0.0
210
0.0
220
0.0
230
-1.0
 40
0.816496580927726
 41
2.356194490192336
 42
3.141592653589776
  0
LINE
  5
4505
330
4500
100
AcDbEntity
  8
0
  6
________________
 62
     7
370
     9
100
AcDbLine
 10
420.3322732945613
 20
52.95903203253182
 30
0.0
 11
420.3322732945613
 21
62.59505744342031
 31
0.0
  0
ELLIPSE
  5
4506
330
4500
100
AcDbEntity
  8
0
  6
________________
 62
     7
370
     9
100
AcDbEllipse
 10
427.8454616989607
 20
69.68282745502286
 30
0.0
 11
-4.427188724235755
 21
5.422176684690415
 31
0.0
210
0.0
220
0.0
230
-1.0
 40
0.8164965809277259
 41
0.0
 42
3.141592653589791
  0
ELLIPSE
  5
4507
330
4500
100
AcDbEntity
  8
0
  6
________________
 62
     7
370
     9
100
AcDbEllipse
 10
424.267752934961
 20
66.76164048166194
 30
0.0
 11
-4.427188724235743
 21
5.422176684690401
 31
0.0
210
0.0
220
0.0
230
-1.0
 40
0.8164965809277259
 41
3.141592653589789
 42
3.24727576772778
  0
ELLIPSE
  5
4508
330
4500
100
AcDbEntity
  8
0
  6
________________
 62
     7
370
     9
100
AcDbEllipse
 10
424.267752934961
 20
66.76164048166194
 30
0.0
 11
-4.427188724235743
 21
5.422176684690401
 31
0.0
210
0.0
220
0.0
230
-1.0
 40
0.8164965809277259
 41
0.0
 42
3.141592653589789
  0
LINE
  5
4509
330
4500
100
AcDbEntity
  8
0
  6
________________
 62
     7
370
     9
100
AcDbLine
 10
423.8026507956411
 20
70.3985182634963
 30
0.0
 11
422.7293381664412
 21
70.61760728649836
 31
0.0
  0
LINE
  5
450A
330
4500
100
AcDbEntity
  8
0
  6
________________
 62
     7
370
     9
100
AcDbLine
 10
423.8026507956411
 20
69.30307314848594
 30
0.0
 11
423.8026507956411
 21
70.3985182634963
 31
0.0
  0
LINE
  5
450B
330
4500
100
AcDbEntity
  8
0
  6
________________
 62
     7
370
     9
100
AcDbLine
 10
423.0871090428411
 20
67.98853901047363
 30
0.0
 11
423.8026507956411
 21
69.30307314848594
 31
0.0
  0
LINE
  5
450C
330
4500
100
AcDbEntity
  8
0
  6
________________
 62
     7
370
     9
100
AcDbLine
 10
423.0871090428411
 20
66.89309389546327
 30
0.0
 11
423.0871090428411
 21
67.98853901047363
 31
0.0
  0
LINE
  5
450D
330
4500
100
AcDbEntity
  8
0
  6
________________
 62
     7
370
     9
100
AcDbLine
 10
424.4682396936808
 20
63.79195064634402
 30
0.0
 11
423.0871090428411
 21
66.89309389546327
 31
0.0
  0
LINE
  5
450E
330
4500
100
AcDbEntity
  8
0
  6
________________
 62
     7
370
     9
100
AcDbLine
 10
423.3460748728644
 20
61.73040223261744
 30
0.0
 11
424.4682396936808
 21
63.79195064634402
 31
0.0
  0
LINE
  5
450F
330
4500
100
AcDbEntity
  8
0
  6
________________
 62
     7
370
     9
100
AcDbLine
 10
425.5415523228807
 20
63.57286162334191
 30
0.0
 11
423.3460748728644
 21
61.73040223261744
 31
0.0
  0
LINE
  5
4510
330
4500
100
AcDbEntity
  8
0
  6
________________
 62
     7
370
     9
100
AcDbLine
 10
424.160421672041
 20
66.67400487246117
 30
0.0
 11
425.5415523228807
 21
63.57286162334191
 31
0.0
  0
LINE
  5
4511
330
4500
100
AcDbEntity
  8
0
  6
________________
 62
     7
370
     9
100
AcDbLine
 10
424.160421672041
 20
67.6160274825322
 30
0.0
 11
424.160421672041
 21
66.67400487246117
 31
0.0
  0
LINE
  5
4512
330
4500
100
AcDbEntity
  8
0
  6
________________
 62
     7
370
     9
100
AcDbLine
 10
424.875963424841
 20
68.93056162054457
 30
0.0
 11
424.160421672041
 21
67.6160274825322
 31
0.0
  0
LINE
  5
4513
330
4500
100
AcDbEntity
  8
0
  6
________________
 62
     7
370
     9
100
AcDbLine
 10
424.875963424841
 20
71.27487435550461
 30
0.0
 11
424.875963424841
 21
68.93056162054457
 31
0.0
  0
LINE
  5
4514
330
4500
100
AcDbEntity
  8
0
  6
________________
 62
     7
370
     9
100
AcDbLine
 10
422.7293381664412
 20
71.71305240150872
 30
0.0
 11
424.875963424841
 21
71.27487435550461
 31
0.0
  0
LINE
  5
4515
330
4500
100
AcDbEntity
  8
0
  6
________________
 62
     7
370
     9
100
AcDbLine
 10
422.7293381664412
 20
70.61760728649836
 30
0.0
 11
422.7293381664412
 21
71.71305240150872
 31
0.0
  0
ELLIPSE
  5
4516
330
4500
100
AcDbEntity
  8
0
  6
________________
 62
     7
370
     9
100
AcDbEllipse
 10
424.160421672041
 20
66.67400487246117
 30
0.0
 11
4.04771540501549
 21
-4.957418683145452
 31
0.0
210
0.0
220
0.0
230
1.0
 40
0.8164965809277261
 41
5.497787143782134
 42
6.283185307179586
  0
ELLIPSE
  5
4517
330
4500
100
AcDbEntity
  8
0
  6
________________
 62
     7
370
     9
100
AcDbEllipse
 10
424.267752934961
 20
66.76164048166194
 30
0.0
 11
4.04771540501549
 21
-4.957418683145452
 31
0.0
210
0.0
220
0.0
230
1.0
 40
0.8164965809277261
 41
0.0
 42
3.141592653589782
  0
ELLIPSE
  5
4518
330
4500
100
AcDbEntity
  8
0
  6
________________
 62
     7
370
     9
100
AcDbEllipse
 10
424.160421672041
 20
66.67400487246117
 30
0.0
 11
4.04771540501549
 21
-4.957418683145452
 31
0.0
210
0.0
220
0.0
230
1.0
 40
0.8164965809277261
 41
3.141592653589788
 42
5.497787143782134
  0
ELLIPSE
  5
4519
330
4500
100
AcDbEntity
  8
0
  6
________________
 62
     7
370
     9
100
AcDbEllipse
 10
424.160421672041
 20
66.67400487246117
 30
0.0
 11
4.04771540501549
 21
-4.957418683145452
 31
0.0
210
0.0
220
0.0
230
1.0
 40
0.8164965809277261
 41
0.0
 42
3.141592653589788
  0
LINE
  5
451A
330
4500
100
AcDbEntity
  8
0
  6
________________
 62
     7
370
     9
100
AcDbLine
 10
423.8026507956411
 20
70.3985182634963
 30
0.0
 11
424.875963424841
 21
71.27487435550461
 31
0.0
  0
LINE
  5
451B
330
4500
100
AcDbEntity
  8
0
  6
________________
 62
     7
370
     9
100
AcDbLine
 10
423.8026507956411
 20
69.30307314848594
 30
0.0
 11
424.875963424841
 21
70.17942924049424
 31
0.0
  0
LINE
  5
451C
330
4500
100
AcDbEntity
  8
0
  6
________________
 62
     7
370
     9
100
AcDbLine
 10
422.7293381664412
 20
70.61760728649836
 30
0.0
 11
423.8026507956411
 21
71.49396337850666
 31
0.0
  0
LINE
  5
451D
330
4500
100
AcDbEntity
  8
0
  6
________________
 62
     7
370
     9
100
AcDbLine
 10
423.0871090428411
 20
67.98853901047363
 30
0.0
 11
424.875963424841
 21
69.44913249715407
 31
0.0
  0
LINE
  5
451E
330
4500
100
AcDbEntity
  8
0
  6
________________
 62
     7
370
     9
100
AcDbLine
 10
423.0871090428411
 20
66.89309389546327
 30
0.0
 11
424.3107444129054
 21
67.89218799142293
 31
0.0
  0
LINE
  5
451F
330
4500
100
AcDbEntity
  8
0
  6
________________
 62
     7
370
     9
100
AcDbLine
 10
424.4682396936808
 20
63.79195064634402
 30
0.0
 11
425.1837814464808
 21
64.37618804101619
 31
0.0
  0
LINE
  5
4520
330
4500
100
AcDbEntity
  8
0
  6
________________
 62
     7
370
     9
100
AcDbLine
 10
431.7809413393603
 20
63.85917198456914
 30
0.0
 11
431.7809413393603
 21
54.27356617054424
 31
0.0
  0
LINE
  5
4521
330
4500
100
AcDbEntity
  8
0
  6
________________
 62
   253
370
     9
100
AcDbLine
 10
431.7809413393603
 20
54.27356617054424
 30
0.0
 11
428.2032325753605
 21
51.35237919718332
 31
0.0
  0
LINE
  5
4522
330
4500
100
AcDbEntity
  8
0
  6
________________
 62
     7
370
     9
100
AcDbLine
 10
425.4789424195107
 20
63.71344374643489
 30
0.0
 11
425.2854132870456
 21
63.35790802775748
 31
0.0
  0
ELLIPSE
  5
4523
330
4500
100
AcDbEntity
  8
0
  6
________________
 62
     7
370
     9
100
AcDbEllipse
 10
424.267752934961
 20
52.15570561485755
 30
0.0
 11
-2.782804340948195
 21
3.408225344662555
 31
0.0
210
0.0
220
0.0
230
-1.0
 40
0.8164965809277263
 41
3.141592653589776
 42
5.497787143782142
  0
ELLIPSE
  5
4524
330
4500
100
AcDbEntity
  8
0
  6
________________
 62
     7
370
     9
100
AcDbEllipse
 10
427.8454616989607
 20
55.07689258821846
 30
0.0
 11
-2.782804340948198
 21
3.408225344662554
 31
0.0
210
0.0
220
0.0
230
-1.0
 40
0.816496580927726
 41
2.356194490192336
 42
3.141592653589776
  0
LINE
  5
4525
330
4500
100
AcDbEntity
  8
0
  6
________________
 62
     7
370
     9
100
AcDbLine
 10
444.481807451559
 20
123.2500935790285
 30
0.0
 11
444.481807451559
 21
121.7895000923474
 31
0.0
  0
LINE
  5
4526
330
4500
100
AcDbEntity
  8
0
  6
________________
 62
     7
370
     9
100
AcDbLine
 10
441.6196404403586
 20
122.3737374870197
 30
0.0
 11
444.481807451559
 21
124.710687065709
 31
0.0
  0
LINE
  5
4527
330
4500
100
AcDbEntity
  8
0
  6
________________
 62
     7
370
     9
100
AcDbLine
 10
444.481807451559
 20
124.710687065709
 30
0.0
 11
444.481807451559
 21
123.2500935790285
 31
0.0
  0
LINE
  5
4528
330
4500
100
AcDbEntity
  8
0
  6
________________
 62
   253
370
     9
100
AcDbLine
 10
421.5844713619611
 20
129.3845862230864
 30
0.0
 11
418.7223043507607
 21
127.0476366443971
 31
0.0
  0
LINE
  5
4529
330
4500
100
AcDbEntity
  8
0
  6
________________
 62
     7
370
     9
100
AcDbLine
 10
421.5844713619611
 20
129.3845862230864
 30
0.0
 11
421.9422422383612
 21
129.3115565487524
 31
0.0
  0
LINE
  5
452A
330
4500
100
AcDbEntity
  8
0
  6
________________
 62
     7
370
     9
100
AcDbLine
 10
421.9422422383612
 20
129.3115565487524
 30
0.0
 11
444.481807451559
 21
124.710687065709
 31
0.0
  0
ELLIPSE
  5
452B
330
4500
100
AcDbEntity
  8
0
  6
________________
 62
     7
370
     9
100
AcDbEllipse
 10
453.7838502379581
 20
119.1604318163233
 30
0.0
 11
1.517893276880801
 21
-1.859032006179529
 31
0.0
210
0.0
220
0.0
230
1.0
 40
0.8164965809277265
 41
0.7853981633974669
 42
2.356194490192348
  0
LINE
  5
452C
330
4500
100
AcDbEntity
  8
0
  6
________________
 62
     7
370
     9
100
AcDbLine
 10
455.9304754963579
 20
16.48070970268772
 30
0.0
 11
455.9304754963579
 21
118.7222537703192
 31
0.0
  0
ELLIPSE
  5
452D
330
4500
100
AcDbEntity
  8
0
  6
________________
 62
     7
370
     9
100
AcDbEllipse
 10
453.7838502379581
 20
16.91888774869187
 30
0.0
 11
1.517893276880847
 21
-1.859032006179592
 31
0.0
210
0.0
220
0.0
230
1.0
 40
0.816496580927726
 41
5.497787143782138
 42
6.283185307179586
  0
LINE
  5
452E
330
4500
100
AcDbEntity
  8
0
  6
________________
 62
     7
370
     9
100
AcDbLine
 10
453.6049647997582
 20
14.76451235583819
 30
0.0
 11
453.7838502379581
 21
14.7279975186712
 31
0.0
  0
LINE
  5
452F
330
4500
100
AcDbEntity
  8
0
  6
________________
 62
     7
370
     9
100
AcDbLine
 10
453.7838502379581
 20
121.351322046344
 30
0.0
 11
444.481807451559
 21
123.2500935790285
 31
0.0
  0
LINE
  5
4530
330
4500
100
AcDbEntity
  8
0
  6
________________
 62
   253
370
     9
100
AcDbLine
 10
455.214933743558
 20
122.5197968356884
 30
0.0
 11
453.7838502379581
 21
121.351322046344
 31
0.0
  0
LINE
  5
4531
330
4500
100
AcDbEntity
  8
0
  6
________________
 62
   253
370
     9
100
AcDbLine
 10
456.288246372758
 20
119.0143724676553
 30
0.0
 11
455.9304754963579
 21
118.7222537703192
 31
0.0
  0
LINE
  5
4532
330
4500
100
AcDbEntity
  8
0
  6
________________
 62
   253
370
     9
100
AcDbLine
 10
456.288246372758
 20
16.77282840002386
 30
0.0
 11
455.9304754963579
 21
16.48070970268772
 31
0.0
  0
ELLIPSE
  5
4533
330
4500
100
AcDbEntity
  8
0
  6
________________
 62
     7
370
     9
100
AcDbEllipse
 10
421.5844713619611
 20
129.0194378514163
 30
0.0
 11
-0.2529822128134881
 21
0.3098386676966153
 31
0.0
210
0.0
220
0.0
230
-1.0
 40
0.8164965809277255
 41
0.0
 42
0.7853981633973991
  0
ELLIPSE
  5
4534
330
4500
100
AcDbEntity
  8
0
  6
________________
 62
     7
370
     9
100
AcDbEllipse
 10
453.7838502379581
 20
16.91888774869187
 30
0.0
 11
1.517893276880847
 21
-1.859032006179592
 31
0.0
210
0.0
220
0.0
230
1.0
 40
0.8164965809277256
 41
0.0
 42
0.785398163397442
  0
LINE
  5
4535
330
4500
100
AcDbEntity
  8
0
  6
________________
 62
     7
370
     9
100
AcDbLine
 10
453.6049647997582
 20
14.76451235583819
 30
0.0
 11
453.7838502379581
 21
14.72799751867126
 31
0.0
  0
LINE
  5
4536
330
4500
100
AcDbEntity
  8
0
  6
________________
 62
     7
370
     9
100
AcDbLine
 10
453.7838502379581
 20
14.72799751867126
 30
0.0
 11
456.288246372758
 21
14.21678979833301
 31
0.0
  0
LINE
  5
4537
330
4500
100
AcDbEntity
  8
0
  6
________________
 62
     7
370
     9
100
AcDbLine
 10
456.288246372758
 20
14.21678979833301
 30
0.0
 11
456.288246372758
 21
122.3007078126863
 31
0.0
  0
LINE
  5
4538
330
4500
100
AcDbEntity
  8
0
  6
________________
 62
     7
370
     9
100
AcDbLine
 10
456.288246372758
 20
122.3007078126863
 30
0.0
 11
444.481807451559
 21
124.710687065709
 31
0.0
  0
LINE
  5
4539
330
4500
100
AcDbEntity
  8
0
  6
________________
 62
     7
370
     9
100
AcDbLine
 10
444.481807451559
 20
124.710687065709
 30
0.0
 11
421.9422422383612
 21
129.3115565487524
 31
0.0
  0
LINE
  5
453A
330
4500
100
AcDbEntity
  8
0
  6
________________
 62
     7
370
     9
100
AcDbLine
 10
421.226700485561
 20
130.1879126407607
 30
0.0
 11
421.226700485561
 21
129.2437169335744
 31
0.0
  0
LINE
  5
453B
330
4500
100
AcDbEntity
  8
0
  6
________________
 62
     7
370
     9
100
AcDbLine
 10
457.0037881255578
 20
122.8849452073584
 30
0.0
 11
421.226700485561
 21
130.1879126407607
 31
0.0
  0
LINE
  5
453C
330
4500
100
AcDbEntity
  8
0
  6
________________
 62
     7
370
     9
100
AcDbLine
 10
457.0037881255578
 20
13.34043370632475
 30
0.0
 11
457.0037881255578
 21
122.8849452073584
 31
0.0
  0
LINE
  5
453D
330
4500
100
AcDbEntity
  8
0
  6
________________
 62
     7
370
     9
100
AcDbLine
 10
453.6049647997582
 20
14.03421561249795
 30
0.0
 11
457.0037881255578
 21
13.34043370632475
 31
0.0
  0
LINE
  5
453E
330
4500
100
AcDbEntity
  8
0
  6
________________
 62
     7
370
     9
100
AcDbLine
 10
459.8659551367575
 20
125.2218947860471
 30
0.0
 11
457.0037881255578
 21
122.8849452073584
 31
0.0
  0
LINE
  5
453F
330
4500
100
AcDbEntity
  8
0
  6
________________
 62
     7
370
     9
100
AcDbLine
 10
459.8659551367576
 20
15.67738328501349
 30
0.0
 11
459.8659551367575
 21
125.2218947860471
 31
0.0
  0
LINE
  5
4540
330
4500
100
AcDbEntity
  8
0
  6
________________
 62
     7
370
     9
100
AcDbLine
 10
459.8659551367576
 20
15.67738328501349
 30
0.0
 11
457.0037881255578
 21
13.34043370632475
 31
0.0
  0
LINE
  5
4541
330
4500
100
AcDbEntity
  8
0
  6
________________
 62
     7
370
     9
100
AcDbLine
 10
424.0888674967608
 20
132.5248622194494
 30
0.0
 11
421.226700485561
 21
130.1879126407607
 31
0.0
  0
LINE
  5
4542
330
4500
100
AcDbEntity
  8
0
  6
________________
 62
     7
370
     9
100
AcDbLine
 10
459.8659551367575
 20
125.2218947860471
 30
0.0
 11
424.0888674967608
 21
132.5248622194494
 31
0.0
  0
LINE
  5
4543
330
4500
100
AcDbEntity
  8
0
  6
________________
 62
     7
370
     9
100
AcDbLine
 10
450.7427977885585
 20
8.045782317108166
 30
0.0
 11
450.7427977885584
 21
117.5902938181411
 31
0.0
  0
LINE
  5
4544
330
4500
100
AcDbEntity
  8
0
  6
________________
 62
     7
370
     9
100
AcDbLine
 10
414.9657101485619
 20
15.34874975051042
 30
0.0
 11
450.7427977885585
 21
8.045782317108166
 31
0.0
  0
LINE
  5
4545
330
4500
100
AcDbEntity
  8
0
  6
________________
 62
     7
370
     9
100
AcDbLine
 10
414.9657101485619
 20
124.8932612515433
 30
0.0
 11
414.9657101485619
 21
15.34874975051043
 31
0.0
  0
LINE
  5
4546
330
4500
100
AcDbEntity
  8
0
  6
________________
 62
     7
370
     9
100
AcDbLine
 10
450.7427977885584
 20
117.5902938181411
 30
0.0
 11
414.9657101485619
 21
124.8932612515433
 31
0.0
  0
LINE
  5
4547
330
4500
100
AcDbEntity
  8
0
  6
________________
 62
     7
370
     9
100
AcDbLine
 10
450.7427977885585
 20
8.045782317108166
 30
0.0
 11
453.6049647997582
 21
10.38273189579685
 31
0.0
  0
LINE
  5
4548
330
4500
100
AcDbEntity
  8
0
  6
________________
 62
     7
370
     9
100
AcDbLine
 10
450.7427977885584
 20
117.5902938181411
 30
0.0
 11
453.6049647997582
 21
119.9272433968298
 31
0.0
  0
LINE
  5
4549
330
4500
100
AcDbEntity
  8
0
  6
________________
 62
     7
370
     9
100
AcDbLine
 10
453.6049647997582
 20
10.38273189579685
 30
0.0
 11
453.6049647997582
 21
119.9272433968298
 31
0.0
  0
LINE
  5
454A
330
4500
100
AcDbEntity
  8
0
  6
________________
 62
     7
370
     9
100
AcDbLine
 10
414.9657101485619
 20
124.8932612515433
 30
0.0
 11
417.8278771597617
 21
127.230210830232
 31
0.0
  0
LINE
  5
454B
330
4500
100
AcDbEntity
  8
0
  6
________________
 62
     7
370
     9
100
AcDbLine
 10
453.6049647997582
 20
119.9272433968298
 30
0.0
 11
417.8278771597616
 21
127.230210830232
 31
0.0
  0
LINE
  5
454C
330
4500
100
AcDbEntity
  8
0
  6
________________
 62
     7
370
     9
100
AcDbLine
 10
428.6949416591967
 20
61.33946379697157
 30
0.0
 11
432.2726504231964
 21
64.26065077033249
 31
0.0
  0
LINE
  5
454D
330
4500
100
AcDbEntity
  8
0
  6
________________
 62
     7
370
     9
100
AcDbLine
 10
423.418272974725
 20
75.10500413971327
 30
0.0
 11
419.8405642107253
 21
72.18381716635236
 31
0.0
  0
LINE
  5
454E
330
4500
100
AcDbEntity
  8
0
  6
________________
 62
     7
370
     9
100
AcDbLine
 10
420.2200375299455
 20
71.71905916480748
 30
0.0
 11
420.1127062670255
 21
71.63142355560664
 31
0.0
  0
LINE
  5
454F
330
4500
100
AcDbEntity
  8
0
  6
________________
 62
     7
370
     9
100
AcDbLine
 10
428.2081370770566
 20
61.71658618931574
 30
0.0
 11
428.3154683399765
 21
61.80422179851652
 31
0.0
  0
LINE
  5
4550
330
4500
100
AcDbEntity
  8
0
  6
________________
 62
     7
370
     9
100
AcDbLine
 10
427.0505572759092
 20
48.74748027019509
 30
0.0
 11
430.6282660399089
 21
51.668667243556
 31
0.0
  0
LINE
  5
4551
330
4500
100
AcDbEntity
  8
0
  6
________________
 62
     7
370
     9
100
AcDbLine
 10
421.3314891491476
 20
129.3292765191129
 30
0.0
 11
418.5741108015337
 21
127.077886525962
 31
0.0
  0
LINE
  5
4552
330
4500
100
AcDbEntity
  8
0
  6
________________
 62
     7
370
     9
100
AcDbLine
 10
455.301743514839
 20
15.05985574251228
 30
0.0
 11
456.288246372758
 21
15.86533195307865
 31
0.0
  0
ENDBLK
  5
4553
330
4500
100
AcDbEntity
  8
0
100
AcDbBlockEnd
  0
BLOCK
  5
4556
330
4555
100
AcDbEntity
  8
0
100
AcDbBlockBegin
  2
D_FRAME_VIEW@409
 70
     0
 10
0.0
 20
0.0
 30
0.0
  3
D_FRAME_VIEW@409
  1
D_FRAME_VIEW@409
  0
LINE
  5
4557
330
4555
100
AcDbEntity
  8
0
  6
________________
 62
     7
370
     9
100
AcDbLine
 10
322.8750000000001
 20
76.14999999999999
 30
0.0
 11
340.3750000000002
 21
76.14999999999999
 31
0.0
  0
LINE
  5
4558
330
4555
100
AcDbEntity
  8
0
  6
________________
 62
     7
370
     9
100
AcDbLine
 10
339.6250000000002
 20
75.85
 30
0.0
 11
323.6250000000002
 21
75.85
 31
0.0
  0
LINE
  5
4559
330
4555
100
AcDbEntity
  8
0
  6
________________
 62
     7
370
     9
100
AcDbLine
 10
313.6250000000002
 20
91.15
 30
0.0
 11
313.3749999999999
 21
91.15
 31
0.0
  0
LINE
  5
455A
330
4555
100
AcDbEntity
  8
0
  6
________________
 62
     7
370
     9
100
AcDbLine
 10
313.3749999999999
 20
94.14999999999998
 30
0.0
 11
313.3749999999999
 21
91.14999999999998
 31
0.0
  0
LINE
  5
455B
330
4555
100
AcDbEntity
  8
0
  6
________________
 62
   253
370
     9
100
AcDbLine
 10
312.3749999999999
 20
104.15
 30
0.0
 11
312.3749999999999
 21
99.14999999999999
 31
0.0
  0
LINE
  5
455C
330
4555
100
AcDbEntity
  8
0
  6
________________
 62
   253
370
     9
100
AcDbLine
 10
312.3749999999999
 20
99.14999999999999
 30
0.0
 11
312.3749999999999
 21
94.14999999999998
 31
0.0
  0
LINE
  5
455D
330
4555
100
AcDbEntity
  8
0
  6
________________
 62
     7
370
     9
100
AcDbLine
 10
310.3749999999999
 20
96.14999999999998
 30
0.0
 11
310.3749999999999
 21
99.14999999999999
 31
0.0
  0
LINE
  5
455E
330
4555
100
AcDbEntity
  8
0
  6
________________
 62
     7
370
     9
100
AcDbLine
 10
310.3749999999999
 20
99.14999999999999
 30
0.0
 11
310.3749999999999
 21
102.15
 31
0.0
  0
LINE
  5
455F
330
4555
100
AcDbEntity
  8
0
  6
________________
 62
     7
370
     9
100
AcDbLine
 10
313.3750000000002
 20
94.14999999999998
 30
0.0
 11
313.3750000000002
 21
104.15
 31
0.0
  0
LINE
  5
4560
330
4555
100
AcDbEntity
  8
0
  6
________________
 62
   253
370
     9
100
AcDbLine
 10
313.8749999999999
 20
104.15
 30
0.0
 11
313.8749999999999
 21
94.14999999999998
 31
0.0
  0
LINE
  5
4561
330
4555
100
AcDbEntity
  8
0
  6
________________
 62
     7
370
     9
100
AcDbLine
 10
313.6250000000002
 20
94.14999999999998
 30
0.0
 11
313.3749999999999
 21
94.14999999999998
 31
0.0
  0
LINE
  5
4562
330
4555
100
AcDbEntity
  8
0
  6
________________
 62
     7
370
     9
100
AcDbLine
 10
345.8749999999999
 20
94.14999999999998
 30
0.0
 11
345.8749999999999
 21
104.15
 31
0.0
  0
LINE
  5
4563
330
4555
100
AcDbEntity
  8
0
  6
________________
 62
     7
370
     9
100
AcDbLine
 10
313.3749999999997
 20
112.15
 30
0.0
 11
313.3749999999997
 21
104.15
 31
0.0
  0
LINE
  5
4564
330
4555
100
AcDbEntity
  8
0
  6
________________
 62
     7
370
     9
100
AcDbLine
 10
363.3749999999999
 20
112.15
 30
0.0
 11
313.3749999999997
 21
112.15
 31
0.0
  0
LINE
  5
4565
330
4555
100
AcDbEntity
  8
0
  6
________________
 62
     7
370
     9
100
AcDbLine
 10
363.3749999999999
 20
104.15
 30
0.0
 11
313.3749999999997
 21
104.15
 31
0.0
  0
LINE
  5
4566
330
4555
100
AcDbEntity
  8
0
  6
________________
 62
     7
370
     9
100
AcDbLine
 10
363.3749999999999
 20
112.15
 30
0.0
 11
363.3749999999999
 21
104.15
 31
0.0
  0
LINE
  5
4567
330
4555
100
AcDbEntity
  8
0
  6
________________
 62
     7
370
     9
100
AcDbLine
 10
363.6250000000001
 20
86.15
 30
0.0
 11
363.6250000000001
 21
94.14999999999998
 31
0.0
  0
LINE
  5
4568
330
4555
100
AcDbEntity
  8
0
  6
________________
 62
     7
370
     9
100
AcDbLine
 10
363.6250000000001
 20
86.15
 30
0.0
 11
313.6250000000002
 21
86.15
 31
0.0
  0
LINE
  5
4569
330
4555
100
AcDbEntity
  8
0
  6
________________
 62
     7
370
     9
100
AcDbLine
 10
313.6250000000002
 20
86.15
 30
0.0
 11
313.6250000000002
 21
94.14999999999998
 31
0.0
  0
LINE
  5
456A
330
4555
100
AcDbEntity
  8
0
  6
________________
 62
     7
370
     9
100
AcDbLine
 10
363.6250000000001
 20
94.14999999999998
 30
0.0
 11
313.6250000000002
 21
94.14999999999998
 31
0.0
  0
LINE
  5
456B
330
4555
100
AcDbEntity
  8
0
  6
________________
 62
     7
370
     9
100
AcDbLine
 10
347.8750000000001
 20
99.14999999999999
 30
0.0
 11
345.8749999999999
 21
99.14999999999996
 31
0.0
  0
LINE
  5
456C
330
4555
100
AcDbEntity
  8
0
  6
________________
 62
     7
370
     9
100
AcDbLine
 10
347.8750000000001
 20
99.14999999999999
 30
0.0
 11
347.8750000000001
 21
94.14999999999998
 31
0.0
  0
LINE
  5
456D
330
4555
100
AcDbEntity
  8
0
  6
________________
 62
     7
370
     9
100
AcDbLine
 10
340.3750000000002
 20
76.14999999999999
 30
0.0
 11
340.3750000000002
 21
86.15
 31
0.0
  0
LINE
  5
456E
330
4555
100
AcDbEntity
  8
0
  6
________________
 62
     7
370
     9
100
AcDbLine
 10
322.8750000000001
 20
86.15
 30
0.0
 11
322.8750000000001
 21
76.14999999999999
 31
0.0
  0
LINE
  5
456F
330
4555
100
AcDbEntity
  8
0
  6
________________
 62
     7
370
     9
100
AcDbLine
 10
323.6250000000002
 20
76.14999999999999
 30
0.0
 11
323.6250000000002
 21
75.85
 31
0.0
  0
LINE
  5
4570
330
4555
100
AcDbEntity
  8
0
  6
________________
 62
     7
370
     9
100
AcDbLine
 10
339.6250000000002
 20
75.85
 30
0.0
 11
339.6250000000002
 21
76.14999999999999
 31
0.0
  0
LINE
  5
4571
330
4555
100
AcDbEntity
  8
0
  6
________________
 62
     7
370
     9
100
AcDbLine
 10
313.3749999999999
 20
104.15
 30
0.0
 11
312.3749999999999
 21
104.15
 31
0.0
  0
LINE
  5
4572
330
4555
100
AcDbEntity
  8
0
  6
________________
 62
     7
370
     9
100
AcDbLine
 10
312.3749999999999
 20
94.14999999999998
 30
0.0
 11
313.3749999999999
 21
94.14999999999998
 31
0.0
  0
ARC
  5
4573
330
4555
100
AcDbEntity
  8
0
  6
________________
 62
     7
370
     9
100
AcDbCircle
 10
312.3749999999999
 20
96.14999999999998
 30
0.0
 40
2.000000000000002
100
AcDbArc
 50
180.0
 51
270.0
  0
ARC
  5
4574
330
4555
100
AcDbEntity
  8
0
  6
________________
 62
     7
370
     9
100
AcDbCircle
 10
312.3749999999999
 20
102.15
 30
0.0
 40
2.000000000000002
100
AcDbArc
 50
90.0
 51
180.0
  0
ENDBLK
  5
4575
330
4555
100
AcDbEntity
  8
0
100
AcDbBlockEnd
  0
BLOCK
  5
4578
330
4577
100
AcDbEntity
  8
0
100
AcDbBlockBegin
  2
D_FRAME_VIEW@411
 70
     0
 10
0.0
 20
0.0
 30
0.0
  3
D_FRAME_VIEW@411
  1
D_FRAME_VIEW@411
  0
LINE
  5
4579
330
4577
100
AcDbEntity
  8
0
  6
________________
 62
     7
370
     9
100
AcDbLine
 10
427.8499999999999
 20
222.1946712055912
 30
0.0
 11
437.8499999999999
 21
222.1946712055912
 31
0.0
  0
LINE
  5
457A
330
4577
100
AcDbEntity
  8
0
  6
________________
 62
     7
370
     9
100
AcDbLine
 10
437.8499999999999
 20
222.1946712055915
 30
0.0
 11
437.8499999999999
 21
237.7499999999997
 31
0.0
  0
LINE
  5
457B
330
4577
100
AcDbEntity
  8
0
  6
________________
 62
     7
370
     9
100
AcDbLine
 10
438.1499999999999
 20
236.9999999999997
 30
0.0
 11
438.1499999999999
 21
220.9999999999997
 31
0.0
  0
LINE
  5
457C
330
4577
100
AcDbEntity
  8
0
  6
________________
 62
   253
370
     9
100
AcDbLine
 10
427.8499999999999
 20
208.9999999999998
 30
0.0
 11
437.8499999999999
 21
208.9999999999998
 31
0.0
  0
LINE
  5
457D
330
4577
100
AcDbEntity
  8
0
  6
________________
 62
     7
370
     9
100
AcDbLine
 10
437.8499999999999
 20
208.9999999999998
 30
0.0
 11
437.8499999999999
 21
222.1946712055912
 31
0.0
  0
LINE
  5
457E
330
4577
100
AcDbEntity
  8
0
  6
________________
 62
     7
370
     9
100
AcDbLine
 10
437.8499999999999
 20
203.4999999999998
 30
0.0
 11
437.8499999999999
 21
208.9999999999998
 31
0.0
  0
ARC
  5
457F
330
4577
100
AcDbEntity
  8
0
  6
________________
 62
     7
370
     9
100
AcDbCircle
 10
-414.8499999999999
 20
207.2499999999997
 30
0.0
 40
3.00000000000004
210
0.0
220
0.0
230
-1.0
100
AcDbArc
 50
170.4059317731401
 51
189.5940682268599
  0
LINE
  5
4580
330
4577
100
AcDbEntity
  8
0
  6
________________
 62
     7
370
     9
100
AcDbLine
 10
417.8080398915499
 20
206.7499999999997
 30
0.0
 11
411.8919601084499
 21
206.7499999999997
 31
0.0
  0
LINE
  5
4581
330
4577
100
AcDbEntity
  8
0
  6
________________
 62
     7
370
     9
100
AcDbLine
 10
411.8919601084499
 20
207.7499999999997
 30
0.0
 11
417.8080398915499
 21
207.7499999999997
 31
0.0
  0
ARC
  5
4582
330
4577
100
AcDbEntity
  8
0
  6
________________
 62
     7
370
     9
100
AcDbCircle
 10
-414.8499999999999
 20
207.2499999999997
 30
0.0
 40
2.99999999999993
210
0.0
220
0.0
230
-1.0
100
AcDbArc
 50
350.4059317731401
 51
9.59406822685986
  0
ARC
  5
4583
330
4577
100
AcDbEntity
  8
0
  6
________________
 62
     7
370
     9
100
AcDbCircle
 10
-414.8499999999999
 20
244.2499999999997
 30
0.0
 40
5.000000000000004
210
0.0
220
0.0
230
-1.0
100
AcDbArc
 50
0.0
 51
90.0
  0
CIRCLE
  5
4584
330
4577
100
AcDbEntity
  8
0
  6
________________
 62
   253
370
     9
100
AcDbCircle
 10
414.8499999999999
 20
244.2499999999997
 30
0.0
 40
3.000000000000003
  0
ARC
  5
4585
330
4577
100
AcDbEntity
  8
0
  6
________________
 62
     7
370
     9
100
AcDbCircle
 10
-414.8499999999999
 20
244.2499999999997
 30
0.0
 40
5.000000000000004
210
0.0
220
0.0
230
-1.0
100
AcDbArc
 50
90.0
 51
0.0
  0
CIRCLE
  5
4586
330
4577
100
AcDbEntity
  8
0
  6
________________
 62
     7
370
     9
100
AcDbCircle
 10
-414.8499999999999
 20
283.2499999999992
 30
0.0
 40
4.200000000000037
210
0.0
220
0.0
230
-1.0
  0
CIRCLE
  5
4587
330
4577
100
AcDbEntity
  8
0
  6
________________
 62
     7
370
     9
100
AcDbCircle
 10
-414.8499999999999
 20
187.2499999999997
 30
0.0
 40
4.200000000000037
210
0.0
220
0.0
230
-1.0
  0
ARC
  5
4588
330
4577
100
AcDbEntity
  8
0
  6
________________
 62
     7
370
     9
100
AcDbCircle
 10
-414.8499999999999
 20
283.2499999999992
 30
0.0
 40
8.000000000000007
210
0.0
220
0.0
230
-1.0
100
AcDbArc
 50
0.0
 51
51.31781254651322
  0
ARC
  5
4589
330
4577
100
AcDbEntity
  8
0
  6
________________
 62
     7
370
     9
100
AcDbCircle
 10
-414.8499999999999
 20
283.2499999999992
 30
0.0
 40
7.999999999999964
210
0.0
220
0.0
230
-1.0
100
AcDbArc
 50
51.31781254651322
 51
128.6248328730418
  0
ARC
  5
458A
330
4577
100
AcDbEntity
  8
0
  6
________________
 62
     7
370
     9
100
AcDbCircle
 10
-414.8499999999999
 20
283.2499999999992
 30
0.0
 40
8.000000000000039
210
0.0
220
0.0
230
-1.0
100
AcDbArc
 50
128.6248328730418
 51
180.0
  0
ARC
  5
458B
330
4577
100
AcDbEntity
  8
0
  6
________________
 62
     7
370
     9
100
AcDbCircle
 10
-414.8499999999999
 20
187.2499999999997
 30
0.0
 40
8.000000000000007
210
0.0
220
0.0
230
-1.0
100
AcDbArc
 50
180.0
 51
231.3178125465105
  0
ARC
  5
458C
330
4577
100
AcDbEntity
  8
0
  6
________________
 62
     7
370
     9
100
AcDbCircle
 10
-414.8499999999999
 20
187.2499999999997
 30
0.0
 40
7.999999999999998
210
0.0
220
0.0
230
-1.0
100
AcDbArc
 50
231.3178125465105
 51
308.6821874534889
  0
ARC
  5
458D
330
4577
100
AcDbEntity
  8
0
  6
________________
 62
     7
370
     9
100
AcDbCircle
 10
-414.8499999999999
 20
187.2499999999997
 30
0.0
 40
7.999999999999974
210
0.0
220
0.0
230
-1.0
100
AcDbArc
 50
308.682187453489
 51
0.0
  0
ARC
  5
458E
330
4577
100
AcDbEntity
  8
0
  6
________________
 62
     7
370
     9
100
AcDbCircle
 10
414.8499999999999
 20
207.2499999999997
 30
0.0
 40
3.000000000000003
100
AcDbArc
 50
90.0
 51
170.4059317731395
  0
ARC
  5
458F
330
4577
100
AcDbEntity
  8
0
  6
________________
 62
     7
370
     9
100
AcDbCircle
 10
414.8499999999999
 20
207.2499999999997
 30
0.0
 40
2.999999999999939
100
AcDbArc
 50
170.4059317731395
 51
189.5940682268605
  0
ARC
  5
4590
330
4577
100
AcDbEntity
  8
0
  6
________________
 62
     7
370
     9
100
AcDbCircle
 10
414.8499999999999
 20
207.2499999999997
 30
0.0
 40
2.999999999999939
100
AcDbArc
 50
189.5940682268605
 51
350.4059317731395
  0
ARC
  5
4591
330
4577
100
AcDbEntity
  8
0
  6
________________
 62
     7
370
     9
100
AcDbCircle
 10
414.8499999999999
 20
207.2499999999997
 30
0.0
 40
3.000000000000049
100
AcDbArc
 50
350.4059317731395
 51
9.594068226860486
  0
ARC
  5
4592
330
4577
100
AcDbEntity
  8
0
  6
________________
 62
     7
370
     9
100
AcDbCircle
 10
414.8499999999999
 20
207.2499999999997
 30
0.0
 40
3.000000000000049
100
AcDbArc
 50
9.594068226860495
 51
90.00000000000001
  0
LINE
  5
4593
330
4577
100
AcDbEntity
  8
0
  6
________________
 62
     7
370
     9
100
AcDbLine
 10
422.8499999999999
 20
283.2499999999992
 30
0.0
 11
422.8499999999999
 21
187.2499999999997
 31
0.0
  0
LINE
  5
4594
330
4577
100
AcDbEntity
  8
0
  6
________________
 62
     7
370
     9
100
AcDbLine
 10
406.8499999999999
 20
187.2499999999997
 30
0.0
 11
406.8499999999999
 21
283.2499999999992
 31
0.0
  0
CIRCLE
  5
4595
330
4577
100
AcDbEntity
  8
0
  6
________________
 62
     7
370
     9
100
AcDbCircle
 10
414.8499999999999
 20
283.2499999999992
 30
0.0
 40
2.099999999999991
  0
CIRCLE
  5
4596
330
4577
100
AcDbEntity
  8
0
  6
________________
 62
     7
370
     9
100
AcDbCircle
 10
414.8499999999999
 20
187.2499999999997
 30
0.0
 40
2.099999999999991
  0
CIRCLE
  5
4597
330
4577
100
AcDbEntity
  8
0
  6
________________
 62
     7
370
     9
100
AcDbCircle
 10
414.8499999999999
 20
283.2499999999992
 30
0.0
 40
2.000000000000002
  0
CIRCLE
  5
4598
330
4577
100
AcDbEntity
  8
0
  6
________________
 62
     7
370
     9
100
AcDbCircle
 10
414.8499999999999
 20
187.2499999999997
 30
0.0
 40
2.000000000000002
  0
LINE
  5
4599
330
4577
100
AcDbEntity
  8
0
  6
________________
 62
     7
370
     9
100
AcDbLine
 10
419.8499999999999
 20
171.4999999999997
 30
0.0
 11
409.8499999999999
 21
171.4999999999997
 31
0.0
  0
ARC
  5
459A
330
4577
100
AcDbEntity
  8
0
  6
________________
 62
     7
370
     9
100
AcDbCircle
 10
-414.8499999999999
 20
187.2499999999997
 30
0.0
 40
8.000000000000043
210
0.0
220
0.0
230
-1.0
100
AcDbArc
 50
231.317812546511
 51
308.682187453489
  0
LINE
  5
459B
330
4577
100
AcDbEntity
  8
0
  6
________________
 62
     7
370
     9
100
AcDbLine
 10
419.8499999999999
 20
171.4999999999997
 30
0.0
 11
419.8499999999999
 21
181.0050020016012
 31
0.0
  0
LINE
  5
459C
330
4577
100
AcDbEntity
  8
0
  6
________________
 62
     7
370
     9
100
AcDbLine
 10
409.8499999999999
 20
171.4999999999997
 30
0.0
 11
409.8499999999999
 21
181.0050020016012
 31
0.0
  0
LINE
  5
459D
330
4577
100
AcDbEntity
  8
0
  6
________________
 62
   253
370
     9
100
AcDbLine
 10
419.8499999999999
 20
299.5000000000002
 30
0.0
 11
409.8499999999999
 21
299.5000000000002
 31
0.0
  0
ARC
  5
459E
330
4577
100
AcDbEntity
  8
0
  6
________________
 62
     7
370
     9
100
AcDbCircle
 10
414.8499999999999
 20
283.2499999999992
 30
0.0
 40
7.999999999999998
100
AcDbArc
 50
51.31781254651326
 51
128.6821874534868
  0
LINE
  5
459F
330
4577
100
AcDbEntity
  8
0
  6
________________
 62
     7
370
     9
100
AcDbLine
 10
409.8499999999999
 20
289.4949979983983
 30
0.0
 11
409.8499999999999
 21
299.5000000000002
 31
0.0
  0
LINE
  5
45A0
330
4577
100
AcDbEntity
  8
0
  6
________________
 62
     7
370
     9
100
AcDbLine
 10
419.8499999999999
 20
289.4949979983983
 30
0.0
 11
419.8499999999999
 21
299.5000000000002
 31
0.0
  0
LINE
  5
45A1
330
4577
100
AcDbEntity
  8
0
  6
________________
 62
     7
370
     9
100
AcDbLine
 10
409.8499999999999
 20
300.0000000000003
 30
0.0
 11
419.8499999999999
 21
300.0000000000003
 31
0.0
  0
LINE
  5
45A2
330
4577
100
AcDbEntity
  8
0
  6
________________
 62
     7
370
     9
100
AcDbLine
 10
409.8499999999999
 20
299.5000000000002
 30
0.0
 11
409.8499999999999
 21
300.0000000000003
 31
0.0
  0
LINE
  5
45A3
330
4577
100
AcDbEntity
  8
0
  6
________________
 62
     7
370
     9
100
AcDbLine
 10
419.8499999999999
 20
300.0000000000003
 30
0.0
 11
419.8499999999999
 21
299.9330127018926
 31
0.0
  0
LINE
  5
45A4
330
4577
100
AcDbEntity
  8
0
  6
________________
 62
     7
370
     9
100
AcDbLine
 10
419.8499999999999
 20
299.9330127018926
 30
0.0
 11
419.8499999999999
 21
299.5000000000002
 31
0.0
  0
LINE
  5
45A5
330
4577
100
AcDbEntity
  8
0
  6
________________
 62
     7
370
     9
100
AcDbLine
 10
401.8499999999999
 20
150.9999999999997
 30
0.0
 11
409.8499999999999
 21
150.9999999999997
 31
0.0
  0
LINE
  5
45A6
330
4577
100
AcDbEntity
  8
0
  6
________________
 62
     7
370
     9
100
AcDbLine
 10
401.8499999999999
 20
301.0000000000003
 30
0.0
 11
401.8499999999999
 21
150.9999999999997
 31
0.0
  0
LINE
  5
45A7
330
4577
100
AcDbEntity
  8
0
  6
________________
 62
     7
370
     9
100
AcDbLine
 10
401.8499999999999
 20
301.0000000000003
 30
0.0
 11
409.8499999999999
 21
301.0000000000003
 31
0.0
  0
ARC
  5
45A8
330
4577
100
AcDbEntity
  8
0
  6
________________
 62
     7
370
     9
100
AcDbCircle
 10
414.8499999999999
 20
283.2499999999992
 30
0.0
 40
7.999999999999964
100
AcDbArc
 50
128.6821874534868
 51
180.0
  0
LINE
  5
45A9
330
4577
100
AcDbEntity
  8
0
  6
________________
 62
     7
370
     9
100
AcDbLine
 10
406.8499999999999
 20
283.2499999999992
 30
0.0
 11
406.8499999999999
 21
187.2499999999997
 31
0.0
  0
ARC
  5
45AA
330
4577
100
AcDbEntity
  8
0
  6
________________
 62
     7
370
     9
100
AcDbCircle
 10
414.8499999999999
 20
187.2499999999997
 30
0.0
 40
8.000000000000007
100
AcDbArc
 50
180.0
 51
231.317812546511
  0
LINE
  5
45AB
330
4577
100
AcDbEntity
  8
0
  6
________________
 62
     7
370
     9
100
AcDbLine
 10
409.8499999999999
 20
301.0000000000003
 30
0.0
 11
409.8499999999999
 21
299.5000000000002
 31
0.0
  0
LINE
  5
45AC
330
4577
100
AcDbEntity
  8
0
  6
________________
 62
     7
370
     9
100
AcDbLine
 10
409.8499999999999
 20
299.5000000000002
 30
0.0
 11
409.8499999999999
 21
289.4949979983983
 31
0.0
  0
LINE
  5
45AD
330
4577
100
AcDbEntity
  8
0
  6
________________
 62
     7
370
     9
100
AcDbLine
 10
409.8499999999999
 20
181.0050020016012
 30
0.0
 11
409.8499999999999
 21
171.4999999999997
 31
0.0
  0
LINE
  5
45AE
330
4577
100
AcDbEntity
  8
0
  6
________________
 62
     7
370
     9
100
AcDbLine
 10
409.8499999999999
 20
171.4999999999997
 30
0.0
 11
409.8499999999999
 21
150.9999999999997
 31
0.0
  0
LINE
  5
45AF
330
4577
100
AcDbEntity
  8
0
  6
________________
 62
     7
370
     9
100
AcDbLine
 10
419.8499999999999
 20
300.9999999999993
 30
0.0
 11
419.8499999999999
 21
299.9330127018926
 31
0.0
  0
LINE
  5
45B0
330
4577
100
AcDbEntity
  8
0
  6
________________
 62
     7
370
     9
100
AcDbLine
 10
419.8499999999999
 20
299.9330127018926
 30
0.0
 11
419.8499999999999
 21
299.5000000000002
 31
0.0
  0
LINE
  5
45B1
330
4577
100
AcDbEntity
  8
0
  6
________________
 62
     7
370
     9
100
AcDbLine
 10
427.8499999999999
 20
300.9999999999993
 30
0.0
 11
419.8499999999999
 21
300.9999999999993
 31
0.0
  0
LINE
  5
45B2
330
4577
100
AcDbEntity
  8
0
  6
________________
 62
     7
370
     9
100
AcDbLine
 10
419.8499999999999
 20
171.4999999999997
 30
0.0
 11
419.8499999999999
 21
150.9999999999997
 31
0.0
  0
LINE
  5
45B3
330
4577
100
AcDbEntity
  8
0
  6
________________
 62
     7
370
     9
100
AcDbLine
 10
427.8499999999999
 20
300.9999999999993
 30
0.0
 11
427.8499999999999
 21
150.9999999999997
 31
0.0
  0
LINE
  5
45B4
330
4577
100
AcDbEntity
  8
0
  6
________________
 62
     7
370
     9
100
AcDbLine
 10
427.8499999999999
 20
150.9999999999997
 30
0.0
 11
419.8499999999999
 21
150.9999999999997
 31
0.0
  0
LINE
  5
45B5
330
4577
100
AcDbEntity
  8
0
  6
________________
 62
     7
370
     9
100
AcDbLine
 10
437.8499999999999
 20
237.7499999999997
 30
0.0
 11
427.8499999999999
 21
237.7499999999997
 31
0.0
  0
LINE
  5
45B6
330
4577
100
AcDbEntity
  8
0
  6
________________
 62
     7
370
     9
100
AcDbLine
 10
437.8499999999999
 20
220.9999999999997
 30
0.0
 11
438.1499999999999
 21
220.9999999999997
 31
0.0
  0
LINE
  5
45B7
330
4577
100
AcDbEntity
  8
0
  6
________________
 62
     7
370
     9
100
AcDbLine
 10
438.1499999999999
 20
236.9999999999997
 30
0.0
 11
437.8499999999999
 21
236.9999999999997
 31
0.0
  0
LINE
  5
45B8
330
4577
100
AcDbEntity
  8
0
  6
________________
 62
     7
370
     9
100
AcDbLine
 10
427.8499999999999
 20
203.4999999999998
 30
0.0
 11
437.8499999999999
 21
203.4999999999998
 31
0.0
  0
ENDBLK
  5
45B9
330
4577
100
AcDbEntity
  8
0
100
AcDbBlockEnd
  0
BLOCK
  5
489E
330
489D
100
AcDbEntity
  8
0
100
AcDbBlockBegin
  2
_D
 70
     0
 10
0.0
 20
0.0
 30
0.0
  3
_D
  1
_D
  0
LINE
  5
489F
330
489D
100
AcDbEntity
  8
QUOTE
 62
     0
370
    -2
100
AcDbLine
 10
133.4547585091
 20
423.0912849474333
 30
0.0
 11
121.8505918425
 21
423.0912849474333
 31
0.0
  0
LINE
  5
48A0
330
489D
100
AcDbEntity
  8
QUOTE
 62
     0
370
    -2
100
AcDbLine
 10
133.4547585091
 20
460.4912849474333
 30
0.0
 11
121.8505918425
 21
460.4912849474333
 31
0.0
  0
LINE
  5
48A1
330
489D
100
AcDbEntity
  8
QUOTE
 62
     0
370
    -2
100
AcDbLine
 10
121.8505918425
 20
426.2912849474333
 30
0.0
 11
121.8505918425
 21
457.2912849474333
 31
0.0
  0
SOLID
  5
48A2
330
489D
100
AcDbEntity
  8
QUOTE
 62
     0
100
AcDbTrace
 10
121.3172585091667
 20
426.2912849474333
 30
0.0
 11
122.3839251758334
 21
426.2912849474333
 31
0.0
 12
121.8505918425
 22
423.0912849474333
 32
0.0
 13
121.8505918425
 23
423.0912849474333
 33
0.0
  0
SOLID
  5
48A3
330
489D
100
AcDbEntity
  8
QUOTE
 62
     0
100
AcDbTrace
 10
122.3839251758334
 20
457.2912849474333
 30
0.0
 11
121.3172585091667
 21
457.2912849474333
 31
0.0
 12
121.8505918425
 22
460.4912849474333
 32
0.0
 13
121.8505918425
 23
460.4912849474333
 33
0.0
  0
MTEXT
  5
48A4
330
489D
100
AcDbEntity
  8
QUOTE
  6
Continuous
 62
     0
100
AcDbMText
 10
117.8505918425
 20
445.2320848107333
 30
0.0
 40
3.2
 41
0.0
 71
     2
 72
     1
  1
\A1;37
  7
SLDTEXTSTYLE0
 11
0.0
 21
1.0
 31
0.0
 73
     1
 44
1.0
  0
POINT
  5
4D16
330
489D
100
AcDbEntity
  8
Defpoints
 62
     0
100
AcDbPoint
 10
133.5172585091
 20
423.0912849474333
 30
0.0
  0
POINT
  5
4D17
330
489D
100
AcDbEntity
  8
Defpoints
 62
     0
100
AcDbPoint
 10
133.5172585091
 20
460.4912849474333
 30
0.0
  0
POINT
  5
4D18
330
489D
100
AcDbEntity
  8
Defpoints
 62
     0
100
AcDbPoint
 10
121.8505918425
 20
460.4912849474333
 30
0.0
  0
ENDBLK
  5
48A5
330
489D
100
AcDbEntity
  8
0
100
AcDbBlockEnd
  0
BLOCK
  5
48A8
330
48A7
100
AcDbEntity
  8
0
100
AcDbBlockBegin
  2
_D_1
 70
     0
 10
0.0
 20
0.0
 30
0.0
  3
_D_1
  1
_D_1
  0
LINE
  5
48A9
330
48A7
100
AcDbEntity
  8
QUOTE
 62
     0
370
    -2
100
AcDbLine
 10
132.0172585091
 20
459.0537849474333
 30
0.0
 11
132.0172585091
 21
477.1704535432333
 31
0.0
  0
LINE
  5
48AA
330
48A7
100
AcDbEntity
  8
QUOTE
 62
     0
370
    -2
100
AcDbLine
 10
298.5172585091
 20
459.0537849474333
 30
0.0
 11
298.5172585091
 21
477.1704535432333
 31
0.0
  0
LINE
  5
48AB
330
48A7
100
AcDbEntity
  8
QUOTE
 62
     0
370
    -2
100
AcDbLine
 10
135.2172585091
 20
477.1704535432333
 30
0.0
 11
295.3172585091
 21
477.1704535432333
 31
0.0
  0
SOLID
  5
48AC
330
48A7
100
AcDbEntity
  8
QUOTE
 62
     0
100
AcDbTrace
 10
135.2172585091
 20
477.7037868765667
 30
0.0
 11
135.2172585091
 21
476.6371202098999
 31
0.0
 12
132.0172585091
 22
477.1704535432333
 32
0.0
 13
132.0172585091
 23
477.1704535432333
 33
0.0
  0
SOLID
  5
48AD
330
48A7
100
AcDbEntity
  8
QUOTE
 62
     0
100
AcDbTrace
 10
295.3172585091
 20
476.6371202098999
 30
0.0
 11
295.3172585091
 21
477.7037868765667
 31
0.0
 12
298.5172585091
 22
477.1704535432333
 32
0.0
 13
298.5172585091
 23
477.1704535432333
 33
0.0
  0
MTEXT
  5
48AE
330
48A7
100
AcDbEntity
  8
QUOTE
  6
Continuous
 62
     0
100
AcDbMText
 10
208.6234444676
 20
481.1704535432334
 30
0.0
 40
3.2
 41
0.0
 71
     2
 72
     1
  1
\A1;167
  7
SLDTEXTSTYLE0
 73
     1
 44
1.0
  0
POINT
  5
4D19
330
48A7
100
AcDbEntity
  8
Defpoints
 62
     0
100
AcDbPoint
 10
132.0172585091
 20
458.9912849474333
 30
0.0
  0
POINT
  5
4D1A
330
48A7
100
AcDbEntity
  8
Defpoints
 62
     0
100
AcDbPoint
 10
298.5172585091
 20
458.9912849474333
 30
0.0
  0
POINT
  5
4D1B
330
48A7
100
AcDbEntity
  8
Defpoints
 62
     0
100
AcDbPoint
 10
298.5172585091
 20
477.1704535432333
 30
0.0
  0
ENDBLK
  5
48AF
330
48A7
100
AcDbEntity
  8
0
100
AcDbBlockEnd
  0
BLOCK
  5
48B2
330
48B1
100
AcDbEntity
  8
0
100
AcDbBlockBegin
  2
_D_2
 70
     0
 10
0.0
 20
0.0
 30
0.0
  3
_D_2
  1
_D_2
  0
LINE
  5
48B3
330
48B1
100
AcDbEntity
  8
QUOTE
 62
     0
370
    -2
100
AcDbLine
 10
298.5172585091
 20
424.5287849474333
 30
0.0
 11
298.5172585091
 21
409.4188978646333
 31
0.0
  0
LINE
  5
48B4
330
48B1
100
AcDbEntity
  8
QUOTE
 62
     0
370
    -2
100
AcDbLine
 10
241.5172585091
 20
441.7287849474334
 30
0.0
 11
241.5172585091
 21
409.4188978646333
 31
0.0
  0
LINE
  5
48B5
330
48B1
100
AcDbEntity
  8
QUOTE
 62
     0
370
    -2
100
AcDbLine
 10
295.3172585091
 20
409.4188978646333
 30
0.0
 11
244.7172585091
 21
409.4188978646333
 31
0.0
  0
SOLID
  5
48B6
330
48B1
100
AcDbEntity
  8
QUOTE
 62
     0
100
AcDbTrace
 10
295.3172585091
 20
408.8855645313
 30
0.0
 11
295.3172585091
 21
409.9522311979667
 31
0.0
 12
298.5172585091
 22
409.4188978646333
 32
0.0
 13
298.5172585091
 23
409.4188978646333
 33
0.0
  0
SOLID
  5
48B7
330
48B1
100
AcDbEntity
  8
QUOTE
 62
     0
100
AcDbTrace
 10
244.7172585091
 20
409.9522311979667
 30
0.0
 11
244.7172585091
 21
408.8855645313
 31
0.0
 12
241.5172585091
 22
409.4188978646333
 32
0.0
 13
241.5172585091
 23
409.4188978646333
 33
0.0
  0
MTEXT
  5
48B8
330
48B1
100
AcDbEntity
  8
QUOTE
  6
Continuous
 62
     0
100
AcDbMText
 10
266.1803795116001
 20
413.4188978646334
 30
0.0
 40
3.2
 41
0.0
 71
     2
 72
     1
  1
\A1;57
  7
SLDTEXTSTYLE0
 73
     1
 44
1.0
  0
POINT
  5
4D1C
330
48B1
100
AcDbEntity
  8
Defpoints
 62
     0
100
AcDbPoint
 10
298.5172585091
 20
424.5912849474333
 30
0.0
  0
POINT
  5
4D1D
330
48B1
100
AcDbEntity
  8
Defpoints
 62
     0
100
AcDbPoint
 10
241.5172585091
 20
441.7912849474334
 30
0.0
  0
POINT
  5
4D1E
330
48B1
100
AcDbEntity
  8
Defpoints
 62
     0
100
AcDbPoint
 10
241.5172585091
 20
409.4188978646333
 30
0.0
  0
ENDBLK
  5
48B9
330
48B1
100
AcDbEntity
  8
0
100
AcDbBlockEnd
  0
BLOCK
  5
48BC
330
48BB
100
AcDbEntity
  8
0
100
AcDbBlockBegin
  2
_D_3
 70
     0
 10
0.0
 20
0.0
 30
0.0
  3
_D_3
  1
_D_3
  0
LINE
  5
48BD
330
48BB
100
AcDbEntity
  8
QUOTE
 62
     0
370
    -2
100
AcDbLine
 10
296.8297585091
 20
447.0412849474334
 30
0.0
 11
312.884948164
 21
447.0412849474334
 31
0.0
  0
LINE
  5
48BE
330
48BB
100
AcDbEntity
  8
QUOTE
 62
     0
370
    -2
100
AcDbLine
 10
295.8797585091
 20
435.5412849474334
 30
0.0
 11
312.884948164
 21
435.5412849474334
 31
0.0
  0
LINE
  5
48BF
330
48BB
100
AcDbEntity
  8
QUOTE
 62
     0
370
    -2
100
AcDbLine
 10
312.884948164
 20
447.0412849474334
 30
0.0
 11
312.884948164
 21
490.6929820177334
 31
0.0
  0
LINE
  5
48C0
330
48BB
100
AcDbEntity
  8
QUOTE
 62
     0
370
    -2
100
AcDbLine
 10
312.884948164
 20
443.8412849474334
 30
0.0
 11
312.884948164
 21
438.7412849474334
 31
0.0
  0
SOLID
  5
48C1
330
48BB
100
AcDbEntity
  8
QUOTE
 62
     0
100
AcDbTrace
 10
313.4182814973334
 20
443.8412849474334
 30
0.0
 11
312.3516148306667
 21
443.8412849474334
 31
0.0
 12
312.884948164
 22
447.0412849474334
 32
0.0
 13
312.884948164
 23
447.0412849474334
 33
0.0
  0
SOLID
  5
48C2
330
48BB
100
AcDbEntity
  8
QUOTE
 62
     0
100
AcDbTrace
 10
312.3516148306667
 20
438.7412849474334
 30
0.0
 11
313.4182814973334
 21
438.7412849474334
 31
0.0
 12
312.884948164
 22
435.5412849474334
 32
0.0
 13
312.884948164
 23
435.5412849474334
 33
0.0
  0
MTEXT
  5
48C3
330
48BB
100
AcDbEntity
  8
QUOTE
  6
Continuous
 62
     0
100
AcDbMText
 10
308.884948164
 20
483.0929820177333
 30
0.0
 40
3.2
 41
0.0
 71
     2
 72
     1
  1
\A1;8÷13.52
  7
SLDTEXTSTYLE0
 11
0.0
 21
1.0
 31
0.0
 73
     1
 44
1.0
  0
POINT
  5
4D1F
330
48BB
100
AcDbEntity
  8
Defpoints
 62
     0
100
AcDbPoint
 10
296.7672585091
 20
447.0412849474334
 30
0.0
  0
POINT
  5
4D20
330
48BB
100
AcDbEntity
  8
Defpoints
 62
     0
100
AcDbPoint
 10
295.8172585091
 20
435.5412849474334
 30
0.0
  0
POINT
  5
4D21
330
48BB
100
AcDbEntity
  8
Defpoints
 62
     0
100
AcDbPoint
 10
312.884948164
 20
435.5412849474334
 30
0.0
  0
ENDBLK
  5
48C4
330
48BB
100
AcDbEntity
  8
0
100
AcDbBlockEnd
  0
BLOCK
  5
48C7
330
48C6
100
AcDbEntity
  8
0
100
AcDbBlockBegin
  2
_D_4
 70
     0
 10
0.0
 20
0.0
 30
0.0
  3
_D_4
  1
_D_4
  0
LINE
  5
48C8
330
48C6
100
AcDbEntity
  8
QUOTE
 62
     0
370
    -2
100
AcDbLine
 10
239.0172585091
 20
437.4611579285333
 30
0.0
 11
263.2587714498842
 21
479.4486899940946
 31
0.0
  0
MTEXT
  5
48C9
330
48C6
100
AcDbEntity
  8
QUOTE
  6
Continuous
 62
     0
100
AcDbMText
 10
256.7946698347392
 20
476.2525375714023
 30
0.0
 40
3.2
 41
0.0
 71
     1
 72
     1
  1
\A1;%%c10
  7
SLDTEXTSTYLE0
 11
0.5000000000019232
 21
0.8660254037833283
 31
0.0
 73
     1
 44
1.0
  0
LINE
  5
48CA
330
48C6
100
AcDbEntity
  8
QUOTE
 62
     0
370
    -2
100
AcDbLine
 10
244.0172585091
 20
446.1214119663333
 30
0.0
 11
239.0172585091
 21
437.4611579285333
 31
0.0
  0
SOLID
  5
48CB
330
48C6
100
AcDbEntity
  8
QUOTE
 62
     0
100
AcDbTrace
 10
240.1553782937551
 20
440.4991058873077
 30
0.0
 11
241.0791387244573
 21
439.9657725539723
 31
0.0
 12
239.0172585091
 22
437.4611579285333
 32
0.0
 13
239.0172585091
 23
437.4611579285333
 33
0.0
  0
POINT
  5
48CC
330
48C6
100
AcDbEntity
  8
Defpoints
 62
     0
100
AcDbPoint
 10
239.0172585091
 20
437.4611579285333
 30
0.0
  0
POINT
  5
48CD
330
48C6
100
AcDbEntity
  8
Defpoints
 62
     0
100
AcDbPoint
 10
244.0172585091
 20
446.1214119663333
 30
0.0
  0
ENDBLK
  5
48CF
330
48C6
100
AcDbEntity
  8
0
100
AcDbBlockEnd
  0
BLOCK
  5
4932
330
4931
100
AcDbEntity
  8
0
100
AcDbBlockBegin
  2
_D_5
 70
     0
 10
0.0
 20
0.0
 30
0.0
  3
_D_5
  1
_D_5
  0
LINE
  5
4933
330
4931
100
AcDbEntity
  8
QUOTE
 62
     0
370
    -2
100
AcDbLine
 10
298.5172585091
 20
203.9798013124333
 30
0.0
 11
298.5172585091
 21
171.4615906343333
 31
0.0
  0
LINE
  5
4934
330
4931
100
AcDbEntity
  8
QUOTE
 62
     0
370
    -2
100
AcDbLine
 10
241.5172585091
 20
202.8990906343333
 30
0.0
 11
241.5172585091
 21
171.4615906343333
 31
0.0
  0
LINE
  5
4935
330
4931
100
AcDbEntity
  8
QUOTE
 62
     0
370
    -2
100
AcDbLine
 10
295.3172585091
 20
171.4615906343333
 30
0.0
 11
244.7172585091
 21
171.4615906343333
 31
0.0
  0
SOLID
  5
4936
330
4931
100
AcDbEntity
  8
QUOTE
 62
     0
100
AcDbTrace
 10
295.3172585091
 20
170.928257301
 30
0.0
 11
295.3172585091
 21
171.9949239676667
 31
0.0
 12
298.5172585091
 22
171.4615906343333
 32
0.0
 13
298.5172585091
 23
171.4615906343333
 33
0.0
  0
SOLID
  5
4937
330
4931
100
AcDbEntity
  8
QUOTE
 62
     0
100
AcDbTrace
 10
244.7172585091
 20
171.9949239676667
 30
0.0
 11
244.7172585091
 21
170.928257301
 31
0.0
 12
241.5172585091
 22
171.4615906343333
 32
0.0
 13
241.5172585091
 23
171.4615906343333
 33
0.0
  0
MTEXT
  5
4938
330
4931
100
AcDbEntity
  8
QUOTE
  6
Continuous
 62
     0
100
AcDbMText
 10
271.0136101617
 20
175.4615906343333
 30
0.0
 40
3.2
 41
0.0
 71
     2
 72
     1
  1
\A1;57
  7
SLDTEXTSTYLE0
 73
     1
 44
1.0
  0
POINT
  5
4D22
330
4931
100
AcDbEntity
  8
Defpoints
 62
     0
100
AcDbPoint
 10
298.5172585091
 20
204.0423013124333
 30
0.0
  0
POINT
  5
4D23
330
4931
100
AcDbEntity
  8
Defpoints
 62
     0
100
AcDbPoint
 10
241.5172585091
 20
202.9615906343333
 30
0.0
  0
POINT
  5
4D24
330
4931
100
AcDbEntity
  8
Defpoints
 62
     0
100
AcDbPoint
 10
241.5172585091
 20
171.4615906343333
 30
0.0
  0
ENDBLK
  5
4939
330
4931
100
AcDbEntity
  8
0
100
AcDbBlockEnd
  0
BLOCK
  5
493C
330
493B
100
AcDbEntity
  8
0
100
AcDbBlockBegin
  2
_D_6
 70
     0
 10
0.0
 20
0.0
 30
0.0
  3
_D_6
  1
_D_6
  0
LINE
  5
493D
330
493B
100
AcDbEntity
  8
QUOTE
 62
     0
370
    -2
100
AcDbLine
 10
297.499047831
 20
202.9615906343333
 30
0.0
 11
347.0172585091
 21
202.9615906343333
 31
0.0
  0
LINE
  5
493E
330
493B
100
AcDbEntity
  8
QUOTE
 62
     0
370
    -2
100
AcDbLine
 10
297.499047831
 20
258.9615906343333
 30
0.0
 11
347.0172585091
 21
258.9615906343333
 31
0.0
  0
LINE
  5
493F
330
493B
100
AcDbEntity
  8
QUOTE
 62
     0
370
    -2
100
AcDbLine
 10
347.0172585091
 20
206.1615906343333
 30
0.0
 11
347.0172585091
 21
255.7615906343333
 31
0.0
  0
SOLID
  5
4940
330
493B
100
AcDbEntity
  8
QUOTE
 62
     0
100
AcDbTrace
 10
346.4839251757667
 20
206.1615906343333
 30
0.0
 11
347.5505918424334
 21
206.1615906343333
 31
0.0
 12
347.0172585091
 22
202.9615906343333
 32
0.0
 13
347.0172585091
 23
202.9615906343333
 33
0.0
  0
SOLID
  5
4941
330
493B
100
AcDbEntity
  8
QUOTE
 62
     0
100
AcDbTrace
 10
347.5505918424334
 20
255.7615906343333
 30
0.0
 11
346.4839251757667
 21
255.7615906343333
 31
0.0
 12
347.0172585091
 22
258.9615906343333
 32
0.0
 13
347.0172585091
 23
258.9615906343333
 33
0.0
  0
MTEXT
  5
4942
330
493B
100
AcDbEntity
  8
QUOTE
  6
Continuous
 62
     0
100
AcDbMText
 10
343.0172585091
 20
231.6822148211334
 30
0.0
 40
3.2
 41
0.0
 71
     2
 72
     1
  1
\A1;56
  7
SLDTEXTSTYLE0
 11
0.0
 21
1.0
 31
0.0
 73
     1
 44
1.0
  0
POINT
  5
4D25
330
493B
100
AcDbEntity
  8
Defpoints
 62
     0
100
AcDbPoint
 10
297.436547831
 20
202.9615906343333
 30
0.0
  0
POINT
  5
4D26
330
493B
100
AcDbEntity
  8
Defpoints
 62
     0
100
AcDbPoint
 10
297.436547831
 20
258.9615906343333
 30
0.0
  0
POINT
  5
4D27
330
493B
100
AcDbEntity
  8
Defpoints
 62
     0
100
AcDbPoint
 10
347.0172585091
 20
258.9615906343333
 30
0.0
  0
ENDBLK
  5
4943
330
493B
100
AcDbEntity
  8
0
100
AcDbBlockEnd
  0
BLOCK
  5
495C
330
495B
100
AcDbEntity
  8
0
100
AcDbBlockBegin
  2
_D_7
 70
     0
 10
0.0
 20
0.0
 30
0.0
  3
_D_7
  1
_D_7
  0
LINE
  5
495D
330
495B
100
AcDbEntity
  8
QUOTE
 62
     0
370
    -2
100
AcDbLine
 10
293.0192584154
 20
55.63445421253333
 30
0.0
 11
293.0192584154
 21
1.696954212533342
 31
0.0
  0
LINE
  5
495E
330
495B
100
AcDbEntity
  8
QUOTE
 62
     0
370
    -2
100
AcDbLine
 10
135.0192584154
 20
11.63445421253334
 30
0.0
 11
135.0192584154
 21
1.696954212533342
 31
0.0
  0
LINE
  5
495F
330
495B
100
AcDbEntity
  8
QUOTE
 62
     0
370
    -2
100
AcDbLine
 10
289.8192584154
 20
1.696954212533342
 30
0.0
 11
138.2192584154
 21
1.696954212533342
 31
0.0
  0
SOLID
  5
4960
330
495B
100
AcDbEntity
  8
QUOTE
 62
     0
100
AcDbTrace
 10
289.8192584154
 20
1.163620879200009
 30
0.0
 11
289.8192584154
 21
2.230287545866675
 31
0.0
 12
293.0192584154
 22
1.696954212533342
 32
0.0
 13
293.0192584154
 23
1.696954212533342
 33
0.0
  0
SOLID
  5
4961
330
495B
100
AcDbEntity
  8
QUOTE
 62
     0
100
AcDbTrace
 10
138.2192584154
 20
2.230287545866675
 30
0.0
 11
138.2192584154
 21
1.163620879200009
 31
0.0
 12
135.0192584154
 22
1.696954212533342
 32
0.0
 13
135.0192584154
 23
1.696954212533342
 33
0.0
  0
MTEXT
  5
4962
330
495B
100
AcDbEntity
  8
QUOTE
  6
Continuous
 62
     0
100
AcDbMText
 10
209.4774458557
 20
5.696954212533342
 30
0.0
 40
3.2
 41
0.0
 71
     2
 72
     1
  1
\A1;158
  7
SLDTEXTSTYLE0
 73
     1
 44
1.0
  0
POINT
  5
4D28
330
495B
100
AcDbEntity
  8
Defpoints
 62
     0
100
AcDbPoint
 10
293.0192584154
 20
55.69695421253333
 30
0.0
  0
POINT
  5
4D29
330
495B
100
AcDbEntity
  8
Defpoints
 62
     0
100
AcDbPoint
 10
135.0192584154
 20
11.69695421253334
 30
0.0
  0
POINT
  5
4D2A
330
495B
100
AcDbEntity
  8
Defpoints
 62
     0
100
AcDbPoint
 10
135.0192584154
 20
1.696954212533342
 30
0.0
  0
ENDBLK
  5
4963
330
495B
100
AcDbEntity
  8
0
100
AcDbBlockEnd
  0
BLOCK
  5
4966
330
4965
100
AcDbEntity
  8
0
100
AcDbBlockBegin
  2
_D_8
 70
     0
 10
0.0
 20
0.0
 30
0.0
  3
_D_8
  1
_D_8
  0
LINE
  5
4967
330
4965
100
AcDbEntity
  8
QUOTE
 62
     0
370
    -2
100
AcDbLine
 10
159.9458837085
 20
55.69695421253333
 30
0.0
 11
134.2199435004
 21
55.69695421253333
 31
0.0
  0
LINE
  5
4968
330
4965
100
AcDbEntity
  8
QUOTE
 62
     0
370
    -2
100
AcDbLine
 10
134.9567584154
 20
11.69695421253334
 30
0.0
 11
134.2199435004
 21
11.69695421253334
 31
0.0
  0
LINE
  5
4969
330
4965
100
AcDbEntity
  8
QUOTE
 62
     0
370
    -2
100
AcDbLine
 10
134.2199435004
 20
52.49695421253333
 30
0.0
 11
134.2199435004
 21
14.89695421253334
 31
0.0
  0
SOLID
  5
496A
330
4965
100
AcDbEntity
  8
QUOTE
 62
     0
100
AcDbTrace
 10
134.7532768337334
 20
52.49695421253333
 30
0.0
 11
133.6866101670667
 21
52.49695421253333
 31
0.0
 12
134.2199435004
 22
55.69695421253333
 32
0.0
 13
134.2199435004
 23
55.69695421253333
 33
0.0
  0
SOLID
  5
496B
330
4965
100
AcDbEntity
  8
QUOTE
 62
     0
100
AcDbTrace
 10
133.6866101670667
 20
14.89695421253334
 30
0.0
 11
134.7532768337334
 21
14.89695421253334
 31
0.0
 12
134.2199435004
 22
11.69695421253334
 32
0.0
 13
134.2199435004
 23
11.69695421253334
 33
0.0
  0
MTEXT
  5
496C
330
4965
100
AcDbEntity
  8
QUOTE
  6
Continuous
 62
     0
100
AcDbMText
 10
130.2199435004
 20
31.82715426203333
 30
0.0
 40
3.2
 41
0.0
 71
     2
 72
     1
  1
\A1;44
  7
SLDTEXTSTYLE0
 11
0.0
 21
1.0
 31
0.0
 73
     1
 44
1.0
  0
POINT
  5
4D2B
330
4965
100
AcDbEntity
  8
Defpoints
 62
     0
100
AcDbPoint
 10
160.0083837085
 20
55.69695421253333
 30
0.0
  0
POINT
  5
4D2C
330
4965
100
AcDbEntity
  8
Defpoints
 62
     0
100
AcDbPoint
 10
135.0192584154
 20
11.69695421253334
 30
0.0
  0
POINT
  5
4D2D
330
4965
100
AcDbEntity
  8
Defpoints
 62
     0
100
AcDbPoint
 10
134.2199435004
 20
11.69695421253334
 30
0.0
  0
ENDBLK
  5
496D
330
4965
100
AcDbEntity
  8
0
100
AcDbBlockEnd
  0
BLOCK
  5
4970
330
496F
100
AcDbEntity
  8
0
100
AcDbBlockBegin
  2
_D_9
 70
     0
 10
0.0
 20
0.0
 30
0.0
  3
_D_9
  1
_D_9
  0
LINE
  5
4971
330
496F
100
AcDbEntity
  8
QUOTE
 62
     0
370
    -2
100
AcDbLine
 10
135.0817584154
 20
11.69695421253334
 30
0.0
 11
136.3293247751
 21
11.69695421253334
 31
0.0
  0
LINE
  5
4972
330
496F
100
AcDbEntity
  8
QUOTE
 62
     0
370
    -2
100
AcDbLine
 10
144.9567584154
 20
61.69695421253333
 30
0.0
 11
136.3293247751
 21
61.69695421253333
 31
0.0
  0
LINE
  5
4973
330
496F
100
AcDbEntity
  8
QUOTE
 62
     0
370
    -2
100
AcDbLine
 10
136.3293247751
 20
14.89695421253334
 30
0.0
 11
136.3293247751
 21
58.49695421253333
 31
0.0
  0
SOLID
  5
4974
330
496F
100
AcDbEntity
  8
QUOTE
 62
     0
100
AcDbTrace
 10
135.7959914417667
 20
14.89695421253334
 30
0.0
 11
136.8626581084334
 21
14.89695421253334
 31
0.0
 12
136.3293247751
 22
11.69695421253334
 32
0.0
 13
136.3293247751
 23
11.69695421253334
 33
0.0
  0
SOLID
  5
4975
330
496F
100
AcDbEntity
  8
QUOTE
 62
     0
100
AcDbTrace
 10
136.8626581084334
 20
58.49695421253333
 30
0.0
 11
135.7959914417667
 21
58.49695421253333
 31
0.0
 12
136.3293247751
 22
61.69695421253333
 32
0.0
 13
136.3293247751
 23
61.69695421253333
 33
0.0
  0
MTEXT
  5
4976
330
496F
100
AcDbEntity
  8
QUOTE
  6
Continuous
 62
     0
100
AcDbMText
 10
132.3293247751
 20
36.14321510883333
 30
0.0
 40
3.2
 41
0.0
 71
     2
 72
     1
  1
\A1;50
  7
SLDTEXTSTYLE0
 11
0.0
 21
1.0
 31
0.0
 73
     1
 44
1.0
  0
POINT
  5
4D2E
330
496F
100
AcDbEntity
  8
Defpoints
 62
     0
100
AcDbPoint
 10
135.0192584154
 20
11.69695421253334
 30
0.0
  0
POINT
  5
4D2F
330
496F
100
AcDbEntity
  8
Defpoints
 62
     0
100
AcDbPoint
 10
145.0192584154
 20
61.69695421253333
 30
0.0
  0
POINT
  5
4D30
330
496F
100
AcDbEntity
  8
Defpoints
 62
     0
100
AcDbPoint
 10
136.3293247751
 20
61.69695421253333
 30
0.0
  0
ENDBLK
  5
4977
330
496F
100
AcDbEntity
  8
0
100
AcDbBlockEnd
  0
BLOCK
  5
497A
330
4979
100
AcDbEntity
  8
0
100
AcDbBlockBegin
  2
_D_10
 70
     0
 10
0.0
 20
0.0
 30
0.0
  3
_D_10
  1
_D_10
  0
LINE
  5
497B
330
4979
100
AcDbEntity
  8
QUOTE
 62
     0
370
    -2
100
AcDbLine
 10
148.5192584154
 20
61.75945421253333
 30
0.0
 11
148.5192584154
 21
73.42783938013334
 31
0.0
  0
LINE
  5
497C
330
4979
100
AcDbEntity
  8
QUOTE
 62
     0
370
    -2
100
AcDbLine
 10
145.0192584154
 20
61.75945421253333
 30
0.0
 11
145.0192584154
 21
73.42783938013334
 31
0.0
  0
LINE
  5
497D
330
4979
100
AcDbEntity
  8
QUOTE
 62
     0
370
    -2
100
AcDbLine
 10
145.0192584154
 20
73.42783938013334
 30
0.0
 11
123.6990705875
 21
73.42783938013334
 31
0.0
  0
LINE
  5
497E
330
4979
100
AcDbEntity
  8
QUOTE
 62
     0
370
    -2
100
AcDbLine
 10
148.5192584154
 20
73.42783938013334
 30
0.0
 11
145.0192584154
 21
73.42783938013334
 31
0.0
  0
LINE
  5
497F
330
4979
100
AcDbEntity
  8
QUOTE
 62
     0
370
    -2
100
AcDbLine
 10
151.7192584154
 20
73.42783938013334
 30
0.0
 11
154.9192584154
 21
73.42783938013334
 31
0.0
  0
LINE
  5
4980
330
4979
100
AcDbEntity
  8
QUOTE
 62
     0
370
    -2
100
AcDbLine
 10
141.8192584154
 20
73.42783938013334
 30
0.0
 11
138.6192584154001
 21
73.42783938013334
 31
0.0
  0
SOLID
  5
4981
330
4979
100
AcDbEntity
  8
QUOTE
 62
     0
100
AcDbTrace
 10
151.7192584154
 20
73.96117271346667
 30
0.0
 11
151.7192584154
 21
72.8945060468
 31
0.0
 12
148.5192584154
 22
73.42783938013334
 32
0.0
 13
148.5192584154
 23
73.42783938013334
 33
0.0
  0
SOLID
  5
4982
330
4979
100
AcDbEntity
  8
QUOTE
 62
     0
100
AcDbTrace
 10
141.8192584154
 20
72.8945060468
 30
0.0
 11
141.8192584154
 21
73.96117271346667
 31
0.0
 12
145.0192584154
 22
73.42783938013334
 32
0.0
 13
145.0192584154
 23
73.42783938013334
 33
0.0
  0
MTEXT
  5
4D31
330
4979
100
AcDbEntity
  8
QUOTE
  6
Continuous
 62
     0
100
AcDbMText
 10
126.8990705875
 20
77.42783938013332
 30
0.0
 40
3.2
 41
0.0
 71
     2
 72
     1
  1
\A1;3.5
  7
SLDTEXTSTYLE0
 73
     1
 44
1.0
  0
POINT
  5
4D32
330
4979
100
AcDbEntity
  8
Defpoints
 62
     0
100
AcDbPoint
 10
148.5192584154
 20
61.69695421253333
 30
0.0
  0
POINT
  5
4D33
330
4979
100
AcDbEntity
  8
Defpoints
 62
     0
100
AcDbPoint
 10
145.0192584154
 20
61.69695421253333
 30
0.0
  0
POINT
  5
4D34
330
4979
100
AcDbEntity
  8
Defpoints
 62
     0
100
AcDbPoint
 10
145.0192584154
 20
73.42783938013334
 30
0.0
  0
ENDBLK
  5
4983
330
4979
100
AcDbEntity
  8
0
100
AcDbBlockEnd
  0
BLOCK
  5
4986
330
4985
100
AcDbEntity
  8
0
100
AcDbBlockBegin
  2
_D_11
 70
     0
 10
0.0
 20
0.0
 30
0.0
  3
_D_11
  1
_D_11
  0
LINE
  5
4987
330
4985
100
AcDbEntity
  8
QUOTE
 62
     0
370
    -2
100
AcDbLine
 10
134.7512746752813
 20
59.99204371857311
 30
0.0
 11
81.64196181332893
 21
102.8969133545536
 31
0.0
  0
MTEXT
  5
4988
330
4985
100
AcDbEntity
  8
QUOTE
  6
Continuous
 62
     0
100
AcDbMText
 10
84.77792734485834
 20
105.5056908814922
 30
0.0
 40
3.2
 41
0.0
 71
     1
 72
     1
  1
\A1;R10
  7
SLDTEXTSTYLE0
 11
0.7778775560683659
 21
-0.6284158716686795
 31
0.0
 73
     1
 44
1.0
  0
SOLID
  5
4989
330
4985
100
AcDbEntity
  8
QUOTE
 62
     0
100
AcDbTrace
 10
134.4161195437246
 20
59.57717568866999
 30
0.0
 11
135.0864298068379
 21
60.40691174847624
 31
0.0
 12
137.2404828547
 22
57.98111292923334
 32
0.0
 13
137.2404828547
 23
57.98111292923334
 33
0.0
  0
POINT
  5
498A
330
4985
100
AcDbEntity
  8
Defpoints
 62
     0
100
AcDbPoint
 10
137.2404828547
 20
57.98111292923334
 30
0.0
  0
POINT
  5
4D35
330
4985
100
AcDbEntity
  8
Defpoints
 62
     0
100
AcDbPoint
 10
145.0192584154
 20
51.69695421253333
 30
0.0
  0
ENDBLK
  5
498B
330
4985
100
AcDbEntity
  8
0
100
AcDbBlockEnd
  0
BLOCK
  5
498E
330
498D
100
AcDbEntity
  8
0
100
AcDbBlockBegin
  2
_D_12
 70
     0
 10
0.0
 20
0.0
 30
0.0
  3
_D_12
  1
_D_12
  0
LINE
  5
498F
330
498D
100
AcDbEntity
  8
QUOTE
 62
     0
370
    -2
100
AcDbLine
 10
157.853067927097
 20
61.03076372423029
 30
0.0
 11
186.2003170179343
 21
89.37801281506763
 31
0.0
  0
MTEXT
  5
4990
330
498D
100
AcDbEntity
  8
QUOTE
  6
Continuous
 62
     0
100
AcDbMText
 10
179.1292492060688
 20
87.96379925269453
 30
0.0
 40
3.2
 41
0.0
 71
     1
 72
     1
  1
\A1;R10
  7
SLDTEXTSTYLE0
 11
0.7071067811865464
 21
0.7071067811865486
 31
0.0
 73
     1
 44
1.0
  0
SOLID
  5
4991
330
498D
100
AcDbEntity
  8
QUOTE
 62
     0
100
AcDbTrace
 10
157.4759443104641
 20
61.40788734086311
 30
0.0
 11
158.2301915437298
 21
60.65364010759747
 31
0.0
 12
155.5903262273
 22
58.76802202443334
 32
0.0
 13
155.5903262273
 23
58.76802202443334
 33
0.0
  0
POINT
  5
4992
330
498D
100
AcDbEntity
  8
Defpoints
 62
     0
100
AcDbPoint
 10
155.5903262273
 20
58.76802202443334
 30
0.0
  0
POINT
  5
4D36
330
498D
100
AcDbEntity
  8
Defpoints
 62
     0
100
AcDbPoint
 10
148.5192584154
 20
51.69695421253333
 30
0.0
  0
ENDBLK
  5
4993
330
498D
100
AcDbEntity
  8
0
100
AcDbBlockEnd
  0
BLOCK
  5
4996
330
4995
100
AcDbEntity
  8
0
100
AcDbBlockBegin
  2
_D_13
 70
     0
 10
0.0
 20
0.0
 30
0.0
  3
_D_13
  1
_D_13
  0
LINE
  5
4997
330
4995
100
AcDbEntity
  8
QUOTE
 62
     0
370
    -2
100
AcDbLine
 10
158.1448865837683
 20
52.74228826330932
 30
0.0
 11
149.6325917621207
 21
20.97397150006843
 31
0.0
  0
MTEXT
  5
4998
330
4995
100
AcDbEntity
  8
QUOTE
  6
Continuous
 62
     0
100
AcDbMText
 10
145.9759436930487
 20
22.78198834151418
 30
0.0
 40
3.2
 41
0.0
 71
     1
 72
     1
  1
\A1;R4
  7
SLDTEXTSTYLE0
 11
0.2588190451036838
 21
0.9659258262887566
 31
0.0
 73
     1
 44
1.0
  0
SOLID
  5
4999
330
4995
100
AcDbEntity
  8
QUOTE
 62
     0
100
AcDbTrace
 10
158.6600470244556
 20
52.60425143925402
 30
0.0
 11
157.6297261430809
 21
52.88032508736462
 31
0.0
 12
158.9731075281
 22
55.83325090743334
 32
0.0
 13
158.9731075281
 23
55.83325090743334
 33
0.0
  0
POINT
  5
499A
330
4995
100
AcDbEntity
  8
Defpoints
 62
     0
100
AcDbPoint
 10
158.9731075281
 20
55.83325090743334
 30
0.0
  0
POINT
  5
4D37
330
4995
100
AcDbEntity
  8
Defpoints
 62
     0
100
AcDbPoint
 10
160.0083837085
 20
59.69695421253333
 30
0.0
  0
ENDBLK
  5
499B
330
4995
100
AcDbEntity
  8
0
100
AcDbBlockEnd
  0
BLOCK
  5
49B9
330
49B8
100
AcDbEntity
  8
0
100
AcDbBlockBegin
  2
_D_14
 70
     0
 10
0.0
 20
0.0
 30
0.0
  3
_D_14
  1
_D_14
  0
LINE
  5
49BA
330
49B8
100
AcDbEntity
  8
QUOTE
 62
     0
370
    -2
100
AcDbLine
 10
491.2971202639
 20
10.47083333333333
 30
0.0
 11
491.2971202639
 21
0.5333333333333314
 31
0.0
  0
LINE
  5
49BB
330
49B8
100
AcDbEntity
  8
QUOTE
 62
     0
370
    -2
100
AcDbLine
 10
646.2971202639001
 20
10.47083333333333
 30
0.0
 11
646.2971202639001
 21
0.5333333333333314
 31
0.0
  0
LINE
  5
49BC
330
49B8
100
AcDbEntity
  8
QUOTE
 62
     0
370
    -2
100
AcDbLine
 10
494.4971202639
 20
0.5333333333333314
 30
0.0
 11
643.0971202639
 21
0.5333333333333314
 31
0.0
  0
SOLID
  5
49BD
330
49B8
100
AcDbEntity
  8
QUOTE
 62
     0
100
AcDbTrace
 10
494.4971202639
 20
1.066666666666665
 30
0.0
 11
494.4971202639
 21
-0.0000000000000019
 31
0.0
 12
491.2971202639
 22
0.5333333333333314
 32
0.0
 13
491.2971202639
 23
0.5333333333333314
 33
0.0
  0
SOLID
  5
49BE
330
49B8
100
AcDbEntity
  8
QUOTE
 62
     0
100
AcDbTrace
 10
643.0971202639
 20
-0.0000000000000019
 30
0.0
 11
643.0971202639
 21
1.066666666666665
 31
0.0
 12
646.2971202639001
 22
0.5333333333333314
 32
0.0
 13
646.2971202639001
 23
0.5333333333333314
 33
0.0
  0
MTEXT
  5
49BF
330
49B8
100
AcDbEntity
  8
QUOTE
  6
Continuous
 62
     0
100
AcDbMText
 10
586.7797468574
 20
4.533333333333331
 30
0.0
 40
3.2
 41
0.0
 71
     2
 72
     1
  1
\A1;155
  7
SLDTEXTSTYLE0
 73
     1
 44
1.0
  0
POINT
  5
4D38
330
49B8
100
AcDbEntity
  8
Defpoints
 62
     0
100
AcDbPoint
 10
491.2971202639
 20
10.53333333333333
 30
0.0
  0
POINT
  5
4D39
330
49B8
100
AcDbEntity
  8
Defpoints
 62
     0
100
AcDbPoint
 10
646.2971202639001
 20
10.53333333333333
 30
0.0
  0
POINT
  5
4D3A
330
49B8
100
AcDbEntity
  8
Defpoints
 62
     0
100
AcDbPoint
 10
646.2971202639001
 20
0.5333333333333314
 30
0.0
  0
ENDBLK
  5
49C0
330
49B8
100
AcDbEntity
  8
0
100
AcDbBlockEnd
  0
BLOCK
  5
49C3
330
49C2
100
AcDbEntity
  8
0
100
AcDbBlockBegin
  2
_D_15
 70
     0
 10
0.0
 20
0.0
 30
0.0
  3
_D_15
  1
_D_15
  0
LINE
  5
49C4
330
49C2
100
AcDbEntity
  8
QUOTE
 62
     0
370
    -2
100
AcDbLine
 10
491.2346202639
 20
10.53333333333333
 30
0.0
 11
488.018325053
 21
10.53333333333333
 31
0.0
  0
LINE
  5
49C5
330
49C2
100
AcDbEntity
  8
QUOTE
 62
     0
370
    -2
100
AcDbLine
 10
516.223745557
 20
54.53333333333334
 30
0.0
 11
488.018325053
 21
54.53333333333334
 31
0.0
  0
LINE
  5
49C6
330
49C2
100
AcDbEntity
  8
QUOTE
 62
     0
370
    -2
100
AcDbLine
 10
488.018325053
 20
13.73333333333333
 30
0.0
 11
488.018325053
 21
51.33333333333334
 31
0.0
  0
SOLID
  5
49C7
330
49C2
100
AcDbEntity
  8
QUOTE
 62
     0
100
AcDbTrace
 10
487.4849917196667
 20
13.73333333333333
 30
0.0
 11
488.5516583863334
 21
13.73333333333333
 31
0.0
 12
488.018325053
 22
10.53333333333333
 32
0.0
 13
488.018325053
 23
10.53333333333333
 33
0.0
  0
SOLID
  5
49C8
330
49C2
100
AcDbEntity
  8
QUOTE
 62
     0
100
AcDbTrace
 10
488.5516583863334
 20
51.33333333333334
 30
0.0
 11
487.4849917196667
 21
51.33333333333334
 31
0.0
 12
488.018325053
 22
54.53333333333334
 32
0.0
 13
488.018325053
 23
54.53333333333334
 33
0.0
  0
MTEXT
  5
4D3B
330
49C2
100
AcDbEntity
  8
QUOTE
  6
Continuous
 62
     0
100
AcDbMText
 10
484.018325053
 20
35.00720779353334
 30
0.0
 40
3.2
 41
0.0
 71
     2
 72
     1
  1
\A1;44
  7
SLDTEXTSTYLE0
 11
0.0
 21
1.0
 31
0.0
 73
     1
 44
1.0
  0
POINT
  5
4D3C
330
49C2
100
AcDbEntity
  8
Defpoints
 62
     0
100
AcDbPoint
 10
491.2971202639
 20
10.53333333333333
 30
0.0
  0
POINT
  5
4D3D
330
49C2
100
AcDbEntity
  8
Defpoints
 62
     0
100
AcDbPoint
 10
516.286245557
 20
54.53333333333334
 30
0.0
  0
POINT
  5
4D3E
330
49C2
100
AcDbEntity
  8
Defpoints
 62
     0
100
AcDbPoint
 10
488.018325053
 20
54.53333333333334
 30
0.0
  0
ENDBLK
  5
49C9
330
49C2
100
AcDbEntity
  8
0
100
AcDbBlockEnd
  0
BLOCK
  5
49CC
330
49CB
100
AcDbEntity
  8
0
100
AcDbBlockBegin
  2
_D_16
 70
     0
 10
0.0
 20
0.0
 30
0.0
  3
_D_16
  1
_D_16
  0
LINE
  5
49CD
330
49CB
100
AcDbEntity
  8
QUOTE
 62
     0
370
    -2
100
AcDbLine
 10
636.3596202639001
 20
60.53333333333334
 30
0.0
 11
659.5969085216
 21
60.53333333333334
 31
0.0
  0
LINE
  5
49CE
330
49CB
100
AcDbEntity
  8
QUOTE
 62
     0
370
    -2
100
AcDbLine
 10
646.3596202639001
 20
10.53333333333333
 30
0.0
 11
659.5969085216
 21
10.53333333333333
 31
0.0
  0
LINE
  5
49CF
330
49CB
100
AcDbEntity
  8
QUOTE
 62
     0
370
    -2
100
AcDbLine
 10
659.5969085216
 20
57.33333333333334
 30
0.0
 11
659.5969085216
 21
13.73333333333333
 31
0.0
  0
SOLID
  5
49D0
330
49CB
100
AcDbEntity
  8
QUOTE
 62
     0
100
AcDbTrace
 10
660.1302418549333
 20
57.33333333333334
 30
0.0
 11
659.0635751882667
 21
57.33333333333334
 31
0.0
 12
659.5969085216
 22
60.53333333333334
 32
0.0
 13
659.5969085216
 23
60.53333333333334
 33
0.0
  0
SOLID
  5
49D1
330
49CB
100
AcDbEntity
  8
QUOTE
 62
     0
100
AcDbTrace
 10
659.0635751882667
 20
13.73333333333333
 30
0.0
 11
660.1302418549333
 21
13.73333333333333
 31
0.0
 12
659.5969085216
 22
10.53333333333333
 32
0.0
 13
659.5969085216
 23
10.53333333333333
 33
0.0
  0
MTEXT
  5
4D3F
330
49CB
100
AcDbEntity
  8
QUOTE
  6
Continuous
 62
     0
100
AcDbMText
 10
655.5969085216
 20
35.00720779353334
 30
0.0
 40
3.2
 41
0.0
 71
     2
 72
     1
  1
\A1;50
  7
SLDTEXTSTYLE0
 11
0.0
 21
1.0
 31
0.0
 73
     1
 44
1.0
  0
POINT
  5
4D40
330
49CB
100
AcDbEntity
  8
Defpoints
 62
     0
100
AcDbPoint
 10
636.2971202639001
 20
60.53333333333334
 30
0.0
  0
POINT
  5
4D41
330
49CB
100
AcDbEntity
  8
Defpoints
 62
     0
100
AcDbPoint
 10
646.2971202639001
 20
10.53333333333333
 30
0.0
  0
POINT
  5
4D42
330
49CB
100
AcDbEntity
  8
Defpoints
 62
     0
100
AcDbPoint
 10
659.5969085216
 20
10.53333333333333
 30
0.0
  0
ENDBLK
  5
49D2
330
49CB
100
AcDbEntity
  8
0
100
AcDbBlockEnd
  0
BLOCK
  5
49D5
330
49D4
100
AcDbEntity
  8
0
100
AcDbBlockBegin
  2
_D_17
 70
     0
 10
0.0
 20
0.0
 30
0.0
  3
_D_17
  1
_D_17
  0
LINE
  5
49D6
330
49D4
100
AcDbEntity
  8
QUOTE
 62
     0
370
    -2
100
AcDbLine
 10
646.6203058389209
 20
58.75962287266054
 30
0.0
 11
679.2552609118425
 21
84.76560596594076
 31
0.0
  0
MTEXT
  5
49D7
330
49D4
100
AcDbEntity
  8
QUOTE
  6
Continuous
 62
     0
100
AcDbMText
 10
672.0700888203942
 20
84.15462150110343
 30
0.0
 40
3.2
 41
0.0
 71
     1
 72
     1
  1
\A1;R10
  7
SLDTEXTSTYLE0
 11
0.7820595132565462
 21
0.6232037529772538
 31
0.0
 73
     1
 44
1.0
  0
SOLID
  5
49D8
330
49D4
100
AcDbEntity
  8
QUOTE
 62
     0
100
AcDbTrace
 10
646.2879305039997
 20
59.1767212797307
 30
0.0
 11
646.952681173842
 21
58.34252446559039
 31
0.0
 12
644.1177153965
 22
56.76537086313333
 32
0.0
 13
644.1177153965
 23
56.76537086313333
 33
0.0
  0
POINT
  5
49D9
330
49D4
100
AcDbEntity
  8
Defpoints
 62
     0
100
AcDbPoint
 10
644.1177153965
 20
56.76537086313333
 30
0.0
  0
POINT
  5
4D43
330
49D4
100
AcDbEntity
  8
Defpoints
 62
     0
100
AcDbPoint
 10
636.2971202639001
 20
50.53333333333334
 30
0.0
  0
ENDBLK
  5
49DA
330
49D4
100
AcDbEntity
  8
0
100
AcDbBlockEnd
  0
BLOCK
  5
49DD
330
49DC
100
AcDbEntity
  8
0
100
AcDbBlockBegin
  2
_D_18
 70
     0
 10
0.0
 20
0.0
 30
0.0
  3
_D_18
  1
_D_18
  0
LINE
  5
49DE
330
49DC
100
AcDbEntity
  8
QUOTE
 62
     0
370
    -2
100
AcDbLine
 10
623.463310752203
 20
59.86714284503028
 30
0.0
 11
593.8377741824655
 21
89.49267941476737
 31
0.0
  0
MTEXT
  5
49DF
330
49DC
100
AcDbEntity
  8
QUOTE
  6
Continuous
 62
     0
100
AcDbMText
 10
597.2318867321609
 20
91.75542111456436
 30
0.0
 40
3.2
 41
0.0
 71
     1
 72
     1
  1
\A1;R10
  7
SLDTEXTSTYLE0
 11
0.7071067811865521
 21
-0.7071067811865429
 31
0.0
 73
     1
 44
1.0
  0
SOLID
  5
49E0
330
49DC
100
AcDbEntity
  8
QUOTE
 62
     0
100
AcDbTrace
 10
623.0861871355702
 20
59.49001922839745
 30
0.0
 11
623.8404343688359
 21
60.24426646166311
 31
0.0
 12
625.726052452
 22
57.60440114523334
 32
0.0
 13
625.726052452
 23
57.60440114523334
 33
0.0
  0
POINT
  5
49E1
330
49DC
100
AcDbEntity
  8
Defpoints
 62
     0
100
AcDbPoint
 10
625.726052452
 20
57.60440114523334
 30
0.0
  0
POINT
  5
4D44
330
49DC
100
AcDbEntity
  8
Defpoints
 62
     0
100
AcDbPoint
 10
632.7971202639001
 20
50.53333333333334
 30
0.0
  0
ENDBLK
  5
49E2
330
49DC
100
AcDbEntity
  8
0
100
AcDbBlockEnd
  0
BLOCK
  5
49E5
330
49E4
100
AcDbEntity
  8
0
100
AcDbBlockBegin
  2
_D_19
 70
     0
 10
0.0
 20
0.0
 30
0.0
  3
_D_19
  1
_D_19
  0
LINE
  5
49E6
330
49E4
100
AcDbEntity
  8
QUOTE
 62
     0
370
    -2
100
AcDbLine
 10
622.1509055078545
 20
51.38284371182005
 30
0.0
 11
626.1960857276588
 21
17.06719821052852
 31
0.0
  0
MTEXT
  5
49E7
330
49E4
100
AcDbEntity
  8
QUOTE
  6
Continuous
 62
     0
100
AcDbMText
 10
629.6066396037687
 20
22.30247492319146
 30
0.0
 40
3.2
 41
0.0
 71
     1
 72
     1
  1
\A1;R4
  7
SLDTEXTSTYLE0
 11
0.1170709079232626
 21
-0.9931235585354035
 31
0.0
 73
     1
 44
1.0
  0
SOLID
  5
49E8
330
49E4
100
AcDbEntity
  8
QUOTE
 62
     0
100
AcDbTrace
 10
622.6805714057401
 20
51.44528152937912
 30
0.0
 11
621.6212396099689
 21
51.32040589426098
 31
0.0
 12
621.7762786025
 22
54.56083909913334
 32
0.0
 13
621.7762786025
 23
54.56083909913334
 33
0.0
  0
POINT
  5
49E9
330
49E4
100
AcDbEntity
  8
Defpoints
 62
     0
100
AcDbPoint
 10
621.7762786025
 20
54.56083909913334
 30
0.0
  0
POINT
  5
4D45
330
49E4
100
AcDbEntity
  8
Defpoints
 62
     0
100
AcDbPoint
 10
621.3079949708001
 20
58.53333333333334
 30
0.0
  0
ENDBLK
  5
49EA
330
49E4
100
AcDbEntity
  8
0
100
AcDbBlockEnd
  0
BLOCK
  5
49ED
330
49EC
100
AcDbEntity
  8
0
100
AcDbBlockBegin
  2
_D_20
 70
     0
 10
0.0
 20
0.0
 30
0.0
  3
_D_20
  1
_D_20
  0
LINE
  5
49EE
330
49EC
100
AcDbEntity
  8
QUOTE
 62
     0
370
    -2
100
AcDbLine
 10
636.2971202639001
 20
60.59583333333334
 30
0.0
 11
636.2971202639001
 21
69.67642606183334
 31
0.0
  0
LINE
  5
49EF
330
49EC
100
AcDbEntity
  8
QUOTE
 62
     0
370
    -2
100
AcDbLine
 10
632.7971202639001
 20
60.59583333333334
 30
0.0
 11
632.7971202639001
 21
69.67642606183334
 31
0.0
  0
LINE
  5
49F0
330
49EC
100
AcDbEntity
  8
QUOTE
 62
     0
370
    -2
100
AcDbLine
 10
633.0971202639
 20
69.67642606183334
 30
0.0
 11
635.9971202639001
 21
69.67642606183334
 31
0.0
  0
SOLID
  5
49F1
330
49EC
100
AcDbEntity
  8
QUOTE
 62
     0
100
AcDbTrace
 10
633.0971202639
 20
69.14309272850001
 30
0.0
 11
633.0971202639
 21
70.20975939516667
 31
0.0
 12
636.2971202639001
 22
69.67642606183334
 32
0.0
 13
636.2971202639001
 23
69.67642606183334
 33
0.0
  0
SOLID
  5
49F2
330
49EC
100
AcDbEntity
  8
QUOTE
 62
     0
100
AcDbTrace
 10
635.9971202639001
 20
70.20975939516667
 30
0.0
 11
635.9971202639001
 21
69.14309272850001
 31
0.0
 12
632.7971202639001
 22
69.67642606183334
 32
0.0
 13
632.7971202639001
 23
69.67642606183334
 33
0.0
  0
MTEXT
  5
49F3
330
49EC
100
AcDbEntity
  8
QUOTE
  6
Continuous
 62
     0
100
AcDbMText
 10
635.0359917108001
 20
73.67642606183333
 30
0.0
 40
3.2
 41
0.0
 71
     2
 72
     1
  1
\A1;3.5
  7
SLDTEXTSTYLE0
 73
     1
 44
1.0
  0
POINT
  5
49F4
330
49EC
100
AcDbEntity
  8
Defpoints
 62
     0
100
AcDbPoint
 10
636.2971202639001
 20
60.53333333333334
 30
0.0
  0
POINT
  5
49F5
330
49EC
100
AcDbEntity
  8
Defpoints
 62
     0
100
AcDbPoint
 10
632.7971202639001
 20
60.53333333333334
 30
0.0
  0
POINT
  5
4D46
330
49EC
100
AcDbEntity
  8
Defpoints
 62
     0
100
AcDbPoint
 10
632.7971202639001
 20
69.67642606183334
 30
0.0
  0
ENDBLK
  5
49F6
330
49EC
100
AcDbEntity
  8
0
100
AcDbBlockEnd
  0
BLOCK
  5
4A6E
330
4A6D
100
AcDbEntity
  8
0
100
AcDbBlockBegin
  2
_D_21
 70
     0
 10
0.0
 20
0.0
 30
0.0
  3
_D_21
  1
_D_21
  0
LINE
  5
4A6F
330
4A6D
100
AcDbEntity
  8
QUOTE
 62
     0
370
    -2
100
AcDbLine
 10
633.8094442867
 20
200.6464679791333
 30
0.0
 11
633.8094442867
 21
188.1282573010333
 31
0.0
  0
LINE
  5
4A70
330
4A6D
100
AcDbEntity
  8
QUOTE
 62
     0
370
    -2
100
AcDbLine
 10
576.8094442867
 20
198.0657573010333
 30
0.0
 11
576.8094442867
 21
188.1282573010333
 31
0.0
  0
LINE
  5
4A71
330
4A6D
100
AcDbEntity
  8
QUOTE
 62
     0
370
    -2
100
AcDbLine
 10
630.6094442867
 20
188.1282573010333
 30
0.0
 11
580.0094442867
 21
188.1282573010333
 31
0.0
  0
SOLID
  5
4A72
330
4A6D
100
AcDbEntity
  8
QUOTE
 62
     0
100
AcDbTrace
 10
630.6094442867
 20
187.5949239677
 30
0.0
 11
630.6094442867
 21
188.6615906343667
 31
0.0
 12
633.8094442867
 22
188.1282573010333
 32
0.0
 13
633.8094442867
 23
188.1282573010333
 33
0.0
  0
SOLID
  5
4A73
330
4A6D
100
AcDbEntity
  8
QUOTE
 62
     0
100
AcDbTrace
 10
580.0094442867
 20
188.6615906343667
 30
0.0
 11
580.0094442867
 21
187.5949239677
 31
0.0
 12
576.8094442867
 22
188.1282573010333
 32
0.0
 13
576.8094442867
 23
188.1282573010333
 33
0.0
  0
MTEXT
  5
4A74
330
4A6D
100
AcDbEntity
  8
QUOTE
  6
Continuous
 62
     0
100
AcDbMText
 10
599.4614271599
 20
192.1282573010333
 30
0.0
 40
3.2
 41
0.0
 71
     2
 72
     1
  1
\A1;57
  7
SLDTEXTSTYLE0
 73
     1
 44
1.0
  0
POINT
  5
4D47
330
4A6D
100
AcDbEntity
  8
Defpoints
 62
     0
100
AcDbPoint
 10
633.8094442867
 20
200.7089679791333
 30
0.0
  0
POINT
  5
4D48
330
4A6D
100
AcDbEntity
  8
Defpoints
 62
     0
100
AcDbPoint
 10
576.8094442867
 20
198.1282573010333
 30
0.0
  0
POINT
  5
4D49
330
4A6D
100
AcDbEntity
  8
Defpoints
 62
     0
100
AcDbPoint
 10
576.8094442867
 20
188.1282573010333
 30
0.0
  0
ENDBLK
  5
4A75
330
4A6D
100
AcDbEntity
  8
0
100
AcDbBlockEnd
  0
BLOCK
  5
4A78
330
4A77
100
AcDbEntity
  8
0
100
AcDbBlockBegin
  2
_D_22
 70
     0
 10
0.0
 20
0.0
 30
0.0
  3
_D_22
  1
_D_22
  0
LINE
  5
4A79
330
4A77
100
AcDbEntity
  8
QUOTE
 62
     0
370
    -2
100
AcDbLine
 10
633.8094442867
 20
200.6464679791333
 30
0.0
 11
633.8094442867
 21
193.3468718368333
 31
0.0
  0
LINE
  5
4A7A
330
4A77
100
AcDbEntity
  8
QUOTE
 62
     0
370
    -2
100
AcDbLine
 10
630.5594442867
 20
199.5657573010333
 30
0.0
 11
630.5594442867
 21
193.3468718368333
 31
0.0
  0
LINE
  5
4A7B
330
4A77
100
AcDbEntity
  8
QUOTE
 62
     0
370
    -2
100
AcDbLine
 10
633.8094442867
 20
193.3468718368333
 30
0.0
 11
658.8014147229
 21
193.3468718368333
 31
0.0
  0
LINE
  5
4A7C
330
4A77
100
AcDbEntity
  8
QUOTE
 62
     0
370
    -2
100
AcDbLine
 10
633.8094442867
 20
193.3468718368333
 30
0.0
 11
630.5594442867
 21
193.3468718368333
 31
0.0
  0
LINE
  5
4A7D
330
4A77
100
AcDbEntity
  8
QUOTE
 62
     0
370
    -2
100
AcDbLine
 10
637.0094442867
 20
193.3468718368333
 30
0.0
 11
640.2094442867001
 21
193.3468718368333
 31
0.0
  0
LINE
  5
4A7E
330
4A77
100
AcDbEntity
  8
QUOTE
 62
     0
370
    -2
100
AcDbLine
 10
627.3594442867
 20
193.3468718368333
 30
0.0
 11
624.1594442866999
 21
193.3468718368333
 31
0.0
  0
SOLID
  5
4A7F
330
4A77
100
AcDbEntity
  8
QUOTE
 62
     0
100
AcDbTrace
 10
637.0094442867
 20
193.8802051701667
 30
0.0
 11
637.0094442867
 21
192.8135385035
 31
0.0
 12
633.8094442867
 22
193.3468718368333
 32
0.0
 13
633.8094442867
 23
193.3468718368333
 33
0.0
  0
SOLID
  5
4A80
330
4A77
100
AcDbEntity
  8
QUOTE
 62
     0
100
AcDbTrace
 10
627.3594442867
 20
192.8135385035
 30
0.0
 11
627.3594442867
 21
193.8802051701667
 31
0.0
 12
630.5594442867
 22
193.3468718368333
 32
0.0
 13
630.5594442867
 23
193.3468718368333
 33
0.0
  0
MTEXT
  5
4D4A
330
4A77
100
AcDbEntity
  8
QUOTE
  6
Continuous
 62
     0
100
AcDbMText
 10
657.2014147229
 20
197.3468718368333
 30
0.0
 40
3.2
 41
0.0
 71
     2
 72
     1
  1
\A1;3
  7
SLDTEXTSTYLE0
 73
     1
 44
1.0
  0
POINT
  5
4D4B
330
4A77
100
AcDbEntity
  8
Defpoints
 62
     0
100
AcDbPoint
 10
633.8094442867
 20
200.7089679791333
 30
0.0
  0
POINT
  5
4D4C
330
4A77
100
AcDbEntity
  8
Defpoints
 62
     0
100
AcDbPoint
 10
630.5594442867
 20
199.6282573010333
 30
0.0
  0
POINT
  5
4D4D
330
4A77
100
AcDbEntity
  8
Defpoints
 62
     0
100
AcDbPoint
 10
630.5594442867
 20
193.3468718368333
 30
0.0
  0
ENDBLK
  5
4A81
330
4A77
100
AcDbEntity
  8
0
100
AcDbBlockEnd
  0
ENDSEC
  0
SECTION
  2
ENTITIES
  0
TEXT
  5
2FB3
330
A
100
AcDbEntity
  8
0
  6
Continuous
 62
     7
370
     0
100
AcDbText
 10
-745.438691077853
 20
131.9908615129245
 30
0.0
 40
20.0
  1
100E30
100
AcDbText
  0
LINE
  5
4D50
330
A
100
AcDbEntity
  8
0
100
AcDbLine
 10
-502.4384789980994
 20
-58.94048025499836
 30
0.0
 11
-502.3577683199994
 21
-58.94048025499836
 31
0.0
  0
LINE
  5
4D51
330
A
100
AcDbEntity
  8
0
100
AcDbLine
 10
-502.3577683199994
 20
-56.14048025499829
 30
0.0
 11
-502.4384789980994
 21
-56.14048025499829
 31
0.0
  0
LINE
  5
4D52
330
A
100
AcDbEntity
  8
0
100
AcDbLine
 10
-502.4384789980994
 20
-31.94048025499836
 30
0.0
 11
-502.3577683199994
 21
-31.94048025499836
 31
0.0
  0
LINE
  5
4D53
330
A
100
AcDbEntity
  8
0
100
AcDbLine
 10
-502.3577683199994
 20
-29.14048025499829
 30
0.0
 11
-502.4384789980994
 21
-29.14048025499829
 31
0.0
  0
LINE
  5
4D54
330
A
100
AcDbEntity
  8
0
100
AcDbLine
 10
-666.7770576418993
 20
-56.14048025499829
 30
0.0
 11
-666.8577683199994
 21
-56.14048025499829
 31
0.0
  0
LINE
  5
4D55
330
A
100
AcDbEntity
  8
0
100
AcDbLine
 10
-666.8577683199994
 20
-58.94048025499836
 30
0.0
 11
-666.7770576418993
 21
-58.94048025499836
 31
0.0
  0
LINE
  5
4D56
330
A
100
AcDbEntity
  8
0
100
AcDbLine
 10
-666.7770576418993
 20
-29.14048025499829
 30
0.0
 11
-666.8577683199994
 21
-29.14048025499829
 31
0.0
  0
LINE
  5
4D57
330
A
100
AcDbEntity
  8
0
100
AcDbLine
 10
-666.8577683199994
 20
-31.94048025499836
 30
0.0
 11
-666.7770576418993
 21
-31.94048025499836
 31
0.0
  0
LINE
  5
4D58
330
A
100
AcDbEntity
  8
0
100
AcDbLine
 10
-566.3577683199994
 20
-25.34048025499834
 30
0.0
 11
-566.3577683199994
 21
-20.54048025499827
 31
0.0
  0
LINE
  5
4D59
330
A
100
AcDbEntity
  8
0
100
AcDbLine
 10
-566.3577683199994
 20
-67.54048025499827
 30
0.0
 11
-566.3577683199994
 21
-62.74048025499832
 31
0.0
  0
LINE
  5
4D5A
330
A
100
AcDbEntity
  8
0
100
AcDbLine
 10
-506.3577683199994
 20
-51.24048025499832
 30
0.0
 11
-506.3577683199994
 21
-36.84048025499834
 31
0.0
  0
LINE
  5
4D5B
330
A
100
AcDbEntity
  8
0
100
AcDbLine
 10
-503.3577683199994
 20
-51.24048025499832
 30
0.0
 11
-503.3577683199994
 21
-36.84048025499834
 31
0.0
  0
LINE
  5
4D5C
330
A
100
AcDbEntity
  8
0
100
AcDbLine
 10
-503.1077683199994
 20
-38.79048025499827
 30
0.0
 11
-503.1077683199994
 21
-37.79048025499827
 31
0.0
  0
LINE
  5
4D5D
330
A
100
AcDbEntity
  8
0
100
AcDbLine
 10
-503.1077683199994
 20
-37.79048025499827
 30
0.0
 11
-503.3577683199994
 21
-37.79048025499827
 31
0.0
  0
LINE
  5
4D5E
330
A
100
AcDbEntity
  8
0
100
AcDbLine
 10
-503.1077683199994
 20
-38.79048025499827
 30
0.0
 11
-503.3577683199994
 21
-38.79048025499827
 31
0.0
  0
LINE
  5
4D5F
330
A
100
AcDbEntity
  8
0
100
AcDbLine
 10
-656.6077683199994
 20
-47.79048025499827
 30
0.0
 11
-656.6077683199994
 21
-37.79048025499827
 31
0.0
  0
LINE
  5
4D60
330
A
100
AcDbEntity
  8
0
100
AcDbLine
 10
-656.6077683199994
 20
-47.79048025499827
 30
0.0
 11
-657.6077683199994
 21
-47.79048025499827
 31
0.0
  0
LINE
  5
4D61
330
A
100
AcDbEntity
  8
0
100
AcDbLine
 10
-657.6077683199994
 20
-47.79048025499827
 30
0.0
 11
-657.6077683199994
 21
-38.79048025499827
 31
0.0
  0
LINE
  5
4D62
330
A
100
AcDbEntity
  8
0
100
AcDbLine
 10
-666.1077683199994
 20
-38.79048025499827
 30
0.0
 11
-666.1077683199994
 21
-37.79048025499827
 31
0.0
  0
LINE
  5
4D63
330
A
100
AcDbEntity
  8
0
100
AcDbLine
 10
-656.6077683199994
 20
-37.79048025499827
 30
0.0
 11
-666.1077683199994
 21
-37.79048025499827
 31
0.0
  0
LINE
  5
4D64
330
A
100
AcDbEntity
  8
0
100
AcDbLine
 10
-657.6077683199994
 20
-38.79048025499827
 30
0.0
 11
-666.1077683199994
 21
-38.79048025499827
 31
0.0
  0
LINE
  5
4D65
330
A
100
AcDbEntity
  8
0
100
AcDbLine
 10
-656.3577683199994
 20
-47.79048025499827
 30
0.0
 11
-656.6077683199994
 21
-47.79048025499827
 31
0.0
  0
LINE
  5
4D66
330
A
100
AcDbEntity
  8
0
100
AcDbLine
 10
-657.5577683199994
 20
-50.29048025499827
 30
0.0
 11
-656.5577683199994
 21
-50.29048025499827
 31
0.0
  0
LINE
  5
4D67
330
A
100
AcDbEntity
  8
0
100
AcDbLine
 10
-656.5577683199994
 20
-50.29048025499827
 30
0.0
 11
-656.5577683199994
 21
-51.24048025499832
 31
0.0
  0
LINE
  5
4D68
330
A
100
AcDbEntity
  8
0
100
AcDbLine
 10
-666.0577683199994
 20
-51.24048025499832
 30
0.0
 11
-666.0577683199994
 21
-50.29048025499827
 31
0.0
  0
LINE
  5
4D69
330
A
100
AcDbEntity
  8
0
100
AcDbLine
 10
-666.0577683199994
 20
-50.29048025499827
 30
0.0
 11
-665.0577683199994
 21
-50.29048025499827
 31
0.0
  0
LINE
  5
4D6A
330
A
100
AcDbEntity
  8
0
100
AcDbLine
 10
-657.5577683199994
 20
-50.29048025499827
 30
0.0
 11
-665.0577683199994
 21
-50.29048025499827
 31
0.0
  0
LINE
  5
4D6B
330
A
100
AcDbEntity
  8
0
100
AcDbLine
 10
-656.5577683199994
 20
-50.29048025499827
 30
0.0
 11
-656.3577683199994
 21
-50.29048025499827
 31
0.0
  0
LINE
  5
4D6C
330
A
100
AcDbEntity
  8
0
100
AcDbLine
 10
-503.0577683199994
 20
-50.29048025499827
 30
0.0
 11
-503.0577683199994
 21
-51.24048025499832
 31
0.0
  0
LINE
  5
4D6D
330
A
100
AcDbEntity
  8
0
100
AcDbLine
 10
-503.3577683199994
 20
-50.29048025499827
 30
0.0
 11
-503.0577683199994
 21
-50.29048025499827
 31
0.0
  0
LINE
  5
4D6E
330
A
100
AcDbEntity
  8
0
100
AcDbLine
 10
-657.5577683199994
 20
-37.79048025499827
 30
0.0
 11
-665.0577683199994
 21
-37.79048025499827
 31
0.0
  0
LINE
  5
4D6F
330
A
100
AcDbEntity
  8
0
100
AcDbLine
 10
-656.5577683199994
 20
-36.84048025499834
 30
0.0
 11
-656.5577683199994
 21
-37.79048025499827
 31
0.0
  0
LINE
  5
4D70
330
A
100
AcDbEntity
  8
0
100
AcDbLine
 10
-656.5577683199994
 20
-37.79048025499827
 30
0.0
 11
-656.6077683199994
 21
-37.79048025499827
 31
0.0
  0
LINE
  5
4D71
330
A
100
AcDbEntity
  8
0
100
AcDbLine
 10
-666.0577683199994
 20
-37.79048025499827
 30
0.0
 11
-666.0577683199994
 21
-36.84048025499834
 31
0.0
  0
LINE
  5
4D72
330
A
100
AcDbEntity
  8
0
100
AcDbLine
 10
-656.3577683199994
 20
-37.79048025499827
 30
0.0
 11
-656.5577683199994
 21
-37.79048025499827
 31
0.0
  0
LINE
  5
4D73
330
A
100
AcDbEntity
  8
0
100
AcDbLine
 10
-503.0577683199994
 20
-36.84048025499834
 30
0.0
 11
-503.0577683199994
 21
-37.79048025499827
 31
0.0
  0
LINE
  5
4D74
330
A
100
AcDbEntity
  8
0
100
AcDbLine
 10
-503.0577683199994
 20
-37.79048025499827
 30
0.0
 11
-503.1077683199994
 21
-37.79048025499827
 31
0.0
  0
ARC
  5
4D75
330
A
100
AcDbEntity
  8
0
100
AcDbCircle
 10
-517.3577683199994
 20
-44.04048025499827
 30
0.0
 40
2.299999999989996
100
AcDbArc
 50
167.0610305499998
 51
192.9389694500002
  0
LINE
  5
4D76
330
A
100
AcDbEntity
  8
0
100
AcDbLine
 10
-517.8727683199993
 20
-44.55548025499837
 30
0.0
 11
-519.5993693102994
 21
-44.55548025499837
 31
0.0
  0
LINE
  5
4D77
330
A
100
AcDbEntity
  8
0
100
AcDbLine
 10
-517.8727683199993
 20
-46.28208124529834
 30
0.0
 11
-517.8727683199993
 21
-44.55548025499837
 31
0.0
  0
ARC
  5
4D78
330
A
100
AcDbEntity
  8
0
100
AcDbCircle
 10
-517.3577683199994
 20
-44.04048025499827
 30
0.0
 40
2.299999999990018
100
AcDbArc
 50
257.0610305500001
 51
282.9389694499999
  0
LINE
  5
4D79
330
A
100
AcDbEntity
  8
0
100
AcDbLine
 10
-516.8427683199993
 20
-44.55548025499837
 30
0.0
 11
-516.8427683199993
 21
-46.28208124529834
 31
0.0
  0
LINE
  5
4D7A
330
A
100
AcDbEntity
  8
0
100
AcDbLine
 10
-515.1161673295994
 20
-44.55548025499837
 30
0.0
 11
-516.8427683199993
 21
-44.55548025499837
 31
0.0
  0
ARC
  5
4D7B
330
A
100
AcDbEntity
  8
0
100
AcDbCircle
 10
-517.3577683199994
 20
-44.04048025499827
 30
0.0
 40
2.299999999991147
100
AcDbArc
 50
347.0610305499985
 51
12.93896944999872
  0
LINE
  5
4D7C
330
A
100
AcDbEntity
  8
0
100
AcDbLine
 10
-516.8427683199993
 20
-43.52548025499829
 30
0.0
 11
-515.1161673295994
 21
-43.52548025499829
 31
0.0
  0
LINE
  5
4D7D
330
A
100
AcDbEntity
  8
0
100
AcDbLine
 10
-516.8427683199993
 20
-41.79887926459827
 30
0.0
 11
-516.8427683199993
 21
-43.52548025499829
 31
0.0
  0
ARC
  5
4D7E
330
A
100
AcDbEntity
  8
0
100
AcDbCircle
 10
-517.3577683199994
 20
-44.04048025499827
 30
0.0
 40
2.299999999991126
100
AcDbArc
 50
77.06103055000065
 51
102.9389694499994
  0
LINE
  5
4D7F
330
A
100
AcDbEntity
  8
0
100
AcDbLine
 10
-517.8727683199993
 20
-43.52548025499829
 30
0.0
 11
-517.8727683199993
 21
-41.79887926459827
 31
0.0
  0
LINE
  5
4D80
330
A
100
AcDbEntity
  8
0
100
AcDbLine
 10
-519.5993693102994
 20
-43.52548025499829
 30
0.0
 11
-517.8727683199993
 21
-43.52548025499829
 31
0.0
  0
CIRCLE
  5
4D81
330
A
100
AcDbEntity
  8
0
100
AcDbCircle
 10
-517.3577683199994
 20
-44.04048025499827
 30
0.0
 40
3.750000000000004
  0
ARC
  5
4D82
330
A
100
AcDbEntity
  8
0
100
AcDbCircle
 10
-517.3577683199994
 20
-44.04048025499827
 30
0.0
 40
1.080668528574401
100
AcDbArc
 50
331.5392345265988
 51
28.46076547349841
  0
ARC
  5
4D83
330
A
100
AcDbEntity
  8
0
100
AcDbCircle
 10
-517.3577683199994
 20
-44.04048025499827
 30
0.0
 40
1.080668528574462
100
AcDbArc
 50
61.53923452649629
 51
118.460765473396
  0
ARC
  5
4D84
330
A
100
AcDbEntity
  8
0
100
AcDbCircle
 10
-517.3577683199994
 20
-44.04048025499827
 30
0.0
 40
1.080668528574412
100
AcDbArc
 50
241.5392345266026
 51
298.4607654735052
  0
ARC
  5
4D85
330
A
100
AcDbEntity
  8
0
100
AcDbCircle
 10
-517.3577683199994
 20
-44.04048025499827
 30
0.0
 40
1.080668528574413
100
AcDbArc
 50
151.5392345266012
 51
208.460765473407
  0
ARC
  5
4D86
330
A
100
AcDbEntity
  8
0
100
AcDbCircle
 10
-614.3577683199994
 20
-44.04048025499827
 30
0.0
 40
2.299999999990011
100
AcDbArc
 50
167.0610305499998
 51
192.9389694500002
  0
LINE
  5
4D87
330
A
100
AcDbEntity
  8
0
100
AcDbLine
 10
-614.8727683199993
 20
-44.55548025499837
 30
0.0
 11
-616.5993693102994
 21
-44.55548025499837
 31
0.0
  0
LINE
  5
4D88
330
A
100
AcDbEntity
  8
0
100
AcDbLine
 10
-614.8727683199993
 20
-46.28208124529834
 30
0.0
 11
-614.8727683199993
 21
-44.55548025499837
 31
0.0
  0
ARC
  5
4D89
330
A
100
AcDbEntity
  8
0
100
AcDbCircle
 10
-614.3577683199994
 20
-44.04048025499827
 30
0.0
 40
2.299999999990076
100
AcDbArc
 50
257.0610305500005
 51
282.9389694499995
  0
LINE
  5
4D8A
330
A
100
AcDbEntity
  8
0
100
AcDbLine
 10
-613.8427683199993
 20
-44.55548025499837
 30
0.0
 11
-613.8427683199993
 21
-46.28208124529834
 31
0.0
  0
LINE
  5
4D8B
330
A
100
AcDbEntity
  8
0
100
AcDbLine
 10
-612.1161673295994
 20
-44.55548025499837
 30
0.0
 11
-613.8427683199993
 21
-44.55548025499837
 31
0.0
  0
ARC
  5
4D8C
330
A
100
AcDbEntity
  8
0
100
AcDbCircle
 10
-614.3577683199994
 20
-44.04048025499827
 30
0.0
 40
2.299999999991147
100
AcDbArc
 50
347.0610305499985
 51
12.93896944999872
  0
LINE
  5
4D8D
330
A
100
AcDbEntity
  8
0
100
AcDbLine
 10
-613.8427683199993
 20
-43.52548025499829
 30
0.0
 11
-612.1161673295994
 21
-43.52548025499829
 31
0.0
  0
LINE
  5
4D8E
330
A
100
AcDbEntity
  8
0
100
AcDbLine
 10
-613.8427683199993
 20
-41.79887926459827
 30
0.0
 11
-613.8427683199993
 21
-43.52548025499829
 31
0.0
  0
ARC
  5
4D8F
330
A
100
AcDbEntity
  8
0
100
AcDbCircle
 10
-614.3577683199994
 20
-44.04048025499827
 30
0.0
 40
2.299999999991126
100
AcDbArc
 50
77.06103054999788
 51
102.9389694499994
  0
LINE
  5
4D90
330
A
100
AcDbEntity
  8
0
100
AcDbLine
 10
-614.8727683199993
 20
-43.52548025499829
 30
0.0
 11
-614.8727683199993
 21
-41.79887926459827
 31
0.0
  0
LINE
  5
4D91
330
A
100
AcDbEntity
  8
0
100
AcDbLine
 10
-616.5993693102994
 20
-43.52548025499829
 30
0.0
 11
-614.8727683199993
 21
-43.52548025499829
 31
0.0
  0
CIRCLE
  5
4D92
330
A
100
AcDbEntity
  8
0
100
AcDbCircle
 10
-614.3577683199994
 20
-44.04048025499827
 30
0.0
 40
3.750000000000014
  0
ARC
  5
4D93
330
A
100
AcDbEntity
  8
0
100
AcDbCircle
 10
-614.3577683199994
 20
-44.04048025499827
 30
0.0
 40
1.080668528574461
100
AcDbArc
 50
61.53923452649629
 51
118.460765473396
  0
ARC
  5
4D94
330
A
100
AcDbEntity
  8
0
100
AcDbCircle
 10
-614.3577683199994
 20
-44.04048025499827
 30
0.0
 40
1.080668528574417
100
AcDbArc
 50
331.5392345265988
 51
28.46076547349841
  0
ARC
  5
4D95
330
A
100
AcDbEntity
  8
0
100
AcDbCircle
 10
-614.3577683199994
 20
-44.04048025499827
 30
0.0
 40
1.080668528574404
100
AcDbArc
 50
241.5392345266026
 51
298.4607654734998
  0
ARC
  5
4D96
330
A
100
AcDbEntity
  8
0
100
AcDbCircle
 10
-614.3577683199994
 20
-44.04048025499827
 30
0.0
 40
1.080668528574392
100
AcDbArc
 50
151.5392345266012
 51
208.460765473407
  0
ELLIPSE
  5
4D97
330
A
100
AcDbEntity
  8
0
100
AcDbEllipse
 10
-666.3577683199994
 20
-26.84048025499834
 30
0.0
 11
0.0
 21
1.5
 31
0.0
210
0.0
220
0.0
230
1.0
 40
0.2795262146
 41
0.0
 42
1.570796326794897
  0
LINE
  5
4D98
330
A
100
AcDbEntity
  8
0
100
AcDbLine
 10
-502.8577683199994
 20
-25.34048025499834
 30
0.0
 11
-666.3577683199994
 21
-25.34048025499834
 31
0.0
  0
ELLIPSE
  5
4D99
330
A
100
AcDbEntity
  8
0
100
AcDbEllipse
 10
-502.8577683199994
 20
-26.84048025499834
 30
0.0
 11
0.0
 21
1.5
 31
0.0
210
0.0
220
0.0
230
1.0
 40
0.2795262146
 41
4.712388980384693
 42
6.283185307179586
  0
LINE
  5
4D9A
330
A
100
AcDbEntity
  8
0
100
AcDbLine
 10
-572.8577683199994
 20
-36.84048025499834
 30
0.0
 11
-666.7770576418993
 21
-36.84048025499834
 31
0.0
  0
LINE
  5
4D9B
330
A
100
AcDbEntity
  8
0
100
AcDbLine
 10
-666.7770576418993
 20
-26.84048025499834
 30
0.0
 11
-666.7770576418993
 21
-36.84048025499834
 31
0.0
  0
ARC
  5
4D9C
330
A
100
AcDbEntity
  8
0
100
AcDbCircle
 10
-557.8577683199994
 20
-44.84048025499834
 30
0.0
 40
16.99999999999996
100
AcDbArc
 50
28.07248693589993
 51
151.9275130641001
  0
LINE
  5
4D9D
330
A
100
AcDbEntity
  8
0
100
AcDbLine
 10
-502.4384789980994
 20
-36.84048025499834
 30
0.0
 11
-502.4384789980994
 21
-26.84048025499834
 31
0.0
  0
LINE
  5
4D9E
330
A
100
AcDbEntity
  8
0
100
AcDbLine
 10
-502.4384789980994
 20
-36.84048025499834
 30
0.0
 11
-542.8577683199994
 21
-36.84048025499834
 31
0.0
  0
LINE
  5
4D9F
330
A
100
AcDbEntity
  8
0
100
AcDbLine
 10
-502.3577683199994
 20
-26.84048025499834
 30
0.0
 11
-502.3577683199994
 21
-36.84048025499834
 31
0.0
  0
LINE
  5
4DA0
330
A
100
AcDbEntity
  8
0
100
AcDbLine
 10
-501.3577683199994
 20
-36.84048025499834
 30
0.0
 11
-502.3577683199994
 21
-36.84048025499834
 31
0.0
  0
LINE
  5
4DA1
330
A
100
AcDbEntity
  8
0
100
AcDbLine
 10
-501.3577683199994
 20
-26.84048025499834
 30
0.0
 11
-501.3577683199994
 21
-36.84048025499834
 31
0.0
  0
ARC
  5
4DA2
330
A
100
AcDbEntity
  8
0
100
AcDbCircle
 10
-502.8577683199994
 20
-26.84048025499834
 30
0.0
 40
0.5
100
AcDbArc
 50
0.0
 51
34.56898942890368
  0
ARC
  5
4DA3
330
A
100
AcDbEntity
  8
0
100
AcDbCircle
 10
-502.8577683199994
 20
-26.84048025499834
 30
0.0
 40
1.5
100
AcDbArc
 50
0.0
 51
90.0
  0
ARC
  5
4DA4
330
A
100
AcDbEntity
  8
0
100
AcDbCircle
 10
-666.3577683199994
 20
-26.84048025499834
 30
0.0
 40
0.5
100
AcDbArc
 50
145.4310105706951
 51
180.0
  0
ARC
  5
4DA5
330
A
100
AcDbEntity
  8
0
100
AcDbCircle
 10
-666.3577683199994
 20
-26.84048025499834
 30
0.0
 40
1.5
100
AcDbArc
 50
90.0
 51
180.0
  0
LINE
  5
4DA6
330
A
100
AcDbEntity
  8
0
100
AcDbLine
 10
-666.8577683199994
 20
-36.84048025499834
 30
0.0
 11
-666.8577683199994
 21
-26.84048025499834
 31
0.0
  0
LINE
  5
4DA7
330
A
100
AcDbEntity
  8
0
100
AcDbLine
 10
-667.8577683199994
 20
-36.84048025499834
 30
0.0
 11
-667.8577683199994
 21
-26.84048025499834
 31
0.0
  0
LINE
  5
4DA8
330
A
100
AcDbEntity
  8
0
100
AcDbLine
 10
-667.8577683199994
 20
-36.84048025499834
 30
0.0
 11
-666.8577683199994
 21
-36.84048025499834
 31
0.0
  0
ELLIPSE
  5
4DA9
330
A
100
AcDbEntity
  8
0
100
AcDbEllipse
 10
-502.8577683199994
 20
-61.24048025499832
 30
0.0
 11
0.0
 21
1.5
 31
0.0
210
0.0
220
0.0
230
1.0
 40
0.2795262146
 41
3.141592653589793
 42
4.712388980384693
  0
LINE
  5
4DAA
330
A
100
AcDbEntity
  8
0
100
AcDbLine
 10
-666.3577683199994
 20
-62.74048025499832
 30
0.0
 11
-502.8577683199994
 21
-62.74048025499832
 31
0.0
  0
ELLIPSE
  5
4DAB
330
A
100
AcDbEntity
  8
0
100
AcDbEllipse
 10
-666.3577683199994
 20
-61.24048025499832
 30
0.0
 11
0.0
 21
1.5
 31
0.0
210
0.0
220
0.0
230
1.0
 40
0.2795262146
 41
1.570796326794897
 42
3.141592653589793
  0
LINE
  5
4DAC
330
A
100
AcDbEntity
  8
0
100
AcDbLine
 10
-542.8577683199994
 20
-51.24048025499832
 30
0.0
 11
-502.4384789980994
 21
-51.24048025499832
 31
0.0
  0
LINE
  5
4DAD
330
A
100
AcDbEntity
  8
0
100
AcDbLine
 10
-502.4384789980994
 20
-61.24048025499832
 30
0.0
 11
-502.4384789980994
 21
-51.24048025499832
 31
0.0
  0
LINE
  5
4DAE
330
A
100
AcDbEntity
  8
0
100
AcDbLine
 10
-666.7770576418993
 20
-51.24048025499832
 30
0.0
 11
-666.7770576418993
 21
-61.24048025499832
 31
0.0
  0
LINE
  5
4DAF
330
A
100
AcDbEntity
  8
0
100
AcDbLine
 10
-666.7770576418993
 20
-51.24048025499832
 30
0.0
 11
-572.8577683199994
 21
-51.24048025499832
 31
0.0
  0
ARC
  5
4DB0
330
A
100
AcDbEntity
  8
0
100
AcDbCircle
 10
-557.8577683199994
 20
-43.24048025499832
 30
0.0
 40
16.99999999999999
100
AcDbArc
 50
208.0724869358999
 51
331.9275130641001
  0
LINE
  5
4DB1
330
A
100
AcDbEntity
  8
0
100
AcDbLine
 10
-666.8577683199994
 20
-61.24048025499832
 30
0.0
 11
-666.8577683199994
 21
-51.24048025499832
 31
0.0
  0
LINE
  5
4DB2
330
A
100
AcDbEntity
  8
0
100
AcDbLine
 10
-667.8577683199994
 20
-61.24048025499832
 30
0.0
 11
-667.8577683199994
 21
-51.24048025499832
 31
0.0
  0
LINE
  5
4DB3
330
A
100
AcDbEntity
  8
0
100
AcDbLine
 10
-667.8577683199994
 20
-51.24048025499832
 30
0.0
 11
-666.8577683199994
 21
-51.24048025499832
 31
0.0
  0
ARC
  5
4DB4
330
A
100
AcDbEntity
  8
0
100
AcDbCircle
 10
-666.3577683199994
 20
-61.24048025499832
 30
0.0
 40
0.5000000000000051
100
AcDbArc
 50
180.0
 51
214.5689894313936
  0
ARC
  5
4DB5
330
A
100
AcDbEntity
  8
0
100
AcDbCircle
 10
-666.3577683199994
 20
-61.24048025499832
 30
0.0
 40
1.5
100
AcDbArc
 50
180.0
 51
270.0
  0
LINE
  5
4DB6
330
A
100
AcDbEntity
  8
0
100
AcDbLine
 10
-502.3577683199994
 20
-51.24048025499832
 30
0.0
 11
-502.3577683199994
 21
-61.24048025499832
 31
0.0
  0
LINE
  5
4DB7
330
A
100
AcDbEntity
  8
0
100
AcDbLine
 10
-501.3577683199994
 20
-51.24048025499832
 30
0.0
 11
-502.3577683199994
 21
-51.24048025499832
 31
0.0
  0
LINE
  5
4DB8
330
A
100
AcDbEntity
  8
0
100
AcDbLine
 10
-501.3577683199994
 20
-51.24048025499832
 30
0.0
 11
-501.3577683199994
 21
-61.24048025499832
 31
0.0
  0
ARC
  5
4DB9
330
A
100
AcDbEntity
  8
0
100
AcDbCircle
 10
-502.8577683199994
 20
-61.24048025499832
 30
0.0
 40
1.5
100
AcDbArc
 50
270.0
 51
0.0
  0
ARC
  5
4DBA
330
A
100
AcDbEntity
  8
0
100
AcDbCircle
 10
-502.8577683199994
 20
-61.24048025499832
 30
0.0
 40
0.5
100
AcDbArc
 50
325.4310105709987
 51
0.0
  0
ARC
  5
4DBB
330
A
100
AcDbEntity
  8
0
100
AcDbCircle
 10
-593.8577683199994
 20
-44.04048025499827
 30
0.0
 40
2.550000000001906
100
AcDbArc
 50
258.3483561673025
 51
281.6516438327025
  0
LINE
  5
4DBC
330
A
100
AcDbEntity
  8
0
100
AcDbLine
 10
-593.3427683199993
 20
-44.55548025499837
 30
0.0
 11
-593.3427683199993
 21
-46.53793395829831
 31
0.0
  0
LINE
  5
4DBD
330
A
100
AcDbEntity
  8
0
100
AcDbLine
 10
-591.3603146166994
 20
-44.55548025499837
 30
0.0
 11
-593.3427683199993
 21
-44.55548025499837
 31
0.0
  0
ARC
  5
4DBE
330
A
100
AcDbEntity
  8
0
100
AcDbCircle
 10
-593.8577683199994
 20
-44.04048025499827
 30
0.0
 40
2.54999999999147
100
AcDbArc
 50
348.3483561672988
 51
11.65164383269865
  0
LINE
  5
4DBF
330
A
100
AcDbEntity
  8
0
100
AcDbLine
 10
-593.3427683199993
 20
-43.52548025499829
 30
0.0
 11
-591.3603146166994
 21
-43.52548025499829
 31
0.0
  0
LINE
  5
4DC0
330
A
100
AcDbEntity
  8
0
100
AcDbLine
 10
-593.3427683199993
 20
-41.54302655169835
 30
0.0
 11
-593.3427683199993
 21
-43.52548025499829
 31
0.0
  0
ARC
  5
4DC1
330
A
100
AcDbEntity
  8
0
100
AcDbCircle
 10
-593.8577683199994
 20
-44.04048025499827
 30
0.0
 40
2.549999999991459
100
AcDbArc
 50
78.34835616729859
 51
101.6516438326989
  0
LINE
  5
4DC2
330
A
100
AcDbEntity
  8
0
100
AcDbLine
 10
-594.3727683199994
 20
-43.52548025499829
 30
0.0
 11
-594.3727683199994
 21
-41.54302655169835
 31
0.0
  0
LINE
  5
4DC3
330
A
100
AcDbEntity
  8
0
100
AcDbLine
 10
-596.3552220231993
 20
-43.52548025499829
 30
0.0
 11
-594.3727683199994
 21
-43.52548025499829
 31
0.0
  0
ARC
  5
4DC4
330
A
100
AcDbEntity
  8
0
100
AcDbCircle
 10
-593.8577683199994
 20
-44.04048025499827
 30
0.0
 40
2.549999999991448
100
AcDbArc
 50
168.3483561673008
 51
191.6516438327017
  0
LINE
  5
4DC5
330
A
100
AcDbEntity
  8
0
100
AcDbLine
 10
-594.3727683199994
 20
-44.55548025499837
 30
0.0
 11
-596.3552220231993
 21
-44.55548025499837
 31
0.0
  0
LINE
  5
4DC6
330
A
100
AcDbEntity
  8
0
100
AcDbLine
 10
-594.3727683199994
 20
-46.53793395829831
 30
0.0
 11
-594.3727683199994
 21
-44.55548025499837
 31
0.0
  0
ARC
  5
4DC7
330
A
100
AcDbEntity
  8
0
100
AcDbCircle
 10
-593.8577683199994
 20
-44.04048025499827
 30
0.0
 40
1.062415604879366
100
AcDbArc
 50
241.0042733695058
 51
298.9957266304996
  0
ARC
  5
4DC8
330
A
100
AcDbEntity
  8
0
100
AcDbCircle
 10
-593.8577683199994
 20
-44.04048025499827
 30
0.0
 40
1.062415604879359
100
AcDbArc
 50
331.0042733695019
 51
28.9957266304981
  0
ARC
  5
4DC9
330
A
100
AcDbEntity
  8
0
100
AcDbCircle
 10
-593.8577683199994
 20
-44.04048025499827
 30
0.0
 40
1.062415604879402
100
AcDbArc
 50
61.00427336949654
 51
118.9957266304981
  0
ARC
  5
4DCA
330
A
100
AcDbEntity
  8
0
100
AcDbCircle
 10
-593.8577683199994
 20
-44.04048025499827
 30
0.0
 40
1.062415604879402
100
AcDbArc
 50
151.0042733694989
 51
208.9957266305011
  0
LINE
  5
4DCB
330
A
100
AcDbEntity
  8
0
100
AcDbLine
 10
-581.7316318623994
 20
-25.34048025499834
 30
0.0
 11
-581.7316318623994
 21
-20.54048025499827
 31
0.0
  0
LINE
  5
4DCC
330
A
100
AcDbEntity
  8
0
100
AcDbLine
 10
-566.3577683199994
 20
-20.54048025499827
 30
0.0
 11
-581.7316318623994
 21
-20.54048025499827
 31
0.0
  0
LINE
  5
4DCD
330
A
100
AcDbEntity
  8
0
100
AcDbLine
 10
-581.7316318623994
 20
-67.54048025499827
 30
0.0
 11
-566.3577683199994
 21
-67.54048025499827
 31
0.0
  0
LINE
  5
4DCE
330
A
100
AcDbEntity
  8
0
100
AcDbLine
 10
-581.7316318623994
 20
-62.74048025499832
 30
0.0
 11
-581.7316318623994
 21
-67.54048025499827
 31
0.0
  0
LINE
  5
4DCF
330
A
100
AcDbEntity
  8
0
100
AcDbLine
 10
-581.7316318623994
 20
-67.54048025499827
 30
0.0
 11
-594.0577683199994
 21
-67.54048025499827
 31
0.0
  0
LINE
  5
4DD0
330
A
100
AcDbEntity
  8
0
100
AcDbLine
 10
-581.7316318623994
 20
-20.54048025499827
 30
0.0
 11
-594.0577683199994
 21
-20.54048025499827
 31
0.0
  0
LINE
  5
4DD1
330
A
100
AcDbEntity
  8
0
100
AcDbLine
 10
-599.2077683199993
 20
-67.54048025499827
 30
0.0
 11
-599.2077683199993
 21
-62.74048025499832
 31
0.0
  0
LINE
  5
4DD2
330
A
100
AcDbEntity
  8
0
100
AcDbLine
 10
-599.2077683199993
 20
-25.34048025499834
 30
0.0
 11
-599.2077683199993
 21
-20.54048025499827
 31
0.0
  0
LINE
  5
4DD3
330
A
100
AcDbEntity
  8
0
100
AcDbLine
 10
-594.0577683199994
 20
-67.54048025499827
 30
0.0
 11
-599.2077683199993
 21
-67.54048025499827
 31
0.0
  0
LINE
  5
4DD4
330
A
100
AcDbEntity
  8
0
100
AcDbLine
 10
-599.2077683199993
 20
-20.54048025499827
 30
0.0
 11
-594.0577683199994
 21
-20.54048025499827
 31
0.0
  0
CIRCLE
  5
4DD5
330
A
100
AcDbEntity
  8
0
100
AcDbCircle
 10
-558.3577683199994
 20
-44.04048025499827
 30
0.0
 40
3.999999999982482
  0
CIRCLE
  5
4DD6
330
A
100
AcDbEntity
  8
0
100
AcDbCircle
 10
-558.3577683199994
 20
-44.04048025499827
 30
0.0
 40
5.000000000000018
  0
LINE
  5
4DD7
330
A
100
AcDbEntity
  8
0
100
AcDbLine
 10
-572.4028705883993
 20
-52.04048025499827
 30
0.0
 11
-543.3126660514994
 21
-52.04048025499827
 31
0.0
  0
ARC
  5
4DD8
330
A
100
AcDbEntity
  8
0
100
AcDbCircle
 10
-614.3577683199994
 20
-44.04048025499827
 30
0.0
 40
7.999999999999972
100
AcDbArc
 50
115.8419327631995
 51
244.1580672368005
  0
LINE
  5
4DD9
330
A
100
AcDbEntity
  8
0
100
AcDbLine
 10
-543.3126660514994
 20
-36.04048025499827
 30
0.0
 11
-572.4028705883993
 21
-36.04048025499827
 31
0.0
  0
ARC
  5
4DDA
330
A
100
AcDbEntity
  8
0
100
AcDbCircle
 10
-519.3577683199994
 20
-44.04048025499827
 30
0.0
 40
7.999999999999987
100
AcDbArc
 50
295.8419327632002
 51
64.15806723679977
  0
CIRCLE
  5
4DDB
330
A
100
AcDbEntity
  8
0
100
AcDbCircle
 10
-593.8577683199994
 20
-44.04048025499827
 30
0.0
 40
3.999999999999773
  0
CIRCLE
  5
4DDC
330
A
100
AcDbEntity
  8
0
100
AcDbCircle
 10
-517.3577683199994
 20
-44.04048025499827
 30
0.0
 40
4.0
  0
CIRCLE
  5
4DDD
330
A
100
AcDbEntity
  8
0
100
AcDbCircle
 10
-614.3577683199994
 20
-44.04048025499827
 30
0.0
 40
4.0
  0
LINE
  5
4DDE
330
A
100
AcDbEntity
  8
0
100
AcDbLine
 10
-656.3577683199994
 20
-51.24048025499832
 30
0.0
 11
-656.3577683199994
 21
-36.84048025499834
 31
0.0
  0
ARC
  5
4DDF
330
A
100
AcDbEntity
  8
0
100
AcDbCircle
 10
-614.3577683199994
 20
-44.04048025499827
 30
0.0
 40
8.249999999999979
100
AcDbArc
 50
119.2228702942999
 51
240.7771297057008
  0
LINE
  5
4DE0
330
A
100
AcDbEntity
  8
0
100
AcDbLine
 10
-572.2486508501994
 20
-52.29048025499827
 30
0.0
 11
-543.4668857896993
 21
-52.29048025499827
 31
0.0
  0
ARC
  5
4DE1
330
A
100
AcDbEntity
  8
0
100
AcDbCircle
 10
-519.3577683199994
 20
-44.04048025499827
 30
0.0
 40
8.249999999999984
100
AcDbArc
 50
299.2228702942999
 51
60.77712970569947
  0
LINE
  5
4DE2
330
A
100
AcDbEntity
  8
0
100
AcDbLine
 10
-543.4668857896993
 20
-35.79048025499827
 30
0.0
 11
-572.2486508501994
 21
-35.79048025499827
 31
0.0
  0
LINE
  5
4DE3
330
A
100
AcDbEntity
  8
0
  6
Continuous
 62
     8
370
     0
100
AcDbLine
 10
-657.5577683199994
 20
-51.24048025499832
 30
0.0
 11
-657.5577683199994
 21
-50.29048025499827
 31
0.0
  0
LINE
  5
4DE4
330
A
100
AcDbEntity
  8
0
  6
Continuous
 62
     8
370
     0
100
AcDbLine
 10
-665.0577683199994
 20
-50.29048025499827
 30
0.0
 11
-665.0577683199994
 21
-51.24048025499832
 31
0.0
  0
LINE
  5
4DE5
330
A
100
AcDbEntity
  8
0
  6
Continuous
 62
     8
370
     0
100
AcDbLine
 10
-665.0577683199994
 20
-36.84048025499834
 30
0.0
 11
-665.0577683199994
 21
-37.79048025499827
 31
0.0
  0
LINE
  5
4DE6
330
A
100
AcDbEntity
  8
0
  6
Continuous
 62
     8
370
     0
100
AcDbLine
 10
-657.5577683199994
 20
-37.79048025499827
 30
0.0
 11
-657.5577683199994
 21
-36.84048025499834
 31
0.0
  0
LINE
  5
4DE7
330
A
100
AcDbEntity
  8
0
  6
Continuous
 62
     8
370
     0
100
AcDbLine
 10
-666.7770576418993
 20
-26.84048025499834
 30
0.0
 11
-502.4384789980994
 21
-26.84048025499834
 31
0.0
  0
LINE
  5
4DE8
330
A
100
AcDbEntity
  8
0
  6
Continuous
 62
     8
370
     0
100
AcDbLine
 10
-501.3577683199994
 20
-26.84048025499834
 30
0.0
 11
-502.3577683199994
 21
-26.84048025499834
 31
0.0
  0
LINE
  5
4DE9
330
A
100
AcDbEntity
  8
0
  6
Continuous
 62
     8
370
     0
100
AcDbLine
 10
-667.8577683199994
 20
-26.84048025499834
 30
0.0
 11
-666.8577683199994
 21
-26.84048025499834
 31
0.0
  0
LINE
  5
4DEA
330
A
100
AcDbEntity
  8
0
  6
Continuous
 62
     8
370
     0
100
AcDbLine
 10
-502.4384789980994
 20
-61.24048025499832
 30
0.0
 11
-666.7770576418993
 21
-61.24048025499832
 31
0.0
  0
LINE
  5
4DEB
330
A
100
AcDbEntity
  8
0
  6
Continuous
 62
     8
370
     0
100
AcDbLine
 10
-667.8577683199994
 20
-61.24048025499832
 30
0.0
 11
-666.8577683199994
 21
-61.24048025499832
 31
0.0
  0
LINE
  5
4DEC
330
A
100
AcDbEntity
  8
0
  6
Continuous
 62
     8
370
     0
100
AcDbLine
 10
-501.3577683199994
 20
-61.24048025499832
 30
0.0
 11
-502.3577683199994
 21
-61.24048025499832
 31
0.0
  0
LINE
  5
4DED
330
A
100
AcDbEntity
  8
0
  6
Continuous
 62
     8
370
     0
100
AcDbLine
 10
-594.0577683199994
 20
-62.74048025499832
 30
0.0
 11
-594.0577683199994
 21
-67.54048025499827
 31
0.0
  0
LINE
  5
4DEE
330
A
100
AcDbEntity
  8
0
  6
Continuous
 62
     8
370
     0
100
AcDbLine
 10
-594.0577683199994
 20
-20.54048025499827
 30
0.0
 11
-594.0577683199994
 21
-25.34048025499834
 31
0.0
  0
LINE
  5
4DF4
330
A
100
AcDbEntity
  8
0
100
AcDbLine
 10
-591.3577683199994
 20
-141.9710731150847
 30
0.0
 11
-591.3577683199994
 21
-141.7234199250847
 31
0.0
  0
LINE
  5
4DF5
330
A
100
AcDbEntity
  8
0
100
AcDbLine
 10
-596.3577683199994
 20
-141.2194183237847
 30
0.0
 11
-596.3577683199994
 21
-141.5751950747846
 31
0.0
  0
LINE
  5
4DF6
330
A
100
AcDbEntity
  8
0
100
AcDbLine
 10
-563.1077683199994
 20
-157.2210731150847
 30
0.0
 11
-562.3577683199994
 21
-158.7210731150847
 31
0.0
  0
LINE
  5
4DF7
330
A
100
AcDbEntity
  8
0
100
AcDbLine
 10
-554.3577683199994
 20
-158.7210731150847
 30
0.0
 11
-553.6077683199994
 21
-157.2210731150847
 31
0.0
  0
LINE
  5
4DF8
330
A
100
AcDbEntity
  8
0
100
AcDbLine
 10
-502.8577683199994
 20
-102.7210731150847
 30
0.0
 11
-502.4384789980994
 21
-102.2210731150847
 31
0.0
  0
LINE
  5
4DF9
330
A
100
AcDbEntity
  8
0
100
AcDbLine
 10
-502.8577683199994
 20
-102.7210731150847
 30
0.0
 11
-502.4384789980994
 21
-101.2210731150847
 31
0.0
  0
LINE
  5
4DFA
330
A
100
AcDbEntity
  8
0
100
AcDbLine
 10
-502.4384789980994
 20
-101.2210731150847
 30
0.0
 11
-502.4384789980994
 21
-102.2210731150847
 31
0.0
  0
LINE
  5
4DFB
330
A
100
AcDbEntity
  8
0
100
AcDbLine
 10
-666.3577683199994
 20
-102.7210731150847
 30
0.0
 11
-666.7770576418993
 21
-102.2210731150847
 31
0.0
  0
LINE
  5
4DFC
330
A
100
AcDbEntity
  8
0
100
AcDbLine
 10
-666.7770576418993
 20
-101.2210731150847
 30
0.0
 11
-666.7770576418993
 21
-102.2210731150847
 31
0.0
  0
LINE
  5
4DFD
330
A
100
AcDbEntity
  8
0
100
AcDbLine
 10
-666.3577683199994
 20
-102.7210731150847
 30
0.0
 11
-666.7770576418993
 21
-101.2210731150847
 31
0.0
  0
LINE
  5
4DFE
330
A
100
AcDbEntity
  8
0
100
AcDbLine
 10
-502.4384789980994
 20
-101.2210731150847
 30
0.0
 11
-666.7770576418993
 21
-101.2210731150847
 31
0.0
  0
ARC
  5
4DFF
330
A
100
AcDbEntity
  8
0
100
AcDbCircle
 10
-574.8577683199994
 20
-136.7210731150847
 30
0.0
 40
8.750000000000005
100
AcDbArc
 50
216.8698976458005
 51
143.1301023541995
  0
LINE
  5
4E00
330
A
100
AcDbEntity
  8
0
100
AcDbLine
 10
-581.8577683199994
 20
-131.4710731150847
 30
0.0
 11
-594.3577683199994
 21
-131.4710731150847
 31
0.0
  0
ARC
  5
4E01
330
A
100
AcDbEntity
  8
0
100
AcDbCircle
 10
-594.3577683199994
 20
-136.7210731150847
 30
0.0
 40
5.25
100
AcDbArc
 50
90.0
 51
270.0
  0
LINE
  5
4E02
330
A
100
AcDbEntity
  8
0
100
AcDbLine
 10
-594.3577683199994
 20
-141.9710731150847
 30
0.0
 11
-581.8577683199994
 21
-141.9710731150847
 31
0.0
  0
LINE
  5
4E03
330
A
100
AcDbEntity
  8
0
100
AcDbLine
 10
-666.8577683199994
 20
-102.3017837931847
 30
0.0
 11
-666.3577683199994
 21
-102.7210731150847
 31
0.0
  0
LINE
  5
4E04
330
A
100
AcDbEntity
  8
0
100
AcDbLine
 10
-667.8577683199994
 20
-102.3017837931847
 30
0.0
 11
-666.3577683199994
 21
-102.7210731150847
 31
0.0
  0
LINE
  5
4E05
330
A
100
AcDbEntity
  8
0
100
AcDbLine
 10
-667.8577683199994
 20
-102.3017837931847
 30
0.0
 11
-666.8577683199994
 21
-102.3017837931847
 31
0.0
  0
LINE
  5
4E06
330
A
100
AcDbEntity
  8
0
100
AcDbLine
 10
-666.3577683199994
 20
-155.7210731150847
 30
0.0
 11
-667.8577683199994
 21
-156.1403624369847
 31
0.0
  0
LINE
  5
4E07
330
A
100
AcDbEntity
  8
0
100
AcDbLine
 10
-667.8577683199994
 20
-102.3017837931847
 30
0.0
 11
-667.8577683199994
 21
-156.1403624369847
 31
0.0
  0
LINE
  5
4E08
330
A
100
AcDbEntity
  8
0
100
AcDbLine
 10
-502.3577683199994
 20
-102.3017837931847
 30
0.0
 11
-502.8577683199994
 21
-102.7210731150847
 31
0.0
  0
LINE
  5
4E09
330
A
100
AcDbEntity
  8
0
100
AcDbLine
 10
-501.3577683199994
 20
-102.3017837931847
 30
0.0
 11
-502.3577683199994
 21
-102.3017837931847
 31
0.0
  0
LINE
  5
4E0A
330
A
100
AcDbEntity
  8
0
100
AcDbLine
 10
-501.3577683199994
 20
-102.3017837931847
 30
0.0
 11
-502.8577683199994
 21
-102.7210731150847
 31
0.0
  0
LINE
  5
4E0B
330
A
100
AcDbEntity
  8
0
100
AcDbLine
 10
-501.3577683199994
 20
-156.1403624369847
 30
0.0
 11
-501.3577683199994
 21
-102.3017837931847
 31
0.0
  0
LINE
  5
4E0C
330
A
100
AcDbEntity
  8
0
100
AcDbLine
 10
-501.3577683199994
 20
-156.1403624369847
 30
0.0
 11
-502.8577683199994
 21
-155.7210731150847
 31
0.0
  0
LINE
  5
4E0D
330
A
100
AcDbEntity
  8
0
100
AcDbLine
 10
-666.3577683199994
 20
-155.7210731150847
 30
0.0
 11
-666.8577683199994
 21
-156.1403624369847
 31
0.0
  0
LINE
  5
4E0E
330
A
100
AcDbEntity
  8
0
100
AcDbLine
 10
-667.8577683199994
 20
-156.1403624369847
 30
0.0
 11
-666.8577683199994
 21
-156.1403624369847
 31
0.0
  0
LINE
  5
4E0F
330
A
100
AcDbEntity
  8
0
100
AcDbLine
 10
-502.8577683199994
 20
-155.7210731150847
 30
0.0
 11
-502.4384789980994
 21
-156.2210731150847
 31
0.0
  0
LINE
  5
4E10
330
A
100
AcDbEntity
  8
0
100
AcDbLine
 10
-502.4384789980994
 20
-157.2210731150847
 30
0.0
 11
-502.4384789980994
 21
-156.2210731150847
 31
0.0
  0
LINE
  5
4E11
330
A
100
AcDbEntity
  8
0
100
AcDbLine
 10
-502.8577683199994
 20
-155.7210731150847
 30
0.0
 11
-502.4384789980994
 21
-157.2210731150847
 31
0.0
  0
LINE
  5
4E12
330
A
100
AcDbEntity
  8
0
100
AcDbLine
 10
-666.7770576418993
 20
-157.2210731150847
 30
0.0
 11
-666.3577683199994
 21
-155.7210731150847
 31
0.0
  0
LINE
  5
4E13
330
A
100
AcDbEntity
  8
0
100
AcDbLine
 10
-666.7770576418993
 20
-157.2210731150847
 30
0.0
 11
-502.4384789980994
 21
-157.2210731150847
 31
0.0
  0
LINE
  5
4E14
330
A
100
AcDbEntity
  8
0
100
AcDbLine
 10
-666.7770576418993
 20
-156.2210731150847
 30
0.0
 11
-666.3577683199994
 21
-155.7210731150847
 31
0.0
  0
LINE
  5
4E15
330
A
100
AcDbEntity
  8
0
100
AcDbLine
 10
-666.7770576418993
 20
-157.2210731150847
 30
0.0
 11
-666.7770576418993
 21
-156.2210731150847
 31
0.0
  0
LINE
  5
4E16
330
A
100
AcDbEntity
  8
0
100
AcDbLine
 10
-502.3577683199994
 20
-156.1403624369847
 30
0.0
 11
-502.8577683199994
 21
-155.7210731150847
 31
0.0
  0
LINE
  5
4E17
330
A
100
AcDbEntity
  8
0
100
AcDbLine
 10
-501.3577683199994
 20
-156.1403624369847
 30
0.0
 11
-502.3577683199994
 21
-156.1403624369847
 31
0.0
  0
LINE
  5
4E18
330
A
100
AcDbEntity
  8
0
100
AcDbLine
 10
-599.2077683199993
 20
-135.2927464673847
 30
0.0
 11
-599.2077683199993
 21
-138.1540933826847
 31
0.0
  0
ARC
  5
4E19
330
A
100
AcDbEntity
  8
0
100
AcDbCircle
 10
-574.8577683199994
 20
-136.7234199250847
 30
0.0
 40
8.500000000000009
100
AcDbArc
 50
216.0318790725001
 51
143.9681209274999
  0
CIRCLE
  5
4E1A
330
A
100
AcDbEntity
  8
0
100
AcDbCircle
 10
-574.8577683199994
 20
-136.7234199250847
 30
0.0
 40
7.250000000000014
  0
LINE
  5
4E1B
330
A
100
AcDbEntity
  8
0
100
AcDbLine
 10
-581.7316318623994
 20
-141.7234199250847
 30
0.0
 11
-594.0577683199994
 21
-141.7234199250847
 31
0.0
  0
ARC
  5
4E1C
330
A
100
AcDbEntity
  8
0
100
AcDbCircle
 10
-594.0577683199994
 20
-136.2234199250847
 30
0.0
 40
5.500000000000014
100
AcDbArc
 50
200.5504215508995
 51
270.0
  0
LINE
  5
4E1D
330
A
100
AcDbEntity
  8
0
100
AcDbLine
 10
-594.0577683199994
 20
-131.7234199250847
 30
0.0
 11
-581.7316318623994
 21
-131.7234199250847
 31
0.0
  0
ARC
  5
4E1E
330
A
100
AcDbEntity
  8
0
100
AcDbCircle
 10
-594.0577683199994
 20
-137.2234199250847
 30
0.0
 40
5.50000000000002
100
AcDbArc
 50
90.0
 51
159.4495784491002
  0
ARC
  5
4E1F
330
A
100
AcDbEntity
  8
0
100
AcDbCircle
 10
-574.8577683199994
 20
-136.7234199250847
 30
0.0
 40
6.500000000000004
100
AcDbArc
 50
168.0128502362001
 51
191.9871497637999
  0
LINE
  5
4E20
330
A
100
AcDbEntity
  8
0
100
AcDbLine
 10
-579.0517981706994
 20
-137.5293900742847
 30
0.0
 11
-577.8577683199994
 21
-136.7234199250847
 31
0.0
  0
LINE
  5
4E21
330
A
100
AcDbEntity
  8
0
100
AcDbLine
 10
-577.8577683199994
 20
-136.7234199250847
 30
0.0
 11
-576.5811725752994
 21
-137.5851220526847
 31
0.0
  0
LINE
  5
4E22
330
A
100
AcDbEntity
  8
0
100
AcDbLine
 10
-573.1343640646994
 20
-137.2978880101846
 30
0.0
 11
-571.8577683199994
 21
-136.7234199250847
 31
0.0
  0
LINE
  5
4E23
330
A
100
AcDbEntity
  8
0
100
AcDbLine
 10
-573.1343640646994
 20
-136.1489518399846
 30
0.0
 11
-574.8577683199994
 21
-136.7234199250847
 31
0.0
  0
LINE
  5
4E24
330
A
100
AcDbEntity
  8
0
100
AcDbLine
 10
-574.8577683199994
 20
-136.7234199250847
 30
0.0
 11
-576.5811725752994
 21
-135.8617177973846
 31
0.0
  0
LINE
  5
4E25
330
A
100
AcDbEntity
  8
0
100
AcDbLine
 10
-579.0517981706994
 20
-135.9174497757846
 30
0.0
 11
-579.8577683199994
 21
-136.7234199250847
 31
0.0
  0
LINE
  5
4E26
330
A
100
AcDbEntity
  8
0
100
AcDbLine
 10
-580.8577683199994
 20
-136.7234199250847
 30
0.0
 11
-580.8577683199994
 21
-135.3734199250846
 31
0.0
  0
LINE
  5
4E27
330
A
100
AcDbEntity
  8
0
100
AcDbLine
 10
-574.8577683199994
 20
-135.3734199250846
 30
0.0
 11
-571.8577683199994
 21
-136.7234199250847
 31
0.0
  0
LINE
  5
4E28
330
A
100
AcDbEntity
  8
0
100
AcDbLine
 10
-575.8577683199994
 20
-135.3734199250846
 30
0.0
 11
-574.8577683199994
 21
-135.3734199250846
 31
0.0
  0
LINE
  5
4E29
330
A
100
AcDbEntity
  8
0
100
AcDbLine
 10
-576.8577683199994
 20
-137.7234199250847
 30
0.0
 11
-578.8577683199994
 21
-137.7234199250847
 31
0.0
  0
LINE
  5
4E2A
330
A
100
AcDbEntity
  8
0
100
AcDbLine
 10
-574.8577683199994
 20
-136.7234199250847
 30
0.0
 11
-576.8577683199994
 21
-137.7234199250847
 31
0.0
  0
LINE
  5
4E2B
330
A
100
AcDbEntity
  8
0
100
AcDbLine
 10
-571.8577683199994
 20
-137.7234199250847
 30
0.0
 11
-574.8577683199994
 21
-136.7234199250847
 31
0.0
  0
LINE
  5
4E2C
330
A
100
AcDbEntity
  8
0
100
AcDbLine
 10
-571.8577683199994
 20
-136.7234199250847
 30
0.0
 11
-571.8577683199994
 21
-137.7234199250847
 31
0.0
  0
ARC
  5
4E2D
330
A
100
AcDbEntity
  8
0
100
AcDbCircle
 10
-574.8577683199994
 20
-136.7234199250847
 30
0.0
 40
7.000000000000009
100
AcDbArc
 50
191.1195709534998
 51
168.8804290464997
  0
LINE
  5
4E2E
330
A
100
AcDbEntity
  8
0
100
AcDbLine
 10
-580.8577683199994
 20
-138.0734199250847
 30
0.0
 11
-581.7263562388994
 21
-138.0734199250847
 31
0.0
  0
LINE
  5
4E2F
330
A
100
AcDbEntity
  8
0
100
AcDbLine
 10
-580.8577683199994
 20
-136.7234199250847
 30
0.0
 11
-580.8577683199994
 21
-138.0734199250847
 31
0.0
  0
LINE
  5
4E30
330
A
100
AcDbEntity
  8
0
100
AcDbLine
 10
-578.8577683199994
 20
-137.7234199250847
 30
0.0
 11
-579.8577683199994
 21
-136.7234199250847
 31
0.0
  0
LINE
  5
4E31
330
A
100
AcDbEntity
  8
0
100
AcDbLine
 10
-579.8577683199994
 20
-136.7234199250847
 30
0.0
 11
-580.8577683199994
 21
-136.7234199250847
 31
0.0
  0
LINE
  5
4E32
330
A
100
AcDbEntity
  8
0
100
AcDbLine
 10
-579.8577683199994
 20
-135.3734199250846
 30
0.0
 11
-577.8577683199994
 21
-136.7234199250847
 31
0.0
  0
LINE
  5
4E33
330
A
100
AcDbEntity
  8
0
100
AcDbLine
 10
-577.8577683199994
 20
-136.7234199250847
 30
0.0
 11
-575.8577683199994
 21
-135.3734199250846
 31
0.0
  0
LINE
  5
4E34
330
A
100
AcDbEntity
  8
0
100
AcDbLine
 10
-581.7263562388994
 20
-135.3734199250846
 30
0.0
 11
-579.8577683199994
 21
-135.3734199250846
 31
0.0
  0
ARC
  5
4E35
330
A
100
AcDbEntity
  8
0
100
AcDbCircle
 10
-594.3577683199994
 20
-137.1210731150846
 30
0.0
 40
5.099999999999995
100
AcDbArc
 50
161.9858909385997
 51
199.9560371288009
  0
ARC
  5
4E36
330
A
100
AcDbEntity
  8
0
100
AcDbCircle
 10
-574.8577683199994
 20
-137.1210731150846
 30
0.0
 40
8.599999999999998
100
AcDbArc
 50
339.2056648055
 51
15.85076718199999
  0
LINE
  5
4E37
330
A
100
AcDbEntity
  8
0
100
AcDbLine
 10
-554.3577683199994
 20
-158.7210731150847
 30
0.0
 11
-562.3577683199994
 21
-158.7210731150847
 31
0.0
  0
LINE
  5
4E48
330
A
100
AcDbEntity
  8
0
  6
Continuous
 62
     8
370
     0
100
AcDbLine
 10
-666.3577683199994
 20
-102.7210731150847
 30
0.0
 11
-502.8577683199994
 21
-102.7210731150847
 31
0.0
  0
LINE
  5
4E49
330
A
100
AcDbEntity
  8
0
  6
Continuous
 62
     8
370
     0
100
AcDbLine
 10
-502.8577683199994
 20
-102.7210731150847
 30
0.0
 11
-502.8577683199994
 21
-155.7210731150847
 31
0.0
  0
LINE
  5
4E4A
330
A
100
AcDbEntity
  8
0
  6
Continuous
 62
     8
370
     0
100
AcDbLine
 10
-502.8577683199994
 20
-155.7210731150847
 30
0.0
 11
-666.3577683199994
 21
-155.7210731150847
 31
0.0
  0
LINE
  5
4E4B
330
A
100
AcDbEntity
  8
0
  6
Continuous
 62
     8
370
     0
100
AcDbLine
 10
-666.3577683199994
 20
-155.7210731150847
 30
0.0
 11
-666.3577683199994
 21
-102.7210731150847
 31
0.0
  0
LINE
  5
4E4C
330
A
100
AcDbEntity
  8
ASSI
  6
CENTER
 62
     1
100
AcDbLine
 10
-659.6077683199994
 20
-117.2210731150847
 30
0.0
 11
-659.6077683199994
 21
-157.2210731150847
 31
0.0
  0
LINE
  5
4E4D
330
A
100
AcDbEntity
  8
ASSI
  6
CENTER
 62
     1
100
AcDbLine
 10
-646.1077683199994
 20
-107.2210731150847
 30
0.0
 11
-649.6077683199994
 21
-107.2210731150847
 31
0.0
  0
LINE
  5
4E4E
330
A
100
AcDbEntity
  8
ASSI
  6
CENTER
 62
     1
100
AcDbLine
 10
-501.6077683199994
 20
-113.2210731150847
 30
0.0
 11
-634.6186430268993
 21
-113.2210731150847
 31
0.0
  0
LINE
  5
4E4F
330
A
100
AcDbEntity
  8
ASSI
100
AcDbLine
 10
-558.3577683199994
 20
-152.1635130269167
 30
0.0
 11
-558.3577683199994
 21
-161.2875195161847
 31
0.0
  0
LINE
  5
4E50
330
A
100
AcDbEntity
  8
ASSI
100
AcDbLine
 10
-558.3577683199994
 20
-157.2210731150847
 30
0.0
 11
-558.3577683199994
 21
-157.2210731150847
 31
0.0
  0
ARC
  5
4E51
330
A
100
AcDbEntity
  8
ASSI
  6
CENTER
 62
     1
100
AcDbCircle
 10
-649.6077683199994
 20
-117.2210731150847
 30
0.0
 40
10.0
100
AcDbArc
 50
90.0
 51
180.0
  0
ARC
  5
4E52
330
A
100
AcDbEntity
  8
ASSI
  6
CENTER
 62
     1
100
AcDbCircle
 10
-646.1077683199994
 20
-117.2210731150847
 30
0.0
 40
10.00000000000003
100
AcDbArc
 50
34.8499045789999
 51
90.0
  0
ARC
  5
4E53
330
A
100
AcDbEntity
  8
ASSI
  6
CENTER
 62
     1
100
AcDbCircle
 10
-634.6186430268993
 20
-109.2210731150847
 30
0.0
 40
4.0
100
AcDbArc
 50
214.8499045789999
 51
270.0
  0
LINE
  5
4E95
330
A
100
AcDbEntity
  8
0
100
AcDbLine
 10
-591.3577683199994
 20
-235.4118043528383
 30
0.0
 11
-591.3577683199994
 21
-235.1641511628383
 31
0.0
  0
LINE
  5
4E96
330
A
100
AcDbEntity
  8
0
100
AcDbLine
 10
-596.3577683199994
 20
-234.6601495615383
 30
0.0
 11
-596.3577683199994
 21
-235.0159263125383
 31
0.0
  0
LINE
  5
4E97
330
A
100
AcDbEntity
  8
0
100
AcDbLine
 10
-563.1077683199994
 20
-250.6618043528383
 30
0.0
 11
-562.3577683198994
 21
-252.1618043528383
 31
0.0
  0
LINE
  5
4E98
330
A
100
AcDbEntity
  8
0
100
AcDbLine
 10
-554.3577683199994
 20
-252.1618043528383
 30
0.0
 11
-553.6077683199994
 21
-250.6618043528383
 31
0.0
  0
LINE
  5
4E99
330
A
100
AcDbEntity
  8
0
100
AcDbLine
 10
-666.3577683199994
 20
-196.1618043528383
 30
0.0
 11
-666.7770576417993
 21
-195.6618043528383
 31
0.0
  0
LINE
  5
4E9A
330
A
100
AcDbEntity
  8
0
100
AcDbLine
 10
-666.7770576417993
 20
-194.6618043528383
 30
0.0
 11
-666.7770576417993
 21
-195.6618043528383
 31
0.0
  0
LINE
  5
4E9B
330
A
100
AcDbEntity
  8
0
100
AcDbLine
 10
-666.3577683199994
 20
-196.1618043528383
 30
0.0
 11
-666.7770576417993
 21
-194.6618043528383
 31
0.0
  0
LINE
  5
4E9C
330
A
100
AcDbEntity
  8
0
100
AcDbLine
 10
-502.8577683199994
 20
-196.1618043528383
 30
0.0
 11
-502.4384789980994
 21
-195.6618043528383
 31
0.0
  0
LINE
  5
4E9D
330
A
100
AcDbEntity
  8
0
100
AcDbLine
 10
-502.8577683199994
 20
-196.1618043528383
 30
0.0
 11
-502.4384789980994
 21
-194.6618043528383
 31
0.0
  0
LINE
  5
4E9E
330
A
100
AcDbEntity
  8
0
100
AcDbLine
 10
-502.4384789980994
 20
-194.6618043528383
 30
0.0
 11
-502.4384789980994
 21
-195.6618043528383
 31
0.0
  0
LINE
  5
4E9F
330
A
100
AcDbEntity
  8
0
100
AcDbLine
 10
-502.4384789980994
 20
-194.6618043528383
 30
0.0
 11
-666.7770576417993
 21
-194.6618043528383
 31
0.0
  0
LINE
  5
4EA0
330
A
100
AcDbEntity
  8
0
100
AcDbLine
 10
-501.3577683199994
 20
-249.5810936747383
 30
0.0
 11
-501.3577683199994
 21
-195.7425150309383
 31
0.0
  0
LINE
  5
4EA1
330
A
100
AcDbEntity
  8
0
100
AcDbLine
 10
-501.3577683199994
 20
-249.5810936747383
 30
0.0
 11
-502.8577683199994
 21
-249.1618043528383
 31
0.0
  0
LINE
  5
4EA2
330
A
100
AcDbEntity
  8
0
100
AcDbLine
 10
-501.3577683199994
 20
-195.7425150309383
 30
0.0
 11
-502.8577683199994
 21
-196.1618043528383
 31
0.0
  0
LINE
  5
4EA3
330
A
100
AcDbEntity
  8
0
100
AcDbLine
 10
-502.3577683199994
 20
-195.7425150309383
 30
0.0
 11
-502.8577683199994
 21
-196.1618043528383
 31
0.0
  0
LINE
  5
4EA4
330
A
100
AcDbEntity
  8
0
100
AcDbLine
 10
-501.3577683199994
 20
-195.7425150309383
 30
0.0
 11
-502.3577683199994
 21
-195.7425150309383
 31
0.0
  0
ARC
  5
4EA5
330
A
100
AcDbEntity
  8
0
100
AcDbCircle
 10
-574.8577683199994
 20
-230.1618043528383
 30
0.0
 40
8.75
100
AcDbArc
 50
216.8698976457993
 51
143.1301023541995
  0
LINE
  5
4EA6
330
A
100
AcDbEntity
  8
0
100
AcDbLine
 10
-581.8577683199994
 20
-224.9118043528383
 30
0.0
 11
-594.3577683199994
 21
-224.9118043528383
 31
0.0
  0
ARC
  5
4EA7
330
A
100
AcDbEntity
  8
0
100
AcDbCircle
 10
-594.3577683199994
 20
-230.1618043528383
 30
0.0
 40
5.25
100
AcDbArc
 50
90.0
 51
270.0
  0
LINE
  5
4EA8
330
A
100
AcDbEntity
  8
0
100
AcDbLine
 10
-594.3577683199994
 20
-235.4118043528383
 30
0.0
 11
-581.8577683199994
 21
-235.4118043528383
 31
0.0
  0
LINE
  5
4EA9
330
A
100
AcDbEntity
  8
0
100
AcDbLine
 10
-666.8577683199994
 20
-195.7425150309383
 30
0.0
 11
-666.3577683199994
 21
-196.1618043528383
 31
0.0
  0
LINE
  5
4EAA
330
A
100
AcDbEntity
  8
0
100
AcDbLine
 10
-667.8577683199994
 20
-195.7425150309383
 30
0.0
 11
-666.3577683199994
 21
-196.1618043528383
 31
0.0
  0
LINE
  5
4EAB
330
A
100
AcDbEntity
  8
0
100
AcDbLine
 10
-667.8577683199994
 20
-195.7425150309383
 30
0.0
 11
-666.8577683199994
 21
-195.7425150309383
 31
0.0
  0
LINE
  5
4EAC
330
A
100
AcDbEntity
  8
0
100
AcDbLine
 10
-666.3577683199994
 20
-249.1618043528383
 30
0.0
 11
-667.8577683199994
 21
-249.5810936747383
 31
0.0
  0
LINE
  5
4EAD
330
A
100
AcDbEntity
  8
0
100
AcDbLine
 10
-667.8577683199994
 20
-195.7425150309383
 30
0.0
 11
-667.8577683199994
 21
-249.5810936747383
 31
0.0
  0
LINE
  5
4EAE
330
A
100
AcDbEntity
  8
0
100
AcDbLine
 10
-666.3577683199994
 20
-249.1618043528383
 30
0.0
 11
-666.8577683199994
 21
-249.5810936747383
 31
0.0
  0
LINE
  5
4EAF
330
A
100
AcDbEntity
  8
0
100
AcDbLine
 10
-667.8577683199994
 20
-249.5810936747383
 30
0.0
 11
-666.8577683199994
 21
-249.5810936747383
 31
0.0
  0
LINE
  5
4EB0
330
A
100
AcDbEntity
  8
0
100
AcDbLine
 10
-502.8577683199994
 20
-249.1618043528383
 30
0.0
 11
-502.4384789980994
 21
-249.6618043528383
 31
0.0
  0
LINE
  5
4EB1
330
A
100
AcDbEntity
  8
0
100
AcDbLine
 10
-502.4384789980994
 20
-250.6618043528383
 30
0.0
 11
-502.4384789980994
 21
-249.6618043528383
 31
0.0
  0
LINE
  5
4EB2
330
A
100
AcDbEntity
  8
0
100
AcDbLine
 10
-502.8577683199994
 20
-249.1618043528383
 30
0.0
 11
-502.4384789980994
 21
-250.6618043528383
 31
0.0
  0
LINE
  5
4EB3
330
A
100
AcDbEntity
  8
0
100
AcDbLine
 10
-502.3577683199994
 20
-249.5810936747383
 30
0.0
 11
-502.8577683199994
 21
-249.1618043528383
 31
0.0
  0
LINE
  5
4EB4
330
A
100
AcDbEntity
  8
0
100
AcDbLine
 10
-501.3577683199994
 20
-249.5810936747383
 30
0.0
 11
-502.3577683199994
 21
-249.5810936747383
 31
0.0
  0
LINE
  5
4EB5
330
A
100
AcDbEntity
  8
0
100
AcDbLine
 10
-666.7770576417993
 20
-249.6618043528383
 30
0.0
 11
-666.3577683199994
 21
-249.1618043528383
 31
0.0
  0
LINE
  5
4EB6
330
A
100
AcDbEntity
  8
0
100
AcDbLine
 10
-666.7770576417993
 20
-250.6618043528383
 30
0.0
 11
-666.3577683199994
 21
-249.1618043528383
 31
0.0
  0
LINE
  5
4EB7
330
A
100
AcDbEntity
  8
0
100
AcDbLine
 10
-666.7770576417993
 20
-250.6618043528383
 30
0.0
 11
-666.7770576417993
 21
-249.6618043528383
 31
0.0
  0
LINE
  5
4EB8
330
A
100
AcDbEntity
  8
0
100
AcDbLine
 10
-666.7770576417993
 20
-250.6618043528383
 30
0.0
 11
-502.4384789980994
 21
-250.6618043528383
 31
0.0
  0
LINE
  5
4EB9
330
A
100
AcDbEntity
  8
0
100
AcDbLine
 10
-599.2077683199993
 20
-228.7334777052383
 30
0.0
 11
-599.2077683199993
 21
-231.5948246204383
 31
0.0
  0
ARC
  5
4EBA
330
A
100
AcDbEntity
  8
0
100
AcDbCircle
 10
-574.8577683199994
 20
-230.1641511628383
 30
0.0
 40
8.500000000000004
100
AcDbArc
 50
216.0318790725001
 51
143.9681209274989
  0
CIRCLE
  5
4EBB
330
A
100
AcDbEntity
  8
0
100
AcDbCircle
 10
-574.8577683199994
 20
-230.1641511628383
 30
0.0
 40
7.250000000000014
  0
LINE
  5
4EBC
330
A
100
AcDbEntity
  8
0
100
AcDbLine
 10
-581.7316318623994
 20
-235.1641511628383
 30
0.0
 11
-594.0577683199995
 21
-235.1641511628383
 31
0.0
  0
ARC
  5
4EBD
330
A
100
AcDbEntity
  8
0
100
AcDbCircle
 10
-594.0577683199995
 20
-229.6641511628383
 30
0.0
 40
5.500000000000087
100
AcDbArc
 50
200.5504215509001
 51
270.0
  0
LINE
  5
4EBE
330
A
100
AcDbEntity
  8
0
100
AcDbLine
 10
-594.0577683199995
 20
-225.1641511628383
 30
0.0
 11
-581.7316318623994
 21
-225.1641511628383
 31
0.0
  0
ARC
  5
4EBF
330
A
100
AcDbEntity
  8
0
100
AcDbCircle
 10
-594.0577683199995
 20
-230.6641511628383
 30
0.0
 40
5.500000000000092
100
AcDbArc
 50
90.0
 51
159.4495784490999
  0
ARC
  5
4EC0
330
A
100
AcDbEntity
  8
0
100
AcDbCircle
 10
-574.8577683199994
 20
-230.1641511628383
 30
0.0
 40
6.500000000000012
100
AcDbArc
 50
168.0128502362001
 51
191.9871497637999
  0
LINE
  5
4EC1
330
A
100
AcDbEntity
  8
0
100
AcDbLine
 10
-579.0517981706994
 20
-230.9701213121382
 30
0.0
 11
-577.8577683199994
 21
-230.1641511628383
 31
0.0
  0
LINE
  5
4EC2
330
A
100
AcDbEntity
  8
0
100
AcDbLine
 10
-577.8577683199994
 20
-230.1641511628383
 30
0.0
 11
-576.5811725752994
 21
-231.0258532905382
 31
0.0
  0
LINE
  5
4EC3
330
A
100
AcDbEntity
  8
0
100
AcDbLine
 10
-573.1343640645994
 20
-230.7386192479382
 30
0.0
 11
-571.8577683199994
 21
-230.1641511628383
 31
0.0
  0
LINE
  5
4EC4
330
A
100
AcDbEntity
  8
0
100
AcDbLine
 10
-573.1343640645994
 20
-229.5896830777382
 30
0.0
 11
-574.8577683199994
 21
-230.1641511628383
 31
0.0
  0
LINE
  5
4EC5
330
A
100
AcDbEntity
  8
0
100
AcDbLine
 10
-574.8577683199994
 20
-230.1641511628383
 30
0.0
 11
-576.5811725752994
 21
-229.3024490351382
 31
0.0
  0
LINE
  5
4EC6
330
A
100
AcDbEntity
  8
0
100
AcDbLine
 10
-579.0517981706994
 20
-229.3581810136383
 30
0.0
 11
-579.8577683199994
 21
-230.1641511628383
 31
0.0
  0
LINE
  5
4EC7
330
A
100
AcDbEntity
  8
0
100
AcDbLine
 10
-580.8577683199994
 20
-230.1641511628383
 30
0.0
 11
-580.8577683199994
 21
-228.8141511628382
 31
0.0
  0
LINE
  5
4EC8
330
A
100
AcDbEntity
  8
0
100
AcDbLine
 10
-574.8577683199994
 20
-228.8141511628382
 30
0.0
 11
-571.8577683199994
 21
-230.1641511628383
 31
0.0
  0
LINE
  5
4EC9
330
A
100
AcDbEntity
  8
0
100
AcDbLine
 10
-575.8577683199994
 20
-228.8141511628382
 30
0.0
 11
-574.8577683199994
 21
-228.8141511628382
 31
0.0
  0
LINE
  5
4ECA
330
A
100
AcDbEntity
  8
0
100
AcDbLine
 10
-576.8577683199994
 20
-231.1641511628383
 30
0.0
 11
-578.8577683199994
 21
-231.1641511628383
 31
0.0
  0
LINE
  5
4ECB
330
A
100
AcDbEntity
  8
0
100
AcDbLine
 10
-574.8577683199994
 20
-230.1641511628383
 30
0.0
 11
-576.8577683199994
 21
-231.1641511628383
 31
0.0
  0
LINE
  5
4ECC
330
A
100
AcDbEntity
  8
0
100
AcDbLine
 10
-571.8577683199994
 20
-231.1641511628383
 30
0.0
 11
-574.8577683199994
 21
-230.1641511628383
 31
0.0
  0
LINE
  5
4ECD
330
A
100
AcDbEntity
  8
0
100
AcDbLine
 10
-571.8577683199994
 20
-230.1641511628383
 30
0.0
 11
-571.8577683199994
 21
-231.1641511628383
 31
0.0
  0
ARC
  5
4ECE
330
A
100
AcDbEntity
  8
0
100
AcDbCircle
 10
-574.8577683199994
 20
-230.1641511628383
 30
0.0
 40
7.000000000000002
100
AcDbArc
 50
191.1195709534998
 51
168.8804290465002
  0
LINE
  5
4ECF
330
A
100
AcDbEntity
  8
0
100
AcDbLine
 10
-580.8577683199994
 20
-231.5141511628382
 30
0.0
 11
-581.7263562388994
 21
-231.5141511628382
 31
0.0
  0
LINE
  5
4ED0
330
A
100
AcDbEntity
  8
0
100
AcDbLine
 10
-580.8577683199994
 20
-230.1641511628383
 30
0.0
 11
-580.8577683199994
 21
-231.5141511628382
 31
0.0
  0
LINE
  5
4ED1
330
A
100
AcDbEntity
  8
0
100
AcDbLine
 10
-578.8577683199994
 20
-231.1641511628383
 30
0.0
 11
-579.8577683199994
 21
-230.1641511628383
 31
0.0
  0
LINE
  5
4ED2
330
A
100
AcDbEntity
  8
0
100
AcDbLine
 10
-579.8577683199994
 20
-230.1641511628383
 30
0.0
 11
-580.8577683199994
 21
-230.1641511628383
 31
0.0
  0
LINE
  5
4ED3
330
A
100
AcDbEntity
  8
0
100
AcDbLine
 10
-579.8577683199994
 20
-228.8141511628382
 30
0.0
 11
-577.8577683199994
 21
-230.1641511628383
 31
0.0
  0
LINE
  5
4ED4
330
A
100
AcDbEntity
  8
0
100
AcDbLine
 10
-581.7263562388994
 20
-228.8141511628382
 30
0.0
 11
-579.8577683199994
 21
-228.8141511628382
 31
0.0
  0
LINE
  5
4ED5
330
A
100
AcDbEntity
  8
0
100
AcDbLine
 10
-577.8577683199994
 20
-230.1641511628383
 30
0.0
 11
-575.8577683199994
 21
-228.8141511628382
 31
0.0
  0
ARC
  5
4ED6
330
A
100
AcDbEntity
  8
0
100
AcDbCircle
 10
-594.3577683199994
 20
-230.5618043528382
 30
0.0
 40
5.100000000000042
100
AcDbArc
 50
161.9858909386003
 51
199.9560371281012
  0
ARC
  5
4ED7
330
A
100
AcDbEntity
  8
0
100
AcDbCircle
 10
-574.8577683199994
 20
-230.5618043528382
 30
0.0
 40
8.600000000000012
100
AcDbArc
 50
339.2056648033001
 51
15.85076719289998
  0
LINE
  5
4ED8
330
A
100
AcDbEntity
  8
0
100
AcDbLine
 10
-554.3577683199994
 20
-252.1618043528383
 30
0.0
 11
-562.3577683198994
 21
-252.1618043528383
 31
0.0
  0
LINE
  5
4EE9
330
A
100
AcDbEntity
  8
0
  6
Continuous
 62
     8
370
     0
100
AcDbLine
 10
-666.3577683199994
 20
-196.1618043528383
 30
0.0
 11
-502.8577683199994
 21
-196.1618043528383
 31
0.0
  0
LINE
  5
4EEA
330
A
100
AcDbEntity
  8
0
  6
Continuous
 62
     8
370
     0
100
AcDbLine
 10
-502.8577683199994
 20
-196.1618043528383
 30
0.0
 11
-502.8577683199994
 21
-249.1618043528383
 31
0.0
  0
LINE
  5
4EEB
330
A
100
AcDbEntity
  8
0
  6
Continuous
 62
     8
370
     0
100
AcDbLine
 10
-502.8577683199994
 20
-249.1618043528383
 30
0.0
 11
-666.3577683199994
 21
-249.1618043528383
 31
0.0
  0
LINE
  5
4EEC
330
A
100
AcDbEntity
  8
0
  6
Continuous
 62
     8
370
     0
100
AcDbLine
 10
-666.3577683199994
 20
-249.1618043528383
 30
0.0
 11
-666.3577683199994
 21
-196.1618043528383
 31
0.0
  0
LINE
  5
4EF5
330
A
100
AcDbEntity
  8
ASSI
  6
CENTER
 62
     1
100
AcDbLine
 10
-659.6077683199994
 20
-250.6618043528383
 30
0.0
 11
-659.6077683199994
 21
-210.6618043528383
 31
0.0
  0
LINE
  5
4EF6
330
A
100
AcDbEntity
  8
ASSI
  6
CENTER
 62
     1
100
AcDbLine
 10
-649.6077683199994
 20
-200.6618043528383
 30
0.0
 11
-646.1077683199994
 21
-200.6618043528383
 31
0.0
  0
LINE
  5
4EF7
330
A
100
AcDbEntity
  8
ASSI
  6
CENTER
 62
     1
100
AcDbLine
 10
-634.6186430268993
 20
-206.6618043528383
 30
0.0
 11
-529.5968936129993
 21
-206.6618043528383
 31
0.0
  0
LINE
  5
4EF8
330
A
100
AcDbEntity
  8
ASSI
  6
CENTER
 62
     1
100
AcDbLine
 10
-518.1077683199994
 20
-200.6618043528383
 30
0.0
 11
-514.6077683199994
 21
-200.6618043528383
 31
0.0
  0
LINE
  5
4EF9
330
A
100
AcDbEntity
  8
ASSI
  6
CENTER
 62
     1
100
AcDbLine
 10
-504.6077683199994
 20
-210.6618043528383
 30
0.0
 11
-504.6077683199994
 21
-250.6618043528383
 31
0.0
  0
ARC
  5
4F04
330
A
100
AcDbEntity
  8
ASSI
  6
CENTER
 62
     1
100
AcDbCircle
 10
-649.6077683199994
 20
-210.6618043528383
 30
0.0
 40
10.0
100
AcDbArc
 50
90.0
 51
180.0
  0
ARC
  5
4F05
330
A
100
AcDbEntity
  8
ASSI
  6
CENTER
 62
     1
100
AcDbCircle
 10
-646.1077683199994
 20
-210.6618043528383
 30
0.0
 40
10.00000000000001
100
AcDbArc
 50
34.84990457899976
 51
90.0
  0
ARC
  5
4F06
330
A
100
AcDbEntity
  8
ASSI
  6
CENTER
 62
     1
100
AcDbCircle
 10
-634.6186430268993
 20
-202.6618043528383
 30
0.0
 40
3.999999999999975
100
AcDbArc
 50
214.8499045790001
 51
270.0
  0
ARC
  5
4F07
330
A
100
AcDbEntity
  8
ASSI
  6
CENTER
 62
     1
100
AcDbCircle
 10
-529.5968936129993
 20
-202.6618043528383
 30
0.0
 40
3.999999999999982
100
AcDbArc
 50
270.0
 51
325.1500954210002
  0
ARC
  5
4F08
330
A
100
AcDbEntity
  8
ASSI
  6
CENTER
 62
     1
100
AcDbCircle
 10
-518.1077683199994
 20
-210.6618043528383
 30
0.0
 40
9.999999999999979
100
AcDbArc
 50
90.0
 51
145.1500954209995
  0
ARC
  5
4F09
330
A
100
AcDbEntity
  8
ASSI
  6
CENTER
 62
     1
100
AcDbCircle
 10
-514.6077683199994
 20
-210.6618043528383
 30
0.0
 40
10.0
100
AcDbArc
 50
0.0
 51
90.0
  0
LINE
  5
4F0C
330
A
100
AcDbEntity
  8
0
100
AcDbLine
 10
-448.1524255141695
 20
51.76799669461607
 30
0.0
 11
-447.9024255141695
 21
51.55149034361605
 31
0.0
  0
LINE
  5
4F0D
330
A
100
AcDbEntity
  8
0
100
AcDbLine
 10
-308.2585150957694
 20
135.650546565916
 30
0.0
 11
-308.7585150957694
 21
136.083559267816
 31
0.0
  0
LINE
  5
4F0E
330
A
100
AcDbEntity
  8
0
100
AcDbLine
 10
-448.6524255141695
 20
52.46081701761605
 30
0.0
 11
-448.1524255141695
 21
52.02780431571605
 31
0.0
  0
LINE
  5
4F0F
330
A
100
AcDbEntity
  8
0
100
AcDbLine
 10
-316.1529495111696
 20
139.327687179416
 30
0.0
 11
-315.7161231065695
 21
139.4537881005161
 31
0.0
  0
LINE
  5
4F10
330
A
100
AcDbEntity
  8
0
100
AcDbLine
 10
-316.4927033813696
 20
142.143941084516
 30
0.0
 11
-316.9295297858695
 21
142.017840163316
 31
0.0
  0
LINE
  5
4F11
330
A
100
AcDbEntity
  8
0
100
AcDbLine
 10
-302.6529495111696
 20
127.6363442283161
 30
0.0
 11
-302.2161231065695
 21
127.762445149416
 31
0.0
  0
LINE
  5
4F12
330
A
100
AcDbEntity
  8
0
100
AcDbLine
 10
-302.9927033813696
 20
130.452598133416
 30
0.0
 11
-303.4295297858695
 21
130.326497212216
 31
0.0
  0
LINE
  5
4F13
330
A
100
AcDbEntity
  8
0
100
AcDbLine
 10
-302.6529495111696
 20
97.32545509591606
 30
0.0
 11
-302.2161231065695
 21
97.45155601701609
 31
0.0
  0
LINE
  5
4F14
330
A
100
AcDbEntity
  8
0
100
AcDbLine
 10
-302.9927033813696
 20
100.141709000916
 30
0.0
 11
-303.4295297858695
 21
100.0156080798161
 31
0.0
  0
LINE
  5
4F15
330
A
100
AcDbEntity
  8
0
100
AcDbLine
 10
-316.1529495111696
 20
109.016798047016
 30
0.0
 11
-315.7161231065695
 21
109.142898968116
 31
0.0
  0
LINE
  5
4F16
330
A
100
AcDbEntity
  8
0
100
AcDbLine
 10
-316.4927033813696
 20
111.8330519520161
 30
0.0
 11
-316.9295297858695
 21
111.706951030916
 31
0.0
  0
LINE
  5
4F17
330
A
100
AcDbEntity
  8
0
100
AcDbLine
 10
-326.9608197044695
 20
91.81199508821604
 30
0.0
 11
-326.9608197044695
 21
91.80884486591609
 31
0.0
  0
LINE
  5
4F18
330
A
100
AcDbEntity
  8
0
100
AcDbLine
 10
-319.4608197044695
 20
91.80884486591609
 30
0.0
 11
-319.4608197044695
 21
91.81199508821604
 31
0.0
  0
LINE
  5
4F19
330
A
100
AcDbEntity
  8
0
100
AcDbLine
 10
-410.9652838715695
 20
67.56199508821604
 30
0.0
 11
-410.9652838715695
 21
67.55884486591609
 31
0.0
  0
LINE
  5
4F1A
330
A
100
AcDbEntity
  8
0
100
AcDbLine
 10
-403.4652838715695
 20
67.55884486591609
 30
0.0
 11
-403.4652838715695
 21
67.56199508821604
 31
0.0
  0
LINE
  5
4F1B
330
A
100
AcDbEntity
  8
0
100
AcDbLine
 10
-319.3673463841695
 20
149.616560251216
 30
0.0
 11
-461.5667601281695
 21
108.5671253493161
 31
0.0
  0
LINE
  5
4F1C
330
A
100
AcDbEntity
  8
0
100
AcDbLine
 10
-462.3486048683695
 20
107.527656407416
 30
0.0
 11
-462.3486048683695
 21
60.99937602401602
 31
0.0
  0
LINE
  5
4F1D
330
A
100
AcDbEntity
  8
0
100
AcDbLine
 10
-443.5347098338695
 20
44.889835235216
 30
0.0
 11
-301.3352960898695
 21
85.93927013701605
 31
0.0
  0
LINE
  5
4F1E
330
A
100
AcDbEntity
  8
0
100
AcDbLine
 10
-300.5534513496694
 20
86.97873907891599
 30
0.0
 11
-300.5534513496694
 21
133.507019462316
 31
0.0
  0
LINE
  5
4F1F
330
A
100
AcDbEntity
  8
0
100
AcDbLine
 10
-390.3218366231695
 20
96.94387727101608
 30
0.0
 11
-386.7490600883695
 21
93.84976202991598
 31
0.0
  0
LINE
  5
4F20
330
A
100
AcDbEntity
  8
0
100
AcDbLine
 10
-375.6128172147695
 20
106.6943789426161
 30
0.0
 11
-379.1927242210695
 21
109.794669353316
 31
0.0
  0
LINE
  5
4F21
330
A
100
AcDbEntity
  8
0
100
AcDbLine
 10
-404.9855633636695
 20
94.84467681091601
 30
0.0
 11
-401.4877657137695
 21
91.81549518881607
 31
0.0
  0
LINE
  5
4F22
330
A
100
AcDbEntity
  8
0
100
AcDbLine
 10
-379.1046162795695
 20
107.734052154416
 30
0.0
 11
-380.1747047271695
 21
108.660775934316
 31
0.0
  0
LINE
  5
4F23
330
A
100
AcDbEntity
  8
0
100
AcDbLine
 10
-389.3398561170695
 20
98.07777069001602
 30
0.0
 11
-388.2697676694695
 21
97.15104691011598
 31
0.0
  0
LINE
  5
4F24
330
A
100
AcDbEntity
  8
0
100
AcDbLine
 10
-316.9428705120696
 20
90.616024542916
 30
0.0
 11
-316.9428705120696
 21
91.62380676141609
 31
0.0
  0
LINE
  5
4F25
330
A
100
AcDbEntity
  8
0
100
AcDbLine
 10
-363.5049967984695
 20
79.278311302616
 30
0.0
 11
-362.5475696906695
 21
77.69059806231601
 31
0.0
  0
LINE
  5
4F26
330
A
100
AcDbEntity
  8
0
100
AcDbLine
 10
-354.8881528286695
 20
77.69059806231601
 30
0.0
 11
-353.9307257208695
 21
79.278311302616
 31
0.0
  0
LINE
  5
4F27
330
A
100
AcDbEntity
  8
0
100
AcDbLine
 10
-353.7178612596696
 20
79.999999139116
 30
0.0
 11
-353.7178612596696
 21
80.866024542916
 31
0.0
  0
LINE
  5
4F28
330
A
100
AcDbEntity
  8
0
100
AcDbLine
 10
-363.7178612596695
 20
80.866024542916
 30
0.0
 11
-363.7178612596695
 21
79.999999139116
 31
0.0
  0
LINE
  5
4F29
330
A
100
AcDbEntity
  8
0
100
AcDbLine
 10
-415.2152838715695
 20
67.41450729861609
 30
0.0
 11
-415.2152838715695
 21
66.866024542916
 31
0.0
  0
LINE
  5
4F2A
330
A
100
AcDbEntity
  8
0
100
AcDbLine
 10
-306.7585150957694
 20
132.4462525719161
 30
0.0
 11
-306.9516564303696
 21
132.613517874216
 31
0.0
  0
LINE
  5
4F2B
330
A
100
AcDbEntity
  8
0
100
AcDbLine
 10
-447.6578078008695
 20
51.42624773001606
 30
0.0
 11
-446.9434157671695
 21
50.807566080616
 31
0.0
  0
LINE
  5
4F2C
330
A
100
AcDbEntity
  8
0
100
AcDbLine
 10
-307.1114640515694
 20
91.17357356281607
 30
0.0
 11
-313.8903361453696
 21
97.04424900511609
 31
0.0
  0
LINE
  5
4F2D
330
A
100
AcDbEntity
  8
0
100
AcDbLine
 10
-312.9544132439695
 20
130.008706744116
 30
0.0
 11
-306.6204386477694
 21
124.523323836816
 31
0.0
  0
LINE
  5
4F2E
330
A
100
AcDbEntity
  8
0
100
AcDbLine
 10
-306.2114640515696
 20
91.03103549511607
 30
0.0
 11
-306.2114640515696
 21
90.88042731941599
 31
0.0
  0
LINE
  5
4F2F
330
A
100
AcDbEntity
  8
0
100
AcDbLine
 10
-309.7095402628695
 20
90.42357356281607
 30
0.0
 11
-316.1595402628695
 21
96.00943741721599
 31
0.0
  0
ARC
  5
4F30
330
A
100
AcDbEntity
  8
0
100
AcDbCircle
 10
-441.3403217586695
 20
54.64849135971602
 30
0.0
 40
1.165595195931026
100
AcDbArc
 50
286.8434638136998
 51
310.5538435447014
  0
LINE
  5
4F31
330
A
100
AcDbEntity
  8
0
100
AcDbLine
 10
-441.0025813150695
 20
53.532900236816
 30
0.0
 11
-447.4977718434695
 21
51.657900236816
 31
0.0
  0
ARC
  5
4F32
330
A
100
AcDbEntity
  8
0
100
AcDbCircle
 10
-447.7302529495695
 20
52.24570956131609
 30
0.0
 40
0.6321133336929812
100
AcDbArc
 50
183.3585095594065
 51
291.5790093255949
  0
LINE
  5
4F33
330
A
100
AcDbEntity
  8
0
100
AcDbLine
 10
-307.2016564303696
 20
132.861094214716
 30
0.0
 11
-307.2016564303696
 21
126.6257113074161
 31
0.0
  0
ARC
  5
4F34
330
A
100
AcDbEntity
  8
0
100
AcDbCircle
 10
-308.4237375278695
 20
126.680609420616
 30
0.0
 40
1.223313537763172
100
AcDbArc
 50
297.5123157604032
 51
357.4278982303991
  0
ARC
  5
4F35
330
A
100
AcDbEntity
  8
0
100
AcDbCircle
 10
-308.1898715777695
 20
126.474393431016
 30
0.0
 40
1.239929953048065
100
AcDbArc
 50
297.9538900753989
 51
356.9863239153995
  0
LINE
  5
4F36
330
A
100
AcDbEntity
  8
0
100
AcDbLine
 10
-306.9516564303696
 20
132.644587863716
 30
0.0
 11
-306.9516564303696
 21
126.409204956516
 31
0.0
  0
ARC
  5
4F37
330
A
100
AcDbEntity
  8
0
100
AcDbCircle
 10
-310.4251015073695
 20
132.721908928816
 30
0.0
 40
3.474305578082383
100
AcDbArc
 50
358.7247706398006
 51
31.92154157810006
  0
ARC
  5
4F38
330
A
100
AcDbEntity
  8
0
100
AcDbCircle
 10
-441.0903217586695
 20
54.43198500881604
 30
0.0
 40
1.165595195929108
100
AcDbArc
 50
286.8434638136992
 51
310.5538435447999
  0
LINE
  5
4F39
330
A
100
AcDbEntity
  8
0
100
AcDbLine
 10
-440.7525813150695
 20
53.31639388581598
 30
0.0
 11
-447.2477718434695
 21
51.44139388581598
 31
0.0
  0
ARC
  5
4F3A
330
A
100
AcDbEntity
  8
0
100
AcDbCircle
 10
-447.4767286150695
 20
52.08136850261602
 30
0.0
 40
0.6796975160276111
100
AcDbArc
 50
231.2220787150992
 51
289.6851342021005
  0
LINE
  5
4F3B
330
A
100
AcDbEntity
  8
0
100
AcDbLine
 10
-442.7958825852695
 20
55.29575231461607
 30
0.0
 11
-446.3958825852695
 21
58.41344376821601
 31
0.0
  0
LINE
  5
4F3C
330
A
100
AcDbEntity
  8
0
100
AcDbLine
 10
-442.4633508305695
 20
55.39174596361605
 30
0.0
 11
-442.7958825852695
 21
55.29575231461607
 31
0.0
  0
LWPOLYLINE
  5
4F3D
330
A
100
AcDbEntity
  8
0
100
AcDbPolyline
 90
        3
 70
   128
 43
0.0
 10
-441.5025813150695
 20
54.22572055981598
 10
-441.3336281401695
 20
54.29113357561599
 10
-441.2468072401695
 20
54.33818830951603
  0
LINE
  5
4F3E
330
A
100
AcDbEntity
  8
0
100
AcDbLine
 10
-441.5025813150695
 20
54.22572055981598
 30
0.0
 11
-447.9977718434695
 21
52.35072055981598
 31
0.0
  0
ARC
  5
4F3F
330
A
100
AcDbEntity
  8
0
100
AcDbCircle
 10
-448.2293024276695
 20
52.94198234731599
 30
0.0
 40
0.6349778837069903
100
AcDbArc
 50
177.7649448216968
 51
291.3846782332998
  0
LINE
  5
4F40
330
A
100
AcDbEntity
  8
0
100
AcDbLine
 10
-448.8637972472695
 20
52.96674596361598
 30
0.0
 11
-448.8637972472695
 21
57.70101817101605
 31
0.0
  0
LINE
  5
4F41
330
A
100
AcDbEntity
  8
0
100
AcDbLine
 10
-312.9544132439695
 20
136.367701276516
 30
0.0
 11
-312.0317834492695
 21
136.634041556616
 31
0.0
  0
ARC
  5
4F42
330
A
100
AcDbEntity
  8
0
100
AcDbCircle
 10
-310.8741305284694
 20
133.677732619016
 30
0.0
 40
3.174889418534823
100
AcDbArc
 50
357.7649448217008
 51
111.3846782333008
  0
LINE
  5
4F43
330
A
100
AcDbEntity
  8
0
100
AcDbLine
 10
-307.7016564303696
 20
133.553914537716
 30
0.0
 11
-307.7016564303696
 21
127.0587240093161
 31
0.0
  0
ARC
  5
4F44
330
A
100
AcDbEntity
  8
0
100
AcDbCircle
 10
-308.9237375278695
 20
127.1136221225161
 30
0.0
 40
1.223313537763078
100
AcDbArc
 50
297.5123157603039
 51
357.427898230399
  0
ARC
  5
4F45
330
A
100
AcDbEntity
  8
0
100
AcDbCircle
 10
-308.4398715777695
 20
126.690899782016
 30
0.0
 40
1.239929953049035
100
AcDbArc
 50
297.953890075399
 51
356.9863239154018
  0
LINE
  5
4F46
330
A
100
AcDbEntity
  8
0
100
AcDbLine
 10
-307.2016564303696
 20
133.120901835816
 30
0.0
 11
-307.2016564303696
 21
126.6257113074161
 31
0.0
  0
ARC
  5
4F47
330
A
100
AcDbEntity
  8
0
100
AcDbCircle
 10
-310.4519819792696
 20
133.248544909216
 30
0.0
 40
3.252830909806607
100
AcDbArc
 50
357.7511011826003
 51
47.5982054286985
  0
LWPOLYLINE
  5
4F48
330
A
100
AcDbEntity
  8
0
100
AcDbPolyline
 90
        3
 70
   128
 43
0.0
 10
-440.7468072401695
 20
53.90517560761603
 10
-440.8336281401695
 20
53.85812087371599
 10
-441.0025813150695
 20
53.79270785791599
  0
LINE
  5
4F49
330
A
100
AcDbEntity
  8
0
100
AcDbLine
 10
-441.0025813150695
 20
53.79270785791599
 30
0.0
 11
-447.4977718434695
 21
51.91770785791599
 31
0.0
  0
ARC
  5
4F4A
330
A
100
AcDbEntity
  8
0
100
AcDbCircle
 10
-447.7267286150695
 20
52.55768247471602
 30
0.0
 40
0.6796975160272364
100
AcDbArc
 50
231.2220787151025
 51
289.6851342021016
  0
LWPOLYLINE
  5
4F4B
330
A
100
AcDbEntity
  8
0
100
AcDbPolyline
 90
       19
 70
   128
 43
0.0
 10
-316.4953578509695
 20
142.143159625316
 10
-316.6703773267695
 20
142.0024840484161
 10
-316.7771331813695
 20
141.716634201616
 10
-316.8027490832695
 20
141.320087795016
 10
-316.7441353766695
 20
140.860674177916
 10
-316.6083617394695
 20
140.3938054125161
 10
-316.4118044762696
 20
139.975792762216
 10
-316.1781712938695
 20
139.657054721916
 10
-315.9356418020695
 20
139.476035803416
 10
-315.7134686369695
 20
139.454569559716
 10
-315.5384491611695
 20
139.595245136616
 10
-315.4316933064696
 20
139.881094983416
 10
-315.4060774045695
 20
140.277641389916
 10
-315.4646911112695
 20
140.737055007116
 10
-315.6004647484696
 20
141.203923772516
 10
-315.7970220116696
 20
141.621936422816
 10
-316.0306551940695
 20
141.940674463116
 10
-316.2731846858695
 20
142.121693381616
 10
-316.4953578509695
 20
142.143159625316
  0
LINE
  5
4F4C
330
A
100
AcDbEntity
  8
0
100
AcDbLine
 10
-316.0741748797694
 20
140.0144842039161
 30
0.0
 11
-315.7101974633696
 21
140.123724659716
 31
0.0
  0
LINE
  5
4F4D
330
A
100
AcDbEntity
  8
0
100
AcDbLine
 10
-315.7101974633696
 20
140.123724659716
 30
0.0
 11
-315.7404358275695
 21
140.908105048216
 31
0.0
  0
LINE
  5
4F4E
330
A
100
AcDbEntity
  8
0
100
AcDbLine
 10
-315.7404358275695
 20
140.908105048216
 30
0.0
 11
-316.1346516081695
 21
141.583244981116
 31
0.0
  0
LINE
  5
4F4F
330
A
100
AcDbEntity
  8
0
100
AcDbLine
 10
-316.1346516081695
 20
141.583244981116
 30
0.0
 11
-316.4986290245696
 21
141.474004525316
 31
0.0
  0
LINE
  5
4F50
330
A
100
AcDbEntity
  8
0
100
AcDbLine
 10
-316.4986290245696
 20
141.474004525316
 30
0.0
 11
-316.4683906603694
 21
140.689624136716
 31
0.0
  0
LINE
  5
4F51
330
A
100
AcDbEntity
  8
0
100
AcDbLine
 10
-316.4683906603694
 20
140.689624136716
 30
0.0
 11
-316.0741748797694
 21
140.0144842039161
 31
0.0
  0
LINE
  5
4F52
330
A
100
AcDbEntity
  8
0
100
AcDbLine
 10
-316.0762581487695
 20
140.018052042116
 30
0.0
 11
-315.7101974633696
 21
140.123724659716
 31
0.0
  0
LINE
  5
4F53
330
A
100
AcDbEntity
  8
0
100
AcDbLine
 10
-316.4687085750695
 20
140.697870814816
 30
0.0
 11
-315.7404358275695
 21
140.908105048216
 31
0.0
  0
LWPOLYLINE
  5
4F54
330
A
100
AcDbEntity
  8
0
100
AcDbPolyline
 90
       19
 70
   128
 43
0.0
 10
-302.9953578509695
 20
130.451816674216
 10
-303.1703773267695
 20
130.311141097316
 10
-303.2771331813695
 20
130.0252912505161
 10
-303.3027490832695
 20
129.628744844016
 10
-303.2441353766695
 20
129.169331226816
 10
-303.1083617394695
 20
128.702462461416
 10
-302.9118044762696
 20
128.284449811116
 10
-302.6781712938695
 20
127.9657117708161
 10
-302.4356418020695
 20
127.784692852316
 10
-302.2134686369695
 20
127.7632266086161
 10
-302.0384491611695
 20
127.903902185516
 10
-301.9316933064696
 20
128.1897520323161
 10
-301.9060774045695
 20
128.5862984389161
 10
-301.9646911112695
 20
129.045712056016
 10
-302.1004647484696
 20
129.512580821416
 10
-302.2970220116696
 20
129.930593471716
 10
-302.5306551940695
 20
130.249331512016
 10
-302.7731846858695
 20
130.430350430516
 10
-302.9953578509695
 20
130.451816674216
  0
LINE
  5
4F55
330
A
100
AcDbEntity
  8
0
100
AcDbLine
 10
-302.5741748797694
 20
128.323141252816
 30
0.0
 11
-302.2101974633696
 21
128.4323817086161
 31
0.0
  0
LINE
  5
4F56
330
A
100
AcDbEntity
  8
0
100
AcDbLine
 10
-302.2101974633696
 20
128.4323817086161
 30
0.0
 11
-302.2404358275695
 21
129.216762097216
 31
0.0
  0
LINE
  5
4F57
330
A
100
AcDbEntity
  8
0
100
AcDbLine
 10
-302.2404358275695
 20
129.216762097216
 30
0.0
 11
-302.6346516081695
 21
129.891902030016
 31
0.0
  0
LINE
  5
4F58
330
A
100
AcDbEntity
  8
0
100
AcDbLine
 10
-302.6346516081695
 20
129.891902030016
 30
0.0
 11
-302.9986290245696
 21
129.7826615742161
 31
0.0
  0
LINE
  5
4F59
330
A
100
AcDbEntity
  8
0
100
AcDbLine
 10
-302.9986290245696
 20
129.7826615742161
 30
0.0
 11
-302.9683906603694
 21
128.998281185716
 31
0.0
  0
LINE
  5
4F5A
330
A
100
AcDbEntity
  8
0
100
AcDbLine
 10
-302.9683906603694
 20
128.998281185716
 30
0.0
 11
-302.5741748797694
 21
128.323141252816
 31
0.0
  0
LINE
  5
4F5B
330
A
100
AcDbEntity
  8
0
100
AcDbLine
 10
-302.5762581487695
 20
128.3267090910161
 30
0.0
 11
-302.2101974633696
 21
128.4323817086161
 31
0.0
  0
LINE
  5
4F5C
330
A
100
AcDbEntity
  8
0
100
AcDbLine
 10
-302.9687085750695
 20
129.006527863716
 30
0.0
 11
-302.2404358275695
 21
129.216762097216
 31
0.0
  0
LWPOLYLINE
  5
4F5D
330
A
100
AcDbEntity
  8
0
100
AcDbPolyline
 90
       19
 70
   128
 43
0.0
 10
-302.9953578509695
 20
100.1409275418161
 10
-303.1703773267695
 20
100.0002519649161
 10
-303.2771331813695
 20
99.71440211801601
 10
-303.3027490832695
 20
99.31785571151605
 10
-303.2441353766695
 20
98.85844209431608
 10
-303.1083617394695
 20
98.39157332891605
 10
-302.9118044762696
 20
97.97356067871604
 10
-302.6781712938695
 20
97.65482263841605
 10
-302.4356418020695
 20
97.47380371981606
 10
-302.2134686369695
 20
97.45233747611601
 10
-302.0384491611695
 20
97.593013053016
 10
-301.9316933064696
 20
97.87886289991607
 10
-301.9060774045695
 20
98.27540930641604
 10
-301.9646911112695
 20
98.73482292361601
 10
-302.1004647484696
 20
99.20169168901603
 10
-302.2970220116696
 20
99.61970433921604
 10
-302.5306551940695
 20
99.93844237951603
 10
-302.7731846858695
 20
100.119461298116
 10
-302.9953578509695
 20
100.1409275418161
  0
LINE
  5
4F5E
330
A
100
AcDbEntity
  8
0
100
AcDbLine
 10
-302.5741748797694
 20
98.01225212041598
 30
0.0
 11
-302.2101974633696
 21
98.12149257611603
 31
0.0
  0
LINE
  5
4F5F
330
A
100
AcDbEntity
  8
0
100
AcDbLine
 10
-302.2101974633696
 20
98.12149257611603
 30
0.0
 11
-302.2404358275695
 21
98.905872964716
 31
0.0
  0
LINE
  5
4F60
330
A
100
AcDbEntity
  8
0
100
AcDbLine
 10
-302.2404358275695
 20
98.905872964716
 30
0.0
 11
-302.6346516081695
 21
99.58101289751599
 31
0.0
  0
LINE
  5
4F61
330
A
100
AcDbEntity
  8
0
100
AcDbLine
 10
-302.6346516081695
 20
99.58101289751599
 30
0.0
 11
-302.9986290245696
 21
99.47177244181606
 31
0.0
  0
LINE
  5
4F62
330
A
100
AcDbEntity
  8
0
100
AcDbLine
 10
-302.9986290245696
 20
99.47177244181606
 30
0.0
 11
-302.9683906603694
 21
98.68739205321609
 31
0.0
  0
LINE
  5
4F63
330
A
100
AcDbEntity
  8
0
100
AcDbLine
 10
-302.9683906603694
 20
98.68739205321609
 30
0.0
 11
-302.5741748797694
 21
98.01225212041598
 31
0.0
  0
LINE
  5
4F64
330
A
100
AcDbEntity
  8
0
100
AcDbLine
 10
-302.5762581487695
 20
98.015819958516
 30
0.0
 11
-302.2101974633696
 21
98.12149257611603
 31
0.0
  0
LINE
  5
4F65
330
A
100
AcDbEntity
  8
0
100
AcDbLine
 10
-302.9687085750695
 20
98.695638731316
 30
0.0
 11
-302.2404358275695
 21
98.905872964716
 31
0.0
  0
LWPOLYLINE
  5
4F66
330
A
100
AcDbEntity
  8
0
100
AcDbPolyline
 90
       19
 70
   128
 43
0.0
 10
-316.4953578509695
 20
111.832270492916
 10
-316.6703773267695
 20
111.691594916016
 10
-316.7771331813695
 20
111.4057450691161
 10
-316.8027490832695
 20
111.009198662616
 10
-316.7441353766695
 20
110.549785045416
 10
-316.6083617394695
 20
110.082916280016
 10
-316.4118044762696
 20
109.664903629816
 10
-316.1781712938695
 20
109.346165589516
 10
-315.9356418020695
 20
109.165146670916
 10
-315.7134686369695
 20
109.1436804272161
 10
-315.5384491611695
 20
109.2843560041161
 10
-315.4316933064696
 20
109.570205851016
 10
-315.4060774045695
 20
109.966752257516
 10
-315.4646911112695
 20
110.4261658747161
 10
-315.6004647484696
 20
110.893034640116
 10
-315.7970220116696
 20
111.311047290316
 10
-316.0306551940695
 20
111.629785330616
 10
-316.2731846858695
 20
111.8108042492161
 10
-316.4953578509695
 20
111.832270492916
  0
LINE
  5
4F67
330
A
100
AcDbEntity
  8
0
100
AcDbLine
 10
-316.0741748797694
 20
109.703595071516
 30
0.0
 11
-315.7101974633696
 21
109.812835527216
 31
0.0
  0
LINE
  5
4F68
330
A
100
AcDbEntity
  8
0
100
AcDbLine
 10
-315.7101974633696
 20
109.812835527216
 30
0.0
 11
-315.7404358275695
 21
110.5972159158161
 31
0.0
  0
LINE
  5
4F69
330
A
100
AcDbEntity
  8
0
100
AcDbLine
 10
-315.7404358275695
 20
110.5972159158161
 30
0.0
 11
-316.1346516081695
 21
111.2723558486161
 31
0.0
  0
LINE
  5
4F6A
330
A
100
AcDbEntity
  8
0
100
AcDbLine
 10
-316.1346516081695
 20
111.2723558486161
 30
0.0
 11
-316.4986290245696
 21
111.1631153928161
 31
0.0
  0
LINE
  5
4F6B
330
A
100
AcDbEntity
  8
0
100
AcDbLine
 10
-316.4986290245696
 20
111.1631153928161
 30
0.0
 11
-316.4683906603694
 21
110.378735004316
 31
0.0
  0
LINE
  5
4F6C
330
A
100
AcDbEntity
  8
0
100
AcDbLine
 10
-316.4683906603694
 20
110.378735004316
 30
0.0
 11
-316.0741748797694
 21
109.703595071516
 31
0.0
  0
LINE
  5
4F6D
330
A
100
AcDbEntity
  8
0
100
AcDbLine
 10
-316.0762581487695
 20
109.7071629096161
 30
0.0
 11
-315.7101974633696
 21
109.812835527216
 31
0.0
  0
LINE
  5
4F6E
330
A
100
AcDbEntity
  8
0
100
AcDbLine
 10
-316.4687085750695
 20
110.3869816824161
 30
0.0
 11
-315.7404358275695
 21
110.5972159158161
 31
0.0
  0
ARC
  5
4F6F
330
A
100
AcDbEntity
  8
0
100
AcDbCircle
 10
-324.3106889181695
 20
92.22002603551599
 30
0.0
 40
1.329655679339904
100
AcDbArc
 50
214.2626743044978
 51
243.9505363968974
  0
LINE
  5
4F70
330
A
100
AcDbEntity
  8
0
100
AcDbLine
 10
-323.3993227874695
 20
91.45709332441598
 30
0.0
 11
-324.8946031072695
 21
91.02544307681606
 31
0.0
  0
LINE
  5
4F71
330
A
100
AcDbEntity
  8
0
100
AcDbLine
 10
-322.5360222922695
 20
90.70945316451608
 30
0.0
 11
-323.3993227874695
 21
91.45709332441598
 31
0.0
  0
ARC
  5
4F72
330
A
100
AcDbEntity
  8
0
100
AcDbCircle
 10
-323.0052291196695
 20
94.008583293116
 30
0.0
 40
3.332328713082959
100
AcDbArc
 50
278.0944009738002
 51
294.1098265301979
  0
LINE
  5
4F73
330
A
100
AcDbEntity
  8
0
100
AcDbLine
 10
-322.5073166215694
 20
91.71459332441603
 30
0.0
 11
-321.6440161263696
 21
90.96695316451601
 31
0.0
  0
LINE
  5
4F74
330
A
100
AcDbEntity
  8
0
100
AcDbLine
 10
-321.0120363016696
 20
92.14624357201606
 30
0.0
 11
-322.5073166215694
 21
91.71459332441603
 31
0.0
  0
ARC
  5
4F75
330
A
100
AcDbEntity
  8
0
100
AcDbCircle
 10
-322.1109504909695
 20
91.39766369621603
 30
0.0
 40
1.329655679378913
100
AcDbArc
 50
34.26267430500098
 51
63.95053639660127
  0
LINE
  5
4F76
330
A
100
AcDbEntity
  8
0
100
AcDbLine
 10
-323.0223166215695
 20
92.16059640741608
 30
0.0
 11
-321.5270363016695
 21
92.592246655016
 31
0.0
  0
LINE
  5
4F77
330
A
100
AcDbEntity
  8
0
100
AcDbLine
 10
-323.8856171167696
 20
92.90823656731598
 30
0.0
 11
-323.0223166215695
 21
92.16059640741608
 31
0.0
  0
ARC
  5
4F78
330
A
100
AcDbEntity
  8
0
100
AcDbCircle
 10
-323.4164102893695
 20
89.60910643881599
 30
0.0
 40
3.332328713010628
100
AcDbArc
 50
98.09440097349932
 51
114.1098265303005
  0
LINE
  5
4F79
330
A
100
AcDbEntity
  8
0
100
AcDbLine
 10
-323.9143227874696
 20
91.90309640741603
 30
0.0
 11
-324.7776232826695
 21
92.65073656731605
 31
0.0
  0
LINE
  5
4F7A
330
A
100
AcDbEntity
  8
0
100
AcDbLine
 10
-325.4096031072695
 20
91.471446159816
 30
0.0
 11
-323.9143227874696
 21
91.90309640741603
 31
0.0
  0
LWPOLYLINE
  5
4F7B
330
A
100
AcDbEntity
  8
0
100
AcDbPolyline
 90
       16
 70
   128
 43
0.0
 10
-319.4608197044695
 20
91.80884486591609
 10
-319.4907299809695
 20
91.57250165741598
 10
-319.6793172185695
 20
91.17817256751599
 10
-320.0330335874695
 20
90.813333013316
 10
-320.5353397032695
 20
90.49504248701604
 10
-321.1627482903694
 20
90.238183899716
 10
-321.8859224205695
 20
90.05476767351607
 10
-322.6710472752695
 20
89.953370147416
 10
-323.4814112887694
 20
89.93873255681606
 10
-324.2791227405695
 20
90.01153933931599
 10
-325.0268815296696
 20
90.16838613071607
 10
-325.6897232863695
 20
90.40193894931602
 10
-326.2366542665695
 20
90.70127712501599
 10
-326.6421005856695
 20
91.05240393721604
 10
-326.8871040243695
 20
91.43890108651604
 10
-326.9608197044695
 20
91.80884486591609
  0
LINE
  5
4F7C
330
A
100
AcDbEntity
  8
0
100
AcDbLine
 10
-323.9143227874696
 20
91.90309640741603
 30
0.0
 11
-323.9143227874696
 21
92.90372881091608
 31
0.0
  0
LINE
  5
4F7D
330
A
100
AcDbEntity
  8
0
100
AcDbLine
 10
-322.5073166215694
 20
92.30926410171608
 30
0.0
 11
-322.5073166215694
 21
91.71459332441603
 31
0.0
  0
LINE
  5
4F7E
330
A
100
AcDbEntity
  8
0
100
AcDbLine
 10
-324.8946031072695
 20
91.02544307681606
 30
0.0
 11
-324.5873871175695
 21
91.70879947131598
 31
0.0
  0
LINE
  5
4F7F
330
A
100
AcDbEntity
  8
0
100
AcDbLine
 10
-322.5360222922695
 20
90.70945316451608
 30
0.0
 11
-322.8891144601695
 21
92.19904855921598
 31
0.0
  0
LINE
  5
4F80
330
A
100
AcDbEntity
  8
0
100
AcDbLine
 10
-323.3993227874695
 20
91.45709332441598
 30
0.0
 11
-323.3993227874695
 21
92.48709332441607
 31
0.0
  0
ARC
  5
4F81
330
A
100
AcDbEntity
  8
0
100
AcDbCircle
 10
-408.3151530851695
 20
67.97002603561603
 30
0.0
 40
1.329655679341013
100
AcDbArc
 50
214.262674304501
 51
243.9505363968991
  0
LINE
  5
4F82
330
A
100
AcDbEntity
  8
0
100
AcDbLine
 10
-407.4037869545695
 20
67.20709332441598
 30
0.0
 11
-408.8990672743695
 21
66.77544307681606
 31
0.0
  0
LINE
  5
4F83
330
A
100
AcDbEntity
  8
0
100
AcDbLine
 10
-406.5404864593695
 20
66.45945316451608
 30
0.0
 11
-407.4037869545695
 21
67.20709332441598
 31
0.0
  0
ARC
  5
4F84
330
A
100
AcDbEntity
  8
0
100
AcDbCircle
 10
-407.0096932867695
 20
69.758583293116
 30
0.0
 40
3.332328713082818
100
AcDbArc
 50
278.0944009737996
 51
294.109826530201
  0
LINE
  5
4F85
330
A
100
AcDbEntity
  8
0
100
AcDbLine
 10
-406.5117807886695
 20
67.46459332441603
 30
0.0
 11
-405.6484802934695
 21
66.71695316451601
 31
0.0
  0
LINE
  5
4F86
330
A
100
AcDbEntity
  8
0
100
AcDbLine
 10
-405.0165004687696
 20
67.89624357201606
 30
0.0
 11
-406.5117807886695
 21
67.46459332441603
 31
0.0
  0
ARC
  5
4F87
330
A
100
AcDbEntity
  8
0
100
AcDbCircle
 10
-406.1154146579695
 20
67.14766369621603
 30
0.0
 40
1.329655679377807
100
AcDbArc
 50
34.2626743050023
 51
63.95053639659978
  0
LINE
  5
4F88
330
A
100
AcDbEntity
  8
0
100
AcDbLine
 10
-407.0267807886695
 20
67.91059640741608
 30
0.0
 11
-405.5315004687695
 21
68.342246655016
 31
0.0
  0
LINE
  5
4F89
330
A
100
AcDbEntity
  8
0
100
AcDbLine
 10
-407.8900812838695
 20
68.65823656731598
 30
0.0
 11
-407.0267807886695
 21
67.91059640741608
 31
0.0
  0
ARC
  5
4F8A
330
A
100
AcDbEntity
  8
0
100
AcDbCircle
 10
-407.4208744564695
 20
65.35910643881599
 30
0.0
 40
3.332328713011459
100
AcDbArc
 50
98.09440097349925
 51
114.1098265303004
  0
LINE
  5
4F8B
330
A
100
AcDbEntity
  8
0
100
AcDbLine
 10
-407.9187869545696
 20
67.65309640741603
 30
0.0
 11
-408.7820874497695
 21
68.40073656731605
 31
0.0
  0
LINE
  5
4F8C
330
A
100
AcDbEntity
  8
0
100
AcDbLine
 10
-409.4140672743695
 20
67.221446159816
 30
0.0
 11
-407.9187869545696
 21
67.65309640741603
 31
0.0
  0
LWPOLYLINE
  5
4F8D
330
A
100
AcDbEntity
  8
0
100
AcDbPolyline
 90
       16
 70
   128
 43
0.0
 10
-403.4652838715695
 20
67.55884486591609
 10
-403.4951941480695
 20
67.32250165741598
 10
-403.6837813856695
 20
66.92817256751599
 10
-404.0374977545695
 20
66.563333013316
 10
-404.5398038703695
 20
66.24504248701604
 10
-405.1672124574695
 20
65.988183899716
 10
-405.8903865876695
 20
65.80476767351607
 10
-406.6755114423695
 20
65.703370147416
 10
-407.4858754558695
 20
65.68873255681606
 10
-408.2835869076695
 20
65.76153933931599
 10
-409.0313456967695
 20
65.91838613071607
 10
-409.6941874534695
 20
66.15193894931602
 10
-410.2411184336695
 20
66.45127712501599
 10
-410.6465647527695
 20
66.80240393721604
 10
-410.8915681914695
 20
67.18890108651604
 10
-410.9652838715695
 20
67.55884486591609
  0
LINE
  5
4F8E
330
A
100
AcDbEntity
  8
0
100
AcDbLine
 10
-407.9187869545696
 20
67.65309640741603
 30
0.0
 11
-407.9187869545696
 21
68.65372881091608
 31
0.0
  0
LINE
  5
4F8F
330
A
100
AcDbEntity
  8
0
100
AcDbLine
 10
-406.5117807886695
 20
68.05926410171608
 30
0.0
 11
-406.5117807886695
 21
67.46459332441603
 31
0.0
  0
LINE
  5
4F90
330
A
100
AcDbEntity
  8
0
100
AcDbLine
 10
-408.8990672743695
 20
66.77544307681606
 30
0.0
 11
-408.5918512846695
 21
67.45879947131598
 31
0.0
  0
LINE
  5
4F91
330
A
100
AcDbEntity
  8
0
100
AcDbLine
 10
-406.5404864593695
 20
66.45945316451608
 30
0.0
 11
-406.8935786272695
 21
67.94904855921598
 31
0.0
  0
LINE
  5
4F92
330
A
100
AcDbEntity
  8
0
100
AcDbLine
 10
-407.4037869545695
 20
67.20709332441598
 30
0.0
 11
-407.4037869545695
 21
68.23709332441607
 31
0.0
  0
ELLIPSE
  5
4F93
330
A
100
AcDbEntity
  8
0
100
AcDbEllipse
 10
-460.8486048683695
 20
61.31384301541598
 30
0.0
 11
0.0206013031474015
 21
1.546795406576564
 31
0.0
210
0.0
220
0.0
230
1.0
 40
0.5385479866
 41
1.144631725432884
 42
2.715428052227816
  0
ELLIPSE
  5
4F94
330
A
100
AcDbEntity
  8
0
100
AcDbEllipse
 10
-319.2534513496695
 20
102.188843015416
 30
0.0
 11
-0.7436492059453599
 21
1.34339731906573
 31
0.0
210
0.0
220
0.0
230
1.0
 40
0.2798503002
 41
0.9189662289325088
 42
2.489762555727377
  0
ELLIPSE
  5
4F95
330
A
100
AcDbEntity
  8
0
100
AcDbEllipse
 10
-319.2534513496695
 20
102.188843015416
 30
0.0
 11
0.4408375055277816
 21
-0.3931477189017301
 31
0.0
210
0.0
220
0.0
230
1.0
 40
0.0098332391
 41
4.118201162808658
 42
5.688997489594483
  0
LINE
  5
4F96
330
A
100
AcDbEntity
  8
0
100
AcDbLine
 10
-320.0034513496695
 20
102.8383620682161
 30
0.0
 11
-319.5034513496695
 21
102.405349366416
 31
0.0
  0
ELLIPSE
  5
4F97
330
A
100
AcDbEntity
  8
0
100
AcDbEllipse
 10
-319.2534513496695
 20
102.188843015416
 30
0.0
 11
1.494282150360448
 21
-0.3628541438781667
 31
0.0
210
0.0
220
0.0
230
1.0
 40
0.3606040822000001
 41
0.610940907330228
 42
2.181737234125178
  0
ELLIPSE
  5
4F98
330
A
100
AcDbEntity
  8
0
100
AcDbEllipse
 10
-319.2534513496695
 20
148.088189416016
 30
0.0
 11
1.473473252550491
 21
0.4833242713095842
 31
0.0
210
0.0
220
0.0
230
1.0
 40
0.5810793133
 41
0.3352540432929089
 42
1.906050370087902
  0
ELLIPSE
  5
4F99
330
A
100
AcDbEntity
  8
0
100
AcDbEllipse
 10
-319.2534513496695
 20
102.188843015416
 30
0.0
 11
0.4990329072685426
 21
-0.3181135541047411
 31
0.0
210
0.0
220
0.0
230
1.0
 40
0.0977106231
 41
0.5858050340778959
 42
2.156601360871936
  0
LWPOLYLINE
  5
4F9A
330
A
100
AcDbEntity
  8
0
100
AcDbPolyline
 90
       26
 70
   128
 43
0.0
 10
-388.4194582485695
 20
94.99621137031605
 10
-387.7321998661695
 20
94.39969293101606
 10
-386.9415829192695
 20
93.93572834351599
 10
-386.0628108045695
 20
93.61323954901607
 10
-385.1127821239695
 20
93.438427938616
 10
-384.1097657282695
 20
93.41465510271601
 10
-383.0730494106695
 20
93.54237818791606
 10
-382.0225690067695
 20
93.819141106216
 10
-380.9785250325695
 20
94.239621765316
 10
-379.9609942330695
 20
94.795734411116
 10
-378.9895435102695
 20
95.47678511481607
 10
-378.0828536562695
 20
96.26967741541606
 10
-377.2583601253695
 20
97.15916416171606
 10
-376.5319177536695
 20
98.128140711616
 10
-375.9174958744695
 20
99.15797385081603
 10
-375.4269096905695
 20
100.2288601059161
 10
-375.0695930706695
 20
101.320206560516
 10
-374.8524171376695
 20
102.411026853216
 10
-374.7795581389695
 20
103.480344740216
 10
-374.8524171376695
 20
104.507597464616
 10
-375.0695930706695
 20
105.473031173916
 10
-375.4269096905695
 20
106.3580807818161
 10
-375.9174958744695
 20
107.145726971616
 10
-376.5319177536695
 20
107.8208234735161
 10
-377.2583601253695
 20
108.3703883245161
 10
-377.9746427788695
 20
108.7397798805161
  0
ARC
  5
4F9B
330
A
100
AcDbEntity
  8
0
100
AcDbCircle
 10
-400.4381062166696
 20
95.05007426271598
 30
0.0
 40
3.39546856585925
100
AcDbArc
 50
206.3990117277998
 51
290.5759029736003
  0
LINE
  5
4F9C
330
A
100
AcDbEntity
  8
0
100
AcDbLine
 10
-399.2447757958695
 20
91.87121137031605
 30
0.0
 11
-388.4194582485695
 21
94.99621137031605
 31
0.0
  0
LINE
  5
4F9D
330
A
100
AcDbEntity
  8
0
100
AcDbLine
 10
-313.8903361453696
 20
97.53052562511598
 30
0.0
 11
-318.8903361453696
 21
101.860652644016
 31
0.0
  0
LINE
  5
4F9E
330
A
100
AcDbEntity
  8
0
100
AcDbLine
 10
-313.8903361453696
 20
96.66450022131599
 30
0.0
 11
-313.8903361453696
 21
97.53052562511598
 31
0.0
  0
LINE
  5
4F9F
330
A
100
AcDbEntity
  8
0
100
AcDbLine
 10
-313.8903361453696
 20
96.66450022131599
 30
0.0
 11
-318.8903361453696
 21
100.994627240216
 31
0.0
  0
LINE
  5
4FA0
330
A
100
AcDbEntity
  8
0
100
AcDbLine
 10
-374.8752296145695
 20
79.05967789081606
 30
0.0
 11
-456.2117200726696
 21
55.57985556031602
 31
0.0
  0
LINE
  5
4FA1
330
A
100
AcDbEntity
  8
0
100
AcDbLine
 10
-461.2117200726696
 20
59.90998257931599
 30
0.0
 11
-456.2117200726696
 21
55.57985556031602
 31
0.0
  0
LINE
  5
4FA2
330
A
100
AcDbEntity
  8
0
100
AcDbLine
 10
-313.8903361453696
 20
96.66450022131599
 30
0.0
 11
-348.8944675009695
 21
86.55967789081606
 31
0.0
  0
LWPOLYLINE
  5
4FA3
330
A
100
AcDbEntity
  8
0
100
AcDbPolyline
 90
       22
 70
   128
 43
0.0
 10
-348.8944675009695
 20
86.55967789081606
 10
-350.4246318238695
 20
86.983396093616
 10
-352.0337750946695
 20
87.32625512101609
 10
-353.7048618238695
 20
87.58462523331607
 10
-355.4202007466695
 20
87.755771148116
 10
-357.1616321138695
 20
87.83788099781603
 10
-358.9107199441695
 20
87.83008551161609
 10
-360.6489471995695
 20
87.73246721781598
 10
-362.3579118194695
 20
87.54605957021604
 10
-364.0195215377695
 20
87.27283600761601
 10
-365.6161854193695
 20
86.91568906101602
 10
-367.1310000902695
 20
86.47839973201602
 10
-368.5479286882695
 20
85.965597463916
 10
-369.8519706396695
 20
85.38271113161605
 10
-371.0293204661695
 20
84.73591156791602
 10
-372.0675139384695
 20
84.032046234516
 10
-372.9555600318695
 20
83.27856673031604
 10
-373.6840572838695
 20
82.483449904016
 10
-374.2452933253695
 20
81.65511340501601
 10
-374.6333265283695
 20
80.80232656911599
 10
-374.8440489083695
 20
79.93411758001608
 10
-374.8752296145695
 20
79.05967789081606
  0
LINE
  5
4FA4
330
A
100
AcDbEntity
  8
0
100
AcDbLine
 10
-318.8204386477695
 20
101.9507278111161
 30
0.0
 11
-313.8204386477695
 21
97.62060079221604
 31
0.0
  0
LINE
  5
4FA5
330
A
100
AcDbEntity
  8
0
100
AcDbLine
 10
-317.9544132439695
 20
102.2007278111161
 30
0.0
 11
-312.9544132439695
 21
97.87060079221604
 31
0.0
  0
LINE
  5
4FA6
330
A
100
AcDbEntity
  8
0
100
AcDbLine
 10
-312.9544132439695
 20
97.87060079221604
 30
0.0
 11
-313.8204386477695
 21
97.62060079221604
 31
0.0
  0
LINE
  5
4FA7
330
A
100
AcDbEntity
  8
0
100
AcDbLine
 10
-312.9544132439695
 20
144.496177601316
 30
0.0
 11
-317.9544132439695
 21
148.8263046203161
 31
0.0
  0
LINE
  5
4FA8
330
A
100
AcDbEntity
  8
0
100
AcDbLine
 10
-312.9544132439695
 20
144.496177601316
 30
0.0
 11
-312.9544132439695
 21
97.87060079221604
 31
0.0
  0
LWPOLYLINE
  5
4FA9
330
A
100
AcDbEntity
  8
0
100
AcDbPolyline
 90
       21
 70
   128
 43
0.0
 10
-316.9794132439696
 20
141.556636820816
 10
-316.9365876957695
 20
141.987877800916
 10
-316.8123031140696
 20
142.302729883916
 10
-316.6187253396696
 20
142.470373154016
 10
-316.3748031140696
 20
142.474397520116
 10
-316.1044132439696
 20
142.314409049116
 10
-315.8340233738695
 20
142.006068527316
 10
-315.5901011481695
 20
141.5795584732161
 10
-315.3965233738695
 20
141.076628662716
 10
-315.2722387921696
 20
140.546509369716
 10
-315.2294132439696
 20
140.041092364216
 10
-315.2722387921696
 20
139.609851384116
 10
-315.3965233738695
 20
139.294999301116
 10
-315.5901011481695
 20
139.127356031016
 10
-315.8340233738695
 20
139.123331664916
 10
-316.1044132439696
 20
139.2833201359161
 10
-316.3748031140696
 20
139.5916606577161
 10
-316.6187253396696
 20
140.018170711816
 10
-316.8123031140696
 20
140.5211005223161
 10
-316.9365876957695
 20
141.051219815316
 10
-316.9794132439696
 20
141.556636820816
  0
LWPOLYLINE
  5
4FAA
330
A
100
AcDbEntity
  8
0
100
AcDbPolyline
 90
       21
 70
   128
 43
0.0
 10
-316.9794132439696
 20
111.2457476884161
 10
-316.9365876957695
 20
111.6769886685161
 10
-316.8123031140696
 20
111.991840751416
 10
-316.6187253396696
 20
112.159484021616
 10
-316.3748031140696
 20
112.163508387716
 10
-316.1044132439696
 20
112.003519916716
 10
-315.8340233738695
 20
111.6951793948161
 10
-315.5901011481695
 20
111.268669340816
 10
-315.3965233738695
 20
110.765739530316
 10
-315.2722387921696
 20
110.235620237316
 10
-315.2294132439696
 20
109.730203231716
 10
-315.2722387921696
 20
109.298962251616
 10
-315.3965233738695
 20
108.9841101687161
 10
-315.5901011481695
 20
108.816466898516
 10
-315.8340233738695
 20
108.812442532416
 10
-316.1044132439696
 20
108.972431003416
 10
-316.3748031140696
 20
109.280771525216
 10
-316.6187253396696
 20
109.7072815793161
 10
-316.8123031140696
 20
110.210211389816
 10
-316.9365876957695
 20
110.740330682816
 10
-316.9794132439696
 20
111.2457476884161
  0
LINE
  5
4FAB
330
A
100
AcDbEntity
  8
0
100
AcDbLine
 10
-374.8752296145695
 20
79.05967789081606
 30
0.0
 11
-374.8752296145695
 21
79.63147466051603
 31
0.0
  0
ELLIPSE
  5
4FAC
330
A
100
AcDbEntity
  8
0
100
AcDbEllipse
 10
-319.2534513496695
 20
148.088189416016
 30
0.0
 11
0.02060130314742992
 21
1.546795406576507
 31
0.0
210
0.0
220
0.0
230
1.0
 40
0.5385479866
 41
5.857020705817647
 42
7.427817032612545
  0
ELLIPSE
  5
4FAD
330
A
100
AcDbEntity
  8
0
100
AcDbEllipse
 10
-460.8486048683695
 20
107.213189416016
 30
0.0
 11
-0.7436492059453885
 21
1.343397319065787
 31
0.0
210
0.0
220
0.0
230
1.0
 40
0.2798503002000001
 41
6.219357812864879
 42
7.202151536112118
  0
LINE
  5
4FAE
330
A
100
AcDbEntity
  8
0
100
AcDbLine
 10
-318.8903361453696
 20
149.492049852116
 30
0.0
 11
-318.3452438788695
 21
149.019986102016
 31
0.0
  0
LINE
  5
4FAF
330
A
100
AcDbEntity
  8
0
100
AcDbLine
 10
-387.9194582485695
 20
94.56319866841605
 30
0.0
 11
-388.4194582485695
 21
94.99621137031605
 31
0.0
  0
LWPOLYLINE
  5
4FB0
330
A
100
AcDbEntity
  8
0
100
AcDbPolyline
 90
        3
 70
   128
 43
0.0
 10
-377.4746427788695
 20
108.3067671786161
 10
-376.7583601253695
 20
107.9373756226161
 10
-376.3863393573695
 20
107.682312116816
  0
LINE
  5
4FB1
330
A
100
AcDbEntity
  8
0
100
AcDbLine
 10
-387.8282214868696
 20
94.47036466171599
 30
0.0
 11
-387.9194582485695
 21
94.56319866841605
 31
0.0
  0
LWPOLYLINE
  5
4FB2
330
A
100
AcDbEntity
  8
0
100
AcDbPolyline
 90
        3
 70
   128
 43
0.0
 10
-402.4195628939696
 20
92.24673488331601
 10
-402.8147550878695
 20
92.78332133581605
 10
-402.9794933831695
 20
93.10736924611606
  0
ELLIPSE
  5
4FB3
330
A
100
AcDbEntity
  8
0
100
AcDbEllipse
 10
-460.8486048683695
 20
61.31384301541598
 30
0.0
 11
1.473473252550519
 21
0.4833242713095843
 31
0.0
210
0.0
220
0.0
230
1.0
 40
0.5810793133
 41
1.906050370087844
 42
3.476846696882739
  0
ELLIPSE
  5
4FB4
330
A
100
AcDbEntity
  8
0
100
AcDbEllipse
 10
-460.8486048683695
 20
107.213189416016
 30
0.0
 11
1.494282150360476
 21
-0.3628541438781099
 31
0.0
210
0.0
220
0.0
230
1.0
 40
0.3606040822000001
 41
2.181737234125084
 42
3.228934785321773
  0
LINE
  5
4FB5
330
A
100
AcDbEntity
  8
0
100
AcDbLine
 10
-457.1476429740695
 20
56.24560079221604
 30
0.0
 11
-457.0222530812695
 21
56.28179773641605
 31
0.0
  0
LINE
  5
4FB6
330
A
100
AcDbEntity
  8
0
100
AcDbLine
 10
-457.1476429740695
 20
56.24560079221604
 30
0.0
 11
-462.1476429740695
 21
60.57572781111608
 31
0.0
  0
LINE
  5
4FB7
330
A
100
AcDbEntity
  8
0
100
AcDbLine
 10
-341.6944675009695
 20
80.32429498361606
 30
0.0
 11
-306.6903361453695
 21
90.42911731401605
 31
0.0
  0
LINE
  5
4FB8
330
A
100
AcDbEntity
  8
0
100
AcDbLine
 10
-301.6903361453695
 20
86.09899029511601
 30
0.0
 11
-306.6903361453695
 21
90.42911731401605
 31
0.0
  0
LINE
  5
4FB9
330
A
100
AcDbEntity
  8
0
100
AcDbLine
 10
-449.0117200726695
 20
49.34447265311601
 30
0.0
 11
-444.0117200726695
 21
45.01434563421608
 31
0.0
  0
LINE
  5
4FBA
330
A
100
AcDbEntity
  8
0
100
AcDbLine
 10
-449.0117200726695
 20
49.34447265311601
 30
0.0
 11
-367.6752296145695
 21
72.82429498361606
 31
0.0
  0
LWPOLYLINE
  5
4FBB
330
A
100
AcDbEntity
  8
0
100
AcDbPolyline
 90
       22
 70
   128
 43
0.0
 10
-367.6752296145695
 20
72.82429498361606
 10
-366.1450652916695
 20
72.40057678081601
 10
-364.5359220209695
 20
72.05771775341603
 10
-362.8648352916695
 20
71.79934764111604
 10
-361.1494963688695
 20
71.62820172631601
 10
-359.4080650016695
 20
71.54609187661609
 10
-357.6589771713695
 20
71.55388736281603
 10
-355.9207499159695
 20
71.65150565661602
 10
-354.2117852960695
 20
71.83791330421607
 10
-352.5501755778695
 20
72.111136866816
 10
-350.9535116962695
 20
72.46828381331605
 10
-349.4386970252696
 20
72.90557314241599
 10
-348.0217684272695
 20
73.418375410516
 10
-346.7177264758695
 20
74.00126174271603
 10
-345.5403766493695
 20
74.64806130651598
 10
-344.5021831770695
 20
75.351926639916
 10
-343.6141370837695
 20
76.10540614401603
 10
-342.8856398316694
 20
76.900522970416
 10
-342.3244037901695
 20
77.728859469416
 10
-341.9363705871696
 20
78.58164630531601
 10
-341.7256482071695
 20
79.44985529441604
 10
-341.6944675009695
 20
80.32429498361606
  0
LINE
  5
4FBC
330
A
100
AcDbEntity
  8
0
100
AcDbLine
 10
-341.6944675009695
 20
81.190320387316
 30
0.0
 11
-306.6903361453695
 21
91.29514271781605
 31
0.0
  0
LINE
  5
4FBD
330
A
100
AcDbEntity
  8
0
100
AcDbLine
 10
-306.6903361453695
 20
90.42911731401605
 30
0.0
 11
-306.6903361453695
 21
91.29514271781605
 31
0.0
  0
LINE
  5
4FBE
330
A
100
AcDbEntity
  8
0
100
AcDbLine
 10
-341.6944675009695
 20
80.32429498361606
 30
0.0
 11
-341.6944675009695
 21
81.190320387316
 31
0.0
  0
LINE
  5
4FBF
330
A
100
AcDbEntity
  8
0
100
AcDbLine
 10
-301.6903361453695
 20
86.965015698916
 30
0.0
 11
-306.6903361453695
 21
91.29514271781605
 31
0.0
  0
LINE
  5
4FC0
330
A
100
AcDbEntity
  8
0
100
AcDbLine
 10
-305.7544132439695
 20
91.63521788501603
 30
0.0
 11
-300.7544132439695
 21
87.30509086601606
 31
0.0
  0
LINE
  5
4FC1
330
A
100
AcDbEntity
  8
0
100
AcDbLine
 10
-305.7544132439695
 20
91.63521788501603
 30
0.0
 11
-305.7544132439695
 21
138.260794694116
 31
0.0
  0
LINE
  5
4FC2
330
A
100
AcDbEntity
  8
0
100
AcDbLine
 10
-300.7544132439695
 20
133.930667675216
 30
0.0
 11
-305.7544132439695
 21
138.260794694116
 31
0.0
  0
LWPOLYLINE
  5
4FC3
330
A
100
AcDbEntity
  8
0
100
AcDbPolyline
 90
       21
 70
   128
 43
0.0
 10
-301.7294132439696
 20
128.349749413116
 10
-301.7722387921696
 20
128.8551664186161
 10
-301.8965233738695
 20
129.385285711616
 10
-302.0901011481695
 20
129.888215522116
 10
-302.3340233738695
 20
130.314725576216
 10
-302.6044132439696
 20
130.623066098016
 10
-302.8748031140696
 20
130.7830545690161
 10
-303.1187253396696
 20
130.7790302029161
 10
-303.3123031140696
 20
130.611386932816
 10
-303.4365876957695
 20
130.296534849816
 10
-303.4794132439696
 20
129.865293869716
 10
-303.4365876957695
 20
129.3598768642161
 10
-303.3123031140696
 20
128.829757571216
 10
-303.1187253396696
 20
128.326827760716
 10
-302.8748031140696
 20
127.900317706616
 10
-302.6044132439696
 20
127.591977184816
 10
-302.3340233738695
 20
127.4319887138161
 10
-302.0901011481695
 20
127.4360130799161
 10
-301.8965233738695
 20
127.603656350016
 10
-301.7722387921696
 20
127.918508433016
 10
-301.7294132439696
 20
128.349749413116
  0
LWPOLYLINE
  5
4FC4
330
A
100
AcDbEntity
  8
0
100
AcDbPolyline
 90
       21
 70
   128
 43
0.0
 10
-301.7294132439696
 20
98.03886028061598
 10
-301.7722387921696
 20
98.54427728621604
 10
-301.8965233738695
 20
99.07439657921603
 10
-302.0901011481695
 20
99.57732638971598
 10
-302.3340233738695
 20
100.003836443716
 10
-302.6044132439696
 20
100.312176965616
 10
-302.8748031140696
 20
100.4721654366161
 10
-303.1187253396696
 20
100.4681410705161
 10
-303.3123031140696
 20
100.300497800316
 10
-303.4365876957695
 20
99.98564571741602
 10
-303.4794132439696
 20
99.55440473731599
 10
-303.4365876957695
 20
99.04898773171604
 10
-303.3123031140696
 20
98.51886843871605
 10
-303.1187253396696
 20
98.01593862821599
 10
-302.8748031140696
 20
97.58942857421599
 10
-302.6044132439696
 20
97.28108805231605
 10
-302.3340233738695
 20
97.12109958131603
 10
-302.0901011481695
 20
97.12512394741603
 10
-301.8965233738695
 20
97.29276721761599
 10
-301.7722387921696
 20
97.60761930051606
 10
-301.7294132439696
 20
98.03886028061598
  0
LINE
  5
4FC5
330
A
100
AcDbEntity
  8
0
100
AcDbLine
 10
-306.6204386477694
 20
91.38521788501603
 30
0.0
 11
-306.6204386477694
 21
138.010794694116
 31
0.0
  0
LINE
  5
4FC6
330
A
100
AcDbEntity
  8
0
100
AcDbLine
 10
-305.7544132439695
 20
138.260794694116
 30
0.0
 11
-306.6204386477694
 21
138.010794694116
 31
0.0
  0
LINE
  5
4FC7
330
A
100
AcDbEntity
  8
0
100
AcDbLine
 10
-305.7544132439695
 20
91.63521788501603
 30
0.0
 11
-306.6204386477694
 21
91.38521788501603
 31
0.0
  0
LINE
  5
4FC8
330
A
100
AcDbEntity
  8
0
100
AcDbLine
 10
-306.6204386477694
 20
91.38521788501603
 30
0.0
 11
-301.6204386477694
 21
87.05509086601606
 31
0.0
  0
ELLIPSE
  5
4FC9
330
A
100
AcDbEntity
  8
0
100
AcDbEllipse
 10
-302.0534513496694
 20
87.29320607031607
 30
0.0
 11
-0.7436492059453599
 21
1.34339731906573
 31
0.0
210
0.0
220
0.0
230
1.0
 40
0.2798503002
 41
2.489762555727465
 42
4.06055888252221
  0
ELLIPSE
  5
4FCA
330
A
100
AcDbEntity
  8
0
100
AcDbEllipse
 10
-443.6486048683695
 20
46.41820607031607
 30
0.0
 11
0.0206013031474015
 21
1.546795406576621
 31
0.0
210
0.0
220
0.0
230
1.0
 40
0.5385479866
 41
2.715428052227784
 42
3.303430655775403
  0
ELLIPSE
  5
4FCB
330
A
100
AcDbEntity
  8
0
100
AcDbEllipse
 10
-302.0534513496694
 20
87.29320607031607
 30
0.0
 11
0.4408375055278385
 21
-0.3931477189017868
 31
0.0
210
0.0
220
0.0
230
1.0
 40
0.0098332391
 41
5.688997489594978
 42
7.259793816398313
  0
LINE
  5
4FCC
330
A
100
AcDbEntity
  8
0
100
AcDbLine
 10
-301.3034513496694
 20
86.64368701751599
 30
0.0
 11
-301.8034513496694
 21
87.07669971941598
 31
0.0
  0
ELLIPSE
  5
4FCD
330
A
100
AcDbEntity
  8
0
100
AcDbEllipse
 10
-302.0534513496694
 20
87.29320607031607
 30
0.0
 11
0.4990329072684858
 21
-0.3181135541046842
 31
0.0
210
0.0
220
0.0
230
1.0
 40
0.0977106231
 41
5.298194014461879
 42
6.868990341257073
  0
ELLIPSE
  5
4FCE
330
A
100
AcDbEntity
  8
0
100
AcDbEllipse
 10
-302.0534513496694
 20
87.29320607031607
 30
0.0
 11
1.494282150360448
 21
-0.3628541438781667
 31
0.0
210
0.0
220
0.0
230
1.0
 40
0.3606040822000001
 41
5.323329887714944
 42
6.8941262145099
  0
ELLIPSE
  5
4FCF
330
A
100
AcDbEntity
  8
0
100
AcDbEllipse
 10
-302.0534513496694
 20
133.192552470916
 30
0.0
 11
1.473473252550491
 21
0.4833242713096977
 31
0.0
210
0.0
220
0.0
230
1.0
 40
0.5810793133
 41
6.09484057487426
 42
6.618439350472497
  0
LINE
  5
4FD0
330
A
100
AcDbEntity
  8
0
100
AcDbLine
 10
-367.6752296145695
 20
73.690320387316
 30
0.0
 11
-367.6752296145695
 21
72.82429498361606
 31
0.0
  0
LWPOLYLINE
  5
4FD1
330
A
100
AcDbEntity
  8
0
100
AcDbPolyline
 90
       22
 70
   128
 43
0.0
 10
-341.6944675009695
 20
80.61852361761603
 10
-341.7256482071695
 20
80.31588069821603
 10
-341.9363705871696
 20
79.44767170911601
 10
-342.3244037901695
 20
78.59488487321599
 10
-342.8856398316694
 20
77.766548374216
 10
-343.6141370837695
 20
76.97143154781602
 10
-344.5021831770695
 20
76.217952043716
 10
-345.5403766493695
 20
75.51408671031598
 10
-346.7177264758695
 20
74.86728714651602
 10
-348.0217684272695
 20
74.284400814316
 10
-349.4386970252696
 20
73.77159854611605
 10
-350.9535116962695
 20
73.33430921711604
 10
-352.5501755778695
 20
72.97716227061599
 10
-354.2117852960695
 20
72.70393870791602
 10
-355.9207499159695
 20
72.51753106041602
 10
-357.6589771713695
 20
72.41991276661602
 10
-359.4080650016695
 20
72.41211728031604
 10
-361.1494963688695
 20
72.494227130116
 10
-362.8648352916695
 20
72.66537304491604
 10
-364.5359220209695
 20
72.92374315721602
 10
-366.1450652916695
 20
73.266602184616
 10
-367.6752296145695
 20
73.690320387316
  0
LINE
  5
4FD2
330
A
100
AcDbEntity
  8
0
100
AcDbLine
 10
-306.6903361453695
 20
138.060514522216
 30
0.0
 11
-311.0384724875695
 21
136.805315678316
 31
0.0
  0
LINE
  5
4FD3
330
A
100
AcDbEntity
  8
0
100
AcDbLine
 10
-306.6903361453695
 20
138.060514522216
 30
0.0
 11
-306.6204386477694
 21
137.9999815136159
 31
0.0
  0
LINE
  5
4FD4
330
A
100
AcDbEntity
  8
0
100
AcDbLine
 10
-306.6903361453695
 20
138.926539926016
 30
0.0
 11
-312.9544132439695
 21
137.118256626416
 31
0.0
  0
LINE
  5
4FD5
330
A
100
AcDbEntity
  8
0
100
AcDbLine
 10
-306.6903361453695
 20
138.926539926016
 30
0.0
 11
-306.6903361453695
 21
138.060514522216
 31
0.0
  0
LINE
  5
4FD6
330
A
100
AcDbEntity
  8
0
100
AcDbLine
 10
-306.6903361453695
 20
138.926539926016
 30
0.0
 11
-305.8798031367695
 21
138.2245977499161
 31
0.0
  0
LINE
  5
4FD7
330
A
100
AcDbEntity
  8
0
100
AcDbLine
 10
-449.0117200726695
 20
49.34447265311601
 30
0.0
 11
-449.0117200726695
 21
50.21049805691601
 31
0.0
  0
LINE
  5
4FD8
330
A
100
AcDbEntity
  8
0
100
AcDbLine
 10
-449.0117200726695
 20
50.21049805691601
 30
0.0
 11
-367.6752296145695
 21
73.690320387316
 31
0.0
  0
LINE
  5
4FD9
330
A
100
AcDbEntity
  8
0
100
AcDbLine
 10
-449.0816175702695
 20
57.63813885991604
 30
0.0
 11
-449.0816175702695
 21
50.26021788501603
 31
0.0
  0
LINE
  5
4FDA
330
A
100
AcDbEntity
  8
0
100
AcDbLine
 10
-449.0117200726695
 20
50.199684876416
 30
0.0
 11
-449.0816175702695
 21
50.26021788501603
 31
0.0
  0
LINE
  5
4FDB
330
A
100
AcDbEntity
  8
0
100
AcDbLine
 10
-444.9476429740695
 20
45.68009086601606
 30
0.0
 11
-449.9476429740695
 21
50.01021788501603
 31
0.0
  0
LINE
  5
4FDC
330
A
100
AcDbEntity
  8
0
100
AcDbLine
 10
-449.9476429740695
 20
50.01021788501603
 30
0.0
 11
-449.0816175702695
 21
50.26021788501603
 31
0.0
  0
LINE
  5
4FDD
330
A
100
AcDbEntity
  8
0
100
AcDbLine
 10
-449.9476429740695
 20
57.38813885991604
 30
0.0
 11
-449.9476429740695
 21
50.01021788501603
 31
0.0
  0
ELLIPSE
  5
4FDE
330
A
100
AcDbEntity
  8
0
100
AcDbEllipse
 10
-443.6486048683695
 20
46.41820607031607
 30
0.0
 11
1.473473252550519
 21
0.4833242713096412
 31
0.0
210
0.0
220
0.0
230
1.0
 40
0.5810793133
 41
3.476846696882687
 42
3.873685893493982
  0
ARC
  5
4FDF
330
A
100
AcDbEntity
  8
0
100
AcDbCircle
 10
-389.2317298635695
 20
74.69826120641599
 30
0.0
 40
3.702171299452553
100
AcDbArc
 50
278.8988437208003
 51
293.3053837860994
  0
LINE
  5
4FE0
330
A
100
AcDbEntity
  8
0
100
AcDbLine
 10
-388.7582600110695
 20
72.15658062261608
 30
0.0
 11
-387.7670331594695
 21
71.298152988216
 31
0.0
  0
LINE
  5
4FE1
330
A
100
AcDbEntity
  8
0
100
AcDbLine
 10
-387.0414047422695
 20
72.65219404841608
 30
0.0
 11
-388.7582600110695
 21
72.15658062261608
 31
0.0
  0
ARC
  5
4FE2
330
A
100
AcDbEntity
  8
0
100
AcDbCircle
 10
-388.2380485737695
 20
71.79076570201599
 30
0.0
 40
1.474454222941186
100
AcDbArc
 50
35.7489925739031
 51
62.46421812779966
  0
LINE
  5
4FE3
330
A
100
AcDbEntity
  8
0
100
AcDbLine
 10
-389.2732600110695
 20
72.60258370551608
 30
0.0
 11
-387.5564047422695
 21
73.09819713141601
 31
0.0
  0
LINE
  5
4FE4
330
A
100
AcDbEntity
  8
0
100
AcDbLine
 10
-390.2644868626695
 20
73.46101134001609
 30
0.0
 11
-389.2732600110695
 21
72.60258370551608
 31
0.0
  0
ARC
  5
4FE5
330
A
100
AcDbEntity
  8
0
100
AcDbCircle
 10
-389.6917963250695
 20
69.80340312361605
 30
0.0
 40
3.702171297561501
100
AcDbArc
 50
98.89884371570002
 51
113.3053837883003
  0
LINE
  5
4FE6
330
A
100
AcDbEntity
  8
0
100
AcDbLine
 10
-390.1652661769695
 20
72.34508370551603
 30
0.0
 11
-391.1564930285695
 21
73.20351134001604
 31
0.0
  0
LINE
  5
4FE7
330
A
100
AcDbEntity
  8
0
100
AcDbLine
 10
-391.8821214458695
 20
71.84947027971603
 30
0.0
 11
-390.1652661769695
 21
72.34508370551603
 31
0.0
  0
ARC
  5
4FE8
330
A
100
AcDbEntity
  8
0
100
AcDbCircle
 10
-390.6854776142695
 20
72.71089862621605
 30
0.0
 40
1.474454222957242
100
AcDbArc
 50
215.7489925740032
 51
242.4642181277016
  0
LINE
  5
4FE9
330
A
100
AcDbEntity
  8
0
100
AcDbLine
 10
-389.6502661769695
 20
71.89908062261603
 30
0.0
 11
-391.3671214458695
 21
71.40346719681602
 31
0.0
  0
LINE
  5
4FEA
330
A
100
AcDbEntity
  8
0
100
AcDbLine
 10
-388.6590393253695
 20
71.04065298821607
 30
0.0
 11
-389.6502661769695
 21
71.89908062261603
 31
0.0
  0
LINE
  5
4FEB
330
A
100
AcDbEntity
  8
0
100
AcDbLine
 10
-390.1652661769695
 20
73.37508370561605
 30
0.0
 11
-390.1652661769695
 21
72.34508370551603
 31
0.0
  0
LINE
  5
4FEC
330
A
100
AcDbEntity
  8
0
100
AcDbLine
 10
-388.7582600110695
 20
72.75125139991601
 30
0.0
 11
-388.7582600110695
 21
72.15658062261608
 31
0.0
  0
LINE
  5
4FED
330
A
100
AcDbEntity
  8
0
100
AcDbLine
 10
-391.3671214458695
 20
71.40346719681602
 30
0.0
 11
-391.0613620748695
 21
72.08640310161607
 31
0.0
  0
LINE
  5
4FEE
330
A
100
AcDbEntity
  8
0
100
AcDbLine
 10
-389.0375263129695
 20
72.67063416261604
 30
0.0
 11
-388.6590393253695
 21
71.04065298821607
 31
0.0
  0
LINE
  5
4FEF
330
A
100
AcDbEntity
  8
0
100
AcDbLine
 10
-389.6502661769695
 20
72.929080622616
 30
0.0
 11
-389.6502661769695
 21
71.89908062261603
 31
0.0
  0
LWPOLYLINE
  5
4FF0
330
A
100
AcDbEntity
  8
0
100
AcDbPolyline
 90
       36
 70
   128
 43
0.0
 10
-390.7102208719695
 20
105.9809344455161
 10
-390.0293600620695
 20
106.984735305016
 10
-389.2399949358695
 20
107.914126584716
 10
-388.3583713640695
 20
108.749980545016
 10
-387.4026339818695
 20
109.4750945319161
 10
-386.3924527561695
 20
110.074545023316
 10
-385.3486181587695
 20
110.535994768916
 10
-384.2926132791695
 20
110.849946702616
 10
-383.2461716826695
 20
111.009939400716
 10
-382.2308301135695
 20
111.0126800644161
 10
-381.2674852481695
 20
110.858112288116
 10
-380.3759636222695
 20
110.5494172210161
 10
-379.5746135826695
 20
110.0929480953161
 10
-378.8799276603695
 20
109.4980994714161
 10
-378.3062031396695
 20
108.777113888916
 10
-377.8652478063696
 20
107.9448299035161
 10
-377.5661369323695
 20
107.018376695816
 10
-377.4150264985695
 20
106.016821537116
 10
-377.4150264985695
 20
104.9607773665161
 10
-377.5661369323695
 20
103.8719785580161
 10
-377.8652478063696
 20
102.772833606816
 10
-378.3062031396695
 20
101.685963941016
 10
-378.8799276603695
 20
100.6337383520161
 10
-379.5746135826695
 20
99.63781262391606
 10
-380.3759636222695
 20
98.71868383711606
 10
-381.2674852481695
 20
97.89526851931603
 10
-382.2308301135695
 20
97.18451332571604
 10
-383.2461716826695
 20
96.60104626111607
 10
-384.2926132791695
 20
96.156875621816
 10
-385.3486181587695
 20
95.86114285401598
 10
-386.3924527561695
 20
95.71993441381599
 10
-387.4026339818695
 20
95.73615650261607
 10
-388.3583713640695
 20
95.90947525461607
 10
-389.2399949358695
 20
96.23632360841603
 10
-390.0293600620695
 20
96.70997472001605
 10
-390.7102208719695
 20
97.32068040761604
  0
LINE
  5
4FF1
330
A
100
AcDbEntity
  8
0
100
AcDbLine
 10
-405.8449990042695
 20
98.52077287101602
 30
0.0
 11
-405.8449990042695
 21
96.04277375331608
 31
0.0
  0
ARC
  5
4FF2
330
A
100
AcDbEntity
  8
0
100
AcDbCircle
 10
-399.2626859627695
 20
96.27687510471608
 30
0.0
 40
6.954273661696928
100
AcDbArc
 50
107.7687942654999
 51
161.1758560456009
  0
LINE
  5
4FF3
330
A
100
AcDbEntity
  8
0
100
AcDbLine
 10
-401.3849681747695
 20
102.899400331116
 30
0.0
 11
-390.7102208719695
 21
105.9809344455161
 31
0.0
  0
LINE
  5
4FF4
330
A
100
AcDbEntity
  8
0
100
AcDbLine
 10
-390.7102208719695
 20
97.32068040761604
 30
0.0
 11
-401.3849681747695
 21
94.23914629321601
 31
0.0
  0
ARC
  5
4FF5
330
A
100
AcDbEntity
  8
0
100
AcDbCircle
 10
-402.6520667814695
 20
97.522071835616
 30
0.0
 40
3.51896845618573
100
AcDbArc
 50
204.8584753325997
 51
291.1049075118995
  0
LWPOLYLINE
  5
4FF6
330
A
100
AcDbEntity
  8
0
100
AcDbPolyline
 90
       42
 70
   128
 43
0.0
 10
-384.7572804220695
 20
109.6479574896161
 10
-385.7157170676695
 20
109.2976971442161
 10
-386.6516887705695
 20
108.808479568816
 10
-387.5432571473695
 20
108.1917716089161
 10
-388.3695245909695
 20
107.4620283762161
 10
-389.1111240929695
 20
106.636354433716
 10
-389.7506731893695
 20
105.734102878816
 10
-390.2731813915696
 20
104.776421723116
 10
-390.6664015501696
 20
103.785758201416
 10
-390.9211169177695
 20
102.7853326268161
 10
-391.0313571821695
 20
101.7985941270161
 10
-390.9945384049695
 20
100.8486710160161
 10
-390.8115235870695
 20
99.95782868651602
 10
-390.4866024407695
 20
99.14694772761598
 10
-390.0273908422695
 20
98.43503450171605
 10
-389.4446523222695
 20
97.83877565151604
 10
-388.7520457777695
 20
97.37214697901598
 10
-387.9658053191695
 20
97.04608586491602
 10
-387.1043597563695
 20
96.86823490521604
 10
-386.1879006432695
 20
96.84276277571601
 10
-385.2379090046695
 20
96.97026652161608
 10
-384.2766518395695
 20
97.24775756321608
 10
-383.3266602009695
 20
97.668731745516
 10
-382.4102010878695
 20
98.22332179061598
 10
-381.5487555250695
 20
98.89852857791598
 10
-380.7625150664695
 20
99.67852583251604
 10
-380.0699085219695
 20
100.5450310799161
 10
-379.4871700019695
 20
101.477734171516
 10
-379.0279584034695
 20
102.4547733373161
 10
-378.7030372571695
 20
103.453247607516
 10
-378.5200224392695
 20
104.449753591416
 10
-378.4832036620695
 20
105.4209340333161
 10
-378.5934439264695
 20
106.344025286816
 10
-378.8481592940695
 20
107.1973908753161
 10
-379.2413794526695
 20
107.961028632716
 10
-379.7638876548695
 20
108.6170395371161
 10
-380.4034367512695
 20
109.1500472491161
 10
-381.1450362532695
 20
109.547558519516
 10
-381.9713036968695
 20
109.800256021116
 10
-382.8628720736695
 20
109.902216738716
 10
-383.7988437765695
 20
109.851050799516
 10
-384.7572804220695
 20
109.6479574896161
  0
LINE
  5
4FF7
330
A
100
AcDbEntity
  8
0
100
AcDbLine
 10
-387.3374074410695
 20
101.772863150616
 30
0.0
 11
-387.3160240977695
 21
101.764602233416
 31
0.0
  0
LINE
  5
4FF8
330
A
100
AcDbEntity
  8
0
100
AcDbLine
 10
-388.2358157939696
 20
101.513514998416
 30
0.0
 11
-387.3374074410695
 21
101.772863150616
 31
0.0
  0
LINE
  5
4FF9
330
A
100
AcDbEntity
  8
0
100
AcDbLine
 10
-387.3374074410695
 20
101.772863150616
 30
0.0
 11
-387.3249074410695
 21
101.762037833116
 31
0.0
  0
LINE
  5
4FFA
330
A
100
AcDbEntity
  8
0
100
AcDbLine
 10
-390.7056520480695
 20
102.8212606275161
 30
0.0
 11
-389.6931520480695
 21
101.9444099062161
 31
0.0
  0
LWPOLYLINE
  5
4FFB
330
A
100
AcDbEntity
  8
0
100
AcDbPolyline
 90
       39
 70
   128
 43
0.0
 10
-390.7056520480695
 20
100.482992037316
 10
-390.4535741085695
 20
99.65071121331599
 10
-390.0646831595695
 20
98.90774244011598
 10
-389.5483195449695
 20
98.271930267116
 10
-388.9168852340695
 20
97.75854556721609
 10
-388.1855459527695
 20
97.37991876261609
 10
-387.3718669343695
 20
97.14514367371603
 10
-386.4953910398695
 20
97.05985910511609
 10
-385.5771693791695
 20
97.12611341301604
 10
-384.6392557078696
 20
97.34231530811601
 10
-383.7041767422695
 20
97.70327207501603
 10
-382.7943911150695
 20
98.20031429031602
 10
-381.9317499659695
 20
98.82150404401605
 10
-381.1369721235695
 20
99.55192166301609
 10
-380.4291464820695
 20
100.3740240505161
 10
-379.8252735266695
 20
101.268066033716
 10
-379.3398570173695
 20
102.2125746022161
 10
-378.9845556390695
 20
103.184864644216
 10
-378.7679029845695
 20
104.1615837949161
 10
-378.6951025956695
 20
105.1192733122161
 10
-378.7679029845695
 20
106.0349315052161
 10
-378.9845556390695
 20
106.8865661876161
 10
-379.3398570173695
 20
107.653722883116
 10
-379.8252735266695
 20
108.317976099316
 10
-380.4291464820695
 20
108.8633718692161
 10
-381.1369721235695
 20
109.276810932016
 10
-381.9317499659695
 20
109.548363349816
 10
-382.7943911150695
 20
109.671507003916
 10
-383.7041767422695
 20
109.6432842424161
 10
-384.6392557078696
 20
109.4643729168161
 10
-385.5771693791695
 20
109.139070101216
 10
-386.4953910398695
 20
108.675188886216
 10
-387.3718669343695
 20
108.083870723916
 10
-388.1855459527695
 20
107.379317834816
 10
-388.9168852340695
 20
106.578452099216
 10
-389.5483195449695
 20
105.700508630016
 10
-390.0646831595695
 20
104.766573785116
 10
-390.4535741085695
 20
103.799078717816
 10
-390.7056520480695
 20
102.8212606275161
  0
LINE
  5
4FFC
330
A
100
AcDbEntity
  8
0
100
AcDbLine
 10
-384.7572804220695
 20
104.538407607316
 30
0.0
 11
-382.1592042107695
 21
104.1192733122161
 31
0.0
  0
LINE
  5
4FFD
330
A
100
AcDbEntity
  8
0
100
AcDbLine
 10
-385.6233058258695
 20
104.288407607316
 30
0.0
 11
-384.7572804220695
 21
104.538407607316
 31
0.0
  0
LINE
  5
4FFE
330
A
100
AcDbEntity
  8
0
100
AcDbLine
 10
-387.3553566334695
 20
102.6192733122161
 30
0.0
 11
-385.6233058258695
 21
104.288407607316
 31
0.0
  0
LINE
  5
4FFF
330
A
100
AcDbEntity
  8
0
100
AcDbLine
 10
-389.0874074410695
 20
103.288407607316
 30
0.0
 11
-387.3553566334695
 21
102.6192733122161
 31
0.0
  0
LINE
  5
5000
330
A
100
AcDbEntity
  8
0
100
AcDbLine
 10
-390.7056520480695
 20
102.8212606275161
 30
0.0
 11
-389.0874074410695
 21
103.288407607316
 31
0.0
  0
LINE
  5
5001
330
A
100
AcDbEntity
  8
0
100
AcDbLine
 10
-389.9534328448696
 20
100.700139017016
 30
0.0
 11
-390.7056520480695
 21
100.482992037316
 31
0.0
  0
LINE
  5
5002
330
A
100
AcDbEntity
  8
0
100
AcDbLine
 10
-389.9534328448696
 20
101.8692733122161
 30
0.0
 11
-389.9534328448696
 21
100.700139017016
 31
0.0
  0
LINE
  5
5003
330
A
100
AcDbEntity
  8
0
100
AcDbLine
 10
-389.0874074410695
 20
102.1192733122161
 30
0.0
 11
-389.9534328448696
 21
101.8692733122161
 31
0.0
  0
LINE
  5
5004
330
A
100
AcDbEntity
  8
0
100
AcDbLine
 10
-388.2213820372695
 20
101.5032479084161
 30
0.0
 11
-389.0874074410695
 21
102.1192733122161
 31
0.0
  0
LINE
  5
5005
330
A
100
AcDbEntity
  8
0
100
AcDbLine
 10
-386.4893312296695
 20
102.0032479084161
 30
0.0
 11
-388.2213820372695
 21
101.5032479084161
 31
0.0
  0
LINE
  5
5006
330
A
100
AcDbEntity
  8
0
100
AcDbLine
 10
-384.7572804220695
 20
103.3692733122161
 30
0.0
 11
-386.4893312296695
 21
102.0032479084161
 31
0.0
  0
LINE
  5
5007
330
A
100
AcDbEntity
  8
0
100
AcDbLine
 10
-382.1592042107695
 20
103.2532479084161
 30
0.0
 11
-384.7572804220695
 21
103.3692733122161
 31
0.0
  0
LINE
  5
5008
330
A
100
AcDbEntity
  8
0
100
AcDbLine
 10
-382.1592042107695
 20
104.1192733122161
 30
0.0
 11
-382.1592042107695
 21
103.2532479084161
 31
0.0
  0
LINE
  5
5009
330
A
100
AcDbEntity
  8
0
100
AcDbLine
 10
-384.7572804220695
 20
104.538407607316
 30
0.0
 11
-383.3338801597695
 21
103.3057068204161
 31
0.0
  0
LINE
  5
500A
330
A
100
AcDbEntity
  8
0
100
AcDbLine
 10
-384.5513624184695
 20
103.360077385016
 30
0.0
 11
-385.6233058258695
 21
104.288407607316
 31
0.0
  0
LINE
  5
500B
330
A
100
AcDbEntity
  8
0
100
AcDbLine
 10
-387.3553566334695
 20
102.6192733122161
 30
0.0
 11
-386.6053566334695
 21
101.969754259316
 31
0.0
  0
LINE
  5
500C
330
A
100
AcDbEntity
  8
0
100
AcDbLine
 10
-387.3249074410695
 20
101.762037833116
 30
0.0
 11
-389.0874074410695
 21
103.288407607316
 31
0.0
  0
LINE
  5
500D
330
A
100
AcDbEntity
  8
0
100
AcDbLine
 10
-367.6270427415695
 20
73.67536322591607
 30
0.0
 11
-358.6449122427695
 21
76.268280956616
 31
0.0
  0
LINE
  5
500E
330
A
100
AcDbEntity
  8
0
100
AcDbLine
 10
-355.2908102765695
 20
77.23652679321609
 30
0.0
 11
-341.6944675009695
 21
81.16145287391603
 31
0.0
  0
LWPOLYLINE
  5
500F
330
A
100
AcDbEntity
  8
0
100
AcDbPolyline
 90
       16
 70
   128
 43
0.0
 10
-415.1329968899695
 20
67.43826150411601
 10
-415.2152838715695
 20
66.866024542916
 10
-415.1259304813696
 20
66.26985547821599
 10
-414.8598663178695
 20
65.68700384521608
 10
-414.4230348148695
 20
65.13048958641608
 10
-413.8251940661695
 20
64.61274431061602
 10
-413.0796988462695
 20
64.14533359181601
 10
-412.2032022864695
 20
63.73869861301606
 10
-411.2152838715695
 20
63.40192292771602
 10
-410.1380120665695
 20
63.14252954831605
 10
-408.9954513432695
 20
62.96631289411599
 10
-407.8131246202695
 20
62.87720935411599
 10
-406.6174431228695
 20
62.87720935411599
 10
-405.4351163999695
 20
62.96631289411599
 10
-404.2925556766695
 20
63.14252954831605
 10
-404.0136692864695
 20
63.20031642411598
  0
LINE
  5
5010
330
A
100
AcDbEntity
  8
0
100
AcDbLine
 10
-352.2217689638695
 20
87.36008701421602
 30
0.0
 11
-374.5979281516695
 21
80.90064624891605
 31
0.0
  0
LWPOLYLINE
  5
5011
330
A
100
AcDbEntity
  8
0
100
AcDbPolyline
 90
       16
 70
   128
 43
0.0
 10
-320.1944850971695
 20
87.39683070161598
 10
-319.9549520971694
 20
87.48869861301606
 10
-319.0784555374695
 20
87.89533359181601
 10
-318.3329603175695
 20
88.36274431061602
 10
-317.7351195688694
 20
88.88048958641608
 10
-317.2982880657695
 20
89.43700384521608
 10
-317.0322239022695
 20
90.01985547821599
 10
-316.9428705120696
 20
90.616024542916
 10
-317.0322239022695
 20
91.212193607616
 10
-317.2982880657695
 20
91.79504524051609
 10
-317.7351195688694
 20
92.35155949931598
 10
-318.3329603175695
 20
92.86930477511603
 10
-319.0784555374695
 20
93.33671549391605
 10
-319.9549520971694
 20
93.743350472716
 10
-320.9428705120696
 20
94.08012615801604
 10
-321.9751574937695
 20
94.33061333041601
  0
LWPOLYLINE
  5
5012
330
A
100
AcDbEntity
  8
0
100
AcDbPolyline
 90
       19
 70
   128
 43
0.0
 10
-353.7178612596696
 20
80.866024542916
 10
-353.7770338992696
 20
81.24950368011608
 10
-354.0020890873695
 20
81.69691154161606
 10
-354.3877342407695
 20
82.116024542916
 10
-354.9208366763695
 20
82.49257029341598
 10
-355.5832422301695
 20
82.813725979216
 10
-356.3523934754695
 20
83.06855502861609
 10
-357.2020978890695
 20
83.24837954391606
 10
-358.1034198063695
 20
83.34707581701608
 10
-359.0256657903695
 20
83.36128286471606
 10
-359.9374298601695
 20
83.29051688301607
 10
-360.8076629840695
 20
83.13718772241603
 10
-361.6067304166695
 20
82.90651682381602
 10
-362.3074208749695
 20
82.60635940781609
 10
-362.8858731857695
 20
82.246936975316
 10
-363.3223888493695
 20
81.84048922611603
 10
-363.6021028484695
 20
81.40085725091606
 10
-363.7154898582695
 20
80.94301218931608
 10
-363.7178612596695
 20
80.866024542916
  0
LWPOLYLINE
  5
5013
330
A
100
AcDbEntity
  8
0
100
AcDbPolyline
 90
       31
 70
   128
 43
0.0
 10
-387.4617630940695
 20
70.258973735316
 10
-386.7852406685695
 20
70.504734891916
 10
-386.2256951165695
 20
70.81545403831606
 10
-385.8075812634695
 20
71.17755125671604
 10
-385.5491726910695
 20
71.57520116121603
 10
-385.4617630940695
 20
71.991024542916
 10
-385.5491726910695
 20
72.40684792451603
 10
-385.8075812634695
 20
72.80449782901601
 10
-386.2256951165695
 20
73.166595047416
 10
-386.7852406685695
 20
73.47731419381606
 10
-387.4617630940695
 20
73.72307535041605
 10
-388.2256951165695
 20
73.89313757551602
 10
-389.0436492409695
 20
73.98006833361606
 10
-389.8798769470695
 20
73.98006833361606
 10
-390.6978310715695
 20
73.89313757551602
 10
-391.4617630940695
 20
73.72307535041605
 10
-392.1382855194695
 20
73.47731419381606
 10
-392.6978310715695
 20
73.166595047416
 10
-393.1159449245695
 20
72.80449782901601
 10
-393.3743534969695
 20
72.40684792451603
 10
-393.4617630940695
 20
71.991024542916
 10
-393.3743534969695
 20
71.57520116121603
 10
-393.1159449245695
 20
71.17755125671604
 10
-392.6978310715695
 20
70.81545403831606
 10
-392.1382855194695
 20
70.504734891916
 10
-391.4617630940695
 20
70.258973735316
 10
-390.6978310715695
 20
70.08891151031608
 10
-389.8798769470695
 20
70.001980752116
 10
-389.0436492409695
 20
70.001980752116
 10
-388.2256951165695
 20
70.08891151031608
 10
-387.4617630940695
 20
70.258973735316
  0
LWPOLYLINE
  5
5014
330
A
100
AcDbEntity
  8
0
100
AcDbPolyline
 90
       31
 70
   128
 43
0.0
 10
-321.2108197044695
 20
89.383973735316
 10
-320.5342972790695
 20
89.629734891916
 10
-319.9747517269694
 20
89.94045403831606
 10
-319.5566378739695
 20
90.30255125671604
 10
-319.2982293015694
 20
90.70020116121603
 10
-319.2108197044695
 20
91.116024542916
 10
-319.2982293015694
 20
91.53184792451603
 10
-319.5566378739695
 20
91.92949782901601
 10
-319.9747517269694
 20
92.29159504751604
 10
-320.5342972790695
 20
92.60231419381606
 10
-321.2108197044695
 20
92.84807535041605
 10
-321.9747517269694
 20
93.01813757551602
 10
-322.7927058514696
 20
93.10506833361606
 10
-323.6289335575694
 20
93.10506833361606
 10
-324.4468876819695
 20
93.01813757551602
 10
-325.2108197044695
 20
92.84807535041605
 10
-325.8873421299695
 20
92.60231419381606
 10
-326.4468876819695
 20
92.291595047416
 10
-326.8650015350695
 20
91.92949782901601
 10
-327.1234101074696
 20
91.53184792451603
 10
-327.2108197044695
 20
91.116024542916
 10
-327.1234101074696
 20
90.70020116121603
 10
-326.8650015350695
 20
90.30255125671604
 10
-326.4468876819695
 20
89.94045403831606
 10
-325.8873421299695
 20
89.629734891916
 10
-325.2108197044695
 20
89.383973735316
 10
-324.4468876819695
 20
89.21391151031608
 10
-323.6289335575694
 20
89.126980752116
 10
-322.7927058514696
 20
89.126980752116
 10
-321.9747517269694
 20
89.21391151031608
 10
-321.2108197044695
 20
89.383973735316
  0
LWPOLYLINE
  5
5015
330
A
100
AcDbEntity
  8
0
100
AcDbPolyline
 90
       31
 70
   128
 43
0.0
 10
-405.2152838715695
 20
65.133973735316
 10
-404.5387614461695
 20
65.379734891916
 10
-403.9792158940695
 20
65.69045403831606
 10
-403.5611020410695
 20
66.05255125671604
 10
-403.3026934686695
 20
66.45020116121603
 10
-403.2152838715695
 20
66.866024542916
 10
-403.3026934686695
 20
67.28184792451603
 10
-403.5611020410695
 20
67.67949782901601
 10
-403.9792158940695
 20
68.041595047416
 10
-404.5387614461695
 20
68.35231419381606
 10
-405.2152838715695
 20
68.59807535041605
 10
-405.9792158940695
 20
68.76813757551602
 10
-406.7971700185695
 20
68.85506833361606
 10
-407.6333977246695
 20
68.85506833361606
 10
-408.4513518490695
 20
68.76813757551602
 10
-409.2152838715695
 20
68.59807535041605
 10
-409.8918062970695
 20
68.35231419381606
 10
-410.4513518490695
 20
68.041595047416
 10
-410.8694657021695
 20
67.67949782901601
 10
-411.1278742745695
 20
67.28184792451603
 10
-411.2152838715695
 20
66.866024542916
 10
-411.1278742745695
 20
66.45020116121603
 10
-410.8694657021695
 20
66.05255125671604
 10
-410.4513518490695
 20
65.69045403831606
 10
-409.8918062970695
 20
65.379734891916
 10
-409.2152838715695
 20
65.133973735316
 10
-408.4513518490695
 20
64.96391151031608
 10
-407.6333977246695
 20
64.876980752116
 10
-406.7971700185695
 20
64.876980752116
 10
-405.9792158940695
 20
64.96391151031608
 10
-405.2152838715695
 20
65.133973735316
  0
ARC
  5
5016
330
A
100
AcDbEntity
  8
0
100
AcDbCircle
 10
-321.3359812172695
 20
92.67461724261605
 30
0.0
 40
2.321420469765508
100
AcDbArc
 50
290.2853791128003
 51
330.9962461303972
  0
ARC
  5
5017
330
A
100
AcDbEntity
  8
0
100
AcDbCircle
 10
-325.0856581912695
 20
92.674617243016
 30
0.0
 40
2.321420470349997
100
AcDbArc
 50
209.0037538719007
 51
249.7146209082011
  0
LWPOLYLINE
  5
5018
330
A
100
AcDbEntity
  8
0
100
AcDbPolyline
 90
       31
 70
   128
 43
0.0
 10
-362.1819628747695
 20
77.26794833151601
 10
-361.6904405615695
 20
76.92968711881602
 10
-361.0690022688696
 20
76.64991434281606
 10
-360.3448078319695
 20
76.440857416216
 10
-359.5495080229695
 20
76.31165313011607
 10
-358.7178612596695
 20
76.26794833151601
 10
-357.8862144963695
 20
76.31165313011607
 10
-357.0909146873695
 20
76.440857416216
 10
-356.3667202504695
 20
76.64991434281606
 10
-355.7452819577695
 20
76.92968711881602
 10
-355.2537596445695
 20
77.26794833151601
 10
-354.9136351944695
 20
77.64991434281606
 10
-354.7397736782694
 20
78.058891405016
 10
-354.7397736782694
 20
78.47700525801602
 10
-354.9136351944695
 20
78.885982320316
 10
-355.2537596445695
 20
79.26794833151601
 10
-355.7452819577695
 20
79.606209544216
 10
-356.3667202504695
 20
79.885982320316
 10
-357.0909146873695
 20
80.09503924681601
 10
-357.8862144963695
 20
80.224243533016
 10
-358.7178612596695
 20
80.26794833151601
 10
-359.5495080229695
 20
80.224243533016
 10
-360.3448078319695
 20
80.09503924681601
 10
-361.0690022688696
 20
79.885982320316
 10
-361.6904405615695
 20
79.606209544216
 10
-362.1819628747695
 20
79.26794833151601
 10
-362.5220873248695
 20
78.885982320316
 10
-362.6959488411695
 20
78.47700525801602
 10
-362.6959488411695
 20
78.058891405016
 10
-362.5220873248695
 20
77.64991434281606
 10
-362.1819628747695
 20
77.26794833151601
  0
LWPOLYLINE
  5
5019
330
A
100
AcDbEntity
  8
0
100
AcDbPolyline
 90
       22
 70
   128
 43
0.0
 10
-353.9307257208695
 20
79.278311302616
 10
-353.8336196708696
 20
79.46516643111605
 10
-353.7202326610695
 20
79.92301149271603
 10
-353.7770338992696
 20
80.38347827631608
 10
-354.0020890873695
 20
80.83088613781607
 10
-354.3877342407695
 20
81.249999139116
 10
-354.9208366763695
 20
81.62654488961599
 10
-355.5832422301695
 20
81.94770057541601
 10
-356.3523934754695
 20
82.20252962481598
 10
-357.2020978890695
 20
82.38235414011606
 10
-358.1034198063695
 20
82.48105041331601
 10
-359.0256657903695
 20
82.49525746091606
 10
-359.9374298601695
 20
82.42449147921607
 10
-360.8076629840695
 20
82.27116231861604
 10
-361.6067304166695
 20
82.04049142001602
 10
-362.3074208749695
 20
81.74033400401598
 10
-362.8858731857695
 20
81.38091157151601
 10
-363.3223888493695
 20
80.97446382231604
 10
-363.6021028484695
 20
80.53483184711607
 10
-363.7154898582695
 20
80.07698678551608
 10
-363.6586886200695
 20
79.61652000191603
 10
-363.5049967984695
 20
79.278311302616
  0
ARC
  5
501A
330
A
100
AcDbEntity
  8
0
100
AcDbCircle
 10
-405.3404454700695
 20
68.42461730951598
 30
0.0
 40
2.321420577185504
100
AcDbArc
 50
290.2853752458008
 51
330.9962457123015
  0
ARC
  5
501B
330
A
100
AcDbEntity
  8
0
100
AcDbCircle
 10
-409.0901222642696
 20
68.42461731641609
 30
0.0
 40
2.32142058824558
100
AcDbArc
 50
209.0037543307005
 51
249.7146251523
  0
LINE
  5
501C
330
A
100
AcDbEntity
  8
0
100
AcDbLine
 10
-306.9516564303696
 20
130.999139596516
 30
0.0
 11
-306.9516564303696
 21
126.409204956516
 31
0.0
  0
LINE
  5
501D
330
A
100
AcDbEntity
  8
0
100
AcDbLine
 10
-306.7585150957694
 20
132.4462525719161
 30
0.0
 11
-306.6117444631694
 21
132.309699294716
 31
0.0
  0
LINE
  5
501E
330
A
100
AcDbEntity
  8
0
100
AcDbLine
 10
-319.0391003091695
 20
101.9909132097161
 30
0.0
 11
-319.0284513496696
 21
101.9939872996161
 31
0.0
  0
LINE
  5
501F
330
A
100
AcDbEntity
  8
0
100
AcDbLine
 10
-319.0284513496696
 20
101.9939872996161
 30
0.0
 11
-319.0284513496696
 21
102.108453884916
 31
0.0
  0
LINE
  5
5020
330
A
100
AcDbEntity
  8
0
100
AcDbLine
 10
-314.2784513496696
 20
97.880366631616
 30
0.0
 11
-319.0284513496696
 21
101.9939872996161
 31
0.0
  0
LINE
  5
5021
330
A
100
AcDbEntity
  8
0
100
AcDbLine
 10
-314.2903361453695
 20
97.87693578661609
 30
0.0
 11
-314.2784513496696
 21
97.880366631616
 31
0.0
  0
LINE
  5
5022
330
A
100
AcDbEntity
  8
0
100
AcDbLine
 10
-305.5403361453695
 20
90.29921350351609
 30
0.0
 11
-305.5284513496696
 21
90.302644348516
 31
0.0
  0
LINE
  5
5023
330
A
100
AcDbEntity
  8
0
100
AcDbLine
 10
-302.2784513496696
 20
87.48806178621604
 30
0.0
 11
-305.5284513496696
 21
90.302644348516
 31
0.0
  0
LINE
  5
5024
330
A
100
AcDbEntity
  8
0
100
AcDbLine
 10
-352.5365146076696
 20
72.97980861071599
 30
0.0
 11
-348.0331825079695
 21
74.27980861071606
 31
0.0
  0
LINE
  5
5025
330
A
100
AcDbEntity
  8
0
100
AcDbLine
 10
-302.2903361453695
 20
87.48463094121601
 30
0.0
 11
-302.2784513496696
 21
87.48806178621604
 31
0.0
  0
LINE
  5
5026
330
A
100
AcDbEntity
  8
0
100
AcDbLine
 10
-439.6133508305695
 20
52.92357356281607
 30
0.0
 11
-446.0633508305695
 21
58.50943741721599
 31
0.0
  0
LWPOLYLINE
  5
5027
330
A
100
AcDbEntity
  8
0
100
AcDbPolyline
 90
       16
 70
   128
 43
0.0
 10
-415.4060515365695
 20
67.35943741721601
 10
-415.4559394198695
 20
67.06229994561605
 10
-415.4279272328695
 20
66.47391836421608
 10
-415.2327293102695
 20
65.893518933916
 10
-414.8743193189695
 20
65.33291691331604
 10
-414.3599934528695
 20
64.803524542916
 10
-413.7002219032695
 20
64.31611872471606
 10
-412.9084357163695
 20
63.88062163571604
 10
-412.0007533755695
 20
63.50589874071605
 10
-410.9956526758695
 20
63.19957831721607
 10
-409.9135945689695
 20
62.96789616571598
 10
-408.7766066375695
 20
62.81556866671602
 10
-407.6078346771695
 20
62.74569676871604
 10
-406.4310715143695
 20
62.759702862316
 10
-405.2702726536695
 20
62.857301823516
 10
-405.1494721807695
 20
62.87243837071608
  0
LINE
  5
5028
330
A
100
AcDbEntity
  8
0
100
AcDbLine
 10
-367.3832920432695
 20
73.60139042431607
 30
0.0
 11
-358.0483176047695
 21
76.29616542681609
 31
0.0
  0
LINE
  5
5029
330
A
100
AcDbEntity
  8
0
100
AcDbLine
 10
-355.6374049145695
 20
76.99213597211602
 30
0.0
 11
-341.6944675009695
 21
81.01711530661603
 31
0.0
  0
LWPOLYLINE
  5
502A
330
A
100
AcDbEntity
  8
0
100
AcDbPolyline
 90
       16
 70
   128
 43
0.0
 10
-319.0586822028696
 20
87.72470875491607
 10
-318.9720646976695
 20
87.76944862051599
 10
-318.2226189076695
 20
88.22328979091608
 10
-317.6099780606695
 20
88.72584014071609
 10
-317.1466137576696
 20
89.26686919421607
 10
-316.8419587596695
 20
89.83536315991606
 10
-316.7022149638696
 20
90.41974914011601
 10
-316.7302271508695
 20
91.00813072151598
 10
-316.9254250733695
 20
91.58853015181606
 10
-317.2838350646695
 20
92.14913217251606
 10
-317.7981609308696
 20
92.678524542916
 10
-318.4579324804696
 20
93.165930361016
 10
-319.2497186673695
 20
93.60142745001602
 10
-320.1574010081696
 20
93.97615034511605
 10
-321.1625017078695
 20
94.28247076861604
 10
-321.6373420317694
 20
94.39544187451602
  0
LINE
  5
502B
330
A
100
AcDbEntity
  8
0
100
AcDbLine
 10
-352.5356440410695
 20
87.41381665131601
 30
0.0
 11
-374.5340530744695
 21
81.06342296281608
 31
0.0
  0
LINE
  5
502C
330
A
100
AcDbEntity
  8
0
100
AcDbLine
 10
-314.2784513496696
 20
98.01725142731598
 30
0.0
 11
-314.2784513496696
 21
97.880366631616
 31
0.0
  0
LINE
  5
502D
330
A
100
AcDbEntity
  8
0
100
AcDbLine
 10
-306.6204386477694
 20
135.848641384116
 30
0.0
 11
-306.7784513496696
 21
135.985484398116
 31
0.0
  0
LINE
  5
502E
330
A
100
AcDbEntity
  8
0
100
AcDbLine
 10
-306.7784513496696
 20
135.985484398116
 30
0.0
 11
-306.7784513496696
 21
137.284522503816
 31
0.0
  0
LINE
  5
502F
330
A
100
AcDbEntity
  8
0
100
AcDbLine
 10
-306.7784513496696
 20
137.284522503816
 30
0.0
 11
-306.6204386477694
 21
137.1476794898161
 31
0.0
  0
LINE
  5
5030
330
A
100
AcDbEntity
  8
0
100
AcDbLine
 10
-302.2784513496696
 20
87.62494658191602
 30
0.0
 11
-302.2784513496696
 21
87.48806178621604
 31
0.0
  0
LINE
  5
5031
330
A
100
AcDbEntity
  8
0
100
AcDbLine
 10
-305.5284513496696
 20
90.302644348516
 30
0.0
 11
-305.5284513496696
 21
90.43952914421598
 31
0.0
  0
LINE
  5
5032
330
A
100
AcDbEntity
  8
0
100
AcDbLine
 10
-307.3655778026695
 20
134.372619917316
 30
0.0
 11
-306.6204386477694
 21
134.587723063116
 31
0.0
  0
LINE
  5
5033
330
A
100
AcDbEntity
  8
0
100
AcDbLine
 10
-447.1236048683695
 20
50.75554996761608
 30
0.0
 11
-447.1236048683695
 21
50.96361441971604
 31
0.0
  0
LINE
  5
5034
330
A
100
AcDbEntity
  8
0
100
AcDbLine
 10
-308.1807885721695
 20
135.580664511616
 30
0.0
 11
-306.7784513496696
 21
135.985484398116
 31
0.0
  0
LINE
  5
5035
330
A
100
AcDbEntity
  8
0
100
AcDbLine
 10
-309.4337072379695
 20
136.518016152816
 30
0.0
 11
-306.7784513496696
 21
137.284522503816
 31
0.0
  0
LINE
  5
5036
330
A
100
AcDbEntity
  8
0
  6
Continuous
 62
     8
370
     0
100
AcDbLine
 10
-307.2016564303696
 20
126.6257113074161
 30
0.0
 11
-306.9516564303696
 21
126.409204956516
 31
0.0
  0
LINE
  5
5037
330
A
100
AcDbEntity
  8
0
  6
Continuous
 62
     8
370
     0
100
AcDbLine
 10
-306.9516564303696
 20
132.644587863716
 30
0.0
 11
-307.2016564303696
 21
132.861094214716
 31
0.0
  0
LINE
  5
5038
330
A
100
AcDbEntity
  8
0
  6
Continuous
 62
     8
370
     0
100
AcDbLine
 10
-440.7525813150695
 20
53.31639388581598
 30
0.0
 11
-441.0025813150695
 21
53.532900236816
 31
0.0
  0
LINE
  5
5039
330
A
100
AcDbEntity
  8
0
  6
Continuous
 62
     8
370
     0
100
AcDbLine
 10
-447.4977718434695
 20
51.657900236816
 30
0.0
 11
-447.2477718434695
 21
51.44139388581598
 31
0.0
  0
LINE
  5
503A
330
A
100
AcDbEntity
  8
0
  6
Continuous
 62
     8
370
     0
100
AcDbLine
 10
-307.7016564303696
 20
127.0587240093161
 30
0.0
 11
-307.2016564303696
 21
126.6257113074161
 31
0.0
  0
LINE
  5
503B
330
A
100
AcDbEntity
  8
0
  6
Continuous
 62
     8
370
     0
100
AcDbLine
 10
-307.2016564303696
 20
133.120901835816
 30
0.0
 11
-307.7016564303696
 21
133.553914537716
 31
0.0
  0
LINE
  5
503C
330
A
100
AcDbEntity
  8
0
  6
Continuous
 62
     8
370
     0
100
AcDbLine
 10
-441.0025813150695
 20
53.79270785791599
 30
0.0
 11
-441.5025813150695
 21
54.22572055981598
 31
0.0
  0
LINE
  5
503D
330
A
100
AcDbEntity
  8
0
  6
Continuous
 62
     8
370
     0
100
AcDbLine
 10
-447.9977718434695
 20
52.35072055981598
 30
0.0
 11
-447.4977718434695
 21
51.91770785791599
 31
0.0
  0
LINE
  5
503E
330
A
100
AcDbEntity
  8
0
  6
Continuous
 62
     8
370
     0
100
AcDbLine
 10
-320.0034513496695
 20
102.8383620682161
 30
0.0
 11
-461.5986048683695
 21
61.96336206821607
 31
0.0
  0
LINE
  5
503F
330
A
100
AcDbEntity
  8
0
  6
Continuous
 62
     8
370
     0
100
AcDbLine
 10
-461.2117200726696
 20
59.90998257931599
 30
0.0
 11
-318.8903361453696
 21
100.994627240216
 31
0.0
  0
LINE
  5
5040
330
A
100
AcDbEntity
  8
0
  6
Continuous
 62
     8
370
     0
100
AcDbLine
 10
-318.8903361453696
 20
100.994627240216
 30
0.0
 11
-318.8903361453696
 21
101.860652644016
 31
0.0
  0
LINE
  5
5041
330
A
100
AcDbEntity
  8
0
  6
Continuous
 62
     8
370
     0
100
AcDbLine
 10
-317.9544132439695
 20
102.2007278111161
 30
0.0
 11
-317.9544132439695
 21
148.8263046203161
 31
0.0
  0
LINE
  5
5042
330
A
100
AcDbEntity
  8
0
  6
Continuous
 62
     8
370
     0
100
AcDbLine
 10
-320.0034513496695
 20
148.737708468816
 30
0.0
 11
-320.0034513496695
 21
102.8383620682161
 31
0.0
  0
LINE
  5
5043
330
A
100
AcDbEntity
  8
0
  6
Continuous
 62
     8
370
     0
100
AcDbLine
 10
-317.9544132439695
 20
102.2007278111161
 30
0.0
 11
-318.8204386477695
 21
101.9507278111161
 31
0.0
  0
LINE
  5
5044
330
A
100
AcDbEntity
  8
0
  6
Continuous
 62
     8
370
     0
100
AcDbLine
 10
-461.5986048683695
 20
61.96336206821607
 30
0.0
 11
-461.5986048683695
 21
107.862708468816
 31
0.0
  0
LINE
  5
5045
330
A
100
AcDbEntity
  8
0
  6
Continuous
 62
     8
370
     0
100
AcDbLine
 10
-461.5986048683695
 20
107.862708468816
 30
0.0
 11
-320.0034513496695
 21
148.737708468816
 31
0.0
  0
LINE
  5
5046
330
A
100
AcDbEntity
  8
0
  6
Continuous
 62
     8
370
     0
100
AcDbLine
 10
-318.8903361453696
 20
149.492049852116
 30
0.0
 11
-318.8903361453696
 21
149.0681649485161
 31
0.0
  0
LINE
  5
5047
330
A
100
AcDbEntity
  8
0
  6
Continuous
 62
     8
370
     0
100
AcDbLine
 10
-462.1476429740695
 20
60.57572781111608
 30
0.0
 11
-461.6249366904696
 21
60.72662011791604
 31
0.0
  0
LINE
  5
5048
330
A
100
AcDbEntity
  8
0
  6
Continuous
 62
     8
370
     0
100
AcDbLine
 10
-301.6903361453695
 20
86.09899029511601
 30
0.0
 11
-444.0117200726695
 21
45.01434563421608
 31
0.0
  0
LINE
  5
5049
330
A
100
AcDbEntity
  8
0
  6
Continuous
 62
     8
370
     0
100
AcDbLine
 10
-301.6903361453695
 20
86.09899029511601
 30
0.0
 11
-301.6903361453695
 21
86.965015698916
 31
0.0
  0
LINE
  5
504A
330
A
100
AcDbEntity
  8
0
  6
Continuous
 62
     8
370
     0
100
AcDbLine
 10
-300.7544132439695
 20
133.930667675216
 30
0.0
 11
-300.7544132439695
 21
87.30509086601606
 31
0.0
  0
LINE
  5
504B
330
A
100
AcDbEntity
  8
0
  6
Continuous
 62
     8
370
     0
100
AcDbLine
 10
-300.7544132439695
 20
87.30509086601606
 30
0.0
 11
-301.6204386477694
 21
87.05509086601606
 31
0.0
  0
LINE
  5
504C
330
A
100
AcDbEntity
  8
0
  6
Continuous
 62
     8
370
     0
100
AcDbLine
 10
-301.8153361453695
 20
87.07326887441607
 30
0.0
 11
-301.8034513496694
 21
87.07669971941598
 31
0.0
  0
LINE
  5
504D
330
A
100
AcDbEntity
  8
0
  6
Continuous
 62
     8
370
     0
100
AcDbLine
 10
-301.8034513496694
 20
87.07669971941598
 30
0.0
 11
-301.8034513496694
 21
87.21358451511608
 31
0.0
  0
LINE
  5
504E
330
A
100
AcDbEntity
  8
0
  6
Continuous
 62
     8
370
     0
100
AcDbLine
 10
-444.9476429740695
 20
45.68009086601606
 30
0.0
 11
-444.8222530812695
 21
45.71628781021607
 31
0.0
  0
LINE
  5
504F
330
A
100
AcDbEntity
  8
0
  6
Continuous
 62
     8
370
     0
100
AcDbLine
 10
-401.3849681747695
 20
94.23914629321601
 30
0.0
 11
-398.7992282822695
 21
91.99982985881607
 31
0.0
  0
LINE
  5
5050
330
A
100
AcDbEntity
  8
0
  6
Continuous
 62
     8
370
     0
100
AcDbLine
 10
-306.6204386477694
 20
126.1223619425161
 30
0.0
 11
-306.9516564303696
 21
126.409204956516
 31
0.0
  0
LINE
  5
5051
330
A
100
AcDbEntity
  8
0
  6
Continuous
 62
     8
370
     0
100
AcDbLine
 10
-306.6204386477694
 20
130.712296582616
 30
0.0
 11
-306.9516564303696
 21
130.999139596516
 31
0.0
  0
LINE
  5
5052
330
A
100
AcDbEntity
  8
0
  6
Continuous
 62
     8
370
     0
100
AcDbLine
 10
-440.0525813150695
 20
52.79677864361602
 30
0.0
 11
-440.6802050652695
 21
53.34031675521604
 31
0.0
  0
LINE
  5
5053
330
A
100
AcDbEntity
  8
0
  6
Continuous
 62
     8
370
     0
100
AcDbLine
 10
-446.5477718434695
 20
50.92177864361602
 30
0.0
 11
-447.1727718434695
 21
51.46304452091604
 31
0.0
  0
LINE
  5
5054
330
A
100
AcDbEntity
  8
0
100
AcDbLine
 10
-596.3577683199994
 20
51.32414117216456
 30
0.0
 11
-596.3577683199994
 21
50.96836442116455
 31
0.0
  0
LINE
  5
5055
330
A
100
AcDbEntity
  8
0
100
AcDbLine
 10
-591.3577683199994
 20
51.4723660224646
 30
0.0
 11
-591.3577683199994
 21
51.72001921246454
 31
0.0
  0
LINE
  5
5056
330
A
100
AcDbEntity
  8
0
100
AcDbLine
 10
-553.6077683199994
 20
66.97001921246454
 30
0.0
 11
-554.3577683199994
 21
68.47001921246454
 31
0.0
  0
LINE
  5
5057
330
A
100
AcDbEntity
  8
0
100
AcDbLine
 10
-562.3577683199994
 20
68.47001921246454
 30
0.0
 11
-563.1077683199994
 21
66.97001921246454
 31
0.0
  0
LINE
  5
5058
330
A
100
AcDbEntity
  8
0
100
AcDbLine
 10
-666.3577683199994
 20
12.47001921246454
 30
0.0
 11
-666.7770576418993
 21
11.97001921246454
 31
0.0
  0
LINE
  5
5059
330
A
100
AcDbEntity
  8
0
100
AcDbLine
 10
-666.3577683199994
 20
12.47001921246454
 30
0.0
 11
-666.7770576418993
 21
10.97001921246454
 31
0.0
  0
LINE
  5
505A
330
A
100
AcDbEntity
  8
0
100
AcDbLine
 10
-666.7770576418993
 20
10.97001921246454
 30
0.0
 11
-666.7770576418993
 21
11.97001921246454
 31
0.0
  0
LINE
  5
505B
330
A
100
AcDbEntity
  8
0
100
AcDbLine
 10
-502.8577683199994
 20
12.47001921246454
 30
0.0
 11
-502.4384789980994
 21
10.97001921246454
 31
0.0
  0
LINE
  5
505C
330
A
100
AcDbEntity
  8
0
100
AcDbLine
 10
-666.7770576418993
 20
10.97001921246454
 30
0.0
 11
-502.4384789980994
 21
10.97001921246454
 31
0.0
  0
LINE
  5
505D
330
A
100
AcDbEntity
  8
0
100
AcDbLine
 10
-667.8577683199994
 20
65.88930853436455
 30
0.0
 11
-667.8577683199994
 21
12.05072989056453
 31
0.0
  0
LINE
  5
505E
330
A
100
AcDbEntity
  8
0
100
AcDbLine
 10
-667.8577683199994
 20
65.88930853436455
 30
0.0
 11
-666.3577683199994
 21
65.47001921246454
 31
0.0
  0
LINE
  5
505F
330
A
100
AcDbEntity
  8
0
100
AcDbLine
 10
-667.8577683199994
 20
12.05072989056453
 30
0.0
 11
-666.3577683199994
 21
12.47001921246454
 31
0.0
  0
LINE
  5
5060
330
A
100
AcDbEntity
  8
0
100
AcDbLine
 10
-666.8577683199994
 20
12.05072989056453
 30
0.0
 11
-666.3577683199994
 21
12.47001921246454
 31
0.0
  0
LINE
  5
5061
330
A
100
AcDbEntity
  8
0
100
AcDbLine
 10
-667.8577683199994
 20
12.05072989056453
 30
0.0
 11
-666.8577683199994
 21
12.05072989056453
 31
0.0
  0
ARC
  5
5062
330
A
100
AcDbEntity
  8
0
100
AcDbCircle
 10
-594.3577683199994
 20
46.47001921246454
 30
0.0
 40
5.25
100
AcDbArc
 50
90.0
 51
270.0
  0
LINE
  5
5063
330
A
100
AcDbEntity
  8
0
100
AcDbLine
 10
-594.3577683199994
 20
41.22001921246454
 30
0.0
 11
-581.8577683199994
 21
41.22001921246454
 31
0.0
  0
ARC
  5
5064
330
A
100
AcDbEntity
  8
0
100
AcDbCircle
 10
-574.8577683199994
 20
46.47001921246454
 30
0.0
 40
8.750000000000005
100
AcDbArc
 50
216.8698976457993
 51
143.1301023541996
  0
LINE
  5
5065
330
A
100
AcDbEntity
  8
0
100
AcDbLine
 10
-581.8577683199994
 20
51.72001921246454
 30
0.0
 11
-594.3577683199994
 21
51.72001921246454
 31
0.0
  0
LINE
  5
5066
330
A
100
AcDbEntity
  8
0
100
AcDbLine
 10
-501.3577683199994
 20
12.05072989056453
 30
0.0
 11
-502.8577683199994
 21
12.47001921246454
 31
0.0
  0
LINE
  5
5067
330
A
100
AcDbEntity
  8
0
100
AcDbLine
 10
-502.8577683199994
 20
65.47001921246454
 30
0.0
 11
-501.3577683199994
 21
65.88930853436455
 31
0.0
  0
LINE
  5
5068
330
A
100
AcDbEntity
  8
0
100
AcDbLine
 10
-501.3577683199994
 20
12.05072989056453
 30
0.0
 11
-501.3577683199994
 21
65.88930853436455
 31
0.0
  0
LINE
  5
5069
330
A
100
AcDbEntity
  8
0
100
AcDbLine
 10
-502.8577683199994
 20
12.47001921246454
 30
0.0
 11
-502.4384789980994
 21
11.97001921246454
 31
0.0
  0
LINE
  5
506A
330
A
100
AcDbEntity
  8
0
100
AcDbLine
 10
-502.4384789980994
 20
10.97001921246454
 30
0.0
 11
-502.4384789980994
 21
11.97001921246454
 31
0.0
  0
LINE
  5
506B
330
A
100
AcDbEntity
  8
0
100
AcDbLine
 10
-502.3577683199994
 20
12.05072989056453
 30
0.0
 11
-502.8577683199994
 21
12.47001921246454
 31
0.0
  0
LINE
  5
506C
330
A
100
AcDbEntity
  8
0
100
AcDbLine
 10
-501.3577683199994
 20
12.05072989056453
 30
0.0
 11
-502.3577683199994
 21
12.05072989056453
 31
0.0
  0
LINE
  5
506D
330
A
100
AcDbEntity
  8
0
100
AcDbLine
 10
-666.3577683199994
 20
65.47001921246454
 30
0.0
 11
-666.7770576418993
 21
65.97001921246454
 31
0.0
  0
LINE
  5
506E
330
A
100
AcDbEntity
  8
0
100
AcDbLine
 10
-666.7770576418993
 20
66.97001921246454
 30
0.0
 11
-666.7770576418993
 21
65.97001921246454
 31
0.0
  0
LINE
  5
506F
330
A
100
AcDbEntity
  8
0
100
AcDbLine
 10
-666.3577683199994
 20
65.47001921246454
 30
0.0
 11
-666.7770576418993
 21
66.97001921246454
 31
0.0
  0
LINE
  5
5070
330
A
100
AcDbEntity
  8
0
100
AcDbLine
 10
-502.4384789980994
 20
66.97001921246454
 30
0.0
 11
-502.8577683199994
 21
65.47001921246454
 31
0.0
  0
LINE
  5
5071
330
A
100
AcDbEntity
  8
0
100
AcDbLine
 10
-502.4384789980994
 20
66.97001921246454
 30
0.0
 11
-666.7770576418993
 21
66.97001921246454
 31
0.0
  0
LINE
  5
5072
330
A
100
AcDbEntity
  8
0
100
AcDbLine
 10
-666.8577683199994
 20
65.88930853436455
 30
0.0
 11
-666.3577683199994
 21
65.47001921246454
 31
0.0
  0
LINE
  5
5073
330
A
100
AcDbEntity
  8
0
100
AcDbLine
 10
-667.8577683199994
 20
65.88930853436455
 30
0.0
 11
-666.8577683199994
 21
65.88930853436455
 31
0.0
  0
LINE
  5
5074
330
A
100
AcDbEntity
  8
0
100
AcDbLine
 10
-502.8577683199994
 20
65.47001921246454
 30
0.0
 11
-502.3577683199994
 21
65.88930853436455
 31
0.0
  0
LINE
  5
5075
330
A
100
AcDbEntity
  8
0
100
AcDbLine
 10
-501.3577683199994
 20
65.88930853436455
 30
0.0
 11
-502.3577683199994
 21
65.88930853436455
 31
0.0
  0
LINE
  5
5076
330
A
100
AcDbEntity
  8
0
100
AcDbLine
 10
-502.4384789980994
 20
65.97001921246454
 30
0.0
 11
-502.8577683199994
 21
65.47001921246454
 31
0.0
  0
LINE
  5
5077
330
A
100
AcDbEntity
  8
0
100
AcDbLine
 10
-502.4384789980994
 20
66.97001921246454
 30
0.0
 11
-502.4384789980994
 21
65.97001921246454
 31
0.0
  0
ARC
  5
5078
330
A
100
AcDbEntity
  8
0
100
AcDbCircle
 10
-574.8577683199994
 20
46.4723660224646
 30
0.0
 40
8.500000000000034
100
AcDbArc
 50
216.0318790725
 51
143.9681209275
  0
LINE
  5
5079
330
A
100
AcDbEntity
  8
0
100
AcDbLine
 10
-599.2077683199993
 20
45.04169256486455
 30
0.0
 11
-599.2077683199993
 21
47.90303948006454
 31
0.0
  0
CIRCLE
  5
507A
330
A
100
AcDbEntity
  8
0
100
AcDbCircle
 10
-574.8577683199994
 20
46.4723660224646
 30
0.0
 40
7.250000000000057
  0
LINE
  5
507B
330
A
100
AcDbEntity
  8
0
100
AcDbLine
 10
-581.7316318623994
 20
51.4723660224646
 30
0.0
 11
-594.0577683199994
 21
51.4723660224646
 31
0.0
  0
ARC
  5
507C
330
A
100
AcDbEntity
  8
0
100
AcDbCircle
 10
-594.0577683199994
 20
45.9723660224646
 30
0.0
 40
5.500000000000172
100
AcDbArc
 50
90.0
 51
159.4495784490998
  0
LINE
  5
507D
330
A
100
AcDbEntity
  8
0
100
AcDbLine
 10
-594.0577683199994
 20
41.4723660224646
 30
0.0
 11
-581.7316318623994
 21
41.4723660224646
 31
0.0
  0
ARC
  5
507E
330
A
100
AcDbEntity
  8
0
100
AcDbCircle
 10
-594.0577683199994
 20
46.9723660224646
 30
0.0
 40
5.500000000000132
100
AcDbArc
 50
200.5504215509001
 51
270.0
  0
ARC
  5
507F
330
A
100
AcDbEntity
  8
0
100
AcDbCircle
 10
-574.8577683199994
 20
46.4723660224646
 30
0.0
 40
6.500000000000008
100
AcDbArc
 50
168.0128502362005
 51
191.9871497638007
  0
LINE
  5
5080
330
A
100
AcDbEntity
  8
0
100
AcDbLine
 10
-579.0517981706994
 20
45.66639587326461
 30
0.0
 11
-577.8577683199994
 21
46.4723660224646
 31
0.0
  0
LINE
  5
5081
330
A
100
AcDbEntity
  8
0
100
AcDbLine
 10
-577.8577683199994
 20
46.4723660224646
 30
0.0
 11
-576.5811725752994
 21
45.61066389486462
 31
0.0
  0
LINE
  5
5082
330
A
100
AcDbEntity
  8
0
100
AcDbLine
 10
-573.1343640646994
 20
45.89789793736463
 30
0.0
 11
-571.8577683199994
 21
46.4723660224646
 31
0.0
  0
LINE
  5
5083
330
A
100
AcDbEntity
  8
0
100
AcDbLine
 10
-573.1343640646994
 20
47.04683410756456
 30
0.0
 11
-574.8577683199994
 21
46.4723660224646
 31
0.0
  0
LINE
  5
5084
330
A
100
AcDbEntity
  8
0
100
AcDbLine
 10
-574.8577683199994
 20
46.4723660224646
 30
0.0
 11
-576.5811725752994
 21
47.33406815016463
 31
0.0
  0
LINE
  5
5085
330
A
100
AcDbEntity
  8
0
100
AcDbLine
 10
-579.0517981706994
 20
47.27833617176464
 30
0.0
 11
-579.8577683199994
 21
46.4723660224646
 31
0.0
  0
LINE
  5
5086
330
A
100
AcDbEntity
  8
0
100
AcDbLine
 10
-580.8577683199994
 20
46.4723660224646
 30
0.0
 11
-580.8577683199994
 21
47.82236602246462
 31
0.0
  0
LINE
  5
5087
330
A
100
AcDbEntity
  8
0
100
AcDbLine
 10
-574.8577683199994
 20
47.82236602246462
 30
0.0
 11
-571.8577683199994
 21
46.4723660224646
 31
0.0
  0
LINE
  5
5088
330
A
100
AcDbEntity
  8
0
100
AcDbLine
 10
-575.8577683199994
 20
47.82236602246462
 30
0.0
 11
-574.8577683199994
 21
47.82236602246462
 31
0.0
  0
ARC
  5
5089
330
A
100
AcDbEntity
  8
0
100
AcDbCircle
 10
-574.8577683199994
 20
46.4723660224646
 30
0.0
 40
7.000000000000008
100
AcDbArc
 50
191.1195709533999
 51
168.8804290465006
  0
LINE
  5
508A
330
A
100
AcDbEntity
  8
0
100
AcDbLine
 10
-576.8577683199994
 20
45.4723660224646
 30
0.0
 11
-578.8577683199994
 21
45.4723660224646
 31
0.0
  0
LINE
  5
508B
330
A
100
AcDbEntity
  8
0
100
AcDbLine
 10
-574.8577683199994
 20
46.4723660224646
 30
0.0
 11
-576.8577683199994
 21
45.4723660224646
 31
0.0
  0
LINE
  5
508C
330
A
100
AcDbEntity
  8
0
100
AcDbLine
 10
-571.8577683199994
 20
45.4723660224646
 30
0.0
 11
-574.8577683199994
 21
46.4723660224646
 31
0.0
  0
LINE
  5
508D
330
A
100
AcDbEntity
  8
0
100
AcDbLine
 10
-571.8577683199994
 20
46.4723660224646
 30
0.0
 11
-571.8577683199994
 21
45.4723660224646
 31
0.0
  0
LINE
  5
508E
330
A
100
AcDbEntity
  8
0
100
AcDbLine
 10
-581.7263562388994
 20
47.82236602246462
 30
0.0
 11
-579.8577683199994
 21
47.82236602246462
 31
0.0
  0
LINE
  5
508F
330
A
100
AcDbEntity
  8
0
100
AcDbLine
 10
-579.8577683199994
 20
46.4723660224646
 30
0.0
 11
-580.8577683199994
 21
46.4723660224646
 31
0.0
  0
LINE
  5
5090
330
A
100
AcDbEntity
  8
0
100
AcDbLine
 10
-578.8577683199994
 20
45.4723660224646
 30
0.0
 11
-579.8577683199994
 21
46.4723660224646
 31
0.0
  0
LINE
  5
5091
330
A
100
AcDbEntity
  8
0
100
AcDbLine
 10
-577.8577683199994
 20
46.4723660224646
 30
0.0
 11
-575.8577683199994
 21
47.82236602246462
 31
0.0
  0
LINE
  5
5092
330
A
100
AcDbEntity
  8
0
100
AcDbLine
 10
-579.8577683199994
 20
47.82236602246462
 30
0.0
 11
-577.8577683199994
 21
46.4723660224646
 31
0.0
  0
LINE
  5
5093
330
A
100
AcDbEntity
  8
0
100
AcDbLine
 10
-580.8577683199994
 20
45.12236602246458
 30
0.0
 11
-581.7263562388994
 21
45.12236602246458
 31
0.0
  0
LINE
  5
5094
330
A
100
AcDbEntity
  8
0
100
AcDbLine
 10
-580.8577683199994
 20
46.4723660224646
 30
0.0
 11
-580.8577683199994
 21
45.12236602246458
 31
0.0
  0
ARC
  5
5095
330
A
100
AcDbEntity
  8
0
100
AcDbCircle
 10
-594.3577683199994
 20
46.87001921246463
 30
0.0
 40
5.100000000000016
100
AcDbArc
 50
160.0439628520995
 51
198.0141090614
  0
ARC
  5
5096
330
A
100
AcDbEntity
  8
0
100
AcDbCircle
 10
-574.8577683199994
 20
46.87001921246463
 30
0.0
 40
8.600000000000017
100
AcDbArc
 50
344.1492328211
 51
20.79433518660003
  0
LINE
  5
5097
330
A
100
AcDbEntity
  8
0
100
AcDbLine
 10
-562.3577683199994
 20
68.47001921246454
 30
0.0
 11
-554.3577683199994
 21
68.47001921246454
 31
0.0
  0
LINE
  5
5098
330
A
100
AcDbEntity
  8
0
  6
Continuous
 62
     8
370
     0
100
AcDbLine
 10
-502.8577683199994
 20
12.47001921246454
 30
0.0
 11
-666.3577683199994
 21
12.47001921246454
 31
0.0
  0
LINE
  5
5099
330
A
100
AcDbEntity
  8
0
  6
Continuous
 62
     8
370
     0
100
AcDbLine
 10
-666.3577683199994
 20
12.47001921246454
 30
0.0
 11
-666.3577683199994
 21
65.47001921246454
 31
0.0
  0
LINE
  5
509A
330
A
100
AcDbEntity
  8
0
  6
Continuous
 62
     8
370
     0
100
AcDbLine
 10
-666.3577683199994
 20
65.47001921246454
 30
0.0
 11
-502.8577683199994
 21
65.47001921246454
 31
0.0
  0
LINE
  5
509B
330
A
100
AcDbEntity
  8
0
  6
Continuous
 62
     8
370
     0
100
AcDbLine
 10
-502.8577683199994
 20
65.47001921246454
 30
0.0
 11
-502.8577683199994
 21
12.47001921246454
 31
0.0
  0
LINE
  5
509C
330
A
100
AcDbEntity
  8
0
100
AcDbLine
 10
-720.0733352608298
 20
-47.79048025499827
 30
0.0
 11
-720.0733352608298
 21
-38.79048025499827
 31
0.0
  0
LINE
  5
509D
330
A
100
AcDbEntity
  8
0
100
AcDbLine
 10
-725.0733352608298
 20
-47.79048025499827
 30
0.0
 11
-725.0733352608298
 21
-50.29048025499827
 31
0.0
  0
LINE
  5
509E
330
A
100
AcDbEntity
  8
0
100
AcDbLine
 10
-722.0733352608298
 20
-50.29048025499827
 30
0.0
 11
-722.0733352608298
 21
-47.79048025499827
 31
0.0
  0
LINE
  5
509F
330
A
100
AcDbEntity
  8
0
100
AcDbLine
 10
-756.0756820708298
 20
-20.54048025499827
 30
0.0
 11
-756.0756820708298
 21
-25.34048025499834
 31
0.0
  0
LINE
  5
50A0
330
A
100
AcDbEntity
  8
0
100
AcDbLine
 10
-739.0756820708298
 20
-25.34048025499834
 30
0.0
 11
-739.0756820708298
 21
-20.54048025499827
 31
0.0
  0
LINE
  5
50A1
330
A
100
AcDbEntity
  8
0
100
AcDbLine
 10
-756.0756820708298
 20
-62.74048025499832
 30
0.0
 11
-756.0756820708298
 21
-67.54048025499827
 31
0.0
  0
LINE
  5
50A2
330
A
100
AcDbEntity
  8
0
100
AcDbLine
 10
-739.0756820708298
 20
-67.54048025499827
 30
0.0
 11
-739.0756820708298
 21
-62.74048025499832
 31
0.0
  0
LINE
  5
50A3
330
A
100
AcDbEntity
  8
0
100
AcDbLine
 10
-767.5733352608298
 20
-49.04048025499827
 30
0.0
 11
-766.5733352608298
 21
-49.04048025499827
 31
0.0
  0
LINE
  5
50A4
330
A
100
AcDbEntity
  8
0
100
AcDbLine
 10
-766.5733352608298
 20
-39.04048025499827
 30
0.0
 11
-767.5733352608298
 21
-39.04048025499827
 31
0.0
  0
LINE
  5
50A5
330
A
100
AcDbEntity
  8
0
100
AcDbLine
 10
-767.5733352608298
 20
-39.04048025499827
 30
0.0
 11
-769.5733352608298
 21
-40.04048025499827
 31
0.0
  0
LINE
  5
50A6
330
A
100
AcDbEntity
  8
0
100
AcDbLine
 10
-769.5733352608298
 20
-48.04048025499827
 30
0.0
 11
-767.5733352608298
 21
-49.04048025499827
 31
0.0
  0
LINE
  5
50A7
330
A
100
AcDbEntity
  8
0
100
AcDbLine
 10
-766.5733352608298
 20
-51.24048025499832
 30
0.0
 11
-766.5733352608298
 21
-36.84048025499834
 31
0.0
  0
LINE
  5
50A8
330
A
100
AcDbEntity
  8
0
100
AcDbLine
 10
-727.5733352608298
 20
-36.84048025499834
 30
0.0
 11
-727.5733352608298
 21
-37.79048025499827
 31
0.0
  0
LINE
  5
50A9
330
A
100
AcDbEntity
  8
0
100
AcDbLine
 10
-727.5733352608298
 20
-38.79048025499827
 30
0.0
 11
-727.5733352608298
 21
-51.24048025499832
 31
0.0
  0
LINE
  5
50AA
330
A
100
AcDbEntity
  8
0
100
AcDbLine
 10
-713.5733352608298
 20
-38.79048025499827
 30
0.0
 11
-713.5733352608298
 21
-37.79048025499827
 31
0.0
  0
LINE
  5
50AB
330
A
100
AcDbEntity
  8
0
100
AcDbLine
 10
-713.5733352608298
 20
-37.79048025499827
 30
0.0
 11
-717.0733352608298
 21
-37.79048025499827
 31
0.0
  0
LINE
  5
50AC
330
A
100
AcDbEntity
  8
0
100
AcDbLine
 10
-713.5733352608298
 20
-38.79048025499827
 30
0.0
 11
-717.0733352608298
 21
-38.79048025499827
 31
0.0
  0
LINE
  5
50AD
330
A
100
AcDbEntity
  8
0
100
AcDbLine
 10
-717.0733352608298
 20
-37.79048025499827
 30
0.0
 11
-717.8679984619298
 21
-37.79048025499827
 31
0.0
  0
LINE
  5
50AE
330
A
100
AcDbEntity
  8
0
100
AcDbLine
 10
-726.3855851608298
 20
-37.79048025499827
 30
0.0
 11
-765.5733352608298
 21
-37.79048025499827
 31
0.0
  0
LINE
  5
50AF
330
A
100
AcDbEntity
  8
0
100
AcDbLine
 10
-765.5733352608298
 20
-38.79048025499827
 30
0.0
 11
-765.5733352608298
 21
-37.79048025499827
 31
0.0
  0
LINE
  5
50B0
330
A
100
AcDbEntity
  8
0
100
AcDbLine
 10
-717.0733352608298
 20
-38.79048025499827
 30
0.0
 11
-765.5733352608298
 21
-38.79048025499827
 31
0.0
  0
LINE
  5
50B1
330
A
100
AcDbEntity
  8
0
100
AcDbLine
 10
-727.3233352608298
 20
-47.79048025499827
 30
0.0
 11
-727.5733352608298
 21
-47.79048025499827
 31
0.0
  0
LINE
  5
50B2
330
A
100
AcDbEntity
  8
0
100
AcDbLine
 10
-726.0733352608298
 20
-38.79048025499827
 30
0.0
 11
-726.0733352608298
 21
-47.79048025499827
 31
0.0
  0
LINE
  5
50B3
330
A
100
AcDbEntity
  8
0
100
AcDbLine
 10
-726.0733352608298
 20
-47.79048025499827
 30
0.0
 11
-727.3233352608298
 21
-47.79048025499827
 31
0.0
  0
LINE
  5
50B4
330
A
100
AcDbEntity
  8
0
100
AcDbLine
 10
-720.0733352608298
 20
-47.79048025499827
 30
0.0
 11
-726.0733352608298
 21
-47.79048025499827
 31
0.0
  0
LINE
  5
50B5
330
A
100
AcDbEntity
  8
0
100
AcDbLine
 10
-718.5733352608298
 20
-50.29048025499827
 30
0.0
 11
-726.0733352608298
 21
-50.29048025499827
 31
0.0
  0
LINE
  5
50B6
330
A
100
AcDbEntity
  8
0
100
AcDbLine
 10
-713.5733352608298
 20
-51.24048025499832
 30
0.0
 11
-713.5733352608298
 21
-50.29048025499827
 31
0.0
  0
LINE
  5
50B7
330
A
100
AcDbEntity
  8
0
100
AcDbLine
 10
-713.5733352608298
 20
-50.29048025499827
 30
0.0
 11
-718.5733352608298
 21
-50.29048025499827
 31
0.0
  0
LINE
  5
50B8
330
A
100
AcDbEntity
  8
0
100
AcDbLine
 10
-727.0733352608298
 20
-51.24048025499832
 30
0.0
 11
-727.0733352608298
 21
-50.29048025499827
 31
0.0
  0
LINE
  5
50B9
330
A
100
AcDbEntity
  8
0
100
AcDbLine
 10
-727.0733352608298
 20
-50.29048025499827
 30
0.0
 11
-726.0733352608298
 21
-50.29048025499827
 31
0.0
  0
LINE
  5
50BA
330
A
100
AcDbEntity
  8
0
100
AcDbLine
 10
-718.5733352608298
 20
-37.79048025499827
 30
0.0
 11
-726.0733352608298
 21
-37.79048025499827
 31
0.0
  0
LINE
  5
50BB
330
A
100
AcDbEntity
  8
0
100
AcDbLine
 10
-713.5733352608298
 20
-37.79048025499827
 30
0.0
 11
-713.5733352608298
 21
-36.84048025499834
 31
0.0
  0
LINE
  5
50BC
330
A
100
AcDbEntity
  8
0
100
AcDbLine
 10
-717.8679984619298
 20
-37.79048025499827
 30
0.0
 11
-718.5733352608298
 21
-37.79048025499827
 31
0.0
  0
LINE
  5
50BD
330
A
100
AcDbEntity
  8
0
100
AcDbLine
 10
-727.0733352608298
 20
-37.79048025499827
 30
0.0
 11
-727.0733352608298
 21
-36.84048025499834
 31
0.0
  0
LINE
  5
50BE
330
A
100
AcDbEntity
  8
0
100
AcDbLine
 10
-726.0733352608298
 20
-37.79048025499827
 30
0.0
 11
-726.3855851608298
 21
-37.79048025499827
 31
0.0
  0
LINE
  5
50BF
330
A
100
AcDbEntity
  8
0
100
AcDbLine
 10
-721.4488213536298
 20
-30.60095698329832
 30
0.0
 11
-720.9587039241297
 21
-31.32891181619829
 31
0.0
  0
LINE
  5
50C0
330
A
100
AcDbEntity
  8
0
100
AcDbLine
 10
-720.9587039241297
 20
-31.32891181619829
 30
0.0
 11
-720.0832178314298
 21
-31.26843508779831
 31
0.0
  0
LINE
  5
50C1
330
A
100
AcDbEntity
  8
0
100
AcDbLine
 10
-720.0832178314298
 20
-31.26843508779831
 30
0.0
 11
-719.6978491681298
 21
-30.4800035265983
 31
0.0
  0
LINE
  5
50C2
330
A
100
AcDbEntity
  8
0
100
AcDbLine
 10
-719.6978491681298
 20
-30.4800035265983
 30
0.0
 11
-720.1879665975298
 21
-29.75204869379837
 31
0.0
  0
LINE
  5
50C3
330
A
100
AcDbEntity
  8
0
100
AcDbLine
 10
-720.1879665975298
 20
-29.75204869379837
 30
0.0
 11
-721.0634526903298
 21
-29.81252542219835
 31
0.0
  0
LINE
  5
50C4
330
A
100
AcDbEntity
  8
0
100
AcDbLine
 10
-721.0634526903298
 20
-29.81252542219835
 30
0.0
 11
-721.4488213536298
 21
-30.60095698329832
 31
0.0
  0
CIRCLE
  5
50C5
330
A
100
AcDbEntity
  8
0
100
AcDbCircle
 10
-720.5733352608298
 20
-30.54048025499827
 30
0.0
 40
1.400000000000004
  0
CIRCLE
  5
50C6
330
A
100
AcDbEntity
  8
0
100
AcDbCircle
 10
-720.5733352608298
 20
-30.54048025499827
 30
0.0
 40
1.700000000000017
  0
LINE
  5
50C7
330
A
100
AcDbEntity
  8
0
100
AcDbLine
 10
-721.4488213536298
 20
-57.60095698329832
 30
0.0
 11
-720.9587039241297
 21
-58.32891181619829
 31
0.0
  0
LINE
  5
50C8
330
A
100
AcDbEntity
  8
0
100
AcDbLine
 10
-720.9587039241297
 20
-58.32891181619829
 30
0.0
 11
-720.0832178314298
 21
-58.26843508779831
 31
0.0
  0
LINE
  5
50C9
330
A
100
AcDbEntity
  8
0
100
AcDbLine
 10
-720.0832178314298
 20
-58.26843508779831
 30
0.0
 11
-719.6978491681298
 21
-57.4800035265983
 31
0.0
  0
LINE
  5
50CA
330
A
100
AcDbEntity
  8
0
100
AcDbLine
 10
-719.6978491681298
 20
-57.4800035265983
 30
0.0
 11
-720.1879665975298
 21
-56.75204869379837
 31
0.0
  0
LINE
  5
50CB
330
A
100
AcDbEntity
  8
0
100
AcDbLine
 10
-720.1879665975298
 20
-56.75204869379837
 30
0.0
 11
-721.0634526903298
 21
-56.81252542219835
 31
0.0
  0
LINE
  5
50CC
330
A
100
AcDbEntity
  8
0
100
AcDbLine
 10
-721.0634526903298
 20
-56.81252542219835
 30
0.0
 11
-721.4488213536298
 21
-57.60095698329832
 31
0.0
  0
CIRCLE
  5
50CD
330
A
100
AcDbEntity
  8
0
100
AcDbCircle
 10
-720.5733352608298
 20
-57.54048025499827
 30
0.0
 40
1.400000000000004
  0
CIRCLE
  5
50CE
330
A
100
AcDbEntity
  8
0
100
AcDbCircle
 10
-720.5733352608298
 20
-57.54048025499827
 30
0.0
 40
1.700000000000049
  0
CIRCLE
  5
50CF
330
A
100
AcDbEntity
  8
0
100
AcDbCircle
 10
-755.5733352608298
 20
-57.54048025499827
 30
0.0
 40
1.39999999999998
  0
LINE
  5
50D0
330
A
100
AcDbEntity
  8
0
100
AcDbLine
 10
-756.4488213536298
 20
-57.60095698329832
 30
0.0
 11
-755.9587039241297
 21
-58.32891181619829
 31
0.0
  0
LINE
  5
50D1
330
A
100
AcDbEntity
  8
0
100
AcDbLine
 10
-755.9587039241297
 20
-58.32891181619829
 30
0.0
 11
-755.0832178314298
 21
-58.26843508779831
 31
0.0
  0
LINE
  5
50D2
330
A
100
AcDbEntity
  8
0
100
AcDbLine
 10
-755.0832178314298
 20
-58.26843508779831
 30
0.0
 11
-754.6978491681298
 21
-57.4800035265983
 31
0.0
  0
LINE
  5
50D3
330
A
100
AcDbEntity
  8
0
100
AcDbLine
 10
-754.6978491681298
 20
-57.4800035265983
 30
0.0
 11
-755.1879665975298
 21
-56.75204869379837
 31
0.0
  0
LINE
  5
50D4
330
A
100
AcDbEntity
  8
0
100
AcDbLine
 10
-755.1879665975298
 20
-56.75204869379837
 30
0.0
 11
-756.0634526903298
 21
-56.81252542219835
 31
0.0
  0
LINE
  5
50D5
330
A
100
AcDbEntity
  8
0
100
AcDbLine
 10
-756.0634526903298
 20
-56.81252542219835
 30
0.0
 11
-756.4488213536298
 21
-57.60095698329832
 31
0.0
  0
CIRCLE
  5
50D6
330
A
100
AcDbEntity
  8
0
100
AcDbCircle
 10
-755.5733352608298
 20
-57.54048025499827
 30
0.0
 40
1.700000000000096
  0
CIRCLE
  5
50D7
330
A
100
AcDbEntity
  8
0
100
AcDbCircle
 10
-755.5733352608298
 20
-30.54048025499827
 30
0.0
 40
1.39999999999998
  0
LINE
  5
50D8
330
A
100
AcDbEntity
  8
0
100
AcDbLine
 10
-756.4488213536298
 20
-30.60095698329832
 30
0.0
 11
-755.9587039241297
 21
-31.32891181619829
 31
0.0
  0
LINE
  5
50D9
330
A
100
AcDbEntity
  8
0
100
AcDbLine
 10
-755.9587039241297
 20
-31.32891181619829
 30
0.0
 11
-755.0832178314298
 21
-31.26843508779831
 31
0.0
  0
LINE
  5
50DA
330
A
100
AcDbEntity
  8
0
100
AcDbLine
 10
-755.0832178314298
 20
-31.26843508779831
 30
0.0
 11
-754.6978491681298
 21
-30.4800035265983
 31
0.0
  0
LINE
  5
50DB
330
A
100
AcDbEntity
  8
0
100
AcDbLine
 10
-754.6978491681298
 20
-30.4800035265983
 30
0.0
 11
-755.1879665975298
 21
-29.75204869379837
 31
0.0
  0
LINE
  5
50DC
330
A
100
AcDbEntity
  8
0
100
AcDbLine
 10
-755.1879665975298
 20
-29.75204869379837
 30
0.0
 11
-756.0634526903298
 21
-29.81252542219835
 31
0.0
  0
LINE
  5
50DD
330
A
100
AcDbEntity
  8
0
100
AcDbLine
 10
-756.0634526903298
 20
-29.81252542219835
 30
0.0
 11
-756.4488213536298
 21
-30.60095698329832
 31
0.0
  0
CIRCLE
  5
50DE
330
A
100
AcDbEntity
  8
0
100
AcDbCircle
 10
-755.5733352608298
 20
-30.54048025499827
 30
0.0
 40
1.700000000000064
  0
ELLIPSE
  5
50DF
330
A
100
AcDbEntity
  8
0
100
AcDbEllipse
 10
-766.5733352608298
 20
-26.84048025499834
 30
0.0
 11
0.0
 21
1.5
 31
0.0
210
0.0
220
0.0
230
1.0
 40
0.2795262146
 41
0.0
 42
1.570796326794897
  0
LINE
  5
50E0
330
A
100
AcDbEntity
  8
0
100
AcDbLine
 10
-713.5733352608298
 20
-25.34048025499834
 30
0.0
 11
-766.5733352608298
 21
-25.34048025499834
 31
0.0
  0
ELLIPSE
  5
50E1
330
A
100
AcDbEntity
  8
0
100
AcDbEllipse
 10
-713.5733352608298
 20
-26.84048025499834
 30
0.0
 11
0.0
 21
1.5
 31
0.0
210
0.0
220
0.0
230
1.0
 40
0.2795262146
 41
4.712388980384693
 42
6.283185307179586
  0
LINE
  5
50E2
330
A
100
AcDbEntity
  8
0
100
AcDbLine
 10
-713.1540459390297
 20
-36.84048025499834
 30
0.0
 11
-713.1540459390297
 21
-26.84048025499834
 31
0.0
  0
LINE
  5
50E3
330
A
100
AcDbEntity
  8
0
100
AcDbLine
 10
-713.1540459390297
 20
-36.84048025499834
 30
0.0
 11
-766.9926245827297
 21
-36.84048025499834
 31
0.0
  0
LINE
  5
50E4
330
A
100
AcDbEntity
  8
0
100
AcDbLine
 10
-766.9926245827297
 20
-26.84048025499834
 30
0.0
 11
-766.9926245827297
 21
-36.84048025499834
 31
0.0
  0
CIRCLE
  5
50E5
330
A
100
AcDbEntity
  8
0
100
AcDbCircle
 10
-720.5733352608298
 20
-30.54048025499827
 30
0.0
 40
1.749999999999943
  0
CIRCLE
  5
50E6
330
A
100
AcDbEntity
  8
0
100
AcDbCircle
 10
-755.5733352608298
 20
-30.54048025499827
 30
0.0
 40
1.749999999999943
  0
LINE
  5
50E7
330
A
100
AcDbEntity
  8
0
100
AcDbLine
 10
-713.0733352608298
 20
-26.84048025499834
 30
0.0
 11
-713.0733352608298
 21
-36.84048025499834
 31
0.0
  0
LINE
  5
50E8
330
A
100
AcDbEntity
  8
0
100
AcDbLine
 10
-712.0733352608298
 20
-26.84048025499834
 30
0.0
 11
-712.0733352608298
 21
-36.84048025499834
 31
0.0
  0
LINE
  5
50E9
330
A
100
AcDbEntity
  8
0
100
AcDbLine
 10
-712.0733352608298
 20
-36.84048025499834
 30
0.0
 11
-713.0733352608298
 21
-36.84048025499834
 31
0.0
  0
ARC
  5
50EA
330
A
100
AcDbEntity
  8
0
100
AcDbCircle
 10
-713.5733352608298
 20
-26.84048025499834
 30
0.0
 40
0.5000000000000003
100
AcDbArc
 50
0.0
 51
34.5689894333994
  0
ARC
  5
50EB
330
A
100
AcDbEntity
  8
0
100
AcDbCircle
 10
-713.5733352608298
 20
-26.84048025499834
 30
0.0
 40
1.5
100
AcDbArc
 50
0.0
 51
90.0
  0
ARC
  5
50EC
330
A
100
AcDbEntity
  8
0
100
AcDbCircle
 10
-766.5733352608298
 20
-26.84048025499834
 30
0.0
 40
1.5
100
AcDbArc
 50
90.0
 51
180.0
  0
ARC
  5
50ED
330
A
100
AcDbEntity
  8
0
100
AcDbCircle
 10
-766.5733352608298
 20
-26.84048025499834
 30
0.0
 40
0.5000000000000056
100
AcDbArc
 50
145.4310105691949
 51
180.0
  0
LINE
  5
50EE
330
A
100
AcDbEntity
  8
0
100
AcDbLine
 10
-767.0733352608298
 20
-36.84048025499834
 30
0.0
 11
-767.0733352608298
 21
-26.84048025499834
 31
0.0
  0
LINE
  5
50EF
330
A
100
AcDbEntity
  8
0
100
AcDbLine
 10
-768.0733352608298
 20
-36.84048025499834
 30
0.0
 11
-768.0733352608298
 21
-26.84048025499834
 31
0.0
  0
LINE
  5
50F0
330
A
100
AcDbEntity
  8
0
100
AcDbLine
 10
-768.0733352608298
 20
-36.84048025499834
 30
0.0
 11
-767.0733352608298
 21
-36.84048025499834
 31
0.0
  0
LINE
  5
50F1
330
A
100
AcDbEntity
  8
0
100
AcDbLine
 10
-766.9926245827297
 20
-51.24048025499832
 30
0.0
 11
-766.9926245827297
 21
-61.24048025499832
 31
0.0
  0
LINE
  5
50F2
330
A
100
AcDbEntity
  8
0
100
AcDbLine
 10
-766.9926245827297
 20
-51.24048025499832
 30
0.0
 11
-713.1540459390297
 21
-51.24048025499832
 31
0.0
  0
CIRCLE
  5
50F3
330
A
100
AcDbEntity
  8
0
100
AcDbCircle
 10
-720.5733352608298
 20
-57.54048025499827
 30
0.0
 40
1.749999999999943
  0
CIRCLE
  5
50F4
330
A
100
AcDbEntity
  8
0
100
AcDbCircle
 10
-755.5733352608298
 20
-57.54048025499827
 30
0.0
 40
1.75
  0
LINE
  5
50F5
330
A
100
AcDbEntity
  8
0
100
AcDbLine
 10
-713.1540459390297
 20
-61.24048025499832
 30
0.0
 11
-713.1540459390297
 21
-51.24048025499832
 31
0.0
  0
ELLIPSE
  5
50F6
330
A
100
AcDbEntity
  8
0
100
AcDbEllipse
 10
-713.5733352608298
 20
-61.24048025499832
 30
0.0
 11
0.0
 21
1.5
 31
0.0
210
0.0
220
0.0
230
1.0
 40
0.2795262146
 41
3.141592653589793
 42
4.712388980384693
  0
LINE
  5
50F7
330
A
100
AcDbEntity
  8
0
100
AcDbLine
 10
-766.5733352608298
 20
-62.74048025499832
 30
0.0
 11
-713.5733352608298
 21
-62.74048025499832
 31
0.0
  0
ELLIPSE
  5
50F8
330
A
100
AcDbEntity
  8
0
100
AcDbEllipse
 10
-766.5733352608298
 20
-61.24048025499832
 30
0.0
 11
0.0
 21
1.5
 31
0.0
210
0.0
220
0.0
230
1.0
 40
0.2795262146
 41
1.570796326794897
 42
3.141592653589793
  0
ARC
  5
50F9
330
A
100
AcDbEntity
  8
0
100
AcDbCircle
 10
-713.5733352608298
 20
-61.24048025499832
 30
0.0
 40
0.5
100
AcDbArc
 50
325.431010566301
 51
0.0
  0
ARC
  5
50FA
330
A
100
AcDbEntity
  8
0
100
AcDbCircle
 10
-713.5733352608298
 20
-61.24048025499832
 30
0.0
 40
1.5
100
AcDbArc
 50
270.0
 51
0.0
  0
LINE
  5
50FB
330
A
100
AcDbEntity
  8
0
100
AcDbLine
 10
-713.0733352608298
 20
-51.24048025499832
 30
0.0
 11
-713.0733352608298
 21
-61.24048025499832
 31
0.0
  0
LINE
  5
50FC
330
A
100
AcDbEntity
  8
0
100
AcDbLine
 10
-712.0733352608298
 20
-51.24048025499832
 30
0.0
 11
-713.0733352608298
 21
-51.24048025499832
 31
0.0
  0
LINE
  5
50FD
330
A
100
AcDbEntity
  8
0
100
AcDbLine
 10
-712.0733352608298
 20
-51.24048025499832
 30
0.0
 11
-712.0733352608298
 21
-61.24048025499832
 31
0.0
  0
ARC
  5
50FE
330
A
100
AcDbEntity
  8
0
100
AcDbCircle
 10
-766.5733352608298
 20
-61.24048025499832
 30
0.0
 40
0.5
100
AcDbArc
 50
180.0
 51
214.5689894315902
  0
ARC
  5
50FF
330
A
100
AcDbEntity
  8
0
100
AcDbCircle
 10
-766.5733352608298
 20
-61.24048025499832
 30
0.0
 40
1.5
100
AcDbArc
 50
180.0
 51
270.0
  0
LINE
  5
5100
330
A
100
AcDbEntity
  8
0
100
AcDbLine
 10
-768.0733352608298
 20
-61.24048025499832
 30
0.0
 11
-768.0733352608298
 21
-51.24048025499832
 31
0.0
  0
LINE
  5
5101
330
A
100
AcDbEntity
  8
0
100
AcDbLine
 10
-768.0733352608298
 20
-51.24048025499832
 30
0.0
 11
-767.0733352608298
 21
-51.24048025499832
 31
0.0
  0
LINE
  5
5102
330
A
100
AcDbEntity
  8
0
100
AcDbLine
 10
-767.0733352608298
 20
-61.24048025499832
 30
0.0
 11
-767.0733352608298
 21
-51.24048025499832
 31
0.0
  0
LINE
  5
5103
330
A
100
AcDbEntity
  8
0
100
AcDbLine
 10
-739.0756820708298
 20
-20.54048025499827
 30
0.0
 11
-756.0756820708298
 21
-20.54048025499827
 31
0.0
  0
LINE
  5
5104
330
A
100
AcDbEntity
  8
0
100
AcDbLine
 10
-756.0756820708298
 20
-67.54048025499827
 30
0.0
 11
-739.0756820708298
 21
-67.54048025499827
 31
0.0
  0
LINE
  5
5105
330
A
100
AcDbEntity
  8
0
100
AcDbLine
 10
-767.5733352608298
 20
-49.04048025499827
 30
0.0
 11
-767.5733352608298
 21
-39.04048025499827
 31
0.0
  0
LINE
  5
5106
330
A
100
AcDbEntity
  8
0
100
AcDbLine
 10
-769.5733352608298
 20
-48.04048025499827
 30
0.0
 11
-769.5733352608298
 21
-40.04048025499827
 31
0.0
  0
LINE
  5
5107
330
A
100
AcDbEntity
  8
0
100
AcDbLine
 10
-727.0733352608298
 20
-47.79048025499827
 30
0.0
 11
-727.0733352608298
 21
-50.29048025499827
 31
0.0
  0
LINE
  5
5108
330
A
100
AcDbEntity
  8
0
  6
Continuous
 62
     8
370
     0
100
AcDbLine
 10
-717.0733352608298
 20
-38.79048025499827
 30
0.0
 11
-717.0733352608298
 21
-37.79048025499827
 31
0.0
  0
LINE
  5
5109
330
A
100
AcDbEntity
  8
0
  6
Continuous
 62
     8
370
     0
100
AcDbLine
 10
-727.3233352608298
 20
-47.79048025499827
 30
0.0
 11
-727.3233352608298
 21
-38.79048025499827
 31
0.0
  0
LINE
  5
510A
330
A
100
AcDbEntity
  8
0
  6
Continuous
 62
     8
370
     0
100
AcDbLine
 10
-718.5733352608298
 20
-51.24048025499832
 30
0.0
 11
-718.5733352608298
 21
-50.29048025499827
 31
0.0
  0
LINE
  5
510B
330
A
100
AcDbEntity
  8
0
  6
Continuous
 62
     8
370
     0
100
AcDbLine
 10
-726.0733352608298
 20
-50.29048025499827
 30
0.0
 11
-726.0733352608298
 21
-51.24048025499832
 31
0.0
  0
LINE
  5
510C
330
A
100
AcDbEntity
  8
0
  6
Continuous
 62
     8
370
     0
100
AcDbLine
 10
-718.5733352608298
 20
-37.79048025499827
 30
0.0
 11
-718.5733352608298
 21
-36.84048025499834
 31
0.0
  0
LINE
  5
510D
330
A
100
AcDbEntity
  8
0
  6
Continuous
 62
     8
370
     0
100
AcDbLine
 10
-726.0733352608298
 20
-36.84048025499834
 30
0.0
 11
-726.0733352608298
 21
-37.79048025499827
 31
0.0
  0
LINE
  5
510E
330
A
100
AcDbEntity
  8
0
  6
Continuous
 62
     8
370
     0
100
AcDbLine
 10
-766.9926245827297
 20
-26.84048025499834
 30
0.0
 11
-713.1540459390297
 21
-26.84048025499834
 31
0.0
  0
LINE
  5
510F
330
A
100
AcDbEntity
  8
0
  6
Continuous
 62
     8
370
     0
100
AcDbLine
 10
-712.0733352608298
 20
-26.84048025499834
 30
0.0
 11
-713.0733352608298
 21
-26.84048025499834
 31
0.0
  0
LINE
  5
5110
330
A
100
AcDbEntity
  8
0
  6
Continuous
 62
     8
370
     0
100
AcDbLine
 10
-768.0733352608298
 20
-26.84048025499834
 30
0.0
 11
-767.0733352608298
 21
-26.84048025499834
 31
0.0
  0
LINE
  5
5111
330
A
100
AcDbEntity
  8
0
  6
Continuous
 62
     8
370
     0
100
AcDbLine
 10
-713.1540459390297
 20
-61.24048025499832
 30
0.0
 11
-766.9926245827297
 21
-61.24048025499832
 31
0.0
  0
LINE
  5
5112
330
A
100
AcDbEntity
  8
0
  6
Continuous
 62
     8
370
     0
100
AcDbLine
 10
-712.0733352608298
 20
-61.24048025499832
 30
0.0
 11
-713.0733352608298
 21
-61.24048025499832
 31
0.0
  0
LINE
  5
5113
330
A
100
AcDbEntity
  8
0
  6
Continuous
 62
     8
370
     0
100
AcDbLine
 10
-768.0733352608298
 20
-61.24048025499832
 30
0.0
 11
-767.0733352608298
 21
-61.24048025499832
 31
0.0
  0
LINE
  5
5114
330
A
100
AcDbEntity
  8
0
100
AcDbLine
 10
-462.0848574797341
 20
-38.79048025499827
 30
0.0
 11
-462.0848574797341
 21
-47.79048025499827
 31
0.0
  0
LINE
  5
5115
330
A
100
AcDbEntity
  8
0
100
AcDbLine
 10
-460.0848574797341
 20
-47.79048025499827
 30
0.0
 11
-460.0848574797341
 21
-50.29048025499827
 31
0.0
  0
LINE
  5
5116
330
A
100
AcDbEntity
  8
0
100
AcDbLine
 10
-457.0848574797341
 20
-50.29048025499827
 30
0.0
 11
-457.0848574797341
 21
-47.79048025499827
 31
0.0
  0
LINE
  5
5117
330
A
100
AcDbEntity
  8
0
100
AcDbLine
 10
-443.0825106697341
 20
-20.54048025499827
 30
0.0
 11
-443.0825106697341
 21
-25.34048025499834
 31
0.0
  0
LINE
  5
5118
330
A
100
AcDbEntity
  8
0
100
AcDbLine
 10
-426.0825106697341
 20
-25.34048025499834
 30
0.0
 11
-426.0825106697341
 21
-20.54048025499827
 31
0.0
  0
LINE
  5
5119
330
A
100
AcDbEntity
  8
0
100
AcDbLine
 10
-443.0825106697341
 20
-62.74048025499832
 30
0.0
 11
-443.0825106697341
 21
-67.54048025499827
 31
0.0
  0
LINE
  5
511A
330
A
100
AcDbEntity
  8
0
100
AcDbLine
 10
-426.0825106697341
 20
-67.54048025499827
 30
0.0
 11
-426.0825106697341
 21
-62.74048025499832
 31
0.0
  0
LINE
  5
511B
330
A
100
AcDbEntity
  8
0
100
AcDbLine
 10
-414.5848574797341
 20
-39.04048025499827
 30
0.0
 11
-415.5848574797341
 21
-39.04048025499827
 31
0.0
  0
LINE
  5
511C
330
A
100
AcDbEntity
  8
0
100
AcDbLine
 10
-415.5848574797341
 20
-49.04048025499827
 30
0.0
 11
-414.5848574797341
 21
-49.04048025499827
 31
0.0
  0
LINE
  5
511D
330
A
100
AcDbEntity
  8
0
100
AcDbLine
 10
-414.5848574797341
 20
-49.04048025499827
 30
0.0
 11
-412.5848574797341
 21
-48.04048025499827
 31
0.0
  0
LINE
  5
511E
330
A
100
AcDbEntity
  8
0
100
AcDbLine
 10
-412.5848574797341
 20
-40.04048025499827
 30
0.0
 11
-414.5848574797341
 21
-39.04048025499827
 31
0.0
  0
LINE
  5
511F
330
A
100
AcDbEntity
  8
0
100
AcDbLine
 10
-416.5848574797341
 20
-37.79048025499827
 30
0.0
 11
-465.0848574797341
 21
-37.79048025499827
 31
0.0
  0
LINE
  5
5120
330
A
100
AcDbEntity
  8
0
100
AcDbLine
 10
-416.5848574797341
 20
-38.79048025499827
 30
0.0
 11
-416.5848574797341
 21
-37.79048025499827
 31
0.0
  0
LINE
  5
5121
330
A
100
AcDbEntity
  8
0
100
AcDbLine
 10
-416.5848574797341
 20
-38.79048025499827
 30
0.0
 11
-465.0848574797341
 21
-38.79048025499827
 31
0.0
  0
LINE
  5
5122
330
A
100
AcDbEntity
  8
0
100
AcDbLine
 10
-468.5848574797341
 20
-38.79048025499827
 30
0.0
 11
-468.5848574797341
 21
-37.79048025499827
 31
0.0
  0
LINE
  5
5123
330
A
100
AcDbEntity
  8
0
100
AcDbLine
 10
-465.0848574797341
 20
-37.79048025499827
 30
0.0
 11
-468.5848574797341
 21
-37.79048025499827
 31
0.0
  0
LINE
  5
5124
330
A
100
AcDbEntity
  8
0
100
AcDbLine
 10
-465.0848574797341
 20
-38.79048025499827
 30
0.0
 11
-468.5848574797341
 21
-38.79048025499827
 31
0.0
  0
LINE
  5
5125
330
A
100
AcDbEntity
  8
0
100
AcDbLine
 10
-416.5848574797341
 20
-47.79048025499827
 30
0.0
 11
-455.4966019015341
 21
-47.79048025499827
 31
0.0
  0
LINE
  5
5126
330
A
100
AcDbEntity
  8
0
100
AcDbLine
 10
-455.4966019015341
 20
-47.79048025499827
 30
0.0
 11
-455.4966019015341
 21
-38.79048025499827
 31
0.0
  0
LINE
  5
5127
330
A
100
AcDbEntity
  8
0
100
AcDbLine
 10
-416.5848574797341
 20
-47.79048025499827
 30
0.0
 11
-416.5848574797341
 21
-38.79048025499827
 31
0.0
  0
LINE
  5
5128
330
A
100
AcDbEntity
  8
0
100
AcDbLine
 10
-455.4966019015341
 20
-47.79048025499827
 30
0.0
 11
-462.0848574797341
 21
-47.79048025499827
 31
0.0
  0
LINE
  5
5129
330
A
100
AcDbEntity
  8
0
100
AcDbLine
 10
-468.5848574797341
 20
-51.24048025499832
 30
0.0
 11
-468.5848574797341
 21
-50.29048025499827
 31
0.0
  0
LINE
  5
512A
330
A
100
AcDbEntity
  8
0
100
AcDbLine
 10
-463.5848574797341
 20
-50.29048025499827
 30
0.0
 11
-468.5848574797341
 21
-50.29048025499827
 31
0.0
  0
LINE
  5
512B
330
A
100
AcDbEntity
  8
0
100
AcDbLine
 10
-417.5848574797341
 20
-50.29048025499827
 30
0.0
 11
-463.5848574797341
 21
-50.29048025499827
 31
0.0
  0
LINE
  5
512C
330
A
100
AcDbEntity
  8
0
100
AcDbLine
 10
-416.5848574797341
 20
-50.29048025499827
 30
0.0
 11
-416.5848574797341
 21
-51.24048025499832
 31
0.0
  0
LINE
  5
512D
330
A
100
AcDbEntity
  8
0
100
AcDbLine
 10
-417.5848574797341
 20
-50.29048025499827
 30
0.0
 11
-416.5848574797341
 21
-50.29048025499827
 31
0.0
  0
LINE
  5
512E
330
A
100
AcDbEntity
  8
0
100
AcDbLine
 10
-468.5848574797341
 20
-37.79048025499827
 30
0.0
 11
-468.5848574797341
 21
-36.84048025499834
 31
0.0
  0
LINE
  5
512F
330
A
100
AcDbEntity
  8
0
100
AcDbLine
 10
-416.5848574797341
 20
-36.84048025499834
 30
0.0
 11
-416.5848574797341
 21
-37.79048025499827
 31
0.0
  0
CIRCLE
  5
5130
330
A
100
AcDbEntity
  8
0
100
AcDbCircle
 10
-426.5848574797341
 20
-57.54048025499827
 30
0.0
 40
1.400000000000052
  0
LINE
  5
5131
330
A
100
AcDbEntity
  8
0
100
AcDbLine
 10
-426.1946596320341
 20
-58.32653303499836
 30
0.0
 11
-425.7090168796341
 21
-57.59558539639835
 31
0.0
  0
LINE
  5
5132
330
A
100
AcDbEntity
  8
0
100
AcDbLine
 10
-425.7090168796341
 20
-57.59558539639835
 30
0.0
 11
-426.0992147273341
 21
-56.80953261639837
 31
0.0
  0
LINE
  5
5133
330
A
100
AcDbEntity
  8
0
100
AcDbLine
 10
-426.9750553274341
 20
-56.75442747499829
 30
0.0
 11
-427.4606980797341
 21
-57.48537511359831
 31
0.0
  0
LINE
  5
5134
330
A
100
AcDbEntity
  8
0
100
AcDbLine
 10
-427.4606980797341
 20
-57.48537511359831
 30
0.0
 11
-427.0705002321341
 21
-58.27142789359829
 31
0.0
  0
LINE
  5
5135
330
A
100
AcDbEntity
  8
0
100
AcDbLine
 10
-427.0705002321341
 20
-58.27142789359829
 30
0.0
 11
-426.1946596320341
 21
-58.32653303499836
 31
0.0
  0
LINE
  5
5136
330
A
100
AcDbEntity
  8
0
100
AcDbLine
 10
-426.0992147273341
 20
-56.80953261639837
 30
0.0
 11
-426.9750553274341
 21
-56.75442747499829
 31
0.0
  0
CIRCLE
  5
5137
330
A
100
AcDbEntity
  8
0
100
AcDbCircle
 10
-426.5848574797341
 20
-57.54048025499827
 30
0.0
 40
1.700000000000062
  0
CIRCLE
  5
5138
330
A
100
AcDbEntity
  8
0
100
AcDbCircle
 10
-426.5848574797341
 20
-30.54048025499827
 30
0.0
 40
1.400000000000049
  0
LINE
  5
5139
330
A
100
AcDbEntity
  8
0
100
AcDbLine
 10
-427.0370960320341
 20
-31.29255314049834
 30
0.0
 11
-426.1596625315341
 21
-31.30816677259833
 31
0.0
  0
LINE
  5
513A
330
A
100
AcDbEntity
  8
0
100
AcDbLine
 10
-425.7074239792341
 20
-30.5560938871983
 30
0.0
 11
-426.1326189273341
 21
-29.78840736949832
 31
0.0
  0
LINE
  5
513B
330
A
100
AcDbEntity
  8
0
100
AcDbLine
 10
-426.1326189273341
 20
-29.78840736949832
 30
0.0
 11
-427.0100524278341
 21
-29.77279373729829
 31
0.0
  0
LINE
  5
513C
330
A
100
AcDbEntity
  8
0
100
AcDbLine
 10
-427.0100524278341
 20
-29.77279373729829
 30
0.0
 11
-427.4622909802341
 21
-30.52486662279836
 31
0.0
  0
LINE
  5
513D
330
A
100
AcDbEntity
  8
0
100
AcDbLine
 10
-426.1596625315341
 20
-31.30816677259833
 30
0.0
 11
-425.7074239792341
 21
-30.5560938871983
 31
0.0
  0
LINE
  5
513E
330
A
100
AcDbEntity
  8
0
100
AcDbLine
 10
-427.4622909802341
 20
-30.52486662279836
 30
0.0
 11
-427.0370960320341
 21
-31.29255314049834
 31
0.0
  0
CIRCLE
  5
513F
330
A
100
AcDbEntity
  8
0
100
AcDbCircle
 10
-426.5848574797341
 20
-30.54048025499827
 30
0.0
 40
1.700000000000039
  0
LINE
  5
5140
330
A
100
AcDbEntity
  8
0
100
AcDbLine
 10
-461.1596625315341
 20
-31.30816677259833
 30
0.0
 11
-460.7074239792341
 21
-30.5560938871983
 31
0.0
  0
LINE
  5
5141
330
A
100
AcDbEntity
  8
0
100
AcDbLine
 10
-460.7074239792341
 20
-30.5560938871983
 30
0.0
 11
-461.1326189273341
 21
-29.78840736949832
 31
0.0
  0
LINE
  5
5142
330
A
100
AcDbEntity
  8
0
100
AcDbLine
 10
-461.1326189273341
 20
-29.78840736949832
 30
0.0
 11
-462.0100524278341
 21
-29.77279373729829
 31
0.0
  0
LINE
  5
5143
330
A
100
AcDbEntity
  8
0
100
AcDbLine
 10
-462.4622909802341
 20
-30.52486662279836
 30
0.0
 11
-462.0370960320341
 21
-31.29255314049834
 31
0.0
  0
CIRCLE
  5
5144
330
A
100
AcDbEntity
  8
0
100
AcDbCircle
 10
-461.5848574797341
 20
-30.54048025499827
 30
0.0
 40
1.40000000000005
  0
LINE
  5
5145
330
A
100
AcDbEntity
  8
0
100
AcDbLine
 10
-462.0370960320341
 20
-31.29255314049834
 30
0.0
 11
-461.1596625315341
 21
-31.30816677259833
 31
0.0
  0
LINE
  5
5146
330
A
100
AcDbEntity
  8
0
100
AcDbLine
 10
-462.0100524278341
 20
-29.77279373729829
 30
0.0
 11
-462.4622909802341
 21
-30.52486662279836
 31
0.0
  0
CIRCLE
  5
5147
330
A
100
AcDbEntity
  8
0
100
AcDbCircle
 10
-461.5848574797341
 20
-30.54048025499827
 30
0.0
 40
1.70000000000004
  0
CIRCLE
  5
5148
330
A
100
AcDbEntity
  8
0
100
AcDbCircle
 10
-461.5848574797341
 20
-57.54048025499827
 30
0.0
 40
1.40000000000005
  0
LINE
  5
5149
330
A
100
AcDbEntity
  8
0
100
AcDbLine
 10
-461.1596625315341
 20
-58.30816677259833
 30
0.0
 11
-460.7074239792341
 21
-57.5560938871983
 31
0.0
  0
LINE
  5
514A
330
A
100
AcDbEntity
  8
0
100
AcDbLine
 10
-460.7074239792341
 20
-57.5560938871983
 30
0.0
 11
-461.1326189273341
 21
-56.78840736949832
 31
0.0
  0
LINE
  5
514B
330
A
100
AcDbEntity
  8
0
100
AcDbLine
 10
-462.0100524278341
 20
-56.77279373729829
 30
0.0
 11
-462.4622909802341
 21
-57.52486662279836
 31
0.0
  0
LINE
  5
514C
330
A
100
AcDbEntity
  8
0
100
AcDbLine
 10
-461.1326189273341
 20
-56.78840736949832
 30
0.0
 11
-462.0100524278341
 21
-56.77279373729829
 31
0.0
  0
LINE
  5
514D
330
A
100
AcDbEntity
  8
0
100
AcDbLine
 10
-462.4622909802341
 20
-57.52486662279836
 30
0.0
 11
-462.0370960320341
 21
-58.29255314049834
 31
0.0
  0
LINE
  5
514E
330
A
100
AcDbEntity
  8
0
100
AcDbLine
 10
-462.0370960320341
 20
-58.29255314049834
 30
0.0
 11
-461.1596625315341
 21
-58.30816677259833
 31
0.0
  0
CIRCLE
  5
514F
330
A
100
AcDbEntity
  8
0
100
AcDbCircle
 10
-461.5848574797341
 20
-57.54048025499827
 30
0.0
 40
1.70000000000004
  0
LINE
  5
5150
330
A
100
AcDbEntity
  8
0
100
AcDbLine
 10
-415.1655681578341
 20
-36.84048025499834
 30
0.0
 11
-415.1655681578341
 21
-26.84048025499834
 31
0.0
  0
CIRCLE
  5
5151
330
A
100
AcDbEntity
  8
0
100
AcDbCircle
 10
-461.5848574797341
 20
-30.54048025499827
 30
0.0
 40
1.749999999999943
  0
CIRCLE
  5
5152
330
A
100
AcDbEntity
  8
0
100
AcDbCircle
 10
-426.5848574797341
 20
-30.54048025499827
 30
0.0
 40
1.749999999999943
  0
LINE
  5
5153
330
A
100
AcDbEntity
  8
0
100
AcDbLine
 10
-469.0041468016341
 20
-26.84048025499834
 30
0.0
 11
-469.0041468016341
 21
-36.84048025499834
 31
0.0
  0
LINE
  5
5154
330
A
100
AcDbEntity
  8
0
100
AcDbLine
 10
-415.1655681578341
 20
-36.84048025499834
 30
0.0
 11
-469.0041468016341
 21
-36.84048025499834
 31
0.0
  0
LINE
  5
5155
330
A
100
AcDbEntity
  8
0
100
AcDbLine
 10
-415.5848574797341
 20
-25.34048025499834
 30
0.0
 11
-468.5848574797341
 21
-25.34048025499834
 31
0.0
  0
ELLIPSE
  5
5156
330
A
100
AcDbEntity
  8
0
100
AcDbEllipse
 10
-415.5848574797341
 20
-26.84048025499834
 30
0.0
 11
0.0
 21
1.5
 31
0.0
210
0.0
220
0.0
230
1.0
 40
0.2795262146
 41
4.712388980384693
 42
6.283185307179586
  0
ELLIPSE
  5
5157
330
A
100
AcDbEntity
  8
0
100
AcDbEllipse
 10
-468.5848574797341
 20
-26.84048025499834
 30
0.0
 11
0.0
 21
1.5
 31
0.0
210
0.0
220
0.0
230
1.0
 40
0.2795262146
 41
0.0
 42
1.570796326794897
  0
ARC
  5
5158
330
A
100
AcDbEntity
  8
0
100
AcDbCircle
 10
-468.5848574797341
 20
-26.84048025499834
 30
0.0
 40
0.5000000000000067
100
AcDbArc
 50
145.4310105741975
 51
180.0
  0
ARC
  5
5159
330
A
100
AcDbEntity
  8
0
100
AcDbCircle
 10
-468.5848574797341
 20
-26.84048025499834
 30
0.0
 40
1.5
100
AcDbArc
 50
90.0
 51
180.0
  0
LINE
  5
515A
330
A
100
AcDbEntity
  8
0
100
AcDbLine
 10
-469.0848574797341
 20
-36.84048025499834
 30
0.0
 11
-469.0848574797341
 21
-26.84048025499834
 31
0.0
  0
LINE
  5
515B
330
A
100
AcDbEntity
  8
0
100
AcDbLine
 10
-470.0848574797341
 20
-36.84048025499834
 30
0.0
 11
-470.0848574797341
 21
-26.84048025499834
 31
0.0
  0
LINE
  5
515C
330
A
100
AcDbEntity
  8
0
100
AcDbLine
 10
-470.0848574797341
 20
-36.84048025499834
 30
0.0
 11
-469.0848574797341
 21
-36.84048025499834
 31
0.0
  0
LINE
  5
515D
330
A
100
AcDbEntity
  8
0
100
AcDbLine
 10
-414.0848574797341
 20
-36.84048025499834
 30
0.0
 11
-415.0848574797341
 21
-36.84048025499834
 31
0.0
  0
LINE
  5
515E
330
A
100
AcDbEntity
  8
0
100
AcDbLine
 10
-415.0848574797341
 20
-26.84048025499834
 30
0.0
 11
-415.0848574797341
 21
-36.84048025499834
 31
0.0
  0
LINE
  5
515F
330
A
100
AcDbEntity
  8
0
100
AcDbLine
 10
-414.0848574797341
 20
-26.84048025499834
 30
0.0
 11
-414.0848574797341
 21
-36.84048025499834
 31
0.0
  0
ARC
  5
5160
330
A
100
AcDbEntity
  8
0
100
AcDbCircle
 10
-415.5848574797341
 20
-26.84048025499834
 30
0.0
 40
0.5
100
AcDbArc
 50
0.0
 51
34.56898942590184
  0
ARC
  5
5161
330
A
100
AcDbEntity
  8
0
100
AcDbCircle
 10
-415.5848574797341
 20
-26.84048025499834
 30
0.0
 40
1.5
100
AcDbArc
 50
0.0
 51
90.0
  0
ELLIPSE
  5
5162
330
A
100
AcDbEntity
  8
0
100
AcDbEllipse
 10
-468.5848574797341
 20
-61.24048025499832
 30
0.0
 11
0.0
 21
1.5
 31
0.0
210
0.0
220
0.0
230
1.0
 40
0.2795262146
 41
1.570796326794897
 42
3.141592653589793
  0
ELLIPSE
  5
5163
330
A
100
AcDbEntity
  8
0
100
AcDbEllipse
 10
-415.5848574797341
 20
-61.24048025499832
 30
0.0
 11
0.0
 21
1.5
 31
0.0
210
0.0
220
0.0
230
1.0
 40
0.2795262146
 41
3.141592653589793
 42
4.712388980384693
  0
LINE
  5
5164
330
A
100
AcDbEntity
  8
0
100
AcDbLine
 10
-468.5848574797341
 20
-62.74048025499832
 30
0.0
 11
-415.5848574797341
 21
-62.74048025499832
 31
0.0
  0
LINE
  5
5165
330
A
100
AcDbEntity
  8
0
100
AcDbLine
 10
-415.1655681578341
 20
-61.24048025499832
 30
0.0
 11
-415.1655681578341
 21
-51.24048025499832
 31
0.0
  0
CIRCLE
  5
5166
330
A
100
AcDbEntity
  8
0
100
AcDbCircle
 10
-461.5848574797341
 20
-57.54048025499827
 30
0.0
 40
1.749999999999943
  0
CIRCLE
  5
5167
330
A
100
AcDbEntity
  8
0
100
AcDbCircle
 10
-426.5848574797341
 20
-57.54048025499827
 30
0.0
 40
1.749999999999886
  0
LINE
  5
5168
330
A
100
AcDbEntity
  8
0
100
AcDbLine
 10
-469.0041468016341
 20
-51.24048025499832
 30
0.0
 11
-469.0041468016341
 21
-61.24048025499832
 31
0.0
  0
LINE
  5
5169
330
A
100
AcDbEntity
  8
0
100
AcDbLine
 10
-469.0041468016341
 20
-51.24048025499832
 30
0.0
 11
-415.1655681578341
 21
-51.24048025499832
 31
0.0
  0
ARC
  5
516A
330
A
100
AcDbEntity
  8
0
100
AcDbCircle
 10
-468.5848574797341
 20
-61.24048025499832
 30
0.0
 40
0.5
100
AcDbArc
 50
180.0
 51
214.568989426088
  0
ARC
  5
516B
330
A
100
AcDbEntity
  8
0
100
AcDbCircle
 10
-468.5848574797341
 20
-61.24048025499832
 30
0.0
 40
1.5
100
AcDbArc
 50
180.0
 51
270.0
  0
LINE
  5
516C
330
A
100
AcDbEntity
  8
0
100
AcDbLine
 10
-469.0848574797341
 20
-61.24048025499832
 30
0.0
 11
-469.0848574797341
 21
-51.24048025499832
 31
0.0
  0
LINE
  5
516D
330
A
100
AcDbEntity
  8
0
100
AcDbLine
 10
-470.0848574797341
 20
-61.24048025499832
 30
0.0
 11
-470.0848574797341
 21
-51.24048025499832
 31
0.0
  0
LINE
  5
516E
330
A
100
AcDbEntity
  8
0
100
AcDbLine
 10
-470.0848574797341
 20
-51.24048025499832
 30
0.0
 11
-469.0848574797341
 21
-51.24048025499832
 31
0.0
  0
LINE
  5
516F
330
A
100
AcDbEntity
  8
0
100
AcDbLine
 10
-415.0848574797341
 20
-51.24048025499832
 30
0.0
 11
-415.0848574797341
 21
-61.24048025499832
 31
0.0
  0
LINE
  5
5170
330
A
100
AcDbEntity
  8
0
100
AcDbLine
 10
-414.0848574797341
 20
-51.24048025499832
 30
0.0
 11
-414.0848574797341
 21
-61.24048025499832
 31
0.0
  0
LINE
  5
5171
330
A
100
AcDbEntity
  8
0
100
AcDbLine
 10
-414.0848574797341
 20
-51.24048025499832
 30
0.0
 11
-415.0848574797341
 21
-51.24048025499832
 31
0.0
  0
ARC
  5
5172
330
A
100
AcDbEntity
  8
0
100
AcDbCircle
 10
-415.5848574797341
 20
-61.24048025499832
 30
0.0
 40
1.5
100
AcDbArc
 50
270.0
 51
0.0
  0
ARC
  5
5173
330
A
100
AcDbEntity
  8
0
100
AcDbCircle
 10
-415.5848574797341
 20
-61.24048025499832
 30
0.0
 40
0.5
100
AcDbArc
 50
325.4310105697007
 51
0.0
  0
LINE
  5
5174
330
A
100
AcDbEntity
  8
0
100
AcDbLine
 10
-436.0131841273341
 20
-20.54048025499827
 30
0.0
 11
-436.0131841273341
 21
-25.34048025499834
 31
0.0
  0
LINE
  5
5175
330
A
100
AcDbEntity
  8
0
100
AcDbLine
 10
-436.0131841273341
 20
-62.74048025499832
 30
0.0
 11
-436.0131841273341
 21
-67.54048025499827
 31
0.0
  0
LINE
  5
5176
330
A
100
AcDbEntity
  8
0
100
AcDbLine
 10
-439.5825106697341
 20
-67.54048025499827
 30
0.0
 11
-439.5825106697341
 21
-62.74048025499832
 31
0.0
  0
LINE
  5
5177
330
A
100
AcDbEntity
  8
0
100
AcDbLine
 10
-439.5825106697341
 20
-25.34048025499834
 30
0.0
 11
-439.5825106697341
 21
-20.54048025499827
 31
0.0
  0
LINE
  5
5178
330
A
100
AcDbEntity
  8
0
100
AcDbLine
 10
-439.5825106697341
 20
-20.54048025499827
 30
0.0
 11
-436.0131841273341
 21
-20.54048025499827
 31
0.0
  0
LINE
  5
5179
330
A
100
AcDbEntity
  8
0
100
AcDbLine
 10
-436.0131841273341
 20
-67.54048025499827
 30
0.0
 11
-439.5825106697341
 21
-67.54048025499827
 31
0.0
  0
LINE
  5
517A
330
A
100
AcDbEntity
  8
0
100
AcDbLine
 10
-433.1518372120341
 20
-67.54048025499827
 30
0.0
 11
-433.1518372120341
 21
-62.74048025499832
 31
0.0
  0
LINE
  5
517B
330
A
100
AcDbEntity
  8
0
100
AcDbLine
 10
-433.1518372120341
 20
-25.34048025499834
 30
0.0
 11
-433.1518372120341
 21
-20.54048025499827
 31
0.0
  0
LINE
  5
517C
330
A
100
AcDbEntity
  8
0
100
AcDbLine
 10
-436.0131841273341
 20
-20.54048025499827
 30
0.0
 11
-433.1518372120341
 21
-20.54048025499827
 31
0.0
  0
LINE
  5
517D
330
A
100
AcDbEntity
  8
0
100
AcDbLine
 10
-436.0131841273341
 20
-67.54048025499827
 30
0.0
 11
-433.1518372120341
 21
-67.54048025499827
 31
0.0
  0
LINE
  5
517E
330
A
100
AcDbEntity
  8
0
100
AcDbLine
 10
-429.5825106697341
 20
-20.54048025499827
 30
0.0
 11
-429.5825106697341
 21
-25.34048025499834
 31
0.0
  0
LINE
  5
517F
330
A
100
AcDbEntity
  8
0
100
AcDbLine
 10
-429.5825106697341
 20
-62.74048025499832
 30
0.0
 11
-429.5825106697341
 21
-67.54048025499827
 31
0.0
  0
LINE
  5
5180
330
A
100
AcDbEntity
  8
0
100
AcDbLine
 10
-433.1518372120341
 20
-20.54048025499827
 30
0.0
 11
-429.5825106697341
 21
-20.54048025499827
 31
0.0
  0
LINE
  5
5181
330
A
100
AcDbEntity
  8
0
100
AcDbLine
 10
-429.5825106697341
 20
-67.54048025499827
 30
0.0
 11
-433.1518372120341
 21
-67.54048025499827
 31
0.0
  0
LINE
  5
5182
330
A
100
AcDbEntity
  8
0
100
AcDbLine
 10
-439.5825106697341
 20
-20.54048025499827
 30
0.0
 11
-443.0825106697341
 21
-20.54048025499827
 31
0.0
  0
LINE
  5
5183
330
A
100
AcDbEntity
  8
0
100
AcDbLine
 10
-426.0825106697341
 20
-20.54048025499827
 30
0.0
 11
-429.5825106697341
 21
-20.54048025499827
 31
0.0
  0
LINE
  5
5184
330
A
100
AcDbEntity
  8
0
100
AcDbLine
 10
-429.5825106697341
 20
-67.54048025499827
 30
0.0
 11
-426.0825106697341
 21
-67.54048025499827
 31
0.0
  0
LINE
  5
5185
330
A
100
AcDbEntity
  8
0
100
AcDbLine
 10
-443.0825106697341
 20
-67.54048025499827
 30
0.0
 11
-439.5825106697341
 21
-67.54048025499827
 31
0.0
  0
LINE
  5
5186
330
A
100
AcDbEntity
  8
0
100
AcDbLine
 10
-449.5848574797341
 20
-50.29048025499827
 30
0.0
 11
-449.5848574797341
 21
-47.91548025499827
 31
0.0
  0
LINE
  5
5187
330
A
100
AcDbEntity
  8
0
100
AcDbLine
 10
-449.5848574797341
 20
-47.91548025499827
 30
0.0
 11
-445.9827732413341
 21
-47.91548025499827
 31
0.0
  0
LINE
  5
5188
330
A
100
AcDbEntity
  8
0
100
AcDbLine
 10
-445.9827732413341
 20
-47.91548025499827
 30
0.0
 11
-445.9827732413341
 21
-47.79048025499827
 31
0.0
  0
LINE
  5
5189
330
A
100
AcDbEntity
  8
0
100
AcDbLine
 10
-414.5848574797341
 20
-44.04048025499827
 30
0.0
 11
-414.5848574797341
 21
-49.04048025499827
 31
0.0
  0
LINE
  5
518A
330
A
100
AcDbEntity
  8
0
100
AcDbLine
 10
-414.5848574797341
 20
-39.04048025499827
 30
0.0
 11
-414.5848574797341
 21
-44.04048025499827
 31
0.0
  0
LINE
  5
518B
330
A
100
AcDbEntity
  8
0
100
AcDbLine
 10
-412.5848574797341
 20
-44.04048025499827
 30
0.0
 11
-412.5848574797341
 21
-48.04048025499827
 31
0.0
  0
LINE
  5
518C
330
A
100
AcDbEntity
  8
0
100
AcDbLine
 10
-412.5848574797341
 20
-40.04048025499827
 30
0.0
 11
-412.5848574797341
 21
-44.04048025499827
 31
0.0
  0
LINE
  5
518D
330
A
100
AcDbEntity
  8
0
100
AcDbLine
 10
-455.0848574797341
 20
-47.79048025499827
 30
0.0
 11
-455.0848574797341
 21
-50.29048025499827
 31
0.0
  0
LINE
  5
518E
330
A
100
AcDbEntity
  8
0
100
AcDbLine
 10
-450.5848574797341
 20
-47.79048025499827
 30
0.0
 11
-450.5848574797341
 21
-50.29048025499827
 31
0.0
  0
LINE
  5
518F
330
A
100
AcDbEntity
  8
0
100
AcDbLine
 10
-440.5848574797341
 20
-50.29048025499827
 30
0.0
 11
-440.5848574797341
 21
-47.79048025499827
 31
0.0
  0
LINE
  5
5190
330
A
100
AcDbEntity
  8
0
100
AcDbLine
 10
-415.5848574797341
 20
-51.24048025499832
 30
0.0
 11
-415.5848574797341
 21
-36.84048025499834
 31
0.0
  0
LINE
  5
5191
330
A
100
AcDbEntity
  8
0
  6
Continuous
 62
     8
370
     0
100
AcDbLine
 10
-465.0848574797341
 20
-38.79048025499827
 30
0.0
 11
-465.0848574797341
 21
-37.79048025499827
 31
0.0
  0
LINE
  5
5192
330
A
100
AcDbEntity
  8
0
  6
Continuous
 62
     8
370
     0
100
AcDbLine
 10
-463.5848574797341
 20
-51.24048025499832
 30
0.0
 11
-463.5848574797341
 21
-50.29048025499827
 31
0.0
  0
LINE
  5
5193
330
A
100
AcDbEntity
  8
0
  6
Continuous
 62
     8
370
     0
100
AcDbLine
 10
-417.5848574797341
 20
-51.24048025499832
 30
0.0
 11
-417.5848574797341
 21
-50.29048025499827
 31
0.0
  0
LINE
  5
5194
330
A
100
AcDbEntity
  8
0
  6
Continuous
 62
     8
370
     0
100
AcDbLine
 10
-463.5848574797341
 20
-37.79048025499827
 30
0.0
 11
-463.5848574797341
 21
-36.84048025499834
 31
0.0
  0
LINE
  5
5195
330
A
100
AcDbEntity
  8
0
  6
Continuous
 62
     8
370
     0
100
AcDbLine
 10
-417.5848574797341
 20
-37.79048025499827
 30
0.0
 11
-417.5848574797341
 21
-36.84048025499834
 31
0.0
  0
LINE
  5
5196
330
A
100
AcDbEntity
  8
0
  6
Continuous
 62
     8
370
     0
100
AcDbLine
 10
-469.0041468016341
 20
-26.84048025499834
 30
0.0
 11
-415.1655681578341
 21
-26.84048025499834
 31
0.0
  0
LINE
  5
5197
330
A
100
AcDbEntity
  8
0
  6
Continuous
 62
     8
370
     0
100
AcDbLine
 10
-470.0848574797341
 20
-26.84048025499834
 30
0.0
 11
-469.0848574797341
 21
-26.84048025499834
 31
0.0
  0
LINE
  5
5198
330
A
100
AcDbEntity
  8
0
  6
Continuous
 62
     8
370
     0
100
AcDbLine
 10
-414.0848574797341
 20
-26.84048025499834
 30
0.0
 11
-415.0848574797341
 21
-26.84048025499834
 31
0.0
  0
LINE
  5
5199
330
A
100
AcDbEntity
  8
0
  6
Continuous
 62
     8
370
     0
100
AcDbLine
 10
-415.1655681578341
 20
-61.24048025499832
 30
0.0
 11
-469.0041468016341
 21
-61.24048025499832
 31
0.0
  0
LINE
  5
519A
330
A
100
AcDbEntity
  8
0
  6
Continuous
 62
     8
370
     0
100
AcDbLine
 10
-470.0848574797341
 20
-61.24048025499832
 30
0.0
 11
-469.0848574797341
 21
-61.24048025499832
 31
0.0
  0
LINE
  5
519B
330
A
100
AcDbEntity
  8
0
  6
Continuous
 62
     8
370
     0
100
AcDbLine
 10
-414.0848574797341
 20
-61.24048025499832
 30
0.0
 11
-415.0848574797341
 21
-61.24048025499832
 31
0.0
  0
LINE
  5
519C
330
A
100
AcDbEntity
  8
0
  6
Continuous
 62
     8
370
     0
100
AcDbLine
 10
-443.5848574797341
 20
-47.79048025499827
 30
0.0
 11
-443.5848574797341
 21
-50.29048025499827
 31
0.0
  0
LINE
  5
529D
330
A
100
AcDbEntity
  8
ASSI
  6
CENTER
100
AcDbLine
 10
-558.3577683199994
 20
-245.6042442646703
 30
0.0
 11
-558.3577683199994
 21
-254.7282507539383
 31
0.0
  0
LINE
  5
5330
330
A
100
AcDbEntity
  8
0
100
AcDbLine
 10
-502.4384789980994
 20
-334.4523846700626
 30
0.0
 11
-502.3577683199994
 21
-334.4523846700626
 31
0.0
  0
LINE
  5
5331
330
A
100
AcDbEntity
  8
0
100
AcDbLine
 10
-502.3577683199994
 20
-331.6523846700625
 30
0.0
 11
-502.4384789980994
 21
-331.6523846700625
 31
0.0
  0
LINE
  5
5332
330
A
100
AcDbEntity
  8
0
100
AcDbLine
 10
-502.4384789980994
 20
-307.4523846700626
 30
0.0
 11
-502.3577683199994
 21
-307.4523846700626
 31
0.0
  0
LINE
  5
5333
330
A
100
AcDbEntity
  8
0
100
AcDbLine
 10
-502.3577683199994
 20
-304.6523846700625
 30
0.0
 11
-502.4384789980994
 21
-304.6523846700625
 31
0.0
  0
LINE
  5
5334
330
A
100
AcDbEntity
  8
0
100
AcDbLine
 10
-666.7770576418993
 20
-331.6523846700625
 30
0.0
 11
-666.8577683199994
 21
-331.6523846700625
 31
0.0
  0
LINE
  5
5335
330
A
100
AcDbEntity
  8
0
100
AcDbLine
 10
-666.8577683199994
 20
-334.4523846700626
 30
0.0
 11
-666.7770576418993
 21
-334.4523846700626
 31
0.0
  0
LINE
  5
5336
330
A
100
AcDbEntity
  8
0
100
AcDbLine
 10
-666.7770576418993
 20
-304.6523846700625
 30
0.0
 11
-666.8577683199994
 21
-304.6523846700625
 31
0.0
  0
LINE
  5
5337
330
A
100
AcDbEntity
  8
0
100
AcDbLine
 10
-666.8577683199994
 20
-307.4523846700626
 30
0.0
 11
-666.7770576418993
 21
-307.4523846700626
 31
0.0
  0
LINE
  5
5338
330
A
100
AcDbEntity
  8
0
100
AcDbLine
 10
-646.7577683199993
 20
-315.8023846700626
 30
0.0
 11
-646.7577683199993
 21
-314.8023846700626
 31
0.0
  0
LINE
  5
5339
330
A
100
AcDbEntity
  8
0
100
AcDbLine
 10
-649.7577683199993
 20
-314.8023846700626
 30
0.0
 11
-649.7577683199993
 21
-315.8023846700626
 31
0.0
  0
LINE
  5
533A
330
A
100
AcDbEntity
  8
0
100
AcDbLine
 10
-566.3577683199994
 20
-300.8523846700626
 30
0.0
 11
-566.3577683199994
 21
-296.0523846700626
 31
0.0
  0
LINE
  5
533B
330
A
100
AcDbEntity
  8
0
100
AcDbLine
 10
-566.3577683199994
 20
-343.0523846700626
 30
0.0
 11
-566.3577683199994
 21
-338.2523846700626
 31
0.0
  0
LINE
  5
533C
330
A
100
AcDbEntity
  8
0
100
AcDbLine
 10
-503.3577683199994
 20
-324.8023846700626
 30
0.0
 11
-503.3577683199994
 21
-314.8023846700626
 31
0.0
  0
LINE
  5
533D
330
A
100
AcDbEntity
  8
0
100
AcDbLine
 10
-666.0577683199995
 20
-313.3023846700626
 30
0.0
 11
-666.0577683199995
 21
-313.8023846700626
 31
0.0
  0
LINE
  5
533E
330
A
100
AcDbEntity
  8
0
100
AcDbLine
 10
-666.0577683199995
 20
-313.3023846700626
 30
0.0
 11
-661.0577683199995
 21
-313.3023846700626
 31
0.0
  0
LINE
  5
533F
330
A
100
AcDbEntity
  8
0
100
AcDbLine
 10
-661.0577683199995
 20
-313.3023846700626
 30
0.0
 11
-508.0577683199994
 21
-313.3023846700626
 31
0.0
  0
LINE
  5
5340
330
A
100
AcDbEntity
  8
0
100
AcDbLine
 10
-503.0577683199994
 20
-313.3023846700626
 30
0.0
 11
-503.0577683199994
 21
-313.8023846700626
 31
0.0
  0
LINE
  5
5341
330
A
100
AcDbEntity
  8
0
100
AcDbLine
 10
-508.0577683199994
 20
-313.3023846700626
 30
0.0
 11
-503.0577683199994
 21
-313.3023846700626
 31
0.0
  0
LINE
  5
5342
330
A
100
AcDbEntity
  8
0
100
AcDbLine
 10
-666.1077683199994
 20
-324.8023846700626
 30
0.0
 11
-666.1077683199994
 21
-325.8023846700626
 31
0.0
  0
LINE
  5
5343
330
A
100
AcDbEntity
  8
0
100
AcDbLine
 10
-666.1077683199994
 20
-324.8023846700626
 30
0.0
 11
-662.6077683199994
 21
-324.8023846700626
 31
0.0
  0
LINE
  5
5344
330
A
100
AcDbEntity
  8
0
100
AcDbLine
 10
-666.1077683199994
 20
-325.8023846700626
 30
0.0
 11
-662.6077683199994
 21
-325.8023846700626
 31
0.0
  0
LINE
  5
5345
330
A
100
AcDbEntity
  8
0
100
AcDbLine
 10
-662.6077683199994
 20
-324.8023846700626
 30
0.0
 11
-506.6077683199994
 21
-324.8023846700626
 31
0.0
  0
LINE
  5
5346
330
A
100
AcDbEntity
  8
0
100
AcDbLine
 10
-662.6077683199994
 20
-325.8023846700626
 30
0.0
 11
-506.6077683199994
 21
-325.8023846700626
 31
0.0
  0
LINE
  5
5347
330
A
100
AcDbEntity
  8
0
100
AcDbLine
 10
-503.1077683199994
 20
-324.8023846700626
 30
0.0
 11
-503.1077683199994
 21
-325.8023846700626
 31
0.0
  0
LINE
  5
5348
330
A
100
AcDbEntity
  8
0
100
AcDbLine
 10
-506.6077683199994
 20
-325.8023846700626
 30
0.0
 11
-503.1077683199994
 21
-325.8023846700626
 31
0.0
  0
LINE
  5
5349
330
A
100
AcDbEntity
  8
0
100
AcDbLine
 10
-506.6077683199994
 20
-324.8023846700626
 30
0.0
 11
-503.1077683199994
 21
-324.8023846700626
 31
0.0
  0
LINE
  5
534A
330
A
100
AcDbEntity
  8
0
100
AcDbLine
 10
-657.6077683199994
 20
-315.8023846700626
 30
0.0
 11
-657.6077683199994
 21
-324.8023846700626
 31
0.0
  0
LINE
  5
534B
330
A
100
AcDbEntity
  8
0
100
AcDbLine
 10
-639.0426169300993
 20
-315.8023846700626
 30
0.0
 11
-639.0426169300993
 21
-324.8023846700626
 31
0.0
  0
LINE
  5
534C
330
A
100
AcDbEntity
  8
0
100
AcDbLine
 10
-657.6077683199994
 20
-315.8023846700626
 30
0.0
 11
-639.0426169300993
 21
-315.8023846700626
 31
0.0
  0
LINE
  5
534D
330
A
100
AcDbEntity
  8
0
100
AcDbLine
 10
-639.0426169300993
 20
-315.8023846700626
 30
0.0
 11
-506.3577683199994
 21
-315.8023846700626
 31
0.0
  0
LINE
  5
534E
330
A
100
AcDbEntity
  8
0
100
AcDbLine
 10
-505.1077683199994
 20
-315.8023846700626
 30
0.0
 11
-505.1077683199994
 21
-324.8023846700626
 31
0.0
  0
LINE
  5
534F
330
A
100
AcDbEntity
  8
0
100
AcDbLine
 10
-506.3577683199994
 20
-315.8023846700626
 30
0.0
 11
-505.1077683199994
 21
-315.8023846700626
 31
0.0
  0
LINE
  5
5350
330
A
100
AcDbEntity
  8
0
100
AcDbLine
 10
-666.0577683199995
 20
-313.8023846700626
 30
0.0
 11
-666.0577683199995
 21
-314.8023846700626
 31
0.0
  0
LINE
  5
5351
330
A
100
AcDbEntity
  8
0
100
AcDbLine
 10
-666.0577683199995
 20
-313.8023846700626
 30
0.0
 11
-661.0577683199995
 21
-313.8023846700626
 31
0.0
  0
LINE
  5
5352
330
A
100
AcDbEntity
  8
0
100
AcDbLine
 10
-666.0577683199995
 20
-314.8023846700626
 30
0.0
 11
-661.0577683199995
 21
-314.8023846700626
 31
0.0
  0
LINE
  5
5353
330
A
100
AcDbEntity
  8
0
100
AcDbLine
 10
-661.0577683199995
 20
-313.8023846700626
 30
0.0
 11
-508.0577683199994
 21
-313.8023846700626
 31
0.0
  0
LINE
  5
5354
330
A
100
AcDbEntity
  8
0
100
AcDbLine
 10
-661.0577683199995
 20
-314.8023846700626
 30
0.0
 11
-508.0577683199994
 21
-314.8023846700626
 31
0.0
  0
LINE
  5
5355
330
A
100
AcDbEntity
  8
0
100
AcDbLine
 10
-503.0577683199994
 20
-313.8023846700626
 30
0.0
 11
-503.0577683199994
 21
-314.8023846700626
 31
0.0
  0
LINE
  5
5356
330
A
100
AcDbEntity
  8
0
100
AcDbLine
 10
-508.0577683199994
 20
-314.8023846700626
 30
0.0
 11
-503.0577683199994
 21
-314.8023846700626
 31
0.0
  0
LINE
  5
5357
330
A
100
AcDbEntity
  8
0
100
AcDbLine
 10
-508.0577683199994
 20
-313.8023846700626
 30
0.0
 11
-503.0577683199994
 21
-313.8023846700626
 31
0.0
  0
LINE
  5
5358
330
A
100
AcDbEntity
  8
0
100
AcDbLine
 10
-503.1077683199994
 20
-325.8023846700626
 30
0.0
 11
-503.0577683199994
 21
-325.8023846700626
 31
0.0
  0
LINE
  5
5359
330
A
100
AcDbEntity
  8
0
100
AcDbLine
 10
-503.0577683199994
 20
-325.8023846700626
 30
0.0
 11
-503.0577683199994
 21
-326.7523846700626
 31
0.0
  0
LINE
  5
535A
330
A
100
AcDbEntity
  8
0
100
AcDbLine
 10
-666.0577683199995
 20
-325.8023846700626
 30
0.0
 11
-666.0577683199995
 21
-326.7523846700626
 31
0.0
  0
LINE
  5
535B
330
A
100
AcDbEntity
  8
0
100
AcDbLine
 10
-661.0577683199995
 20
-325.8023846700626
 30
0.0
 11
-508.0577683199994
 21
-325.8023846700626
 31
0.0
  0
LINE
  5
535C
330
A
100
AcDbEntity
  8
0
100
AcDbLine
 10
-502.4384789980994
 20
-336.7523846700626
 30
0.0
 11
-502.4384789980994
 21
-326.7523846700626
 31
0.0
  0
LINE
  5
535D
330
A
100
AcDbEntity
  8
0
100
AcDbLine
 10
-666.7770576418993
 20
-326.7523846700626
 30
0.0
 11
-502.4384789980994
 21
-326.7523846700626
 31
0.0
  0
LINE
  5
535E
330
A
100
AcDbEntity
  8
0
100
AcDbLine
 10
-666.7770576418993
 20
-326.7523846700626
 30
0.0
 11
-666.7770576418993
 21
-336.7523846700626
 31
0.0
  0
LINE
  5
535F
330
A
100
AcDbEntity
  8
0
100
AcDbLine
 10
-666.3577683199994
 20
-338.2523846700626
 30
0.0
 11
-502.8577683199994
 21
-338.2523846700626
 31
0.0
  0
ELLIPSE
  5
5360
330
A
100
AcDbEntity
  8
0
100
AcDbEllipse
 10
-666.3577683199994
 20
-336.7523846700626
 30
0.0
 11
0.0
 21
1.5
 31
0.0
210
0.0
220
0.0
230
1.0
 40
0.2795262146
 41
1.570796326794897
 42
3.14159265358991
  0
ELLIPSE
  5
5361
330
A
100
AcDbEntity
  8
0
100
AcDbEllipse
 10
-502.8577683199994
 20
-336.7523846700626
 30
0.0
 11
0.0
 21
1.5
 31
0.0
210
0.0
220
0.0
230
1.0
 40
0.2795262146
 41
3.141592653589793
 42
4.712388980384693
  0
LINE
  5
5362
330
A
100
AcDbEntity
  8
0
100
AcDbLine
 10
-667.8577683199994
 20
-336.7523846700626
 30
0.0
 11
-667.8577683199994
 21
-326.7523846700626
 31
0.0
  0
LINE
  5
5363
330
A
100
AcDbEntity
  8
0
100
AcDbLine
 10
-666.8577683199994
 20
-336.7523846700626
 30
0.0
 11
-666.8577683199994
 21
-326.7523846700626
 31
0.0
  0
LINE
  5
5364
330
A
100
AcDbEntity
  8
0
100
AcDbLine
 10
-667.8577683199994
 20
-326.7523846700626
 30
0.0
 11
-666.8577683199994
 21
-326.7523846700626
 31
0.0
  0
LINE
  5
5365
330
A
100
AcDbEntity
  8
0
100
AcDbLine
 10
-502.3577683199994
 20
-326.7523846700626
 30
0.0
 11
-502.3577683199994
 21
-336.7523846700626
 31
0.0
  0
LINE
  5
5366
330
A
100
AcDbEntity
  8
0
100
AcDbLine
 10
-501.3577683199994
 20
-326.7523846700626
 30
0.0
 11
-501.3577683199994
 21
-336.7523846700626
 31
0.0
  0
LINE
  5
5367
330
A
100
AcDbEntity
  8
0
100
AcDbLine
 10
-501.3577683199994
 20
-326.7523846700626
 30
0.0
 11
-502.3577683199994
 21
-326.7523846700626
 31
0.0
  0
ARC
  5
5368
330
A
100
AcDbEntity
  8
0
100
AcDbCircle
 10
-666.3577683199994
 20
-336.7523846700626
 30
0.0
 40
0.5000000000000091
100
AcDbArc
 50
180.0
 51
214.5689894258971
  0
ARC
  5
5369
330
A
100
AcDbEntity
  8
0
100
AcDbCircle
 10
-666.3577683199994
 20
-336.7523846700626
 30
0.0
 40
1.5
100
AcDbArc
 50
180.0
 51
270.0
  0
ARC
  5
536A
330
A
100
AcDbEntity
  8
0
100
AcDbCircle
 10
-502.8577683199994
 20
-336.7523846700626
 30
0.0
 40
0.5000000000000094
100
AcDbArc
 50
325.4310105710024
 51
0.0
  0
ARC
  5
536B
330
A
100
AcDbEntity
  8
0
100
AcDbCircle
 10
-502.8577683199994
 20
-336.7523846700626
 30
0.0
 40
1.5
100
AcDbArc
 50
270.0
 51
0.0
  0
LINE
  5
536C
330
A
100
AcDbEntity
  8
0
100
AcDbLine
 10
-502.8577683199994
 20
-300.8523846700626
 30
0.0
 11
-666.3577683199994
 21
-300.8523846700626
 31
0.0
  0
ELLIPSE
  5
536D
330
A
100
AcDbEntity
  8
0
100
AcDbEllipse
 10
-502.8577683199994
 20
-302.3523846700626
 30
0.0
 11
0.0
 21
1.5
 31
0.0
210
0.0
220
0.0
230
1.0
 40
0.2795262146
 41
4.712388980384693
 42
6.283185307179586
  0
ELLIPSE
  5
536E
330
A
100
AcDbEntity
  8
0
100
AcDbEllipse
 10
-666.3577683199994
 20
-302.3523846700626
 30
0.0
 11
0.0
 21
1.5
 31
0.0
210
0.0
220
0.0
230
1.0
 40
0.2795262146
 41
0.0
 42
1.570796326794897
  0
LINE
  5
536F
330
A
100
AcDbEntity
  8
0
100
AcDbLine
 10
-502.4384789980994
 20
-312.3523846700626
 30
0.0
 11
-502.4384789980994
 21
-302.3523846700626
 31
0.0
  0
LINE
  5
5370
330
A
100
AcDbEntity
  8
0
100
AcDbLine
 10
-502.4384789980994
 20
-312.3523846700626
 30
0.0
 11
-666.7770576418993
 21
-312.3523846700626
 31
0.0
  0
LINE
  5
5371
330
A
100
AcDbEntity
  8
0
100
AcDbLine
 10
-666.7770576418993
 20
-302.3523846700626
 30
0.0
 11
-666.7770576418993
 21
-312.3523846700626
 31
0.0
  0
ARC
  5
5372
330
A
100
AcDbEntity
  8
0
100
AcDbCircle
 10
-502.8577683199994
 20
-302.3523846700626
 30
0.0
 40
0.5
100
AcDbArc
 50
0.0
 51
34.56898942900131
  0
ARC
  5
5373
330
A
100
AcDbEntity
  8
0
100
AcDbCircle
 10
-502.8577683199994
 20
-302.3523846700626
 30
0.0
 40
1.5
100
AcDbArc
 50
0.0
 51
90.0
  0
LINE
  5
5374
330
A
100
AcDbEntity
  8
0
100
AcDbLine
 10
-502.3577683199994
 20
-302.3523846700626
 30
0.0
 11
-502.3577683199994
 21
-312.3523846700626
 31
0.0
  0
LINE
  5
5375
330
A
100
AcDbEntity
  8
0
100
AcDbLine
 10
-501.3577683199994
 20
-302.3523846700626
 30
0.0
 11
-501.3577683199994
 21
-312.3523846700626
 31
0.0
  0
LINE
  5
5376
330
A
100
AcDbEntity
  8
0
100
AcDbLine
 10
-501.3577683199994
 20
-312.3523846700626
 30
0.0
 11
-502.3577683199994
 21
-312.3523846700626
 31
0.0
  0
ARC
  5
5377
330
A
100
AcDbEntity
  8
0
100
AcDbCircle
 10
-666.3577683199994
 20
-302.3523846700626
 30
0.0
 40
0.5000000000000104
100
AcDbArc
 50
145.4310105705904
 51
180.0
  0
ARC
  5
5378
330
A
100
AcDbEntity
  8
0
100
AcDbCircle
 10
-666.3577683199994
 20
-302.3523846700626
 30
0.0
 40
1.5
100
AcDbArc
 50
90.0
 51
180.0
  0
LINE
  5
5379
330
A
100
AcDbEntity
  8
0
100
AcDbLine
 10
-667.8577683199994
 20
-312.3523846700626
 30
0.0
 11
-666.8577683199994
 21
-312.3523846700626
 31
0.0
  0
LINE
  5
537A
330
A
100
AcDbEntity
  8
0
100
AcDbLine
 10
-667.8577683199994
 20
-312.3523846700626
 30
0.0
 11
-667.8577683199994
 21
-302.3523846700626
 31
0.0
  0
LINE
  5
537B
330
A
100
AcDbEntity
  8
0
100
AcDbLine
 10
-666.8577683199994
 20
-312.3523846700626
 30
0.0
 11
-666.8577683199994
 21
-302.3523846700626
 31
0.0
  0
LINE
  5
537C
330
A
100
AcDbEntity
  8
0
100
AcDbLine
 10
-581.7316318623994
 20
-296.0523846700626
 30
0.0
 11
-581.7316318623994
 21
-300.8523846700626
 31
0.0
  0
LINE
  5
537D
330
A
100
AcDbEntity
  8
0
100
AcDbLine
 10
-566.3577683199994
 20
-296.0523846700626
 30
0.0
 11
-581.7316318623994
 21
-296.0523846700626
 31
0.0
  0
LINE
  5
537E
330
A
100
AcDbEntity
  8
0
100
AcDbLine
 10
-581.7316318623994
 20
-343.0523846700626
 30
0.0
 11
-566.3577683199994
 21
-343.0523846700626
 31
0.0
  0
LINE
  5
537F
330
A
100
AcDbEntity
  8
0
100
AcDbLine
 10
-581.7316318623994
 20
-343.0523846700626
 30
0.0
 11
-581.7316318623994
 21
-338.2523846700626
 31
0.0
  0
LINE
  5
5380
330
A
100
AcDbEntity
  8
0
100
AcDbLine
 10
-599.2077683199993
 20
-343.0523846700626
 30
0.0
 11
-599.2077683199993
 21
-338.2523846700626
 31
0.0
  0
LINE
  5
5381
330
A
100
AcDbEntity
  8
0
100
AcDbLine
 10
-599.2077683199993
 20
-300.8523846700626
 30
0.0
 11
-599.2077683199993
 21
-296.0523846700626
 31
0.0
  0
LINE
  5
5382
330
A
100
AcDbEntity
  8
0
100
AcDbLine
 10
-594.0577683199995
 20
-343.0523846700626
 30
0.0
 11
-599.2077683199993
 21
-343.0523846700626
 31
0.0
  0
LINE
  5
5383
330
A
100
AcDbEntity
  8
0
100
AcDbLine
 10
-599.2077683199993
 20
-296.0523846700626
 30
0.0
 11
-594.0577683199995
 21
-296.0523846700626
 31
0.0
  0
LINE
  5
5384
330
A
100
AcDbEntity
  8
0
100
AcDbLine
 10
-594.0577683199995
 20
-343.0523846700626
 30
0.0
 11
-581.7316318623994
 21
-343.0523846700626
 31
0.0
  0
LINE
  5
5385
330
A
100
AcDbEntity
  8
0
100
AcDbLine
 10
-594.0577683199995
 20
-296.0523846700626
 30
0.0
 11
-581.7316318623994
 21
-296.0523846700626
 31
0.0
  0
LINE
  5
5386
330
A
100
AcDbEntity
  8
0
100
AcDbLine
 10
-666.0577683199995
 20
-312.3523846700626
 30
0.0
 11
-666.0577683199995
 21
-313.3023846700626
 31
0.0
  0
LINE
  5
5387
330
A
100
AcDbEntity
  8
0
100
AcDbLine
 10
-503.0577683199994
 20
-312.3523846700626
 30
0.0
 11
-503.0577683199994
 21
-313.3023846700626
 31
0.0
  0
LINE
  5
5388
330
A
100
AcDbEntity
  8
0
100
AcDbLine
 10
-506.3577683199994
 20
-315.8023846700626
 30
0.0
 11
-506.3577683199994
 21
-314.8023846700626
 31
0.0
  0
LINE
  5
5389
330
A
100
AcDbEntity
  8
0
100
AcDbLine
 10
-656.3577683199994
 20
-315.8023846700626
 30
0.0
 11
-656.3577683199994
 21
-314.8023846700626
 31
0.0
  0
LINE
  5
538A
330
A
100
AcDbEntity
  8
0
  6
Continuous
 62
     8
370
     0
100
AcDbLine
 10
-661.0577683199995
 20
-313.3023846700626
 30
0.0
 11
-661.0577683199995
 21
-313.8023846700626
 31
0.0
  0
LINE
  5
538B
330
A
100
AcDbEntity
  8
0
  6
Continuous
 62
     8
370
     0
100
AcDbLine
 10
-508.0577683199994
 20
-313.3023846700626
 30
0.0
 11
-508.0577683199994
 21
-313.8023846700626
 31
0.0
  0
LINE
  5
538C
330
A
100
AcDbEntity
  8
0
  6
Continuous
 62
     8
370
     0
100
AcDbLine
 10
-662.6077683199994
 20
-324.8023846700626
 30
0.0
 11
-662.6077683199994
 21
-325.8023846700626
 31
0.0
  0
LINE
  5
538D
330
A
100
AcDbEntity
  8
0
  6
Continuous
 62
     8
370
     0
100
AcDbLine
 10
-506.6077683199994
 20
-324.8023846700626
 30
0.0
 11
-506.6077683199994
 21
-325.8023846700626
 31
0.0
  0
LINE
  5
538E
330
A
100
AcDbEntity
  8
0
  6
Continuous
 62
     8
370
     0
100
AcDbLine
 10
-506.3577683199994
 20
-324.8023846700626
 30
0.0
 11
-506.3577683199994
 21
-315.8023846700626
 31
0.0
  0
LINE
  5
538F
330
A
100
AcDbEntity
  8
0
  6
Continuous
 62
     8
370
     0
100
AcDbLine
 10
-661.0577683199995
 20
-313.8023846700626
 30
0.0
 11
-661.0577683199995
 21
-314.8023846700626
 31
0.0
  0
LINE
  5
5390
330
A
100
AcDbEntity
  8
0
  6
Continuous
 62
     8
370
     0
100
AcDbLine
 10
-508.0577683199994
 20
-313.8023846700626
 30
0.0
 11
-508.0577683199994
 21
-314.8023846700626
 31
0.0
  0
LINE
  5
5391
330
A
100
AcDbEntity
  8
0
  6
Continuous
 62
     8
370
     0
100
AcDbLine
 10
-508.0577683199994
 20
-325.8023846700626
 30
0.0
 11
-508.0577683199994
 21
-326.7523846700626
 31
0.0
  0
LINE
  5
5392
330
A
100
AcDbEntity
  8
0
  6
Continuous
 62
     8
370
     0
100
AcDbLine
 10
-661.0577683199995
 20
-325.8023846700626
 30
0.0
 11
-661.0577683199995
 21
-326.7523846700626
 31
0.0
  0
LINE
  5
5393
330
A
100
AcDbEntity
  8
0
  6
Continuous
 62
     8
370
     0
100
AcDbLine
 10
-502.4384789980994
 20
-336.7523846700626
 30
0.0
 11
-666.7770576418993
 21
-336.7523846700626
 31
0.0
  0
LINE
  5
5394
330
A
100
AcDbEntity
  8
0
  6
Continuous
 62
     8
370
     0
100
AcDbLine
 10
-667.8577683199994
 20
-336.7523846700626
 30
0.0
 11
-666.8577683199994
 21
-336.7523846700626
 31
0.0
  0
LINE
  5
5395
330
A
100
AcDbEntity
  8
0
  6
Continuous
 62
     8
370
     0
100
AcDbLine
 10
-501.3577683199994
 20
-336.7523846700626
 30
0.0
 11
-502.3577683199994
 21
-336.7523846700626
 31
0.0
  0
LINE
  5
5396
330
A
100
AcDbEntity
  8
0
  6
Continuous
 62
     8
370
     0
100
AcDbLine
 10
-666.7770576418993
 20
-302.3523846700626
 30
0.0
 11
-502.4384789980994
 21
-302.3523846700626
 31
0.0
  0
LINE
  5
5397
330
A
100
AcDbEntity
  8
0
  6
Continuous
 62
     8
370
     0
100
AcDbLine
 10
-501.3577683199994
 20
-302.3523846700626
 30
0.0
 11
-502.3577683199994
 21
-302.3523846700626
 31
0.0
  0
LINE
  5
5398
330
A
100
AcDbEntity
  8
0
  6
Continuous
 62
     8
370
     0
100
AcDbLine
 10
-667.8577683199994
 20
-302.3523846700626
 30
0.0
 11
-666.8577683199994
 21
-302.3523846700626
 31
0.0
  0
LINE
  5
5399
330
A
100
AcDbEntity
  8
0
  6
Continuous
 62
     8
370
     0
100
AcDbLine
 10
-594.0577683199995
 20
-296.0523846700626
 30
0.0
 11
-594.0577683199995
 21
-300.8523846700626
 31
0.0
  0
LINE
  5
539A
330
A
100
AcDbEntity
  8
0
  6
Continuous
 62
     8
370
     0
100
AcDbLine
 10
-594.0577683199995
 20
-338.2523846700626
 30
0.0
 11
-594.0577683199995
 21
-343.0523846700626
 31
0.0
  0
LINE
  5
539B
330
A
100
AcDbEntity
  8
0
  6
Continuous
 62
     8
370
     0
100
AcDbLine
 10
-661.0577683199995
 20
-312.3523846700626
 30
0.0
 11
-661.0577683199995
 21
-313.3023846700626
 31
0.0
  0
LINE
  5
539C
330
A
100
AcDbEntity
  8
0
  6
Continuous
 62
     8
370
     0
100
AcDbLine
 10
-508.0577683199994
 20
-312.3523846700626
 30
0.0
 11
-508.0577683199994
 21
-313.3023846700626
 31
0.0
  0
ENDSEC
  0
SECTION
  2
OBJECTS
  0
DICTIONARY
  5
19
330
0
100
AcDbDictionary
281
     1
  3
ACAD_DETAILVIEWSTYLE
350
47CC
  3
ACAD_GROUP
350
1A
  3
ACAD_IMAGE_VARS
350
44C9
  3
ACAD_LAYOUT
350
1E
  3
ACAD_MLINESTYLE
350
1B
  3
ACAD_PLOTSETTINGS
350
22
  3
ACAD_PLOTSTYLENAME
350
1F
  3
ACAD_SCALELIST
350
2312
  3
ACAD_SECTIONVIEWSTYLE
350
47CD
  3
ACAD_WIPEOUT_VARS
350
23
  3
AcDbVariableDictionary
350
4443
  3
APPDATA
350
44C8
  3
ASE_INDEX_DICTIONARY
350
443E
  3
DWGPROPS
350
539D
  0
DICTIONARY
  5
4441
330
14
100
AcDbDictionary
280
     1
281
     1
  3
ADSK_XREC_LAYER_RECONCILED
360
4442
  0
DICTIONARY
  5
233E
330
A
100
AcDbDictionary
280
     1
281
     1
  3
ACAD_SORTENTS
360
233F
  0
DICTIONARY
  5
47CC
102
{ACAD_REACTORS
330
19
102
}
330
19
100
AcDbDictionary
281
     1
  0
DICTIONARY
  5
1A
102
{ACAD_REACTORS
330
19
102
}
330
19
100
AcDbDictionary
281
     1
  0
RASTERVARIABLES
  5
44C9
102
{ACAD_REACTORS
330
19
102
}
330
19
100
AcDbRasterVariables
 90
        0
 70
     1
 71
     1
 72
     0
  0
DICTIONARY
  5
1E
102
{ACAD_REACTORS
330
19
102
}
330
19
100
AcDbDictionary
281
     1
  3
Layout1
350
21
  3
Model
350
20
  0
DICTIONARY
  5
1B
102
{ACAD_REACTORS
330
19
102
}
330
19
100
AcDbDictionary
281
     1
  3
Standard
350
1C
  0
DICTIONARY
  5
22
102
{ACAD_REACTORS
330
19
102
}
330
19
100
AcDbDictionary
281
     1
  0
ACDBDICTIONARYWDFLT
  5
1F
102
{ACAD_REACTORS
330
19
102
}
330
19
100
AcDbDictionary
281
     1
  3
Normal
350
1D
100
AcDbDictionaryWithDefault
340
1D
  0
DICTIONARY
  5
2312
102
{ACAD_REACTORS
330
19
102
}
330
19
100
AcDbDictionary
281
     1
  3
A0
350
2313
  3
A1
350
2314
  3
A2
350
2315
  3
A3
350
2316
  3
A4
350
2317
  3
A5
350
2318
  3
A6
350
2319
  3
A7
350
231A
  3
A8
350
231B
  3
A9
350
231C
  3
B0
350
231D
  3
B1
350
231E
  3
B2
350
231F
  3
B3
350
2320
  3
B4
350
2321
  3
B5
350
2322
  3
B6
350
2323
  3
B7
350
2324
  3
B8
350
2325
  3
B9
350
2326
  3
C0
350
2327
  3
C1
350
2328
  3
C2
350
2329
  3
C3
350
232A
  3
C4
350
232B
  3
C5
350
232C
  3
C6
350
232D
  3
C7
350
232E
  3
C8
350
232F
  3
C9
350
2330
  3
D0
350
2331
  3
D1
350
2332
  3
D2
350
2333
  0
DICTIONARY
  5
47CD
102
{ACAD_REACTORS
330
19
102
}
330
19
100
AcDbDictionary
281
     1
  0
WIPEOUTVARIABLES
  5
23
330
19
100
AcDbWipeoutVariables
 70
     1
  0
DICTIONARY
  5
4443
102
{ACAD_REACTORS
330
19
102
}
330
19
100
AcDbDictionary
281
     1
  3
DIMASSOC
350
4449
  3
INDEXCTL
350
4448
  3
SORTENTS
350
4447
  0
DICTIONARY
  5
44C8
102
{ACAD_REACTORS
330
19
102
}
330
19
100
AcDbDictionary
281
     1
  0
DICTIONARY
  5
443E
102
{ACAD_REACTORS
330
19
102
}
330
19
100
AcDbDictionary
281
     1
  3
ASEBlockHierarchyIndexRecord
350
4440
1001
DCO15
1040
1686558972.246
  0
XRECORD
  5
539D
102
{ACAD_REACTORS
330
19
102
}
330
19
100
AcDbXrecord
280
     1
  1
DWGPROPS COOKIE
  2

  3

  4

  6

  7

  8
raffaele
  9

300
=
301
=
302
=
303
=
304
=
305
=
306
=
307
=
308
=
309
=
 40
0.0
 41
2455323.486527315
 42
2457417.385693565
  1

 90
        0
  0
XRECORD
  5
4442
102
{ACAD_REACTORS
330
4441
102
}
330
4441
100
AcDbXrecord
280
     1
290
     1
  0
SORTENTSTABLE
  5
233F
102
{ACAD_REACTORS
330
233E
102
}
330
233E
100
AcDbSortentsTable
330
A
331
0
  5
3520
331
2FB3
  5
3549
  0
LAYOUT
  5
21
102
{ACAD_REACTORS
330
1E
102
}
330
1E
100
AcDbPlotSettings
  1

  2

  4

  6

 40
0.0
 41
0.0
 42
0.0
 43
0.0
 44
0.0
 45
0.0
 46
0.0
 47
0.0
 48
0.0
 49
0.0
140
0.0
141
0.0
142
1.0
143
1.0
 70
     0
 72
     0
 73
     0
 74
     0
  7

 75
     0
147
1.0
148
0.0
149
0.0
100
AcDbLayout
  1
Layout1
 70
     0
 71
     1
 10
0.0
 20
0.0
 11
12.0
 21
9.0
 12
0.0
 22
0.0
 32
0.0
 14
1.000000000000000E+20
 24
1.000000000000000E+20
 34
1.000000000000000E+20
 15
-1.000000000000000E+20
 25
-1.000000000000000E+20
 35
-1.000000000000000E+20
146
0.0
 13
0.0
 23
0.0
 33
0.0
 16
1.0
 26
0.0
 36
0.0
 17
0.0
 27
1.0
 37
0.0
 76
     0
330
B
  0
LAYOUT
  5
20
102
{ACAD_REACTORS
330
1E
102
}
330
1E
100
AcDbPlotSettings
  1

  2

  4

  6

 40
0.0
 41
0.0
 42
0.0
 43
0.0
 44
0.0
 45
0.0
 46
0.0
 47
0.0
 48
0.0
 49
0.0
140
0.0
141
0.0
142
1.0
143
1.0
 70
  1024
 72
     0
 73
     0
 74
     0
  7

 75
     0
147
1.0
148
0.0
149
0.0
100
AcDbLayout
  1
Model
 70
     0
 71
     0
 10
0.0
 20
0.0
 11
0.0
 21
0.0
 12
0.0
 22
0.0
 32
0.0
 14
-769.5733352608298
 24
-343.0523846700626
 34
0.0
 15
-300.5534513496661
 25
152.0108815329446
 35
0.0
146
0.0
 13
0.0
 23
0.0
 33
0.0
 16
0.0
 26
0.0
 36
0.0
 17
0.0
 27
0.0
 37
0.0
 76
     0
330
A
331
15
  0
MLINESTYLE
  5
1C
102
{ACAD_REACTORS
330
1B
102
}
330
1B
100
AcDbMlineStyle
  2
STANDARD
 70
     0
  3

 62
     0
 51
90.0
 52
90.0
 71
     2
 49
0.5
 62
   256
  6
BYLAYER
 49
-0.5
 62
   256
  6
BYLAYER
  0
ACDBPLACEHOLDER
  5
1D
102
{ACAD_REACTORS
330
1F
102
}
330
1F
  0
SCALE
  5
2313
102
{ACAD_REACTORS
330
2312
102
}
330
2312
100
AcDbScale
 70
     0
300
1:1
140
1.0
141
1.0
290
     1
  0
SCALE
  5
2314
102
{ACAD_REACTORS
330
2312
102
}
330
2312
100
AcDbScale
 70
     0
300
1:2
140
1.0
141
2.0
290
     0
  0
SCALE
  5
2315
102
{ACAD_REACTORS
330
2312
102
}
330
2312
100
AcDbScale
 70
     0
300
1:4
140
1.0
141
4.0
290
     0
  0
SCALE
  5
2316
102
{ACAD_REACTORS
330
2312
102
}
330
2312
100
AcDbScale
 70
     0
300
1:5
140
1.0
141
5.0
290
     0
  0
SCALE
  5
2317
102
{ACAD_REACTORS
330
2312
102
}
330
2312
100
AcDbScale
 70
     0
300
1:8
140
1.0
141
8.0
290
     0
  0
SCALE
  5
2318
102
{ACAD_REACTORS
330
2312
102
}
330
2312
100
AcDbScale
 70
     0
300
1:10
140
1.0
141
10.0
290
     0
  0
SCALE
  5
2319
102
{ACAD_REACTORS
330
2312
102
}
330
2312
100
AcDbScale
 70
     0
300
1:16
140
1.0
141
16.0
290
     0
  0
SCALE
  5
231A
102
{ACAD_REACTORS
330
2312
102
}
330
2312
100
AcDbScale
 70
     0
300
1:20
140
1.0
141
20.0
290
     0
  0
SCALE
  5
231B
102
{ACAD_REACTORS
330
2312
102
}
330
2312
100
AcDbScale
 70
     0
300
1:30
140
1.0
141
30.0
290
     0
  0
SCALE
  5
231C
102
{ACAD_REACTORS
330
2312
102
}
330
2312
100
AcDbScale
 70
     0
300
1:40
140
1.0
141
40.0
290
     0
  0
SCALE
  5
231D
102
{ACAD_REACTORS
330
2312
102
}
330
2312
100
AcDbScale
 70
     0
300
1:50
140
1.0
141
50.0
290
     0
  0
SCALE
  5
231E
102
{ACAD_REACTORS
330
2312
102
}
330
2312
100
AcDbScale
 70
     0
300
1:100
140
1.0
141
100.0
290
     0
  0
SCALE
  5
231F
102
{ACAD_REACTORS
330
2312
102
}
330
2312
100
AcDbScale
 70
     0
300
2:1
140
2.0
141
1.0
290
     0
  0
SCALE
  5
2320
102
{ACAD_REACTORS
330
2312
102
}
330
2312
100
AcDbScale
 70
     0
300
4:1
140
4.0
141
1.0
290
     0
  0
SCALE
  5
2321
102
{ACAD_REACTORS
330
2312
102
}
330
2312
100
AcDbScale
 70
     0
300
8:1
140
8.0
141
1.0
290
     0
  0
SCALE
  5
2322
102
{ACAD_REACTORS
330
2312
102
}
330
2312
100
AcDbScale
 70
     0
300
10:1
140
10.0
141
1.0
290
     0
  0
SCALE
  5
2323
102
{ACAD_REACTORS
330
2312
102
}
330
2312
100
AcDbScale
 70
     0
300
100:1
140
100.0
141
1.0
290
     0
  0
SCALE
  5
2324
102
{ACAD_REACTORS
330
2312
102
}
330
2312
100
AcDbScale
 70
     0
300
1/128" = 1'-0"
140
0.0078125
141
12.0
290
     0
  0
SCALE
  5
2325
102
{ACAD_REACTORS
330
2312
102
}
330
2312
100
AcDbScale
 70
     0
300
1/64" = 1'-0"
140
0.015625
141
12.0
290
     0
  0
SCALE
  5
2326
102
{ACAD_REACTORS
330
2312
102
}
330
2312
100
AcDbScale
 70
     0
300
1/32" = 1'-0"
140
0.03125
141
12.0
290
     0
  0
SCALE
  5
2327
102
{ACAD_REACTORS
330
2312
102
}
330
2312
100
AcDbScale
 70
     0
300
1/16" = 1'-0"
140
0.0625
141
12.0
290
     0
  0
SCALE
  5
2328
102
{ACAD_REACTORS
330
2312
102
}
330
2312
100
AcDbScale
 70
     0
300
3/32" = 1'-0"
140
0.09375
141
12.0
290
     0
  0
SCALE
  5
2329
102
{ACAD_REACTORS
330
2312
102
}
330
2312
100
AcDbScale
 70
     0
300
1/8" = 1'-0"
140
0.125
141
12.0
290
     0
  0
SCALE
  5
232A
102
{ACAD_REACTORS
330
2312
102
}
330
2312
100
AcDbScale
 70
     0
300
3/16" = 1'-0"
140
0.1875
141
12.0
290
     0
  0
SCALE
  5
232B
102
{ACAD_REACTORS
330
2312
102
}
330
2312
100
AcDbScale
 70
     0
300
1/4" = 1'-0"
140
0.25
141
12.0
290
     0
  0
SCALE
  5
232C
102
{ACAD_REACTORS
330
2312
102
}
330
2312
100
AcDbScale
 70
     0
300
3/8" = 1'-0"
140
0.375
141
12.0
290
     0
  0
SCALE
  5
232D
102
{ACAD_REACTORS
330
2312
102
}
330
2312
100
AcDbScale
 70
     0
300
1/2" = 1'-0"
140
0.5
141
12.0
290
     0
  0
SCALE
  5
232E
102
{ACAD_REACTORS
330
2312
102
}
330
2312
100
AcDbScale
 70
     0
300
3/4" = 1'-0"
140
0.75
141
12.0
290
     0
  0
SCALE
  5
232F
102
{ACAD_REACTORS
330
2312
102
}
330
2312
100
AcDbScale
 70
     0
300
1" = 1'-0"
140
1.0
141
12.0
290
     0
  0
SCALE
  5
2330
102
{ACAD_REACTORS
330
2312
102
}
330
2312
100
AcDbScale
 70
     0
300
1-1/2" = 1'-0"
140
1.5
141
12.0
290
     0
  0
SCALE
  5
2331
102
{ACAD_REACTORS
330
2312
102
}
330
2312
100
AcDbScale
 70
     0
300
3" = 1'-0"
140
3.0
141
12.0
290
     0
  0
SCALE
  5
2332
102
{ACAD_REACTORS
330
2312
102
}
330
2312
100
AcDbScale
 70
     0
300
6" = 1'-0"
140
6.0
141
12.0
290
     0
  0
SCALE
  5
2333
102
{ACAD_REACTORS
330
2312
102
}
330
2312
100
AcDbScale
 70
     0
300
1'-0" = 1'-0"
140
12.0
141
12.0
290
     0
  0
DICTIONARYVAR
  5
4449
102
{ACAD_REACTORS
330
4443
102
}
330
4443
100
DictionaryVariables
280
     0
  1
1
  0
DICTIONARYVAR
  5
4448
102
{ACAD_REACTORS
330
4443
102
}
330
4443
100
DictionaryVariables
280
     0
  1
0
  0
DICTIONARYVAR
  5
4447
102
{ACAD_REACTORS
330
4443
102
}
330
4443
100
DictionaryVariables
280
     0
  1
127
  0
XRECORD
  5
4440
102
{ACAD_REACTORS
330
443E
102
}
330
443E
100
AcDbXrecord
280
     1
  0
ENDSEC
  0
EOF
