  0
SECTION
  2
HEADER
  9
$ACADVER
  1
AC1015
  9
$ACADMAINTVER
 70
    20
  9
$DWGCODEPAGE
  3
ANSI_1252
  9
$INSBASE
 10
0.0
 20
0.0
 30
0.0
  9
$EXTMIN
 10
-72.94620404914713
 20
-158.827389401823
 30
-0.0000000000000267
  9
$EXTMAX
 10
195.6414787931735
 20
62.83931178132707
 30
0.0000000000000191
  9
$LIMMIN
 10
-20.0
 20
-575.8499999999997
  9
$LIMMAX
 10
1785.35
 20
579.8499999999997
  9
$ORTHOMODE
 70
     0
  9
$REGENMODE
 70
     1
  9
$FILLMODE
 70
     1
  9
$QTEXTMODE
 70
     0
  9
$MIRRTEXT
 70
     1
  9
$LTSCALE
 40
10.0
  9
$ATTMODE
 70
     1
  9
$TEXTSIZE
 40
0.0
  9
$TRACEWID
 40
0.05
  9
$TEXTSTYLE
  7
Standard
  9
$CLAYER
  8
0
  9
$CELTYPE
  6
Continuous
  9
$CECOLOR
 62
   256
  9
$CELTSCALE
 40
1.0
  9
$DISPSILH
 70
     0
  9
$DIMSCALE
 40
1.0
  9
$DIMASZ
 40
1.25
  9
$DIMEXO
 40
0.0
  9
$DIMDLI
 40
0.38
  9
$DIMRND
 40
0.0
  9
$DIMDLE
 40
0.0
  9
$DIMEXE
 40
0.75
  9
$DIMTP
 40
0.0
  9
$DIMTM
 40
0.0
  9
$DIMTXT
 40
2.5
  9
$DIMCEN
 40
0.09
  9
$DIMTSZ
 40
0.0
  9
$DIMTOL
 70
     0
  9
$DIMLIM
 70
     0
  9
$DIMTIH
 70
     0
  9
$DIMTOH
 70
     0
  9
$DIMSE1
 70
     0
  9
$DIMSE2
 70
     0
  9
$DIMTAD
 70
     1
  9
$DIMZIN
 70
     0
  9
$DIMBLK
  1

  9
$DIMASO
 70
     1
  9
$DIMSHO
 70
     1
  9
$DIMPOST
  1

  9
$DIMAPOST
  1

  9
$DIMALT
 70
     0
  9
$DIMALTD
 70
     2
  9
$DIMALTF
 40
25.4
  9
$DIMLFAC
 40
1.0
  9
$DIMTOFL
 70
     0
  9
$DIMTVP
 40
0.0
  9
$DIMTIX
 70
     0
  9
$DIMSOXD
 70
     0
  9
$DIMSAH
 70
     0
  9
$DIMBLK1
  1

  9
$DIMBLK2
  1

  9
$DIMSTYLE
  2
Standard
  9
$DIMCLRD
 70
     7
  9
$DIMCLRE
 70
     7
  9
$DIMCLRT
 70
     7
  9
$DIMTFAC
 40
0.8
  9
$DIMGAP
 40
1.25
  9
$DIMJUST
 70
     0
  9
$DIMSD1
 70
     0
  9
$DIMSD2
 70
     0
  9
$DIMTOLJ
 70
     1
  9
$DIMTZIN
 70
     0
  9
$DIMALTZ
 70
     0
  9
$DIMALTTZ
 70
     0
  9
$DIMUPT
 70
     0
  9
$DIMDEC
 70
     2
  9
$DIMTDEC
 70
     4
  9
$DIMALTU
 70
     2
  9
$DIMALTTD
 70
     2
  9
$DIMTXSTY
  7
Standard
  9
$DIMAUNIT
 70
     0
  9
$DIMADEC
 70
     0
  9
$DIMALTRND
 40
0.0
  9
$DIMAZIN
 70
     0
  9
$DIMDSEP
 70
     0
  9
$DIMATFIT
 70
     3
  9
$DIMFRAC
 70
     0
  9
$DIMLDRBLK
  1

  9
$DIMLUNIT
 70
     2
  9
$DIMLWD
 70
     0
  9
$DIMLWE
 70
     0
  9
$DIMTMOVE
 70
     0
  9
$LUNITS
 70
     2
  9
$LUPREC
 70
     4
  9
$SKETCHINC
 40
0.1
  9
$FILLETRAD
 40
0.0
  9
$AUNITS
 70
     0
  9
$AUPREC
 70
     0
  9
$MENU
  1
acad
  9
$ELEVATION
 40
0.0
  9
$PELEVATION
 40
0.0
  9
$THICKNESS
 40
0.0
  9
$LIMCHECK
 70
     0
  9
$CHAMFERA
 40
0.0
  9
$CHAMFERB
 40
0.0
  9
$CHAMFERC
 40
0.0
  9
$CHAMFERD
 40
0.0
  9
$SKPOLY
 70
     0
  9
$TDCREATE
 40
2455301.802361111
  9
$TDUCREATE
 40
2455301.719027778
  9
$TDUPDATE
 40
2455306.363830614
  9
$TDUUPDATE
 40
2455306.280497280
  9
$TDINDWG
 40
0.1652654282
  9
$TDUSRTIMER
 40
0.1652648843
  9
$USRTIMER
 70
     1
  9
$ANGBASE
 50
0.0
  9
$ANGDIR
 70
     0
  9
$PDMODE
 70
     0
  9
$PDSIZE
 40
0.0
  9
$PLINEWID
 40
0.0
  9
$SPLFRAME
 70
     0
  9
$SPLINETYPE
 70
     6
  9
$SPLINESEGS
 70
     8
  9
$HANDSEED
  5
B847
  9
$SURFTAB1
 70
     6
  9
$SURFTAB2
 70
     6
  9
$SURFTYPE
 70
     6
  9
$SURFU
 70
     6
  9
$SURFV
 70
     6
  9
$UCSBASE
  2

  9
$UCSNAME
  2

  9
$UCSORG
 10
0.0
 20
0.0
 30
0.0
  9
$UCSXDIR
 10
1.0
 20
0.0
 30
0.0
  9
$UCSYDIR
 10
0.0
 20
1.0
 30
0.0
  9
$UCSORTHOREF
  2

  9
$UCSORTHOVIEW
 70
     0
  9
$UCSORGTOP
 10
0.0
 20
0.0
 30
0.0
  9
$UCSORGBOTTOM
 10
0.0
 20
0.0
 30
0.0
  9
$UCSORGLEFT
 10
0.0
 20
0.0
 30
0.0
  9
$UCSORGRIGHT
 10
0.0
 20
0.0
 30
0.0
  9
$UCSORGFRONT
 10
0.0
 20
0.0
 30
0.0
  9
$UCSORGBACK
 10
0.0
 20
0.0
 30
0.0
  9
$PUCSBASE
  2

  9
$PUCSNAME
  2

  9
$PUCSORG
 10
0.0
 20
0.0
 30
0.0
  9
$PUCSXDIR
 10
1.0
 20
0.0
 30
0.0
  9
$PUCSYDIR
 10
0.0
 20
1.0
 30
0.0
  9
$PUCSORTHOREF
  2

  9
$PUCSORTHOVIEW
 70
     0
  9
$PUCSORGTOP
 10
0.0
 20
0.0
 30
0.0
  9
$PUCSORGBOTTOM
 10
0.0
 20
0.0
 30
0.0
  9
$PUCSORGLEFT
 10
0.0
 20
0.0
 30
0.0
  9
$PUCSORGRIGHT
 10
0.0
 20
0.0
 30
0.0
  9
$PUCSORGFRONT
 10
0.0
 20
0.0
 30
0.0
  9
$PUCSORGBACK
 10
0.0
 20
0.0
 30
0.0
  9
$USERI1
 70
     0
  9
$USERI2
 70
     0
  9
$USERI3
 70
     0
  9
$USERI4
 70
     0
  9
$USERI5
 70
     0
  9
$USERR1
 40
0.0
  9
$USERR2
 40
0.0
  9
$USERR3
 40
0.0
  9
$USERR4
 40
0.0
  9
$USERR5
 40
0.0
  9
$WORLDVIEW
 70
     1
  9
$SHADEDGE
 70
     3
  9
$SHADEDIF
 70
    70
  9
$TILEMODE
 70
     1
  9
$MAXACTVP
 70
    16
  9
$PINSBASE
 10
0.0
 20
0.0
 30
0.0
  9
$PLIMCHECK
 70
     0
  9
$PEXTMIN
 10
1.000000000000000E+20
 20
1.000000000000000E+20
 30
1.000000000000000E+20
  9
$PEXTMAX
 10
-1.000000000000000E+20
 20
-1.000000000000000E+20
 30
-1.000000000000000E+20
  9
$PLIMMIN
 10
0.0
 20
0.0
  9
$PLIMMAX
 10
12.0
 20
9.0
  9
$UNITMODE
 70
     0
  9
$VISRETAIN
 70
     0
  9
$PLINEGEN
 70
     1
  9
$PSLTSCALE
 70
     0
  9
$TREEDEPTH
 70
  3020
  9
$CMLSTYLE
  2
Standard
  9
$CMLJUST
 70
     0
  9
$CMLSCALE
 40
1.0
  9
$PROXYGRAPHICS
 70
     0
  9
$MEASUREMENT
 70
     1
  9
$CELWEIGHT
370
     0
  9
$ENDCAPS
280
     0
  9
$JOINSTYLE
280
     0
  9
$LWDISPLAY
290
     0
  9
$INSUNITS
 70
     0
  9
$HYPERLINKBASE
  1

  9
$STYLESHEET
  1

  9
$XEDIT
290
     1
  9
$CEPSNTYPE
380
     0
  9
$PSTYLEMODE
290
     1
  9
$FINGERPRINTGUID
  2

  9
$VERSIONGUID
  2
{6BD6459D-F634-42E2-AD1F-01A4870F8140}
  9
$EXTNAMES
290
     1
  9
$PSVPSCALE
 40
0.0
  9
$OLESTARTUP
290
     0
  0
ENDSEC
  0
SECTION
  2
CLASSES
  0
CLASS
  1
IMAGE
  2
AcDbRasterImage
  3
ISM
 90
    34943
280
     0
281
     1
  0
CLASS
  1
DICTIONARYVAR
  2
AcDbDictionaryVar
  3
ObjectDBX Classes
 90
        0
280
     0
281
     0
  0
CLASS
  1
RASTERVARIABLES
  2
AcDbRasterVariables
  3
ISM
 90
    32768
280
     0
281
     0
  0
CLASS
  1
IMAGEDEF
  2
AcDbRasterImageDef
  3
ISM
 90
    32768
280
     0
281
     0
  0
CLASS
  1
IMAGEDEF_REACTOR
  2
AcDbRasterImageDefReactor
  3
ISM
 90
    32769
280
     0
281
     0
  0
CLASS
  1
IDBUFFER
  2
AcDbIdBuffer
  3
ObjectDBX Classes
 90
    32768
280
     0
281
     0
  0
CLASS
  1
SPATIAL_FILTER
  2
AcDbSpatialFilter
  3
ObjectDBX Classes
 90
    32768
280
     0
281
     0
  0
CLASS
  1
SORTENTSTABLE
  2
AcDbSortentsTable
  3
ObjectDBX Classes
 90
        0
280
     0
281
     0
  0
CLASS
  1
LAYER_INDEX
  2
AcDbLayerIndex
  3
ObjectDBX Classes
 90
    32768
280
     0
281
     0
  0
CLASS
  1
SPATIAL_INDEX
  2
AcDbSpatialIndex
  3
ObjectDBX Classes
 90
    32768
280
     0
281
     0
  0
CLASS
  1
OBJECT_PTR
  2
CAseDLPNTableRecord
  3
ASE-LPNTableRecord
 90
    32769
280
     0
281
     0
  0
CLASS
  1
LAYOUT
  2
AcDbLayout
  3
ObjectDBX Classes
 90
        0
280
     0
281
     0
  0
CLASS
  1
PLOTSETTINGS
  2
AcDbPlotSettings
  3
ObjectDBX Classes
 90
    32768
280
     0
281
     0
  0
CLASS
  1
ACDBDICTIONARYWDFLT
  2
AcDbDictionaryWithDefault
  3
ObjectDBX Classes
 90
        0
280
     0
281
     0
  0
CLASS
  1
ACDBPLACEHOLDER
  2
AcDbPlaceHolder
  3
ObjectDBX Classes
 90
        0
280
     0
281
     0
  0
CLASS
  1
VBA_PROJECT
  2
AcDbVbaProject
  3
acad
 90
    32768
280
     0
281
     0
  0
CLASS
  1
WIPEOUT
  2
AcDbWipeout
  3
"WipeOut|Product Desc: Object Enabler for WipeOut entity                        |Company: Autodesk, Inc.                        |WEB Address: www.autodesk.com"
 90
    34943
280
     0
281
     1
  0
CLASS
  1
WIPEOUTVARIABLES
  2
AcDbWipeoutVariables
  3
"WipeOut|Product Desc:     WipeOut Dbx Application|Company:          Autodesk, Inc.|WEB Address:      www.autodesk.com"
 90
        0
280
     0
281
     0
  0
CLASS
  1
RTEXT
  2
RText
  3
RText|AutoCAD Express Tool|expresstools@autodesk.com
 90
    35839
280
     0
281
     1
  0
CLASS
  1
ARCALIGNEDTEXT
  2
AcDbArcAlignedText
  3
ATEXT|AutoCAD Express Tool|expresstools@autodesk.com
 90
    32768
280
     0
281
     1
  0
CLASS
  1
MATERIAL
  2
AcDbMaterial
  3
ObjectDBX Classes
 90
     1153
280
     0
281
     0
  0
CLASS
  1
VISUALSTYLE
  2
AcDbVisualStyle
  3
ObjectDBX Classes
 90
     4095
280
     0
281
     0
  0
CLASS
  1
TABLESTYLE
  2
AcDbTableStyle
  3
ObjectDBX Classes
 90
     4095
280
     0
281
     0
  0
CLASS
  1
SCALE
  2
AcDbScale
  3
ObjectDBX Classes
 90
     1153
280
     0
281
     0
  0
CLASS
  1
MLEADERSTYLE
  2
AcDbMLeaderStyle
  3
ACDB_MLEADERSTYLE_CLASS
 90
     4095
280
     0
281
     0
  0
CLASS
  1
CELLSTYLEMAP
  2
AcDbCellStyleMap
  3
ObjectDBX Classes
 90
     1152
280
     0
281
     0
  0
ENDSEC
  0
SECTION
  2
TABLES
  0
TABLE
  2
VPORT
  5
7
330
0
100
AcDbSymbolTable
 70
     1
  0
VPORT
  5
15
330
7
100
AcDbSymbolTableRecord
100
AcDbViewportTableRecord
  2
*ACTIVE
 70
     0
 10
0.0
 20
0.0
 11
1.0
 21
1.0
 12
61.30765839424703
 22
-47.97146387896705
 13
0.0
 23
0.0
 14
1.0
 24
1.0
 15
0.0
 25
0.0
 16
0.0
 26
0.0
 36
1.0
 17
0.0
 27
0.0
 37
0.0
 40
250.7964409365756
 41
1.611330698287219
 42
50.0
 43
0.0
 44
0.0
 50
0.0
 51
0.0
 71
     0
 72
   100
 73
     1
 74
     1
 75
     0
 76
     0
 77
     0
 78
     0
281
     0
 65
     0
110
0.0
120
0.0
130
0.0
111
1.0
121
0.0
131
0.0
112
0.0
122
1.0
132
0.0
 79
     0
146
0.0
  0
ENDTAB
  0
TABLE
  2
LTYPE
  5
4
330
0
100
AcDbSymbolTable
 70
     3
  0
LTYPE
  5
11
330
4
100
AcDbSymbolTableRecord
100
AcDbLinetypeTableRecord
  2
ByBlock
 70
     0
  3

 72
    65
 73
     0
 40
0.0
  0
LTYPE
  5
12
330
4
100
AcDbSymbolTableRecord
100
AcDbLinetypeTableRecord
  2
ByLayer
 70
     0
  3

 72
    65
 73
     0
 40
0.0
  0
LTYPE
  5
13
330
4
100
AcDbSymbolTableRecord
100
AcDbLinetypeTableRecord
  2
Continuous
 70
     0
  3
Solid line
 72
    65
 73
     0
 40
0.0
  0
LTYPE
  5
108
330
4
100
AcDbSymbolTableRecord
100
AcDbLinetypeTableRecord
  2
CENTER
 70
     0
  3
____ _ ____ _ ____ _ ____ _ ____ _ ____ _ ____
 72
    65
 73
     4
 40
2.0
 49
1.25
 74
     0
 49
-0.25
 74
     0
 49
0.25
 74
     0
 49
-0.25
 74
     0
  0
ENDTAB
  0
TABLE
  2
LAYER
  5
2
330
0
100
AcDbSymbolTable
 70
     1
  0
LAYER
  5
14
102
{ACAD_XDICTIONARY
360
5858
102
}
330
2
100
AcDbSymbolTableRecord
100
AcDbLayerTableRecord
  2
0
 70
     0
 62
     7
  6
Continuous
370
    -3
390
1D
  0
ENDTAB
  0
TABLE
  2
STYLE
  5
3
330
0
100
AcDbSymbolTable
 70
     1
  0
STYLE
  5
17
330
3
100
AcDbSymbolTableRecord
100
AcDbTextStyleTableRecord
  2
Standard
 70
     0
 40
0.0
 41
1.0
 50
0.0
 71
     0
 42
0.0
  3
I011000D.TTF
  4

1001
ACAD
1000
IsonormD
1071
        0
  0
ENDTAB
  0
TABLE
  2
VIEW
  5
5
330
0
100
AcDbSymbolTable
 70
     0
  0
ENDTAB
  0
TABLE
  2
UCS
  5
6
330
0
100
AcDbSymbolTable
 70
     0
  0
ENDTAB
  0
TABLE
  2
APPID
  5
8
330
0
100
AcDbSymbolTable
 70
     5
  0
APPID
  5
16
330
8
100
AcDbSymbolTableRecord
100
AcDbRegAppTableRecord
  2
ACAD
 70
     0
  0
APPID
  5
26
330
8
100
AcDbSymbolTableRecord
100
AcDbRegAppTableRecord
  2
TopSolid'Draft
 70
     0
  0
APPID
  5
5850
330
8
100
AcDbSymbolTableRecord
100
AcDbRegAppTableRecord
  2
ACAD_MLEADERVER
 70
     0
  0
APPID
  5
5856
330
8
100
AcDbSymbolTableRecord
100
AcDbRegAppTableRecord
  2
DCO15
 70
     0
  0
APPID
  5
B631
330
8
100
AcDbSymbolTableRecord
100
AcDbRegAppTableRecord
  2
ACAD_EXEMPT_FROM_CAD_STANDARDS
 70
     0
  0
ENDTAB
  0
TABLE
  2
DIMSTYLE
  5
9
330
0
100
AcDbSymbolTable
 70
     2
100
AcDbDimStyleTable
 71
     1
340
18
  0
DIMSTYLE
105
18
330
9
100
AcDbSymbolTableRecord
100
AcDbDimStyleTableRecord
  2
Standard
 70
     0
 41
1.25
 42
0.0
 44
0.75
 73
     0
 74
     0
 77
     1
140
2.5
146
0.8
147
1.25
176
     7
177
     7
178
     7
271
     2
340
17
  0
ENDTAB
  0
TABLE
  2
BLOCK_RECORD
  5
1
330
0
100
AcDbSymbolTable
 70
     2
  0
BLOCK_RECORD
  5
A
102
{ACAD_XDICTIONARY
360
5864
102
}
330
1
100
AcDbSymbolTableRecord
100
AcDbBlockTableRecord
  2
*MODEL_SPACE
340
20
  0
BLOCK_RECORD
  5
B
330
1
100
AcDbSymbolTableRecord
100
AcDbBlockTableRecord
  2
*PAPER_SPACE
340
21
  0
ENDTAB
  0
ENDSEC
  0
SECTION
  2
BLOCKS
  0
BLOCK
  5
D
330
A
100
AcDbEntity
  8
0
100
AcDbBlockBegin
  2
*MODEL_SPACE
 70
     0
 10
0.0
 20
0.0
 30
0.0
  3
*MODEL_SPACE
  1

  0
ENDBLK
  5
E
330
A
100
AcDbEntity
  8
0
100
AcDbBlockEnd
  0
BLOCK
  5
F
330
B
100
AcDbEntity
 67
     1
  8
0
100
AcDbBlockBegin
  2
*PAPER_SPACE
 70
     0
 10
0.0
 20
0.0
 30
0.0
  3
*PAPER_SPACE
  1

  0
ENDBLK
  5
10
330
B
100
AcDbEntity
 67
     1
  8
0
100
AcDbBlockEnd
  0
ENDSEC
  0
SECTION
  2
ENTITIES
  0
LINE
  5
31E4
330
A
100
AcDbEntity
  8
0
  6
CENTER
 62
     1
100
AcDbLine
 10
-8.199999999999135
 20
0.0
 30
0.0
 11
8.199999999999818
 21
0.0
 31
0.0
  0
LINE
  5
31E5
330
A
100
AcDbEntity
  8
0
  6
CENTER
 62
     1
100
AcDbLine
 10
0.0
 20
-8.200000000000017
 30
0.0
 11
0.0
 21
8.199999999999903
 31
0.0
  0
LINE
  5
31E6
330
A
100
AcDbEntity
  8
0
  6
CENTER
 62
     1
100
AcDbLine
 10
61.79999993335673
 20
0.0000000341906912
 30
0.0
 11
78.19999993335682
 21
0.0000000341906912
 31
0.0
  0
LINE
  5
31E7
330
A
100
AcDbEntity
  8
0
  6
CENTER
 62
     1
100
AcDbLine
 10
69.99999993335677
 20
-8.199999965809297
 30
0.0
 11
69.99999993335677
 21
8.200000034190708
 31
0.0
  0
LINE
  5
31E8
330
A
100
AcDbEntity
  8
0
  6
CENTER
 62
     1
100
AcDbLine
 10
61.74999995687881
 20
-49.9999999659207
 30
0.0
 11
78.24999995687972
 21
-49.9999999659207
 31
0.0
  0
LINE
  5
31E9
330
A
100
AcDbEntity
  8
0
  6
CENTER
 62
     1
100
AcDbLine
 10
69.99999995687881
 20
-58.2499999659208
 30
0.0
 11
69.99999995687881
 21
-41.74999996592058
 31
0.0
  0
LINE
  5
31EA
330
A
100
AcDbEntity
  8
0
  6
CENTER
 62
     1
100
AcDbLine
 10
-8.249999972596015
 20
-49.99999999997999
 30
0.0
 11
8.250000027403984
 21
-49.99999999997999
 31
0.0
  0
LINE
  5
31EB
330
A
100
AcDbEntity
  8
0
  6
CENTER
 62
     1
100
AcDbLine
 10
0.0000000274039849
 20
-58.2499999999801
 30
0.0
 11
0.0000000274039849
 21
-41.7499999999799
 31
0.0
  0
LINE
  5
31EC
330
A
100
AcDbEntity
  8
0
  6
CENTER
 62
     1
100
AcDbLine
 10
29.00227759913901
 20
-86.74124999109858
 30
0.0
 11
29.00227759913901
 21
-91.24124999109858
 31
0.0
  0
LINE
  5
31ED
330
A
100
AcDbEntity
  8
0
  6
CENTER
 62
     1
100
AcDbLine
 10
17.72794045925093
 20
-98.19124998730321
 30
0.0
 11
25.27205952218583
 21
-98.19124998730321
 31
0.0
  0
LINE
  5
31EE
330
A
100
AcDbEntity
  8
0
  6
CENTER
 62
     1
100
AcDbLine
 10
21.49999999071793
 20
-101.9633095187708
 30
0.0
 11
21.49999999071793
 21
-94.4191904558356
 31
0.0
  0
LINE
  5
31EF
330
A
100
AcDbEntity
  8
0
  6
CENTER
 62
     1
100
AcDbLine
 10
43.99999993406004
 20
-98.19124999407151
 30
0.0
 11
52.99999993406004
 21
-98.19124999407151
 31
0.0
  0
LINE
  5
31F0
330
A
100
AcDbEntity
  8
0
  6
CENTER
 62
     1
100
AcDbLine
 10
48.49999993406004
 20
-102.6912499940715
 30
0.0
 11
48.49999993406004
 21
-93.6912499940715
 31
0.0
  0
LINE
  5
31F1
330
A
100
AcDbEntity
  8
0
  6
CENTER
 62
     1
100
AcDbLine
 10
69.99999993335677
 20
-91.1912499939898
 30
0.0
 11
69.99999993335677
 21
-85.44124999398979
 31
0.0
  0
LINE
  5
31F2
330
A
100
AcDbEntity
  8
0
  6
CENTER
 62
     1
100
AcDbLine
 10
-0.0000000000031832
 20
-91.19124998524181
 30
0.0
 11
-0.0000000000031832
 21
-85.4412499852418
 31
0.0
  0
LINE
  5
31F3
330
A
100
AcDbEntity
  8
0
  6
CENTER
 62
     1
100
AcDbLine
 10
116.7412499861629
 20
-13.7999999774687
 30
0.0
 11
121.2412499861639
 21
-13.7999999774687
 31
0.0
  0
LINE
  5
31F4
330
A
100
AcDbEntity
  8
0
  6
CENTER
 62
     1
100
AcDbLine
 10
121.191249980307
 20
0.0000000000001137
 30
0.0
 11
115.441249980307
 21
0.0000000000001137
 31
0.0
  0
LINE
  5
31F5
330
A
100
AcDbEntity
  8
0
  6
CENTER
 62
     1
100
AcDbLine
 10
121.191249980307
 20
-49.99999999998038
 30
0.0
 11
115.441249980307
 21
-49.99999999997942
 31
0.0
  0
LINE
  5
31F6
330
A
100
AcDbEntity
  8
0
  6
CENTER
 62
     1
100
AcDbLine
 10
29.00227759913901
 20
41.7412500251165
 30
0.0
 11
29.00227759913901
 21
46.24125002511649
 31
0.0
  0
LINE
  5
31F7
330
A
100
AcDbEntity
  8
0
  6
CENTER
 62
     1
100
AcDbLine
 10
17.00000002658407
 20
53.19125001925138
 30
0.0
 11
26.00000002658408
 21
53.19125001925138
 31
0.0
  0
LINE
  5
31F8
330
A
100
AcDbEntity
  8
0
  6
CENTER
 62
     1
100
AcDbLine
 10
21.50000002658408
 20
48.69125001925138
 30
0.0
 11
21.50000002658408
 21
57.69125001925138
 31
0.0
  0
LINE
  5
31F9
330
A
100
AcDbEntity
  8
0
  6
CENTER
 62
     1
100
AcDbLine
 10
44.74999995599296
 20
53.19125003035421
 30
0.0
 11
52.24999995599296
 21
53.19125003035421
 31
0.0
  0
LINE
  5
31FA
330
A
100
AcDbEntity
  8
0
  6
CENTER
 62
     1
100
AcDbLine
 10
48.49999995599296
 20
49.44125003035421
 30
0.0
 11
48.49999995599296
 21
56.94125003035409
 31
0.0
  0
LINE
  5
31FB
330
A
100
AcDbEntity
  8
0
  6
CENTER
 62
     1
100
AcDbLine
 10
0.0000000274069407
 20
46.19125001925968
 30
0.0
 11
0.0000000273989826
 21
40.4412500192596
 31
0.0
  0
LINE
  5
31FC
330
A
100
AcDbEntity
  8
0
  6
CENTER
 62
     1
100
AcDbLine
 10
69.99999995687881
 20
46.19125003042393
 30
0.0
 11
69.99999995687881
 21
40.44125003042393
 31
0.0
  0
LINE
  5
31FD
330
A
100
AcDbEntity
  8
0
  6
CENTER
 62
     1
100
AcDbLine
 10
-51.7412500300511
 20
-13.7999999774687
 30
0.0
 11
-56.24125003005111
 21
-13.7999999774687
 31
0.0
  0
LINE
  5
31FE
330
A
100
AcDbEntity
  8
0
  6
CENTER
 62
     1
100
AcDbLine
 10
-56.19125003535896
 20
-49.9999999659207
 30
0.0
 11
-50.44125003535896
 21
-49.9999999659207
 31
0.0
  0
LINE
  5
31FF
330
A
100
AcDbEntity
  8
0
  6
CENTER
 62
     1
100
AcDbLine
 10
-56.19125003294311
 20
0.0000000340698989
 30
0.0
 11
-50.44125003294311
 21
0.0000000340698989
 31
0.0
  0
LINE
  5
3200
330
A
100
AcDbEntity
  8
0
  6
CENTER
 62
     1
100
AcDbLine
 10
28.99999994325481
 20
-21.59999997434391
 30
0.0
 11
28.99999993502183
 21
-6.599999974343916
 31
0.0
  0
LINE
  5
3201
330
A
100
AcDbEntity
  8
0
  6
CENTER
 62
     1
100
AcDbLine
 10
21.50000003792502
 20
-49.49999998821269
 30
0.0
 11
21.49999999071793
 21
-1.749999988212607
 31
0.0
  0
LINE
  5
3202
330
A
100
AcDbEntity
  8
0
  6
CENTER
 62
     1
100
AcDbLine
 10
48.499999956578
 20
-49.49999997551358
 30
0.0
 11
48.49999993423785
 21
-1.749999975513503
 31
0.0
  0
TEXT
  5
7C63
330
A
100
AcDbEntity
  8
0
  6
Continuous
 62
     7
370
     0
100
AcDbText
 10
111.6947291142198
 20
47.50732066122558
 30
0.0
 40
10.0
  1
8505R
100
AcDbText
  0
LINE
  5
7C69
330
A
100
AcDbEntity
  8
0
  6
Continuous
 62
     9
370
     0
100
AcDbLine
 10
191.9608619789
 20
-102.1270826144555
 30
0.0
 11
192.6764037316989
 21
-101.5428452199497
 31
0.0
  0
ELLIPSE
  5
7C6A
330
A
100
AcDbEntity
  8
0
  6
Continuous
 62
     7
370
     0
100
AcDbEllipse
 10
188.7409240913
 20
-101.4698155454496
 30
0.0
 11
2.276839914933102
 21
-2.78854800958618
 31
0.0000000000000001
210
0.0
220
0.0
230
1.0
 40
0.8164965809744465
 41
0.785398163510997
 42
2.35619449030589
  0
LINE
  5
7C6B
330
A
100
AcDbEntity
  8
0
  6
Continuous
 62
     9
370
     0
100
AcDbLine
 10
188.740924091483
 20
-98.18348020026871
 30
0.0
 11
189.4564658442818
 21
-97.59924280576301
 31
0.0
  0
ELLIPSE
  5
7C6C
330
A
100
AcDbEntity
  8
0
  6
Continuous
 62
     7
370
     0
100
AcDbEllipse
 10
189.456465844099
 20
-100.8855781509438
 30
0.0
 11
2.276839914933102
 21
-2.78854800958618
 31
0.0000000000000001
210
0.0
220
0.0
230
1.0
 40
0.8164965809744465
 41
0.7853981635109976
 42
2.356194490305893
  0
ELLIPSE
  5
7C6D
330
A
100
AcDbEntity
  8
0
  6
Continuous
 62
     7
370
     0
100
AcDbEllipse
 10
161.9081083612968
 20
-95.99258997040051
 30
0.0
 11
2.276839914933102
 21
-2.78854800958618
 31
0.0
210
0.0
220
0.0
230
1.0
 40
0.8164965809744465
 41
2.356194490305889
 42
3.141592653589788
  0
LINE
  5
7C6E
330
A
100
AcDbEntity
  8
0
  6
Continuous
 62
     7
370
     0
100
AcDbLine
 10
188.740924091483
 20
-98.18348020026871
 30
0.0
 11
161.9081083614801
 21
-92.70625462521959
 31
0.0
  0
LINE
  5
7C6F
330
A
100
AcDbEntity
  8
0
  6
Continuous
 62
     7
370
     0
100
AcDbLine
 10
191.9608619761511
 20
-151.2760534434935
 30
0.0
 11
191.9608619789
 21
-102.1270826144555
 31
0.0
  0
ELLIPSE
  5
7C70
330
A
100
AcDbEntity
  8
0
  6
Continuous
 62
     7
370
     0
100
AcDbEllipse
 10
188.7409240885499
 20
-150.6187863744876
 30
0.0
 11
2.276839914933102
 21
-2.78854800958618
 31
-0.0000000000000001
210
0.0
220
0.0
230
1.0
 40
0.8164965809744465
 41
6.227514805161574
 42
6.28318530717958
  0
LINE
  5
7C71
330
A
100
AcDbEntity
  8
0
  6
Continuous
 62
     9
370
     0
100
AcDbLine
 10
191.9608619761511
 20
-151.2760534434935
 30
0.0
 11
192.6764037289497
 21
-150.6918160489877
 31
0.0
  0
LINE
  5
7C72
330
A
100
AcDbEntity
  8
0
  6
Continuous
 62
     7
370
     0
100
AcDbLine
 10
192.6764037289497
 20
-150.6918160489877
 30
0.0
 11
192.6764037303201
 21
-126.1997356293825
 31
0.0
  0
LINE
  5
7C73
330
A
100
AcDbEntity
  8
0
  6
Continuous
 62
     7
370
     0
100
AcDbLine
 10
192.6764037303201
 20
-126.1997356293825
 30
0.0
 11
192.6764037316989
 21
-101.5428452199497
 31
0.0
  0
LINE
  5
7C74
330
A
100
AcDbEntity
  8
0
  6
Continuous
 62
     9
370
     0
100
AcDbLine
 10
161.9081083614801
 20
-92.70625462521959
 30
0.0
 11
162.62365011428
 21
-92.12201723071391
 31
0.0
  0
LINE
  5
7C75
330
A
100
AcDbEntity
  8
0
  6
Continuous
 62
     7
370
     0
100
AcDbLine
 10
189.4564658442818
 20
-97.59924280576301
 30
0.0
 11
162.62365011428
 21
-92.12201723071391
 31
0.0
  0
ELLIPSE
  5
7C76
330
A
100
AcDbEntity
  8
0
  6
Continuous
 62
     7
370
     0
100
AcDbEllipse
 10
161.9081083612968
 20
-95.99258997040051
 30
0.0
 11
2.276839914933102
 21
-2.78854800958618
 31
0.0000000000000001
210
0.0
220
0.0
230
1.0
 40
0.8164965809744465
 41
3.141592653589788
 42
3.2411378583727
  0
ELLIPSE
  5
7C77
330
A
100
AcDbEntity
  8
0
  6
Continuous
 62
     7
370
     0
100
AcDbEllipse
 10
162.6236501140958
 20
-95.40835257589471
 30
0.0
 11
2.276839914933102
 21
-2.78854800958618
 31
0.0000000000000001
210
0.0
220
0.0000000000000001
230
1.0
 40
0.8164965809744465
 41
2.35619449030589
 42
3.141592653589794
  0
ELLIPSE
  5
7C78
330
A
100
AcDbEntity
  8
0
  6
Continuous
 62
     7
370
     0
100
AcDbEllipse
 10
188.7409240885499
 20
-150.6187863744876
 30
0.0
 11
2.276839914933102
 21
-2.78854800958618
 31
0.0000000000000001
210
0.0
220
0.0000000000000001
230
1.0
 40
0.8164965809744469
 41
6.28318530717958
 42
7.068583470690581
  0
ELLIPSE
  5
7C79
330
A
100
AcDbEntity
  8
0
  6
Continuous
 62
     7
370
     0
100
AcDbEllipse
 10
189.4564658413501
 20
-150.0345489799818
 30
0.0
 11
2.276839914933102
 21
-2.78854800958618
 31
0.0000000000000001
210
0.0
220
0.0000000000000001
230
1.0
 40
0.8164965809744465
 41
6.283185307179584
 42
7.068583470690588
  0
LINE
  5
7C7A
330
A
100
AcDbEntity
  8
0
  6
Continuous
 62
     9
370
     0
100
AcDbLine
 10
192.3186328431379
 20
-101.8349639155755
 30
0.0
 11
192.6764037195378
 21
-101.5428452182747
 31
0.0
  0
ELLIPSE
  5
7C7B
330
A
100
AcDbEntity
  8
0
  6
Continuous
 62
     7
370
     0
100
AcDbEllipse
 10
189.0986949555379
 20
-101.177696848116
 30
0.0
 11
2.276839915157588
 21
-2.78854800940295
 31
-0.0000000000000001
210
0.0
220
0.0
230
1.0
 40
0.8164965809476218
 41
0.7853981639158297
 42
2.356194490710727
  0
LINE
  5
7C7C
330
A
100
AcDbEntity
  8
0
  6
Continuous
 62
     9
370
     0
100
AcDbLine
 10
189.0986949541009
 20
-97.89136150271231
 30
0.0
 11
189.4564658305009
 21
-97.59924280541142
 31
0.0
  0
ELLIPSE
  5
7C7D
330
A
100
AcDbEntity
  8
0
  6
Continuous
 62
     7
370
     0
100
AcDbEllipse
 10
189.456465831938
 20
-100.8855781508151
 30
0.0
 11
2.276839915157589
 21
-2.788548009402937
 31
-0.0000000000000001
210
0.0
220
0.0
230
1.0
 40
0.8164965809476216
 41
0.7853981639158337
 42
2.356194490710731
  0
ELLIPSE
  5
7C7E
330
A
100
AcDbEntity
  8
0
  6
Continuous
 62
     7
370
     0
100
AcDbEllipse
 10
162.2658792255349
 20
-95.70047128595321
 30
0.0
 11
2.276839915157588
 21
-2.78854800940295
 31
0.0
210
0.0000000000000001
220
0.0
230
1.0
 40
0.8164965809476216
 41
2.356194490710726
 42
3.141592653589798
  0
LINE
  5
7C7F
330
A
100
AcDbEntity
  8
0
  6
Continuous
 62
     7
370
     0
100
AcDbLine
 10
189.0986949541009
 20
-97.89136150271231
 30
0.0
 11
162.2658792240977
 21
-92.4141359405494
 31
0.0
  0
LINE
  5
7C80
330
A
100
AcDbEntity
  8
0
  6
Continuous
 62
     7
370
     0
100
AcDbLine
 10
192.3186328646309
 20
-150.983934747947
 30
0.0
 11
192.3186328431379
 21
-101.8349639155755
 31
0.0
  0
LINE
  5
7C81
330
A
100
AcDbEntity
  8
0
  6
Continuous
 62
     9
370
     0
100
AcDbLine
 10
192.3186328646309
 20
-150.983934747947
 30
0.0
 11
192.6764037410298
 21
-150.6918160506462
 31
0.0
  0
LINE
  5
7C82
330
A
100
AcDbEntity
  8
0
  6
Continuous
 62
     7
370
     0
100
AcDbLine
 10
192.6764037410298
 20
-150.6918160506462
 30
0.0
 11
192.6764037303201
 21
-126.1997356293825
 31
0.0
  0
LINE
  5
7C83
330
A
100
AcDbEntity
  8
0
  6
Continuous
 62
     7
370
     0
100
AcDbLine
 10
192.6764037303201
 20
-126.1997356293825
 30
0.0
 11
192.6764037195378
 21
-101.5428452182747
 31
0.0
  0
LINE
  5
7C84
330
A
100
AcDbEntity
  8
0
  6
Continuous
 62
     9
370
     0
100
AcDbLine
 10
162.2658792240977
 20
-92.4141359405494
 30
0.0
 11
162.623650100498
 21
-92.12201724324859
 31
0.0
  0
LINE
  5
7C85
330
A
100
AcDbEntity
  8
0
  6
Continuous
 62
     7
370
     0
100
AcDbLine
 10
189.4564658305009
 20
-97.59924280541142
 30
0.0
 11
162.623650100498
 21
-92.12201724324859
 31
0.0
  0
ELLIPSE
  5
7C86
330
A
100
AcDbEntity
  8
0
  6
Continuous
 62
     7
370
     0
100
AcDbEllipse
 10
162.623650101935
 20
-95.40835258865229
 30
0.0
 11
2.276839915157588
 21
-2.78854800940295
 31
0.0
210
0.0000000000000001
220
0.0
230
1.0
 40
0.8164965809476216
 41
2.356194490710723
 42
3.14159265358979
  0
ELLIPSE
  5
7C87
330
A
100
AcDbEntity
  8
0
  6
Continuous
 62
     7
370
     0
100
AcDbEllipse
 10
189.0986949770299
 20
-150.3266676804875
 30
0.0
 11
2.276839915157589
 21
-2.788548009402937
 31
0.0
210
0.0
220
0.0
230
1.0
 40
0.8164965809476221
 41
6.283185307179584
 42
7.068583471095418
  0
ELLIPSE
  5
7C88
330
A
100
AcDbEntity
  8
0
  6
Continuous
 62
     7
370
     0
100
AcDbEllipse
 10
189.45646585343
 20
-150.0345489831867
 30
0.0
 11
2.276839915157588
 21
-2.78854800940295
 31
0.0
210
0.0
220
0.0
230
1.0
 40
0.8164965809476225
 41
0.0
 42
0.7853981639158285
  0
ELLIPSE
  5
7C89
330
A
100
AcDbEntity
  8
0
  6
Continuous
 62
     7
370
     0
100
AcDbEllipse
 10
149.0283568044369
 20
-108.5171791290092
 30
0.0
 11
-2.399999999999957
 21
-0.0000000012906898
 31
0.0000000000000002
210
0.0000000000000001
220
0.0
230
1.0
 40
0.4082482902397848
 41
0.1187166335827076
 42
2.677945044320571
  0
ELLIPSE
  5
7C8A
330
A
100
AcDbEntity
  8
0
  6
Continuous
 62
     7
370
     0
100
AcDbEllipse
 10
149.0283568044369
 20
-108.5171791290092
 30
0.0
 11
-2.399999999999957
 21
-0.0000000012906898
 31
0.0
210
0.0
220
-0.0000000000000001
230
1.0
 40
0.4082482902397848
 41
3.141592653589798
 42
3.362026235512781
  0
ELLIPSE
  5
7C8B
330
A
100
AcDbEntity
  8
0
  6
Continuous
 62
     7
370
     0
100
AcDbEllipse
 10
149.0283568044369
 20
-108.5171791290092
 30
0.0
 11
-2.399999999999957
 21
-0.0000000012906898
 31
0.0000000000000001
210
0.0
220
0.0
230
1.0
 40
0.4082482902397846
 41
2.677945044320573
 42
3.141592653589798
  0
ELLIPSE
  5
7C8C
330
A
100
AcDbEntity
  8
0
  6
Continuous
 62
     9
370
     0
100
AcDbEllipse
 10
145.0928772183567
 20
-115.0168201591315
 30
0.0
 11
8.000000000000008
 21
0.0000000079235923
 31
-0.0000000000000003
210
0.0
220
0.0
230
1.0
 40
0.4082482900966053
 41
4.551553765459455
 42
5.07177506174152
  0
ELLIPSE
  5
7C8D
330
A
100
AcDbEntity
  8
0
  6
Continuous
 62
     9
370
     0
100
AcDbEllipse
 10
143.93984979627
 20
-117.9182717414197
 30
0.0
 11
0.0528703937148212
 21
0.7982510391277009
 31
0.0
210
0.0
220
0.0
230
1.0
 40
0.1461896134690908
 41
0.5834530777944326
 42
1.996192745125434
  0
ELLIPSE
  5
7C8E
330
A
100
AcDbEntity
  8
0
  6
Continuous
 62
     9
370
     0
100
AcDbEllipse
 10
145.0928772247218
 20
-121.4434315016817
 30
0.0
 11
-8.000000000000008
 21
-0.0000000079235923
 31
0.0
210
0.0
220
0.0
230
1.0
 40
0.4082482900966044
 41
1.40996111186966
 42
2.148095980467878
  0
LINE
  5
7C8F
330
A
100
AcDbEntity
  8
0
  6
Continuous
 62
     9
370
     0
100
AcDbLine
 10
143.8117356446257
 20
-124.667266593113
 30
0.0
 11
143.8117356382611
 21
-118.2406552505628
 31
0.0
  0
ELLIPSE
  5
7C90
330
A
100
AcDbEntity
  8
0
  6
Continuous
 62
     9
370
     0
100
AcDbEllipse
 10
140.4496518563949
 20
-118.0856561733573
 30
0.0
 11
4.000000000000001
 21
0.0000000039617892
 31
0.0
210
0.0
220
0.0
230
1.0
 40
0.4082482900966049
 41
0.6783178261758894
 42
1.585562163100004
  0
ELLIPSE
  5
7C91
330
A
100
AcDbEntity
  8
0
  6
Continuous
 62
     9
370
     0
100
AcDbEllipse
 10
140.3846845357368
 20
-116.2895595161927
 30
0.0
 11
-0.3999999999999559
 21
-0.0000000003961831
 31
0.0
210
0.0
220
0.0000000000000001
230
1.0
 40
0.4082482900966099
 41
0.8060121698767868
 42
1.58556216309998
  0
ELLIPSE
  5
7C92
330
A
100
AcDbEntity
  8
0
  6
Continuous
 62
     9
370
     0
100
AcDbEllipse
 10
145.092877217633
 20
-114.2865234156599
 30
0.0
 11
-7.200000000000094
 21
-0.00000000713124
 31
-0.0000000000000001
210
0.0
220
0.0
230
1.0
 40
0.4082482900966052
 41
0.7959535694716683
 42
0.8060121698768131
  0
ELLIPSE
  5
7C93
330
A
100
AcDbEntity
  8
0
  6
Continuous
 62
     9
370
     0
100
AcDbEllipse
 10
144.0039068752749
 20
-117.7570799868481
 30
0.0
 11
1.200000000000089
 21
0.0000000011885354
 31
0.0
210
0.0
220
0.0
230
1.0
 40
0.4082482900966089
 41
3.772003772236259
 42
4.551553765459445
  0
ELLIPSE
  5
7C94
330
A
100
AcDbEntity
  8
0
  6
Continuous
 62
     9
370
     0
100
AcDbEllipse
 10
143.6807927827151
 20
-117.8533411623009
 30
0.0
 11
0.3905850045600179
 21
0.6981714361192909
 31
-0.0000000000000001
210
0.0
220
0.0000000000000001
230
1.0
 40
0.7374036551118629
 41
0.6807225727442661
 42
2.219817964158083
  0
ELLIPSE
  5
7C95
330
A
100
AcDbEntity
  8
0
  6
Continuous
 62
     9
370
     0
100
AcDbEllipse
 10
144.00390688164
 20
-124.1836913293983
 30
0.0
 11
-1.200000000000089
 21
-0.0000000011885354
 31
0.0
210
0.0
220
0.0
230
1.0
 40
0.4082482900966025
 41
0.6304111186464798
 42
1.409961111869657
  0
LINE
  5
7C96
330
A
100
AcDbEntity
  8
0
  6
Continuous
 62
     9
370
     0
100
AcDbLine
 10
143.0345646039611
 20
-124.4724748557567
 30
0.0
 11
143.034564597596
 21
-118.0458635132065
 31
0.0
  0
ELLIPSE
  5
7C97
330
A
100
AcDbEntity
  8
0
  6
Continuous
 62
     9
370
     0
100
AcDbEllipse
 10
140.4496518571179
 20
-118.815952916829
 30
0.0
 11
-3.200000000000091
 21
-0.0000000031694369
 31
0.0000000000000002
210
0.0000000000000001
220
0.0000000000000001
230
1.0
 40
0.4082482900966041
 41
3.772003772236272
 42
4.727154816689805
  0
ELLIPSE
  5
7C98
330
A
100
AcDbEntity
  8
0
  6
Continuous
 62
     9
370
     0
100
AcDbEllipse
 10
140.3905906565201
 20
-117.183137773952
 30
0.0
 11
0.0048227656073152
 21
-0.7999854629503617
 31
0.0000000000000001
210
0.0000000000000001
220
0.0000000000000001
230
1.0
 40
0.0134788129004397
 41
1.15022136148305
 42
2.721017688278374
  0
ELLIPSE
  5
7C99
330
A
100
AcDbEntity
  8
0
  6
Continuous
 62
     9
370
     0
100
AcDbEllipse
 10
140.4496518634828
 20
-125.2425642593792
 30
0.0
 11
3.200000000000091
 21
0.0000000031694369
 31
0.0
210
0.0
220
0.0
230
1.0
 40
0.4082482900966056
 41
0.6304111186464727
 42
1.585562163100008
  0
LINE
  5
7C9A
330
A
100
AcDbEntity
  8
0
  6
Continuous
 62
     9
370
     0
100
AcDbLine
 10
140.4024029030049
 20
-123.9363121450776
 30
0.0
 11
140.4024028966389
 21
-117.5097008025274
 31
0.0
  0
ELLIPSE
  5
7C9B
330
A
100
AcDbEntity
  8
0
  6
Continuous
 62
     9
370
     0
100
AcDbEllipse
 10
143.9398498026348
 20
-124.3448830839699
 30
0.0
 11
-0.0528703937148212
 21
-0.7982510391277009
 31
0.0000000000000001
210
0.0
220
0.0000000000000001
230
1.0
 40
0.1461896134690892
 41
5.1377853987152
 42
6.28318633569428
  0
ELLIPSE
  5
7C9C
330
A
100
AcDbEntity
  8
0
  6
Continuous
 62
     9
370
     0
100
AcDbEllipse
 10
140.3846845364598
 20
-117.0198562596643
 30
0.0
 11
1.200000000000089
 21
0.0000000011885354
 31
-0.0000000000000001
210
0.0000000000000001
220
0.0
230
1.0
 40
0.4082482900966057
 41
3.947604823466609
 42
4.727154816689794
  0
ELLIPSE
  5
7C9D
330
A
100
AcDbEntity
  8
0
  6
Continuous
 62
     9
370
     0
100
AcDbEllipse
 10
140.1077320257598
 20
-117.1376819126368
 30
0.0
 11
-0.2918103616402767
 21
-0.7448803345769112
 31
0.0
210
0.0
220
0.0
230
1.0
 40
0.6320547398299966
 41
3.696452084599898
 42
5.267248411394851
  0
ELLIPSE
  5
7C9E
330
A
100
AcDbEntity
  8
0
  6
Continuous
 62
     9
370
     0
100
AcDbEllipse
 10
137.898514397777
 20
-114.9005277135306
 30
0.0
 11
-0.7962637996130617
 21
0.0772266885592649
 31
0.0
210
0.0
220
-0.0000000000000001
230
1.0
 40
0.912156204711615
 41
5.757775752689522
 42
6.283185787927129
  0
ELLIPSE
  5
7C9F
330
A
100
AcDbEntity
  8
0
  6
Continuous
 62
     9
370
     0
100
AcDbEllipse
 10
145.0928772183567
 20
-115.0168201591315
 30
0.0
 11
8.000000000000008
 21
0.0000000079235923
 31
-0.0000000000000008
210
0.0000000000000001
220
0.0000000000000001
230
1.0
 40
0.4082482900966049
 41
3.141673498673508
 42
3.947604823466609
  0
ELLIPSE
  5
7CA0
330
A
100
AcDbEntity
  8
0
  6
Continuous
 62
     9
370
     0
100
AcDbEllipse
 10
140.3846845428249
 20
-123.4464676022146
 30
0.0
 11
-1.200000000000089
 21
-0.0000000011885354
 31
0.0000000000000001
210
0.0000000000000001
220
0.0000000000000001
230
1.0
 40
0.4082482900966037
 41
0.8060121698768167
 42
1.5855621631
  0
LINE
  5
7CA1
330
A
100
AcDbEntity
  8
0
  6
Continuous
 62
     9
370
     0
100
AcDbLine
 10
139.5538270107258
 20
-123.7999445611322
 30
0.0
 11
139.5538270043598
 21
-117.3733332185819
 31
0.0
  0
ELLIPSE
  5
7CA2
330
A
100
AcDbEntity
  8
0
  6
Continuous
 62
     9
370
     0
100
AcDbEllipse
 10
145.0928772247218
 20
-121.4434315016817
 30
0.0
 11
-8.000000000000008
 21
-0.0000000079235923
 31
0.0
210
0.0
220
0.0000000000000001
230
1.0
 40
0.4082482900966049
 41
6.283185307179584
 42
7.089197477056401
  0
ELLIPSE
  5
7CA3
330
A
100
AcDbEntity
  8
0
  6
Continuous
 62
     9
370
     0
100
AcDbEllipse
 10
143.6807927890811
 20
-124.2799525048511
 30
0.0
 11
-0.3905850045600178
 21
-0.6981714361192771
 31
0.0000000000000001
210
0.0000000000000001
220
0.0000000000000001
230
1.0
 40
0.7374036551118645
 41
5.361410617747853
 42
6.283190397646842
  0
ELLIPSE
  5
7CA4
330
A
100
AcDbEntity
  8
0
  6
Continuous
 62
     9
370
     0
100
AcDbEllipse
 10
140.3905906628849
 20
-123.6097491165023
 30
0.0
 11
0.0048227656073152
 21
-0.7999854629503755
 31
0.0
210
0.0000000000000001
220
0.0
230
1.0
 40
0.0134788129004406
 41
0.0002572790905639
 42
1.150221361483284
  0
ELLIPSE
  5
7CA5
330
A
100
AcDbEntity
  8
0
  6
Continuous
 62
     9
370
     0
100
AcDbEllipse
 10
140.1077320321249
 20
-123.5642932551871
 30
0.0
 11
-0.2918103616402767
 21
-0.7448803345769112
 31
0.0
210
0.0
220
0.0
230
1.0
 40
0.6320547398299932
 41
5.267248411394834
 42
6.283185250404037
  0
LINE
  5
7CA6
330
A
100
AcDbEntity
  8
0
  6
Continuous
 62
     9
370
     0
100
AcDbLine
 10
195.53857073023
 20
-99.6805885219773
 30
0.0
 11
194.1074872246309
 21
-100.8490633111803
 31
0.0
  0
ELLIPSE
  5
7CA7
330
A
100
AcDbEntity
  8
0
  6
Continuous
 62
     7
370
     0
100
AcDbEllipse
 10
190.5297784606309
 20
-100.1187665695586
 30
0.0
 11
2.529822127952829
 21
-3.098386677114386
 31
0.0
210
0.0000000000000001
220
0.0
230
1.0
 40
0.8164965809473134
 41
0.7853981639160187
 42
2.356194490710535
  0
LINE
  5
7CA8
330
A
100
AcDbEntity
  8
0
  6
Continuous
 62
     9
370
     0
100
AcDbLine
 10
190.529778459035
 20
-96.467282852444
 30
0.0
 11
191.960861964633
 21
-95.29880806324099
 31
0.0
  0
ELLIPSE
  5
7CA9
330
A
100
AcDbEntity
  8
0
  6
Continuous
 62
     7
370
     0
100
AcDbEllipse
 10
191.9608619662288
 20
-98.9502917803556
 30
0.0
 11
-2.529822127952829
 21
3.098386677114386
 31
0.0
210
0.0000000000000001
220
0.0
230
1.0
 40
0.8164965809473134
 41
3.926990817505818
 42
5.497787144300334
  0
ELLIPSE
  5
7CAA
330
A
100
AcDbEntity
  8
0
  6
Continuous
 62
     7
370
     0
100
AcDbEllipse
 10
190.5297784829861
 20
-151.2395386091627
 30
0.0
 11
2.529822127952829
 21
-3.098386677114381
 31
-0.0000000000000001
210
0.0000000000000001
220
0.0
230
1.0
 40
0.8164965809473134
 41
5.593368217085314
 42
6.283185307179397
  0
LINE
  5
7CAB
330
A
100
AcDbEntity
  8
0
  6
Continuous
 62
     7
370
     0
100
AcDbLine
 10
158.330399584468
 20
-93.1809475213064
 30
0.0
 11
158.3303995830308
 21
-89.8946121778486
 31
0.0
  0
LINE
  5
7CAC
330
A
100
AcDbEntity
  8
0
  6
Continuous
 62
     7
370
     0
100
AcDbLine
 10
158.3303995830308
 20
-89.8946121778486
 30
0.0
 11
190.529778459035
 21
-96.467282852444
 31
0.0
  0
LINE
  5
7CAD
330
A
100
AcDbEntity
  8
0
  6
Continuous
 62
     7
370
     0
100
AcDbLine
 10
194.1074872246309
 20
-100.8490633111803
 30
0.0
 11
194.107487246986
 21
-151.9698353507844
 31
0.0
  0
ELLIPSE
  5
7CAE
330
A
100
AcDbEntity
  8
0
  6
Continuous
 62
     7
370
     0
100
AcDbEllipse
 10
162.0869937869079
 20
-94.49548165952171
 30
0.0
 11
-2.02385770236235
 21
2.478709341691518
 31
0.0
210
0.0000000000000001
220
0.0
230
1.0
 40
0.8164965809473134
 41
0.0000000000001756
 42
0.5967817770625913
  0
ELLIPSE
  5
7CAF
330
A
100
AcDbEntity
  8
0
  6
Continuous
 62
     7
370
     0
100
AcDbEllipse
 10
190.350893044706
 20
-151.0204495862259
 30
0.0
 11
-2.02385770236235
 21
2.478709341691518
 31
0.0000000000000001
210
0.0000000000000001
220
0.0
230
1.0
 40
0.8164965809473134
 41
3.141592653589986
 42
3.926990817505818
  0
LINE
  5
7CB0
330
A
100
AcDbEntity
  8
0
  6
Continuous
 62
     7
370
     0
100
AcDbLine
 10
193.213060055906
 20
-151.6046869795232
 30
0.0
 11
193.213060033712
 21
-100.8490633116306
 31
0.0
  0
ELLIPSE
  5
7CB1
330
A
100
AcDbEntity
  8
0
  6
Continuous
 62
     7
370
     0
100
AcDbEllipse
 10
190.3508930225109
 20
-100.2648259183332
 30
0.0
 11
-2.02385770236235
 21
2.478709341691518
 31
-0.0000000000000001
210
0.0
220
0.0
230
1.0
 40
0.8164965809473134
 41
3.92699081750581
 42
5.497787144300327
  0
LINE
  5
7CB2
330
A
100
AcDbEntity
  8
0
  6
Continuous
 62
     7
370
     0
100
AcDbLine
 10
190.350893021234
 20
-97.34363894464159
 30
0.0
 11
162.0869937856298
 21
-91.57429468583
 31
0.0
  0
ELLIPSE
  5
7CB3
330
A
100
AcDbEntity
  8
0
  6
Continuous
 62
     7
370
     0
100
AcDbEllipse
 10
190.5297784829058
 20
-150.8743902375755
 30
0.0
 11
2.02385770236235
 21
-2.478709341691509
 31
0.0
210
0.0000000000000002
220
0.0000000000000001
230
1.0
 40
0.8164965809473134
 41
5.623114974933936
 42
6.238976734344745
  0
LINE
  5
7CB4
330
A
100
AcDbEntity
  8
0
  6
Continuous
 62
     9
370
     0
100
AcDbLine
 10
194.107487246986
 20
-151.9698353507844
 30
0.0
 11
195.5385707525838
 21
-150.8013605615814
 31
0.0
  0
LINE
  5
7CB5
330
A
100
AcDbEntity
  8
0
  6
Continuous
 62
     7
370
     0
100
AcDbLine
 10
195.5385707525838
 20
-150.8013605615814
 30
0.0
 11
195.53857073023
 21
-99.6805885219773
 31
0.0
  0
LINE
  5
7CB6
330
A
100
AcDbEntity
  8
0
  6
Continuous
 62
     7
370
     0
100
AcDbLine
 10
158.3303995830308
 20
-89.8946121778486
 30
0.0
 11
158.9919249148888
 21
-89.35447900625421
 31
0.0
  0
ELLIPSE
  5
7CB7
330
A
100
AcDbEntity
  8
0
  6
Continuous
 62
     7
370
     0
100
AcDbEllipse
 10
161.1031238751329
 20
-91.64732435985991
 30
0.0
 11
6.000000000000003
 21
0.0000000026237346
 31
-0.0000000000000001
210
0.0
220
0.0
230
1.0
 40
0.4082482902322616
 41
1.366070259622418
 42
1.930360694741978
  0
LINE
  5
7CB8
330
A
100
AcDbEntity
  8
0
  6
Continuous
 62
     7
370
     0
100
AcDbLine
 10
162.3229176060438
 20
-89.24898801884999
 30
0.0
 11
191.960861964633
 21
-95.29880806324099
 31
0.0
  0
ELLIPSE
  5
7CB9
330
A
100
AcDbEntity
  8
0
  6
Continuous
 62
     7
370
     0
100
AcDbEllipse
 10
162.0869937869079
 20
-94.49548165952171
 30
0.0
 11
-2.02385770236235
 21
2.478709341691518
 31
-0.0000000000000001
210
0.0
220
0.0
230
1.0
 40
0.8164965809473134
 41
5.497787144300517
 42
6.283185307179584
  0
ELLIPSE
  5
7CBA
330
A
100
AcDbEntity
  8
0
  6
Continuous
 62
     7
370
     0
100
AcDbEllipse
 10
162.2658792251079
 20
-94.34942231087131
 30
0.0
 11
2.02385770236235
 21
-2.478709341691502
 31
0.0
210
0.0000000000000001
220
0.0
230
1.0
 40
0.8164965809473127
 41
3.185801226196911
 42
3.801662985629064
  0
ELLIPSE
  5
7CBB
330
A
100
AcDbEntity
  8
0
  6
Continuous
 62
     7
370
     0
100
AcDbEllipse
 10
190.5297784829861
 20
-151.2395386091627
 30
0.0
 11
2.529822127952829
 21
-3.098386677114381
 31
0.0
210
0.0000000000000001
220
0.0
230
1.0
 40
0.816496580947313
 41
0.0
 42
0.7853981639158281
  0
ELLIPSE
  5
7CBC
330
A
100
AcDbEntity
  8
0
  6
Continuous
 62
     7
370
     0
100
AcDbEllipse
 10
191.9608619885839
 20
-150.0710638199597
 30
0.0
 11
-2.529822127952829
 21
3.098386677114381
 31
0.0
210
0.0000000000000001
220
0.0
230
1.0
 40
0.8164965809473134
 41
3.141592653589975
 42
3.92699081750581
  0
ELLIPSE
  5
7CBD
330
A
100
AcDbEntity
  8
0
  6
Continuous
 62
     7
370
     0
100
AcDbEllipse
 10
190.350893044706
 20
-151.0204495862259
 30
0.0
 11
-2.02385770236235
 21
2.478709341691518
 31
0.0
210
0.0000000000000001
220
0.0
230
1.0
 40
0.8164965809473137
 41
2.544810876374615
 42
3.141592653589798
  0
LINE
  5
7CBE
330
A
100
AcDbEntity
  8
0
  6
Continuous
 62
     9
370
     0
100
AcDbLine
 10
190.8875493370299
 20
-103.4781315868857
 30
0.0
 11
189.4564658314318
 21
-104.6466063760891
 31
0.0
  0
ELLIPSE
  5
7CBF
330
A
100
AcDbEntity
  8
0
  6
Continuous
 62
     7
370
     0
100
AcDbEllipse
 10
185.878757067431
 20
-103.9163096344674
 30
0.0
 11
2.529822127952829
 21
-3.098386677114386
 31
0.0000000000000001
210
0.0
220
0.0000000000000001
230
1.0
 40
0.8164965809476218
 41
0.785398163915831
 42
2.356194490710725
  0
LINE
  5
7CC0
330
A
100
AcDbEntity
  8
0
  6
Continuous
 62
     9
370
     0
100
AcDbLine
 10
185.8787570658339
 20
-100.2648259173522
 30
0.0
 11
187.3098405714329
 21
-99.0963511281487
 31
0.0
  0
ELLIPSE
  5
7CC1
330
A
100
AcDbEntity
  8
0
  6
Continuous
 62
     7
370
     0
100
AcDbEllipse
 10
187.30984057303
 20
-102.747834845264
 30
0.0
 11
-2.529822127952829
 21
3.098386677114386
 31
0.0
210
0.0000000000000001
220
0.0
230
1.0
 40
0.8164965809476218
 41
3.926990817505618
 42
5.497787144300517
  0
ELLIPSE
  5
7CC2
330
A
100
AcDbEntity
  8
0
  6
Continuous
 62
     7
370
     0
100
AcDbEllipse
 10
185.8787570897859
 20
-155.0370816740812
 30
0.0
 11
2.529822127952829
 21
-3.098386677114372
 31
0.0000000000000001
210
0.0
220
0.0000000000000001
230
0.9999999999999998
 40
0.8164965809476216
 41
5.497787144300513
 42
6.283185307179588
  0
LINE
  5
7CC3
330
A
100
AcDbEntity
  8
0
  6
Continuous
 62
     7
370
     0
100
AcDbLine
 10
156.5985836091938
 20
-152.7117750209676
 30
0.0
 11
185.8787570913821
 21
-158.6885653911965
 31
0.0
  0
LINE
  5
7CC4
330
A
100
AcDbEntity
  8
0
  6
Continuous
 62
     7
370
     0
100
AcDbLine
 10
156.5985836091938
 20
-152.7117750209676
 30
0.0
 11
156.5985836020329
 21
-136.3348705497056
 31
0.0
  0
LINE
  5
7CC5
330
A
100
AcDbEntity
  8
0
  6
Continuous
 62
     7
370
     0
100
AcDbLine
 10
168.7057550170188
 20
-138.8062365601502
 30
0.0
 11
156.598583602032
 21
-136.3348705497056
 31
0.0
  0
LINE
  5
7CC6
330
A
100
AcDbEntity
  8
0
  6
Continuous
 62
     7
370
     0
100
AcDbLine
 10
168.7057550057939
 20
-113.1363060288299
 30
0.0
 11
168.7057550170188
 21
-138.8062365601502
 31
0.0
  0
LINE
  5
7CC7
330
A
100
AcDbEntity
  8
0
  6
Continuous
 62
     7
370
     0
100
AcDbLine
 10
156.5985835908068
 20
-110.6649400183852
 30
0.0
 11
168.7057550057939
 21
-113.1363060288299
 31
0.0
  0
LINE
  5
7CC8
330
A
100
AcDbEntity
  8
0
  6
Continuous
 62
     7
370
     0
100
AcDbLine
 10
156.5985835908068
 20
-110.6649400183852
 30
0.0
 11
156.598583583645
 21
-94.28803554712329
 31
0.0
  0
LINE
  5
7CC9
330
A
100
AcDbEntity
  8
0
  6
Continuous
 62
     7
370
     0
100
AcDbLine
 10
185.8787570658339
 20
-100.2648259173522
 30
0.0
 11
156.598583583645
 21
-94.28803554712329
 31
0.0
  0
LINE
  5
7CCA
330
A
100
AcDbEntity
  8
0
  6
Continuous
 62
     7
370
     0
100
AcDbLine
 10
189.4564658314318
 20
-104.6466063760891
 30
0.0
 11
189.4564658537858
 21
-155.7673784157029
 31
0.0
  0
LINE
  5
7CCB
330
A
100
AcDbEntity
  8
0
  6
Continuous
 62
     9
370
     0
100
AcDbLine
 10
189.4564658537858
 20
-155.7673784157029
 30
0.0
 11
190.887549359385
 21
-154.5989036264994
 31
0.0
  0
LINE
  5
7CCC
330
A
100
AcDbEntity
  8
0
  6
Continuous
 62
     7
370
     0
100
AcDbLine
 10
190.887549359385
 20
-154.5989036264994
 30
0.0
 11
190.8875493370299
 21
-103.4781315868857
 31
0.0
  0
ELLIPSE
  5
7CCD
330
A
100
AcDbEntity
  8
0
  6
Continuous
 62
     7
370
     0
100
AcDbEllipse
 10
160.5664675605292
 20
-92.4506507772716
 30
0.0
 11
6.000000000000003
 21
0.0000000026237484
 31
0.0
210
0.0
220
0.0
230
1.0
 40
0.4082482902323392
 41
3.321446153204158
 42
3.989819829199548
  0
LINE
  5
7CCE
330
A
100
AcDbEntity
  8
0
  6
Continuous
 62
     7
370
     0
100
AcDbLine
 10
154.6632480999301
 20
-92.88882882517942
 30
0.0
 11
155.1104616954289
 21
-92.5236804535533
 31
0.0
  0
LINE
  5
7CCF
330
A
100
AcDbEntity
  8
0
  6
Continuous
 62
     7
370
     0
100
AcDbLine
 10
187.3098405714329
 20
-99.0963511281487
 30
0.0
 11
155.1104616954289
 21
-92.5236804535533
 31
0.0
  0
ELLIPSE
  5
7CD0
330
A
100
AcDbEntity
  8
0
  6
Continuous
 62
     7
370
     0
100
AcDbEllipse
 10
160.566467567691
 20
-108.8275552485336
 30
0.0
 11
6.000000000000003
 21
0.0000000026237484
 31
0.0
210
0.0
220
0.0
230
1.0
 40
0.4082482902323392
 41
3.321446153204158
 42
3.989819829199551
  0
LINE
  5
7CD1
330
A
100
AcDbEntity
  8
0
  6
Continuous
 62
     7
370
     0
100
AcDbLine
 10
154.663248107091
 20
-109.2657332964414
 30
0.0
 11
154.6632480999301
 21
-92.88882882517942
 31
0.0
  0
ELLIPSE
  5
7CD2
330
A
100
AcDbEntity
  8
0
  6
Continuous
 62
     7
370
     0
100
AcDbEllipse
 10
185.8787570897859
 20
-155.0370816740812
 30
0.0
 11
2.529822127952829
 21
-3.098386677114372
 31
0.0
210
0.0
220
0.0
230
0.9999999999999998
 40
0.8164965809476225
 41
0.0000000000000038
 42
0.7853981639158265
  0
ELLIPSE
  5
7CD3
330
A
100
AcDbEntity
  8
0
  6
Continuous
 62
     7
370
     0
100
AcDbEllipse
 10
187.3098405953838
 20
-153.8686068848778
 30
0.0
 11
-2.52982212795283
 21
3.098386677114393
 31
0.0000000000000001
210
0.0
220
0.0
230
1.0
 40
0.8164965809476218
 41
3.141592653589797
 42
3.926990817505629
  0
ELLIPSE
  5
7CD4
330
A
100
AcDbEntity
  8
0
  6
Continuous
 62
     7
370
     0
100
AcDbEllipse
 10
160.566467578916
 20
-134.4974857798539
 30
0.0
 11
-6.000000000000003
 21
-0.0000000026237346
 31
0.0
210
0.0
220
0.0
230
1.0
 40
0.4082482902323389
 41
0.3793892350349032
 42
0.8482271756097567
  0
LINE
  5
7CD5
330
A
100
AcDbEntity
  8
0
  6
Continuous
 62
     7
370
     0
100
AcDbLine
 10
154.6632481254778
 20
-151.3125682990237
 30
0.0
 11
154.663248118492
 21
-135.3373270285045
 31
0.0
  0
ELLIPSE
  5
7CD6
330
A
100
AcDbEntity
  8
0
  6
Continuous
 62
     7
370
     0
100
AcDbEllipse
 10
160.5664675860769
 20
-150.8743902511159
 30
0.0
 11
-6.000000000000003
 21
-0.0000000026237415
 31
0.0000000000000003
210
0.0
220
0.0
230
1.0
 40
0.4082482902323389
 41
0.1798534996143697
 42
0.8482271756097564
  0
ELLIPSE
  5
7CD7
330
A
100
AcDbEntity
  8
0
  6
Continuous
 62
     7
370
     0
100
AcDbEllipse
 10
164.4125078845097
 20
-110.3064033713105
 30
0.0
 11
4.599999999999936
 21
0.0000000024702462
 31
0.0
210
0.0
220
0.0
230
1.0
 40
0.4082482902399607
 41
3.873547068864308
 42
4.623935673155751
  0
ELLIPSE
  5
7CD8
330
A
100
AcDbEntity
  8
0
  6
Continuous
 62
     7
370
     0
100
AcDbEllipse
 10
165.1280462424938
 20
-110.4524654929503
 30
0.0
 11
7.200000000000094
 21
0.0000000038664766
 31
-0.0000000000000008
210
0.0000000000000001
220
0.0
230
1.0
 40
0.4082482902401086
 41
4.248741371164649
 42
5.182963095111134
  0
LINE
  5
7CD9
330
A
100
AcDbEntity
  8
0
  6
Continuous
 62
     7
370
     0
100
AcDbLine
 10
161.9081083548949
 20
-113.0815337689751
 30
0.0
 11
144.1356809762937
 21
-109.4537522315633
 31
0.0
  0
ELLIPSE
  5
7CDA
330
A
100
AcDbEntity
  8
0
  6
Continuous
 62
     7
370
     0
100
AcDbEllipse
 10
144.6723372908927
 20
-109.0155741855591
 30
0.0
 11
1.200000000000089
 21
0.0000000006444151
 31
0.0
210
0.0
220
0.0
230
1.0
 40
0.4082482902401086
 41
3.636186632825307
 42
4.248741371164641
  0
ELLIPSE
  5
7CDB
330
A
100
AcDbEntity
  8
0
  6
Continuous
 62
     7
370
     0
100
AcDbEllipse
 10
140.799626647296
 20
-109.8682281094855
 30
0.0
 11
-3.200000000000091
 21
-0.000000001718431
 31
0.0000000000000005
210
0.0000000000000002
220
0.0
230
1.0
 40
0.4082482902401086
 41
3.636186632825306
 42
4.786563764069247
  0
ELLIPSE
  5
7CDC
330
A
100
AcDbEntity
  8
0
  6
Continuous
 62
     7
370
     0
100
AcDbEllipse
 10
140.473556790703
 20
-108.076874876853
 30
0.0
 11
1.200000000000089
 21
0.0000000006444151
 31
0.0
210
0.0
220
0.0000000000000001
230
1.0
 40
0.4082482902401083
 41
4.003975532818119
 42
4.786563764069258
  0
ELLIPSE
  5
7CDD
330
A
100
AcDbEntity
  8
0
  6
Continuous
 62
     7
370
     0
100
AcDbEllipse
 10
144.3773354112959
 20
-106.2167443931847
 30
0.0
 11
7.200000000000094
 21
0.0000000038664766
 31
0.0000000000000001
210
0.0
220
0.0
230
1.0
 40
0.4082482902401086
 41
3.314519645280835
 42
4.003975532818106
  0
ELLIPSE
  5
7CDE
330
A
100
AcDbEntity
  8
0
  6
Continuous
 62
     7
370
     0
100
AcDbEllipse
 10
149.028356804496
 20
-108.6267236428052
 30
0.0
 11
2.839999999999951
 21
0.0000000015251134
 31
0.0
210
0.0
220
0.0
230
1.0
 40
0.4082482902401086
 41
5.819537698507633
 42
6.730891852370482
  0
ELLIPSE
  5
7CDF
330
A
100
AcDbEntity
  8
0
  6
Continuous
 62
     7
370
     0
100
AcDbEllipse
 10
165.1280462552402
 20
-134.1871096541093
 30
0.0
 11
7.200000000000094
 21
0.0000000038664766
 31
-0.0000000000000009
210
0.0000000000000001
220
0.0
230
1.0
 40
0.4082482902401086
 41
4.248741371164649
 42
5.232416470811518
  0
LINE
  5
7CE0
330
A
100
AcDbEntity
  8
0
  6
Continuous
 62
     9
370
     0
100
AcDbLine
 10
161.9081083676408
 20
-136.816177930134
 30
0.0
 11
161.9081083548949
 21
-113.0815337689751
 31
0.0
  0
LINE
  5
7CE1
330
A
100
AcDbEntity
  8
0
  6
Continuous
 62
     7
370
     0
100
AcDbLine
 10
149.4589828497101
 20
-126.424320840958
 30
0.0
 11
149.4589828453961
 21
-118.3910566633349
 31
0.0
  0
LINE
  5
7CE2
330
A
100
AcDbEntity
  8
0
  6
Continuous
 62
     7
370
     0
100
AcDbLine
 10
149.4589828453961
 20
-118.3910566633349
 30
0.0
 11
144.135680980509
 21
-117.3044422233311
 31
0.0
  0
LINE
  5
7CE3
330
A
100
AcDbEntity
  8
0
  6
Continuous
 62
     9
370
     0
100
AcDbLine
 10
144.135680980509
 20
-117.3044422233311
 30
0.0
 11
144.1356809762928
 21
-109.4537522315633
 31
0.0
  0
LINE
  5
7CE4
330
A
100
AcDbEntity
  8
0
  6
Continuous
 62
     7
370
     0
100
AcDbLine
 10
161.9081083676408
 20
-136.816177930134
 30
0.0
 11
144.1356809890389
 21
-133.1883963927221
 31
0.0
  0
LINE
  5
7CE5
330
A
100
AcDbEntity
  8
0
  6
Continuous
 62
     9
370
     0
100
AcDbLine
 10
144.1356809890389
 20
-133.1883963927221
 30
0.0
 11
144.135680984823
 21
-125.3377064009542
 31
0.0
  0
LINE
  5
7CE6
330
A
100
AcDbEntity
  8
0
  6
Continuous
 62
     7
370
     0
100
AcDbLine
 10
144.135680984823
 20
-125.3377064009542
 30
0.0
 11
149.4589828497101
 21
-126.424320840958
 31
0.0
  0
ELLIPSE
  5
7CE7
330
A
100
AcDbEntity
  8
0
  6
Continuous
 62
     7
370
     0
100
AcDbEllipse
 10
149.028356804692
 20
-108.9918720145153
 30
0.0
 11
-2.439999999999995
 21
-0.0000000013102991
 31
0.0000000000000002
210
0.0000000000000001
220
0.0000000000000001
230
1.0
 40
0.4082482902401087
 41
2.836285452462688
 42
3.141592653589786
  0
ELLIPSE
  5
7CE8
330
A
100
AcDbEntity
  8
0
  6
Continuous
 62
     7
370
     0
100
AcDbEllipse
 10
149.028356804496
 20
-108.6267236428052
 30
0.0
 11
2.839999999999951
 21
0.0000000015251134
 31
-0.0000000000000001
210
0.0
220
0.0000000000000001
230
1.0
 40
0.4082482902401086
 41
3.068045896044361
 42
3.60524026226174
  0
ELLIPSE
  5
7CE9
330
A
100
AcDbEntity
  8
0
  6
Continuous
 62
     7
370
     0
100
AcDbEllipse
 10
149.028356804496
 20
-108.6267236428052
 30
0.0
 11
2.839999999999951
 21
0.0000000015250995
 31
-0.0000000000000002
210
0.0000000000000001
220
0.0
230
1.0
 40
0.4082482902401093
 41
3.60524026226174
 42
5.819537698507633
  0
ELLIPSE
  5
7CEA
330
A
100
AcDbEntity
  8
0
  6
Continuous
 62
     7
370
     0
100
AcDbEllipse
 10
149.028356804692
 20
-108.9918720145153
 30
0.0
 11
-2.439999999999995
 21
-0.0000000013102991
 31
0.0
210
0.0
220
0.0
230
1.0
 40
0.4082482902401087
 41
6.10186553277757
 42
6.283185307179588
  0
ELLIPSE
  5
7CEB
330
A
100
AcDbEntity
  8
0
  6
Continuous
 62
     7
370
     0
100
AcDbEllipse
 10
149.028356804692
 20
-108.9918720145153
 30
0.0
 11
-2.439999999999995
 21
-0.0000000013102991
 31
0.0000000000000001
210
0.0
220
0.0
230
1.0
 40
0.4082482902401086
 41
3.141592653589786
 42
3.322912427990766
  0
ELLIPSE
  5
7CEC
330
A
100
AcDbEntity
  8
0
  6
Continuous
 62
     7
370
     0
100
AcDbEllipse
 10
149.028356804692
 20
-108.9918720145153
 30
0.0
 11
-2.439999999999995
 21
-0.000000001310313
 31
0.0000000000000002
210
0.0000000000000001
220
0.0000000000000001
230
1.0
 40
0.4082482902401087
 41
0.0000000000000021
 42
0.3053072015385036
  0
LINE
  5
7CED
330
A
100
AcDbEntity
  8
0
  6
Continuous
 62
     9
370
     0
100
AcDbLine
 10
143.6161434832188
 20
-117.0988061565797
 30
0.0
 11
143.6161434790028
 21
-109.2481161648118
 31
0.0
  0
ELLIPSE
  5
7CEE
330
A
100
AcDbEntity
  8
0
  6
Continuous
 62
     7
370
     0
100
AcDbEllipse
 10
144.6723372951089
 20
-116.866264177327
 30
0.0
 11
1.200000000000089
 21
0.0000000006444151
 31
-0.0000000000000001
210
0.0000000000000001
220
0.0
230
1.0
 40
0.4082482902401048
 41
3.636186632825307
 42
4.248741371164653
  0
LINE
  5
7CEF
330
A
100
AcDbEntity
  8
0
  6
Continuous
 62
     9
370
     0
100
AcDbLine
 10
140.5624849376258
 20
-116.4161157502479
 30
0.0
 11
140.5624849334099
 21
-108.5654257584801
 31
0.0
  0
ELLIPSE
  5
7CF0
330
A
100
AcDbEntity
  8
0
  6
Continuous
 62
     7
370
     0
100
AcDbEllipse
 10
140.7996266515119
 20
-117.7189181012534
 30
0.0
 11
-3.200000000000091
 21
-0.0000000017184448
 31
0.0000000000000002
210
0.0000000000000001
220
0.0
230
1.0
 40
0.4082482902401095
 41
3.636186632825305
 42
4.78656376406925
  0
LINE
  5
7CF1
330
A
100
AcDbEntity
  8
0
  6
Continuous
 62
     9
370
     0
100
AcDbLine
 10
139.6928010707988
 20
-116.2995909653545
 30
0.0
 11
139.692801066584
 21
-108.4489009735867
 31
0.0
  0
ELLIPSE
  5
7CF2
330
A
100
AcDbEntity
  8
0
  6
Continuous
 62
     7
370
     0
100
AcDbEllipse
 10
140.4735567949189
 20
-115.9275648686209
 30
0.0
 11
1.200000000000089
 21
0.0000000006444151
 31
-0.0000000000000001
210
0.0000000000000001
220
0.0
230
1.0
 40
0.408248290240104
 41
4.003975532818119
 42
4.78656376406925
  0
LINE
  5
7CF3
330
A
100
AcDbEntity
  8
0
  6
Continuous
 62
     7
370
     0
100
AcDbLine
 10
137.1775547675688
 20
-114.0903786013093
 30
0.0
 11
137.1775547636009
 21
-106.700639116183
 31
0.0
  0
ELLIPSE
  5
7CF4
330
A
100
AcDbEntity
  8
0
  6
Continuous
 62
     7
370
     0
100
AcDbEllipse
 10
144.3773354155121
 20
-114.0674343849526
 30
0.0
 11
7.200000000000094
 21
0.0000000038664766
 31
-0.0000000000000003
210
0.0
220
0.0
230
1.0
 40
0.4082482902401083
 41
3.149398512468542
 42
4.003975532818103
  0
ELLIPSE
  5
7CF5
330
A
100
AcDbEntity
  8
0
  6
Continuous
 62
     7
370
     0
100
AcDbEllipse
 10
144.672337299424
 20
-124.8995283549501
 30
0.0
 11
-1.200000000000089
 21
-0.0000000006444012
 31
0.0000000000000001
210
0.0000000000000001
220
-0.0000000000000001
230
1.0
 40
0.4082482902401054
 41
0.4945939792355096
 42
1.107148717574854
  0
ELLIPSE
  5
7CF6
330
A
100
AcDbEntity
  8
0
  6
Continuous
 62
     7
370
     0
100
AcDbEllipse
 10
140.7996266558268
 20
-125.7521822788765
 30
0.0
 11
3.200000000000091
 21
0.000000001718431
 31
-0.0000000000000001
210
0.0
220
0.0
230
1.0
 40
0.4082482902401092
 41
1.293065059841514
 42
1.644971110479453
  0
ELLIPSE
  5
7CF7
330
A
100
AcDbEntity
  8
0
  6
Continuous
 62
     7
370
     0
100
AcDbEllipse
 10
140.7996266558268
 20
-125.7521822788765
 30
0.0
 11
3.200000000000091
 21
0.000000001718431
 31
-0.0000000000000002
210
0.0000000000000001
220
0.0
230
1.0
 40
0.4082482902401078
 41
0.4945939792355167
 42
0.535610964151049
  0
ELLIPSE
  5
7CF8
330
A
100
AcDbEntity
  8
0
  6
Continuous
 62
     7
370
     0
100
AcDbEllipse
 10
140.473556799232
 20
-123.960829046244
 30
0.0
 11
-1.200000000000089
 21
-0.0000000006444151
 31
0.0000000000000001
210
0.0000000000000001
220
0.0
230
1.0
 40
0.4082482902401108
 41
0.8623828792283127
 42
1.644971110479456
  0
ELLIPSE
  5
7CF9
330
A
100
AcDbEntity
  8
0
  6
Continuous
 62
     7
370
     0
100
AcDbEllipse
 10
144.377335419826
 20
-122.1006985625757
 30
0.0
 11
-7.200000000000094
 21
-0.0000000038664766
 31
0.0
210
0.0
220
0.0000000000000001
230
1.0
 40
0.4082482902401086
 41
0.0078058588787564
 42
0.862382879228312
  0
ELLIPSE
  5
7CFA
330
A
100
AcDbEntity
  8
0
  6
Continuous
 62
     7
370
     0
100
AcDbEllipse
 10
138.3775182132069
 20
-122.119818742873
 30
0.0
 11
-1.200000000000089
 21
-0.0000000006444151
 31
0.0
210
0.0
220
0.0
230
1.0
 40
0.4082482902401079
 41
6.146099173511467
 42
6.290991166058342
  0
LINE
  5
7CFB
330
A
100
AcDbEntity
  8
0
  6
Continuous
 62
     9
370
     0
100
AcDbLine
 10
143.6161434917489
 20
-132.9827603259707
 30
0.0
 11
143.6161434875341
 21
-125.1320703342027
 31
0.0
  0
ELLIPSE
  5
7CFC
330
A
100
AcDbEntity
  8
0
  6
Continuous
 62
     7
370
     0
100
AcDbEllipse
 10
144.6723373036388
 20
-132.750218346718
 30
0.0
 11
1.200000000000089
 21
0.0000000006444151
 31
0.0
210
0.0
220
0.0
230
1.0
 40
0.4082482902401086
 41
3.636186632825343
 42
4.248741371164646
  0
LINE
  5
7CFD
330
A
100
AcDbEntity
  8
0
  6
Continuous
 62
     9
370
     0
100
AcDbLine
 10
140.562484946156
 20
-132.300069919639
 30
0.0
 11
140.5624849419398
 21
-124.449379927871
 31
0.0
  0
ELLIPSE
  5
7CFE
330
A
100
AcDbEntity
  8
0
  6
Continuous
 62
     7
370
     0
100
AcDbEllipse
 10
140.799626660043
 20
-133.6028722706444
 30
0.0
 11
-3.200000000000091
 21
-0.000000001718431
 31
0.0000000000000002
210
0.0000000000000001
220
0.0000000000000001
230
1.0
 40
0.4082482902401071
 41
3.636186632825307
 42
4.786563764069253
  0
LINE
  5
7CFF
330
A
100
AcDbEntity
  8
0
  6
Continuous
 62
     9
370
     0
100
AcDbLine
 10
139.6928010793301
 20
-132.1835451347455
 30
0.0
 11
139.6928010751139
 21
-124.3328551429776
 31
0.0
  0
ELLIPSE
  5
7D00
330
A
100
AcDbEntity
  8
0
  6
Continuous
 62
     7
370
     0
100
AcDbEllipse
 10
140.473556803448
 20
-131.8115190380119
 30
0.0
 11
1.200000000000089
 21
0.0000000006444151
 31
0.0
210
0.0
220
0.0000000000000001
230
1.0
 40
0.4082482902401083
 41
4.003975532818087
 42
4.786563764069247
  0
LINE
  5
7D01
330
A
100
AcDbEntity
  8
0
  6
Continuous
 62
     7
370
     0
100
AcDbLine
 10
137.1775547760987
 20
-129.9743327707003
 30
0.0
 11
137.1775547718828
 21
-122.1236427789324
 31
0.0
  0
ELLIPSE
  5
7D02
330
A
100
AcDbEntity
  8
0
  6
Continuous
 62
     7
370
     0
100
AcDbEllipse
 10
144.377335424042
 20
-129.9513885543436
 30
0.0
 11
7.200000000000094
 21
0.0000000038664766
 31
0.0000000000000001
210
0.0
220
0.0
230
1.0
 40
0.4082482902401086
 41
3.149398512468549
 42
4.003975532818103
  0
LINE
  5
7D03
330
A
100
AcDbEntity
  8
0
  6
Continuous
 62
     7
370
     0
100
AcDbLine
 10
153.321607367292
 20
-97.0880351092061
 30
0.0
 11
153.321607365762
 21
-94.23987780986699
 31
0.0
  0
ELLIPSE
  5
7D04
330
A
100
AcDbEntity
  8
0
  6
Continuous
 62
     7
370
     0
100
AcDbEllipse
 10
150.101669479691
 20
-96.43076804200161
 30
0.0
 11
2.276839915322568
 21
-2.788548009268197
 31
-0.0000000000000001
210
0.0
220
0.0
230
1.0
 40
0.8164965809278942
 41
5.958341135498317
 42
6.283185307179584
  0
ELLIPSE
  5
7D05
330
A
100
AcDbEntity
  8
0
  6
Continuous
 62
     7
370
     0
100
AcDbEllipse
 10
150.1016695030248
 20
-139.8834242755079
 30
0.0
 11
2.27683991532257
 21
-2.788548009268211
 31
-0.0000000000000001
210
0.0
220
0.0
230
1.0
 40
0.8164965809278939
 41
0.7853981639451159
 42
1.68892198084823
  0
LINE
  5
7D06
330
A
100
AcDbEntity
  8
0
  6
Continuous
 62
     7
370
     0
100
AcDbLine
 10
153.3216073921551
 20
-143.3888486420515
 30
0.0
 11
153.3216073906258
 21
-140.5406913427124
 31
0.0
  0
ELLIPSE
  5
7D07
330
A
100
AcDbEntity
  8
0
  6
Continuous
 62
     7
370
     0
100
AcDbEllipse
 10
150.101669504555
 20
-142.731581574847
 30
0.0
 11
2.276839915322568
 21
-2.788548009268184
 31
-0.0000000000000001
210
0.0
220
0.0
230
1.0
 40
0.8164965809278934
 41
5.958341135498311
 42
6.283185307179588
  0
ELLIPSE
  5
7D08
330
A
100
AcDbEntity
  8
0
  6
Continuous
 62
     7
370
     0
100
AcDbEllipse
 10
123.2688537481579
 20
-88.1053851826253
 30
0.0
 11
2.276839915322568
 21
-2.788548009268197
 31
-0.0000000000000001
210
0.0
220
0.0
230
1.0
 40
0.8164965809278937
 41
2.356194490740016
 42
3.141592653589788
  0
LINE
  5
7D09
330
A
100
AcDbEntity
  8
0
  6
Continuous
 62
     7
370
     0
100
AcDbLine
 10
150.1016694763971
 20
-90.2962753972713
 30
0.0
 11
123.2688537463939
 21
-84.81904983723408
 31
0.0
  0
ELLIPSE
  5
7D0A
330
A
100
AcDbEntity
  8
0
  6
Continuous
 62
     7
370
     0
100
AcDbEllipse
 10
150.1016694781608
 20
-93.58261074266259
 30
0.0
 11
2.276839915322568
 21
-2.788548009268197
 31
-0.0000000000000001
210
0.0
220
0.0
230
1.0
 40
0.8164965809278937
 41
0.78539816394512
 42
2.356194490740011
  0
LINE
  5
7D0B
330
A
100
AcDbEntity
  8
0
  6
Continuous
 62
     9
370
     0
100
AcDbLine
 10
153.321607365762
 20
-94.23987780986699
 30
0.0
 11
153.6793782421621
 21
-93.94775911253089
 31
0.0
  0
LINE
  5
7D0C
330
A
100
AcDbEntity
  8
0
  6
Continuous
 62
     9
370
     0
100
AcDbLine
 10
153.6793782421621
 20
-93.94775911253089
 30
0.0
 11
153.8582636803439
 21
-93.80169976387728
 31
0.0
  0
LINE
  5
7D0D
330
A
100
AcDbEntity
  8
0
  6
Continuous
 62
     9
370
     0
100
AcDbLine
 10
150.1016694763971
 20
-90.2962753972713
 30
0.0
 11
150.4594403527969
 21
-90.0041566999352
 31
0.0
  0
LINE
  5
7D0E
330
A
100
AcDbEntity
  8
0
  6
Continuous
 62
     9
370
     0
100
AcDbLine
 10
150.4594403527969
 20
-90.0041566999352
 30
0.0
 11
150.8172112291961
 21
-89.712038002599
 31
0.0
  0
ELLIPSE
  5
7D0F
330
A
100
AcDbEntity
  8
0
  6
Continuous
 62
     7
370
     0
100
AcDbEllipse
 10
150.817211230961
 20
-92.99837334799029
 30
0.0
 11
2.276839915322568
 21
-2.788548009268197
 31
0.0
210
0.0
220
0.0
230
1.0
 40
0.8164965809278937
 41
1.137066823487695
 42
2.356194490740019
  0
LINE
  5
7D10
330
A
100
AcDbEntity
  8
0
  6
Continuous
 62
     9
370
     0
100
AcDbLine
 10
153.321607367292
 20
-97.0880351092061
 30
0.0
 11
153.6793782436909
 21
-96.79591641187
 31
0.0
  0
LINE
  5
7D11
330
A
100
AcDbEntity
  8
0
  6
Continuous
 62
     9
370
     0
100
AcDbLine
 10
153.6793782436909
 20
-96.79591641187
 30
0.0
 11
153.858263681873
 21
-96.64985706321651
 31
0.0
  0
LINE
  5
7D12
330
A
100
AcDbEntity
  8
0
  6
Continuous
 62
     9
370
     0
100
AcDbLine
 10
123.2688537463939
 20
-84.81904983723408
 30
0.0
 11
123.6266246227937
 21
-84.52693113989791
 31
0.0
  0
LINE
  5
7D13
330
A
100
AcDbEntity
  8
0
  6
Continuous
 62
     9
370
     0
100
AcDbLine
 10
123.6266246227928
 20
-84.52693113989791
 30
0.0
 11
123.9843954991929
 21
-84.23481244256169
 31
0.0
  0
LINE
  5
7D14
330
A
100
AcDbEntity
  8
0
  6
Continuous
 62
     7
370
     0
100
AcDbLine
 10
150.8172112291961
 20
-89.712038002599
 30
0.0
 11
123.9843954991929
 21
-84.23481244256169
 31
0.0
  0
ELLIPSE
  5
7D15
330
A
100
AcDbEntity
  8
0
  6
Continuous
 62
     7
370
     0
100
AcDbEllipse
 10
150.101669479691
 20
-96.43076804200161
 30
0.0
 11
2.276839915322568
 21
-2.788548009268197
 31
-0.0000000000000001
210
0.0
220
0.0
230
1.0
 40
0.8164965809278937
 41
6.283185307179584
 42
7.068583471124706
  0
ELLIPSE
  5
7D16
330
A
100
AcDbEntity
  8
0
  6
Continuous
 62
     7
370
     0
100
AcDbEllipse
 10
150.8172112324898
 20
-95.84653064732931
 30
0.0
 11
2.276839915322568
 21
-2.788548009268197
 31
-0.0000000000000001
210
0.0
220
0.0
230
1.0
 40
0.8164965809278937
 41
6.283185307179584
 42
6.703823077376292
  0
ELLIPSE
  5
7D17
330
A
100
AcDbEntity
  8
0
  6
Continuous
 62
     7
370
     0
100
AcDbEllipse
 10
123.2688537481579
 20
-88.1053851826253
 30
0.0
 11
2.276839915322568
 21
-2.788548009268197
 31
-0.0000000000000001
210
0.0
220
0.0
230
1.0
 40
0.8164965809278937
 41
3.141592653589788
 42
3.241137852331541
  0
ELLIPSE
  5
7D18
330
A
100
AcDbEntity
  8
0
  6
Continuous
 62
     7
370
     0
100
AcDbEllipse
 10
123.9843955009578
 20
-87.521147787953
 30
0.0
 11
2.276839915322568
 21
-2.788548009268197
 31
-0.0000000000000001
210
0.0
220
0.0
230
1.0
 40
0.8164965809278937
 41
2.356194490740016
 42
3.14159265358979
  0
LINE
  5
7D19
330
A
100
AcDbEntity
  8
0
  6
Continuous
 62
     9
370
     0
100
AcDbLine
 10
153.3216073906258
 20
-140.5406913427124
 30
0.0
 11
153.6793782670249
 21
-140.2485726453762
 31
0.0
  0
LINE
  5
7D1A
330
A
100
AcDbEntity
  8
0
  6
Continuous
 62
     9
370
     0
100
AcDbLine
 10
153.6793782670249
 20
-140.2485726453762
 30
0.0
 11
153.8582637052079
 21
-140.1025132967227
 31
0.0
  0
ELLIPSE
  5
7D1B
330
A
100
AcDbEntity
  8
0
  6
Continuous
 62
     7
370
     0
100
AcDbEllipse
 10
150.8172112558247
 20
-139.2991868808356
 30
0.0
 11
2.276839915322568
 21
-2.788548009268197
 31
-0.0000000000000002
210
0.0000000000000001
220
0.0
230
1.0
 40
0.8164965809278934
 41
1.150158559563076
 42
1.688921980848224
  0
LINE
  5
7D1C
330
A
100
AcDbEntity
  8
0
  6
Continuous
 62
     9
370
     0
100
AcDbLine
 10
153.3216073921551
 20
-143.3888486420515
 30
0.0
 11
153.6793782685549
 21
-143.0967299447153
 31
0.0
  0
LINE
  5
7D1D
330
A
100
AcDbEntity
  8
0
  6
Continuous
 62
     9
370
     0
100
AcDbLine
 10
153.6793782685549
 20
-143.0967299447153
 30
0.0
 11
153.858263706737
 21
-142.9506705960617
 31
0.0
  0
ELLIPSE
  5
7D1E
330
A
100
AcDbEntity
  8
0
  6
Continuous
 62
     7
370
     0
100
AcDbEllipse
 10
150.101669504555
 20
-142.731581574847
 30
0.0
 11
2.276839915322568
 21
-2.788548009268184
 31
-0.0000000000000001
210
0.0
220
0.0
230
1.0
 40
0.8164965809278939
 41
0.0000000000000017
 42
0.7853981639451209
  0
ELLIPSE
  5
7D1F
330
A
100
AcDbEntity
  8
0
  6
Continuous
 62
     7
370
     0
100
AcDbEllipse
 10
150.817211257354
 20
-142.1473441801747
 30
0.0
 11
2.276839915322568
 21
-2.788548009268197
 31
-0.0000000000000001
210
0.0000000000000001
220
0.0
230
1.0
 40
0.8164965809278937
 41
0.0000000000000045
 42
0.4337295030747672
  0
LINE
  5
7D20
330
A
100
AcDbEntity
  8
0
  6
Continuous
 62
     7
370
     0
100
AcDbLine
 10
153.6793782436909
 20
-96.79591641187
 30
0.0
 11
153.6793782421621
 21
-93.94775911253089
 31
0.0
  0
ELLIPSE
  5
7D21
330
A
100
AcDbEntity
  8
0
  6
Continuous
 62
     7
370
     0
100
AcDbEllipse
 10
150.4594403794249
 20
-139.5913055781718
 30
0.0
 11
2.27683991532257
 21
-2.788548009268211
 31
0.0
210
0.0000000000000001
220
0.0000000000000001
230
1.0
 40
0.8164965809278939
 41
0.7853981639451171
 42
1.688921980848224
  0
LINE
  5
7D22
330
A
100
AcDbEntity
  8
0
  6
Continuous
 62
     7
370
     0
100
AcDbLine
 10
153.6793782685549
 20
-143.0967299447153
 30
0.0
 11
153.6793782670249
 21
-140.2485726453762
 31
0.0
  0
ELLIPSE
  5
7D23
330
A
100
AcDbEntity
  8
0
  6
Continuous
 62
     7
370
     0
100
AcDbEllipse
 10
123.6266246245579
 20
-87.81326648528908
 30
0.0
 11
2.276839915322568
 21
-2.788548009268197
 31
-0.0000000000000001
210
0.0
220
0.0
230
1.0
 40
0.8164965809278937
 41
2.356194490740016
 42
3.141592653589788
  0
LINE
  5
7D24
330
A
100
AcDbEntity
  8
0
  6
Continuous
 62
     7
370
     0
100
AcDbLine
 10
150.4594403527969
 20
-90.0041566999352
 30
0.0
 11
123.6266246227928
 21
-84.52693113989791
 31
0.0
  0
ELLIPSE
  5
7D25
330
A
100
AcDbEntity
  8
0
  6
Continuous
 62
     7
370
     0
100
AcDbEllipse
 10
150.4594403545611
 20
-93.29049204532642
 30
0.0
 11
2.276839915322568
 21
-2.788548009268197
 31
0.0
210
0.0000000000000001
220
0.0000000000000001
230
1.0
 40
0.8164965809278937
 41
0.7853981639451212
 42
2.356194490740019
  0
LINE
  5
7D26
330
A
100
AcDbEntity
  8
0
  6
Continuous
 62
     9
370
     0
100
AcDbLine
 10
153.6793782421621
 20
-93.94775911253089
 30
0.0
 11
153.8582636803439
 21
-93.80169976387728
 31
0.0
  0
LINE
  5
7D27
330
A
100
AcDbEntity
  8
0
  6
Continuous
 62
     9
370
     0
100
AcDbLine
 10
150.4594403527969
 20
-90.0041566999352
 30
0.0
 11
150.8172112291961
 21
-89.712038002599
 31
0.0
  0
ELLIPSE
  5
7D28
330
A
100
AcDbEntity
  8
0
  6
Continuous
 62
     7
370
     0
100
AcDbEllipse
 10
150.817211230961
 20
-92.9983733479902
 30
0.0
 11
2.276839915322568
 21
-2.788548009268197
 31
-0.0000000000000001
210
0.0000000000000001
220
0.0
230
1.0
 40
0.8164965809278934
 41
1.13706682342696
 42
2.356194490740021
  0
LINE
  5
7D29
330
A
100
AcDbEntity
  8
0
  6
Continuous
 62
     9
370
     0
100
AcDbLine
 10
153.6793782436909
 20
-96.79591641187
 30
0.0
 11
153.858263681873
 21
-96.6498570632163
 31
0.0
  0
LINE
  5
7D2A
330
A
100
AcDbEntity
  8
0
  6
Continuous
 62
     9
370
     0
100
AcDbLine
 10
123.6266246227928
 20
-84.52693113989791
 30
0.0
 11
123.9843954991929
 21
-84.23481244256169
 31
0.0
  0
LINE
  5
7D2B
330
A
100
AcDbEntity
  8
0
  6
Continuous
 62
     7
370
     0
100
AcDbLine
 10
150.8172112291961
 20
-89.712038002599
 30
0.0
 11
123.9843954991929
 21
-84.23481244256169
 31
0.0
  0
ELLIPSE
  5
7D2C
330
A
100
AcDbEntity
  8
0
  6
Continuous
 62
     7
370
     0
100
AcDbEllipse
 10
150.45944035609
 20
-96.13864934466549
 30
0.0
 11
2.276839915322568
 21
-2.788548009268197
 31
0.0
210
0.0
220
0.0
230
1.0
 40
0.8164965809278937
 41
6.283185307179584
 42
7.068583471124707
  0
ELLIPSE
  5
7D2D
330
A
100
AcDbEntity
  8
0
  6
Continuous
 62
     7
370
     0
100
AcDbEllipse
 10
150.8172112324898
 20
-95.84653064732931
 30
0.0
 11
2.276839915322568
 21
-2.788548009268197
 31
-0.0000000000000001
210
0.0
220
0.0
230
1.0
 40
0.8164965809278937
 41
0.0
 42
0.4206377701683623
  0
ELLIPSE
  5
7D2E
330
A
100
AcDbEntity
  8
0
  6
Continuous
 62
     7
370
     0
100
AcDbEllipse
 10
123.9843955009578
 20
-87.521147787953
 30
0.0
 11
2.276839915322568
 21
-2.788548009268197
 31
-0.0000000000000001
210
0.0
220
0.0
230
1.0
 40
0.8164965809278937
 41
2.356194490740016
 42
3.141592653589794
  0
LINE
  5
7D2F
330
A
100
AcDbEntity
  8
0
  6
Continuous
 62
     9
370
     0
100
AcDbLine
 10
153.6793782670249
 20
-140.2485726453762
 30
0.0
 11
153.8582637052079
 21
-140.1025132967227
 31
0.0
  0
ELLIPSE
  5
7D30
330
A
100
AcDbEntity
  8
0
  6
Continuous
 62
     7
370
     0
100
AcDbEllipse
 10
150.8172112558247
 20
-139.2991868808356
 30
0.0
 11
2.276839915322568
 21
-2.788548009268197
 31
-0.0000000000000001
210
0.0000000000000001
220
0.0
230
1.0
 40
0.8164965809278942
 41
1.150158556392886
 42
1.688921980848225
  0
LINE
  5
7D31
330
A
100
AcDbEntity
  8
0
  6
Continuous
 62
     9
370
     0
100
AcDbLine
 10
153.6793782685549
 20
-143.0967299447153
 30
0.0
 11
153.858263706737
 21
-142.9506705960617
 31
0.0
  0
ELLIPSE
  5
7D32
330
A
100
AcDbEntity
  8
0
  6
Continuous
 62
     7
370
     0
100
AcDbEllipse
 10
150.4594403809549
 20
-142.4394628775108
 30
0.0
 11
2.276839915322568
 21
-2.788548009268197
 31
0.0
210
0.0
220
0.0
230
1.0
 40
0.8164965809278937
 41
6.283185307179584
 42
7.068583471124707
  0
ELLIPSE
  5
7D33
330
A
100
AcDbEntity
  8
0
  6
Continuous
 62
     7
370
     0
100
AcDbEllipse
 10
150.817211257354
 20
-142.1473441801747
 30
0.0
 11
2.276839915322568
 21
-2.788548009268197
 31
-0.0000000000000001
210
0.0
220
0.0
230
1.0
 40
0.8164965809278937
 41
6.283185307179584
 42
6.716914812414797
  0
ELLIPSE
  5
7D34
330
A
100
AcDbEntity
  8
0
  6
Continuous
 62
     7
370
     0
100
AcDbEllipse
 10
122.5533119947249
 20
-86.2431284876968
 30
0.0
 11
2.529822128136238
 21
-3.098386676964673
 31
-0.0000000000000001
210
0.0000000000000002
220
0.0000000000000001
230
1.0
 40
0.8164965809278941
 41
2.356194490740012
 42
3.141592653589792
  0
LINE
  5
7D35
330
A
100
AcDbEntity
  8
0
  6
Continuous
 62
     7
370
     0
100
AcDbLine
 10
122.5533119927638
 20
-82.59164477059691
 30
0.0
 11
154.7526908687548
 21
-89.16431544263891
 31
0.0
  0
LINE
  5
7D36
330
A
100
AcDbEntity
  8
0
  6
Continuous
 62
     7
370
     0
100
AcDbLine
 10
154.7526908687548
 20
-89.16431544263891
 30
0.0
 11
154.7526908707159
 21
-92.81579910865259
 31
0.0
  0
LINE
  5
7D37
330
A
100
AcDbEntity
  8
0
  6
Continuous
 62
     7
370
     0
100
AcDbLine
 10
154.6632481054548
 20
-105.5229624844809
 30
0.0
 11
154.3949200009599
 21
-105.4681902396595
 31
0.0
  0
LINE
  5
7D38
330
A
100
AcDbEntity
  8
0
  6
Continuous
 62
     7
370
     0
100
AcDbLine
 10
154.6632481238409
 20
-147.5697974860302
 30
0.0
 11
151.5327530107738
 21
-146.9307878486744
 31
0.0
  0
ELLIPSE
  5
7D39
330
A
100
AcDbEntity
  8
0
  6
Continuous
 62
     7
370
     0
100
AcDbEllipse
 10
150.9960966958708
 20
-142.9871854348773
 30
0.0
 11
-2.0238577025089
 21
2.478709341571724
 31
0.0
210
0.0
220
0.0
230
1.0
 40
0.8164965809278942
 41
3.14159265358979
 42
3.92699081753491
  0
LINE
  5
7D3A
330
A
100
AcDbEntity
  8
0
  6
Continuous
 62
     7
370
     0
100
AcDbLine
 10
153.8582637070699
 20
-143.5714228279477
 30
0.0
 11
153.8582637047179
 21
-139.1896423674278
 31
0.0
  0
ELLIPSE
  5
7D3B
330
A
100
AcDbEntity
  8
0
  6
Continuous
 62
     7
370
     0
100
AcDbEllipse
 10
150.996096693518
 20
-138.6054049743574
 30
0.0
 11
-2.0238577025089
 21
2.478709341571724
 31
-0.0000000000000001
210
0.0
220
0.0
230
1.0
 40
0.8164965809278937
 41
3.92699081753491
 42
4.712388981396077
  0
ELLIPSE
  5
7D3C
330
A
100
AcDbEntity
  8
0
  6
Continuous
 62
     7
370
     0
100
AcDbEllipse
 10
150.996096670968
 20
-96.61334222770879
 30
0.0
 11
-2.023857702509122
 21
2.478709341571724
 31
0.0
210
0.0
220
0.0
230
1.0
 40
0.8164965809278942
 41
3.141592653589788
 42
3.92699081753491
  0
LINE
  5
7D3D
330
A
100
AcDbEntity
  8
0
  6
Continuous
 62
     7
370
     0
100
AcDbLine
 10
153.858263682167
 20
-97.1975796207792
 30
0.0
 11
153.8582636798139
 21
-92.81579916025929
 31
0.0
  0
ELLIPSE
  5
7D3E
330
A
100
AcDbEntity
  8
0
  6
Continuous
 62
     7
370
     0
100
AcDbEllipse
 10
150.9960966686151
 20
-92.23156176718891
 30
0.0
 11
-2.023857702509122
 21
2.478709341571724
 31
0.0000000000000001
210
0.0000000000000002
220
0.0000000000000001
230
1.0
 40
0.8164965809278942
 41
3.926990817534912
 42
5.497787144329809
  0
LINE
  5
7D3F
330
A
100
AcDbEntity
  8
0
  6
Continuous
 62
     7
370
     0
100
AcDbLine
 10
150.996096667046
 20
-89.310374793509
 30
0.0
 11
122.732197431455
 21
-83.54103053693879
 31
0.0
  0
ELLIPSE
  5
7D40
330
A
100
AcDbEntity
  8
0
  6
Continuous
 62
     7
370
     0
100
AcDbEllipse
 10
122.7321974330229
 20
-86.46221751061871
 30
0.0
 11
-2.0238577025089
 21
2.478709341571724
 31
0.0000000000000001
210
0.0000000000000001
220
0.0
230
1.0
 40
0.8164965809278937
 41
0.0
 42
0.596781777140674
  0
ELLIPSE
  5
7D41
330
A
100
AcDbEntity
  8
0
  6
Continuous
 62
     7
370
     0
100
AcDbEllipse
 10
149.6544558800569
 20
-89.3103747935096
 30
0.0
 11
6.000000000000003
 21
0.0000000032220615
 31
-0.0000000000000003
210
0.0
220
0.0
230
1.0
 40
0.4082482902399426
 41
0.2839367404498904
 42
0.8482271755693462
  0
LINE
  5
7D42
330
A
100
AcDbEntity
  8
0
  6
Continuous
 62
     7
370
     0
100
AcDbLine
 10
155.414216200613
 20
-88.6241822709791
 30
0.0
 11
154.7526908687548
 21
-89.16431544263899
 31
0.0
  0
LINE
  5
7D43
330
A
100
AcDbEntity
  8
0
  6
Continuous
 62
     9
370
     0
100
AcDbLine
 10
123.984395498363
 20
-81.42316998125229
 30
0.0
 11
122.5533119927647
 21
-82.59164477059691
 31
0.0
  0
LINE
  5
7D44
330
A
100
AcDbEntity
  8
0
  6
Continuous
 62
     7
370
     0
100
AcDbLine
 10
123.984395498363
 20
-81.42316998125229
 30
0.0
 11
153.62233985694
 21
-87.47299002329308
 31
0.0
  0
LINE
  5
7D45
330
A
100
AcDbEntity
  8
0
  6
Continuous
 62
     7
370
     0
100
AcDbLine
 10
155.414216200613
 20
-88.6241822709791
 30
0.0
 11
155.4142162027401
 21
-92.58568408257259
 31
0.0
  0
ELLIPSE
  5
7D46
330
A
100
AcDbEntity
  8
0
  6
Continuous
 62
     7
370
     0
100
AcDbEllipse
 10
151.174982109168
 20
-96.46728287904071
 30
0.0
 11
2.023857702509123
 21
-2.478709341571738
 31
0.0
210
0.0000000000000001
220
0.0
230
1.0
 40
0.8164965809278934
 41
5.822878400345957
 42
6.238976737393898
  0
ELLIPSE
  5
7D47
330
A
100
AcDbEntity
  8
0
  6
Continuous
 62
     7
370
     0
100
AcDbEllipse
 10
151.1749821340709
 20
-142.8411260862092
 30
0.0
 11
2.0238577025089
 21
-2.478709341571724
 31
-0.0000000000000002
210
0.0000000000000002
220
0.0000000000000001
230
1.0
 40
0.8164965809278942
 41
5.762173474373311
 42
6.238976670297572
  0
ELLIPSE
  5
7D48
330
A
100
AcDbEntity
  8
0
  6
Continuous
 62
     7
370
     0
100
AcDbEllipse
 10
150.996096670968
 20
-96.61334222770879
 30
0.0
 11
-2.023857702509122
 21
2.478709341571724
 31
0.0
210
0.0
220
0.0
230
1.0
 40
0.8164965809278942
 41
2.628289542215362
 42
3.141592653589788
  0
ELLIPSE
  5
7D49
330
A
100
AcDbEntity
  8
0
  6
Continuous
 62
     7
370
     0
100
AcDbEllipse
 10
123.9843955003239
 20
-85.0746536983522
 30
0.0
 11
-2.529822128136238
 21
3.098386676964673
 31
-0.0000000000000001
210
0.0
220
0.0
230
1.0
 40
0.8164965809278941
 41
5.497787144329809
 42
6.283185307179584
  0
ELLIPSE
  5
7D4A
330
A
100
AcDbEntity
  8
0
  6
Continuous
 62
     7
370
     0
100
AcDbEllipse
 10
122.5533119947249
 20
-86.2431284876968
 30
0.0
 11
2.529822128136238
 21
-3.098386676964673
 31
0.0
210
0.0000000000000001
220
0.0000000000000001
230
1.0
 40
0.8164965809278941
 41
3.141592653589792
 42
3.83140974372006
  0
ELLIPSE
  5
7D4B
330
A
100
AcDbEntity
  8
0
  6
Continuous
 62
     7
370
     0
100
AcDbEllipse
 10
122.911082871223
 20
-86.3161581619506
 30
0.0
 11
2.0238577025089
 21
-2.478709341571724
 31
0.0
210
0.0000000000000001
220
0.0000000000000001
230
1.0
 40
0.8164965809278942
 41
3.18580122558566
 42
3.801662985709564
  0
ELLIPSE
  5
7D4C
330
A
100
AcDbEntity
  8
0
  6
Continuous
 62
     7
370
     0
100
AcDbEllipse
 10
122.7321974330229
 20
-86.46221751061871
 30
0.0
 11
-2.0238577025089
 21
2.478709341571724
 31
0.0000000000000001
210
0.0000000000000001
220
0.0
230
1.0
 40
0.8164965809278942
 41
5.497787144329806
 42
6.283185307179584
  0
ELLIPSE
  5
7D4D
330
A
100
AcDbEntity
  8
0
  6
Continuous
 62
     7
370
     0
100
AcDbEllipse
 10
150.9960966958708
 20
-142.9871854348773
 30
0.0
 11
-2.0238577025089
 21
2.478709341571724
 31
0.0
210
0.0
220
0.0
230
1.0
 40
0.8164965809278937
 41
2.544810876290825
 42
3.14159265358979
  0
ELLIPSE
  5
7D4E
330
A
100
AcDbEntity
  8
0
  6
Continuous
 62
     7
370
     0
100
AcDbEllipse
 10
135.6369929572131
 20
-112.6484678307705
 30
0.0
 11
-3.759999999999985
 21
-0.0000000031608188
 31
0.0000000000000002
210
0.0000000000000001
220
0.0
230
1.0
 40
0.408248290199638
 41
1.915869053407281
 42
1.99294768073902
  0
ELLIPSE
  5
7D4F
330
A
100
AcDbEntity
  8
0
  6
Continuous
 62
     7
370
     0
100
AcDbEllipse
 10
135.636992957397
 20
-112.8675568538008
 30
0.0
 11
4.000000000000001
 21
0.0000000033625741
 31
0.0000000000000001
210
0.0
220
0.0000000000000001
230
1.0
 40
0.408248290199638
 41
4.917484074001391
 42
5.117941302100141
  0
ELLIPSE
  5
7D50
330
A
100
AcDbEntity
  8
0
  6
Continuous
 62
     7
370
     0
100
AcDbEllipse
 10
135.636992963168
 20
-119.7323462420875
 30
0.0
 11
-4.000000000000001
 21
-0.0000000033625741
 31
0.0000000000000001
210
0.0
220
0.0
230
1.0
 40
0.4082482901996371
 41
1.727967377897835
 42
1.943324184580404
  0
ELLIPSE
  5
7D51
330
A
100
AcDbEntity
  8
0
  6
Continuous
 62
     7
370
     0
100
AcDbEllipse
 10
135.636992963352
 20
-119.951435265118
 30
0.0
 11
3.759999999999985
 21
0.0000000031608327
 31
0.0000000000000001
210
0.0
220
0.0000000000000001
230
1.0
 40
0.4082482901996375
 41
4.879683952672293
 42
5.102841931254191
  0
ELLIPSE
  5
7D52
330
A
100
AcDbEntity
  8
0
  6
Continuous
 62
     7
370
     0
100
AcDbEllipse
 10
136.2094263546607
 20
-107.25157489522
 30
0.0
 11
0.0799999997893597
 21
0.3919183588882852
 31
0.0
210
0.0
220
0.0
230
1.0
 40
0.4082482906872848
 41
0.4636476087815095
 42
2.034443935576399
  0
LINE
  5
7D53
330
A
100
AcDbEntity
  8
0
  6
Continuous
 62
     7
370
     0
100
AcDbLine
 10
136.585085775401
 20
-106.579701890722
 30
0.0
 11
136.209426354465
 21
-106.88642652351
 31
0.0
  0
LINE
  5
7D54
330
A
100
AcDbEntity
  8
0
  6
Continuous
 62
     7
370
     0
100
AcDbLine
 10
136.2094263668191
 20
-129.890773941239
 30
0.0
 11
137.1775547756297
 21
-129.1003004055452
 31
0.0
  0
ELLIPSE
  5
7D55
330
A
100
AcDbEntity
  8
0
  6
Continuous
 62
     7
370
     0
100
AcDbEllipse
 10
136.2094263666229
 20
-129.525625569529
 30
0.0
 11
0.0799999997893597
 21
0.3919183588882852
 31
0.0
210
0.0000000000000001
220
0.0
230
1.0
 40
0.4082482906872775
 41
2.034443935576379
 42
3.141592653589783
  0
LINE
  5
7D56
330
A
100
AcDbEntity
  8
0
  6
Continuous
 62
     7
370
     0
100
AcDbLine
 10
136.0305409164612
 20
-107.397634243888
 30
0.0
 11
136.0305409284231
 21
-129.671684918197
 31
0.0
  0
LINE
  5
7D57
330
A
100
AcDbEntity
  8
0
  6
Continuous
 62
     7
370
     0
100
AcDbLine
 10
136.2630919901019
 20
-114.6202690363322
 30
0.0
 11
137.1775547674519
 21
-113.8736133052389
 31
0.0
  0
LINE
  5
7D58
330
A
100
AcDbEntity
  8
0
  6
Continuous
 62
     7
370
     0
100
AcDbLine
 10
136.2630919901019
 20
-114.6202690363322
 30
0.0
 11
136.263091994102
 21
-122.0692958192159
 31
0.0
  0
LINE
  5
7D59
330
A
100
AcDbEntity
  8
0
  6
Continuous
 62
     7
370
     0
100
AcDbLine
 10
136.263091994102
 20
-122.0692958192159
 30
0.0
 11
137.0928772246709
 21
-121.3917790155517
 31
0.0
  0
LINE
  5
7D5A
330
A
100
AcDbEntity
  8
0
  6
Continuous
 62
     9
370
     0
100
AcDbLine
 10
136.0305409164612
 20
-107.397634243888
 30
0.0
 11
135.7691350331729
 21
-107.3442749915494
 31
0.0
  0
LINE
  5
7D5B
330
A
100
AcDbEntity
  8
0
  6
Continuous
 62
     9
370
     0
100
AcDbLine
 10
135.826439179348
 20
-106.8082495939687
 30
0.0
 11
136.209426354465
 21
-106.88642652351
 31
0.0
  0
LINE
  5
7D5C
330
A
100
AcDbEntity
  8
0
  6
Continuous
 62
     9
370
     0
100
AcDbLine
 10
135.7754949509089
 20
-129.619623876185
 30
0.0
 11
136.0305409284231
 21
-129.671684918197
 31
0.0
  0
ELLIPSE
  5
7D5D
330
A
100
AcDbEntity
  8
0
  6
Continuous
 62
     7
370
     0
100
AcDbEllipse
 10
136.2094263666229
 20
-129.525625569529
 30
0.0
 11
0.0799999997893597
 21
0.3919183588882852
 31
0.0
210
-0.0000000000000001
220
0.0
230
1.0
 40
0.4082482906872828
 41
3.141592653589758
 42
3.60524026237124
  0
LINE
  5
7D5E
330
A
100
AcDbEntity
  8
0
  6
Continuous
 62
     7
370
     0
100
AcDbLine
 10
147.540234958152
 20
-92.43900787800429
 30
0.0
 11
147.5402349669459
 21
-108.8159123492039
 31
0.0
  0
ELLIPSE
  5
7D5F
330
A
100
AcDbEntity
  8
0
  6
Continuous
 62
     7
370
     0
100
AcDbEllipse
 10
148.7600286890631
 20
-90.0406715368468
 30
0.0
 11
6.000000000000003
 21
0.0000000032220615
 31
-0.0000000000000004
210
0.0000000000000001
220
0.0
230
1.0
 40
0.4082482902401095
 41
4.507662913171284
 42
5.071953348290936
  0
LINE
  5
7D60
330
A
100
AcDbEntity
  8
0
  6
Continuous
 62
     7
370
     0
100
AcDbLine
 10
150.8712276581009
 20
-108.7104213615207
 30
0.0
 11
150.8712276493068
 21
-92.33351689032099
 31
0.0
  0
ELLIPSE
  5
7D61
330
A
100
AcDbEntity
  8
0
  6
Continuous
 62
     7
370
     0
100
AcDbEllipse
 10
148.7600286978579
 20
-106.4175760080465
 30
0.0
 11
6.000000000000003
 21
0.0000000032220615
 31
-0.0000000000000001
210
0.0
220
0.0000000000000001
230
1.0
 40
0.408248290240107
 41
4.507662913171284
 42
5.071953348290936
  0
LINE
  5
7D62
330
A
100
AcDbEntity
  8
0
  6
Continuous
 62
     7
370
     0
100
AcDbLine
 10
151.532752981165
 20
-91.79338371866121
 30
0.0
 11
150.8712276493068
 21
-92.33351689032099
 31
0.0
  0
LINE
  5
7D63
330
A
100
AcDbEntity
  8
0
  6
Continuous
 62
     7
370
     0
100
AcDbLine
 10
147.540234958152
 20
-92.43900787800429
 30
0.0
 11
117.9022905995659
 21
-86.38918783596169
 31
0.0
  0
LINE
  5
7D64
330
A
100
AcDbEntity
  8
0
  6
Continuous
 62
     9
370
     0
100
AcDbLine
 10
119.3333741051649
 20
-85.2207130466172
 30
0.0
 11
117.9022905995659
 21
-86.38918783596169
 31
0.0
  0
LINE
  5
7D65
330
A
100
AcDbEntity
  8
0
  6
Continuous
 62
     7
370
     0
100
AcDbLine
 10
151.532752981165
 20
-91.79338371866121
 30
0.0
 11
119.3333741051649
 21
-85.2207130466172
 31
0.0
  0
LINE
  5
7D66
330
A
100
AcDbEntity
  8
0
  6
Continuous
 62
     7
370
     0
100
AcDbLine
 10
136.553115673948
 20
-106.5731760211076
 30
0.0
 11
147.5402349669459
 21
-108.8159123492039
 31
0.0
  0
ELLIPSE
  5
7D67
330
A
100
AcDbEntity
  8
0
  6
Continuous
 62
     7
370
     0
100
AcDbEllipse
 10
136.553115674732
 20
-108.033769507948
 30
0.0
 11
-1.011928851254449
 21
1.239354670785869
 31
0.0
210
0.0
220
0.0
230
1.0
 40
0.8164965809278006
 41
0.0000000000000516
 42
0.8155313023402786
  0
ELLIPSE
  5
7D68
330
A
100
AcDbEntity
  8
0
  6
Continuous
 62
     7
370
     0
100
AcDbEllipse
 10
-233.1790157520572
 20
-43.93688620009899
 30
0.0
 11
260.5469080230289
 21
-319.1034893578132
 31
0.0
210
0.0000000000000001
220
0.0
230
0.9999999999999998
 40
0.8164965809278019
 41
0.7552650255500747
 42
0.8155313023402728
  0
ELLIPSE
  5
7D69
330
A
100
AcDbEntity
  8
0
  6
Continuous
 62
     7
370
     0
100
AcDbEllipse
 10
136.5531156869479
 20
-130.7825130654897
 30
0.0
 11
-1.01192885125445
 21
1.239354670785855
 31
-0.0000000000000001
210
0.0
220
0.0
230
0.9999999999999998
 40
0.8164965809278006
 41
0.7552650255500792
 42
2.356194490739957
  0
LINE
  5
7D6A
330
A
100
AcDbEntity
  8
0
  6
Continuous
 62
     7
370
     0
100
AcDbLine
 10
147.5402349807307
 20
-134.4858428804265
 30
0.0
 11
136.553115687733
 21
-132.2431065523302
 31
0.0
  0
LINE
  5
7D6B
330
A
100
AcDbEntity
  8
0
  6
Continuous
 62
     7
370
     0
100
AcDbLine
 10
147.5402349807307
 20
-134.4858428804265
 30
0.0
 11
147.540234989526
 21
-150.8627473516262
 31
0.0
  0
LINE
  5
7D6C
330
A
100
AcDbEntity
  8
0
  6
Continuous
 62
     7
370
     0
100
AcDbLine
 10
117.9022906309399
 20
-144.8129273095836
 30
0.0
 11
147.540234989526
 21
-150.8627473516262
 31
0.0
  0
ELLIPSE
  5
7D6D
330
A
100
AcDbEntity
  8
0
  6
Continuous
 62
     7
370
     0
100
AcDbEllipse
 10
117.9022906289799
 20
-141.1614435924823
 30
0.0
 11
2.529822128136238
 21
-3.098386676964658
 31
0.0000000000000001
210
0.0
220
0.0
230
1.0
 40
0.8164965809278006
 41
3.926990817534971
 42
5.497787144329754
  0
LINE
  5
7D6E
330
A
100
AcDbEntity
  8
0
  6
Continuous
 62
     7
370
     0
100
AcDbLine
 10
114.3245818649789
 20
-140.431146851144
 30
0.0
 11
114.3245818375271
 21
-89.3103748117249
 31
0.0
  0
ELLIPSE
  5
7D6F
330
A
100
AcDbEntity
  8
0
  6
Continuous
 62
     7
370
     0
100
AcDbEllipse
 10
117.902290601527
 20
-90.04067155306309
 30
0.0
 11
2.529822128136238
 21
-3.098386676964658
 31
0.0000000000000001
210
0.0
220
0.0
230
1.0
 40
0.8164965809278006
 41
2.356194490739961
 42
3.141592653589736
  0
LINE
  5
7D70
330
A
100
AcDbEntity
  8
0
  6
Continuous
 62
     7
370
     0
100
AcDbLine
 10
154.3949199988328
 20
-101.5063304064068
 30
0.0
 11
154.3949200011559
 21
-105.8333386111719
 31
0.0
  0
LINE
  5
7D71
330
A
100
AcDbEntity
  8
0
  6
Continuous
 62
     7
370
     0
100
AcDbLine
 10
154.3949200011559
 20
-105.8333386111719
 30
0.0
 11
150.8712276581009
 21
-108.7104213615207
 31
0.0
  0
LINE
  5
7D72
330
A
100
AcDbEntity
  8
0
  6
Continuous
 62
     7
370
     0
100
AcDbLine
 10
151.532752987636
 20
-103.8432799850958
 30
0.0
 11
151.532752981165
 21
-91.79338371866121
 31
0.0
  0
LINE
  5
7D73
330
A
100
AcDbEntity
  8
0
  6
Continuous
 62
     7
370
     0
100
AcDbLine
 10
151.532752987636
 20
-103.8432799850958
 30
0.0
 11
154.3949199988328
 21
-101.5063304064068
 31
0.0
  0
LINE
  5
7D74
330
A
100
AcDbEntity
  8
0
  6
Continuous
 62
     7
370
     0
100
AcDbLine
 10
154.3949199988328
 20
-101.5063304064068
 30
0.0
 11
151.5327529860667
 21
-100.9220930130166
 31
0.0
  0
ELLIPSE
  5
7D75
330
A
100
AcDbEntity
  8
0
  6
Continuous
 62
     7
370
     0
100
AcDbEllipse
 10
137.1971032522508
 20
-107.5079558527431
 30
0.0
 11
1.01192885125445
 21
-1.239354670785855
 31
0.0
210
0.0
220
0.0
230
0.9999999999999998
 40
0.8164965809278006
 41
3.465420792793473
 42
3.957123955930028
  0
ELLIPSE
  5
7D76
330
A
100
AcDbEntity
  8
0
  6
Continuous
 62
     7
370
     0
100
AcDbEllipse
 10
136.553115674732
 20
-108.033769507948
 30
0.0
 11
-1.011928851254449
 21
1.239354670785869
 31
-0.0000000000000001
210
0.0
220
0.0
230
1.0
 40
0.8164965809278012
 41
5.497787144329809
 42
6.283185307179584
  0
LINE
  5
7D77
330
A
100
AcDbEntity
  8
0
  6
Continuous
 62
     9
370
     0
100
AcDbLine
 10
135.7666694137399
 20
-107.2599753743551
 30
0.0
 11
135.1226818362208
 21
-107.7857890295601
 31
0.0
  0
ELLIPSE
  5
7D78
330
A
100
AcDbEntity
  8
0
  6
Continuous
 62
     7
370
     0
100
AcDbEllipse
 10
119.3333741071258
 20
-88.87219676371859
 30
0.0
 11
-2.529822128136238
 21
3.098386676964658
 31
-0.0000000000000001
210
0.0
220
0.0
230
1.0
 40
0.8164965809278012
 41
5.49778714432981
 42
6.283185307179584
  0
ELLIPSE
  5
7D79
330
A
100
AcDbEntity
  8
0
  6
Continuous
 62
     7
370
     0
100
AcDbEllipse
 10
117.902290601527
 20
-90.04067155306309
 30
0.0
 11
2.529822128136238
 21
-3.098386676964658
 31
-0.0000000000000001
210
0.0
220
0.0
230
1.0
 40
0.8164965809278006
 41
3.141592653589792
 42
3.92699081753491
  0
LINE
  5
7D7A
330
A
100
AcDbEntity
  8
0
  6
Continuous
 62
     9
370
     0
100
AcDbLine
 10
135.1226818483899
 20
-130.4465213762752
 30
0.0
 11
135.7666694259089
 21
-129.9207077210701
 31
0.0
  0
ELLIPSE
  5
7D7B
330
A
100
AcDbEntity
  8
0
  6
Continuous
 62
     7
370
     0
100
AcDbEllipse
 10
-232.535028174537
 20
-43.41107254489401
 30
0.0
 11
-260.5469080230292
 21
319.1034893578132
 31
-0.0000000000000143
210
0.0
220
0.0
230
1.0
 40
0.8164965809278012
 41
3.896857679139872
 42
3.957123955930073
  0
LINE
  5
7D7C
330
A
100
AcDbEntity
  8
0
  6
Continuous
 62
     9
370
     0
100
AcDbLine
 10
137.8454336107488
 20
-131.1879333867149
 30
0.0
 11
136.553115687733
 21
-132.2431065523302
 31
0.0
  0
ELLIPSE
  5
7D7D
330
A
100
AcDbEntity
  8
0
  6
Continuous
 62
     7
370
     0
100
AcDbEllipse
 10
148.7600287116429
 20
-132.0875065392691
 30
0.0
 11
-6.000000000000003
 21
-0.0000000032220476
 31
0.0000000000000003
210
0.0
220
0.0
230
1.0
 40
0.4082482902401054
 41
1.366070259581487
 42
1.834908197578871
  0
LINE
  5
7D7E
330
A
100
AcDbEntity
  8
0
  6
Continuous
 62
     7
370
     0
100
AcDbLine
 10
150.8712276806811
 20
-150.7572563639429
 30
0.0
 11
150.8712276719839
 21
-134.5632840982803
 31
0.0
  0
ELLIPSE
  5
7D7F
330
A
100
AcDbEntity
  8
0
  6
Continuous
 62
     7
370
     0
100
AcDbEllipse
 10
148.7600287204377
 20
-148.4644110104687
 30
0.0
 11
-6.000000000000003
 21
-0.0000000032220546
 31
0.0000000000000003
210
0.0
220
0.0
230
1.0
 40
0.4082482902401054
 41
1.366070259581487
 42
1.930360694701136
  0
LINE
  5
7D80
330
A
100
AcDbEntity
  8
0
  6
Continuous
 62
     7
370
     0
100
AcDbLine
 10
154.3949200172649
 20
-135.8302773471597
 30
0.0
 11
151.5327530060681
 21
-138.1672269258486
 31
0.0
  0
LINE
  5
7D81
330
A
100
AcDbEntity
  8
0
  6
Continuous
 62
     7
370
     0
100
AcDbLine
 10
150.8712276806811
 20
-150.7572563639429
 30
0.0
 11
151.5327530125389
 21
-150.2171231922831
 31
0.0
  0
LINE
  5
7D82
330
A
100
AcDbEntity
  8
0
  6
Continuous
 62
     7
370
     0
100
AcDbLine
 10
154.3949200169711
 20
-135.2825547842899
 30
0.0
 11
154.3949200172649
 21
-135.8302773471597
 31
0.0
  0
LINE
  5
7D83
330
A
100
AcDbEntity
  8
0
  6
Continuous
 62
     7
370
     0
100
AcDbLine
 10
151.5327530125389
 20
-150.2171231922831
 30
0.0
 11
151.5327530060681
 21
-138.1672269258486
 31
0.0
  0
LINE
  5
7D84
330
A
100
AcDbEntity
  8
0
  6
Continuous
 62
     7
370
     0
100
AcDbLine
 10
137.1760944465309
 20
-131.7128470931075
 30
0.0
 11
137.8327412848089
 21
-131.1766971947758
 31
0.0
  0
ELLIPSE
  5
7D85
330
A
100
AcDbEntity
  8
0
  6
Continuous
 62
     7
370
     0
100
AcDbEllipse
 10
137.1971032644671
 20
-130.2566994102846
 30
0.0
 11
1.011928851254449
 21
-1.239354670785869
 31
0.0000000000000001
210
0.0
220
0.0000000000000001
230
1.0
 40
0.8164965809277992
 41
3.896857679139877
 42
5.483106258606595
  0
ELLIPSE
  5
7D86
330
A
100
AcDbEntity
  8
0
  6
Continuous
 62
     7
370
     0
100
AcDbEllipse
 10
138.5098931016071
 20
-128.4068109579997
 30
0.0
 11
1.517893276881787
 21
-1.859032006178762
 31
0.0
210
0.0
220
0.0
230
1.0
 40
0.8164965809278012
 41
4.58476357658513
 42
4.828194715560738
  0
ELLIPSE
  5
7D87
330
A
100
AcDbEntity
  8
0
  6
Continuous
 62
     7
370
     0
100
AcDbEllipse
 10
145.092873414336
 20
-106.3628064271395
 30
0.0
 11
4.599999999999936
 21
0.0000000024702462
 31
-0.0000000000000001
210
0.0
220
0.0
230
1.0
 40
0.4082482902401123
 41
3.873538072453846
 42
4.623944669876271
  0
LINE
  5
7D88
330
A
100
AcDbEntity
  8
0
  6
Continuous
 62
     7
370
     0
100
AcDbLine
 10
160.3468101991627
 20
-92.61980456630849
 30
0.0
 11
159.9890393091179
 21
-92.9119232747025
 31
0.0
  0
LINE
  5
7D89
330
A
100
AcDbEntity
  8
0
  6
Continuous
 62
     7
370
     0
100
AcDbLine
 10
159.9890393091179
 20
-92.9119232747025
 30
0.0
 11
159.6312684463628
 21
-93.2040419608143
 31
0.0
  0
LINE
  5
7D8A
330
A
100
AcDbEntity
  8
0
  6
Continuous
 62
     7
370
     0
100
AcDbLine
 10
191.0177640034828
 20
-153.4073343840737
 30
0.0
 11
191.375534885612
 21
-153.1152156821429
 31
0.0
  0
LINE
  5
7D8B
330
A
100
AcDbEntity
  8
0
  6
Continuous
 62
     7
370
     0
100
AcDbLine
 10
191.375534885612
 20
-153.1152156821429
 30
0.0
 11
191.7333057562828
 21
-152.8230969895679
 31
0.0
  0
LINE
  5
7D8C
330
A
100
AcDbEntity
  8
0
  6
Continuous
 62
     7
370
     0
100
AcDbLine
 10
160.346810186777
 20
-92.6198045792494
 30
0.0
 11
159.9890393103767
 21
-92.91192327655021
 31
0.0
  0
LINE
  5
7D8D
330
A
100
AcDbEntity
  8
0
  6
Continuous
 62
     7
370
     0
100
AcDbLine
 10
191.3755348921879
 20
-153.1152156898905
 30
0.0
 11
191.7333057685869
 21
-152.8230969925896
 31
0.0
  0
LINE
  5
7D8E
330
A
100
AcDbEntity
  8
0
  6
Continuous
 62
     7
370
     0
100
AcDbLine
 10
146.6283568044978
 20
-108.6297759992487
 30
0.0
 11
146.628356804789
 21
-109.1715012635109
 31
0.0
  0
LINE
  5
7D8F
330
A
100
AcDbEntity
  8
0
  6
Continuous
 62
     7
370
     0
100
AcDbLine
 10
151.428356804789
 20
-109.171501260931
 30
0.0
 11
151.4283568044368
 21
-108.5171791277185
 31
0.0
  0
ARC
  5
7D90
330
A
100
AcDbEntity
  8
0
  6
Continuous
 62
     7
370
     0
100
AcDbCircle
 10
145.1037118448739
 20
-108.3012258700352
 30
0.0
 40
16.88580206638913
100
AcDbArc
 50
265.8678834618893
 51
284.9483913023665
  0
LINE
  5
7D91
330
A
100
AcDbEntity
  8
0
  6
Continuous
 62
     7
370
     0
100
AcDbLine
 10
137.102250598163
 20
-114.8233010249713
 30
0.0
 11
137.092877259349
 21
-115.0172250985572
 31
0.0
  0
LINE
  5
7D92
330
A
100
AcDbEntity
  8
0
  6
Continuous
 62
     7
370
     0
100
AcDbLine
 10
137.0928772183567
 20
-115.0168201670551
 30
0.0
 11
137.0928772247218
 21
-121.4434315096053
 31
0.0
  0
LINE
  5
7D93
330
A
100
AcDbEntity
  8
0
  6
Continuous
 62
     7
370
     0
100
AcDbLine
 10
143.8869794089207
 20
-125.1431341230976
 30
0.0
 11
143.2902077845199
 21
-124.9781239409704
 31
0.0
  0
ARC
  5
7D94
330
A
100
AcDbEntity
  8
0
  6
Continuous
 62
     7
370
     0
100
AcDbCircle
 10
140.646446007087
 20
-130.7869875132759
 30
0.0
 40
6.382191812964665
100
AcDbArc
 50
65.52850917282068
 51
92.25421281305086
  0
LINE
  5
7D95
330
A
100
AcDbEntity
  8
0
  6
Continuous
 62
     7
370
     0
100
AcDbLine
 10
140.395413428492
 20
-124.4097345794526
 30
0.0
 11
139.8159216704848
 21
-124.309173589764
 31
0.0
  0
LINE
  5
7D96
330
A
100
AcDbEntity
  8
0
  6
Continuous
 62
     7
370
     0
100
AcDbLine
 10
137.09287725325
 20
-121.4437693152111
 30
0.0
 11
137.092933975334
 21
-121.4584980545534
 31
0.0
  0
LINE
  5
7D97
330
A
100
AcDbEntity
  8
0
  6
Continuous
 62
     7
370
     0
100
AcDbLine
 10
137.092933975334
 20
-121.4584980545534
 30
0.0
 11
137.093868417322
 21
-121.506394030195
 31
0.0
  0
ARC
  5
7D98
330
A
100
AcDbEntity
  8
0
  6
Continuous
 62
     7
370
     0
100
AcDbCircle
 10
140.4807731363059
 20
-120.940255527883
 30
0.0
 40
3.433895219611703
100
AcDbArc
 50
189.4895505953971
 51
258.8362095893123
  0
LINE
  5
7D99
330
A
100
AcDbEntity
  8
0
  6
Continuous
 62
     7
370
     0
100
AcDbLine
 10
137.102250598163
 20
-114.8233010249713
 30
0.0
 11
137.1029352103289
 21
-114.8165195529615
 31
0.0
  0
LINE
  5
7D9A
330
A
100
AcDbEntity
  8
0
  6
Continuous
 62
     7
370
     0
100
AcDbLine
 10
137.1044291854919
 20
-114.8032635246903
 30
0.0
 11
137.2352370047599
 21
-114.4378229434523
 31
0.0
  0
LINE
  5
7D9B
330
A
100
AcDbEntity
  8
0
  6
Continuous
 62
     7
370
     0
100
AcDbLine
 10
193.059600610939
 20
-154.3379252862768
 30
0.0
 11
194.490684116537
 21
-153.1694504970738
 31
0.0
  0
LINE
  5
7D9C
330
A
100
AcDbEntity
  8
0
  6
Continuous
 62
     7
370
     0
100
AcDbLine
 10
188.4085792177388
 20
-158.1354683511956
 30
0.0
 11
189.8396627233369
 21
-156.9669935619922
 31
0.0
  0
LINE
  5
7D9D
330
A
100
AcDbEntity
  8
0
  6
Continuous
 62
     7
370
     0
100
AcDbLine
 10
152.3785093950139
 20
-99.21931605126978
 30
0.0
 11
152.7362802714128
 21
-98.9271973539337
 31
0.0
  0
LINE
  5
7D9E
330
A
100
AcDbEntity
  8
0
  6
Continuous
 62
     7
370
     0
100
AcDbLine
 10
152.7362802714128
 20
-98.9271973539337
 30
0.0
 11
153.0940511478129
 21
-98.63507865659748
 31
0.0
  0
LINE
  5
7D9F
330
A
100
AcDbEntity
  8
0
  6
Continuous
 62
     7
370
     0
100
AcDbLine
 10
121.7075555856349
 20
-84.7325997786848
 30
0.0
 11
121.349784709236
 21
-85.02471847602089
 31
0.0
  0
LINE
  5
7DA0
330
A
100
AcDbEntity
  8
0
  6
Continuous
 62
     7
370
     0
100
AcDbLine
 10
121.349784709236
 20
-85.02471847602089
 30
0.0
 11
120.9920138328359
 21
-85.3168371733571
 31
0.0
  0
LINE
  5
7DA1
330
A
100
AcDbEntity
  8
0
  6
Continuous
 62
     7
370
     0
100
AcDbLine
 10
152.3785094198779
 20
-145.5201295841152
 30
0.0
 11
152.7362802962771
 21
-145.228010886779
 31
0.0
  0
LINE
  5
7DA2
330
A
100
AcDbEntity
  8
0
  6
Continuous
 62
     7
370
     0
100
AcDbLine
 10
152.7362802962771
 20
-145.228010886779
 30
0.0
 11
153.0940511726769
 21
-144.9358921894429
 31
0.0
  0
LINE
  5
7DA3
330
A
100
AcDbEntity
  8
0
  6
Continuous
 62
     7
370
     0
100
AcDbLine
 10
152.7362802714128
 20
-98.9271973539337
 30
0.0
 11
153.0940511478129
 21
-98.63507865659748
 31
0.0
  0
LINE
  5
7DA4
330
A
100
AcDbEntity
  8
0
  6
Continuous
 62
     7
370
     0
100
AcDbLine
 10
121.7075555856349
 20
-84.7325997786848
 30
0.0
 11
121.349784709236
 21
-85.02471847602089
 31
0.0
  0
LINE
  5
7DA5
330
A
100
AcDbEntity
  8
0
  6
Continuous
 62
     7
370
     0
100
AcDbLine
 10
152.7362802962771
 20
-145.228010886779
 30
0.0
 11
153.0940511726769
 21
-144.9358921894429
 31
0.0
  0
LINE
  5
7DA6
330
A
100
AcDbEntity
  8
0
  6
Continuous
 62
     7
370
     0
100
AcDbLine
 10
121.4545733721888
 20
-81.9762670213888
 30
0.0
 11
120.0234898665899
 21
-83.14474181073341
 31
0.0
  0
LINE
  5
7DA7
330
A
100
AcDbEntity
  8
0
  6
Continuous
 62
     7
370
     0
100
AcDbLine
 10
135.7689419493329
 20
-129.8439603550273
 30
0.0
 11
136.1294263668328
 21
-129.9175439284172
 31
0.0
  0
LINE
  5
7DA8
330
A
100
AcDbEntity
  8
0
  6
Continuous
 62
     7
370
     0
100
AcDbLine
 10
116.8035519789901
 20
-85.77381008675407
 30
0.0
 11
115.3724684733911
 21
-86.94228487609859
 31
0.0
  0
LINE
  5
7DA9
330
A
100
AcDbEntity
  8
0
  6
Continuous
 62
     9
370
     0
100
AcDbLine
 10
43.24999994529207
 20
-94.6912499908711
 30
0.0
 11
43.24999994529093
 21
-93.69124999337779
 31
0.0
  0
LINE
  5
7DAA
330
A
100
AcDbEntity
  8
0
  6
Continuous
 62
     9
370
     0
100
AcDbLine
 10
43.24999994529093
 20
-93.69124999337779
 30
0.0
 11
43.24999994529093
 21
-93.19124999327641
 31
0.0
  0
LINE
  5
7DAB
330
A
100
AcDbEntity
  8
0
  6
Continuous
 62
     7
370
     0
100
AcDbLine
 10
43.24999994529207
 20
-94.6912499913842
 30
0.0
 11
38.74999994529094
 21
-94.6912499913861
 31
0.0
  0
LINE
  5
7DAC
330
A
100
AcDbEntity
  8
0
  6
Continuous
 62
     7
370
     0
100
AcDbLine
 10
38.74999994529094
 20
-94.6912499913861
 30
0.0
 11
38.74999994529094
 21
-93.69124999359721
 31
0.0
  0
LINE
  5
7DAD
330
A
100
AcDbEntity
  8
0
  6
Continuous
 62
     7
370
     0
100
AcDbLine
 10
38.74999994529094
 20
-93.69124999359721
 30
0.0
 11
38.74999994529094
 21
-93.1912499935319
 31
0.0
  0
LINE
  5
7DAE
330
A
100
AcDbEntity
  8
0
  6
Continuous
 62
     9
370
     0
100
AcDbLine
 10
80.74999994529207
 20
-94.6912499908557
 30
0.0
 11
80.74999994529207
 21
-93.69124999336241
 31
0.0
  0
LINE
  5
7DAF
330
A
100
AcDbEntity
  8
0
  6
Continuous
 62
     9
370
     0
100
AcDbLine
 10
80.74999994529207
 20
-93.69124999336241
 30
0.0
 11
80.74999994529093
 21
-93.19124999326101
 31
0.0
  0
LINE
  5
7DB0
330
A
100
AcDbEntity
  8
0
  6
Continuous
 62
     7
370
     0
100
AcDbLine
 10
80.74999994529207
 20
-94.6912499908557
 30
0.0
 11
43.24999994529207
 21
-94.6912499908711
 31
0.0
  0
LINE
  5
7DB1
330
A
100
AcDbEntity
  8
0
  6
Continuous
 62
     7
370
     0
100
AcDbLine
 10
85.24999994529094
 20
-94.69124999136701
 30
0.0
 11
85.24999994529094
 21
-93.69124999357801
 31
0.0
  0
LINE
  5
7DB2
330
A
100
AcDbEntity
  8
0
  6
Continuous
 62
     7
370
     0
100
AcDbLine
 10
85.24999994529094
 20
-93.69124999357801
 30
0.0
 11
85.24999994529094
 21
-93.1912499932989
 31
0.0
  0
LINE
  5
7DB3
330
A
100
AcDbEntity
  8
0
  6
Continuous
 62
     7
370
     0
100
AcDbLine
 10
85.24999994529094
 20
-94.69124999136701
 30
0.0
 11
80.74999994529207
 21
-94.6912499913688
 31
0.0
  0
LINE
  5
7DB4
330
A
100
AcDbEntity
  8
0
  6
Continuous
 62
     7
370
     0
100
AcDbLine
 10
85.24999992940001
 20
-93.69124999357801
 30
0.0
 11
85.24999992940001
 21
-93.1912499932989
 31
0.0
  0
LINE
  5
7DB5
330
A
100
AcDbEntity
  8
0
  6
Continuous
 62
     9
370
     0
100
AcDbLine
 10
80.74999992728294
 20
-93.69124999336241
 30
0.0
 11
80.74999992728294
 21
-93.19124999326101
 31
0.0
  0
LINE
  5
7DB6
330
A
100
AcDbEntity
  8
0
  6
Continuous
 62
     7
370
     0
100
AcDbLine
 10
85.24999992940001
 20
-93.69124999357801
 30
0.0
 11
80.74999992728294
 21
-93.69124999357991
 31
0.0
  0
LINE
  5
7DB7
330
A
100
AcDbEntity
  8
0
  6
Continuous
 62
     9
370
     0
100
AcDbLine
 10
43.24999992728385
 20
-93.69124999337779
 30
0.0
 11
43.24999992728294
 21
-93.19124999327641
 31
0.0
  0
LINE
  5
7DB8
330
A
100
AcDbEntity
  8
0
  6
Continuous
 62
     7
370
     0
100
AcDbLine
 10
80.74999992728294
 20
-93.69124999336241
 30
0.0
 11
43.24999992728385
 21
-93.69124999337779
 31
0.0
  0
LINE
  5
7DB9
330
A
100
AcDbEntity
  8
0
  6
Continuous
 62
     7
370
     0
100
AcDbLine
 10
38.74999992940002
 20
-93.69124999359721
 30
0.0
 11
38.74999992940002
 21
-93.1912499935319
 31
0.0
  0
LINE
  5
7DBA
330
A
100
AcDbEntity
  8
0
  6
Continuous
 62
     7
370
     0
100
AcDbLine
 10
43.24999992728385
 20
-93.69124999359531
 30
0.0
 11
38.74999992940002
 21
-93.69124999359721
 31
0.0
  0
LINE
  5
7DBB
330
A
100
AcDbEntity
  8
0
  6
Continuous
 62
     7
370
     0
100
AcDbLine
 10
31.00227759913901
 20
-88.74124999109879
 30
0.0
 11
27.00227759913901
 21
-88.74124999109849
 31
0.0
  0
ARC
  5
7DBC
330
A
100
AcDbEntity
  8
0
  6
Continuous
 62
     7
370
     0
100
AcDbCircle
 10
21.50000000932391
 20
-98.19124998568049
 30
0.0
 40
9.999999999999898
100
AcDbArc
 50
287.3498721879519
 51
295.8419326919456
  0
LINE
  5
7DBD
330
A
100
AcDbEntity
  8
0
  6
Continuous
 62
     9
370
     0
100
AcDbLine
 10
24.29523792505097
 20
-89.19124998548189
 30
0.0
 11
24.46605801803094
 21
-88.64124999149231
 31
0.0
  0
ARC
  5
7DBE
330
A
100
AcDbEntity
  8
0
  6
Continuous
 62
     7
370
     0
100
AcDbCircle
 10
21.50000000932391
 20
-98.19124998568049
 30
0.0
 40
10.0
100
AcDbArc
 50
64.15806724273117
 51
72.74614677037333
  0
ARC
  5
7DBF
330
A
100
AcDbEntity
  8
0
  6
Continuous
 62
     9
370
     0
100
AcDbCircle
 10
21.51089301234606
 20
-111.191245421973
 30
0.0
 40
4.999999999999993
100
AcDbArc
 50
90.00000000002605
 51
91.16039138784294
  0
LINE
  5
7DC0
330
A
100
AcDbEntity
  8
0
  6
Continuous
 62
     9
370
     0
100
AcDbLine
 10
23.56348839695693
 20
-89.1912499848726
 30
0.0
 11
23.33059232270398
 21
-88.7421603248419
 31
0.0
  0
ARC
  5
7DC1
330
A
100
AcDbEntity
  8
0
  6
Continuous
 62
     7
370
     0
100
AcDbCircle
 10
24.02114931672509
 20
-90.07374999062058
 30
0.0
 40
1.499999999999958
100
AcDbArc
 50
72.74614677036088
 51
117.411071301507
  0
LINE
  5
7DC2
330
A
100
AcDbEntity
  8
0
  6
Continuous
 62
     9
370
     0
100
AcDbLine
 10
19.42322443406078
 20
-89.19124998557521
 30
0.0
 11
19.65357504568283
 21
-88.7452413846886
 31
0.0
  0
ARC
  5
7DC3
330
A
100
AcDbEntity
  8
0
  6
Continuous
 62
     7
370
     0
100
AcDbCircle
 10
21.48910700531292
 20
-85.19125454943228
 30
0.0
 40
4.000000000000055
100
AcDbArc
 50
242.6849476568122
 51
270.000000000026
  0
ARC
  5
7DC4
330
A
100
AcDbEntity
  8
0
  6
Continuous
 62
     7
370
     0
100
AcDbCircle
 10
21.48910700531292
 20
-85.19125454943228
 30
0.0
 40
4.000000000000001
100
AcDbArc
 50
270.000000000026
 51
297.4110713015077
  0
ARC
  5
7DC5
330
A
100
AcDbEntity
  8
0
  6
Continuous
 62
     7
370
     0
100
AcDbCircle
 10
24.03474945782705
 20
-106.3045135234511
 30
0.0
 40
1.500000000000055
100
AcDbArc
 50
242.6849476568129
 51
287.3498721879519
  0
LINE
  5
7DC6
330
A
100
AcDbEntity
  8
0
  6
Continuous
 62
     9
370
     0
100
AcDbLine
 10
23.73920849437195
 20
-106.8767447438816
 30
0.0
 11
23.346424972965
 21
-107.6372585866723
 31
0.0
  0
ARC
  5
7DC7
330
A
100
AcDbEntity
  8
0
  6
Continuous
 62
     7
370
     0
100
AcDbCircle
 10
21.51089301333491
 20
-111.1912454219286
 30
0.0
 40
3.999999999999982
100
AcDbArc
 50
62.68494765681139
 51
117.4110713015077
  0
LINE
  5
7DC8
330
A
100
AcDbEntity
  8
0
  6
Continuous
 62
     9
370
     0
100
AcDbLine
 10
19.66940769594498
 20
-107.640339646519
 30
0.0
 11
19.26051504059205
 21
-106.8518786809578
 31
0.0
  0
LINE
  5
7DC9
330
A
100
AcDbEntity
  8
0
  6
Continuous
 62
     9
370
     0
100
AcDbLine
 10
18.68821595570489
 20
-89.1912499849764
 30
0.0
 11
18.51794183461516
 21
-88.64623405889139
 31
0.0
  0
ARC
  5
7DCA
330
A
100
AcDbEntity
  8
0
  6
Continuous
 62
     7
370
     0
100
AcDbCircle
 10
18.96525056082078
 20
-90.0779864479098
 30
0.0
 40
1.500000000000055
100
AcDbArc
 50
62.68494765681287
 51
107.3498721879519
  0
ARC
  5
7DCB
330
A
100
AcDbEntity
  8
0
  6
Continuous
 62
     7
370
     0
100
AcDbCircle
 10
18.9788507019241
 20
-106.3087499807403
 30
0.0
 40
1.499999999999958
100
AcDbArc
 50
252.7461467703733
 51
297.411071301507
  0
LINE
  5
7DCC
330
A
100
AcDbEntity
  8
0
  6
Continuous
 62
     9
370
     0
100
AcDbLine
 10
18.5339420006178
 20
-107.7412499798686
 30
0.0
 11
18.77507847448692
 21
-106.9648479953837
 31
0.0
  0
ARC
  5
7DCD
330
A
100
AcDbEntity
  8
0
  6
Continuous
 62
     7
370
     0
100
AcDbCircle
 10
21.50000000932391
 20
-98.19124998568049
 30
0.0
 40
10.00000000000001
100
AcDbArc
 50
107.3498721879519
 51
115.8419327573132
  0
ARC
  5
7DCE
330
A
100
AcDbEntity
  8
0
  6
Continuous
 62
     7
370
     0
100
AcDbCircle
 10
21.50000000932391
 20
-98.19124998568049
 30
0.0
 40
10.0
100
AcDbArc
 50
233.1301023498979
 51
252.7461467703733
  0
LINE
  5
7DCF
330
A
100
AcDbEntity
  8
0
  6
Continuous
 62
     7
370
     0
100
AcDbLine
 10
85.24999992940388
 20
-102.1912499969991
 30
0.0
 11
85.24999992940388
 21
-101.691249993578
 31
0.0
  0
LINE
  5
7DD0
330
A
100
AcDbEntity
  8
0
  6
Continuous
 62
     7
370
     0
100
AcDbLine
 10
85.24999992940388
 20
-101.691249993578
 30
0.0
 11
85.24999992940298
 21
-100.691249993578
 31
0.0
  0
LINE
  5
7DD1
330
A
100
AcDbEntity
  8
0
  6
Continuous
 62
     9
370
     0
100
AcDbLine
 10
80.74999992728681
 20
-102.1912499932609
 30
0.0
 11
80.74999992728681
 21
-101.6912499933624
 31
0.0
  0
LINE
  5
7DD2
330
A
100
AcDbEntity
  8
0
  6
Continuous
 62
     9
370
     0
100
AcDbLine
 10
80.74999992728681
 20
-101.6912499933624
 30
0.0
 11
80.7499999272859
 21
-100.6912499933624
 31
0.0
  0
LINE
  5
7DD3
330
A
100
AcDbEntity
  8
0
  6
Continuous
 62
     7
370
     0
100
AcDbLine
 10
85.24999992940298
 20
-100.691249993578
 30
0.0
 11
80.7499999272859
 21
-100.6912499935799
 31
0.0
  0
LINE
  5
7DD4
330
A
100
AcDbEntity
  8
0
  6
Continuous
 62
     9
370
     0
100
AcDbLine
 10
43.2499999272868
 20
-102.1912499932763
 30
0.0
 11
43.2499999272868
 21
-101.6912499933778
 31
0.0
  0
LINE
  5
7DD5
330
A
100
AcDbEntity
  8
0
  6
Continuous
 62
     9
370
     0
100
AcDbLine
 10
43.2499999272868
 20
-101.6912499933778
 30
0.0
 11
43.2499999272859
 21
-100.6912499933778
 31
0.0
  0
LINE
  5
7DD6
330
A
100
AcDbEntity
  8
0
  6
Continuous
 62
     7
370
     0
100
AcDbLine
 10
80.7499999272859
 20
-100.6912499933624
 30
0.0
 11
43.2499999272859
 21
-100.6912499933778
 31
0.0
  0
LINE
  5
7DD7
330
A
100
AcDbEntity
  8
0
  6
Continuous
 62
     7
370
     0
100
AcDbLine
 10
38.74999992940388
 20
-102.1912499935319
 30
0.0
 11
38.74999992940388
 21
-101.6912499935971
 31
0.0
  0
LINE
  5
7DD8
330
A
100
AcDbEntity
  8
0
  6
Continuous
 62
     7
370
     0
100
AcDbLine
 10
38.74999992940388
 20
-101.6912499935971
 30
0.0
 11
38.74999992940298
 21
-100.6912499935971
 31
0.0
  0
LINE
  5
7DD9
330
A
100
AcDbEntity
  8
0
  6
Continuous
 62
     7
370
     0
100
AcDbLine
 10
43.2499999272859
 20
-100.6912499935953
 30
0.0
 11
38.74999992940298
 21
-100.6912499935971
 31
0.0
  0
LINE
  5
7DDA
330
A
100
AcDbEntity
  8
0
  6
Continuous
 62
     7
370
     0
100
AcDbLine
 10
85.24999992940388
 20
-102.1912499969991
 30
0.0
 11
85.24999992940388
 21
-101.691249993578
 31
0.0
  0
LINE
  5
7DDB
330
A
100
AcDbEntity
  8
0
  6
Continuous
 62
     9
370
     0
100
AcDbLine
 10
80.74999992728681
 20
-102.1912499932609
 30
0.0
 11
80.74999992728681
 21
-101.6912499933624
 31
0.0
  0
LINE
  5
7DDC
330
A
100
AcDbEntity
  8
0
  6
Continuous
 62
     7
370
     0
100
AcDbLine
 10
85.24999992940388
 20
-101.691249993578
 30
0.0
 11
80.74999992728681
 21
-101.6912499935799
 31
0.0
  0
LINE
  5
7DDD
330
A
100
AcDbEntity
  8
0
  6
Continuous
 62
     9
370
     0
100
AcDbLine
 10
43.2499999272868
 20
-102.1912499932763
 30
0.0
 11
43.2499999272868
 21
-101.6912499933778
 31
0.0
  0
LINE
  5
7DDE
330
A
100
AcDbEntity
  8
0
  6
Continuous
 62
     7
370
     0
100
AcDbLine
 10
80.74999992728681
 20
-101.6912499933624
 30
0.0
 11
43.2499999272868
 21
-101.6912499933778
 31
0.0
  0
LINE
  5
7DDF
330
A
100
AcDbEntity
  8
0
  6
Continuous
 62
     7
370
     0
100
AcDbLine
 10
38.74999992940388
 20
-102.1912499935319
 30
0.0
 11
38.74999992940388
 21
-101.6912499935971
 31
0.0
  0
LINE
  5
7DE0
330
A
100
AcDbEntity
  8
0
  6
Continuous
 62
     7
370
     0
100
AcDbLine
 10
43.2499999272868
 20
-101.6912499935953
 30
0.0
 11
38.74999992940388
 21
-101.6912499935971
 31
0.0
  0
LINE
  5
7DE1
330
A
100
AcDbEntity
  8
0
  6
Continuous
 62
     7
370
     0
100
AcDbLine
 10
63.74999993335677
 20
-88.89124999399209
 30
0.0
 11
76.24999993335677
 21
-88.89124999398758
 31
0.0
  0
LINE
  5
7DE2
330
A
100
AcDbEntity
  8
0
  6
Continuous
 62
     9
370
     0
100
AcDbLine
 10
75.41284204303088
 20
-87.4412499939879
 30
0.0
 11
70.00000043102978
 21
-87.4412499939898
 31
0.0
  0
LINE
  5
7DE3
330
A
100
AcDbEntity
  8
0
  6
Continuous
 62
     9
370
     0
100
AcDbLine
 10
70.00000043102978
 20
-87.4412499939898
 30
0.0
 11
64.58715782368085
 21
-87.44124999399181
 31
0.0
  0
LINE
  5
7DE4
330
A
100
AcDbEntity
  8
0
  6
Continuous
 62
     7
370
     0
100
AcDbLine
 10
65.02017052557312
 20
-87.19124999399159
 30
0.0
 11
70.00000039121687
 21
-87.1912499939898
 31
0.0
  0
LINE
  5
7DE5
330
A
100
AcDbEntity
  8
0
  6
Continuous
 62
     7
370
     0
100
AcDbLine
 10
70.00000039121687
 20
-87.1912499939898
 30
0.0
 11
74.97982934113884
 21
-87.19124999398808
 31
0.0
  0
LINE
  5
7DE6
330
A
100
AcDbEntity
  8
0
  6
Continuous
 62
     7
370
     0
100
AcDbLine
 10
87.49999992865197
 20
-89.19124999350129
 30
0.0
 11
87.49999992865401
 21
-93.1912499934998
 31
0.0
  0
LINE
  5
7DE7
330
A
100
AcDbEntity
  8
0
  6
Continuous
 62
     7
370
     0
100
AcDbLine
 10
87.4999999286499
 20
-93.1912499934998
 30
0.0
 11
82.49999992630092
 21
-93.1912499935019
 31
0.0
  0
LINE
  5
7DE8
330
A
100
AcDbEntity
  8
0
  6
Continuous
 62
     9
370
     0
100
AcDbLine
 10
82.49999992630092
 20
-93.19124999326019
 30
0.0
 11
82.4999999263
 21
-89.1912499932617
 31
0.0
  0
LINE
  5
7DE9
330
A
100
AcDbEntity
  8
0
  6
Continuous
 62
     7
370
     0
100
AcDbLine
 10
82.4999999263
 20
-89.19124999350341
 30
0.0
 11
87.49999992864696
 21
-89.19124999350129
 31
0.0
  0
LINE
  5
7DEA
330
A
100
AcDbEntity
  8
0
  6
Continuous
 62
     7
370
     0
100
AcDbLine
 10
37.49999992630183
 20
-93.1912499932787
 30
0.0
 11
37.49999992630092
 21
-91.34223047968658
 31
0.0
  0
ARC
  5
7DEB
330
A
100
AcDbEntity
  8
0
  6
Continuous
 62
     7
370
     0
100
AcDbCircle
 10
42.99999992630296
 20
-96.44124999327519
 30
0.0
 40
7.500000000000119
100
AcDbArc
 50
104.8351115820093
 51
137.1665719339695
  0
LINE
  5
7DEC
330
A
100
AcDbEntity
  8
0
  6
Continuous
 62
     7
370
     0
100
AcDbLine
 10
41.07971348933278
 20
-89.1912499932788
 30
0.0
 11
82.4999999263
 21
-89.1912499932617
 31
0.0
  0
LINE
  5
7DED
330
A
100
AcDbEntity
  8
0
  6
Continuous
 62
     7
370
     0
100
AcDbLine
 10
37.49999992630183
 20
-93.1912499932787
 30
0.0
 11
82.49999992630092
 21
-93.19124999326019
 31
0.0
  0
CIRCLE
  5
7DEE
330
A
100
AcDbEntity
  8
0
  6
Continuous
 62
     7
370
     0
100
AcDbCircle
 10
48.49999993423785
 20
-98.19124999407799
 30
0.0
 40
1.772059531467584
  0
LINE
  5
7DEF
330
A
100
AcDbEntity
  8
0
  6
Continuous
 62
     7
370
     0
100
AcDbLine
 10
87.49999992865104
 20
-102.1912499934998
 30
0.0
 11
87.49999992865287
 21
-106.1912499934998
 31
0.0
  0
LINE
  5
7DF0
330
A
100
AcDbEntity
  8
0
  6
Continuous
 62
     7
370
     0
100
AcDbLine
 10
87.49999992865287
 20
-106.1912499934998
 30
0.0
 11
82.49999992630092
 21
-106.1912499935018
 31
0.0
  0
LINE
  5
7DF1
330
A
100
AcDbEntity
  8
0
  6
Continuous
 62
     9
370
     0
100
AcDbLine
 10
82.49999992630092
 20
-106.1912499932602
 30
0.0
 11
82.49999992629909
 21
-102.1912499932602
 31
0.0
  0
LINE
  5
7DF2
330
A
100
AcDbEntity
  8
0
  6
Continuous
 62
     7
370
     0
100
AcDbLine
 10
82.49999992629909
 20
-102.1912499935017
 30
0.0
 11
87.49999992865104
 21
-102.1912499934998
 31
0.0
  0
ARC
  5
7DF3
330
A
100
AcDbEntity
  8
0
  6
Continuous
 62
     7
370
     0
100
AcDbCircle
 10
43.49999992629682
 20
-98.9412499932763
 30
0.0
 40
7.499999999999941
100
AcDbArc
 50
216.8698976458688
 51
255.1648884180448
  0
LINE
  5
7DF4
330
A
100
AcDbEntity
  8
0
  6
Continuous
 62
     7
370
     0
100
AcDbLine
 10
37.4999999262991
 20
-103.4412499932787
 30
0.0
 11
37.4999999262991
 21
-102.1912499932787
 31
0.0
  0
LINE
  5
7DF5
330
A
100
AcDbEntity
  8
0
  6
Continuous
 62
     7
370
     0
100
AcDbLine
 10
82.49999992629909
 20
-102.1912499932602
 30
0.0
 11
37.4999999262991
 21
-102.1912499932787
 31
0.0
  0
LINE
  5
7DF6
330
A
100
AcDbEntity
  8
0
  6
Continuous
 62
     7
370
     0
100
AcDbLine
 10
82.49999992630092
 20
-106.1912499932602
 30
0.0
 11
41.57971348933187
 21
-106.191249993277
 31
0.0
  0
LINE
  5
7DF7
330
A
100
AcDbEntity
  8
0
  6
Continuous
 62
     7
370
     0
100
AcDbLine
 10
75.49999993335291
 20
-94.69124999853361
 30
0.0
 11
75.49999993335586
 21
-100.6912499966174
 31
0.0
  0
LINE
  5
7DF8
330
A
100
AcDbEntity
  8
0
  6
Continuous
 62
     9
370
     0
100
AcDbLine
 10
64.69385965430205
 20
-94.69124999086231
 30
0.0
 11
64.69385965430501
 21
-100.691249993369
 31
0.0
  0
LINE
  5
7DF9
330
A
100
AcDbEntity
  8
0
  6
Continuous
 62
     9
370
     0
100
AcDbLine
 10
60.83484854414701
 20
-94.69124999086391
 30
0.0
 11
60.83484854414905
 21
-100.6912499933706
 31
0.0
  0
ARC
  5
7DFA
330
A
100
AcDbEntity
  8
0
  6
Continuous
 62
     7
370
     0
100
AcDbCircle
 10
48.49999993406004
 20
-98.19124999407151
 30
0.0
 40
2.499999999999944
100
AcDbArc
 50
270.000000000026
 51
0.0000000000227982
  0
ARC
  5
7DFB
330
A
100
AcDbEntity
  8
0
  6
Continuous
 62
     7
370
     0
100
AcDbCircle
 10
48.49999993406004
 20
-98.19124999407151
 30
0.0
 40
2.500000000000002
100
AcDbArc
 50
0.0000000000260551
 51
270.000000000026
  0
LINE
  5
7DFC
330
A
100
AcDbEntity
  8
0
  6
Continuous
 62
     7
370
     0
100
AcDbLine
 10
38.74999994529094
 20
-94.1912499940755
 30
0.0
 11
37.49999993405913
 21
-94.19124999407598
 31
0.0
  0
LINE
  5
7DFD
330
A
100
AcDbEntity
  8
0
  6
Continuous
 62
     7
370
     0
100
AcDbLine
 10
37.49999993405913
 20
-94.19124999407598
 30
0.0
 11
37.49999993406186
 21
-102.1912499940761
 31
0.0
  0
LINE
  5
7DFE
330
A
100
AcDbEntity
  8
0
  6
Continuous
 62
     7
370
     0
100
AcDbLine
 10
86.24999996146698
 20
-102.1912499968709
 30
0.0
 11
85.24999992940388
 21
-102.1912499968713
 31
0.0
  0
LINE
  5
7DFF
330
A
100
AcDbEntity
  8
0
  6
Continuous
 62
     7
370
     0
100
AcDbLine
 10
28.92028646028985
 20
-89.19124999109859
 30
0.0
 11
41.0797135164189
 21
-89.19124999109859
 31
0.0
  0
ARC
  5
7E00
330
A
100
AcDbEntity
  8
0
  6
Continuous
 62
     7
370
     0
100
AcDbCircle
 10
49.4999999362019
 20
-98.1912499910986
 30
0.0
 40
9.000000000000067
100
AcDbArc
 50
270.0
 51
297.2660443818698
  0
LINE
  5
7E01
330
A
100
AcDbEntity
  8
0
  6
Continuous
 62
     7
370
     0
100
AcDbLine
 10
49.4999999362019
 20
-107.1912499910986
 30
0.0
 11
24.66227759636991
 21
-107.1912499910986
 31
0.0
  0
ARC
  5
7E02
330
A
100
AcDbEntity
  8
0
  6
Continuous
 62
     7
370
     0
100
AcDbCircle
 10
24.66227759636991
 20
-105.6912499910986
 30
0.0
 40
1.5
100
AcDbArc
 50
234.9031987724165
 51
270.0
  0
ARC
  5
7E03
330
A
100
AcDbEntity
  8
0
  6
Continuous
 62
     7
370
     0
100
AcDbCircle
 10
21.4999999362019
 20
-110.1912499910986
 30
0.0
 40
4.000000000000082
100
AcDbArc
 50
54.90319877241652
 51
90.00000000002605
  0
ARC
  5
7E04
330
A
100
AcDbEntity
  8
0
  6
Continuous
 62
     7
370
     0
100
AcDbCircle
 10
21.4999999362019
 20
-110.1912499910986
 30
0.0
 40
4.000000000000001
100
AcDbArc
 50
90.00000000002605
 51
120.8149532410543
  0
ARC
  5
7E05
330
A
100
AcDbEntity
  8
0
  6
Continuous
 62
     7
370
     0
100
AcDbCircle
 10
18.68253131734696
 20
-105.4677057093365
 30
0.0
 40
1.500000000000095
100
AcDbArc
 50
255.9759504937598
 51
300.8149532410663
  0
ARC
  5
7E06
330
A
100
AcDbEntity
  8
0
  6
Continuous
 62
     7
370
     0
100
AcDbCircle
 10
20.4999999362019
 20
-98.1912499910986
 30
0.0
 40
9.000000000000056
100
AcDbArc
 50
242.733955467775
 51
255.9759504937598
  0
ARC
  5
7E07
330
A
100
AcDbEntity
  8
0
  6
Continuous
 62
     7
370
     0
100
AcDbCircle
 10
28.9999999362019
 20
-102.1912499910986
 30
0.0
 40
3.550000000000098
100
AcDbArc
 50
350.3723726809071
 51
9.627626446421723
  0
LINE
  5
7E08
330
A
100
AcDbEntity
  8
0
  6
Continuous
 62
     7
370
     0
100
AcDbLine
 10
-6.250000000004092
 20
-88.89124998524179
 30
0.0
 11
6.249999999995907
 21
-88.89124998524179
 31
0.0
  0
LINE
  5
7E09
330
A
100
AcDbEntity
  8
0
  6
Continuous
 62
     9
370
     0
100
AcDbLine
 10
5.412842109671828
 20
-87.44124998524181
 30
0.0
 11
-0.0000000006680239
 21
-87.44124998524181
 31
0.0
  0
LINE
  5
7E0A
330
A
100
AcDbEntity
  8
0
  6
Continuous
 62
     9
370
     0
100
AcDbLine
 10
-0.0000000006680239
 20
-87.44124998524181
 30
0.0
 11
-5.412842109679104
 21
-87.44124998524181
 31
0.0
  0
LINE
  5
7E0B
330
A
100
AcDbEntity
  8
0
  6
Continuous
 62
     7
370
     0
100
AcDbLine
 10
-4.979829407785928
 20
-87.19124998524181
 30
0.0
 11
-0.0000000006150458
 21
-87.19124998524181
 31
0.0
  0
LINE
  5
7E0C
330
A
100
AcDbEntity
  8
0
  6
Continuous
 62
     7
370
     0
100
AcDbLine
 10
-0.0000000006150458
 20
-87.19124998524181
 30
0.0
 11
4.979829407778879
 21
-87.19124998524181
 31
0.0
  0
LINE
  5
7E0D
330
A
100
AcDbEntity
  8
0
  6
Continuous
 62
     7
370
     0
100
AcDbLine
 10
31.2499999954141
 20
-102.191249985229
 30
0.0
 11
31.2499999954141
 21
-101.691249985229
 31
0.0
  0
LINE
  5
7E0E
330
A
100
AcDbEntity
  8
0
  6
Continuous
 62
     9
370
     0
100
AcDbLine
 10
26.7499999929471
 20
-102.1912499852309
 30
0.0
 11
26.7499999929471
 21
-101.6912499852308
 31
0.0
  0
LINE
  5
7E0F
330
A
100
AcDbEntity
  8
0
  6
Continuous
 62
     7
370
     0
100
AcDbLine
 10
31.2499999954141
 20
-101.691249985229
 30
0.0
 11
26.7499999929471
 21
-101.6912499852308
 31
0.0
  0
LINE
  5
7E10
330
A
100
AcDbEntity
  8
0
  6
Continuous
 62
     9
370
     0
100
AcDbLine
 10
-10.7500000070529
 20
-102.1912499852463
 30
0.0
 11
-10.7500000070529
 21
-101.6912499852462
 31
0.0
  0
LINE
  5
7E11
330
A
100
AcDbEntity
  8
0
  6
Continuous
 62
     7
370
     0
100
AcDbLine
 10
26.7499999929471
 20
-101.6912499852308
 30
0.0
 11
-10.7500000070529
 21
-101.6912499852462
 31
0.0
  0
LINE
  5
7E12
330
A
100
AcDbEntity
  8
0
  6
Continuous
 62
     7
370
     0
100
AcDbLine
 10
-15.2500000045859
 20
-102.1912499852481
 30
0.0
 11
-15.2500000045859
 21
-101.6912499852481
 31
0.0
  0
LINE
  5
7E13
330
A
100
AcDbEntity
  8
0
  6
Continuous
 62
     7
370
     0
100
AcDbLine
 10
-10.7500000070529
 20
-101.6912499852462
 30
0.0
 11
-15.2500000045859
 21
-101.6912499852481
 31
0.0
  0
LINE
  5
7E14
330
A
100
AcDbEntity
  8
0
  6
Continuous
 62
     7
370
     0
100
AcDbLine
 10
31.24999999541092
 20
-94.691249985229
 30
0.0
 11
31.24999999541001
 21
-93.69124998522901
 31
0.0
  0
LINE
  5
7E15
330
A
100
AcDbEntity
  8
0
  6
Continuous
 62
     7
370
     0
100
AcDbLine
 10
31.24999999541001
 20
-93.69124998522901
 30
0.0
 11
31.24999999541001
 21
-93.191249985229
 31
0.0
  0
LINE
  5
7E16
330
A
100
AcDbEntity
  8
0
  6
Continuous
 62
     9
370
     0
100
AcDbLine
 10
26.74999999294391
 20
-94.6912499852308
 30
0.0
 11
26.74999999294391
 21
-93.6912499852308
 31
0.0
  0
LINE
  5
7E17
330
A
100
AcDbEntity
  8
0
  6
Continuous
 62
     9
370
     0
100
AcDbLine
 10
26.74999999294391
 20
-93.6912499852308
 30
0.0
 11
26.74999999294391
 21
-93.19124998523079
 31
0.0
  0
LINE
  5
7E18
330
A
100
AcDbEntity
  8
0
  6
Continuous
 62
     7
370
     0
100
AcDbLine
 10
31.24999999541092
 20
-94.691249985229
 30
0.0
 11
26.74999999294391
 21
-94.6912499852308
 31
0.0
  0
LINE
  5
7E19
330
A
100
AcDbEntity
  8
0
  6
Continuous
 62
     9
370
     0
100
AcDbLine
 10
-10.75000000705609
 20
-94.69124998524621
 30
0.0
 11
-10.75000000705609
 21
-93.69124998524631
 31
0.0
  0
LINE
  5
7E1A
330
A
100
AcDbEntity
  8
0
  6
Continuous
 62
     9
370
     0
100
AcDbLine
 10
-10.75000000705609
 20
-93.69124998524631
 30
0.0
 11
-10.75000000705609
 21
-93.19124998524621
 31
0.0
  0
LINE
  5
7E1B
330
A
100
AcDbEntity
  8
0
  6
Continuous
 62
     7
370
     0
100
AcDbLine
 10
26.74999999294391
 20
-94.6912499852308
 30
0.0
 11
-10.75000000705609
 21
-94.69124998524621
 31
0.0
  0
LINE
  5
7E1C
330
A
100
AcDbEntity
  8
0
  6
Continuous
 62
     7
370
     0
100
AcDbLine
 10
-15.25000000458999
 20
-94.6912499852481
 30
0.0
 11
-15.25000000458999
 21
-93.69124998524808
 31
0.0
  0
LINE
  5
7E1D
330
A
100
AcDbEntity
  8
0
  6
Continuous
 62
     7
370
     0
100
AcDbLine
 10
-15.25000000458999
 20
-93.69124998524808
 30
0.0
 11
-15.25000000458999
 21
-93.19124998524809
 31
0.0
  0
LINE
  5
7E1E
330
A
100
AcDbEntity
  8
0
  6
Continuous
 62
     7
370
     0
100
AcDbLine
 10
-10.75000000705609
 20
-94.69124998524621
 30
0.0
 11
-15.25000000458999
 21
-94.6912499852481
 31
0.0
  0
LINE
  5
7E1F
330
A
100
AcDbEntity
  8
0
  6
Continuous
 62
     7
370
     0
100
AcDbLine
 10
31.24999999541001
 20
-93.69124998522901
 30
0.0
 11
31.24999999541001
 21
-93.191249985229
 31
0.0
  0
LINE
  5
7E20
330
A
100
AcDbEntity
  8
0
  6
Continuous
 62
     9
370
     0
100
AcDbLine
 10
26.74999999294391
 20
-93.6912499852308
 30
0.0
 11
26.74999999294391
 21
-93.19124998523079
 31
0.0
  0
LINE
  5
7E21
330
A
100
AcDbEntity
  8
0
  6
Continuous
 62
     7
370
     0
100
AcDbLine
 10
31.24999999541001
 20
-93.69124998522901
 30
0.0
 11
26.74999999294391
 21
-93.6912499852308
 31
0.0
  0
LINE
  5
7E22
330
A
100
AcDbEntity
  8
0
  6
Continuous
 62
     9
370
     0
100
AcDbLine
 10
-10.75000000705609
 20
-93.69124998524631
 30
0.0
 11
-10.75000000705609
 21
-93.19124998524621
 31
0.0
  0
LINE
  5
7E23
330
A
100
AcDbEntity
  8
0
  6
Continuous
 62
     7
370
     0
100
AcDbLine
 10
26.74999999294391
 20
-93.6912499852308
 30
0.0
 11
-10.75000000705609
 21
-93.69124998524631
 31
0.0
  0
LINE
  5
7E24
330
A
100
AcDbEntity
  8
0
  6
Continuous
 62
     7
370
     0
100
AcDbLine
 10
-15.25000000458999
 20
-93.69124998524808
 30
0.0
 11
-15.25000000458999
 21
-93.19124998524809
 31
0.0
  0
LINE
  5
7E25
330
A
100
AcDbEntity
  8
0
  6
Continuous
 62
     7
370
     0
100
AcDbLine
 10
-10.75000000705609
 20
-93.69124998524631
 30
0.0
 11
-15.25000000458999
 21
-93.69124998524808
 31
0.0
  0
LINE
  5
7E26
330
A
100
AcDbEntity
  8
0
  6
Continuous
 62
     9
370
     0
100
AcDbLine
 10
26.7499999929471
 20
-100.6912499852308
 30
0.0
 11
26.7499999929471
 21
-101.6912499852308
 31
0.0
  0
LINE
  5
7E27
330
A
100
AcDbEntity
  8
0
  6
Continuous
 62
     9
370
     0
100
AcDbLine
 10
26.7499999929471
 20
-101.6912499852308
 30
0.0
 11
26.7499999929471
 21
-102.1912499852309
 31
0.0
  0
LINE
  5
7E28
330
A
100
AcDbEntity
  8
0
  6
Continuous
 62
     7
370
     0
100
AcDbLine
 10
31.24999999541274
 20
-100.691249985229
 30
0.0
 11
31.2499999954141
 21
-101.691249985229
 31
0.0
  0
LINE
  5
7E29
330
A
100
AcDbEntity
  8
0
  6
Continuous
 62
     7
370
     0
100
AcDbLine
 10
31.2499999954141
 20
-101.691249985229
 30
0.0
 11
31.2499999954141
 21
-102.191249985229
 31
0.0
  0
LINE
  5
7E2A
330
A
100
AcDbEntity
  8
0
  6
Continuous
 62
     7
370
     0
100
AcDbLine
 10
26.7499999929471
 20
-100.6912499852308
 30
0.0
 11
31.24999999541274
 21
-100.691249985229
 31
0.0
  0
LINE
  5
7E2B
330
A
100
AcDbEntity
  8
0
  6
Continuous
 62
     9
370
     0
100
AcDbLine
 10
-10.7500000070529
 20
-100.6912499852462
 30
0.0
 11
-10.7500000070529
 21
-101.6912499852462
 31
0.0
  0
LINE
  5
7E2C
330
A
100
AcDbEntity
  8
0
  6
Continuous
 62
     9
370
     0
100
AcDbLine
 10
-10.7500000070529
 20
-101.6912499852462
 30
0.0
 11
-10.7500000070529
 21
-102.1912499852463
 31
0.0
  0
LINE
  5
7E2D
330
A
100
AcDbEntity
  8
0
  6
Continuous
 62
     7
370
     0
100
AcDbLine
 10
-10.7500000070529
 20
-100.6912499852462
 30
0.0
 11
26.7499999929471
 21
-100.6912499852308
 31
0.0
  0
LINE
  5
7E2E
330
A
100
AcDbEntity
  8
0
  6
Continuous
 62
     7
370
     0
100
AcDbLine
 10
-15.25000000458726
 20
-100.6912499852481
 30
0.0
 11
-15.2500000045859
 21
-101.6912499852481
 31
0.0
  0
LINE
  5
7E2F
330
A
100
AcDbEntity
  8
0
  6
Continuous
 62
     7
370
     0
100
AcDbLine
 10
-15.2500000045859
 20
-101.6912499852481
 30
0.0
 11
-15.2500000045859
 21
-102.1912499852481
 31
0.0
  0
LINE
  5
7E30
330
A
100
AcDbEntity
  8
0
  6
Continuous
 62
     7
370
     0
100
AcDbLine
 10
-15.25000000458726
 20
-100.6912499852481
 30
0.0
 11
-10.7500000070529
 21
-100.6912499852462
 31
0.0
  0
ARC
  5
7E31
330
A
100
AcDbEntity
  8
0
  6
Continuous
 62
     7
370
     0
100
AcDbCircle
 10
26.99999999177089
 20
-96.4412499852307
 30
0.0
 40
7.499999999999971
100
AcDbArc
 50
42.83342806610408
 51
75.1648884180578
  0
LINE
  5
7E32
330
A
100
AcDbEntity
  8
0
  6
Continuous
 62
     7
370
     0
100
AcDbLine
 10
32.49999999176589
 20
-91.34223047163571
 30
0.0
 11
32.4999999917668
 21
-93.19124998522841
 31
0.0
  0
LINE
  5
7E33
330
A
100
AcDbEntity
  8
0
  6
Continuous
 62
     9
370
     0
100
AcDbLine
 10
-12.50000000821592
 20
-89.1912499852469
 30
0.0
 11
-12.50000000821387
 21
-93.19124998524699
 31
0.0
  0
LINE
  5
7E34
330
A
100
AcDbEntity
  8
0
  6
Continuous
 62
     7
370
     0
100
AcDbLine
 10
-12.50000000821592
 20
-89.1912499852469
 30
0.0
 11
28.92028642873402
 21
-89.1912499852299
 31
0.0
  0
LINE
  5
7E35
330
A
100
AcDbEntity
  8
0
  6
Continuous
 62
     7
370
     0
100
AcDbLine
 10
-12.50000000821387
 20
-93.19124998524699
 30
0.0
 11
32.4999999917668
 21
-93.19124998522841
 31
0.0
  0
LINE
  5
7E36
330
A
100
AcDbEntity
  8
0
  6
Continuous
 62
     7
370
     0
100
AcDbLine
 10
-17.5000000054722
 20
-93.191249985249
 30
0.0
 11
-17.50000000547402
 21
-89.191249985249
 31
0.0
  0
LINE
  5
7E37
330
A
100
AcDbEntity
  8
0
  6
Continuous
 62
     7
370
     0
100
AcDbLine
 10
-17.50000000547493
 20
-89.191249985249
 30
0.0
 11
-12.50000000821592
 21
-89.1912499852469
 31
0.0
  0
LINE
  5
7E38
330
A
100
AcDbEntity
  8
0
  6
Continuous
 62
     7
370
     0
100
AcDbLine
 10
-12.50000000821387
 20
-93.19124998524699
 30
0.0
 11
-17.50000000547402
 21
-93.191249985249
 31
0.0
  0
CIRCLE
  5
7E39
330
A
100
AcDbEntity
  8
0
  6
Continuous
 62
     7
370
     0
100
AcDbCircle
 10
21.49999999071793
 20
-98.19124998730321
 30
0.0
 40
1.772059531467584
  0
LINE
  5
7E3A
330
A
100
AcDbEntity
  8
0
  6
Continuous
 62
     7
370
     0
100
AcDbLine
 10
32.4999999917809
 20
-102.1912499852285
 30
0.0
 11
32.49999999178181
 21
-104.0402694988211
 31
0.0
  0
LINE
  5
7E3B
330
A
100
AcDbEntity
  8
0
  6
Continuous
 62
     7
370
     0
100
AcDbLine
 10
28.92028642874993
 20
-106.1912499852295
 30
0.0
 11
-12.50000000821296
 21
-106.1912499852466
 31
0.0
  0
LINE
  5
7E3C
330
A
100
AcDbEntity
  8
0
  6
Continuous
 62
     9
370
     0
100
AcDbLine
 10
-12.50000000821387
 20
-102.191249985247
 30
0.0
 11
-12.50000000821296
 21
-106.1912499852466
 31
0.0
  0
LINE
  5
7E3D
330
A
100
AcDbEntity
  8
0
  6
Continuous
 62
     7
370
     0
100
AcDbLine
 10
32.4999999917809
 20
-102.1912499852285
 30
0.0
 11
-12.50000000821387
 21
-102.191249985247
 31
0.0
  0
ARC
  5
7E3E
330
A
100
AcDbEntity
  8
0
  6
Continuous
 62
     7
370
     0
100
AcDbCircle
 10
26.99999999177999
 20
-98.94124998523119
 30
0.0
 40
7.499999999999965
100
AcDbArc
 50
284.8351115819964
 51
317.1665719339547
  0
LINE
  5
7E3F
330
A
100
AcDbEntity
  8
0
  6
Continuous
 62
     7
370
     0
100
AcDbLine
 10
-17.5000000054722
 20
-106.1912499852486
 30
0.0
 11
-17.50000000547311
 21
-102.191249985249
 31
0.0
  0
LINE
  5
7E40
330
A
100
AcDbEntity
  8
0
  6
Continuous
 62
     7
370
     0
100
AcDbLine
 10
-12.50000000821296
 20
-106.1912499852466
 30
0.0
 11
-17.50000000547015
 21
-106.1912499852486
 31
0.0
  0
LINE
  5
7E41
330
A
100
AcDbEntity
  8
0
  6
Continuous
 62
     7
370
     0
100
AcDbLine
 10
-17.50000000547311
 20
-102.191249985249
 30
0.0
 11
-12.50000000821387
 21
-102.191249985247
 31
0.0
  0
LINE
  5
7E42
330
A
100
AcDbEntity
  8
0
  6
Continuous
 62
     9
370
     0
100
AcDbLine
 10
5.266062275341937
 20
-94.69124998523971
 30
0.0
 11
5.266062275343756
 21
-100.6912499852396
 31
0.0
  0
LINE
  5
7E43
330
A
100
AcDbEntity
  8
0
  6
Continuous
 62
     7
370
     0
100
AcDbLine
 10
-5.499999999997044
 20
-94.69124998524391
 30
0.0
 11
-5.499999999994088
 21
-100.6912499852426
 31
0.0
  0
LINE
  5
7E44
330
A
100
AcDbEntity
  8
0
  6
Continuous
 62
     9
370
     0
100
AcDbLine
 10
8.530240325537079
 20
-94.69124998523829
 30
0.0
 11
8.530240325540034
 21
-100.6912499852383
 31
0.0
  0
LINE
  5
7E45
330
A
100
AcDbEntity
  8
0
  6
Continuous
 62
     7
370
     0
100
AcDbLine
 10
10.50000000082286
 20
-94.69124998523749
 30
0.0
 11
10.50000000082582
 21
-100.6912499852375
 31
0.0
  0
ARC
  5
7E46
330
A
100
AcDbEntity
  8
0
  6
Continuous
 62
     7
370
     0
100
AcDbCircle
 10
21.50000000082378
 20
-98.19124998523351
 30
0.0
 40
2.500000000000002
100
AcDbArc
 50
90.00000000002605
 51
270.000000000026
  0
ARC
  5
7E47
330
A
100
AcDbEntity
  8
0
  6
Continuous
 62
     7
370
     0
100
AcDbCircle
 10
21.50000000082378
 20
-98.19124998523351
 30
0.0
 40
2.500000000000002
100
AcDbArc
 50
270.000000000026
 51
90.00000000002605
  0
LINE
  5
7E48
330
A
100
AcDbEntity
  8
0
  6
Continuous
 62
     7
370
     0
100
AcDbLine
 10
32.50000000082082
 20
-94.1912499852294
 30
0.0
 11
31.24999999541001
 21
-94.1912499852299
 31
0.0
  0
LINE
  5
7E49
330
A
100
AcDbEntity
  8
0
  6
Continuous
 62
     7
370
     0
100
AcDbLine
 10
32.50000000082378
 20
-102.1912499852285
 30
0.0
 11
32.50000000082082
 21
-94.1912499852294
 31
0.0
  0
LINE
  5
7E4A
330
A
100
AcDbEntity
  8
0
  6
Continuous
 62
     9
370
     0
100
AcDbLine
 10
31.50227759913901
 20
-89.19124999109859
 30
0.0
 11
31.50227759913901
 21
-88.99124999109879
 31
0.0
  0
LINE
  5
7E4B
330
A
100
AcDbEntity
  8
0
  6
Continuous
 62
     9
370
     0
100
AcDbLine
 10
26.50227759913901
 20
-88.99124999109842
 30
0.0
 11
26.50227759913901
 21
-89.19124998523091
 31
0.0
  0
LINE
  5
7E4C
330
A
100
AcDbEntity
  8
0
  6
Continuous
 62
     7
370
     0
100
AcDbLine
 10
31.9022775991391
 20
-89.19124999109859
 30
0.0
 11
31.50227759913901
 21
-88.99124999109879
 31
0.0
  0
LINE
  5
7E4D
330
A
100
AcDbEntity
  8
0
  6
Continuous
 62
     7
370
     0
100
AcDbLine
 10
31.50227759913901
 20
-88.99124999109879
 30
0.0
 11
31.00227759913901
 21
-88.74124999109879
 31
0.0
  0
LINE
  5
7E4E
330
A
100
AcDbEntity
  8
0
  6
Continuous
 62
     7
370
     0
100
AcDbLine
 10
27.00227759913901
 20
-88.74124999109849
 30
0.0
 11
26.50227759913901
 21
-88.99124999109842
 31
0.0
  0
LINE
  5
7E4F
330
A
100
AcDbEntity
  8
0
  6
Continuous
 62
     7
370
     0
100
AcDbLine
 10
26.50227759913901
 20
-88.99124999109842
 30
0.0
 11
26.1022776108739
 21
-89.19124998523107
 31
0.0
  0
LINE
  5
7E50
330
A
100
AcDbEntity
  8
0
  6
Continuous
 62
     7
370
     0
100
AcDbLine
 10
63.74999993335677
 20
-88.89124999399209
 30
0.0
 11
63.74999993335677
 21
-89.19124999399208
 31
0.0
  0
LINE
  5
7E51
330
A
100
AcDbEntity
  8
0
  6
Continuous
 62
     7
370
     0
100
AcDbLine
 10
76.24999993335677
 20
-89.19124999398759
 30
0.0
 11
76.24999993335677
 21
-88.89124999398758
 31
0.0
  0
LINE
  5
7E52
330
A
100
AcDbEntity
  8
0
  6
Continuous
 62
     7
370
     0
100
AcDbLine
 10
76.24999993335677
 20
-88.89124999398758
 30
0.0
 11
75.41284204303088
 21
-87.4412499939879
 31
0.0
  0
LINE
  5
7E53
330
A
100
AcDbEntity
  8
0
  6
Continuous
 62
     7
370
     0
100
AcDbLine
 10
64.58715782368085
 20
-87.44124999399181
 30
0.0
 11
63.74999993335677
 21
-88.89124999399209
 31
0.0
  0
ARC
  5
7E54
330
A
100
AcDbEntity
  8
0
  6
Continuous
 62
     7
370
     0
100
AcDbCircle
 10
65.02017052557312
 20
-87.69124999399158
 30
0.0
 40
0.5000000000000006
100
AcDbArc
 50
90.00000000002605
 51
150.0000000000289
  0
ARC
  5
7E55
330
A
100
AcDbEntity
  8
0
  6
Continuous
 62
     7
370
     0
100
AcDbCircle
 10
74.97982934113884
 20
-87.69124999398808
 30
0.0
 40
0.4999999999999822
100
AcDbArc
 50
30.00000000001931
 51
90.00000000002605
  0
LINE
  5
7E56
330
A
100
AcDbEntity
  8
0
  6
Continuous
 62
     7
370
     0
100
AcDbLine
 10
-6.250000000004092
 20
-88.89124998524179
 30
0.0
 11
-6.250000000004092
 21
-89.1912499852418
 31
0.0
  0
LINE
  5
7E57
330
A
100
AcDbEntity
  8
0
  6
Continuous
 62
     7
370
     0
100
AcDbLine
 10
6.249999999995907
 20
-89.1912499852418
 30
0.0
 11
6.249999999995907
 21
-88.89124998524179
 31
0.0
  0
LINE
  5
7E58
330
A
100
AcDbEntity
  8
0
  6
Continuous
 62
     7
370
     0
100
AcDbLine
 10
6.249999999995907
 20
-88.89124998524179
 30
0.0
 11
5.412842109671828
 21
-87.44124998524181
 31
0.0
  0
LINE
  5
7E59
330
A
100
AcDbEntity
  8
0
  6
Continuous
 62
     7
370
     0
100
AcDbLine
 10
-5.412842109679104
 20
-87.44124998524181
 30
0.0
 11
-6.250000000004092
 21
-88.89124998524179
 31
0.0
  0
ARC
  5
7E5A
330
A
100
AcDbEntity
  8
0
  6
Continuous
 62
     7
370
     0
100
AcDbCircle
 10
-4.979829407785928
 20
-87.69124998524182
 30
0.0
 40
0.5000000000000006
100
AcDbArc
 50
90.0
 51
150.0000000000027
  0
ARC
  5
7E5B
330
A
100
AcDbEntity
  8
0
  6
Continuous
 62
     7
370
     0
100
AcDbCircle
 10
4.979829407778879
 20
-87.69124998524182
 30
0.0
 40
0.5000000000001258
100
AcDbArc
 50
29.99999999999588
 51
90.0
  0
LINE
  5
7E5C
330
A
100
AcDbEntity
  8
0
  6
Continuous
 62
     9
370
     0
100
AcDbLine
 10
-59.6912500303199
 20
8.400000041738422
 30
0.0
 11
-58.69125003253088
 21
8.400000041624394
 31
0.0
  0
LINE
  5
7E5D
330
A
100
AcDbEntity
  8
0
  6
Continuous
 62
     9
370
     0
100
AcDbLine
 10
-58.69125003253088
 20
8.400000041624394
 30
0.0
 11
-58.19125003252998
 21
8.400000041567295
 31
0.0
  0
LINE
  5
7E5E
330
A
100
AcDbEntity
  8
0
  6
Continuous
 62
     7
370
     0
100
AcDbLine
 10
-59.69125002980899
 20
12.90000004173868
 30
0.0
 11
-58.691250024184
 21
12.90000004162468
 31
0.0
  0
LINE
  5
7E5F
330
A
100
AcDbEntity
  8
0
  6
Continuous
 62
     7
370
     0
100
AcDbLine
 10
-58.691250024184
 20
12.90000004162468
 30
0.0
 11
-58.19125002418104
 21
12.90000004156766
 31
0.0
  0
LINE
  5
7E60
330
A
100
AcDbEntity
  8
0
  6
Continuous
 62
     7
370
     0
100
AcDbLine
 10
-59.69125003032195
 20
8.400000041738422
 30
0.0
 11
-59.69125002980899
 21
12.90000004173868
 31
0.0
  0
LINE
  5
7E61
330
A
100
AcDbEntity
  8
0
  6
Continuous
 62
     9
370
     0
100
AcDbLine
 10
-59.69125003799423
 20
-58.89999995826158
 30
0.0
 11
-58.69125003578324
 21
-58.89999995837559
 31
0.0
  0
LINE
  5
7E62
330
A
100
AcDbEntity
  8
0
  6
Continuous
 62
     9
370
     0
100
AcDbLine
 10
-58.69125003578324
 20
-58.89999995837559
 30
0.0
 11
-58.19125003578188
 21
-58.8999999584326
 31
0.0
  0
LINE
  5
7E63
330
A
100
AcDbEntity
  8
0
  6
Continuous
 62
     7
370
     0
100
AcDbLine
 10
-59.69125003799423
 20
-58.89999995826158
 30
0.0
 11
-59.6912500303199
 21
8.400000041738422
 31
0.0
  0
LINE
  5
7E64
330
A
100
AcDbEntity
  8
0
  6
Continuous
 62
     7
370
     0
100
AcDbLine
 10
-59.691250038509
 20
-63.3999999582613
 30
0.0
 11
-58.691250024184
 21
-63.3999999583753
 31
0.0
  0
LINE
  5
7E65
330
A
100
AcDbEntity
  8
0
  6
Continuous
 62
     7
370
     0
100
AcDbLine
 10
-58.691250024184
 20
-63.3999999583753
 30
0.0
 11
-58.19125003600015
 21
-63.39999995843228
 31
0.0
  0
LINE
  5
7E66
330
A
100
AcDbEntity
  8
0
  6
Continuous
 62
     7
370
     0
100
AcDbLine
 10
-59.691250038509
 20
-63.3999999582613
 30
0.0
 11
-59.69125003799604
 21
-58.89999995826158
 31
0.0
  0
LINE
  5
7E67
330
A
100
AcDbEntity
  8
0
  6
Continuous
 62
     7
370
     0
100
AcDbLine
 10
-58.69125003600197
 20
-63.39999996055849
 30
0.0
 11
-58.19125003600015
 21
-63.39999996058259
 31
0.0
  0
LINE
  5
7E68
330
A
100
AcDbEntity
  8
0
  6
Continuous
 62
     9
370
     0
100
AcDbLine
 10
-58.69125003578324
 20
-58.8999999584413
 30
0.0
 11
-58.19125003578188
 21
-58.89999995846548
 31
0.0
  0
LINE
  5
7E69
330
A
100
AcDbEntity
  8
0
  6
Continuous
 62
     7
370
     0
100
AcDbLine
 10
-58.69125003600197
 20
-63.39999996055849
 30
0.0
 11
-58.69125003578506
 21
-58.8999999584413
 31
0.0
  0
LINE
  5
7E6A
330
A
100
AcDbEntity
  8
0
  6
Continuous
 62
     9
370
     0
100
AcDbLine
 10
-58.69125003253088
 20
8.400000041558683
 30
0.0
 11
-58.19125003252998
 21
8.400000041534497
 31
0.0
  0
LINE
  5
7E6B
330
A
100
AcDbEntity
  8
0
  6
Continuous
 62
     7
370
     0
100
AcDbLine
 10
-58.69125003578324
 20
-58.8999999584413
 30
0.0
 11
-58.69125003253088
 21
8.400000041558683
 31
0.0
  0
LINE
  5
7E6C
330
A
100
AcDbEntity
  8
0
  6
Continuous
 62
     7
370
     0
100
AcDbLine
 10
-58.69125003231511
 20
12.90000003944161
 30
0.0
 11
-58.19125002418104
 21
12.90000003941742
 31
0.0
  0
LINE
  5
7E6D
330
A
100
AcDbEntity
  8
0
  6
Continuous
 62
     7
370
     0
100
AcDbLine
 10
-58.69125003253316
 20
8.400000041558683
 30
0.0
 11
-58.69125003231511
 21
12.90000003944161
 31
0.0
  0
LINE
  5
7E6E
330
A
100
AcDbEntity
  8
0
  6
Continuous
 62
     7
370
     0
100
AcDbLine
 10
-53.74125003005111
 20
-15.7999999774687
 30
0.0
 11
-53.74125003005111
 21
-11.7999999774687
 31
0.0
  0
ELLIPSE
  5
7E6F
330
A
100
AcDbEntity
  8
0
  6
Continuous
 62
     9
370
     0
100
AcDbEllipse
 10
-71.78176435835098
 20
-29.3999999793096
 30
0.0
 11
0.0000000032089886
 21
-1.0
 31
0.0
210
0.0
220
0.0
230
1.0
 40
0.9545015926788982
 41
4.712388977069592
 42
5.839794658929347
  0
LINE
  5
7E70
330
A
100
AcDbEntity
  8
0
  6
Continuous
 62
     9
370
     0
100
AcDbLine
 10
-72.73626595102996
 20
-29.3999999820054
 30
0.0
 11
-72.19125003005115
 21
-29.3999999819811
 31
0.0
  0
LINE
  5
7E71
330
A
100
AcDbEntity
  8
0
  6
Continuous
 62
     9
370
     0
100
AcDbLine
 10
-54.19125003005206
 20
-29.39999998117989
 30
0.0
 11
-53.64125003005415
 21
-29.39999998115542
 31
0.0
  0
ELLIPSE
  5
7E72
330
A
100
AcDbEntity
  8
0
  6
Continuous
 62
     9
370
     0
100
AcDbEllipse
 10
-54.59625002947223
 20
-29.3999999785589
 30
0.0
 11
-0.0000000031386005
 21
-1.0
 31
0.0
210
0.0
220
0.0
230
1.0
 40
0.9549999994188096
 41
0.4379499357470233
 42
1.57079633012798
  0
LINE
  5
7E73
330
A
100
AcDbEntity
  8
0
  6
Continuous
 62
     9
370
     0
100
AcDbLine
 10
-72.73626595103087
 20
-29.39999997905741
 30
0.0
 11
-72.73626595142218
 21
-20.5999999790574
 31
0.0
  0
LINE
  5
7E74
330
A
100
AcDbEntity
  8
0
  6
Continuous
 62
     9
370
     0
100
AcDbLine
 10
-53.64125003044591
 20
-20.59999998115541
 30
0.0
 11
-54.19125003005206
 21
-20.59999998117991
 31
0.0
  0
LINE
  5
7E75
330
A
100
AcDbEntity
  8
0
  6
Continuous
 62
     9
370
     0
100
AcDbLine
 10
-72.19125003005115
 20
-20.59999998198108
 30
0.0
 11
-72.73626595142218
 21
-20.59999998200533
 31
0.0
  0
LINE
  5
7E76
330
A
100
AcDbEntity
  8
0
  6
Continuous
 62
     9
370
     0
100
AcDbLine
 10
-53.64125003005324
 20
-29.3999999782231
 30
0.0
 11
-53.64125003044501
 21
-20.59999997822308
 31
0.0
  0
ELLIPSE
  5
7E77
330
A
100
AcDbEntity
  8
0
  6
Continuous
 62
     9
370
     0
100
AcDbEllipse
 10
-54.59625002986399
 20
-20.59999997855888
 30
0.0
 11
0.0000000031386005
 21
1.0
 31
0.0
210
0.0
220
0.0
230
1.0
 40
0.9549999994188102
 41
4.712388983717771
 42
5.845235377552602
  0
ELLIPSE
  5
7E78
330
A
100
AcDbEntity
  8
0
  6
Continuous
 62
     9
370
     0
100
AcDbEllipse
 10
-71.78176435874298
 20
-20.5999999793095
 30
0.0
 11
-0.0000000032087666
 21
1.0
 31
0.0
210
0.0
220
0.0
230
1.0
 40
0.9545015926788975
 41
0.4433906410722105
 42
1.570796323479629
  0
LINE
  5
7E79
330
A
100
AcDbEntity
  8
0
  6
Continuous
 62
     9
370
     0
100
AcDbLine
 10
-72.80451356201206
 20
-29.3999999795025
 30
0.0
 11
-72.73626595103087
 21
-29.3999999794994
 31
0.0
  0
LINE
  5
7E7A
330
A
100
AcDbEntity
  8
0
  6
Continuous
 62
     9
370
     0
100
AcDbLine
 10
-72.73626595142218
 20
-20.59999997949947
 30
0.0
 11
-72.80451356240405
 21
-20.59999997950249
 31
0.0
  0
LINE
  5
7E7B
330
A
100
AcDbEntity
  8
0
  6
Continuous
 62
     9
370
     0
100
AcDbLine
 10
-53.64125003005324
 20
-29.399999978663
 30
0.0
 11
-53.57375002918184
 21
-29.39999997865999
 31
0.0
  0
LINE
  5
7E7C
330
A
100
AcDbEntity
  8
0
  6
Continuous
 62
     9
370
     0
100
AcDbLine
 10
-53.57375002957315
 20
-20.59999997865998
 30
0.0
 11
-53.64125003044501
 21
-20.59999997866299
 31
0.0
  0
LINE
  5
7E7D
330
A
100
AcDbEntity
  8
0
  6
Continuous
 62
     9
370
     0
100
AcDbLine
 10
-72.80875001930212
 20
-29.39999998450102
 30
0.0
 11
-72.80451356201206
 21
-29.39999998450082
 31
0.0
  0
LINE
  5
7E7E
330
A
100
AcDbEntity
  8
0
  6
Continuous
 62
     9
370
     0
100
AcDbLine
 10
-72.80451356240405
 20
-20.5999999845009
 30
0.0
 11
-72.80875001969298
 21
-20.59999998450101
 31
0.0
  0
LINE
  5
7E7F
330
A
100
AcDbEntity
  8
0
  6
Continuous
 62
     7
370
     0
100
AcDbLine
 10
-67.19125003600016
 20
-63.39999996014771
 30
0.0
 11
-66.691250024184
 21
-63.3999999601719
 31
0.0
  0
LINE
  5
7E80
330
A
100
AcDbEntity
  8
0
  6
Continuous
 62
     7
370
     0
100
AcDbLine
 10
-66.691250024184
 20
-63.3999999601719
 30
0.0
 11
-65.69125003600198
 21
-63.39999996022019
 31
0.0
  0
LINE
  5
7E81
330
A
100
AcDbEntity
  8
0
  6
Continuous
 62
     9
370
     0
100
AcDbLine
 10
-67.19125003578188
 20
-58.8999999580306
 30
0.0
 11
-66.69125003578324
 21
-58.89999995805482
 31
0.0
  0
LINE
  5
7E82
330
A
100
AcDbEntity
  8
0
  6
Continuous
 62
     9
370
     0
100
AcDbLine
 10
-66.69125003578324
 20
-58.89999995805482
 30
0.0
 11
-65.69125003578324
 21
-58.89999995810308
 31
0.0
  0
LINE
  5
7E83
330
A
100
AcDbEntity
  8
0
  6
Continuous
 62
     7
370
     0
100
AcDbLine
 10
-65.69125003600198
 20
-63.39999996022019
 30
0.0
 11
-65.69125003578506
 21
-58.89999995810308
 31
0.0
  0
LINE
  5
7E84
330
A
100
AcDbEntity
  8
0
  6
Continuous
 62
     9
370
     0
100
AcDbLine
 10
-67.19125003252997
 20
8.400000041969406
 30
0.0
 11
-66.69125003253089
 21
8.400000041945304
 31
0.0
  0
LINE
  5
7E85
330
A
100
AcDbEntity
  8
0
  6
Continuous
 62
     9
370
     0
100
AcDbLine
 10
-66.69125003253089
 20
8.400000041945304
 30
0.0
 11
-65.69125003253089
 21
8.40000004189693
 31
0.0
  0
LINE
  5
7E86
330
A
100
AcDbEntity
  8
0
  6
Continuous
 62
     7
370
     0
100
AcDbLine
 10
-65.69125003578324
 20
-58.89999995810308
 30
0.0
 11
-65.69125003253089
 21
8.40000004189693
 31
0.0
  0
LINE
  5
7E87
330
A
100
AcDbEntity
  8
0
  6
Continuous
 62
     7
370
     0
100
AcDbLine
 10
-67.19125002418104
 20
12.90000003985233
 30
0.0
 11
-66.691250024184
 21
12.90000003982808
 31
0.0
  0
LINE
  5
7E88
330
A
100
AcDbEntity
  8
0
  6
Continuous
 62
     7
370
     0
100
AcDbLine
 10
-66.691250024184
 20
12.90000003982808
 30
0.0
 11
-65.69125003231511
 21
12.90000003977979
 31
0.0
  0
LINE
  5
7E89
330
A
100
AcDbEntity
  8
0
  6
Continuous
 62
     7
370
     0
100
AcDbLine
 10
-65.69125003253316
 20
8.40000004189693
 30
0.0
 11
-65.69125003231511
 21
12.90000003977979
 31
0.0
  0
LINE
  5
7E8A
330
A
100
AcDbEntity
  8
0
  6
Continuous
 62
     7
370
     0
100
AcDbLine
 10
-67.19125003600016
 20
-63.39999996014771
 30
0.0
 11
-66.69125003600197
 21
-63.3999999601719
 31
0.0
  0
LINE
  5
7E8B
330
A
100
AcDbEntity
  8
0
  6
Continuous
 62
     9
370
     0
100
AcDbLine
 10
-67.19125003578188
 20
-58.8999999580306
 30
0.0
 11
-66.69125003578324
 21
-58.89999995805467
 31
0.0
  0
LINE
  5
7E8C
330
A
100
AcDbEntity
  8
0
  6
Continuous
 62
     7
370
     0
100
AcDbLine
 10
-66.69125003600197
 20
-63.3999999601719
 30
0.0
 11
-66.69125003578506
 21
-58.89999995805467
 31
0.0
  0
LINE
  5
7E8D
330
A
100
AcDbEntity
  8
0
  6
Continuous
 62
     9
370
     0
100
AcDbLine
 10
-67.19125003252997
 20
8.400000041969406
 30
0.0
 11
-66.69125003253089
 21
8.40000004194519
 31
0.0
  0
LINE
  5
7E8E
330
A
100
AcDbEntity
  8
0
  6
Continuous
 62
     7
370
     0
100
AcDbLine
 10
-66.69125003578324
 20
-58.89999995805467
 30
0.0
 11
-66.69125003253089
 21
8.400000041945304
 31
0.0
  0
LINE
  5
7E8F
330
A
100
AcDbEntity
  8
0
  6
Continuous
 62
     7
370
     0
100
AcDbLine
 10
-67.19125002418104
 20
12.90000003985233
 30
0.0
 11
-66.69125003231511
 21
12.90000003982808
 31
0.0
  0
LINE
  5
7E90
330
A
100
AcDbEntity
  8
0
  6
Continuous
 62
     7
370
     0
100
AcDbLine
 10
-66.69125003253316
 20
8.40000004194519
 30
0.0
 11
-66.69125003231511
 21
12.90000003982808
 31
0.0
  0
LINE
  5
7E91
330
A
100
AcDbEntity
  8
0
  6
Continuous
 62
     7
370
     0
100
AcDbLine
 10
-53.89125003294316
 20
6.250000034069898
 30
0.0
 11
-53.89125003294316
 21
-6.249999965930101
 31
0.0
  0
LINE
  5
7E92
330
A
100
AcDbEntity
  8
0
  6
Continuous
 62
     9
370
     0
100
AcDbLine
 10
-52.44125003294311
 20
-5.412842075605084
 30
0.0
 11
-52.44125003294311
 21
5.41284214374491
 31
0.0
  0
LINE
  5
7E93
330
A
100
AcDbEntity
  8
0
  6
Continuous
 62
     7
370
     0
100
AcDbLine
 10
-52.19125003294312
 20
4.979829441852672
 30
0.0
 11
-52.19125003294312
 21
-4.979829373712902
 31
0.0
  0
LINE
  5
7E94
330
A
100
AcDbEntity
  8
0
  6
Continuous
 62
     9
370
     0
100
AcDbLine
 10
-52.44125003535896
 20
-55.4128420755957
 30
0.0
 11
-52.44125003535896
 21
-44.58715785624559
 31
0.0
  0
LINE
  5
7E95
330
A
100
AcDbEntity
  8
0
  6
Continuous
 62
     7
370
     0
100
AcDbLine
 10
-53.89125003535901
 20
-43.74999996592058
 30
0.0
 11
-53.89125003535901
 21
-56.2499999659207
 31
0.0
  0
LINE
  5
7E96
330
A
100
AcDbEntity
  8
0
  6
Continuous
 62
     7
370
     0
100
AcDbLine
 10
-52.19125003535896
 20
-45.02017055813789
 30
0.0
 11
-52.19125003535896
 21
-54.97982937370349
 31
0.0
  0
LINE
  5
7E97
330
A
100
AcDbEntity
  8
0
  6
Continuous
 62
     9
370
     0
100
AcDbLine
 10
-58.19125003583508
 20
-59.9999999573956
 30
0.0
 11
-54.19125003583713
 21
-59.9999999575889
 31
0.0
  0
LINE
  5
7E98
330
A
100
AcDbEntity
  8
0
  6
Continuous
 62
     7
370
     0
100
AcDbLine
 10
-54.19125003583895
 20
-59.9999999575889
 30
0.0
 11
-54.19125003608019
 21
-64.99999995993559
 31
0.0
  0
LINE
  5
7E99
330
A
100
AcDbEntity
  8
0
  6
Continuous
 62
     7
370
     0
100
AcDbLine
 10
-54.19125003608019
 20
-64.99999995994031
 30
0.0
 11
-58.19125003607928
 21
-64.99999995974699
 31
0.0
  0
LINE
  5
7E9A
330
A
100
AcDbEntity
  8
0
  6
Continuous
 62
     7
370
     0
100
AcDbLine
 10
-58.19125003607928
 20
-64.9999999597442
 30
0.0
 11
-58.19125003583713
 21
-59.9999999573956
 31
0.0
  0
LINE
  5
7E9B
330
A
100
AcDbEntity
  8
0
  6
Continuous
 62
     9
370
     0
100
AcDbLine
 10
-54.19125003245404
 20
10.00000004239791
 30
0.0
 11
-58.19125003245222
 21
10.00000004259121
 31
0.0
  0
LINE
  5
7E9C
330
A
100
AcDbEntity
  8
0
  6
Continuous
 62
     7
370
     0
100
AcDbLine
 10
-54.19125003583713
 20
-59.9999999575889
 30
0.0
 11
-54.19125003245404
 21
10.00000004239791
 31
0.0
  0
LINE
  5
7E9D
330
A
100
AcDbEntity
  8
0
  6
Continuous
 62
     7
370
     0
100
AcDbLine
 10
-58.19125003245222
 20
10.00000004259121
 30
0.0
 11
-58.19125003583508
 21
-59.9999999573956
 31
0.0
  0
LINE
  5
7E9E
330
A
100
AcDbEntity
  8
0
  6
Continuous
 62
     7
370
     0
100
AcDbLine
 10
-58.19125003221301
 20
15.00000004023792
 30
0.0
 11
-54.19125003221506
 21
15.0000000400446
 31
0.0
  0
LINE
  5
7E9F
330
A
100
AcDbEntity
  8
0
  6
Continuous
 62
     7
370
     0
100
AcDbLine
 10
-54.19125003221506
 20
15.0000000400417
 30
0.0
 11
-54.19125003245608
 21
10.00000004239791
 31
0.0
  0
LINE
  5
7EA0
330
A
100
AcDbEntity
  8
0
  6
Continuous
 62
     7
370
     0
100
AcDbLine
 10
-58.19125003245495
 20
10.00000004259121
 30
0.0
 11
-58.19125003221301
 21
15.00000004023312
 31
0.0
  0
LINE
  5
7EA1
330
A
100
AcDbEntity
  8
0
  6
Continuous
 62
     9
370
     0
100
AcDbLine
 10
-71.19125003583508
 20
-59.99999995677879
 30
0.0
 11
-67.19125003583508
 21
-59.999999956972
 31
0.0
  0
LINE
  5
7EA2
330
A
100
AcDbEntity
  8
0
  6
Continuous
 62
     7
370
     0
100
AcDbLine
 10
-67.19125003583712
 20
-59.999999956972
 30
0.0
 11
-67.19125003608019
 21
-64.99999995932441
 31
0.0
  0
LINE
  5
7EA3
330
A
100
AcDbEntity
  8
0
  6
Continuous
 62
     7
370
     0
100
AcDbLine
 10
-67.19125003608019
 20
-64.99999995932441
 30
0.0
 11
-71.19125003607928
 21
-64.99999995913109
 31
0.0
  0
LINE
  5
7EA4
330
A
100
AcDbEntity
  8
0
  6
Continuous
 62
     7
370
     0
100
AcDbLine
 10
-71.19125003607928
 20
-64.99999995913109
 30
0.0
 11
-71.19125003583713
 21
-59.99999995677879
 31
0.0
  0
LINE
  5
7EA5
330
A
100
AcDbEntity
  8
0
  6
Continuous
 62
     9
370
     0
100
AcDbLine
 10
-67.19125003245221
 20
10.00000004302799
 30
0.0
 11
-71.19125003245312
 21
10.00000004322132
 31
0.0
  0
LINE
  5
7EA6
330
A
100
AcDbEntity
  8
0
  6
Continuous
 62
     7
370
     0
100
AcDbLine
 10
-67.19125003583508
 20
-59.999999956972
 30
0.0
 11
-67.19125003245221
 21
10.00000004302799
 31
0.0
  0
LINE
  5
7EA7
330
A
100
AcDbEntity
  8
0
  6
Continuous
 62
     7
370
     0
100
AcDbLine
 10
-71.19125003245312
 20
10.00000004322132
 30
0.0
 11
-71.19125003583508
 21
-59.99999995677879
 31
0.0
  0
LINE
  5
7EA8
330
A
100
AcDbEntity
  8
0
  6
Continuous
 62
     7
370
     0
100
AcDbLine
 10
-71.19125003221302
 20
15.00000004086891
 30
0.0
 11
-67.19125003221302
 21
15.00000004067561
 31
0.0
  0
LINE
  5
7EA9
330
A
100
AcDbEntity
  8
0
  6
Continuous
 62
     7
370
     0
100
AcDbLine
 10
-67.19125003221302
 20
15.00000004067561
 30
0.0
 11
-67.19125003245494
 21
10.00000004302799
 31
0.0
  0
LINE
  5
7EAA
330
A
100
AcDbEntity
  8
0
  6
Continuous
 62
     7
370
     0
100
AcDbLine
 10
-71.19125003245494
 20
10.00000004322132
 30
0.0
 11
-71.19125003221302
 21
15.00000004086891
 31
0.0
  0
LINE
  5
7EAB
330
A
100
AcDbEntity
  8
0
  6
Continuous
 62
     9
370
     0
100
AcDbLine
 10
-59.69125003697922
 20
-49.9999999629801
 30
0.0
 11
-65.69125003535328
 21
-49.99999996269008
 31
0.0
  0
LINE
  5
7EAC
330
A
100
AcDbEntity
  8
0
  6
Continuous
 62
     9
370
     0
100
AcDbLine
 10
-59.69125003127806
 20
0.0000000370199018
 30
0.0
 11
-65.69125002419719
 21
0.0000000373098317
 31
0.0
  0
LINE
  5
7EAD
330
A
100
AcDbEntity
  8
0
  6
Continuous
 62
     7
370
     0
100
AcDbLine
 10
-72.19125003005206
 20
-41.24999996623418
 30
0.0
 11
-72.19125003005206
 21
-8.749999966234184
 31
0.0
  0
LINE
  5
7EAE
330
A
100
AcDbEntity
  8
0
  6
Continuous
 62
     7
370
     0
100
AcDbLine
 10
-71.19125002417217
 20
-8.749999966234184
 30
0.0
 11
-72.19125003005206
 21
-8.749999966234184
 31
0.0
  0
LINE
  5
7EAF
330
A
100
AcDbEntity
  8
0
  6
Continuous
 62
     7
370
     0
100
AcDbLine
 10
-71.19125002417217
 20
-41.24999996623418
 30
0.0
 11
-72.19125003005206
 21
-41.24999996623418
 31
0.0
  0
LINE
  5
7EB0
330
A
100
AcDbEntity
  8
0
  6
Continuous
 62
     7
370
     0
100
AcDbLine
 10
-71.75594509786106
 20
-41.2499999815806
 30
0.0
 11
-71.19125003005115
 21
-41.2499999815806
 31
0.0
  0
LINE
  5
7EB1
330
A
100
AcDbEntity
  8
0
  6
Continuous
 62
     7
370
     0
100
AcDbLine
 10
-71.75594509786106
 20
-41.24999998312481
 30
0.0
 11
-71.96770574828907
 21
-41.24999998312481
 31
0.0
  0
LINE
  5
7EB2
330
A
100
AcDbEntity
  8
0
  6
Continuous
 62
     7
370
     0
100
AcDbLine
 10
-59.691250024184
 20
-63.3999999853188
 30
0.0
 11
-59.691250024184
 21
-58.89999998285251
 31
0.0
  0
LINE
  5
7EB3
330
A
100
AcDbEntity
  8
0
  6
Continuous
 62
     7
370
     0
100
AcDbLine
 10
-59.691250024184
 20
8.40000001714759
 30
0.0
 11
-59.691250024184
 21
12.90000001468118
 31
0.0
  0
LINE
  5
7EB4
330
A
100
AcDbEntity
  8
0
  6
Continuous
 62
     7
370
     0
100
AcDbLine
 10
-65.691250024184
 20
-58.89999998285251
 30
0.0
 11
-65.691250024184
 21
-63.3999999853188
 31
0.0
  0
LINE
  5
7EB5
330
A
100
AcDbEntity
  8
0
  6
Continuous
 62
     7
370
     0
100
AcDbLine
 10
-65.691250024184
 20
12.90000001468118
 30
0.0
 11
-65.691250024184
 21
8.40000001714759
 31
0.0
  0
LINE
  5
7EB6
330
A
100
AcDbEntity
  8
0
  6
Continuous
 62
     9
370
     0
100
AcDbLine
 10
-54.19125003005206
 20
-16.2999999774687
 30
0.0
 11
-53.9912500300511
 21
-16.2999999774687
 31
0.0
  0
LINE
  5
7EB7
330
A
100
AcDbEntity
  8
0
  6
Continuous
 62
     9
370
     0
100
AcDbLine
 10
-53.9912500300511
 20
-11.2999999774687
 30
0.0
 11
-54.19125003005206
 21
-11.2999999774687
 31
0.0
  0
LINE
  5
7EB8
330
A
100
AcDbEntity
  8
0
  6
Continuous
 62
     7
370
     0
100
AcDbLine
 10
-54.19125003005206
 20
-16.69999997746868
 30
0.0
 11
-53.9912500300511
 21
-16.2999999774687
 31
0.0
  0
LINE
  5
7EB9
330
A
100
AcDbEntity
  8
0
  6
Continuous
 62
     7
370
     0
100
AcDbLine
 10
-53.9912500300511
 20
-16.2999999774687
 30
0.0
 11
-53.74125003005111
 21
-15.7999999774687
 31
0.0
  0
LINE
  5
7EBA
330
A
100
AcDbEntity
  8
0
  6
Continuous
 62
     7
370
     0
100
AcDbLine
 10
-53.74125003005111
 20
-11.7999999774687
 30
0.0
 11
-53.9912500300511
 21
-11.2999999774687
 31
0.0
  0
LINE
  5
7EBB
330
A
100
AcDbEntity
  8
0
  6
Continuous
 62
     7
370
     0
100
AcDbLine
 10
-53.9912500300511
 20
-11.2999999774687
 30
0.0
 11
-54.19125003005206
 21
-10.89999997746869
 31
0.0
  0
ARC
  5
7EBC
330
A
100
AcDbEntity
  8
0
  6
Continuous
 62
     7
370
     0
100
AcDbCircle
 10
-71.80451356201206
 20
-29.39999997945802
 30
0.0
 40
1.000000000000111
100
AcDbArc
 50
180.0000000025501
 51
247.2484152937146
  0
LINE
  5
7EBD
330
A
100
AcDbEntity
  8
0
  6
Continuous
 62
     7
370
     0
100
AcDbLine
 10
-72.80451356240405
 20
-20.59999997950249
 30
0.0
 11
-72.80451356201206
 21
-29.3999999795025
 31
0.0
  0
ARC
  5
7EBE
330
A
100
AcDbEntity
  8
0
  6
Continuous
 62
     7
370
     0
100
AcDbCircle
 10
-71.80451356240405
 20
-20.59999997945801
 30
0.0
 40
1.000000000000075
100
AcDbArc
 50
112.7515846819579
 51
180.0000000025534
  0
ARC
  5
7EBF
330
A
100
AcDbEntity
  8
0
  6
Continuous
 62
     7
370
     0
100
AcDbCircle
 10
-54.57375002918183
 20
-29.3999999787045
 30
0.0
 40
1.000000000000025
100
AcDbArc
 50
292.488624579567
 51
0.0000000025501433
  0
ARC
  5
7EC0
330
A
100
AcDbEntity
  8
0
  6
Continuous
 62
     7
370
     0
100
AcDbCircle
 10
-54.57375002957315
 20
-20.59999997870449
 30
0.0
 40
0.9999999999998896
100
AcDbArc
 50
0.0000000025501433
 51
67.51137539613925
  0
LINE
  5
7EC1
330
A
100
AcDbEntity
  8
0
  6
Continuous
 62
     7
370
     0
100
AcDbLine
 10
-53.57375002918184
 20
-29.39999997865999
 30
0.0
 11
-53.57375002957315
 21
-20.59999997865998
 31
0.0
  0
ARC
  5
7EC2
330
A
100
AcDbEntity
  8
0
  6
Continuous
 62
     7
370
     0
100
AcDbCircle
 10
-71.80875001930099
 20
-29.39999998445649
 30
0.0
 40
1.000000000000111
100
AcDbArc
 50
180.0000000025501
 51
247.5113746998786
  0
LINE
  5
7EC3
330
A
100
AcDbEntity
  8
0
  6
Continuous
 62
     7
370
     0
100
AcDbLine
 10
-72.80875001969298
 20
-20.59999998450101
 30
0.0
 11
-72.80875001930212
 21
-29.39999998450102
 31
0.0
  0
ARC
  5
7EC4
330
A
100
AcDbEntity
  8
0
  6
Continuous
 62
     7
370
     0
100
AcDbCircle
 10
-71.80875001969297
 20
-20.5999999844565
 30
0.0
 40
1.000000000000082
100
AcDbArc
 50
112.488625275841
 51
180.000000002555
  0
LINE
  5
7EC5
330
A
100
AcDbEntity
  8
0
  6
Continuous
 62
     7
370
     0
100
AcDbLine
 10
-53.89125003294316
 20
6.250000034069898
 30
0.0
 11
-54.19125003294311
 21
6.250000034069898
 31
0.0
  0
LINE
  5
7EC6
330
A
100
AcDbEntity
  8
0
  6
Continuous
 62
     7
370
     0
100
AcDbLine
 10
-54.19125003294311
 20
-6.249999965930101
 30
0.0
 11
-53.89125003294316
 21
-6.249999965930101
 31
0.0
  0
LINE
  5
7EC7
330
A
100
AcDbEntity
  8
0
  6
Continuous
 62
     7
370
     0
100
AcDbLine
 10
-53.89125003294316
 20
-6.249999965930101
 30
0.0
 11
-52.44125003294311
 21
-5.412842075605084
 31
0.0
  0
LINE
  5
7EC8
330
A
100
AcDbEntity
  8
0
  6
Continuous
 62
     7
370
     0
100
AcDbLine
 10
-52.44125003294311
 20
5.412842143744995
 30
0.0
 11
-53.89125003294316
 21
6.250000034069898
 31
0.0
  0
ARC
  5
7EC9
330
A
100
AcDbEntity
  8
0
  6
Continuous
 62
     7
370
     0
100
AcDbCircle
 10
-52.69125003294312
 20
4.979829441852814
 30
0.0
 40
0.4999999999999451
100
AcDbArc
 50
0.0
 51
60.00000000000028
  0
ARC
  5
7ECA
330
A
100
AcDbEntity
  8
0
  6
Continuous
 62
     7
370
     0
100
AcDbCircle
 10
-52.69125003294312
 20
-4.979829373712902
 30
0.0
 40
0.4999999999998845
100
AcDbArc
 50
299.999999999986
 51
359.9999999999902
  0
LINE
  5
7ECB
330
A
100
AcDbEntity
  8
0
  6
Continuous
 62
     7
370
     0
100
AcDbLine
 10
-53.89125003535901
 20
-56.2499999659207
 30
0.0
 11
-52.44125003535896
 21
-55.4128420755957
 31
0.0
  0
LINE
  5
7ECC
330
A
100
AcDbEntity
  8
0
  6
Continuous
 62
     7
370
     0
100
AcDbLine
 10
-52.44125003535896
 20
-44.58715785624559
 30
0.0
 11
-53.89125003535901
 21
-43.74999996592058
 31
0.0
  0
LINE
  5
7ECD
330
A
100
AcDbEntity
  8
0
  6
Continuous
 62
     7
370
     0
100
AcDbLine
 10
-53.89125003535901
 20
-43.74999996592058
 30
0.0
 11
-54.19125003535896
 21
-43.74999996592058
 31
0.0
  0
LINE
  5
7ECE
330
A
100
AcDbEntity
  8
0
  6
Continuous
 62
     7
370
     0
100
AcDbLine
 10
-54.19125003535896
 20
-56.2499999659207
 30
0.0
 11
-53.89125003535901
 21
-56.2499999659207
 31
0.0
  0
ARC
  5
7ECF
330
A
100
AcDbEntity
  8
0
  6
Continuous
 62
     7
370
     0
100
AcDbCircle
 10
-52.69125003535896
 20
-45.0201705581378
 30
0.0
 40
0.5000000000001671
100
AcDbArc
 50
0.0
 51
60.00000000000028
  0
ARC
  5
7ED0
330
A
100
AcDbEntity
  8
0
  6
Continuous
 62
     7
370
     0
100
AcDbCircle
 10
-52.69125003535896
 20
-54.97982937370349
 30
0.0
 40
0.5000000000000675
100
AcDbArc
 50
300.0000000000014
 51
0.0000000000065138
  0
LINE
  5
7ED1
330
A
100
AcDbEntity
  8
0
  6
Continuous
 62
     7
370
     0
100
AcDbLine
 10
-65.69125002418195
 20
-55.49999996527768
 30
0.0
 11
-59.69125002418195
 21
-55.4999999655677
 31
0.0
  0
LINE
  5
7ED2
330
A
100
AcDbEntity
  8
0
  6
Continuous
 62
     7
370
     0
100
AcDbLine
 10
-59.69125003065801
 20
5.500000034432332
 30
0.0
 11
-65.69125003267891
 21
5.500000034722319
 31
0.0
  0
LINE
  5
7ED3
330
A
100
AcDbEntity
  8
0
  6
Continuous
 62
     7
370
     0
100
AcDbLine
 10
124.691249994124
 20
-58.89999995825832
 30
0.0
 11
124.691249994637
 21
-63.3999999582586
 31
0.0
  0
LINE
  5
7ED4
330
A
100
AcDbEntity
  8
0
  6
Continuous
 62
     7
370
     0
100
AcDbLine
 10
124.6912499859359
 20
12.90000004174152
 30
0.0
 11
124.6912499864488
 21
8.400000041741691
 31
0.0
  0
LINE
  5
7ED5
330
A
100
AcDbEntity
  8
0
  6
Continuous
 62
     7
370
     0
100
AcDbLine
 10
118.7412499861639
 20
-11.7999999774687
 30
0.0
 11
118.7412499861639
 21
-15.7999999774687
 31
0.0
  0
LINE
  5
7ED6
330
A
100
AcDbEntity
  8
0
  6
Continuous
 62
     9
370
     0
100
AcDbLine
 10
119.1912499803138
 20
-20.59999998117991
 30
0.0
 11
118.6462340539567
 21
-20.59999998115561
 31
0.0
  0
ELLIPSE
  5
7ED7
330
A
100
AcDbEntity
  8
0
  6
Continuous
 62
     9
370
     0
100
AcDbEllipse
 10
119.600735646635
 20
-20.59999998385141
 30
0.0
 11
0.0000000032089886
 21
1.0
 31
0.0
210
0.0
220
0.0
230
1.0
 40
0.9545015926788984
 41
0.443390642012245
 42
1.570796330110244
  0
LINE
  5
7ED8
330
A
100
AcDbEntity
  8
0
  6
Continuous
 62
     9
370
     0
100
AcDbLine
 10
118.646234053565
 20
-29.39999998115559
 30
0.0
 11
119.1912499803138
 21
-29.39999998117989
 31
0.0
  0
LINE
  5
7ED9
330
A
100
AcDbEntity
  8
0
  6
Continuous
 62
     9
370
     0
100
AcDbLine
 10
118.646234053565
 20
-29.39999998410389
 30
0.0
 11
118.6462340539558
 21
-20.59999998410382
 31
0.0
  0
ELLIPSE
  5
7EDA
330
A
100
AcDbEntity
  8
0
  6
Continuous
 62
     9
370
     0
100
AcDbEllipse
 10
119.6007356462437
 20
-29.39999998385142
 30
0.0
 11
0.0000000032089886
 21
1.0
 31
0.0
210
0.0
220
0.0
230
1.0
 40
0.9545015926788988
 41
1.570796330110215
 42
2.698202018755821
  0
LINE
  5
7EDB
330
A
100
AcDbEntity
  8
0
  6
Continuous
 62
     9
370
     0
100
AcDbLine
 10
137.741249974933
 20
-20.59999998200559
 30
0.0
 11
136.1912499803129
 21
-20.59999998193658
 31
0.0
  0
LINE
  5
7EDC
330
A
100
AcDbEntity
  8
0
  6
Continuous
 62
     7
370
     0
100
AcDbLine
 10
136.1912499803129
 20
-19.59999998193658
 30
0.0
 11
136.786249975559
 21
-19.59999998196309
 31
0.0
  0
ELLIPSE
  5
7EDD
330
A
100
AcDbEntity
  8
0
  6
Continuous
 62
     9
370
     0
100
AcDbEllipse
 10
136.7862499755151
 20
-20.59999998460211
 30
0.0
 11
0.0000000031386005
 21
-1.0
 31
0.0
210
0.0
220
0.0
230
1.0
 40
0.9549999994188091
 41
1.570796323461784
 42
3.141592650256903
  0
LINE
  5
7EDE
330
A
100
AcDbEntity
  8
0
  6
Continuous
 62
     9
370
     0
100
AcDbLine
 10
136.1912499803129
 20
-29.39999998193659
 30
0.0
 11
137.7412499745419
 21
-29.3999999820056
 31
0.0
  0
ELLIPSE
  5
7EDF
330
A
100
AcDbEntity
  8
0
  6
Continuous
 62
     9
370
     0
100
AcDbEllipse
 10
136.7862499751229
 20
-29.39999998460218
 30
0.0
 11
0.0000000031386005
 21
-1.0
 31
0.0
210
0.0
220
0.0
230
1.0
 40
0.9549999994188107
 41
6.283185303846472
 42
7.853981630641368
  0
LINE
  5
7EE0
330
A
100
AcDbEntity
  8
0
  6
Continuous
 62
     7
370
     0
100
AcDbLine
 10
136.7862499750781
 20
-30.39999998196308
 30
0.0
 11
136.1912499803129
 21
-30.39999998193659
 31
0.0
  0
LINE
  5
7EE1
330
A
100
AcDbEntity
  8
0
  6
Continuous
 62
     9
370
     0
100
AcDbLine
 10
137.7412499745419
 20
-29.39999998493792
 30
0.0
 11
137.7412499749339
 21
-20.59999998493791
 31
0.0
  0
LINE
  5
7EE2
330
A
100
AcDbEntity
  8
0
  6
Continuous
 62
     9
370
     0
100
AcDbLine
 10
118.6462340539558
 20
-20.59999998366152
 30
0.0
 11
118.5779864429751
 21
-20.59999998365851
 31
0.0
  0
LINE
  5
7EE3
330
A
100
AcDbEntity
  8
0
  6
Continuous
 62
     9
370
     0
100
AcDbLine
 10
118.5779864425828
 20
-29.39999998365849
 30
0.0
 11
118.646234053565
 21
-29.39999998366159
 31
0.0
  0
LINE
  5
7EE4
330
A
100
AcDbEntity
  8
0
  6
Continuous
 62
     9
370
     0
100
AcDbLine
 10
137.8087499758048
 20
-20.59999998450101
 30
0.0
 11
137.7412499749339
 21
-20.599999984498
 31
0.0
  0
LINE
  5
7EE5
330
A
100
AcDbEntity
  8
0
  6
Continuous
 62
     7
370
     0
100
AcDbLine
 10
136.786249975559
 20
-19.59999998445551
 30
0.0
 11
136.8087499758499
 21
-19.5999999844565
 31
0.0
  0
LINE
  5
7EE6
330
A
100
AcDbEntity
  8
0
  6
Continuous
 62
     7
370
     0
100
AcDbLine
 10
136.8087499753687
 20
-30.39999998445649
 30
0.0
 11
136.786249975079
 21
-30.39999998445549
 31
0.0
  0
LINE
  5
7EE7
330
A
100
AcDbEntity
  8
0
  6
Continuous
 62
     9
370
     0
100
AcDbLine
 10
137.7412499745419
 20
-29.39999998449801
 30
0.0
 11
137.808749975414
 21
-29.39999998450102
 31
0.0
  0
LINE
  5
7EE8
330
A
100
AcDbEntity
  8
0
  6
Continuous
 62
     7
370
     0
100
AcDbLine
 10
136.1912454165578
 20
-30.39999998192582
 30
0.0
 11
136.7487618724872
 21
-30.39999998195057
 31
0.0
  0
LINE
  5
7EE9
330
A
100
AcDbEntity
  8
0
  6
Continuous
 62
     9
370
     0
100
AcDbLine
 10
118.5779864429751
 20
-20.59999997866018
 30
0.0
 11
118.5737499856859
 21
-20.59999997865998
 31
0.0
  0
LINE
  5
7EEA
330
A
100
AcDbEntity
  8
0
  6
Continuous
 62
     9
370
     0
100
AcDbLine
 10
118.5737499852928
 20
-29.39999997865999
 30
0.0
 11
118.5779864425828
 21
-29.39999997866016
 31
0.0
  0
LINE
  5
7EEB
330
A
100
AcDbEntity
  8
0
  6
Continuous
 62
     7
370
     0
100
AcDbLine
 10
136.7487618729681
 20
-19.5999999794555
 30
0.0
 11
136.80451351856
 21
-19.599999979458
 31
0.0
  0
LINE
  5
7EEC
330
A
100
AcDbEntity
  8
0
  6
Continuous
 62
     7
370
     0
100
AcDbLine
 10
136.80451351808
 20
-30.39999997945802
 30
0.0
 11
136.7487618724872
 21
-30.39999997945549
 31
0.0
  0
LINE
  5
7EED
330
A
100
AcDbEntity
  8
0
  6
Continuous
 62
     9
370
     0
100
AcDbLine
 10
136.922996848049
 20
-19.4999999833239
 30
0.0
 11
136.922996848049
 21
-8.749999983323988
 31
0.0
  0
LINE
  5
7EEE
330
A
100
AcDbEntity
  8
0
  6
Continuous
 62
     7
370
     0
100
AcDbLine
 10
136.922996848049
 20
-19.4999999821286
 30
0.0
 11
136.1912499803138
 21
-19.4999999821286
 31
0.0
  0
LINE
  5
7EEF
330
A
100
AcDbEntity
  8
0
  6
Continuous
 62
     7
370
     0
100
AcDbLine
 10
136.922996848049
 20
-8.749999982128599
 30
0.0
 11
136.1912499803138
 21
-8.749999982128599
 31
0.0
  0
LINE
  5
7EF0
330
A
100
AcDbEntity
  8
0
  6
Continuous
 62
     9
370
     0
100
AcDbLine
 10
136.922996848049
 20
-41.24999998332401
 30
0.0
 11
136.922996848049
 21
-30.49999998332399
 31
0.0
  0
LINE
  5
7EF1
330
A
100
AcDbEntity
  8
0
  6
Continuous
 62
     7
370
     0
100
AcDbLine
 10
136.922996848049
 20
-41.24999998212868
 30
0.0
 11
136.1912499803138
 21
-41.24999998212868
 31
0.0
  0
LINE
  5
7EF2
330
A
100
AcDbEntity
  8
0
  6
Continuous
 62
     7
370
     0
100
AcDbLine
 10
136.1912499803138
 20
-30.49999998212868
 30
0.0
 11
136.922996848049
 21
-30.49999998212868
 31
0.0
  0
LINE
  5
7EF3
330
A
100
AcDbEntity
  8
0
  6
Continuous
 62
     7
370
     0
100
AcDbLine
 10
136.9677057044021
 20
-8.749999983124695
 30
0.0
 11
136.922996848049
 21
-8.749999983124695
 31
0.0
  0
LINE
  5
7EF4
330
A
100
AcDbEntity
  8
0
  6
Continuous
 62
     7
370
     0
100
AcDbLine
 10
136.9677057044021
 20
-19.49999998312469
 30
0.0
 11
136.922996848049
 21
-19.49999998312469
 31
0.0
  0
LINE
  5
7EF5
330
A
100
AcDbEntity
  8
0
  6
Continuous
 62
     7
370
     0
100
AcDbLine
 10
136.9677057044021
 20
-41.24999998312481
 30
0.0
 11
136.922996848049
 21
-41.24999998312481
 31
0.0
  0
LINE
  5
7EF6
330
A
100
AcDbEntity
  8
0
  6
Continuous
 62
     7
370
     0
100
AcDbLine
 10
136.922996848049
 20
-30.49999998312481
 30
0.0
 11
136.9677057044021
 21
-30.49999998312481
 31
0.0
  0
LINE
  5
7EF7
330
A
100
AcDbEntity
  8
0
  6
Continuous
 62
     7
370
     0
100
AcDbLine
 10
137.1912499861639
 20
-19.4999999798473
 30
0.0
 11
137.1912499861639
 21
-8.749999979847302
 31
0.0
  0
LINE
  5
7EF8
330
A
100
AcDbEntity
  8
0
  6
Continuous
 62
     7
370
     0
100
AcDbLine
 10
137.1912499861639
 20
-19.4999999798473
 30
0.0
 11
136.9677057044021
 21
-19.4999999798473
 31
0.0
  0
LINE
  5
7EF9
330
A
100
AcDbEntity
  8
0
  6
Continuous
 62
     7
370
     0
100
AcDbLine
 10
136.9677057044021
 20
-19.4999999798473
 30
0.0
 11
136.9185227134358
 21
-19.4999999798473
 31
0.0
  0
LINE
  5
7EFA
330
A
100
AcDbEntity
  8
0
  6
Continuous
 62
     7
370
     0
100
AcDbLine
 10
137.1912499861639
 20
-8.749999979847302
 30
0.0
 11
136.9677057044021
 21
-8.749999979847302
 31
0.0
  0
LINE
  5
7EFB
330
A
100
AcDbEntity
  8
0
  6
Continuous
 62
     7
370
     0
100
AcDbLine
 10
137.1912499861639
 20
-41.2499999798473
 30
0.0
 11
137.1912499861639
 21
-30.49999997984742
 31
0.0
  0
LINE
  5
7EFC
330
A
100
AcDbEntity
  8
0
  6
Continuous
 62
     7
370
     0
100
AcDbLine
 10
137.1912499861639
 20
-41.2499999798473
 30
0.0
 11
136.9677057044021
 21
-41.2499999798473
 31
0.0
  0
LINE
  5
7EFD
330
A
100
AcDbEntity
  8
0
  6
Continuous
 62
     7
370
     0
100
AcDbLine
 10
136.9677057044021
 20
-41.2499999798473
 30
0.0
 11
136.9185227134358
 21
-41.2499999798473
 31
0.0
  0
LINE
  5
7EFE
330
A
100
AcDbEntity
  8
0
  6
Continuous
 62
     7
370
     0
100
AcDbLine
 10
136.9185227134358
 20
-30.49999997984742
 30
0.0
 11
136.9677057044021
 21
-30.49999997984742
 31
0.0
  0
LINE
  5
7EFF
330
A
100
AcDbEntity
  8
0
  6
Continuous
 62
     7
370
     0
100
AcDbLine
 10
136.9677057044021
 20
-30.49999997984742
 30
0.0
 11
137.1912499861639
 21
-30.49999997984742
 31
0.0
  0
LINE
  5
7F00
330
A
100
AcDbEntity
  8
0
  6
Continuous
 62
     7
370
     0
100
AcDbLine
 10
137.1912499861639
 20
-30.4999999757699
 30
0.0
 11
137.1912499861639
 21
-30.32395547135858
 31
0.0
  0
LINE
  5
7F01
330
A
100
AcDbEntity
  8
0
  6
Continuous
 62
     7
370
     0
100
AcDbLine
 10
137.1912499861639
 20
-19.67604449739241
 30
0.0
 11
137.1912499861639
 21
-19.49999997576981
 31
0.0
  0
LINE
  5
7F02
330
A
100
AcDbEntity
  8
0
  6
Continuous
 62
     7
370
     0
100
AcDbLine
 10
118.8912499803068
 20
-6.249999999999886
 30
0.0
 11
118.8912499803068
 21
-0.0000000007666756
 31
0.0
  0
LINE
  5
7F03
330
A
100
AcDbEntity
  8
0
  6
Continuous
 62
     7
370
     0
100
AcDbLine
 10
118.8912499803068
 20
-0.0000000007666756
 30
0.0
 11
118.8912499803068
 21
6.25000000000017
 31
0.0
  0
LINE
  5
7F04
330
A
100
AcDbEntity
  8
0
  6
Continuous
 62
     9
370
     0
100
AcDbLine
 10
117.441249980307
 20
5.41284210967521
 30
0.0
 11
117.441249980307
 21
-5.412842109674926
 31
0.0
  0
LINE
  5
7F05
330
A
100
AcDbEntity
  8
0
  6
Continuous
 62
     7
370
     0
100
AcDbLine
 10
117.191249980307
 20
-4.979829407782688
 30
0.0
 11
117.191249980307
 21
4.979829407783
 31
0.0
  0
LINE
  5
7F06
330
A
100
AcDbEntity
  8
0
  6
Continuous
 62
     7
370
     0
100
AcDbLine
 10
118.8912499803059
 20
-56.24999999997999
 30
0.0
 11
118.8912499803077
 21
-43.74999999997998
 31
0.0
  0
LINE
  5
7F07
330
A
100
AcDbEntity
  8
0
  6
Continuous
 62
     9
370
     0
100
AcDbLine
 10
117.4412499803079
 20
-44.58715789030458
 30
0.0
 11
117.4412499803061
 21
-53.54898606877881
 31
0.0
  0
LINE
  5
7F08
330
A
100
AcDbEntity
  8
0
  6
Continuous
 62
     9
370
     0
100
AcDbLine
 10
117.4412499803061
 20
-53.54898606877881
 30
0.0
 11
117.4412499803061
 21
-55.4128421096548
 31
0.0
  0
LINE
  5
7F09
330
A
100
AcDbEntity
  8
0
  6
Continuous
 62
     7
370
     0
100
AcDbLine
 10
117.1912499803061
 20
-54.97982940776251
 30
0.0
 11
117.1912499803061
 21
-53.26507679976799
 31
0.0
  0
LINE
  5
7F0A
330
A
100
AcDbEntity
  8
0
  6
Continuous
 62
     7
370
     0
100
AcDbLine
 10
117.1912499803061
 20
-53.26507679976799
 30
0.0
 11
117.1912499803079
 21
-45.02017059219681
 31
0.0
  0
LINE
  5
7F0B
330
A
100
AcDbEntity
  8
0
  6
Continuous
 62
     7
370
     0
100
AcDbLine
 10
132.1912499802949
 20
12.89999999412811
 30
0.0
 11
131.6912499803109
 21
12.89999999412811
 31
0.0
  0
LINE
  5
7F0C
330
A
100
AcDbEntity
  8
0
  6
Continuous
 62
     9
370
     0
100
AcDbLine
 10
132.1912499803138
 20
8.399999991661672
 30
0.0
 11
131.6912499803129
 21
8.399999991661672
 31
0.0
  0
LINE
  5
7F0D
330
A
100
AcDbEntity
  8
0
  6
Continuous
 62
     7
370
     0
100
AcDbLine
 10
131.6912499803109
 20
12.89999999412811
 30
0.0
 11
131.6912499803109
 21
8.399999991661672
 31
0.0
  0
LINE
  5
7F0E
330
A
100
AcDbEntity
  8
0
  6
Continuous
 62
     9
370
     0
100
AcDbLine
 10
132.1912499803138
 20
-58.90000000833831
 30
0.0
 11
131.6912499803129
 21
-58.90000000833831
 31
0.0
  0
LINE
  5
7F0F
330
A
100
AcDbEntity
  8
0
  6
Continuous
 62
     7
370
     0
100
AcDbLine
 10
131.6912499803129
 20
8.399999991661672
 30
0.0
 11
131.6912499803129
 21
-58.90000000833831
 31
0.0
  0
LINE
  5
7F10
330
A
100
AcDbEntity
  8
0
  6
Continuous
 62
     7
370
     0
100
AcDbLine
 10
132.1912499803129
 20
-63.4000000058719
 30
0.0
 11
131.6912499803109
 21
-63.4000000058719
 31
0.0
  0
LINE
  5
7F11
330
A
100
AcDbEntity
  8
0
  6
Continuous
 62
     7
370
     0
100
AcDbLine
 10
131.6912499803109
 20
-58.90000000833831
 30
0.0
 11
131.6912499803109
 21
-63.4000000058719
 31
0.0
  0
LINE
  5
7F12
330
A
100
AcDbEntity
  8
0
  6
Continuous
 62
     7
370
     0
100
AcDbLine
 10
124.6912499803109
 20
12.89999999412811
 30
0.0
 11
123.6912499803109
 21
12.89999999412811
 31
0.0
  0
LINE
  5
7F13
330
A
100
AcDbEntity
  8
0
  6
Continuous
 62
     7
370
     0
100
AcDbLine
 10
123.6912499803109
 20
12.89999999412811
 30
0.0
 11
123.1912499803129
 21
12.89999999412811
 31
0.0
  0
LINE
  5
7F14
330
A
100
AcDbEntity
  8
0
  6
Continuous
 62
     7
370
     0
100
AcDbLine
 10
124.6912499803109
 20
12.89999999412811
 30
0.0
 11
124.6912499803109
 21
8.399999991661672
 31
0.0
  0
LINE
  5
7F15
330
A
100
AcDbEntity
  8
0
  6
Continuous
 62
     9
370
     0
100
AcDbLine
 10
124.6912499803129
 20
8.399999991661672
 30
0.0
 11
123.6912499803129
 21
8.399999991661672
 31
0.0
  0
LINE
  5
7F16
330
A
100
AcDbEntity
  8
0
  6
Continuous
 62
     9
370
     0
100
AcDbLine
 10
123.6912499803129
 20
8.399999991661672
 30
0.0
 11
123.1912499803138
 21
8.399999991661672
 31
0.0
  0
LINE
  5
7F17
330
A
100
AcDbEntity
  8
0
  6
Continuous
 62
     9
370
     0
100
AcDbLine
 10
124.6912499803129
 20
-58.90000000833831
 30
0.0
 11
123.6912499803129
 21
-58.90000000833831
 31
0.0
  0
LINE
  5
7F18
330
A
100
AcDbEntity
  8
0
  6
Continuous
 62
     9
370
     0
100
AcDbLine
 10
123.6912499803129
 20
-58.90000000833831
 30
0.0
 11
123.1912499803138
 21
-58.90000000833831
 31
0.0
  0
LINE
  5
7F19
330
A
100
AcDbEntity
  8
0
  6
Continuous
 62
     7
370
     0
100
AcDbLine
 10
124.6912499803129
 20
8.399999991661672
 30
0.0
 11
124.6912499803129
 21
-58.90000000833831
 31
0.0
  0
LINE
  5
7F1A
330
A
100
AcDbEntity
  8
0
  6
Continuous
 62
     7
370
     0
100
AcDbLine
 10
124.6912499803109
 20
-63.4000000058719
 30
0.0
 11
123.6912499803109
 21
-63.4000000058719
 31
0.0
  0
LINE
  5
7F1B
330
A
100
AcDbEntity
  8
0
  6
Continuous
 62
     7
370
     0
100
AcDbLine
 10
123.6912499803109
 20
-63.4000000058719
 30
0.0
 11
123.1912499803129
 21
-63.4000000058719
 31
0.0
  0
LINE
  5
7F1C
330
A
100
AcDbEntity
  8
0
  6
Continuous
 62
     7
370
     0
100
AcDbLine
 10
124.6912499803109
 20
-58.90000000833831
 30
0.0
 11
124.6912499803109
 21
-63.4000000058719
 31
0.0
  0
LINE
  5
7F1D
330
A
100
AcDbEntity
  8
0
  6
Continuous
 62
     7
370
     0
100
AcDbLine
 10
123.6912499803109
 20
12.89999999412811
 30
0.0
 11
123.1912499803129
 21
12.89999999412811
 31
0.0
  0
LINE
  5
7F1E
330
A
100
AcDbEntity
  8
0
  6
Continuous
 62
     7
370
     0
100
AcDbLine
 10
123.6912499803109
 20
12.89999999412811
 30
0.0
 11
123.6912499803109
 21
8.399999991661672
 31
0.0
  0
LINE
  5
7F1F
330
A
100
AcDbEntity
  8
0
  6
Continuous
 62
     9
370
     0
100
AcDbLine
 10
123.6912499803129
 20
8.399999991661672
 30
0.0
 11
123.1912499803138
 21
8.399999991661672
 31
0.0
  0
LINE
  5
7F20
330
A
100
AcDbEntity
  8
0
  6
Continuous
 62
     9
370
     0
100
AcDbLine
 10
123.6912499803129
 20
-58.90000000833831
 30
0.0
 11
123.1912499803138
 21
-58.90000000833831
 31
0.0
  0
LINE
  5
7F21
330
A
100
AcDbEntity
  8
0
  6
Continuous
 62
     7
370
     0
100
AcDbLine
 10
123.6912499803129
 20
8.399999991661672
 30
0.0
 11
123.6912499803129
 21
-58.90000000833831
 31
0.0
  0
LINE
  5
7F22
330
A
100
AcDbEntity
  8
0
  6
Continuous
 62
     7
370
     0
100
AcDbLine
 10
123.6912499803109
 20
-63.4000000058719
 30
0.0
 11
123.1912499803129
 21
-63.4000000058719
 31
0.0
  0
LINE
  5
7F23
330
A
100
AcDbEntity
  8
0
  6
Continuous
 62
     7
370
     0
100
AcDbLine
 10
123.6912499803109
 20
-58.90000000833831
 30
0.0
 11
123.6912499803109
 21
-63.4000000058719
 31
0.0
  0
LINE
  5
7F24
330
A
100
AcDbEntity
  8
0
  6
Continuous
 62
     9
370
     0
100
AcDbLine
 10
130.6912499803129
 20
8.399999991661672
 30
0.0
 11
131.6912499803129
 21
8.399999991661672
 31
0.0
  0
LINE
  5
7F25
330
A
100
AcDbEntity
  8
0
  6
Continuous
 62
     9
370
     0
100
AcDbLine
 10
131.6912499803129
 20
8.399999991661672
 30
0.0
 11
132.1912499803138
 21
8.399999991661672
 31
0.0
  0
LINE
  5
7F26
330
A
100
AcDbEntity
  8
0
  6
Continuous
 62
     7
370
     0
100
AcDbLine
 10
130.6912499803109
 20
8.399999991661672
 30
0.0
 11
130.6912499803109
 21
12.89999999412811
 31
0.0
  0
LINE
  5
7F27
330
A
100
AcDbEntity
  8
0
  6
Continuous
 62
     7
370
     0
100
AcDbLine
 10
130.6912499803109
 20
12.89999999412811
 30
0.0
 11
131.6912499803109
 21
12.89999999412811
 31
0.0
  0
LINE
  5
7F28
330
A
100
AcDbEntity
  8
0
  6
Continuous
 62
     7
370
     0
100
AcDbLine
 10
131.6912499803109
 20
12.89999999412811
 30
0.0
 11
132.1912499802949
 21
12.89999999412811
 31
0.0
  0
LINE
  5
7F29
330
A
100
AcDbEntity
  8
0
  6
Continuous
 62
     9
370
     0
100
AcDbLine
 10
130.6912499803129
 20
-58.90000000833831
 30
0.0
 11
131.6912499803129
 21
-58.90000000833831
 31
0.0
  0
LINE
  5
7F2A
330
A
100
AcDbEntity
  8
0
  6
Continuous
 62
     9
370
     0
100
AcDbLine
 10
131.6912499803129
 20
-58.90000000833831
 30
0.0
 11
132.1912499803138
 21
-58.90000000833831
 31
0.0
  0
LINE
  5
7F2B
330
A
100
AcDbEntity
  8
0
  6
Continuous
 62
     7
370
     0
100
AcDbLine
 10
130.6912499803129
 20
-58.90000000833831
 30
0.0
 11
130.6912499803129
 21
8.399999991661672
 31
0.0
  0
LINE
  5
7F2C
330
A
100
AcDbEntity
  8
0
  6
Continuous
 62
     7
370
     0
100
AcDbLine
 10
130.6912499803109
 20
-63.4000000058719
 30
0.0
 11
131.6912499803109
 21
-63.4000000058719
 31
0.0
  0
LINE
  5
7F2D
330
A
100
AcDbEntity
  8
0
  6
Continuous
 62
     7
370
     0
100
AcDbLine
 10
131.6912499803109
 20
-63.4000000058719
 30
0.0
 11
132.1912499803129
 21
-63.4000000058719
 31
0.0
  0
LINE
  5
7F2E
330
A
100
AcDbEntity
  8
0
  6
Continuous
 62
     7
370
     0
100
AcDbLine
 10
130.6912499803109
 20
-63.4000000058719
 30
0.0
 11
130.6912499803109
 21
-58.90000000833831
 31
0.0
  0
LINE
  5
7F2F
330
A
100
AcDbEntity
  8
0
  6
Continuous
 62
     9
370
     0
100
AcDbLine
 10
123.1912499803138
 20
9.999999990404432
 30
0.0
 11
119.1912499803138
 21
9.999999990404432
 31
0.0
  0
LINE
  5
7F30
330
A
100
AcDbEntity
  8
0
  6
Continuous
 62
     7
370
     0
100
AcDbLine
 10
119.1912499803118
 20
9.999999990404432
 30
0.0
 11
119.1912499803118
 21
14.99999999314482
 31
0.0
  0
LINE
  5
7F31
330
A
100
AcDbEntity
  8
0
  6
Continuous
 62
     7
370
     0
100
AcDbLine
 10
119.1912499803118
 20
14.99999999314281
 30
0.0
 11
123.1912499803118
 21
14.99999999314281
 31
0.0
  0
LINE
  5
7F32
330
A
100
AcDbEntity
  8
0
  6
Continuous
 62
     7
370
     0
100
AcDbLine
 10
123.1912499803118
 20
14.99999999314482
 30
0.0
 11
123.1912499803118
 21
9.999999990404432
 31
0.0
  0
LINE
  5
7F33
330
A
100
AcDbEntity
  8
0
  6
Continuous
 62
     9
370
     0
100
AcDbLine
 10
119.1912499803138
 20
-60.00000000956709
 30
0.0
 11
123.1912499803138
 21
-60.000000009567
 31
0.0
  0
LINE
  5
7F34
330
A
100
AcDbEntity
  8
0
  6
Continuous
 62
     7
370
     0
100
AcDbLine
 10
123.1912499803138
 20
-60.000000009567
 30
0.0
 11
123.1912499803138
 21
9.999999990404432
 31
0.0
  0
LINE
  5
7F35
330
A
100
AcDbEntity
  8
0
  6
Continuous
 62
     7
370
     0
100
AcDbLine
 10
119.1912499803138
 20
9.999999990404432
 30
0.0
 11
119.1912499803138
 21
-60.00000000956709
 31
0.0
  0
LINE
  5
7F36
330
A
100
AcDbEntity
  8
0
  6
Continuous
 62
     7
370
     0
100
AcDbLine
 10
123.1912499803118
 20
-65.00000000682459
 30
0.0
 11
119.1912499803118
 21
-65.00000000682459
 31
0.0
  0
LINE
  5
7F37
330
A
100
AcDbEntity
  8
0
  6
Continuous
 62
     7
370
     0
100
AcDbLine
 10
123.1912499803118
 20
-60.000000009567
 30
0.0
 11
123.1912499803118
 21
-65.00000000682661
 31
0.0
  0
LINE
  5
7F38
330
A
100
AcDbEntity
  8
0
  6
Continuous
 62
     7
370
     0
100
AcDbLine
 10
119.1912499803118
 20
-65.00000000682661
 30
0.0
 11
119.1912499803118
 21
-60.00000000956709
 31
0.0
  0
LINE
  5
7F39
330
A
100
AcDbEntity
  8
0
  6
Continuous
 62
     9
370
     0
100
AcDbLine
 10
136.1912499803138
 20
9.999999990408497
 30
0.0
 11
132.1912499803138
 21
9.999999990408497
 31
0.0
  0
LINE
  5
7F3A
330
A
100
AcDbEntity
  8
0
  6
Continuous
 62
     7
370
     0
100
AcDbLine
 10
132.1912499803118
 20
9.999999990408497
 30
0.0
 11
132.1912499803118
 21
14.99999999314718
 31
0.0
  0
LINE
  5
7F3B
330
A
100
AcDbEntity
  8
0
  6
Continuous
 62
     7
370
     0
100
AcDbLine
 10
132.1912499803118
 20
14.99999999314892
 30
0.0
 11
136.1912499803118
 21
14.99999999314892
 31
0.0
  0
LINE
  5
7F3C
330
A
100
AcDbEntity
  8
0
  6
Continuous
 62
     7
370
     0
100
AcDbLine
 10
136.1912499803118
 20
14.99999999314781
 30
0.0
 11
136.1912499803118
 21
9.999999990408497
 31
0.0
  0
LINE
  5
7F3D
330
A
100
AcDbEntity
  8
0
  6
Continuous
 62
     9
370
     0
100
AcDbLine
 10
132.1912499803138
 20
-60.0000000095915
 30
0.0
 11
136.1912499803138
 21
-60.0000000095915
 31
0.0
  0
LINE
  5
7F3E
330
A
100
AcDbEntity
  8
0
  6
Continuous
 62
     7
370
     0
100
AcDbLine
 10
136.1912499803138
 20
-60.0000000095915
 30
0.0
 11
136.1912499803138
 21
9.999999990408497
 31
0.0
  0
LINE
  5
7F3F
330
A
100
AcDbEntity
  8
0
  6
Continuous
 62
     7
370
     0
100
AcDbLine
 10
132.1912499803138
 20
9.999999990408497
 30
0.0
 11
132.1912499803138
 21
-60.0000000095915
 31
0.0
  0
LINE
  5
7F40
330
A
100
AcDbEntity
  8
0
  6
Continuous
 62
     7
370
     0
100
AcDbLine
 10
136.1912499803118
 20
-65.00000000685108
 30
0.0
 11
132.1912499803118
 21
-65.00000000685108
 31
0.0
  0
LINE
  5
7F41
330
A
100
AcDbEntity
  8
0
  6
Continuous
 62
     7
370
     0
100
AcDbLine
 10
136.1912499803118
 20
-60.0000000095915
 30
0.0
 11
136.1912499803118
 21
-65.0000000068494
 31
0.0
  0
LINE
  5
7F42
330
A
100
AcDbEntity
  8
0
  6
Continuous
 62
     7
370
     0
100
AcDbLine
 10
132.1912499803118
 20
-65.00000000685
 30
0.0
 11
132.1912499803118
 21
-60.0000000095915
 31
0.0
  0
LINE
  5
7F43
330
A
100
AcDbEntity
  8
0
  6
Continuous
 62
     9
370
     0
100
AcDbLine
 10
124.6912499803129
 20
-0.0000000030144918
 30
0.0
 11
130.6912499890648
 21
-0.0000000030144918
 31
0.0
  0
LINE
  5
7F44
330
A
100
AcDbEntity
  8
0
  6
Continuous
 62
     9
370
     0
100
AcDbLine
 10
124.6912499803129
 20
-50.00000000301449
 30
0.0
 11
130.6912499803129
 21
-50.00000000301449
 31
0.0
  0
LINE
  5
7F45
330
A
100
AcDbEntity
  8
0
  6
Continuous
 62
     9
370
     0
100
AcDbLine
 10
119.1912499803138
 20
-11.2999999774687
 30
0.0
 11
118.9912499861639
 21
-11.2999999774687
 31
0.0
  0
LINE
  5
7F46
330
A
100
AcDbEntity
  8
0
  6
Continuous
 62
     9
370
     0
100
AcDbLine
 10
118.9912499861639
 20
-16.2999999774687
 30
0.0
 11
119.1912499803138
 21
-16.2999999774687
 31
0.0
  0
LINE
  5
7F47
330
A
100
AcDbEntity
  8
0
  6
Continuous
 62
     7
370
     0
100
AcDbLine
 10
119.1912499803138
 20
-10.89999998916792
 30
0.0
 11
118.9912499861639
 21
-11.2999999774687
 31
0.0
  0
LINE
  5
7F48
330
A
100
AcDbEntity
  8
0
  6
Continuous
 62
     7
370
     0
100
AcDbLine
 10
118.9912499861639
 20
-11.2999999774687
 30
0.0
 11
118.7412499861639
 21
-11.7999999774687
 31
0.0
  0
LINE
  5
7F49
330
A
100
AcDbEntity
  8
0
  6
Continuous
 62
     7
370
     0
100
AcDbLine
 10
118.7412499861639
 20
-15.7999999774687
 30
0.0
 11
118.9912499861639
 21
-16.2999999774687
 31
0.0
  0
LINE
  5
7F4A
330
A
100
AcDbEntity
  8
0
  6
Continuous
 62
     7
370
     0
100
AcDbLine
 10
118.9912499861639
 20
-16.2999999774687
 30
0.0
 11
119.1912499803138
 21
-16.6999999657695
 31
0.0
  0
ARC
  5
7F4B
330
A
100
AcDbEntity
  8
0
  6
Continuous
 62
     7
370
     0
100
AcDbCircle
 10
119.5779864429751
 20
-20.59999998370301
 30
0.0
 40
0.9999999999999083
100
AcDbArc
 50
112.7515843721171
 51
179.9999999974433
  0
LINE
  5
7F4C
330
A
100
AcDbEntity
  8
0
  6
Continuous
 62
     7
370
     0
100
AcDbLine
 10
118.5779864429751
 20
-20.59999998365851
 30
0.0
 11
118.5779864425828
 21
-29.39999998365849
 31
0.0
  0
ARC
  5
7F4D
330
A
100
AcDbEntity
  8
0
  6
Continuous
 62
     7
370
     0
100
AcDbCircle
 10
119.5779864425828
 20
-29.39999998370303
 30
0.0
 40
0.9999999999998896
100
AcDbArc
 50
179.9999999974498
 51
247.2484156522096
  0
ARC
  5
7F4E
330
A
100
AcDbEntity
  8
0
  6
Continuous
 62
     7
370
     0
100
AcDbCircle
 10
136.8087499758048
 20
-20.5999999844565
 30
0.0
 40
1.000000000000111
100
AcDbArc
 50
359.9999999974515
 51
89.99999999744659
  0
ARC
  5
7F4F
330
A
100
AcDbEntity
  8
0
  6
Continuous
 62
     7
370
     0
100
AcDbCircle
 10
136.808749975414
 20
-29.39999998445649
 30
0.0
 40
1.0
100
AcDbArc
 50
269.9999999974596
 51
359.9999999974564
  0
LINE
  5
7F50
330
A
100
AcDbEntity
  8
0
  6
Continuous
 62
     7
370
     0
100
AcDbLine
 10
137.808749975414
 20
-29.39999998450102
 30
0.0
 11
137.8087499758048
 21
-20.59999998450101
 31
0.0
  0
ARC
  5
7F51
330
A
100
AcDbEntity
  8
0
  6
Continuous
 62
     7
370
     0
100
AcDbCircle
 10
119.573749985685
 20
-20.59999997870449
 30
0.0
 40
0.9999999999999598
100
AcDbArc
 50
112.488624966592
 51
179.9999999974466
  0
LINE
  5
7F52
330
A
100
AcDbEntity
  8
0
  6
Continuous
 62
     7
370
     0
100
AcDbLine
 10
118.5737499856859
 20
-20.59999997865998
 30
0.0
 11
118.5737499852928
 21
-29.39999997865999
 31
0.0
  0
ARC
  5
7F53
330
A
100
AcDbEntity
  8
0
  6
Continuous
 62
     7
370
     0
100
AcDbCircle
 10
119.5737499852937
 20
-29.3999999787045
 30
0.0
 40
0.9999999999998896
100
AcDbArc
 50
179.9999999974498
 51
247.5113750576883
  0
LINE
  5
7F54
330
A
100
AcDbEntity
  8
0
  6
Continuous
 62
     7
370
     0
100
AcDbLine
 10
136.9677057044021
 20
-19.49999998312469
 30
0.0
 11
136.9677057044021
 21
-8.749999983124695
 31
0.0
  0
LINE
  5
7F55
330
A
100
AcDbEntity
  8
0
  6
Continuous
 62
     7
370
     0
100
AcDbLine
 10
136.9677057044021
 20
-41.24999998312481
 30
0.0
 11
136.9677057044021
 21
-30.49999998312481
 31
0.0
  0
LINE
  5
7F56
330
A
100
AcDbEntity
  8
0
  6
Continuous
 62
     7
370
     0
100
AcDbLine
 10
118.8912499803068
 20
6.25000000000017
 30
0.0
 11
117.441249980307
 21
5.41284210967521
 31
0.0
  0
LINE
  5
7F57
330
A
100
AcDbEntity
  8
0
  6
Continuous
 62
     7
370
     0
100
AcDbLine
 10
117.441249980307
 20
-5.412842109674926
 30
0.0
 11
118.8912499803068
 21
-6.249999999999886
 31
0.0
  0
LINE
  5
7F58
330
A
100
AcDbEntity
  8
0
  6
Continuous
 62
     7
370
     0
100
AcDbLine
 10
118.8912499803068
 20
-6.249999999999886
 30
0.0
 11
119.191249980307
 21
-6.249999999999886
 31
0.0
  0
LINE
  5
7F59
330
A
100
AcDbEntity
  8
0
  6
Continuous
 62
     7
370
     0
100
AcDbLine
 10
119.191249980307
 20
6.25000000000017
 30
0.0
 11
118.8912499803068
 21
6.25000000000017
 31
0.0
  0
ARC
  5
7F5A
330
A
100
AcDbEntity
  8
0
  6
Continuous
 62
     7
370
     0
100
AcDbCircle
 10
117.691249980307
 20
-4.979829407782688
 30
0.0
 40
0.5000000000001671
100
AcDbArc
 50
180.0
 51
240.0000000000003
  0
ARC
  5
7F5B
330
A
100
AcDbEntity
  8
0
  6
Continuous
 62
     7
370
     0
100
AcDbCircle
 10
117.691249980307
 20
4.979829407783
 30
0.0
 40
0.5000000000000675
100
AcDbArc
 50
120.0000000000013
 51
180.0000000000065
  0
LINE
  5
7F5C
330
A
100
AcDbEntity
  8
0
  6
Continuous
 62
     7
370
     0
100
AcDbLine
 10
118.8912499803077
 20
-43.74999999997998
 30
0.0
 11
117.4412499803079
 21
-44.58715789030458
 31
0.0
  0
LINE
  5
7F5D
330
A
100
AcDbEntity
  8
0
  6
Continuous
 62
     7
370
     0
100
AcDbLine
 10
117.4412499803061
 20
-55.4128421096548
 30
0.0
 11
118.8912499803059
 21
-56.24999999997999
 31
0.0
  0
LINE
  5
7F5E
330
A
100
AcDbEntity
  8
0
  6
Continuous
 62
     7
370
     0
100
AcDbLine
 10
118.8912499803059
 20
-56.24999999997999
 30
0.0
 11
119.1912499803061
 21
-56.24999999997999
 31
0.0
  0
LINE
  5
7F5F
330
A
100
AcDbEntity
  8
0
  6
Continuous
 62
     7
370
     0
100
AcDbLine
 10
119.1912499803079
 20
-43.74999999997998
 30
0.0
 11
118.8912499803077
 21
-43.74999999997998
 31
0.0
  0
ARC
  5
7F60
330
A
100
AcDbEntity
  8
0
  6
Continuous
 62
     7
370
     0
100
AcDbCircle
 10
117.6912499803061
 20
-54.97982940776259
 30
0.0
 40
0.5000000000001671
100
AcDbArc
 50
179.9999999999902
 51
239.9999999999866
  0
ARC
  5
7F61
330
A
100
AcDbEntity
  8
0
  6
Continuous
 62
     7
370
     0
100
AcDbCircle
 10
117.6912499803079
 20
-45.0201705921969
 30
0.0
 40
0.4999999999999566
100
AcDbArc
 50
119.9999999999852
 51
179.9999999999853
  0
LINE
  5
7F62
330
A
100
AcDbEntity
  8
0
  6
Continuous
 62
     7
370
     0
100
AcDbLine
 10
130.6912499803038
 20
5.5
 30
0.0
 11
124.691249980305
 21
5.5
 31
0.0
  0
LINE
  5
7F63
330
A
100
AcDbEntity
  8
0
  6
Continuous
 62
     7
370
     0
100
AcDbLine
 10
124.691249980305
 20
-55.5
 30
0.0
 11
130.6912499803029
 21
-55.5
 31
0.0
  0
LINE
  5
7F64
330
A
100
AcDbEntity
  8
0
  6
Continuous
 62
     9
370
     0
100
AcDbLine
 10
80.74999994528615
 20
49.69125003357411
 30
0.0
 11
80.74999994528615
 21
48.69125003106742
 31
0.0
  0
LINE
  5
7F65
330
A
100
AcDbEntity
  8
0
  6
Continuous
 62
     9
370
     0
100
AcDbLine
 10
80.74999994528615
 20
48.69125003106742
 30
0.0
 11
80.74999994528615
 21
48.19125003114468
 31
0.0
  0
LINE
  5
7F66
330
A
100
AcDbEntity
  8
0
  6
Continuous
 62
     7
370
     0
100
AcDbLine
 10
80.74999994528615
 20
49.69125003306103
 30
0.0
 11
85.24999994528707
 21
49.69125003305916
 31
0.0
  0
LINE
  5
7F67
330
A
100
AcDbEntity
  8
0
  6
Continuous
 62
     7
370
     0
100
AcDbLine
 10
85.24999994528707
 20
49.69125003305916
 30
0.0
 11
85.24999994528617
 21
48.69125003084812
 31
0.0
  0
LINE
  5
7F68
330
A
100
AcDbEntity
  8
0
  6
Continuous
 62
     7
370
     0
100
AcDbLine
 10
85.24999994528617
 20
48.69125003084812
 30
0.0
 11
85.24999994528617
 21
48.19125003110307
 31
0.0
  0
LINE
  5
7F69
330
A
100
AcDbEntity
  8
0
  6
Continuous
 62
     9
370
     0
100
AcDbLine
 10
43.24999994528707
 20
49.69125003358957
 30
0.0
 11
43.24999994528616
 21
48.69125003108283
 31
0.0
  0
LINE
  5
7F6A
330
A
100
AcDbEntity
  8
0
  6
Continuous
 62
     9
370
     0
100
AcDbLine
 10
43.24999994528616
 20
48.69125003108283
 30
0.0
 11
43.24999994528616
 21
48.19125003116008
 31
0.0
  0
LINE
  5
7F6B
330
A
100
AcDbEntity
  8
0
  6
Continuous
 62
     7
370
     0
100
AcDbLine
 10
43.24999994528707
 20
49.69125003358957
 30
0.0
 11
80.74999994528615
 21
49.69125003357411
 31
0.0
  0
LINE
  5
7F6C
330
A
100
AcDbEntity
  8
0
  6
Continuous
 62
     7
370
     0
100
AcDbLine
 10
38.74999994528707
 20
49.69125003307832
 30
0.0
 11
38.74999994528617
 21
48.69125003086717
 31
0.0
  0
LINE
  5
7F6D
330
A
100
AcDbEntity
  8
0
  6
Continuous
 62
     7
370
     0
100
AcDbLine
 10
38.74999994528617
 20
48.69125003086717
 30
0.0
 11
38.74999994528617
 21
48.19125003090821
 31
0.0
  0
LINE
  5
7F6E
330
A
100
AcDbEntity
  8
0
  6
Continuous
 62
     7
370
     0
100
AcDbLine
 10
38.74999994528707
 20
49.69125003307832
 30
0.0
 11
43.24999994528707
 21
49.69125003307638
 31
0.0
  0
LINE
  5
7F6F
330
A
100
AcDbEntity
  8
0
  6
Continuous
 62
     7
370
     0
100
AcDbLine
 10
38.74999996106294
 20
48.69125003086717
 30
0.0
 11
38.74999996106294
 21
48.19125003090821
 31
0.0
  0
LINE
  5
7F70
330
A
100
AcDbEntity
  8
0
  6
Continuous
 62
     7
370
     0
100
AcDbLine
 10
38.74999996106294
 20
48.69125003086717
 30
0.0
 11
43.24999996317979
 21
48.69125003086529
 31
0.0
  0
LINE
  5
7F71
330
A
100
AcDbEntity
  8
0
  6
Continuous
 62
     9
370
     0
100
AcDbLine
 10
43.24999996317979
 20
48.69125003108283
 30
0.0
 11
43.24999996317979
 21
48.19125003116008
 31
0.0
  0
LINE
  5
7F72
330
A
100
AcDbEntity
  8
0
  6
Continuous
 62
     9
370
     0
100
AcDbLine
 10
80.74999996317979
 20
48.69125003106742
 30
0.0
 11
80.74999996317979
 21
48.19125003114468
 31
0.0
  0
LINE
  5
7F73
330
A
100
AcDbEntity
  8
0
  6
Continuous
 62
     7
370
     0
100
AcDbLine
 10
43.24999996317979
 20
48.69125003108283
 30
0.0
 11
80.74999996317979
 21
48.69125003106742
 31
0.0
  0
LINE
  5
7F74
330
A
100
AcDbEntity
  8
0
  6
Continuous
 62
     7
370
     0
100
AcDbLine
 10
85.24999996106293
 20
48.69125003084812
 30
0.0
 11
85.24999996106293
 21
48.19125003110307
 31
0.0
  0
LINE
  5
7F75
330
A
100
AcDbEntity
  8
0
  6
Continuous
 62
     7
370
     0
100
AcDbLine
 10
80.74999996317979
 20
48.69125003084988
 30
0.0
 11
85.24999996106293
 21
48.69125003084812
 31
0.0
  0
LINE
  5
7F76
330
A
100
AcDbEntity
  8
0
  6
Continuous
 62
     7
370
     0
100
AcDbLine
 10
27.00227759913901
 20
43.7412500251163
 30
0.0
 11
29.00227741525191
 21
43.74125002511649
 31
0.0
  0
LINE
  5
7F77
330
A
100
AcDbEntity
  8
0
  6
Continuous
 62
     7
370
     0
100
AcDbLine
 10
29.00227741525191
 20
43.74125002511649
 30
0.0
 11
31.00227759913901
 21
43.74125002511661
 31
0.0
  0
ARC
  5
7F78
330
A
100
AcDbEntity
  8
0
  6
Continuous
 62
     7
370
     0
100
AcDbCircle
 10
21.50000001802391
 20
53.19125001930657
 30
0.0
 40
10.00000000000001
100
AcDbArc
 50
107.2538532296267
 51
126.8698976463586
  0
LINE
  5
7F79
330
A
100
AcDbEntity
  8
0
  6
Continuous
 62
     9
370
     0
100
AcDbLine
 10
18.77507848309096
 20
61.96484802931903
 30
0.0
 11
18.53394200931689
 21
62.74125001349481
 31
0.0
  0
ARC
  5
7F7A
330
A
100
AcDbEntity
  8
0
  6
Continuous
 62
     7
370
     0
100
AcDbCircle
 10
21.50000001802391
 20
53.19125001930657
 30
0.0
 40
10.0
100
AcDbArc
 50
244.1580672375346
 51
252.6501278120481
  0
LINE
  5
7F7B
330
A
100
AcDbEntity
  8
0
  6
Continuous
 62
     9
370
     0
100
AcDbLine
 10
18.51794184331493
 20
43.64623409251757
 30
0.0
 11
18.68821596468888
 21
44.1912500195098
 31
0.0
  0
ARC
  5
7F7C
330
A
100
AcDbEntity
  8
0
  6
Continuous
 62
     9
370
     0
100
AcDbCircle
 10
21.51089302302307
 20
66.1912454555102
 30
0.0
 40
5.000000000000004
100
AcDbArc
 50
268.8396093375887
 51
269.9999999999739
  0
ARC
  5
7F7D
330
A
100
AcDbEntity
  8
0
  6
Continuous
 62
     7
370
     0
100
AcDbCircle
 10
18.97885071062296
 20
61.30875001436661
 30
0.0
 40
1.499999999999883
100
AcDbArc
 50
62.58892869849151
 51
107.2538532296267
  0
LINE
  5
7F7E
330
A
100
AcDbEntity
  8
0
  6
Continuous
 62
     9
370
     0
100
AcDbLine
 10
19.26051505116516
 20
61.8518787181965
 30
0.0
 11
19.66940770464498
 21
62.6403396801451
 31
0.0
  0
ARC
  5
7F7F
330
A
100
AcDbEntity
  8
0
  6
Continuous
 62
     7
370
     0
100
AcDbCircle
 10
21.51089302203491
 20
66.19124545555471
 30
0.0
 40
4.000000000000006
100
AcDbArc
 50
242.5889286984923
 51
297.3150523431879
  0
ARC
  5
7F80
330
A
100
AcDbEntity
  8
0
  6
Continuous
 62
     7
370
     0
100
AcDbCircle
 10
18.965250569521
 20
45.07798648153602
 30
0.0
 40
1.500000000000013
100
AcDbArc
 50
252.6501278120481
 51
297.3150523431879
  0
LINE
  5
7F81
330
A
100
AcDbEntity
  8
0
  6
Continuous
 62
     9
370
     0
100
AcDbLine
 10
19.65357505438283
 20
43.7452414183148
 30
0.0
 11
19.42322444291107
 21
44.19125001891032
 31
0.0
  0
ARC
  5
7F82
330
A
100
AcDbEntity
  8
0
  6
Continuous
 62
     7
370
     0
100
AcDbCircle
 10
21.48910701401292
 20
40.1912545830585
 30
0.0
 40
3.999999999999982
100
AcDbArc
 50
62.58892869849226
 51
89.99999999997395
  0
ARC
  5
7F83
330
A
100
AcDbEntity
  8
0
  6
Continuous
 62
     7
370
     0
100
AcDbCircle
 10
21.48910701401292
 20
40.1912545830585
 30
0.0
 40
3.999999999999976
100
AcDbArc
 50
89.99999999997395
 51
117.3150523431886
  0
LINE
  5
7F84
330
A
100
AcDbEntity
  8
0
  6
Continuous
 62
     9
370
     0
100
AcDbLine
 10
23.56348840623287
 20
44.19125001960952
 30
0.0
 11
23.33059233140284
 21
43.74216035846808
 31
0.0
  0
ARC
  5
7F85
330
A
100
AcDbEntity
  8
0
  6
Continuous
 62
     7
370
     0
100
AcDbCircle
 10
24.03474946652705
 20
61.30451355707734
 30
0.0
 40
1.499999999999964
100
AcDbArc
 50
72.65012781204811
 51
117.3150523431878
  0
LINE
  5
7F86
330
A
100
AcDbEntity
  8
0
  6
Continuous
 62
     9
370
     0
100
AcDbLine
 10
24.297734063995
 20
62.14627854765407
 30
0.0
 11
24.48205819273312
 21
62.7362659460957
 31
0.0
  0
LINE
  5
7F87
330
A
100
AcDbEntity
  8
0
  6
Continuous
 62
     9
370
     0
100
AcDbLine
 10
24.29523793378507
 20
44.19125001899959
 30
0.0
 11
24.46605802673094
 21
43.64125002511852
 31
0.0
  0
ARC
  5
7F88
330
A
100
AcDbEntity
  8
0
  6
Continuous
 62
     7
370
     0
100
AcDbCircle
 10
24.02114932542509
 20
45.0737500242468
 30
0.0
 40
1.499999999999934
100
AcDbArc
 50
242.5889286984915
 51
287.2538532296262
  0
ARC
  5
7F89
330
A
100
AcDbEntity
  8
0
  6
Continuous
 62
     7
370
     0
100
AcDbCircle
 10
21.50000001802391
 20
53.19125001930657
 30
0.0
 40
9.999999999999957
100
AcDbArc
 50
64.15806731319545
 51
72.65012781204811
  0
ARC
  5
7F8A
330
A
100
AcDbEntity
  8
0
  6
Continuous
 62
     7
370
     0
100
AcDbCircle
 10
21.50000001802391
 20
53.19125001930657
 30
0.0
 40
9.999999999999987
100
AcDbArc
 50
287.2538532296267
 51
295.8419327624093
  0
LINE
  5
7F8B
330
A
100
AcDbEntity
  8
0
  6
Continuous
 62
     7
370
     0
100
AcDbLine
 10
38.7499999610659
 20
57.19125003090832
 30
0.0
 11
38.7499999610659
 21
56.69125003086716
 31
0.0
  0
LINE
  5
7F8C
330
A
100
AcDbEntity
  8
0
  6
Continuous
 62
     7
370
     0
100
AcDbLine
 10
38.7499999610659
 20
56.69125003086716
 30
0.0
 11
38.7499999610659
 21
55.69125003086717
 31
0.0
  0
LINE
  5
7F8D
330
A
100
AcDbEntity
  8
0
  6
Continuous
 62
     9
370
     0
100
AcDbLine
 10
43.24999996318388
 20
57.19125003116008
 30
0.0
 11
43.24999996318297
 21
56.69125003108283
 31
0.0
  0
LINE
  5
7F8E
330
A
100
AcDbEntity
  8
0
  6
Continuous
 62
     9
370
     0
100
AcDbLine
 10
43.24999996318297
 20
56.69125003108283
 30
0.0
 11
43.24999996318297
 21
55.69125003108283
 31
0.0
  0
LINE
  5
7F8F
330
A
100
AcDbEntity
  8
0
  6
Continuous
 62
     7
370
     0
100
AcDbLine
 10
38.7499999610659
 20
55.69125003086717
 30
0.0
 11
43.24999996318297
 21
55.6912500308654
 31
0.0
  0
LINE
  5
7F90
330
A
100
AcDbEntity
  8
0
  6
Continuous
 62
     9
370
     0
100
AcDbLine
 10
80.74999996318387
 20
57.19125003114467
 30
0.0
 11
80.74999996318297
 21
56.69125003106742
 31
0.0
  0
LINE
  5
7F91
330
A
100
AcDbEntity
  8
0
  6
Continuous
 62
     9
370
     0
100
AcDbLine
 10
80.74999996318297
 20
56.69125003106742
 30
0.0
 11
80.74999996318297
 21
55.69125003106742
 31
0.0
  0
LINE
  5
7F92
330
A
100
AcDbEntity
  8
0
  6
Continuous
 62
     7
370
     0
100
AcDbLine
 10
43.24999996318297
 20
55.69125003108283
 30
0.0
 11
80.74999996318297
 21
55.69125003106742
 31
0.0
  0
LINE
  5
7F93
330
A
100
AcDbEntity
  8
0
  6
Continuous
 62
     7
370
     0
100
AcDbLine
 10
85.2499999610659
 20
57.1912500274029
 30
0.0
 11
85.2499999610659
 21
56.69125003084812
 31
0.0
  0
LINE
  5
7F94
330
A
100
AcDbEntity
  8
0
  6
Continuous
 62
     7
370
     0
100
AcDbLine
 10
85.2499999610659
 20
56.69125003084812
 30
0.0
 11
85.2499999610659
 21
55.69125003084801
 31
0.0
  0
LINE
  5
7F95
330
A
100
AcDbEntity
  8
0
  6
Continuous
 62
     7
370
     0
100
AcDbLine
 10
80.74999996318297
 20
55.69125003085
 30
0.0
 11
85.2499999610659
 21
55.69125003084801
 31
0.0
  0
LINE
  5
7F96
330
A
100
AcDbEntity
  8
0
  6
Continuous
 62
     7
370
     0
100
AcDbLine
 10
38.7499999610659
 20
57.19125003090832
 30
0.0
 11
38.7499999610659
 21
56.69125003086716
 31
0.0
  0
LINE
  5
7F97
330
A
100
AcDbEntity
  8
0
  6
Continuous
 62
     9
370
     0
100
AcDbLine
 10
43.24999996318388
 20
57.19125003116008
 30
0.0
 11
43.24999996318297
 21
56.69125003108283
 31
0.0
  0
LINE
  5
7F98
330
A
100
AcDbEntity
  8
0
  6
Continuous
 62
     7
370
     0
100
AcDbLine
 10
38.7499999610659
 20
56.69125003086716
 30
0.0
 11
43.24999996318297
 21
56.69125003086529
 31
0.0
  0
LINE
  5
7F99
330
A
100
AcDbEntity
  8
0
  6
Continuous
 62
     9
370
     0
100
AcDbLine
 10
80.74999996318387
 20
57.19125003114467
 30
0.0
 11
80.74999996318297
 21
56.69125003106742
 31
0.0
  0
LINE
  5
7F9A
330
A
100
AcDbEntity
  8
0
  6
Continuous
 62
     7
370
     0
100
AcDbLine
 10
43.24999996318297
 20
56.69125003108283
 30
0.0
 11
80.74999996318297
 21
56.69125003106742
 31
0.0
  0
LINE
  5
7F9B
330
A
100
AcDbEntity
  8
0
  6
Continuous
 62
     7
370
     0
100
AcDbLine
 10
85.2499999610659
 20
57.1912500274029
 30
0.0
 11
85.2499999610659
 21
56.69125003084812
 31
0.0
  0
LINE
  5
7F9C
330
A
100
AcDbEntity
  8
0
  6
Continuous
 62
     7
370
     0
100
AcDbLine
 10
80.74999996318297
 20
56.69125003084989
 30
0.0
 11
85.2499999610659
 21
56.69125003084812
 31
0.0
  0
LINE
  5
7F9D
330
A
100
AcDbEntity
  8
0
  6
Continuous
 62
     7
370
     0
100
AcDbLine
 10
76.24999995687881
 20
43.89125003042417
 30
0.0
 11
63.74999995687881
 21
43.89125003042349
 31
0.0
  0
LINE
  5
7F9E
330
A
100
AcDbEntity
  8
0
  6
Continuous
 62
     9
370
     0
100
AcDbLine
 10
64.58715784720379
 20
42.44125003042362
 30
0.0
 11
75.41284206655518
 21
42.44125003042419
 31
0.0
  0
LINE
  5
7F9F
330
A
100
AcDbEntity
  8
0
  6
Continuous
 62
     7
370
     0
100
AcDbLine
 10
74.979829364662
 20
42.19125003042418
 30
0.0
 11
65.02017054909697
 21
42.19125003042361
 31
0.0
  0
ARC
  5
7FA0
330
A
100
AcDbEntity
  8
0
  6
Continuous
 62
     7
370
     0
100
AcDbCircle
 10
42.99999996394013
 20
51.441250031159
 30
0.0
 40
7.499999999999982
100
AcDbArc
 50
222.8334280660305
 51
255.1648884179907
  0
LINE
  5
7FA1
330
A
100
AcDbEntity
  8
0
  6
Continuous
 62
     7
370
     0
100
AcDbLine
 10
37.49999996393786
 20
46.34223051757041
 30
0.0
 11
37.49999996393877
 21
48.19125003116252
 31
0.0
  0
LINE
  5
7FA2
330
A
100
AcDbEntity
  8
0
  6
Continuous
 62
     7
370
     0
100
AcDbLine
 10
82.49999996393876
 20
48.19125003114399
 30
0.0
 11
37.49999996393877
 21
48.19125003116252
 31
0.0
  0
LINE
  5
7FA3
330
A
100
AcDbEntity
  8
0
  6
Continuous
 62
     9
370
     0
100
AcDbLine
 10
82.49999996393695
 20
44.1912500311455
 30
0.0
 11
82.49999996393876
 21
48.19125003114399
 31
0.0
  0
LINE
  5
7FA4
330
A
100
AcDbEntity
  8
0
  6
Continuous
 62
     7
370
     0
100
AcDbLine
 10
82.49999996393695
 20
44.1912500311455
 30
0.0
 11
41.07971352696972
 21
44.19125003116258
 31
0.0
  0
LINE
  5
7FA5
330
A
100
AcDbEntity
  8
0
  6
Continuous
 62
     7
370
     0
100
AcDbLine
 10
87.49999996158681
 20
48.19125003090031
 30
0.0
 11
87.49999996158498
 21
44.19125003090181
 31
0.0
  0
LINE
  5
7FA6
330
A
100
AcDbEntity
  8
0
  6
Continuous
 62
     7
370
     0
100
AcDbLine
 10
87.49999996158113
 20
44.19125003090181
 30
0.0
 11
82.49999996393695
 21
44.19125003090392
 31
0.0
  0
LINE
  5
7FA7
330
A
100
AcDbEntity
  8
0
  6
Continuous
 62
     7
370
     0
100
AcDbLine
 10
82.49999996393876
 20
48.19125003090229
 30
0.0
 11
87.49999996158113
 21
48.19125003090031
 31
0.0
  0
CIRCLE
  5
7FA8
330
A
100
AcDbEntity
  8
0
  6
Continuous
 62
     7
370
     0
100
AcDbCircle
 10
48.49999995599296
 20
53.19125003035421
 30
0.0
 40
1.749999999999973
  0
ARC
  5
7FA9
330
A
100
AcDbEntity
  8
0
  6
Continuous
 62
     7
370
     0
100
AcDbCircle
 10
43.49999996393489
 20
53.94125003116002
 30
0.0
 40
7.500000000000082
100
AcDbArc
 50
104.8351115819552
 51
143.1301023541312
  0
LINE
  5
7FAA
330
A
100
AcDbEntity
  8
0
  6
Continuous
 62
     7
370
     0
100
AcDbLine
 10
41.57971352697109
 20
61.19125003116071
 30
0.0
 11
82.49999996393786
 21
61.19125003114399
 31
0.0
  0
LINE
  5
7FAB
330
A
100
AcDbEntity
  8
0
  6
Continuous
 62
     9
370
     0
100
AcDbLine
 10
82.49999996393603
 20
57.19125003114399
 30
0.0
 11
82.49999996393786
 21
61.19125003114399
 31
0.0
  0
LINE
  5
7FAC
330
A
100
AcDbEntity
  8
0
  6
Continuous
 62
     7
370
     0
100
AcDbLine
 10
37.49999996393603
 20
57.19125003116253
 30
0.0
 11
82.49999996393603
 21
57.19125003114399
 31
0.0
  0
LINE
  5
7FAD
330
A
100
AcDbEntity
  8
0
  6
Continuous
 62
     7
370
     0
100
AcDbLine
 10
37.49999996393603
 20
57.19125003116253
 30
0.0
 11
37.49999996393694
 21
58.44125003116241
 31
0.0
  0
LINE
  5
7FAE
330
A
100
AcDbEntity
  8
0
  6
Continuous
 62
     7
370
     0
100
AcDbLine
 10
87.49999996158591
 20
61.1912500309003
 30
0.0
 11
87.49999996158408
 21
57.19125003090031
 31
0.0
  0
LINE
  5
7FAF
330
A
100
AcDbEntity
  8
0
  6
Continuous
 62
     7
370
     0
100
AcDbLine
 10
82.49999996393786
 20
61.19125003090241
 30
0.0
 11
87.49999996158591
 21
61.1912500309003
 31
0.0
  0
LINE
  5
7FB0
330
A
100
AcDbEntity
  8
0
  6
Continuous
 62
     7
370
     0
100
AcDbLine
 10
87.49999996158408
 20
57.19125003090031
 30
0.0
 11
82.49999996393603
 21
57.1912500309024
 31
0.0
  0
LINE
  5
7FB1
330
A
100
AcDbEntity
  8
0
  6
Continuous
 62
     9
370
     0
100
AcDbLine
 10
64.73393768141296
 20
49.6912500335807
 30
0.0
 11
64.7339376814159
 21
55.69125003107401
 31
0.0
  0
LINE
  5
7FB2
330
A
100
AcDbEntity
  8
0
  6
Continuous
 62
     7
370
     0
100
AcDbLine
 10
75.49999995687585
 20
49.69125002590047
 30
0.0
 11
75.49999995687881
 21
55.6912500278166
 31
0.0
  0
LINE
  5
7FB3
330
A
100
AcDbEntity
  8
0
  6
Continuous
 62
     9
370
     0
100
AcDbLine
 10
61.46975963143495
 20
49.69125003358212
 30
0.0
 11
61.46975963143791
 21
55.69125003107533
 31
0.0
  0
LINE
  5
7FB4
330
A
100
AcDbEntity
  8
0
  6
Continuous
 62
     7
370
     0
100
AcDbLine
 10
59.49999995617076
 20
49.69125003358292
 30
0.0
 11
59.49999995617304
 21
55.69125003107607
 31
0.0
  0
ARC
  5
7FB5
330
A
100
AcDbEntity
  8
0
  6
Continuous
 62
     7
370
     0
100
AcDbCircle
 10
48.49999995617213
 20
53.19125003036058
 30
0.0
 40
2.500000000000002
100
AcDbArc
 50
269.9999999999739
 51
89.99999999997395
  0
ARC
  5
7FB6
330
A
100
AcDbEntity
  8
0
  6
Continuous
 62
     7
370
     0
100
AcDbCircle
 10
48.49999995617213
 20
53.19125003036058
 30
0.0
 40
2.500000000000002
100
AcDbArc
 50
89.99999999997395
 51
269.9999999999739
  0
LINE
  5
7FB7
330
A
100
AcDbEntity
  8
0
  6
Continuous
 62
     7
370
     0
100
AcDbLine
 10
37.49999995617077
 20
49.19125003036507
 30
0.0
 11
38.74999994528617
 21
49.19125003036461
 31
0.0
  0
LINE
  5
7FB8
330
A
100
AcDbEntity
  8
0
  6
Continuous
 62
     7
370
     0
100
AcDbLine
 10
37.49999995617395
 20
57.19125003036507
 30
0.0
 11
37.49999995617077
 21
49.19125003036507
 31
0.0
  0
LINE
  5
7FB9
330
A
100
AcDbEntity
  8
0
  6
Continuous
 62
     7
370
     0
100
AcDbLine
 10
85.2499999610659
 20
57.19125002753068
 30
0.0
 11
86.24999992876883
 21
57.19125002753023
 31
0.0
  0
ARC
  5
7FBA
330
A
100
AcDbEntity
  8
0
  6
Continuous
 62
     7
370
     0
100
AcDbCircle
 10
20.49999995401481
 20
53.19125002511649
 30
0.0
 40
9.000000000000012
100
AcDbArc
 50
104.0240495062402
 51
117.266044532225
  0
ARC
  5
7FBB
330
A
100
AcDbEntity
  8
0
  6
Continuous
 62
     7
370
     0
100
AcDbCircle
 10
18.68253133515895
 20
60.4677057433544
 30
0.0
 40
1.500000000000129
100
AcDbArc
 50
59.18504675893368
 51
104.0240495062402
  0
ARC
  5
7FBC
330
A
100
AcDbEntity
  8
0
  6
Continuous
 62
     7
370
     0
100
AcDbCircle
 10
21.49999995401481
 20
65.19125002511643
 30
0.0
 40
4.000000000000095
100
AcDbArc
 50
269.9999999999739
 51
305.0968012275835
  0
ARC
  5
7FBD
330
A
100
AcDbEntity
  8
0
  6
Continuous
 62
     7
370
     0
100
AcDbCircle
 10
21.49999995401481
 20
65.19125002511643
 30
0.0
 40
4.000000000000001
100
AcDbArc
 50
239.1850467589457
 51
269.9999999999739
  0
ARC
  5
7FBE
330
A
100
AcDbEntity
  8
0
  6
Continuous
 62
     7
370
     0
100
AcDbCircle
 10
24.66227761418304
 20
60.69125002511649
 30
0.0
 40
1.499999999999945
100
AcDbArc
 50
90.0
 51
125.0968012275835
  0
LINE
  5
7FBF
330
A
100
AcDbEntity
  8
0
  6
Continuous
 62
     7
370
     0
100
AcDbLine
 10
49.49999995401481
 20
62.19125002511649
 30
0.0
 11
24.66227761418304
 21
62.19125002511643
 31
0.0
  0
ARC
  5
7FC0
330
A
100
AcDbEntity
  8
0
  6
Continuous
 62
     7
370
     0
100
AcDbCircle
 10
49.49999995401481
 20
53.19125002511649
 30
0.0
 40
8.999999999999969
100
AcDbArc
 50
62.73395559453266
 51
90.0
  0
LINE
  5
7FC1
330
A
100
AcDbEntity
  8
0
  6
Continuous
 62
     7
370
     0
100
AcDbLine
 10
28.9202864947381
 20
44.19125002511648
 30
0.0
 11
41.07971349988292
 21
44.19125002511648
 31
0.0
  0
LINE
  5
7FC2
330
A
100
AcDbEntity
  8
0
  6
Continuous
 62
     7
370
     0
100
AcDbLine
 10
6.250000027402847
 20
43.89125001925009
 30
0.0
 11
4.097877349623104
 21
43.89125001925342
 31
0.0
  0
LINE
  5
7FC3
330
A
100
AcDbEntity
  8
0
  6
Continuous
 62
     7
370
     0
100
AcDbLine
 10
4.097877349623104
 20
43.89125001925342
 30
0.0
 11
-6.249999972596015
 21
43.89125001926908
 31
0.0
  0
LINE
  5
7FC4
330
A
100
AcDbEntity
  8
0
  6
Continuous
 62
     9
370
     0
100
AcDbLine
 10
-5.41284208227421
 20
42.44125001926798
 30
0.0
 11
-4.086998576433188
 21
42.44125001926599
 31
0.0
  0
LINE
  5
7FC5
330
A
100
AcDbEntity
  8
0
  6
Continuous
 62
     9
370
     0
100
AcDbLine
 10
-4.086998576433188
 20
42.44125001926599
 30
0.0
 11
5.412842137075813
 21
42.44125001925138
 31
0.0
  0
LINE
  5
7FC6
330
A
100
AcDbEntity
  8
0
  6
Continuous
 62
     7
370
     0
100
AcDbLine
 10
4.979829435184001
 20
42.19125001925201
 30
0.0
 11
-3.760049762443031
 21
42.19125001926551
 31
0.0
  0
LINE
  5
7FC7
330
A
100
AcDbEntity
  8
0
  6
Continuous
 62
     7
370
     0
100
AcDbLine
 10
-3.760049762443031
 20
42.19125001926551
 30
0.0
 11
-4.97982938038217
 21
42.19125001926729
 31
0.0
  0
LINE
  5
7FC8
330
A
100
AcDbEntity
  8
0
  6
Continuous
 62
     7
370
     0
100
AcDbLine
 10
-15.24999996769998
 20
57.19125001926599
 30
0.0
 11
-15.24999996770111
 21
56.69125001926599
 31
0.0
  0
LINE
  5
7FC9
330
A
100
AcDbEntity
  8
0
  6
Continuous
 62
     9
370
     0
100
AcDbLine
 10
-10.74999996523411
 20
57.19125001926411
 30
0.0
 11
-10.74999996523411
 21
56.691250019264
 31
0.0
  0
LINE
  5
7FCA
330
A
100
AcDbEntity
  8
0
  6
Continuous
 62
     7
370
     0
100
AcDbLine
 10
-15.24999996770111
 20
56.69125001926599
 30
0.0
 11
-10.74999996523411
 21
56.691250019264
 31
0.0
  0
LINE
  5
7FCB
330
A
100
AcDbEntity
  8
0
  6
Continuous
 62
     9
370
     0
100
AcDbLine
 10
26.75000003476589
 20
57.19125001924883
 30
0.0
 11
26.75000003476589
 21
56.69125001924872
 31
0.0
  0
LINE
  5
7FCC
330
A
100
AcDbEntity
  8
0
  6
Continuous
 62
     7
370
     0
100
AcDbLine
 10
-10.74999996523411
 20
56.691250019264
 30
0.0
 11
26.75000003476589
 21
56.69125001924872
 31
0.0
  0
LINE
  5
7FCD
330
A
100
AcDbEntity
  8
0
  6
Continuous
 62
     7
370
     0
100
AcDbLine
 10
31.25000003230002
 20
57.19125001924689
 30
0.0
 11
31.25000003229889
 21
56.69125001924689
 31
0.0
  0
LINE
  5
7FCE
330
A
100
AcDbEntity
  8
0
  6
Continuous
 62
     7
370
     0
100
AcDbLine
 10
26.75000003476589
 20
56.69125001924872
 30
0.0
 11
31.25000003229889
 21
56.69125001924689
 31
0.0
  0
LINE
  5
7FCF
330
A
100
AcDbEntity
  8
0
  6
Continuous
 62
     7
370
     0
100
AcDbLine
 10
-15.24999996770293
 20
49.69125001926588
 30
0.0
 11
-15.24999996770384
 21
48.69125001926599
 31
0.0
  0
LINE
  5
7FD0
330
A
100
AcDbEntity
  8
0
  6
Continuous
 62
     7
370
     0
100
AcDbLine
 10
-15.24999996770384
 20
48.69125001926599
 30
0.0
 11
-15.24999996770384
 21
48.19125001926588
 31
0.0
  0
LINE
  5
7FD1
330
A
100
AcDbEntity
  8
0
  6
Continuous
 62
     9
370
     0
100
AcDbLine
 10
-10.74999996523729
 20
49.69125001926411
 30
0.0
 11
-10.74999996523729
 21
48.691250019264
 31
0.0
  0
LINE
  5
7FD2
330
A
100
AcDbEntity
  8
0
  6
Continuous
 62
     9
370
     0
100
AcDbLine
 10
-10.74999996523729
 20
48.691250019264
 30
0.0
 11
-10.7499999652382
 21
48.19125001926412
 31
0.0
  0
LINE
  5
7FD3
330
A
100
AcDbEntity
  8
0
  6
Continuous
 62
     7
370
     0
100
AcDbLine
 10
-15.24999996770293
 20
49.69125001926588
 30
0.0
 11
-10.74999996523729
 21
49.69125001926411
 31
0.0
  0
LINE
  5
7FD4
330
A
100
AcDbEntity
  8
0
  6
Continuous
 62
     9
370
     0
100
AcDbLine
 10
26.75000003476271
 20
49.69125001924871
 30
0.0
 11
26.75000003476271
 21
48.69125001924871
 31
0.0
  0
LINE
  5
7FD5
330
A
100
AcDbEntity
  8
0
  6
Continuous
 62
     9
370
     0
100
AcDbLine
 10
26.75000003476271
 20
48.69125001924871
 30
0.0
 11
26.7500000347618
 21
48.19125001924871
 31
0.0
  0
LINE
  5
7FD6
330
A
100
AcDbEntity
  8
0
  6
Continuous
 62
     7
370
     0
100
AcDbLine
 10
-10.74999996523729
 20
49.69125001926411
 30
0.0
 11
26.75000003476271
 21
49.69125001924871
 31
0.0
  0
LINE
  5
7FD7
330
A
100
AcDbEntity
  8
0
  6
Continuous
 62
     7
370
     0
100
AcDbLine
 10
31.25000003229707
 20
49.69125001924684
 30
0.0
 11
31.25000003229616
 21
48.6912500192469
 31
0.0
  0
LINE
  5
7FD8
330
A
100
AcDbEntity
  8
0
  6
Continuous
 62
     7
370
     0
100
AcDbLine
 10
31.25000003229616
 20
48.6912500192469
 30
0.0
 11
31.25000003229616
 21
48.19125001924684
 31
0.0
  0
LINE
  5
7FD9
330
A
100
AcDbEntity
  8
0
  6
Continuous
 62
     7
370
     0
100
AcDbLine
 10
26.75000003476271
 20
49.69125001924871
 30
0.0
 11
31.25000003229707
 21
49.69125001924684
 31
0.0
  0
LINE
  5
7FDA
330
A
100
AcDbEntity
  8
0
  6
Continuous
 62
     7
370
     0
100
AcDbLine
 10
-15.24999996770384
 20
48.69125001926599
 30
0.0
 11
-15.24999996770384
 21
48.19125001926588
 31
0.0
  0
LINE
  5
7FDB
330
A
100
AcDbEntity
  8
0
  6
Continuous
 62
     9
370
     0
100
AcDbLine
 10
-10.74999996523729
 20
48.691250019264
 30
0.0
 11
-10.7499999652382
 21
48.19125001926412
 31
0.0
  0
LINE
  5
7FDC
330
A
100
AcDbEntity
  8
0
  6
Continuous
 62
     7
370
     0
100
AcDbLine
 10
-15.24999996770384
 20
48.69125001926599
 30
0.0
 11
-10.74999996523729
 21
48.691250019264
 31
0.0
  0
LINE
  5
7FDD
330
A
100
AcDbEntity
  8
0
  6
Continuous
 62
     9
370
     0
100
AcDbLine
 10
26.75000003476271
 20
48.69125001924871
 30
0.0
 11
26.7500000347618
 21
48.19125001924871
 31
0.0
  0
LINE
  5
7FDE
330
A
100
AcDbEntity
  8
0
  6
Continuous
 62
     7
370
     0
100
AcDbLine
 10
-10.74999996523729
 20
48.691250019264
 30
0.0
 11
26.75000003476271
 21
48.69125001924871
 31
0.0
  0
LINE
  5
7FDF
330
A
100
AcDbEntity
  8
0
  6
Continuous
 62
     7
370
     0
100
AcDbLine
 10
31.25000003229616
 20
48.6912500192469
 30
0.0
 11
31.25000003229616
 21
48.19125001924684
 31
0.0
  0
LINE
  5
7FE0
330
A
100
AcDbEntity
  8
0
  6
Continuous
 62
     7
370
     0
100
AcDbLine
 10
26.75000003476271
 20
48.69125001924871
 30
0.0
 11
31.25000003229616
 21
48.6912500192469
 31
0.0
  0
LINE
  5
7FE1
330
A
100
AcDbEntity
  8
0
  6
Continuous
 62
     9
370
     0
100
AcDbLine
 10
-10.74999996523411
 20
55.69125001926412
 30
0.0
 11
-10.74999996523411
 21
56.691250019264
 31
0.0
  0
LINE
  5
7FE2
330
A
100
AcDbEntity
  8
0
  6
Continuous
 62
     9
370
     0
100
AcDbLine
 10
-10.74999996523411
 20
56.691250019264
 30
0.0
 11
-10.74999996523411
 21
57.19125001926411
 31
0.0
  0
LINE
  5
7FE3
330
A
100
AcDbEntity
  8
0
  6
Continuous
 62
     7
370
     0
100
AcDbLine
 10
-10.74999996523411
 20
55.69125001926412
 30
0.0
 11
-15.24999996770111
 21
55.69125001926588
 31
0.0
  0
LINE
  5
7FE4
330
A
100
AcDbEntity
  8
0
  6
Continuous
 62
     7
370
     0
100
AcDbLine
 10
-15.24999996770111
 20
55.69125001926588
 30
0.0
 11
-15.24999996770111
 21
56.69125001926599
 31
0.0
  0
LINE
  5
7FE5
330
A
100
AcDbEntity
  8
0
  6
Continuous
 62
     7
370
     0
100
AcDbLine
 10
-15.24999996770111
 20
56.69125001926599
 30
0.0
 11
-15.24999996769998
 21
57.19125001926599
 31
0.0
  0
LINE
  5
7FE6
330
A
100
AcDbEntity
  8
0
  6
Continuous
 62
     9
370
     0
100
AcDbLine
 10
26.75000003476498
 20
55.69125001924871
 30
0.0
 11
26.75000003476589
 21
56.69125001924872
 31
0.0
  0
LINE
  5
7FE7
330
A
100
AcDbEntity
  8
0
  6
Continuous
 62
     9
370
     0
100
AcDbLine
 10
26.75000003476589
 20
56.69125001924872
 30
0.0
 11
26.75000003476589
 21
57.19125001924883
 31
0.0
  0
LINE
  5
7FE8
330
A
100
AcDbEntity
  8
0
  6
Continuous
 62
     7
370
     0
100
AcDbLine
 10
26.75000003476498
 20
55.69125001924871
 30
0.0
 11
-10.74999996523411
 21
55.69125001926412
 31
0.0
  0
LINE
  5
7FE9
330
A
100
AcDbEntity
  8
0
  6
Continuous
 62
     7
370
     0
100
AcDbLine
 10
31.25000003229889
 20
55.69125001924689
 30
0.0
 11
31.25000003229889
 21
56.69125001924689
 31
0.0
  0
LINE
  5
7FEA
330
A
100
AcDbEntity
  8
0
  6
Continuous
 62
     7
370
     0
100
AcDbLine
 10
31.25000003229889
 20
56.69125001924689
 30
0.0
 11
31.25000003230002
 21
57.19125001924689
 31
0.0
  0
LINE
  5
7FEB
330
A
100
AcDbEntity
  8
0
  6
Continuous
 62
     7
370
     0
100
AcDbLine
 10
31.25000003229889
 20
55.69125001924689
 30
0.0
 11
26.75000003476498
 21
55.69125001924871
 31
0.0
  0
LINE
  5
7FEC
330
A
100
AcDbEntity
  8
0
  6
Continuous
 62
     7
370
     0
100
AcDbLine
 10
-17.4999999671079
 20
44.19125001926693
 30
0.0
 11
-17.49999996710608
 21
48.1912500192669
 31
0.0
  0
LINE
  5
7FED
330
A
100
AcDbEntity
  8
0
  6
Continuous
 62
     9
370
     0
100
AcDbLine
 10
-12.49999996436713
 20
48.19125001926491
 30
0.0
 11
-12.49999996436895
 21
44.19125001926483
 31
0.0
  0
LINE
  5
7FEE
330
A
100
AcDbEntity
  8
0
  6
Continuous
 62
     7
370
     0
100
AcDbLine
 10
-17.4999999671079
 20
48.1912500192669
 30
0.0
 11
-12.49999996436713
 21
48.19125001926491
 31
0.0
  0
LINE
  5
7FEF
330
A
100
AcDbEntity
  8
0
  6
Continuous
 62
     7
370
     0
100
AcDbLine
 10
-12.49999996436895
 20
44.19125001926483
 30
0.0
 11
-17.49999996711017
 21
44.19125001926693
 31
0.0
  0
LINE
  5
7FF0
330
A
100
AcDbEntity
  8
0
  6
Continuous
 62
     7
370
     0
100
AcDbLine
 10
32.500000035614
 20
48.19125001924632
 30
0.0
 11
32.50000003561309
 21
46.34223050565347
 31
0.0
  0
ARC
  5
7FF1
330
A
100
AcDbEntity
  8
0
  6
Continuous
 62
     7
370
     0
100
AcDbCircle
 10
27.00000003561786
 20
51.44125001924848
 30
0.0
 40
7.499999999999849
100
AcDbArc
 50
284.8351115819422
 51
317.1665719338959
  0
LINE
  5
7FF2
330
A
100
AcDbEntity
  8
0
  6
Continuous
 62
     7
370
     0
100
AcDbLine
 10
32.500000035614
 20
48.19125001924632
 30
0.0
 11
-12.49999996436713
 21
48.19125001926491
 31
0.0
  0
LINE
  5
7FF3
330
A
100
AcDbEntity
  8
0
  6
Continuous
 62
     7
370
     0
100
AcDbLine
 10
28.92028647258099
 20
44.1912500192478
 30
0.0
 11
-12.49999996436895
 21
44.19125001926483
 31
0.0
  0
CIRCLE
  5
7FF4
330
A
100
AcDbEntity
  8
0
  6
Continuous
 62
     7
370
     0
100
AcDbCircle
 10
21.50000003668901
 20
53.1912500171816
 30
0.0
 40
1.750000000000027
  0
LINE
  5
7FF5
330
A
100
AcDbEntity
  8
0
  6
Continuous
 62
     7
370
     0
100
AcDbLine
 10
-17.4999999671079
 20
57.1912500192669
 30
0.0
 11
-17.49999996710608
 21
61.19125001926644
 31
0.0
  0
LINE
  5
7FF6
330
A
100
AcDbEntity
  8
0
  6
Continuous
 62
     9
370
     0
100
AcDbLine
 10
-12.49999996436599
 20
61.1912500192644
 30
0.0
 11
-12.49999996436713
 21
57.1912500192648
 31
0.0
  0
LINE
  5
7FF7
330
A
100
AcDbEntity
  8
0
  6
Continuous
 62
     7
370
     0
100
AcDbLine
 10
-12.49999996436713
 20
57.1912500192648
 30
0.0
 11
-17.49999996710608
 21
57.1912500192669
 31
0.0
  0
LINE
  5
7FF8
330
A
100
AcDbEntity
  8
0
  6
Continuous
 62
     7
370
     0
100
AcDbLine
 10
-17.49999996710517
 20
61.19125001926644
 30
0.0
 11
-12.49999996436599
 21
61.1912500192644
 31
0.0
  0
ARC
  5
7FF9
330
A
100
AcDbEntity
  8
0
  6
Continuous
 62
     7
370
     0
100
AcDbCircle
 10
27.00000003562696
 20
53.941250019249
 30
0.0
 40
7.500000000000027
100
AcDbArc
 50
42.83342806604527
 51
75.16488841800368
  0
LINE
  5
7FFA
330
A
100
AcDbEntity
  8
0
  6
Continuous
 62
     7
370
     0
100
AcDbLine
 10
32.50000003562786
 20
59.04026953283895
 30
0.0
 11
32.50000003562695
 21
57.19125001924638
 31
0.0
  0
LINE
  5
7FFB
330
A
100
AcDbEntity
  8
0
  6
Continuous
 62
     7
370
     0
100
AcDbLine
 10
-12.49999996436713
 20
57.1912500192648
 30
0.0
 11
32.50000003562695
 21
57.19125001924638
 31
0.0
  0
LINE
  5
7FFC
330
A
100
AcDbEntity
  8
0
  6
Continuous
 62
     7
370
     0
100
AcDbLine
 10
-12.49999996436599
 20
61.1912500192644
 30
0.0
 11
28.92028647259599
 21
61.19125001924729
 31
0.0
  0
LINE
  5
7FFD
330
A
100
AcDbEntity
  8
0
  6
Continuous
 62
     7
370
     0
100
AcDbLine
 10
-5.499999972593059
 20
49.69125001926179
 30
0.0
 11
-5.499999972590103
 21
55.69125001926053
 31
0.0
  0
LINE
  5
7FFE
330
A
100
AcDbEntity
  8
0
  6
Continuous
 62
     9
370
     0
100
AcDbLine
 10
5.30614030656784
 20
49.69125001925752
 30
0.0
 11
5.306140306571933
 21
55.69125001925752
 31
0.0
  0
LINE
  5
7FFF
330
A
100
AcDbEntity
  8
0
  6
Continuous
 62
     9
370
     0
100
AcDbLine
 10
9.165151416495064
 20
49.69125001925587
 30
0.0
 11
9.165151416498019
 21
55.69125001925588
 31
0.0
  0
ARC
  5
8000
330
A
100
AcDbEntity
  8
0
  6
Continuous
 62
     7
370
     0
100
AcDbCircle
 10
21.50000002658408
 20
53.19125001925138
 30
0.0
 40
2.499999999999944
100
AcDbArc
 50
89.99999999997395
 51
179.9999999999772
  0
ARC
  5
8001
330
A
100
AcDbEntity
  8
0
  6
Continuous
 62
     7
370
     0
100
AcDbCircle
 10
21.50000002658408
 20
53.19125001925138
 30
0.0
 40
2.500000000000002
100
AcDbArc
 50
179.9999999999739
 51
89.99999999997395
  0
LINE
  5
8002
330
A
100
AcDbEntity
  8
0
  6
Continuous
 62
     7
370
     0
100
AcDbLine
 10
31.25000003229616
 20
49.1912500192478
 30
0.0
 11
32.50000002658112
 21
49.19125001924729
 31
0.0
  0
LINE
  5
8003
330
A
100
AcDbEntity
  8
0
  6
Continuous
 62
     7
370
     0
100
AcDbLine
 10
32.50000002658112
 20
49.19125001924729
 30
0.0
 11
32.50000002658408
 21
57.19125001924638
 31
0.0
  0
LINE
  5
8004
330
A
100
AcDbEntity
  8
0
  6
Continuous
 62
     9
370
     0
100
AcDbLine
 10
26.50227759913901
 20
44.1912500192488
 30
0.0
 11
26.50227759913901
 21
43.9912500251163
 31
0.0
  0
LINE
  5
8005
330
A
100
AcDbEntity
  8
0
  6
Continuous
 62
     9
370
     0
100
AcDbLine
 10
31.50227759913901
 20
43.99125002511667
 30
0.0
 11
31.50227759913901
 21
44.19125002511648
 31
0.0
  0
LINE
  5
8006
330
A
100
AcDbEntity
  8
0
  6
Continuous
 62
     7
370
     0
100
AcDbLine
 10
26.1022776108739
 20
44.19125001924891
 30
0.0
 11
26.50227759913901
 21
43.9912500251163
 31
0.0
  0
LINE
  5
8007
330
A
100
AcDbEntity
  8
0
  6
Continuous
 62
     7
370
     0
100
AcDbLine
 10
26.50227759913901
 20
43.9912500251163
 30
0.0
 11
27.00227759913901
 21
43.7412500251163
 31
0.0
  0
LINE
  5
8008
330
A
100
AcDbEntity
  8
0
  6
Continuous
 62
     7
370
     0
100
AcDbLine
 10
31.00227759913901
 20
43.74125002511661
 30
0.0
 11
31.50227759913901
 21
43.99125002511667
 31
0.0
  0
LINE
  5
8009
330
A
100
AcDbEntity
  8
0
  6
Continuous
 62
     7
370
     0
100
AcDbLine
 10
31.50227759913901
 20
43.99125002511667
 30
0.0
 11
31.9022775991391
 21
44.19125002511648
 31
0.0
  0
LINE
  5
800A
330
A
100
AcDbEntity
  8
0
  6
Continuous
 62
     7
370
     0
100
AcDbLine
 10
76.24999995687881
 20
43.89125003042417
 30
0.0
 11
76.24999995687881
 21
44.19125003042418
 31
0.0
  0
LINE
  5
800B
330
A
100
AcDbEntity
  8
0
  6
Continuous
 62
     7
370
     0
100
AcDbLine
 10
63.74999995687881
 20
44.1912500304235
 30
0.0
 11
63.74999995687881
 21
43.89125003042349
 31
0.0
  0
LINE
  5
800C
330
A
100
AcDbEntity
  8
0
  6
Continuous
 62
     7
370
     0
100
AcDbLine
 10
63.74999995687881
 20
43.89125003042349
 30
0.0
 11
64.58715784720379
 21
42.44125003042362
 31
0.0
  0
LINE
  5
800D
330
A
100
AcDbEntity
  8
0
  6
Continuous
 62
     7
370
     0
100
AcDbLine
 10
75.41284206655518
 20
42.44125003042419
 30
0.0
 11
76.24999995687881
 21
43.89125003042417
 31
0.0
  0
ARC
  5
800E
330
A
100
AcDbEntity
  8
0
  6
Continuous
 62
     7
370
     0
100
AcDbCircle
 10
74.979829364662
 20
42.69125003042418
 30
0.0
 40
0.5000000000000006
100
AcDbArc
 50
270.0
 51
330.0000000000027
  0
ARC
  5
800F
330
A
100
AcDbEntity
  8
0
  6
Continuous
 62
     7
370
     0
100
AcDbCircle
 10
65.02017054909697
 20
42.69125003042361
 30
0.0
 40
0.5000000000001397
100
AcDbArc
 50
209.9999999999987
 51
270.0
  0
LINE
  5
8010
330
A
100
AcDbEntity
  8
0
  6
Continuous
 62
     7
370
     0
100
AcDbLine
 10
6.250000027402847
 20
43.89125001925009
 30
0.0
 11
6.250000027403984
 21
44.1912500192501
 31
0.0
  0
LINE
  5
8011
330
A
100
AcDbEntity
  8
0
  6
Continuous
 62
     7
370
     0
100
AcDbLine
 10
-6.249999972596015
 20
44.19125001926917
 30
0.0
 11
-6.249999972596015
 21
43.89125001926908
 31
0.0
  0
LINE
  5
8012
330
A
100
AcDbEntity
  8
0
  6
Continuous
 62
     7
370
     0
100
AcDbLine
 10
-6.249999972596015
 20
43.89125001926908
 30
0.0
 11
-5.41284208227421
 21
42.44125001926798
 31
0.0
  0
LINE
  5
8013
330
A
100
AcDbEntity
  8
0
  6
Continuous
 62
     7
370
     0
100
AcDbLine
 10
5.412842137075813
 20
42.44125001925138
 30
0.0
 11
6.250000027402847
 21
43.89125001925009
 31
0.0
  0
ARC
  5
8014
330
A
100
AcDbEntity
  8
0
  6
Continuous
 62
     7
370
     0
100
AcDbCircle
 10
4.979829435184001
 20
42.69125001925201
 30
0.0
 40
0.5000000000000006
100
AcDbArc
 50
269.9999999999219
 51
329.9999999999253
  0
ARC
  5
8015
330
A
100
AcDbEntity
  8
0
  6
Continuous
 62
     7
370
     0
100
AcDbCircle
 10
-4.979829380381033
 20
42.6912500192673
 30
0.0
 40
0.4999999999999436
100
AcDbArc
 50
209.9999999999115
 51
269.9999999999088
  0
LINE
  5
8016
330
A
100
AcDbEntity
  8
0
  6
Continuous
 62
     7
370
     0
100
AcDbLine
 10
25.99999994215682
 20
-19.5999999759905
 30
0.0
 11
31.99999994215773
 21
-19.5999999726973
 31
0.0
  0
LINE
  5
8017
330
A
100
AcDbEntity
  8
0
  6
Continuous
 62
     7
370
     0
100
AcDbLine
 10
25.99999993611982
 20
-8.599999975990499
 30
0.0
 11
31.99999993611982
 21
-8.599999972697304
 31
0.0
  0
LINE
  5
8018
330
A
100
AcDbEntity
  8
0
  6
Continuous
 62
     9
370
     0
100
AcDbLine
 10
19.66940769594498
 20
-20.59999998375162
 30
0.0
 11
18.5339420006178
 21
-20.59999998487407
 31
0.0
  0
ELLIPSE
  5
8019
330
A
100
AcDbEntity
  8
0
  6
Continuous
 62
     9
370
     0
100
AcDbEllipse
 10
18.83054780148791
 20
-20.59999998460211
 30
0.0
 11
0.0000000009747758
 21
-1.0
 31
0.0
210
0.0
220
0.0
230
1.0
 40
0.2966058008706653
 41
3.1415926536362
 42
4.712388980431346
  0
LINE
  5
801A
330
A
100
AcDbEntity
  8
0
  6
Continuous
 62
     7
370
     0
100
AcDbLine
 10
18.83054780049974
 20
-19.59999998458087
 30
0.0
 11
19.20903636560911
 21
-19.5999999842067
 31
0.0
  0
ELLIPSE
  5
801B
330
A
100
AcDbEntity
  8
0
  6
Continuous
 62
     9
370
     0
100
AcDbEllipse
 10
19.20903636659682
 20
-20.59999998422657
 30
0.0
 11
0.0000000010116352
 21
-1.0
 31
0.0
210
0.0
220
0.0
230
1.0
 40
0.4603713293475228
 41
1.570796326744796
 42
3.141592653540055
  0
LINE
  5
801C
330
A
100
AcDbEntity
  8
0
  6
Continuous
 62
     9
370
     0
100
AcDbLine
 10
18.53394200931689
 20
-29.39999998487408
 30
0.0
 11
19.66940770464498
 21
-29.3999999837516
 31
0.0
  0
LINE
  5
801D
330
A
100
AcDbEntity
  8
0
  6
Continuous
 62
     9
370
     0
100
AcDbLine
 10
18.53394200931689
 20
-29.39999998493792
 30
0.0
 11
18.5339420006178
 21
-20.59999998493791
 31
0.0
  0
LINE
  5
801E
330
A
100
AcDbEntity
  8
0
  6
Continuous
 62
     9
370
     0
100
AcDbLine
 10
19.66940770464498
 20
-29.39999998381083
 30
0.0
 11
19.66940769594498
 21
-20.59999998381082
 31
0.0
  0
LINE
  5
801F
330
A
100
AcDbEntity
  8
0
  6
Continuous
 62
     7
370
     0
100
AcDbLine
 10
19.20903637628498
 20
-30.39999998420672
 30
0.0
 11
18.83054781117698
 21
-30.39999998458089
 31
0.0
  0
ELLIPSE
  5
8020
330
A
100
AcDbEntity
  8
0
  6
Continuous
 62
     9
370
     0
100
AcDbEllipse
 10
18.83054781018791
 20
-29.39999998460218
 30
0.0
 11
0.0000000009747758
 21
-1.0
 31
0.0
210
0.0
220
0.0
230
1.0
 40
0.2966058008706601
 41
4.71238898043129
 42
6.283185307225992
  0
ELLIPSE
  5
8021
330
A
100
AcDbEntity
  8
0
  6
Continuous
 62
     9
370
     0
100
AcDbEllipse
 10
19.20903637529682
 20
-29.3999999842265
 30
0.0
 11
0.0000000010116352
 21
-0.9999999999999731
 31
0.0
210
0.0
220
0.0
230
1.0
 40
0.4603713293475236
 41
6.283185307129848
 42
7.853981633924439
  0
LINE
  5
8022
330
A
100
AcDbEntity
  8
0
  6
Continuous
 62
     7
370
     0
100
AcDbLine
 10
23.80530796188509
 20
-19.59999997966261
 30
0.0
 11
24.18385236557401
 21
-19.5999999792883
 31
0.0
  0
ELLIPSE
  5
8023
330
A
100
AcDbEntity
  8
0
  6
Continuous
 62
     9
370
     0
100
AcDbEllipse
 10
24.18385236656082
 20
-20.5999999793095
 30
0.0
 11
-0.0000000010025314
 21
1.0
 31
0.0
210
0.0
220
0.0
230
1.0
 40
0.2982058174709186
 41
4.712388980338061
 42
6.283185307132733
  0
LINE
  5
8024
330
A
100
AcDbEntity
  8
0
  6
Continuous
 62
     9
370
     0
100
AcDbLine
 10
24.4820581840329
 20
-20.59999997899351
 30
0.0
 11
23.346424972965
 21
-20.59999998011619
 31
0.0
  0
ELLIPSE
  5
8025
330
A
100
AcDbEntity
  8
0
  6
Continuous
 62
     9
370
     0
100
AcDbEllipse
 10
23.8053079628728
 20
-20.59999997968231
 30
0.0
 11
-0.000000000965672
 21
1.0
 31
0.0
210
0.0
220
0.0
230
1.0
 40
0.458882989907642
 41
0.00000000004996
 42
1.570796326844965
  0
LINE
  5
8026
330
A
100
AcDbEntity
  8
0
  6
Continuous
 62
     9
370
     0
100
AcDbLine
 10
23.346424981665
 20
-29.39999998011621
 30
0.0
 11
24.48205819273312
 21
-29.39999997899349
 31
0.0
  0
LINE
  5
8027
330
A
100
AcDbEntity
  8
0
  6
Continuous
 62
     9
370
     0
100
AcDbLine
 10
23.346424981665
 20
-29.3999999801755
 30
0.0
 11
23.346424972965
 21
-20.5999999801756
 31
0.0
  0
LINE
  5
8028
330
A
100
AcDbEntity
  8
0
  6
Continuous
 62
     9
370
     0
100
AcDbLine
 10
24.48205819273312
 20
-29.39999997905741
 30
0.0
 11
24.4820581840329
 21
-20.5999999790574
 31
0.0
  0
LINE
  5
8029
330
A
100
AcDbEntity
  8
0
  6
Continuous
 62
     7
370
     0
100
AcDbLine
 10
24.1838523762508
 20
-30.39999997928831
 30
0.0
 11
23.80530797256188
 21
-30.3999999796626
 31
0.0
  0
ELLIPSE
  5
802A
330
A
100
AcDbEntity
  8
0
  6
Continuous
 62
     9
370
     0
100
AcDbEllipse
 10
23.80530797157303
 20
-29.39999997968241
 30
0.0
 11
0.000000000965672
 21
-1.0
 31
0.0
210
0.0
220
0.0
230
1.0
 40
0.458882989907642
 41
4.712388980434925
 42
6.283185307229768
  0
ELLIPSE
  5
802B
330
A
100
AcDbEntity
  8
0
  6
Continuous
 62
     9
370
     0
100
AcDbEllipse
 10
24.18385237526195
 20
-29.3999999793096
 30
0.0
 11
0.0000000010025314
 21
-1.0
 31
0.0
210
0.0
220
0.0
230
1.0
 40
0.298205817470919
 41
6.283185307132733
 42
7.853981633927853
  0
LINE
  5
802C
330
A
100
AcDbEntity
  8
0
  6
Continuous
 62
     9
370
     0
100
AcDbLine
 10
18.5339420006178
 20
-20.59999998451281
 30
0.0
 11
12.38579761111373
 21
-20.5999999905909
 31
0.0
  0
ELLIPSE
  5
802D
330
A
100
AcDbEntity
  8
0
  6
Continuous
 62
     9
370
     0
100
AcDbEllipse
 10
13.29721785093488
 20
-20.59999998985489
 30
0.0
 11
0.0000000008899548
 21
-1.0
 31
0.0
210
0.0
220
0.0
230
1.0
 40
0.9114202398210148
 41
3.141592653697928
 42
4.712388980492962
  0
LINE
  5
802E
330
A
100
AcDbEntity
  8
0
  6
Continuous
 62
     7
370
     0
100
AcDbLine
 10
13.29721784994672
 20
-19.5999999896899
 30
0.0
 11
18.83054780049974
 21
-19.59999998421961
 31
0.0
  0
LINE
  5
802F
330
A
100
AcDbEntity
  8
0
  6
Continuous
 62
     9
370
     0
100
AcDbLine
 10
12.38579761981396
 20
-29.39999999059097
 30
0.0
 11
18.53394200931689
 21
-29.39999998451279
 31
0.0
  0
LINE
  5
8030
330
A
100
AcDbEntity
  8
0
  6
Continuous
 62
     9
370
     0
100
AcDbLine
 10
12.38579761981396
 20
-29.39999999077409
 30
0.0
 11
12.38579761111373
 21
-20.59999999077408
 31
0.0
  0
LINE
  5
8031
330
A
100
AcDbEntity
  8
0
  6
Continuous
 62
     7
370
     0
100
AcDbLine
 10
18.83054781117698
 20
-30.39999998421959
 30
0.0
 11
13.29721786062396
 21
-30.39999998968992
 31
0.0
  0
ELLIPSE
  5
8032
330
A
100
AcDbEntity
  8
0
  6
Continuous
 62
     9
370
     0
100
AcDbEllipse
 10
13.29721785963488
 20
-29.39999998985491
 30
0.0
 11
-0.0000000008899548
 21
1.0
 31
0.0
210
0.0
220
0.0
230
1.0
 40
0.9114202398210146
 41
1.570796326902948
 42
3.141592653697705
  0
LINE
  5
8033
330
A
100
AcDbEntity
  8
0
  6
Continuous
 62
     9
370
     0
100
AcDbLine
 10
31.50000000932391
 20
-20.5999999716943
 30
0.0
 11
24.4820581840329
 21
-20.59999997863252
 31
0.0
  0
LINE
  5
8034
330
A
100
AcDbEntity
  8
0
  6
Continuous
 62
     7
370
     0
100
AcDbLine
 10
24.18385236557401
 20
-19.5999999789272
 30
0.0
 11
30.5000000083362
 21
-19.59999997268292
 31
0.0
  0
LINE
  5
8035
330
A
100
AcDbEntity
  8
0
  6
Continuous
 62
     7
370
     0
100
AcDbLine
 10
30.50000001901299
 20
-30.39999997268299
 30
0.0
 11
24.1838523762508
 21
-30.39999997892721
 31
0.0
  0
LINE
  5
8036
330
A
100
AcDbEntity
  8
0
  6
Continuous
 62
     9
370
     0
100
AcDbLine
 10
24.48205819273312
 20
-29.39999997863239
 30
0.0
 11
31.50000001802391
 21
-29.39999997169432
 31
0.0
  0
LINE
  5
8037
330
A
100
AcDbEntity
  8
0
  6
Continuous
 62
     7
370
     0
100
AcDbLine
 10
23.80530796188395
 20
-19.59999997988006
 30
0.0
 11
19.20903636560911
 21
-19.59999998442398
 31
0.0
  0
LINE
  5
8038
330
A
100
AcDbEntity
  8
0
  6
Continuous
 62
     9
370
     0
100
AcDbLine
 10
19.66940769594498
 20
-20.5999999839689
 30
0.0
 11
23.346424972965
 21
-20.59999998033379
 31
0.0
  0
LINE
  5
8039
330
A
100
AcDbEntity
  8
0
  6
Continuous
 62
     7
370
     0
100
AcDbLine
 10
19.20903637628589
 20
-30.399999984424
 30
0.0
 11
23.80530797256188
 21
-30.39999997988008
 31
0.0
  0
LINE
  5
803A
330
A
100
AcDbEntity
  8
0
  6
Continuous
 62
     9
370
     0
100
AcDbLine
 10
23.346424981665
 20
-29.39999998033369
 30
0.0
 11
19.66940770464498
 21
-29.39999998396891
 31
0.0
  0
LINE
  5
803B
330
A
100
AcDbEntity
  8
0
  6
Continuous
 62
     7
370
     0
100
AcDbLine
 10
13.25292796985718
 20
-19.59999998988942
 30
0.0
 11
13.29721784994581
 21
-19.5999999898456
 31
0.0
  0
LINE
  5
803C
330
A
100
AcDbEntity
  8
0
  6
Continuous
 62
     9
370
     0
100
AcDbLine
 10
12.38579761111373
 20
-20.59999999074671
 30
0.0
 11
12.25292797084489
 21
-20.59999999087799
 31
0.0
  0
LINE
  5
803D
330
A
100
AcDbEntity
  8
0
  6
Continuous
 62
     9
370
     0
100
AcDbLine
 10
12.25292797954489
 20
-29.399999990878
 30
0.0
 11
12.38579761981396
 21
-29.39999999074658
 31
0.0
  0
LINE
  5
803E
330
A
100
AcDbEntity
  8
0
  6
Continuous
 62
     7
370
     0
100
AcDbLine
 10
13.29721786062305
 20
-30.39999998984558
 30
0.0
 11
13.25292798053397
 21
-30.39999998988941
 31
0.0
  0
LINE
  5
803F
330
A
100
AcDbEntity
  8
0
  6
Continuous
 62
     7
370
     0
100
AcDbLine
 10
13.52195611027787
 20
-19.59999998946821
 30
0.0
 11
13.36097991846691
 21
-19.59999998962732
 31
0.0
  0
LINE
  5
8040
330
A
100
AcDbEntity
  8
0
  6
Continuous
 62
     7
370
     0
100
AcDbLine
 10
14.50000422102903
 20
-19.59999998850139
 30
0.0
 11
14.05166963547913
 21
-19.59999998894449
 31
0.0
  0
LINE
  5
8041
330
A
100
AcDbEntity
  8
0
  6
Continuous
 62
     7
370
     0
100
AcDbLine
 10
13.24707748821106
 20
-19.5999999895844
 30
0.0
 11
13.36097991846691
 21
-19.59999998947182
 31
0.0
  0
LINE
  5
8042
330
A
100
AcDbEntity
  8
0
  6
Continuous
 62
     7
370
     0
100
AcDbLine
 10
13.36097992914392
 20
-30.3999999894719
 30
0.0
 11
13.24707749888694
 21
-30.39999998958439
 31
0.0
  0
ARC
  5
8043
330
A
100
AcDbEntity
  8
0
  6
Continuous
 62
     7
370
     0
100
AcDbCircle
 10
56.43467952550691
 20
-40.57499997201449
 30
0.0
 40
1.999999999999875
100
AcDbArc
 50
270.000000026954
 51
314.5613120705369
  0
LINE
  5
8044
330
A
100
AcDbEntity
  8
0
  6
Continuous
 62
     7
370
     0
100
AcDbLine
 10
58.49999995311396
 20
-41.99999997104259
 30
0.0
 11
57.83802374624588
 21
-41.99999997135409
 31
0.0
  0
LINE
  5
8045
330
A
100
AcDbEntity
  8
0
  6
Continuous
 62
     7
370
     0
100
AcDbLine
 10
57.83802373024991
 20
-7.999999971360495
 30
0.0
 11
58.49999993711776
 21
-7.999999971049021
 31
0.0
  0
ARC
  5
8046
330
A
100
AcDbEntity
  8
0
  6
Continuous
 62
     7
370
     0
100
AcDbCircle
 10
56.43467951085199
 20
-9.424999972020401
 30
0.0
 40
2.0
100
AcDbArc
 50
45.4386879833806
 51
90.00000002695399
  0
ARC
  5
8047
330
A
100
AcDbEntity
  8
0
  6
Continuous
 62
     7
370
     0
100
AcDbCircle
 10
56.43467951085108
 20
-9.424999972117092
 30
0.0
 40
2.000000000000034
100
AcDbArc
 50
19.7246338848215
 51
45.43868798337832
  0
ARC
  5
8048
330
A
100
AcDbEntity
  8
0
  6
Continuous
 62
     7
370
     0
100
AcDbCircle
 10
56.434679525506
 20
-40.57499997211118
 30
0.0
 40
2.000000000000035
100
AcDbArc
 50
314.5613120705381
 51
340.2753667672207
  0
LINE
  5
8049
330
A
100
AcDbEntity
  8
0
  6
Continuous
 62
     7
370
     0
100
AcDbLine
 10
37.49999995338703
 20
-42.57499998065251
 30
0.0
 11
41.57971351642072
 21
-42.57499997873319
 31
0.0
  0
LINE
  5
804A
330
A
100
AcDbEntity
  8
0
  6
Continuous
 62
     7
370
     0
100
AcDbLine
 10
41.57971352697109
 20
-64.99999997838282
 30
0.0
 11
41.57971351642072
 21
-42.5749999783828
 31
0.0
  0
LINE
  5
804B
330
A
100
AcDbEntity
  8
0
  6
Continuous
 62
     7
370
     0
100
AcDbLine
 10
37.49999996393694
 20
-64.99999998065248
 30
0.0
 11
41.57971352697109
 21
-64.99999997873309
 31
0.0
  0
LINE
  5
804C
330
A
100
AcDbEntity
  8
0
  6
Continuous
 62
     7
370
     0
100
AcDbLine
 10
37.49999996393694
 20
-64.99999998043509
 30
0.0
 11
37.49999995338703
 21
-42.57499998043511
 31
0.0
  0
ARC
  5
804D
330
A
100
AcDbEntity
  8
0
  6
Continuous
 62
     7
370
     0
100
AcDbCircle
 10
82.49999996158591
 20
-59.99999995913109
 30
0.0
 40
5.000000000000004
100
AcDbArc
 50
270.000000026954
 51
0.0000000269556335
  0
LINE
  5
804E
330
A
100
AcDbEntity
  8
0
  6
Continuous
 62
     7
370
     0
100
AcDbLine
 10
58.49999995338794
 20
-42.57499997042231
 30
0.0
 11
41.57971351642072
 21
-42.5749999783828
 31
0.0
  0
LINE
  5
804F
330
A
100
AcDbEntity
  8
0
  6
Continuous
 62
     7
370
     0
100
AcDbLine
 10
58.49999993685083
 20
-7.424999970422305
 30
0.0
 11
58.49999995338794
 21
-42.57499997042231
 31
0.0
  0
LINE
  5
8050
330
A
100
AcDbEntity
  8
0
  6
Continuous
 62
     7
370
     0
100
AcDbLine
 10
41.57971349988383
 20
-7.4249999783828
 30
0.0
 11
58.49999993685083
 21
-7.424999970422305
 31
0.0
  0
LINE
  5
8051
330
A
100
AcDbEntity
  8
0
  6
Continuous
 62
     7
370
     0
100
AcDbLine
 10
41.57971349988383
 20
-7.4249999783828
 30
0.0
 11
41.57971348933187
 21
15.00000002161718
 31
0.0
  0
LINE
  5
8052
330
A
100
AcDbEntity
  8
0
  6
Continuous
 62
     7
370
     0
100
AcDbLine
 10
82.49999992630092
 20
15.00000004086891
 30
0.0
 11
41.57971348933187
 21
15.00000002161718
 31
0.0
  0
ARC
  5
8053
330
A
100
AcDbEntity
  8
0
  6
Continuous
 62
     7
370
     0
100
AcDbCircle
 10
82.49999992865197
 20
10.00000004086902
 30
0.0
 40
5.000000000000115
100
AcDbArc
 50
0.0000000269556335
 51
90.00000002695399
  0
LINE
  5
8054
330
A
100
AcDbEntity
  8
0
  6
Continuous
 62
     7
370
     0
100
AcDbLine
 10
87.49999992865287
 20
10.00000004322132
 30
0.0
 11
87.49999996158591
 21
-59.99999995677879
 31
0.0
  0
LINE
  5
8055
330
A
100
AcDbEntity
  8
0
  6
Continuous
 62
     7
370
     0
100
AcDbLine
 10
41.57971352697109
 20
-64.99999997838282
 30
0.0
 11
82.49999996393786
 21
-64.99999995913109
 31
0.0
  0
LINE
  5
8056
330
A
100
AcDbEntity
  8
0
  6
Continuous
 62
     7
370
     0
100
AcDbLine
 10
37.49999993684992
 20
-7.424999980434989
 30
0.0
 11
37.4999999262991
 21
15.00000001956493
 31
0.0
  0
LINE
  5
8057
330
A
100
AcDbEntity
  8
0
  6
Continuous
 62
     7
370
     0
100
AcDbLine
 10
41.57971348933187
 20
15.00000002126688
 30
0.0
 11
37.4999999262991
 21
15.00000001934748
 31
0.0
  0
LINE
  5
8058
330
A
100
AcDbEntity
  8
0
  6
Continuous
 62
     7
370
     0
100
AcDbLine
 10
41.57971349988383
 20
-7.424999978733097
 30
0.0
 11
37.49999993684992
 21
-7.424999980652501
 31
0.0
  0
LINE
  5
8059
330
A
100
AcDbEntity
  8
0
  6
Continuous
 62
     9
370
     0
100
AcDbLine
 10
42.75000306227684
 20
-41.47014804875218
 30
0.0
 11
54.25000306227684
 21
-41.47014804244918
 31
0.0
  0
LINE
  5
805A
330
A
100
AcDbEntity
  8
0
  6
Continuous
 62
     9
370
     0
100
AcDbLine
 10
53.58892160484174
 20
-42.25799424522131
 30
0.0
 11
43.41108452057483
 21
-42.25799425079958
 31
0.0
  0
LINE
  5
805B
330
A
100
AcDbEntity
  8
0
  6
Continuous
 62
     7
370
     0
100
AcDbLine
 10
44.5000030628139
 20
-42.44999996897471
 30
0.0
 11
44.80600575987387
 21
-42.44999996880699
 31
0.0
  0
LINE
  5
805C
330
A
100
AcDbEntity
  8
0
  6
Continuous
 62
     7
370
     0
100
AcDbLine
 10
44.80600575987387
 20
-42.44999996880699
 30
0.0
 11
52.5000030628139
 21
-42.44999996459
 31
0.0
  0
LINE
  5
805D
330
A
100
AcDbEntity
  8
0
  6
Continuous
 62
     9
370
     0
100
AcDbLine
 10
54.24999993399888
 20
-8.529851884811989
 30
0.0
 11
42.7499999340082
 21
-8.529851891115015
 31
0.0
  0
LINE
  5
805E
330
A
100
AcDbEntity
  8
0
  6
Continuous
 62
     9
370
     0
100
AcDbLine
 10
43.41108139144307
 20
-7.742005688343084
 30
0.0
 11
53.5889184757018
 21
-7.742005682764812
 31
0.0
  0
LINE
  5
805F
330
A
100
AcDbEntity
  8
0
  6
Continuous
 62
     7
370
     0
100
AcDbLine
 10
52.49999993346387
 20
-7.549999964589886
 30
0.0
 11
44.50000182159373
 21
-7.549999968974503
 31
0.0
  0
LINE
  5
8060
330
A
100
AcDbEntity
  8
0
  6
Continuous
 62
     9
370
     0
100
AcDbLine
 10
58.45488688797377
 20
-41.24999996132618
 30
0.0
 11
58.45488687016109
 21
-8.749999961326182
 31
0.0
  0
LINE
  5
8061
330
A
100
AcDbEntity
  8
0
  6
Continuous
 62
     9
370
     0
100
AcDbLine
 10
49.49999995401481
 20
-41.24999996623418
 30
0.0
 11
49.4999999362019
 21
-8.749999966234184
 31
0.0
  0
LINE
  5
8062
330
A
100
AcDbEntity
  8
0
  6
Continuous
 62
     7
370
     0
100
AcDbLine
 10
58.45488687016109
 20
-8.749999961326182
 30
0.0
 11
49.4999999362019
 21
-8.749999966234184
 31
0.0
  0
LINE
  5
8063
330
A
100
AcDbEntity
  8
0
  6
Continuous
 62
     7
370
     0
100
AcDbLine
 10
58.45488688797377
 20
-41.24999996132618
 30
0.0
 11
49.49999995401481
 21
-41.24999996623418
 31
0.0
  0
LINE
  5
8064
330
A
100
AcDbEntity
  8
0
  6
Continuous
 62
     7
370
     0
100
AcDbLine
 10
32.10181812993983
 20
-30.4999999757699
 30
0.0
 11
32.10181812391102
 21
-19.49999997576981
 31
0.0
  0
LINE
  5
8065
330
A
100
AcDbEntity
  8
0
  6
Continuous
 62
     7
370
     0
100
AcDbLine
 10
32.10181812391102
 20
-19.49999997576981
 30
0.0
 11
24.66227760226184
 21
-19.4999999798473
 31
0.0
  0
LINE
  5
8066
330
A
100
AcDbEntity
  8
0
  6
Continuous
 62
     9
370
     0
100
AcDbLine
 10
24.66227760226184
 20
-19.4999999798473
 30
0.0
 11
24.66227759636991
 21
-8.749999979847302
 31
0.0
  0
LINE
  5
8067
330
A
100
AcDbEntity
  8
0
  6
Continuous
 62
     9
370
     0
100
AcDbLine
 10
24.66227761418304
 20
-41.2499999798473
 30
0.0
 11
24.66227760829088
 21
-30.49999997984742
 31
0.0
  0
LINE
  5
8068
330
A
100
AcDbEntity
  8
0
  6
Continuous
 62
     7
370
     0
100
AcDbLine
 10
24.66227760829088
 20
-30.49999997984742
 30
0.0
 11
32.10181812993983
 21
-30.4999999757699
 31
0.0
  0
LINE
  5
8069
330
A
100
AcDbEntity
  8
0
  6
Continuous
 62
     7
370
     0
100
AcDbLine
 10
49.4999999362019
 20
-8.749999966234184
 30
0.0
 11
24.66227759636991
 21
-8.749999979847302
 31
0.0
  0
LINE
  5
806A
330
A
100
AcDbEntity
  8
0
  6
Continuous
 62
     7
370
     0
100
AcDbLine
 10
49.49999995401481
 20
-41.24999996623418
 30
0.0
 11
24.66227761418304
 21
-41.2499999798473
 31
0.0
  0
LINE
  5
806B
330
A
100
AcDbEntity
  8
0
  6
Continuous
 62
     9
370
     0
100
AcDbLine
 10
23.79983825231898
 20
-41.24999998032009
 30
0.0
 11
23.79983824642682
 21
-30.4999999803201
 31
0.0
  0
LINE
  5
806C
330
A
100
AcDbEntity
  8
0
  6
Continuous
 62
     7
370
     0
100
AcDbLine
 10
23.79983824642682
 20
-30.4999999803201
 30
0.0
 11
24.66227760829088
 21
-30.49999997984742
 31
0.0
  0
LINE
  5
806D
330
A
100
AcDbEntity
  8
0
  6
Continuous
 62
     7
370
     0
100
AcDbLine
 10
24.66227761418304
 20
-41.2499999798473
 30
0.0
 11
23.79983825231898
 21
-41.24999998032009
 31
0.0
  0
LINE
  5
806E
330
A
100
AcDbEntity
  8
0
  6
Continuous
 62
     9
370
     0
100
AcDbLine
 10
23.79983824039777
 20
-19.49999998031998
 30
0.0
 11
23.79983823450584
 21
-8.749999980319984
 31
0.0
  0
LINE
  5
806F
330
A
100
AcDbEntity
  8
0
  6
Continuous
 62
     7
370
     0
100
AcDbLine
 10
24.66227760226184
 20
-19.4999999798473
 30
0.0
 11
23.79983824039777
 21
-19.49999998031998
 31
0.0
  0
LINE
  5
8070
330
A
100
AcDbEntity
  8
0
  6
Continuous
 62
     7
370
     0
100
AcDbLine
 10
24.66227759636991
 20
-8.749999979847302
 30
0.0
 11
23.79983823450584
 21
-8.749999980319984
 31
0.0
  0
LINE
  5
8071
330
A
100
AcDbEntity
  8
0
  6
Continuous
 62
     9
370
     0
100
AcDbLine
 10
19.45093186757503
 20
-41.2499999827036
 30
0.0
 11
19.45093186168287
 21
-30.49999998270369
 31
0.0
  0
LINE
  5
8072
330
A
100
AcDbEntity
  8
0
  6
Continuous
 62
     9
370
     0
100
AcDbLine
 10
18.31903761138915
 20
-41.24999998332401
 30
0.0
 11
18.31903760549699
 21
-30.49999998332399
 31
0.0
  0
LINE
  5
8073
330
A
100
AcDbEntity
  8
0
  6
Continuous
 62
     7
370
     0
100
AcDbLine
 10
18.31903760549699
 20
-30.49999998332399
 30
0.0
 11
19.45093186168287
 21
-30.49999998270369
 31
0.0
  0
LINE
  5
8074
330
A
100
AcDbEntity
  8
0
  6
Continuous
 62
     7
370
     0
100
AcDbLine
 10
19.45093186757503
 20
-41.2499999827036
 30
0.0
 11
18.31903761138915
 21
-41.24999998332401
 31
0.0
  0
LINE
  5
8075
330
A
100
AcDbEntity
  8
0
  6
Continuous
 62
     9
370
     0
100
AcDbLine
 10
18.31903759946795
 20
-19.4999999833239
 30
0.0
 11
18.31903759357601
 21
-8.749999983323988
 31
0.0
  0
LINE
  5
8076
330
A
100
AcDbEntity
  8
0
  6
Continuous
 62
     9
370
     0
100
AcDbLine
 10
19.45093185565383
 20
-19.4999999827036
 30
0.0
 11
19.4509318497619
 21
-8.749999982703599
 31
0.0
  0
LINE
  5
8077
330
A
100
AcDbEntity
  8
0
  6
Continuous
 62
     7
370
     0
100
AcDbLine
 10
19.45093185565383
 20
-19.4999999827036
 30
0.0
 11
18.31903759946795
 21
-19.4999999833239
 31
0.0
  0
LINE
  5
8078
330
A
100
AcDbEntity
  8
0
  6
Continuous
 62
     7
370
     0
100
AcDbLine
 10
19.4509318497619
 20
-8.749999982703599
 30
0.0
 11
18.31903759357601
 21
-8.749999983323988
 31
0.0
  0
LINE
  5
8079
330
A
100
AcDbEntity
  8
0
  6
Continuous
 62
     9
370
     0
100
AcDbLine
 10
12.48181813583301
 20
-41.2499999865233
 30
0.0
 11
12.48181812994107
 21
-30.49999998652331
 31
0.0
  0
LINE
  5
807A
330
A
100
AcDbEntity
  8
0
  6
Continuous
 62
     7
370
     0
100
AcDbLine
 10
12.48181812994107
 20
-30.49999998652331
 30
0.0
 11
18.31903760549699
 21
-30.49999998332399
 31
0.0
  0
LINE
  5
807B
330
A
100
AcDbEntity
  8
0
  6
Continuous
 62
     7
370
     0
100
AcDbLine
 10
18.31903761138915
 20
-41.24999998332401
 30
0.0
 11
12.48181813583301
 21
-41.2499999865233
 31
0.0
  0
LINE
  5
807C
330
A
100
AcDbEntity
  8
0
  6
Continuous
 62
     9
370
     0
100
AcDbLine
 10
12.48181812391203
 20
-19.49999998652319
 30
0.0
 11
12.48181811801987
 21
-8.749999986523306
 31
0.0
  0
LINE
  5
807D
330
A
100
AcDbEntity
  8
0
  6
Continuous
 62
     7
370
     0
100
AcDbLine
 10
18.31903759946795
 20
-19.4999999833239
 30
0.0
 11
12.48181812391203
 21
-19.49999998652319
 31
0.0
  0
LINE
  5
807E
330
A
100
AcDbEntity
  8
0
  6
Continuous
 62
     7
370
     0
100
AcDbLine
 10
18.31903759357601
 20
-8.749999983323988
 30
0.0
 11
12.48181811801987
 21
-8.749999986523306
 31
0.0
  0
LINE
  5
807F
330
A
100
AcDbEntity
  8
0
  6
Continuous
 62
     7
370
     0
100
AcDbLine
 10
23.79983824642682
 20
-30.4999999803201
 30
0.0
 11
19.45093186168287
 21
-30.49999998270369
 31
0.0
  0
LINE
  5
8080
330
A
100
AcDbEntity
  8
0
  6
Continuous
 62
     7
370
     0
100
AcDbLine
 10
19.45093186757503
 20
-41.2499999827036
 30
0.0
 11
23.79983825231898
 21
-41.24999998032001
 31
0.0
  0
LINE
  5
8081
330
A
100
AcDbEntity
  8
0
  6
Continuous
 62
     7
370
     0
100
AcDbLine
 10
19.45093185565383
 20
-19.4999999827036
 30
0.0
 11
23.79983824039777
 21
-19.49999998031998
 31
0.0
  0
LINE
  5
8082
330
A
100
AcDbEntity
  8
0
  6
Continuous
 62
     7
370
     0
100
AcDbLine
 10
19.4509318497619
 20
-8.749999982703599
 30
0.0
 11
23.79983823450584
 21
-8.749999980319984
 31
0.0
  0
LINE
  5
8083
330
A
100
AcDbEntity
  8
0
  6
Continuous
 62
     7
370
     0
100
AcDbLine
 10
12.31818176630486
 20
-30.49999998661301
 30
0.0
 11
12.48181812994107
 21
-30.49999998652331
 31
0.0
  0
LINE
  5
8084
330
A
100
AcDbEntity
  8
0
  6
Continuous
 62
     7
370
     0
100
AcDbLine
 10
12.48181813583301
 20
-41.2499999865233
 30
0.0
 11
12.31818177219588
 21
-41.24999998661301
 31
0.0
  0
LINE
  5
8085
330
A
100
AcDbEntity
  8
0
  6
Continuous
 62
     7
370
     0
100
AcDbLine
 10
12.48181812391203
 20
-19.49999998652319
 30
0.0
 11
12.31818176027491
 21
-19.49999998661289
 31
0.0
  0
LINE
  5
8086
330
A
100
AcDbEntity
  8
0
  6
Continuous
 62
     7
370
     0
100
AcDbLine
 10
12.48181811801987
 20
-8.749999986523306
 30
0.0
 11
12.31818175438411
 21
-8.749999986613005
 31
0.0
  0
LINE
  5
8087
330
A
100
AcDbEntity
  8
0
  6
Continuous
 62
     7
370
     0
100
AcDbLine
 10
58.45488687016109
 20
-8.749999961326182
 30
0.0
 11
58.49999993747406
 21
-8.749999961301398
 31
0.0
  0
LINE
  5
8088
330
A
100
AcDbEntity
  8
0
  6
Continuous
 62
     7
370
     0
100
AcDbLine
 10
58.45488688797377
 20
-41.24999996132618
 30
0.0
 11
58.4999999527638
 21
-41.24999996130151
 31
0.0
  0
LINE
  5
8089
330
A
100
AcDbEntity
  8
0
  6
Continuous
 62
     7
370
     0
100
AcDbLine
 10
11.77572528653104
 20
-19.99999999260382
 30
0.0
 11
12.18925192208599
 21
-19.99999999226639
 31
0.0
  0
LINE
  5
808A
330
A
100
AcDbEntity
  8
0
  6
Continuous
 62
     7
370
     0
100
AcDbLine
 10
11.77855092863296
 20
-29.69999999260148
 30
0.0
 11
12.29898877892287
 21
-29.69999999217691
 31
0.0
  0
LINE
  5
808B
330
A
100
AcDbEntity
  8
0
  6
Continuous
 62
     7
370
     0
100
AcDbLine
 10
12.44707749989402
 20
-29.99999999205611
 30
0.0
 11
12.18925193024415
 21
-29.9999999922664
 31
0.0
  0
LINE
  5
808C
330
A
100
AcDbEntity
  8
0
  6
Continuous
 62
     7
370
     0
100
AcDbLine
 10
12.18925193024415
 20
-29.9999999922664
 30
0.0
 11
11.77572529202507
 21
-29.99999999260382
 31
0.0
  0
LINE
  5
808D
330
A
100
AcDbEntity
  8
0
  6
Continuous
 62
     9
370
     0
100
AcDbLine
 10
11.78500000534995
 20
-9.749999993542104
 30
0.0
 11
11.57414017223686
 21
-9.749999993657695
 31
0.0
  0
LINE
  5
808E
330
A
100
AcDbEntity
  8
0
  6
Continuous
 62
     7
370
     0
100
AcDbLine
 10
11.78500000534995
 20
-9.749999993542104
 30
0.0
 11
11.78500001155385
 21
-21.06956665238619
 31
0.0
  0
LINE
  5
808F
330
A
100
AcDbEntity
  8
0
  6
Continuous
 62
     7
370
     0
100
AcDbLine
 10
11.78500001586303
 20
-28.9304333346692
 30
0.0
 11
11.78500002206692
 21
-40.2499999935294
 31
0.0
  0
LINE
  5
8090
330
A
100
AcDbEntity
  8
0
  6
Continuous
 62
     9
370
     0
100
AcDbLine
 10
11.57414018895406
 20
-40.24999999364498
 30
0.0
 11
11.78500002206692
 21
-40.2499999935294
 31
0.0
  0
LINE
  5
8091
330
A
100
AcDbEntity
  8
0
  6
Continuous
 62
     7
370
     0
100
AcDbLine
 10
11.78500000507597
 20
-9.249999993542104
 30
0.0
 11
11.78500000534995
 21
-9.749999993542104
 31
0.0
  0
LINE
  5
8092
330
A
100
AcDbEntity
  8
0
  6
Continuous
 62
     7
370
     0
100
AcDbLine
 10
11.57299139292604
 20
-9.249999993658491
 30
0.0
 11
11.78500000507597
 21
-9.249999993542303
 31
0.0
  0
LINE
  5
8093
330
A
100
AcDbEntity
  8
0
  6
Continuous
 62
     7
370
     0
100
AcDbLine
 10
11.78500002234091
 20
-40.7499999935292
 30
0.0
 11
11.57299141019007
 21
-40.74999999364542
 31
0.0
  0
LINE
  5
8094
330
A
100
AcDbEntity
  8
0
  6
Continuous
 62
     7
370
     0
100
AcDbLine
 10
11.78500002206692
 20
-40.2499999935294
 30
0.0
 11
11.78500002234091
 21
-40.74999999352939
 31
0.0
  0
LINE
  5
8095
330
A
100
AcDbEntity
  8
0
  6
Continuous
 62
     7
370
     0
100
AcDbLine
 10
11.78500002233909
 20
-40.7499999935292
 30
0.0
 11
11.7850000227429
 21
-41.48629532295649
 31
0.0
  0
LINE
  5
8096
330
A
100
AcDbEntity
  8
0
  6
Continuous
 62
     7
370
     0
100
AcDbLine
 10
11.78500000467102
 20
-8.513704664123991
 30
0.0
 11
11.78500000507506
 21
-9.249999993542303
 31
0.0
  0
LINE
  5
8097
330
A
100
AcDbEntity
  8
0
  6
Continuous
 62
     7
370
     0
100
AcDbLine
 10
28.92028642874993
 20
15.0000000158507
 30
0.0
 11
28.92028644103993
 21
-7.42499998414928
 31
0.0
  0
LINE
  5
8098
330
A
100
AcDbEntity
  8
0
  6
Continuous
 62
     7
370
     0
100
AcDbLine
 10
13.56532043101492
 20
-7.424999992565091
 30
0.0
 11
28.92028644103993
 21
-7.42499998414928
 31
0.0
  0
ARC
  5
8099
330
A
100
AcDbEntity
  8
0
  6
Continuous
 62
     7
370
     0
100
AcDbCircle
 10
13.565320432112
 20
-9.424999992565091
 30
0.0
 40
1.999999999999991
100
AcDbArc
 50
90.00000003139639
 51
181.7265016849264
  0
ARC
  5
809A
330
A
100
AcDbEntity
  8
0
  6
Continuous
 62
     7
370
     0
100
AcDbCircle
 10
-503.1510416528981
 20
-25.00000027576891
 30
0.0
 40
514.951041666664
100
AcDbArc
 50
358.2734983778806
 51
1.726501684926361
  0
ARC
  5
809B
330
A
100
AcDbEntity
  8
0
  6
Continuous
 62
     7
370
     0
100
AcDbCircle
 10
13.5653204491839
 20
-40.57499999256509
 30
0.0
 40
2.0
100
AcDbArc
 50
178.2734983778822
 51
270.0000000314094
  0
LINE
  5
809C
330
A
100
AcDbEntity
  8
0
  6
Continuous
 62
     7
370
     0
100
AcDbLine
 10
28.92028646030599
 20
-42.57499998414931
 30
0.0
 11
13.56532045028098
 21
-42.57499999256509
 31
0.0
  0
LINE
  5
809D
330
A
100
AcDbEntity
  8
0
  6
Continuous
 62
     7
370
     0
100
AcDbLine
 10
28.92028646030599
 20
-42.57499998414931
 30
0.0
 11
28.92028647259599
 21
-64.99999998414941
 31
0.0
  0
LINE
  5
809E
330
A
100
AcDbEntity
  8
0
  6
Continuous
 62
     7
370
     0
100
AcDbLine
 10
-12.49999996436599
 20
-65.00000000685108
 30
0.0
 11
28.92028647259599
 21
-64.99999998414941
 31
0.0
  0
ARC
  5
809F
330
A
100
AcDbEntity
  8
0
  6
Continuous
 62
     7
370
     0
100
AcDbCircle
 10
-12.49999996710608
 20
-60.00000000685108
 30
0.0
 40
4.999999999999893
100
AcDbArc
 50
180.0000000314029
 51
270.0000000313964
  0
LINE
  5
80A0
330
A
100
AcDbEntity
  8
0
  6
Continuous
 62
     7
370
     0
100
AcDbLine
 10
-17.49999996710608
 20
-60.0000000095915
 30
0.0
 11
-17.5000000054722
 21
9.999999990408497
 31
0.0
  0
ARC
  5
80A1
330
A
100
AcDbEntity
  8
0
  6
Continuous
 62
     7
370
     0
100
AcDbCircle
 10
-12.5000000054722
 20
9.999999993148918
 30
0.0
 40
5.000000000000004
100
AcDbArc
 50
90.00000003140945
 51
180.0000000314029
  0
LINE
  5
80A2
330
A
100
AcDbEntity
  8
0
  6
Continuous
 62
     7
370
     0
100
AcDbLine
 10
28.92028642874993
 20
15.0000000158507
 30
0.0
 11
-12.50000000821296
 21
14.99999999314892
 31
0.0
  0
LINE
  5
80A3
330
A
100
AcDbEntity
  8
0
  6
Continuous
 62
     7
370
     0
100
AcDbLine
 10
32.50000000407181
 20
-7.42499998218733
 30
0.0
 11
32.49999999178181
 21
15.00000001781268
 31
0.0
  0
LINE
  5
80A4
330
A
100
AcDbEntity
  8
0
  6
Continuous
 62
     7
370
     0
100
AcDbLine
 10
32.50000000407317
 20
-7.42499998218733
 30
0.0
 11
28.92028644104085
 21
-7.42499998414928
 31
0.0
  0
LINE
  5
80A5
330
A
100
AcDbEntity
  8
0
  6
Continuous
 62
     7
370
     0
100
AcDbLine
 10
32.49999999178181
 20
15.00000001781268
 30
0.0
 11
28.92028642874993
 21
15.0000000158507
 31
0.0
  0
LINE
  5
80A6
330
A
100
AcDbEntity
  8
0
  6
Continuous
 62
     7
370
     0
100
AcDbLine
 10
32.50000003562786
 20
-64.9999999821874
 30
0.0
 11
32.50000002333695
 21
-42.5749999821873
 31
0.0
  0
LINE
  5
80A7
330
A
100
AcDbEntity
  8
0
  6
Continuous
 62
     7
370
     0
100
AcDbLine
 10
28.92028646030599
 20
-42.57499998414931
 30
0.0
 11
32.50000002333786
 21
-42.5749999821873
 31
0.0
  0
LINE
  5
80A8
330
A
100
AcDbEntity
  8
0
  6
Continuous
 62
     7
370
     0
100
AcDbLine
 10
28.9202864725969
 20
-64.99999998414941
 30
0.0
 11
32.50000003562877
 21
-64.9999999821874
 31
0.0
  0
LINE
  5
80A9
330
A
100
AcDbEntity
  8
0
  6
Continuous
 62
     9
370
     0
100
AcDbLine
 10
15.750000022731
 20
-41.4701480635504
 30
0.0
 11
27.25000002273009
 21
-41.47014805724748
 31
0.0
  0
LINE
  5
80AA
330
A
100
AcDbEntity
  8
0
  6
Continuous
 62
     9
370
     0
100
AcDbLine
 10
26.5889185652959
 20
-42.2579942600195
 30
0.0
 11
16.41108148102899
 21
-42.2579942655978
 31
0.0
  0
LINE
  5
80AB
330
A
100
AcDbEntity
  8
0
  6
Continuous
 62
     7
370
     0
100
AcDbLine
 10
17.50000002326806
 20
-42.4499999837729
 30
0.0
 11
21.84102334133377
 21
-42.44999998139369
 31
0.0
  0
LINE
  5
80AC
330
A
100
AcDbEntity
  8
0
  6
Continuous
 62
     7
370
     0
100
AcDbLine
 10
21.84102334133377
 20
-42.44999998139369
 30
0.0
 11
25.50000002326806
 21
-42.44999997938831
 31
0.0
  0
LINE
  5
80AD
330
A
100
AcDbEntity
  8
0
  6
Continuous
 62
     9
370
     0
100
AcDbLine
 10
27.24999942125078
 20
-8.529851899610406
 30
0.0
 11
15.74999942125077
 21
-8.529851905913318
 31
0.0
  0
LINE
  5
80AE
330
A
100
AcDbEntity
  8
0
  6
Continuous
 62
     9
370
     0
100
AcDbLine
 10
16.41108087868497
 20
-7.742005703141188
 30
0.0
 11
26.58891796295279
 21
-7.742005697563001
 31
0.0
  0
LINE
  5
80AF
330
A
100
AcDbEntity
  8
0
  6
Continuous
 62
     7
370
     0
100
AcDbLine
 10
25.49999942071395
 20
-7.549999979387905
 30
0.0
 11
25.49391417704601
 21
-7.549999979391174
 31
0.0
  0
LINE
  5
80B0
330
A
100
AcDbEntity
  8
0
  6
Continuous
 62
     7
370
     0
100
AcDbLine
 10
25.49391417704601
 20
-7.549999979391174
 30
0.0
 11
17.49999942071395
 21
-7.549999983772579
 31
0.0
  0
LINE
  5
80B1
330
A
100
AcDbEntity
  8
0
  6
Continuous
 62
     7
370
     0
100
AcDbLine
 10
25.99999993611982
 20
-8.599999975990499
 30
0.0
 11
25.9999999362019
 21
-8.74999997911388
 31
0.0
  0
LINE
  5
80B2
330
A
100
AcDbEntity
  8
0
  6
Continuous
 62
     7
370
     0
100
AcDbLine
 10
25.99999994210203
 20
-19.49999997911408
 30
0.0
 11
25.99999994215682
 21
-19.5999999759905
 31
0.0
  0
LINE
  5
80B3
330
A
100
AcDbEntity
  8
0
  6
Continuous
 62
     7
370
     0
100
AcDbLine
 10
31.99999994215773
 20
-19.5999999726973
 30
0.0
 11
31.99999994210202
 21
-19.49999997582569
 31
0.0
  0
LINE
  5
80B4
330
A
100
AcDbEntity
  8
0
  6
Continuous
 62
     7
370
     0
100
AcDbLine
 10
31.99999993620191
 20
-8.749999975825573
 30
0.0
 11
31.99999993611982
 21
-8.599999972697304
 31
0.0
  0
ARC
  5
80B5
330
A
100
AcDbEntity
  8
0
  6
Continuous
 62
     7
370
     0
100
AcDbCircle
 10
30.50000000932391
 20
-20.59999997268292
 30
0.0
 40
1.000000000000111
100
AcDbArc
 50
0.000000056643796
 51
90.00000005665681
  0
ARC
  5
80B6
330
A
100
AcDbEntity
  8
0
  6
Continuous
 62
     7
370
     0
100
AcDbCircle
 10
30.50000001802482
 20
-29.39999997268299
 30
0.0
 40
1.0
100
AcDbArc
 50
270.0000000566438
 51
0.0000000566454244
  0
LINE
  5
80B7
330
A
100
AcDbEntity
  8
0
  6
Continuous
 62
     7
370
     0
100
AcDbLine
 10
31.50000001802391
 20
-29.39999997169432
 30
0.0
 11
31.50000000932482
 21
-20.5999999716943
 31
0.0
  0
ARC
  5
80B8
330
A
100
AcDbEntity
  8
0
  6
Continuous
 62
     7
370
     0
100
AcDbCircle
 10
13.25292797084489
 20
-20.59999998988943
 30
0.0
 40
1.0
100
AcDbArc
 50
90.0000000566438
 51
180.0000000566389
  0
LINE
  5
80B9
330
A
100
AcDbEntity
  8
0
  6
Continuous
 62
     7
370
     0
100
AcDbLine
 10
12.25292797084489
 20
-20.59999999087799
 30
0.0
 11
12.25292797954489
 21
-29.399999990878
 31
0.0
  0
ARC
  5
80BA
330
A
100
AcDbEntity
  8
0
  6
Continuous
 62
     7
370
     0
100
AcDbCircle
 10
13.25292797954489
 20
-29.39999998988941
 30
0.0
 40
0.9999999999998896
100
AcDbArc
 50
180.0000000566421
 51
270.0000000566438
  0
ARC
  5
80BB
330
A
100
AcDbEntity
  8
0
  6
Continuous
 62
     7
370
     0
100
AcDbCircle
 10
13.24707748919877
 20
-20.5999999895844
 30
0.0
 40
1.0
100
AcDbArc
 50
90.0000000566438
 51
180.0000000566389
  0
ARC
  5
80BC
330
A
100
AcDbEntity
  8
0
  6
Continuous
 62
     7
370
     0
100
AcDbCircle
 10
13.247077497899
 20
-29.39999998958439
 30
0.0
 40
1.000000000000123
100
AcDbArc
 50
216.8700162816786
 51
270.0000000566438
  0
LINE
  5
80BD
330
A
100
AcDbEntity
  8
0
  6
Continuous
 62
     7
370
     0
100
AcDbLine
 10
45.9999999368938
 20
-7.424999976689804
 30
0.0
 11
45.99999993695314
 21
-7.549999968152405
 31
0.0
  0
LINE
  5
80BE
330
A
100
AcDbEntity
  8
0
  6
Continuous
 62
     7
370
     0
100
AcDbLine
 10
45.99999995327993
 20
-42.44999996815249
 30
0.0
 11
45.99999995333791
 21
-42.57499997668981
 31
0.0
  0
LINE
  5
80BF
330
A
100
AcDbEntity
  8
0
  6
Continuous
 62
     7
370
     0
100
AcDbLine
 10
50.99999995333792
 20
-42.5749999743374
 30
0.0
 11
50.99999995327994
 21
-42.4499999654121
 31
0.0
  0
LINE
  5
80C0
330
A
100
AcDbEntity
  8
0
  6
Continuous
 62
     7
370
     0
100
AcDbLine
 10
50.99999993695314
 20
-7.549999965411984
 30
0.0
 11
50.9999999368938
 21
-7.424999974337396
 31
0.0
  0
LINE
  5
80C1
330
A
100
AcDbEntity
  8
0
  6
Continuous
 62
     7
370
     0
100
AcDbLine
 10
42.75000306215588
 20
-41.24999996993381
 30
0.0
 11
42.75000306227684
 21
-41.47014804875218
 31
0.0
  0
LINE
  5
80C2
330
A
100
AcDbEntity
  8
0
  6
Continuous
 62
     7
370
     0
100
AcDbLine
 10
54.25000306227684
 20
-41.47014804244918
 30
0.0
 11
54.25000306215588
 21
-41.24999996363081
 31
0.0
  0
ARC
  5
80C3
330
A
100
AcDbEntity
  8
0
  6
Continuous
 62
     7
370
     0
100
AcDbCircle
 10
53.45000306227689
 20
-41.47014804288767
 30
0.0
 40
0.7999999999999971
100
AcDbArc
 50
280.0000000313965
 51
0.0000000314012856
  0
ARC
  5
80C4
330
A
100
AcDbEntity
  8
0
  6
Continuous
 62
     7
370
     0
100
AcDbCircle
 10
43.5500030622768
 20
-41.47014804831369
 30
0.0
 40
0.7999999999999119
100
AcDbArc
 50
180.0000000314012
 51
260.0000000313996
  0
LINE
  5
80C5
330
A
100
AcDbEntity
  8
0
  6
Continuous
 62
     7
370
     0
100
AcDbLine
 10
43.41108452057483
 20
-42.25799425079958
 30
0.0
 11
44.5000030628139
 21
-42.44999996897471
 31
0.0
  0
LINE
  5
80C6
330
A
100
AcDbEntity
  8
0
  6
Continuous
 62
     7
370
     0
100
AcDbLine
 10
52.5000030628139
 20
-42.44999996459
 30
0.0
 11
53.58892160484174
 21
-42.25799424522131
 31
0.0
  0
LINE
  5
80C7
330
A
100
AcDbEntity
  8
0
  6
Continuous
 62
     7
370
     0
100
AcDbLine
 10
54.24999993412507
 20
-8.749999963630301
 30
0.0
 11
54.24999993400388
 21
-8.529851884811989
 31
0.0
  0
LINE
  5
80C8
330
A
100
AcDbEntity
  8
0
  6
Continuous
 62
     7
370
     0
100
AcDbLine
 10
42.74999993400387
 20
-8.529851891115015
 30
0.0
 11
42.74999993412507
 21
-8.749999969933185
 31
0.0
  0
ARC
  5
80C9
330
A
100
AcDbEntity
  8
0
  6
Continuous
 62
     7
370
     0
100
AcDbCircle
 10
43.54999993400588
 20
-8.529851890676496
 30
0.0
 40
0.799999999999981
100
AcDbArc
 50
100.0000000314227
 51
180.0000000314062
  0
ARC
  5
80CA
330
A
100
AcDbEntity
  8
0
  6
Continuous
 62
     7
370
     0
100
AcDbCircle
 10
53.44999993400188
 20
-8.529851885250479
 30
0.0
 40
0.7999999999999119
100
AcDbArc
 50
0.0000000314012856
 51
80.00000003138643
  0
LINE
  5
80CB
330
A
100
AcDbEntity
  8
0
  6
Continuous
 62
     7
370
     0
100
AcDbLine
 10
53.58891847570612
 20
-7.742005682764812
 30
0.0
 11
52.49999993346705
 21
-7.549999964589886
 31
0.0
  0
LINE
  5
80CC
330
A
100
AcDbEntity
  8
0
  6
Continuous
 62
     7
370
     0
100
AcDbLine
 10
44.49999993346705
 20
-7.549999968974503
 30
0.0
 11
43.41108139143876
 21
-7.742005688343084
 31
0.0
  0
LINE
  5
80CD
330
A
100
AcDbEntity
  8
0
  6
Continuous
 62
     7
370
     0
100
AcDbLine
 10
12.31818176630486
 20
-30.49999998661301
 30
0.0
 11
12.31818177219588
 21
-41.24999998661301
 31
0.0
  0
LINE
  5
80CE
330
A
100
AcDbEntity
  8
0
  6
Continuous
 62
     7
370
     0
100
AcDbLine
 10
12.31818175438411
 20
-8.749999986613005
 30
0.0
 11
12.31818176027491
 21
-19.49999998661289
 31
0.0
  0
LINE
  5
80CF
330
A
100
AcDbEntity
  8
0
  6
Continuous
 62
     7
370
     0
100
AcDbLine
 10
18.99999999632905
 20
-7.42499998958641
 30
0.0
 11
18.99999999645183
 21
-7.549999982950424
 31
0.0
  0
LINE
  5
80D0
330
A
100
AcDbEntity
  8
0
  6
Continuous
 62
     7
370
     0
100
AcDbLine
 10
19.00000003095488
 20
-42.4499999829508
 30
0.0
 11
19.00000003107789
 21
-42.5749999895865
 31
0.0
  0
LINE
  5
80D1
330
A
100
AcDbEntity
  8
0
  6
Continuous
 62
     7
370
     0
100
AcDbLine
 10
24.00000003107789
 20
-42.574999986846
 30
0.0
 11
24.00000003095488
 21
-42.4499999802104
 31
0.0
  0
LINE
  5
80D2
330
A
100
AcDbEntity
  8
0
  6
Continuous
 62
     7
370
     0
100
AcDbLine
 10
23.99999999645183
 20
-7.549999980210003
 30
0.0
 11
23.99999999632905
 21
-7.424999986846017
 31
0.0
  0
LINE
  5
80D3
330
A
100
AcDbEntity
  8
0
  6
Continuous
 62
     7
370
     0
100
AcDbLine
 10
15.75000002261004
 20
-41.24999998473199
 30
0.0
 11
15.75000002273009
 21
-41.4701480635504
 31
0.0
  0
LINE
  5
80D4
330
A
100
AcDbEntity
  8
0
  6
Continuous
 62
     7
370
     0
100
AcDbLine
 10
27.25000002273009
 20
-41.47014805724748
 30
0.0
 11
27.25000002261004
 21
-41.24999997842908
 31
0.0
  0
ARC
  5
80D5
330
A
100
AcDbEntity
  8
0
  6
Continuous
 62
     7
370
     0
100
AcDbCircle
 10
26.45000002272991
 20
-41.47014805768589
 30
0.0
 40
0.7999999999999971
100
AcDbArc
 50
280.0000000313965
 51
0.0000000313996571
  0
ARC
  5
80D6
330
A
100
AcDbEntity
  8
0
  6
Continuous
 62
     7
370
     0
100
AcDbCircle
 10
16.55000002273095
 20
-41.47014806311199
 30
0.0
 40
0.7999999999999119
100
AcDbArc
 50
180.0000000314012
 51
260.0000000313996
  0
LINE
  5
80D7
330
A
100
AcDbEntity
  8
0
  6
Continuous
 62
     7
370
     0
100
AcDbLine
 10
16.41108148102899
 20
-42.2579942655978
 30
0.0
 11
17.50000002326806
 21
-42.4499999837729
 31
0.0
  0
LINE
  5
80D8
330
A
100
AcDbEntity
  8
0
  6
Continuous
 62
     7
370
     0
100
AcDbLine
 10
25.50000002326806
 20
-42.44999997938831
 30
0.0
 11
26.5889185652959
 21
-42.2579942600195
 31
0.0
  0
LINE
  5
80D9
330
A
100
AcDbEntity
  8
0
  6
Continuous
 62
     7
370
     0
100
AcDbLine
 10
18.00000001666285
 20
-30.39999998540967
 30
0.0
 11
18.0000000167181
 21
-30.49999998349889
 31
0.0
  0
LINE
  5
80DA
330
A
100
AcDbEntity
  8
0
  6
Continuous
 62
     7
370
     0
100
AcDbLine
 10
25.00000001671811
 20
-30.49999997966231
 30
0.0
 11
25.00000001666285
 21
-30.39999997848938
 31
0.0
  0
ARC
  5
80DB
330
A
100
AcDbEntity
  8
0
  6
Continuous
 62
     7
370
     0
100
AcDbCircle
 10
16.54999942124982
 20
-8.529851905474913
 30
0.0
 40
0.8000000000000241
100
AcDbArc
 50
100.0000000313964
 51
180.0000000313996
  0
ARC
  5
80DC
330
A
100
AcDbEntity
  8
0
  6
Continuous
 62
     7
370
     0
100
AcDbCircle
 10
26.44999942125082
 20
-8.529851900048811
 30
0.0
 40
0.7999999999999119
100
AcDbArc
 50
0.0000000314012856
 51
80.00000003139955
  0
LINE
  5
80DD
330
A
100
AcDbEntity
  8
0
  6
Continuous
 62
     7
370
     0
100
AcDbLine
 10
27.24999942128898
 20
-8.5999999753042
 30
0.0
 11
27.24999942125078
 21
-8.529851899610406
 31
0.0
  0
LINE
  5
80DE
330
A
100
AcDbEntity
  8
0
  6
Continuous
 62
     7
370
     0
100
AcDbLine
 10
15.74999942125077
 20
-8.529851905913318
 30
0.0
 11
15.74999942137106
 21
-8.749999984731687
 31
0.0
  0
LINE
  5
80DF
330
A
100
AcDbEntity
  8
0
  6
Continuous
 62
     7
370
     0
100
AcDbLine
 10
26.58891796295189
 20
-7.742005697563001
 30
0.0
 11
25.49999942071395
 21
-7.549999979387905
 31
0.0
  0
LINE
  5
80E0
330
A
100
AcDbEntity
  8
0
  6
Continuous
 62
     7
370
     0
100
AcDbLine
 10
17.49999942071395
 20
-7.549999983772579
 30
0.0
 11
16.41108087868611
 21
-7.742005703141188
 31
0.0
  0
LINE
  5
80E1
330
A
100
AcDbEntity
  8
0
  6
Continuous
 62
     7
370
     0
100
AcDbLine
 10
24.99999942731802
 20
-19.59999997848939
 30
0.0
 11
24.99999942726276
 21
-19.49999997966219
 31
0.0
  0
LINE
  5
80E2
330
A
100
AcDbEntity
  8
0
  6
Continuous
 62
     7
370
     0
100
AcDbLine
 10
17.99999942726276
 20
-19.49999998349881
 30
0.0
 11
17.99999942731801
 21
-19.59999998540968
 31
0.0
  0
LINE
  5
B816
330
A
100
AcDbEntity
  8
0
  6
CENTER
 62
     1
100
AcDbLine
 10
78.50010045891135
 20
0.0050000162848818
 30
0.0
 11
78.50010045891135
 21
-49.99499998371504
 31
0.0
  0
ARC
  5
B817
330
A
100
AcDbEntity
  8
0
  6
CENTER
 62
     1
100
AcDbCircle
 10
70.50010045891134
 20
-49.99499998371504
 30
0.0
 40
8.0
100
AcDbArc
 50
202.6198650000018
 51
0.0
  0
LINE
  5
B819
330
A
100
AcDbEntity
  8
0
  6
CENTER
 62
     1
100
AcDbLine
 10
58.50010045891133
 20
-49.99499998371504
 30
0.0
 11
37.50010045891135
 21
-49.99499998371504
 31
0.0
  0
LINE
  5
B81A
330
A
100
AcDbEntity
  8
0
  6
CENTER
 62
     1
100
AcDbLine
 10
37.50010045891135
 20
0.0050000162848818
 30
0.0
 11
58.50010045891133
 21
0.0050000162848818
 31
0.0
  0
ARC
  5
B81B
330
A
100
AcDbEntity
  8
0
  6
CENTER
 62
     1
100
AcDbCircle
 10
58.50010045891133
 20
5.005000016284881
 30
0.0
 40
5.0
100
AcDbArc
 50
270.0
 51
337.3801349999982
  0
ARC
  5
B81C
330
A
100
AcDbEntity
  8
0
  6
CENTER
 62
     1
100
AcDbCircle
 10
70.50010045891134
 20
0.0050000162848818
 30
0.0
 40
8.0
100
AcDbArc
 50
0.0
 51
157.3801349999982
  0
LINE
  5
B81D
330
A
100
AcDbEntity
  8
0
  6
CENTER
 62
     1
100
AcDbLine
 10
-8.499999999999062
 20
0.0000000000094929
 30
0.0
 11
-8.499999999999062
 21
-49.99999999999045
 31
0.0
  0
ARC
  5
B81E
330
A
100
AcDbEntity
  8
0
  6
CENTER
 62
     1
100
AcDbCircle
 10
-0.4999999999990621
 20
-49.99999999999045
 30
0.0
 40
8.0
100
AcDbArc
 50
180.0
 51
337.3801349999982
  0
ARC
  5
B81F
330
A
100
AcDbEntity
  8
0
  6
CENTER
 62
     1
100
AcDbCircle
 10
11.50000000000092
 20
-54.99999999999045
 30
0.0
 40
5.0
100
AcDbArc
 50
90.0
 51
157.3801349999982
  0
LINE
  5
B820
330
A
100
AcDbEntity
  8
0
  6
CENTER
 62
     1
100
AcDbLine
 10
11.50000000000092
 20
-49.99999999999045
 30
0.0
 11
32.50000000000092
 21
-49.99999999999045
 31
0.0
  0
LINE
  5
B821
330
A
100
AcDbEntity
  8
0
  6
CENTER
 62
     1
100
AcDbLine
 10
32.50000000000092
 20
0.0000000000094929
 30
0.0
 11
11.50000000000092
 21
0.0000000000094929
 31
0.0
  0
ARC
  5
B822
330
A
100
AcDbEntity
  8
0
  6
CENTER
 62
     1
100
AcDbCircle
 10
11.50000000000092
 20
5.000000000009492
 30
0.0
 40
5.0
100
AcDbArc
 50
202.6198650000018
 51
270.0
  0
ARC
  5
B823
330
A
100
AcDbEntity
  8
0
  6
CENTER
 62
     1
100
AcDbCircle
 10
-0.4999999999990621
 20
0.0000000000094929
 30
0.0
 40
8.0
100
AcDbArc
 50
22.61986500000181
 51
180.0
  0
ENDSEC
  0
SECTION
  2
OBJECTS
  0
DICTIONARY
  5
19
330
0
100
AcDbDictionary
281
     1
  3
ACAD_COLOR
350
5829
  3
ACAD_GROUP
350
1A
  3
ACAD_LAYOUT
350
1E
  3
ACAD_MATERIAL
350
57FF
  3
ACAD_MLEADERSTYLE
350
584E
  3
ACAD_MLINESTYLE
350
1B
  3
ACAD_PLOTSETTINGS
350
22
  3
ACAD_PLOTSTYLENAME
350
1F
  3
ACAD_SCALELIST
350
582C
  3
ACAD_TABLESTYLE
350
582A
  3
ACAD_VISUALSTYLE
350
5818
  3
ACAD_WIPEOUT_VARS
350
23
  3
ACDB_RECOMPOSE_DATA
350
AB90
  3
AcDbVariableDictionary
350
AB91
  3
ASE_INDEX_DICTIONARY
350
B60C
  3
DWGPROPS
350
B841
  0
DICTIONARY
  5
5858
330
14
100
AcDbDictionary
280
     1
281
     1
  3
ADSK_XREC_LAYER_RECONCILED
360
5859
  0
DICTIONARY
  5
5864
330
A
100
AcDbDictionary
280
     1
281
     1
  3
ACAD_SORTENTS
360
5865
  0
DICTIONARY
  5
5829
102
{ACAD_REACTORS
330
19
102
}
330
19
100
AcDbDictionary
281
     1
  0
DICTIONARY
  5
1A
102
{ACAD_REACTORS
330
19
102
}
330
19
100
AcDbDictionary
281
     1
  0
DICTIONARY
  5
1E
102
{ACAD_REACTORS
330
19
102
}
330
19
100
AcDbDictionary
281
     1
  3
Layout1
350
21
  3
Model
350
20
  0
DICTIONARY
  5
57FF
102
{ACAD_REACTORS
330
19
102
}
330
19
100
AcDbDictionary
281
     1
  3
ByBlock
350
5808
  3
ByLayer
350
5800
  3
Global
350
5810
  0
DICTIONARY
  5
584E
102
{ACAD_REACTORS
330
19
102
}
330
19
100
AcDbDictionary
281
     1
  3
Standard
350
584F
  0
DICTIONARY
  5
1B
102
{ACAD_REACTORS
330
19
102
}
330
19
100
AcDbDictionary
281
     1
  3
Standard
350
1C
  0
DICTIONARY
  5
22
102
{ACAD_REACTORS
330
19
102
}
330
19
100
AcDbDictionary
281
     1
  0
ACDBDICTIONARYWDFLT
  5
1F
102
{ACAD_REACTORS
330
19
102
}
330
19
100
AcDbDictionary
281
     1
  3
Normal
350
1D
100
AcDbDictionaryWithDefault
340
1D
  0
DICTIONARY
  5
582C
102
{ACAD_REACTORS
330
19
102
}
330
19
100
AcDbDictionary
281
     1
  3
A0
350
582D
  3
A1
350
582E
  3
A2
350
582F
  3
A3
350
5830
  3
A4
350
5831
  3
A5
350
5832
  3
A6
350
5833
  3
A7
350
5834
  3
A8
350
5835
  3
A9
350
5836
  3
B0
350
5837
  3
B1
350
5838
  3
B2
350
5839
  3
B3
350
583A
  3
B4
350
583B
  3
B5
350
583C
  3
B6
350
583D
  3
B7
350
583E
  3
B8
350
583F
  3
B9
350
5840
  3
C0
350
5841
  3
C1
350
5842
  3
C2
350
5843
  3
C3
350
5844
  3
C4
350
5845
  3
C5
350
5846
  3
C6
350
5847
  3
C7
350
5848
  3
C8
350
5849
  3
C9
350
584A
  3
D0
350
584B
  3
D1
350
584C
  3
D2
350
584D
  0
DICTIONARY
  5
582A
102
{ACAD_REACTORS
330
19
102
}
330
19
100
AcDbDictionary
281
     1
  3
Standard
350
582B
  0
DICTIONARY
  5
5818
102
{ACAD_REACTORS
330
19
102
}
330
19
100
AcDbDictionary
281
     1
  3
2dWireframe
350
581E
  3
3D Hidden
350
5820
  3
3dWireframe
350
581F
  3
Basic
350
581D
  3
Brighten
350
5824
  3
ColorChange
350
5828
  3
Conceptual
350
5821
  3
Dim
350
5823
  3
Facepattern
350
5827
  3
Flat
350
5819
  3
FlatWithEdges
350
581A
  3
Gouraud
350
581B
  3
GouraudWithEdges
350
581C
  3
Linepattern
350
5826
  3
Realistic
350
5822
  3
Thicken
350
5825
  0
WIPEOUTVARIABLES
  5
23
330
19
100
AcDbWipeoutVariables
 70
     1
  0
XRECORD
  5
AB90
102
{ACAD_REACTORS
330
19
102
}
330
19
100
AcDbXrecord
280
     1
 90
        1
330
582B
  0
DICTIONARY
  5
AB91
102
{ACAD_REACTORS
330
19
102
}
330
19
100
AcDbDictionary
281
     1
  3
CANNOSCALE
350
AB95
  3
CMLEADERSTYLE
350
AB93
  3
CTABLESTYLE
350
AB92
  3
DIMASSOC
350
B616
  3
INDEXCTL
350
B615
  3
LIGHTINGUNITS
350
AB96
  3
MSLTSCALE
350
AB94
  3
SORTENTS
350
B614
  0
DICTIONARY
  5
B60C
102
{ACAD_REACTORS
330
19
102
}
330
19
100
AcDbDictionary
281
     1
  3
ASEBlockHierarchyIndexRecord
350
B60D
1001
DCO15
1040
1684840282.966
  0
XRECORD
  5
B841
102
{ACAD_REACTORS
330
19
102
}
330
19
100
AcDbXrecord
280
     1
  1
DWGPROPS COOKIE
  2

  3

  4

  6

  7

  8
renzo.ceresoli
  9

300
=
301
=
302
=
303
=
304
=
305
=
306
=
307
=
308
=
309
=
 40
0.1652654282407407
 41
2455301.802361111
 42
2455306.363830614
  1

 90
        0
  0
XRECORD
  5
5859
102
{ACAD_REACTORS
330
5858
102
}
330
5858
100
AcDbXrecord
280
     1
290
     1
  0
SORTENTSTABLE
  5
5865
102
{ACAD_REACTORS
330
5864
102
}
330
5864
100
AcDbSortentsTable
330
A
331
7CA5
  5
7F3D
331
31F5
  5
8052
331
7EFD
  5
7D70
331
31FA
  5
8057
331
7EB5
  5
7E30
331
7E5E
  5
7DD9
331
7E39
  5
7EDE
331
8094
  5
7C45
331
80CB
  5
7C7C
331
7DBD
  5
7E62
331
7DE2
  5
7E87
331
8018
  5
7BC9
331
803D
  5
7BEE
331
7D41
  5
7FD9
331
7F9C
  5
7CCC
331
7FC1
  5
7CF1
331
7CC8
  5
7F60
331
7F20
  5
7D93
331
7E81
  5
7DFC
331
7E05
  5
7EAA
331
8060
  5
7C11
331
7D89
  5
8021
331
7D64
  5
7FFC
331
7FE4
  5
7D14
331
7FBF
  5
7CEF
331
7CEB
  5
7F83
331
7F68
  5
7C98
331
7F43
  5
7DB6
331
7C6F
  5
7F07
331
31E4
  5
8041
331
7EA4
  5
7E1F
331
7E77
  5
7DF2
331
7DFB
  5
7EA0
331
7E28
  5
7ECD
331
8056
  5
7C07
331
8083
  5
7C34
331
80BA
  5
7C6B
331
7DAC
  5
7E51
331
7D7F
  5
8017
331
8007
  5
7D37
331
7FDA
  5
7D0A
331
7D30
  5
7FC8
331
7D03
  5
7F9B
331
7F8B
  5
7CBB
331
7F5E
  5
7DD1
331
7C8A
  5
7F22
331
7EE2
  5
7D55
331
7EC7
  5
7E42
331
7E4B
  5
7EF0
331
7E1E
  5
7EC3
331
80A6
  5
7C57
331
80DD
  5
7C8E
331
7DCF
  5
7E74
331
7DA2
  5
803A
331
802A
  5
7BDB
331
7FFD
  5
7D2D
331
7D53
  5
7FEB
331
7D26
  5
7FBE
331
7FAE
  5
7CDE
331
7F81
  5
7CB1
331
7CAD
  5
7F45
331
7CDA
  5
7F72
331
7F32
  5
7DA5
331
7F05
  5
7D78
331
3202
  5
805F
331
7E66
  5
7DE1
331
7DEA
  5
7E8F
331
7DC5
  5
7E6A
331
8045
  5
7BF6
331
7D6E
  5
8006
331
7D49
  5
7FE1
331
7FC9
  5
7CF9
331
7FA4
  5
7CD4
331
7CD0
  5
7F68
331
7CF2
  5
7F8A
331
7F4D
  5
7DC0
331
7F28
  5
7D9B
331
7C79
  5
7F11
331
7ED1
  5
7E4C
331
7E89
  5
7E04
331
7E0D
  5
7EB2
331
8068
  5
7C19
331
7D91
  5
8029
331
7FEC
  5
7D1C
331
7D15
  5
7FAD
331
7F70
  5
7CA0
331
7C9C
  5
7F34
331
7C77
  5
7F0F
331
31EC
  5
8049
331
7EF4
  5
7D67
331
7EAC
  5
7E27
331
7E30
  5
7ED5
331
808B
  5
7C3C
331
80C2
  5
7C73
331
7DB4
  5
7E59
331
7D87
  5
801F
331
800F
  5
7D3F
331
7D38
  5
7FD0
331
7D0B
  5
7FA3
331
7F93
  5
7CC3
331
7F66
  5
7C96
331
7CBF
  5
7F57
331
7C92
  5
7F2A
331
7F17
  5
7D8A
331
7EEA
  5
7D5D
331
7ECF
  5
7E4A
331
7E78
  5
7DF3
331
7E53
  5
7EF8
331
80AE
  5
7C5F
331
7DD7
  5
7E7C
331
8032
  5
7BE3
331
7D2E
  5
7FC6
331
7D5B
  5
7FF3
331
7FB6
  5
7CE6
331
7CE2
  5
7F7A
331
7CB5
  5
7F4D
331
7F3A
  5
7DAD
331
7F0D
  5
7D80
331
7E9B
  5
7E16
331
7E6E
  5
7DE9
331
7DF2
  5
7E97
331
807A
  5
7C2B
331
804D
  5
7BFE
331
80B1
  5
7C62
331
7D76
  5
800E
331
7FD1
  5
7D01
331
7CFA
  5
7F92
331
7F55
  5
7DC8
331
7C81
  5
7F19
331
7ED9
  5
7D4C
331
7EBE
  5
7E39
331
7E91
  5
7E0C
331
7E42
  5
7EE7
331
7E15
  5
7EBA
331
809D
  5
7C4E
331
8070
  5
7C21
331
80D4
  5
7C85
331
7D99
  5
8031
331
8021
  5
7BD2
331
7FF4
  5
7D24
331
7D1D
  5
7FB5
331
7F78
  5
7CA8
331
7CA4
  5
7F3C
331
31F4
  5
8051
331
7EFC
  5
7D6F
331
31F9
  5
8056
331
7EB4
  5
7E2F
331
7E5D
  5
7DD8
331
7E38
  5
7EDD
331
8093
  5
7C44
331
80CA
  5
7C7B
331
7DE1
  5
7E86
331
7DBC
  5
7E61
331
803C
  5
7BED
331
8017
  5
7BC8
331
7D40
  5
7FD8
331
7FC0
  5
7CF0
331
7F9B
  5
7CCB
331
7CC7
  5
7F5F
331
7F1F
  5
7D92
331
7E80
  5
7DFB
331
7DDF
  5
7E84
331
7E04
  5
7EA9
331
805F
  5
7C10
331
7D63
  5
7FFB
331
7D88
  5
8020
331
7FBE
  5
7CEE
331
7FE3
  5
7D13
331
7CEA
  5
7F82
331
7F42
  5
7DB5
331
7C6E
  5
7F06
331
7EA3
  5
7E1E
331
7E76
  5
7DF1
331
7E27
  5
7ECC
331
7DFA
  5
7E9F
331
8082
  5
7C33
331
8055
  5
7C06
331
80B9
  5
7C6A
331
7DAB
  5
7E50
331
7D7E
  5
8016
331
8006
  5
7D36
331
7FD9
  5
7D09
331
7D02
  5
7F9A
331
7F8A
  5
7CBA
331
7F5D
  5
7DD0
331
7C89
  5
7F21
331
7EE1
  5
7D54
331
7EC6
  5
7E41
331
7E1D
  5
7EC2
331
7E4A
  5
7EEF
331
80A5
  5
7C56
331
80DC
  5
7C8D
331
7DCE
  5
7E73
331
7DA1
  5
8039
331
8029
  5
7BDA
331
7FFC
  5
7D2C
331
7D52
  5
7FEA
331
7D25
  5
7FBD
331
7FAD
  5
7CDD
331
7F80
  5
7CB0
331
7CD9
  5
7F71
331
7CAC
  5
7F44
331
7F31
  5
7DA4
331
7F04
  5
7D77
331
3201
  5
805E
331
7E65
  5
7DE0
331
7DE9
  5
7E8E
331
7DC4
  5
7E69
331
8044
  5
7BF5
331
801F
  5
7BD0
331
7D6D
  5
8005
331
7D48
  5
7FE0
331
7FC8
  5
7CF8
331
7FA3
  5
7CD3
331
7CCF
  5
7F67
331
7CF1
  5
7F89
331
7F4C
  5
7DBF
331
7F27
  5
7D9A
331
7C78
  5
7F10
331
7ED0
  5
7E4B
331
7E88
  5
7E03
331
7E0C
  5
7EB1
331
8067
  5
7C18
331
7D90
  5
8028
331
7FEB
  5
7D1B
331
7D14
  5
7FAC
331
7F6F
  5
7C9F
331
7C9B
  5
7F33
331
7C76
  5
7F0E
331
31EB
  5
8048
331
7EF3
  5
7D66
331
7EAB
  5
7E26
331
7E2F
  5
7ED4
331
808A
  5
7C3B
331
80C1
  5
7C72
331
7DB3
  5
7E58
331
7D86
  5
801E
331
800E
  5
7D3E
331
7D0A
  5
7FA2
331
7D37
  5
7FCF
331
7F65
  5
7C95
331
7F92
  5
7CC2
331
7CBE
  5
7F56
331
7C91
  5
7F29
331
7EE9
  5
7D5C
331
7F16
  5
7D89
331
7ECE
  5
7E49
331
7E52
  5
7EF7
331
80AD
  5
7C5E
331
7DD6
  5
7E7B
331
8031
  5
7BE2
331
7D5A
  5
7FF2
331
7D2D
  5
7FC5
331
7FB5
  5
7CE5
331
7CE1
  5
7F79
331
7CB4
  5
7F4C
331
7F39
  5
7DAC
331
7F0C
  5
7D7F
331
7E9A
  5
7E15
331
7E6D
  5
7DE8
331
7DF1
  5
7E96
331
8079
  5
7C2A
331
804C
  5
7BFD
331
80B0
  5
7C61
331
7D75
  5
800D
331
7FD0
  5
7D00
331
7CD7
  5
7F6F
331
7CF9
  5
7F91
331
7F54
  5
7DC7
331
7F2F
  5
7DA2
331
7C80
  5
7F18
331
7ED8
  5
7D4B
331
7EBD
  5
7E38
331
7E90
  5
7E0B
331
7E41
  5
7EE6
331
7E14
  5
7EB9
331
809C
  5
7C4D
331
806F
  5
7C20
331
80D3
  5
7C84
331
7D98
  5
8030
331
8020
  5
7BD1
331
7FF3
  5
7D23
331
7D1C
  5
7FB4
331
7F77
  5
7CA7
331
7CA3
  5
7F3B
331
31F3
  5
8050
331
7EFB
  5
7D6E
331
31F8
  5
8055
331
7EB3
  5
7E2E
331
7E5C
  5
7DD7
331
7E37
  5
7EDC
331
8092
  5
7C43
331
80C9
  5
7C7A
331
7DE0
  5
7E85
331
7DBB
  5
7E60
331
803B
  5
7BEC
331
8016
  5
7BC7
331
7D3F
  5
7FD7
331
7F9A
  5
7CCA
331
7CC6
  5
7F5E
331
7F1E
  5
7D91
331
7E7F
  5
7DFA
331
7E03
  5
7EA8
331
7DDE
  5
7E83
331
805E
  5
7C0F
331
7D62
  5
7FFA
331
7FE2
  5
7D12
331
7FBD
  5
7CED
331
7CE9
  5
7F81
331
7F41
  5
7DB4
331
7C6D
  5
7F05
331
7EA2
  5
7E1D
331
7E75
  5
7DF0
331
7DF9
  5
7E9E
331
7E26
  5
7ECB
331
8054
  5
7C05
331
8081
  5
7C32
331
80B8
  5
7C69
331
7D7D
  5
8015
331
7DAA
  5
7E4F
331
7FD8
  5
7D08
331
8005
  5
7D35
331
7D01
  5
7F99
331
7F89
  5
7CB9
331
7F5C
  5
7DCF
331
7C88
  5
7F20
331
7EE0
  5
7D53
331
7EC5
  5
7E40
331
7E49
  5
7EEE
331
7E1C
  5
7EC1
331
80A4
  5
7C55
331
8077
  5
7C28
331
80DB
  5
7C8C
331
7DCD
  5
7E72
331
7DA0
  5
8038
331
8028
  5
7BD9
331
7FFB
  5
7D2B
331
7D51
  5
7FE9
331
7D24
  5
7FBC
331
7FAC
  5
7CDC
331
7F7F
  5
7CAF
331
7CAB
  5
7F43
331
7CD8
  5
7F70
331
7F30
  5
7DA3
331
7F03
  5
7D76
331
3200
  5
805D
331
7E3F
  5
7EE4
331
7E64
  5
7DDF
331
7DE8
  5
7E8D
331
7DC3
  5
7E68
331
8043
  5
7BF4
331
801E
  5
7BCF
331
7D6C
  5
8004
331
7D47
  5
7FDF
331
7FC7
  5
7CF7
331
7FA2
  5
7CD2
331
7CCE
  5
7F66
331
7CF0
  5
7F88
331
7F4B
  5
7DBE
331
7F26
  5
7D99
331
7E87
  5
7E02
331
7E0B
  5
7EB0
331
8066
  5
7C17
331
7D8F
  5
8027
331
7FEA
  5
7D1A
331
7D13
  5
7FAB
331
7F6E
  5
7C9E
331
7C9A
  5
7F32
331
7C75
  5
7F0D
331
31EA
  5
8047
331
7EF2
  5
7D65
331
7EAA
  5
7E25
331
7E2E
  5
7ED3
331
8089
  5
7C3A
331
80C0
  5
7C71
331
7DB2
  5
7E57
331
7D85
  5
801D
331
800D
  5
7D3D
331
7D36
  5
7FCE
331
7D09
  5
7FA1
331
7F91
  5
7CC1
331
7F64
  5
7C94
331
7CBD
  5
7F55
331
7C90
  5
7F28
331
7F15
  5
7D88
331
7EE8
  5
7D5B
331
7ECD
  5
7E48
331
7E51
  5
7EF6
331
80AC
  5
7C5D
331
7DD5
  5
7E7A
331
8030
  5
7BE1
331
7D2C
  5
7FC4
331
7D59
  5
7FF1
331
7F87
  5
7CB7
331
7FB4
  5
7CE4
331
7CE0
  5
7F78
331
7CB3
  5
7F4B
331
7F0B
  5
7D7E
331
7F38
  5
7DAB
331
7E6C
  5
7DE7
331
7E99
  5
7E14
331
7DF0
  5
7E95
331
8078
  5
7C29
331
804B
  5
7BFC
331
7D74
  5
800C
331
7D4F
  5
7FE7
331
7FCF
  5
7CFF
331
7CD6
  5
7F6E
331
7CF8
  5
7F90
331
7F53
  5
7DC6
331
7F2E
  5
7DA1
331
7C7F
  5
7F17
331
7ED7
  5
7D4A
331
7EBC
  5
7E37
331
7E8F
  5
7E0A
331
7E40
  5
7EE5
331
7E13
  5
7EB8
331
809B
  5
7C4C
331
806E
  5
7C1F
331
80D2
  5
7C83
331
7D97
  5
802F
331
7FF2
  5
7D22
331
7D1B
  5
7FB3
331
7F76
  5
7CA6
331
7CA2
  5
7F3A
331
31F2
  5
804F
331
7EFA
  5
7D6D
331
7EB2
  5
7E2D
331
7E5B
  5
7F00
331
7E36
  5
7EDB
331
8091
  5
7C42
331
80C8
  5
7C79
331
7DBA
  5
7E5F
331
803A
  5
7BEB
331
8015
  5
7D45
331
7D3E
  5
7FD6
331
7F99
  5
7CC9
331
7CC5
  5
7F5D
331
7F1D
  5
7D90
331
7E7E
  5
7DF9
331
7E02
  5
7EA7
331
7DDD
  5
7E82
331
805D
  5
7C0E
331
7D61
  5
7FF9
331
7FBC
  5
7CEC
331
7FE1
  5
7D11
331
7CE8
  5
7F80
331
7F40
  5
7DB3
331
7C6C
  5
7F04
331
7EA1
  5
7E1C
331
7E74
  5
7DEF
331
7E25
  5
7ECA
331
7DF8
  5
7E9D
331
8080
  5
7C31
331
8053
  5
7C04
331
80B7
  5
7C68
331
7DA9
  5
7E4E
331
7D7C
  5
8014
331
8004
  5
7D34
331
7FD7
  5
7D07
331
7D00
  5
7F98
331
7F88
  5
7CB8
331
7F5B
  5
7DCE
331
7C87
  5
7F1F
331
7EDF
  5
7D52
331
7EC4
  5
7E3F
331
7E97
  5
7E12
331
7E1B
  5
7EC0
331
7E48
  5
7EED
331
8076
  5
7C27
331
80A3
  5
7C54
331
80DA
  5
7C8B
331
7D9F
  5
8037
331
7DCC
  5
7E71
331
7FFA
  5
7D2A
331
8027
  5
7BD8
331
7D50
  5
7FE8
331
7D23
  5
7FBB
331
7FAB
  5
7CDB
331
7F7E
  5
7CAE
331
7CAA
  5
7F42
331
7F02
  5
7D75
331
31FF
  5
805C
331
7E63
  5
7DDE
331
7E3E
  5
7EE3
331
7DE7
  5
7E8C
331
7DC2
  5
7E67
331
8042
  5
7BF3
331
801D
  5
7BCE
331
7D6B
  5
8003
331
7D46
  5
7FDE
331
7FC6
  5
7CF6
331
7FA1
  5
7CD1
331
7CCD
  5
7F65
331
7F4A
  5
7DBD
331
7F25
  5
7D98
331
7E86
  5
7E01
331
7E0A
  5
7EAF
331
8065
  5
7C16
331
7D8E
  5
8026
331
7FE9
  5
7D19
331
7D12
  5
7FAA
331
7F6D
  5
7C9D
331
7C99
  5
7F31
331
7C74
  5
7F0C
331
31E9
  5
8046
331
7EF1
  5
7D64
331
7EA9
  5
7E24
331
7E2D
  5
7ED2
331
8088
  5
7C39
331
80BF
  5
7C70
331
7DB1
  5
7E56
331
7D84
  5
801C
331
800C
  5
7D3C
331
7FDF
  5
7D0F
331
7D35
  5
7FCD
331
7D08
  5
7FA0
331
7F90
  5
7CC0
331
7F63
  5
7DD6
331
7CBC
  5
7F54
331
7C8F
  5
7F27
331
7EE7
  5
7D5A
331
7F14
  5
7D87
331
7ECC
  5
7E47
331
7E50
  5
7EF5
331
80AB
  5
7C5C
331
80E2
  5
7C93
331
7DD4
  5
7E79
331
7DA7
  5
803F
331
802F
  5
7BE0
331
7D58
  5
7FF0
331
7D2B
  5
7FC3
331
7FB3
  5
7CE3
331
7F86
  5
7CB6
331
7CDF
  5
7F77
331
7CB2
  5
7F4A
331
7F37
  5
7DAA
331
7F0A
  5
7D7D
331
7C63
  5
8065
331
7E98
  5
7E13
331
7E6B
  5
7DE6
331
7DEF
  5
7E94
331
804A
  5
7BFB
331
7D4E
  5
7FE6
331
7D73
  5
800B
331
7FCE
  5
7CFE
331
7CD5
  5
7F6D
331
7CF7
  5
7F8F
331
7F2D
  5
7DA0
331
7F52
  5
7DC5
331
7C7E
  5
7F16
331
7ED6
  5
7D49
331
7E8E
  5
7E09
331
7EBB
  5
7E36
331
7E12
  5
7EB7
331
809A
  5
7C4B
331
806D
  5
7C1E
331
80D1
  5
7C82
331
7D96
  5
802E
331
7FF1
  5
7D21
331
7D1A
  5
7FB2
331
7F75
  5
7CA5
331
7CA1
  5
7F39
331
31F1
  5
804E
331
7EF9
  5
7D6C
331
7EB1
  5
7E2C
331
7E5A
  5
7EFF
331
7E35
  5
7EDA
331
8090
  5
7C41
331
80C7
  5
7C78
331
7DB9
  5
7E5E
331
8039
  5
7BEA
331
8014
  5
7D44
331
7D3D
  5
7FD5
331
7F98
  5
7CC8
331
7CC4
  5
7F5C
331
7C97
  5
7F2F
331
7F1C
  5
7D8F
331
7EEF
  5
7D62
331
7E7D
  5
7DF8
331
7E01
  5
7EA6
331
7DDC
  5
7E81
331
805C
  5
7C0D
331
8037
  5
7BE8
331
7D60
  5
7FF8
331
7FE0
  5
7D10
331
7FBB
  5
7CEB
331
7CE7
  5
7F7F
331
7F3F
  5
7DB2
331
7C6B
  5
7F03
331
7EA0
  5
7E1B
331
7E73
  5
7DEE
331
7E24
  5
7EC9
331
7DF7
  5
7E9C
331
807F
  5
7C30
331
8052
  5
7C03
331
80B6
  5
7C67
331
7D7B
  5
8013
331
7DA8
  5
8040
331
7FD6
  5
7D06
331
8003
  5
7D33
331
7CFF
  5
7F97
331
7F5A
  5
7DCD
331
7C86
  5
7F1E
331
7EDE
  5
7D51
331
7EC3
  5
7E3E
331
7E96
  5
7E11
331
7E47
  5
7EEC
331
7E1A
  5
7EBF
331
80A2
  5
7C53
331
8075
  5
7C26
331
80D9
  5
7C8A
331
7DCB
  5
7E70
331
7D9E
  5
8036
331
8026
  5
7BD7
331
7FF9
  5
7D29
331
7D22
  5
7FBA
331
7FAA
  5
7CDA
331
7F7D
  5
7CAD
331
7CA9
  5
7F41
331
7F01
  5
7D74
331
31FE
  5
805B
331
7E3D
  5
7EE2
331
7E62
  5
7DDD
331
80CF
  5
7C80
331
7DC1
  5
7E66
331
7DE6
  5
7E8B
331
801C
  5
7BCD
331
8041
  5
7BF2
331
7D6A
  5
8002
331
7D45
  5
7FDD
331
7FC5
  5
7CF5
331
7FA0
  5
7CD0
331
7CCC
  5
7F64
331
7F49
  5
7DBC
331
7F24
  5
7D97
331
7E85
  5
7E00
331
7E09
  5
7EAE
331
8064
  5
7C15
331
7D8D
  5
8025
331
7FE8
  5
7D18
331
7CEF
  5
7F87
331
7D11
  5
7FA9
331
7F6C
  5
7C9C
331
7F47
  5
7DBA
331
7C73
  5
7F0B
331
7C98
  5
7F30
331
31E8
  5
8045
331
7EF0
  5
7D63
331
7EA8
  5
7E23
331
7E2C
  5
7ED1
331
7DFF
  5
7EA4
331
8087
  5
7C38
331
80BE
  5
7C6F
331
7DB0
  5
7E55
331
7D83
  5
801B
331
800B
  5
7D3B
331
7FDE
  5
7D0E
331
7D34
  5
7FCC
331
7D07
  5
7F9F
331
7F8F
  5
7CBF
331
7F62
  5
7DD5
331
7CBB
  5
7F53
331
7C8E
  5
7F26
331
7F13
  5
7D86
331
7EE6
  5
7D59
331
7ECB
  5
7E46
331
7E4F
  5
7EF4
331
80AA
  5
7C5B
331
80E1
  5
7C92
331
7DD3
  5
7E78
331
7DA6
  5
803E
331
802E
  5
7BDF
331
7D57
  5
7FEF
331
7D2A
  5
7FC2
331
7FB2
  5
7CE2
331
7F85
  5
7CB5
331
7CDE
  5
7F76
331
7CB1
  5
7F49
331
7F09
  5
7D7C
331
7F36
  5
7DA9
331
7E6A
  5
7DE5
331
7DEE
  5
7E93
331
8049
  5
7BFA
331
7D72
  5
800A
331
7D4D
  5
7FE5
331
7FCD
  5
7CFD
331
7CD4
  5
7F6C
331
7CF6
  5
7F8E
331
7F51
  5
7DC4
331
7F2C
  5
7D9F
331
7C7D
  5
7F15
331
7ED5
  5
7D48
331
7EBA
  5
7E35
331
7E8D
  5
7E08
331
7E11
  5
7EB6
331
8099
  5
7C4A
331
806C
  5
7C1D
331
80D0
  5
7C81
331
7D95
  5
802D
331
7FF0
  5
7D20
331
7D19
  5
7FB1
331
7F74
  5
7CA4
331
7CA0
  5
7F38
331
31F0
  5
804D
331
7EF8
  5
7D6B
331
7EB0
  5
7E2B
331
7E59
  5
7EFE
331
7E34
  5
7ED9
331
808F
  5
7C40
331
80C6
  5
7C77
331
7DB8
  5
7E5D
331
8038
  5
7BE9
331
8013
  5
7D43
331
7D3C
  5
7FD4
331
7D0F
  5
7FA7
331
7F97
  5
7CC7
331
7CC3
  5
7F5B
331
7C96
  5
7F2E
331
7F1B
  5
7D8E
331
7EEE
  5
7D61
331
7E7C
  5
7DF7
331
7E57
  5
7EFC
331
7E00
  5
7EA5
331
7DDB
  5
7E80
331
805B
  5
7C0C
331
8036
  5
7BE7
331
7D5F
  5
7FF7
331
7FBA
  5
7CEA
331
7CE6
  5
7F7E
331
7F3E
  5
7DB1
331
7C6A
  5
7F02
331
7E9F
  5
7E1A
331
7E72
  5
7DED
331
7E23
  5
7EC8
331
7DF6
  5
7E9B
331
807E
  5
7C2F
331
8051
  5
7C02
331
80B5
  5
7C66
331
7D7A
  5
8012
331
8002
  5
7D32
331
7FD5
  5
7D05
331
7CFE
  5
7F96
331
7F59
  5
7DCC
331
7C85
  5
7F1D
331
7EDD
  5
7D50
331
7EC2
  5
7E3D
331
7E95
  5
7E10
331
7E46
  5
7EEB
331
7E19
  5
7EBE
331
80A1
  5
7C52
331
8074
  5
7C25
331
80D8
  5
7C89
331
7D9D
  5
8035
331
7DCA
  5
7E6F
331
7FF8
  5
7D28
331
8025
  5
7BD6
331
7D21
  5
7FB9
331
7FA9
  5
7CD9
331
7F7C
  5
7CAC
331
7CA8
  5
7F40
331
7F00
  5
7D73
331
31FD
  5
805A
331
7E61
  5
7DDC
331
7E3C
  5
7EE1
331
8097
  5
7C48
331
80CE
  5
7C7F
331
7DE5
  5
7E8A
331
7DC0
  5
7E65
331
8040
  5
7BF1
331
801B
  5
7BCC
331
7D69
  5
8001
331
7D44
  5
7FDC
331
7FC4
  5
7CF4
331
7F9F
  5
7CCF
331
7CCB
  5
7F63
331
7F48
  5
7DBB
331
7F23
  5
7D96
331
7E84
  5
7DFF
331
7E08
  5
7EAD
331
8063
  5
7C14
331
7D8C
  5
8024
331
7D67
  5
7FFF
331
7FE7
  5
7D17
331
7CEE
  5
7F86
331
7D10
  5
7FA8
331
7F6B
  5
7C9B
331
7F46
  5
7DB9
331
7C72
  5
7F0A
331
31E7
  5
8044
331
7EA7
  5
7E22
331
7E2B
  5
7ED0
331
7DFE
  5
7EA3
331
8086
  5
7C37
331
80BD
  5
7C6E
331
7DAF
  5
7E54
331
7D82
  5
801A
331
800A
  5
7D3A
331
7FDD
  5
7D0D
331
7D33
  5
7FCB
331
7D06
  5
7F9E
331
7F8E
  5
7CBE
331
7F61
  5
7DD4
331
7C8D
  5
7F25
331
7CBA
  5
7F52
331
7EE5
  5
7D58
331
7F12
  5
7D85
331
7ECA
  5
7E45
331
7E4E
  5
7EF3
331
80A9
  5
7C5A
331
80E0
  5
7C91
331
7DD2
  5
7E77
331
7DA5
  5
803D
331
802D
  5
7BDE
331
7D56
  5
7FEE
331
7D29
  5
7FC1
331
7FB1
  5
7CE1
331
7F84
  5
7CB4
331
7CDD
  5
7F75
331
7CB0
  5
7F48
331
7F35
  5
7DA8
331
7F08
  5
7D7B
331
7E69
  5
7DE4
331
7DED
  5
7E92
331
8048
  5
7BF9
331
7D71
  5
8009
331
7D4C
  5
7FE4
331
7FCC
  5
7CFC
331
7FA7
  5
7CD7
331
7CD3
  5
7F6B
331
7CF5
  5
7F8D
331
7F2B
  5
7D9E
331
7F50
  5
7DC3
331
7C7C
  5
7F14
331
7ED4
  5
7D47
331
7E8C
  5
7E07
331
7EB9
  5
7E34
331
7E10
  5
7EB5
331
8098
  5
7C49
331
806B
  5
7C1C
331
7D94
  5
802C
331
7FEF
  5
7D1F
331
7D18
  5
7FB0
331
7F73
  5
7CA3
331
7C9F
  5
7F37
331
31EF
  5
804C
331
7EF7
  5
7D6A
331
7EAF
  5
7E2A
331
7E58
  5
7EFD
331
7E33
  5
7ED8
331
808E
  5
7C3F
331
80C5
  5
7C76
331
7DB7
  5
7E5C
331
8012
  5
7D42
331
7D0E
  5
7FA6
331
7D3B
  5
7FD3
331
7F96
  5
7CC6
331
7CC2
  5
7F5A
331
7C95
  5
7F2D
331
7F1A
  5
7D8D
331
7EED
  5
7D60
331
7E7B
  5
7DF6
331
7E56
  5
7EFB
331
7DDA
  5
7E7F
331
805A
  5
7C0B
331
8035
  5
7BE6
331
7D5E
  5
7FF6
331
7FB9
  5
7CE9
331
7CE5
  5
7F7D
331
7F3D
  5
7DB0
331
7C69
  5
7F01
331
7E9E
  5
7E19
331
7E71
  5
7DEC
331
7E22
  5
7EC7
331
7DF5
  5
7E9A
331
807D
  5
7C2E
331
8050
  5
7C01
331
80B4
  5
7C65
331
7D79
  5
8011
331
7FD4
  5
7D04
331
8001
  5
7D31
331
7CFD
  5
7F95
331
7F58
  5
7DCB
331
7C84
  5
7F1C
331
7EDC
  5
7D4F
331
7EC1
  5
7E3C
331
7E94
  5
7E0F
331
7E45
  5
7EEA
331
7E18
  5
7EBD
331
80A0
  5
7C51
331
8073
  5
7C24
331
80D7
  5
7C88
331
7DC9
  5
7E6E
331
7D9C
  5
8034
331
8024
  5
7BD5
331
7FF7
  5
7D27
331
7D20
  5
7FB8
331
7FA8
  5
7CD8
331
7F7B
  5
7CAB
331
7CA7
  5
7F3F
331
31F7
  5
8054
331
7EFF
  5
7D72
331
31FC
  5
8059
331
7EB7
  5
7E32
331
7E60
  5
7DDB
331
7E3B
  5
7EE0
331
8096
  5
7C47
331
80CD
  5
7C7E
331
7DBF
  5
7E64
331
7DE4
  5
7E89
331
801A
  5
7BCB
331
803F
  5
7BF0
331
7D68
  5
8000
331
7D43
  5
7FDB
331
7FC3
  5
7CF3
331
7F9E
  5
7CCE
331
7CCA
  5
7F62
331
7F22
  5
7D95
331
7E83
  5
7DFE
331
7E07
  5
7EAC
331
8062
  5
7C13
331
7D8B
  5
8023
331
7D66
  5
7FFE
331
7FE6
  5
7D16
331
7CED
  5
7F85
331
7F6A
  5
7C9A
331
7F45
  5
7DB8
331
7C71
  5
7F09
331
31E6
  5
8043
331
7EA6
  5
7E21
331
7DFD
  5
7EA2
331
7E2A
  5
7ECF
331
8085
  5
7C36
331
80BC
  5
7C6D
331
7DAE
  5
7E53
331
7D81
  5
8019
331
8009
  5
7D39
331
7FDC
  5
7D0C
331
7D32
  5
7FCA
331
7D05
  5
7F9D
331
7F8D
  5
7CBD
331
7F60
  5
7DD3
331
7CB9
  5
7F51
331
7C8C
  5
7F24
331
7F11
  5
7D84
331
7EE4
  5
7D57
331
7EC9
  5
7E44
331
7E4D
  5
7EF2
331
80A8
  5
7C59
331
80DF
  5
7C90
331
7DD1
  5
7E76
331
7DA4
  5
803C
331
802C
  5
7BDD
331
7FFF
  5
7D2F
331
7D55
  5
7FED
331
7D28
  5
7FC0
331
7FB0
  5
7CE0
331
7F83
  5
7CB3
331
7CAF
  5
7F47
331
7CDC
  5
7F74
331
7F07
  5
7D7A
331
7F34
  5
7DA7
331
7E68
  5
7DE3
331
7DEC
  5
7E91
331
7DC7
  5
7E6C
331
8047
  5
7BF8
331
7D70
  5
8008
331
7D4B
  5
7FE3
331
7FCB
  5
7CFB
331
7FA6
  5
7CD6
331
7CD2
  5
7F6A
331
7CF4
  5
7F8C
331
7F4F
  5
7DC2
331
7F2A
  5
7D9D
331
7C7B
  5
7F13
331
7ED3
  5
7D46
331
7EB8
  5
7E33
331
7E8B
  5
7E06
331
7E0F
  5
7EB4
331
806A
  5
7C1B
331
7D93
  5
802B
331
7FEE
  5
7D1E
331
7D17
  5
7FAF
331
7F72
  5
7CA2
331
7C9E
  5
7F36
331
31EE
  5
804B
331
7EF6
  5
7D69
331
7EAE
  5
7E29
331
7E32
  5
7ED7
331
808D
  5
7C3E
331
80C4
  5
7C75
331
7DB6
  5
7E5B
331
8011
  5
7D41
331
7D3A
  5
7FD2
331
7D0D
  5
7FA5
331
7F95
  5
7CC5
331
7CC1
  5
7F59
331
7C94
  5
7F2C
331
7F19
  5
7D8C
331
7EEC
  5
7D5F
331
7E7A
  5
7DF5
331
7E55
  5
7EFA
331
7DD9
  5
7E7E
331
8059
  5
7C0A
331
8034
  5
7BE5
331
7D5D
  5
7FF5
331
7FB8
  5
7CE8
331
7CE4
  5
7F7C
331
7CB7
  5
7F4F
331
7F3C
  5
7DAF
331
7F0F
  5
7D82
331
7E9D
  5
7E18
331
7E70
  5
7DEB
331
7E21
  5
7EC6
331
7DF4
  5
7E99
331
807C
  5
7C2D
331
804F
  5
7C00
331
80B3
  5
7C64
331
7D78
  5
8010
331
8000
  5
7D30
331
7FD3
  5
7D03
331
7CFC
  5
7F94
331
7F57
  5
7DCA
331
7C83
  5
7F1B
331
7EDB
  5
7D4E
331
7EC0
  5
7E3B
331
7E93
  5
7E0E
331
7E44
  5
7EE9
331
7E17
  5
7EBC
331
809F
  5
7C50
331
8072
  5
7C23
331
80D6
  5
7C87
331
7D9B
  5
8033
331
7DC8
  5
7E6D
331
7FF6
  5
7D26
331
8023
  5
7BD4
331
7D1F
  5
7FB7
331
7F7A
  5
7CAA
331
7CA6
  5
7F3E
331
31F6
  5
8053
331
7EFE
  5
7D71
331
31FB
  5
8058
331
7EB6
  5
7E31
331
7E5F
  5
7DDA
331
7E3A
  5
7EDF
331
8095
  5
7C46
331
80CC
  5
7C7D
331
7DE3
  5
7E88
331
7DBE
  5
7E63
331
803E
  5
7BEF
331
8019
  5
7BCA
331
7D42
  5
7FDA
331
7FC2
  5
7CF2
331
7F9D
  5
7CCD
331
7CC9
  5
7F61
331
7F21
  5
7D94
331
7E82
  5
7DFD
331
7E06
  5
7EAB
331
8061
  5
7C12
331
7D8A
  5
8022
331
7D65
  5
7FFD
331
7FE5
  5
7D15
331
7CEC
  5
7F84
331
7F69
  5
7C99
331
7F44
  5
7DB7
331
7C70
  5
7F08
331
31E5
  5
8042
331
7EA5
  5
7E20
331
7E29
  5
7ECE
331
7DFC
  5
7EA1
331
8084
  5
7C35
331
8057
  5
7C08
331
80BB
  5
7C6C
331
7DAD
  5
7E52
331
7D80
  5
8018
331
8008
  5
7D38
331
7FDB
  5
7D0B
331
7D31
  5
7FC9
331
7D04
  5
7F9C
331
7F8C
  5
7CBC
331
7F5F
  5
7DD2
331
7C8B
  5
7F23
331
7CB8
  5
7F50
331
7F10
  5
7D83
331
7EE3
  5
7D56
331
7EC8
  5
7E43
331
7E1F
  5
7EC4
331
7E4C
  5
7EF1
331
80A7
  5
7C58
331
80DE
  5
7C8F
331
7DD0
  5
7E75
331
7DA3
  5
803B
331
802B
  5
7BDC
331
7FFE
  5
7D2E
331
7D54
  5
7FEC
331
7D27
  5
7FBF
331
7FAF
  5
7CDF
331
7F82
  5
7CB2
331
7CDB
  5
7F73
331
7CAE
  5
7F46
331
7F33
  5
7DA6
331
7F06
  5
7D79
331
7E67
  5
7DE2
331
7DEB
  5
7E90
331
7DC6
  5
7E6B
331
8046
  5
7BF7
331
7D6F
  5
8007
331
7D4A
  5
7FE2
331
7FCA
  5
7CFA
331
7FA5
  5
7CD5
331
7CD1
  5
7F69
331
7CF3
  5
7F8B
331
7F29
  5
7D9C
331
7F4E
  5
7DC1
331
7C7A
  5
7F12
331
7ED2
  5
7E4D
331
7E8A
  5
7E05
331
7E0E
  5
7EB3
331
8069
  5
7C1A
331
7D92
  5
802A
331
7FED
  5
7D1D
331
7D16
  5
7FAE
331
7F71
  5
7CA1
331
7C9D
  5
7F35
331
31ED
  5
804A
331
7EF5
  5
7D68
331
7EAD
  5
7E28
331
7E31
  5
7ED6
331
808C
  5
7C3D
331
80C3
  5
7C74
331
7DB5
  5
7E5A
331
8010
  5
7D40
331
7D0C
  5
7FA4
331
7D39
  5
7FD1
331
7F67
  5
7C97
331
7F94
  5
7CC4
331
7CC0
  5
7F58
331
7C93
  5
7F2B
331
7F18
  5
7D8B
331
7EEB
  5
7D5E
331
7E79
  5
7DF4
331
7E54
  5
7EF9
331
80AF
  5
7C60
331
7DD8
  5
7E7D
331
8058
  5
7C09
331
8033
  5
7BE4
331
7D5C
  5
7FF4
331
7D2F
  5
7FC7
331
7FB7
  5
7CE7
331
7CE3
  5
7F7B
331
7CB6
  5
7F4E
331
7F3B
  5
7DAE
331
7F0E
  5
7D81
331
7E9C
  5
7E17
331
7E6F
  5
7DEA
331
7E20
  5
7EC5
331
7DF3
  5
7E98
331
807B
  5
7C2C
331
804E
  5
7BFF
331
80B2
  5
7C63
331
7D77
  5
800F
331
7FD2
  5
7D02
331
7CFB
  5
7F93
331
7F56
  5
7DC9
331
7C82
  5
7F1A
331
7EDA
  5
7D4D
331
7EBF
  5
7E3A
331
7E92
  5
7E0D
331
7E43
  5
7EE8
331
7E16
  5
7EBB
331
809E
  5
7C4F
331
8071
  5
7C22
331
80D5
  5
7C86
331
7D9A
  5
8032
331
8022
  5
7BD3
331
7FF5
  5
7D25
331
7D1E
  5
7FB6
331
7F79
  5
7CA9
  0
LAYOUT
  5
21
102
{ACAD_XDICTIONARY
360
B844
102
}
102
{ACAD_REACTORS
330
1E
102
}
330
1E
100
AcDbPlotSettings
  1

  2

  4

  6

 40
0.0
 41
0.0
 42
0.0
 43
0.0
 44
0.0
 45
0.0
 46
0.0
 47
0.0
 48
0.0
 49
0.0
140
0.0
141
0.0
142
1.0
143
1.0
 70
     0
 72
     0
 73
     0
 74
     0
  7

 75
     0
147
1.0
148
0.0
149
0.0
100
AcDbLayout
  1
Layout1
 70
     0
 71
     1
 10
0.0
 20
0.0
 11
12.0
 21
9.0
 12
0.0
 22
0.0
 32
0.0
 14
1.000000000000000E+20
 24
1.000000000000000E+20
 34
1.000000000000000E+20
 15
-1.000000000000000E+20
 25
-1.000000000000000E+20
 35
-1.000000000000000E+20
146
0.0
 13
0.0
 23
0.0
 33
0.0
 16
1.0
 26
0.0
 36
0.0
 17
0.0
 27
1.0
 37
0.0
 76
     0
330
B
  0
LAYOUT
  5
20
102
{ACAD_XDICTIONARY
360
B842
102
}
102
{ACAD_REACTORS
330
1E
102
}
330
1E
100
AcDbPlotSettings
  1

  2

  4

  6

 40
0.0
 41
0.0
 42
0.0
 43
0.0
 44
0.0
 45
0.0
 46
0.0
 47
0.0
 48
0.0
 49
0.0
140
0.0
141
0.0
142
1.0
143
1.0
 70
  1024
 72
     0
 73
     0
 74
     0
  7

 75
     0
147
1.0
148
0.0
149
0.0
100
AcDbLayout
  1
Model
 70
     0
 71
     0
 10
0.0
 20
0.0
 11
0.0
 21
0.0
 12
0.0
 22
0.0
 32
0.0
 14
0.0
 24
0.0
 34
0.0
 15
0.0
 25
0.0
 35
0.0
146
0.0
 13
0.0
 23
0.0
 33
0.0
 16
0.0
 26
0.0
 36
0.0
 17
0.0
 27
0.0
 37
0.0
 76
     0
330
A
331
15
  0
MATERIAL
  5
5808
102
{ACAD_XDICTIONARY
360
5809
102
}
102
{ACAD_REACTORS
330
57FF
102
}
330
57FF
100
AcDbMaterial
  1
ByBlock
 72
     0
 43
0.0208333333333333
 43
0.0
 43
0.0
 43
0.0
 43
0.0
 43
0.0208333333333333
 43
0.0
 43
0.0
 43
0.0
 43
0.0
 43
1.0
 43
0.0
 43
0.0
 43
0.0
 43
0.0
 43
1.0
 77
     0
 47
0.0208333333333333
 47
0.0
 47
0.0
 47
0.0
 47
0.0
 47
0.0208333333333333
 47
0.0
 47
0.0
 47
0.0
 47
0.0
 47
1.0
 47
0.0
 47
0.0
 47
0.0
 47
0.0
 47
1.0
171
     0
 49
0.0208333333333333
 49
0.0
 49
0.0
 49
0.0
 49
0.0
 49
0.0208333333333333
 49
0.0
 49
0.0
 49
0.0
 49
0.0
 49
1.0
 49
0.0
 49
0.0
 49
0.0
 49
0.0
 49
1.0
175
     0
142
0.0208333333333333
142
0.0
142
0.0
142
0.0
142
0.0
142
0.0208333333333333
142
0.0
142
0.0
142
0.0
142
0.0
142
1.0
142
0.0
142
0.0
142
0.0
142
0.0
142
1.0
179
     0
144
0.0208333333333333
144
0.0
144
0.0
144
0.0
144
0.0
144
0.0208333333333333
144
0.0
144
0.0
144
0.0
144
0.0
144
1.0
144
0.0
144
0.0
144
0.0
144
0.0
144
1.0
147
0.0208333333333333
147
0.0
147
0.0
147
0.0
147
0.0
147
0.0208333333333333
147
0.0
147
0.0
147
0.0
147
0.0
147
1.0
147
0.0
147
0.0
147
0.0
147
0.0
147
1.0
  0
MATERIAL
  5
5800
102
{ACAD_XDICTIONARY
360
5801
102
}
102
{ACAD_REACTORS
330
57FF
102
}
330
57FF
100
AcDbMaterial
  1
ByLayer
 72
     0
 43
0.0208333333333333
 43
0.0
 43
0.0
 43
0.0
 43
0.0
 43
0.0208333333333333
 43
0.0
 43
0.0
 43
0.0
 43
0.0
 43
1.0
 43
0.0
 43
0.0
 43
0.0
 43
0.0
 43
1.0
 77
     0
 47
0.0208333333333333
 47
0.0
 47
0.0
 47
0.0
 47
0.0
 47
0.0208333333333333
 47
0.0
 47
0.0
 47
0.0
 47
0.0
 47
1.0
 47
0.0
 47
0.0
 47
0.0
 47
0.0
 47
1.0
171
     0
 49
0.0208333333333333
 49
0.0
 49
0.0
 49
0.0
 49
0.0
 49
0.0208333333333333
 49
0.0
 49
0.0
 49
0.0
 49
0.0
 49
1.0
 49
0.0
 49
0.0
 49
0.0
 49
0.0
 49
1.0
175
     0
142
0.0208333333333333
142
0.0
142
0.0
142
0.0
142
0.0
142
0.0208333333333333
142
0.0
142
0.0
142
0.0
142
0.0
142
1.0
142
0.0
142
0.0
142
0.0
142
0.0
142
1.0
179
     0
144
0.0208333333333333
144
0.0
144
0.0
144
0.0
144
0.0
144
0.0208333333333333
144
0.0
144
0.0
144
0.0
144
0.0
144
1.0
144
0.0
144
0.0
144
0.0
144
0.0
144
1.0
147
0.0208333333333333
147
0.0
147
0.0
147
0.0
147
0.0
147
0.0208333333333333
147
0.0
147
0.0
147
0.0
147
0.0
147
1.0
147
0.0
147
0.0
147
0.0
147
0.0
147
1.0
  0
MATERIAL
  5
5810
102
{ACAD_XDICTIONARY
360
5811
102
}
102
{ACAD_REACTORS
330
57FF
102
}
330
57FF
100
AcDbMaterial
  1
Global
 72
     0
 43
0.0208333333333333
 43
0.0
 43
0.0
 43
0.0
 43
0.0
 43
0.0208333333333333
 43
0.0
 43
0.0
 43
0.0
 43
0.0
 43
1.0
 43
0.0
 43
0.0
 43
0.0
 43
0.0
 43
1.0
 77
     0
 47
0.0208333333333333
 47
0.0
 47
0.0
 47
0.0
 47
0.0
 47
0.0208333333333333
 47
0.0
 47
0.0
 47
0.0
 47
0.0
 47
1.0
 47
0.0
 47
0.0
 47
0.0
 47
0.0
 47
1.0
171
     0
 49
0.0208333333333333
 49
0.0
 49
0.0
 49
0.0
 49
0.0
 49
0.0208333333333333
 49
0.0
 49
0.0
 49
0.0
 49
0.0
 49
1.0
 49
0.0
 49
0.0
 49
0.0
 49
0.0
 49
1.0
175
     0
142
0.0208333333333333
142
0.0
142
0.0
142
0.0
142
0.0
142
0.0208333333333333
142
0.0
142
0.0
142
0.0
142
0.0
142
1.0
142
0.0
142
0.0
142
0.0
142
0.0
142
1.0
179
     0
144
0.0208333333333333
144
0.0
144
0.0
144
0.0
144
0.0
144
0.0208333333333333
144
0.0
144
0.0
144
0.0
144
0.0
144
1.0
144
0.0
144
0.0
144
0.0
144
0.0
144
1.0
147
0.0208333333333333
147
0.0
147
0.0
147
0.0
147
0.0
147
0.0208333333333333
147
0.0
147
0.0
147
0.0
147
0.0
147
1.0
147
0.0
147
0.0
147
0.0
147
0.0
147
1.0
  0
MLEADERSTYLE
  5
584F
102
{ACAD_REACTORS
330
584E
102
}
330
584E
100
AcDbMLeaderStyle
170
     2
171
     1
172
     0
 90
        2
 40
0.0
 41
0.0
173
     1
 91
-1056964608
340
11
 92
       -2
290
     1
 42
2.0
291
     1
 43
0.36
  3
Standard
 44
4.0
300

342
17
174
     1
178
     6
175
     1
176
     0
 93
-1056964608
 45
4.0
292
     0
297
     0
 46
4.0
 94
-1056964608
 47
1.0
 49
1.0
140
1.0
293
     1
141
0.0
294
     1
177
     0
142
1.0
295
     0
296
     0
143
0.125
1001
ACAD_MLEADERVER
1070
     2
  0
MLINESTYLE
  5
1C
102
{ACAD_REACTORS
330
1B
102
}
330
1B
100
AcDbMlineStyle
  2
STANDARD
 70
     0
  3

 62
     0
 51
90.0
 52
90.0
 71
     2
 49
0.5
 62
   256
  6
BYLAYER
 49
-0.5
 62
   256
  6
BYLAYER
  0
ACDBPLACEHOLDER
  5
1D
102
{ACAD_REACTORS
330
1F
102
}
330
1F
  0
SCALE
  5
582D
102
{ACAD_REACTORS
330
582C
102
}
330
582C
100
AcDbScale
 70
     0
300
1:1
140
1.0
141
1.0
290
     1
  0
SCALE
  5
582E
102
{ACAD_REACTORS
330
582C
102
}
330
582C
100
AcDbScale
 70
     0
300
1:2
140
1.0
141
2.0
290
     0
  0
SCALE
  5
582F
102
{ACAD_REACTORS
330
582C
102
}
330
582C
100
AcDbScale
 70
     0
300
1:4
140
1.0
141
4.0
290
     0
  0
SCALE
  5
5830
102
{ACAD_REACTORS
330
582C
102
}
330
582C
100
AcDbScale
 70
     0
300
1:5
140
1.0
141
5.0
290
     0
  0
SCALE
  5
5831
102
{ACAD_REACTORS
330
582C
102
}
330
582C
100
AcDbScale
 70
     0
300
1:8
140
1.0
141
8.0
290
     0
  0
SCALE
  5
5832
102
{ACAD_REACTORS
330
582C
102
}
330
582C
100
AcDbScale
 70
     0
300
1:10
140
1.0
141
10.0
290
     0
  0
SCALE
  5
5833
102
{ACAD_REACTORS
330
582C
102
}
330
582C
100
AcDbScale
 70
     0
300
1:16
140
1.0
141
16.0
290
     0
  0
SCALE
  5
5834
102
{ACAD_REACTORS
330
582C
102
}
330
582C
100
AcDbScale
 70
     0
300
1:20
140
1.0
141
20.0
290
     0
  0
SCALE
  5
5835
102
{ACAD_REACTORS
330
582C
102
}
330
582C
100
AcDbScale
 70
     0
300
1:30
140
1.0
141
30.0
290
     0
  0
SCALE
  5
5836
102
{ACAD_REACTORS
330
582C
102
}
330
582C
100
AcDbScale
 70
     0
300
1:40
140
1.0
141
40.0
290
     0
  0
SCALE
  5
5837
102
{ACAD_REACTORS
330
582C
102
}
330
582C
100
AcDbScale
 70
     0
300
1:50
140
1.0
141
50.0
290
     0
  0
SCALE
  5
5838
102
{ACAD_REACTORS
330
582C
102
}
330
582C
100
AcDbScale
 70
     0
300
1:100
140
1.0
141
100.0
290
     0
  0
SCALE
  5
5839
102
{ACAD_REACTORS
330
582C
102
}
330
582C
100
AcDbScale
 70
     0
300
2:1
140
2.0
141
1.0
290
     0
  0
SCALE
  5
583A
102
{ACAD_REACTORS
330
582C
102
}
330
582C
100
AcDbScale
 70
     0
300
4:1
140
4.0
141
1.0
290
     0
  0
SCALE
  5
583B
102
{ACAD_REACTORS
330
582C
102
}
330
582C
100
AcDbScale
 70
     0
300
8:1
140
8.0
141
1.0
290
     0
  0
SCALE
  5
583C
102
{ACAD_REACTORS
330
582C
102
}
330
582C
100
AcDbScale
 70
     0
300
10:1
140
10.0
141
1.0
290
     0
  0
SCALE
  5
583D
102
{ACAD_REACTORS
330
582C
102
}
330
582C
100
AcDbScale
 70
     0
300
100:1
140
100.0
141
1.0
290
     0
  0
SCALE
  5
583E
102
{ACAD_REACTORS
330
582C
102
}
330
582C
100
AcDbScale
 70
     0
300
1/128" = 1'-0"
140
0.0078125
141
12.0
290
     0
  0
SCALE
  5
583F
102
{ACAD_REACTORS
330
582C
102
}
330
582C
100
AcDbScale
 70
     0
300
1/64" = 1'-0"
140
0.015625
141
12.0
290
     0
  0
SCALE
  5
5840
102
{ACAD_REACTORS
330
582C
102
}
330
582C
100
AcDbScale
 70
     0
300
1/32" = 1'-0"
140
0.03125
141
12.0
290
     0
  0
SCALE
  5
5841
102
{ACAD_REACTORS
330
582C
102
}
330
582C
100
AcDbScale
 70
     0
300
1/16" = 1'-0"
140
0.0625
141
12.0
290
     0
  0
SCALE
  5
5842
102
{ACAD_REACTORS
330
582C
102
}
330
582C
100
AcDbScale
 70
     0
300
3/32" = 1'-0"
140
0.09375
141
12.0
290
     0
  0
SCALE
  5
5843
102
{ACAD_REACTORS
330
582C
102
}
330
582C
100
AcDbScale
 70
     0
300
1/8" = 1'-0"
140
0.125
141
12.0
290
     0
  0
SCALE
  5
5844
102
{ACAD_REACTORS
330
582C
102
}
330
582C
100
AcDbScale
 70
     0
300
3/16" = 1'-0"
140
0.1875
141
12.0
290
     0
  0
SCALE
  5
5845
102
{ACAD_REACTORS
330
582C
102
}
330
582C
100
AcDbScale
 70
     0
300
1/4" = 1'-0"
140
0.25
141
12.0
290
     0
  0
SCALE
  5
5846
102
{ACAD_REACTORS
330
582C
102
}
330
582C
100
AcDbScale
 70
     0
300
3/8" = 1'-0"
140
0.375
141
12.0
290
     0
  0
SCALE
  5
5847
102
{ACAD_REACTORS
330
582C
102
}
330
582C
100
AcDbScale
 70
     0
300
1/2" = 1'-0"
140
0.5
141
12.0
290
     0
  0
SCALE
  5
5848
102
{ACAD_REACTORS
330
582C
102
}
330
582C
100
AcDbScale
 70
     0
300
3/4" = 1'-0"
140
0.75
141
12.0
290
     0
  0
SCALE
  5
5849
102
{ACAD_REACTORS
330
582C
102
}
330
582C
100
AcDbScale
 70
     0
300
1" = 1'-0"
140
1.0
141
12.0
290
     0
  0
SCALE
  5
584A
102
{ACAD_REACTORS
330
582C
102
}
330
582C
100
AcDbScale
 70
     0
300
1-1/2" = 1'-0"
140
1.5
141
12.0
290
     0
  0
SCALE
  5
584B
102
{ACAD_REACTORS
330
582C
102
}
330
582C
100
AcDbScale
 70
     0
300
3" = 1'-0"
140
3.0
141
12.0
290
     0
  0
SCALE
  5
584C
102
{ACAD_REACTORS
330
582C
102
}
330
582C
100
AcDbScale
 70
     0
300
6" = 1'-0"
140
6.0
141
12.0
290
     0
  0
SCALE
  5
584D
102
{ACAD_REACTORS
330
582C
102
}
330
582C
100
AcDbScale
 70
     0
300
1'-0" = 1'-0"
140
12.0
141
12.0
290
     0
  0
TABLESTYLE
  5
582B
102
{ACAD_XDICTIONARY
360
AB8E
102
}
102
{ACAD_REACTORS
330
582A
102
}
330
582A
100
AcDbTableStyle
  3
Standard
 70
     0
 71
     0
 40
1.5
 41
1.5
280
     0
281
     0
  7
Standard
140
4.5
170
     2
 62
     0
 63
     7
283
     0
274
    -2
284
     1
 64
     0
275
    -2
285
     1
 65
     0
276
    -2
286
     1
 66
     0
277
    -2
287
     1
 67
     0
278
    -2
288
     1
 68
     0
279
    -2
289
     1
 69
     0
  7
Standard
140
6.0
170
     5
 62
     0
 63
     7
283
     0
274
    -2
284
     1
 64
     0
275
    -2
285
     1
 65
     0
276
    -2
286
     1
 66
     0
277
    -2
287
     1
 67
     0
278
    -2
288
     1
 68
     0
279
    -2
289
     1
 69
     0
  7
Standard
140
4.5
170
     5
 62
     0
 63
     7
283
     0
274
    -2
284
     1
 64
     0
275
    -2
285
     1
 65
     0
276
    -2
286
     1
 66
     0
277
    -2
287
     1
 67
     0
278
    -2
288
     1
 68
     0
279
    -2
289
     1
 69
     0
  0
VISUALSTYLE
  5
581E
102
{ACAD_REACTORS
330
5818
102
}
330
5818
100
AcDbVisualStyle
  2
2dWireframe
 70
     4
 71
     0
 72
     2
 73
     0
 90
        0
 40
-0.6
 41
-30.0
 62
     5
 63
     7
 74
     1
 91
        4
 64
     7
 65
   257
 75
     1
175
     1
 42
1.0
 92
        0
 66
   257
 43
1.0
 76
     1
 77
     6
 78
     2
 67
     7
 79
     5
170
     0
171
     0
290
     0
174
     0
 93
        1
 44
0.0
173
     0
291
     0
 45
0.0
1001
ACAD
1000
AcDbSavedByObjectVersion
1070
     0
1000
AcDbSavedByObjectVersion
1070
     0
1000
AcDbSavedByObjectVersion
1070
     0
  0
VISUALSTYLE
  5
5820
102
{ACAD_REACTORS
330
5818
102
}
330
5818
100
AcDbVisualStyle
  2
3D Hidden
 70
     6
 71
     1
 72
     2
 73
     2
 90
        0
 40
-0.6
 41
-30.0
 62
     5
 63
     7
 74
     2
 91
        2
 64
     7
 65
   257
 75
     2
175
     1
 42
40.0
 92
        0
 66
   257
 43
1.0
 76
     1
 77
     6
 78
     2
 67
     7
 79
     3
170
     0
171
     0
290
     0
174
     0
 93
        1
 44
0.0
173
     0
291
     0
 45
0.0
1001
ACAD
1000
AcDbSavedByObjectVersion
1070
     0
1000
AcDbSavedByObjectVersion
1070
     0
1000
AcDbSavedByObjectVersion
1070
     0
  0
VISUALSTYLE
  5
581F
102
{ACAD_REACTORS
330
5818
102
}
330
5818
100
AcDbVisualStyle
  2
3dWireframe
 70
     5
 71
     0
 72
     2
 73
     0
 90
        0
 40
-0.6
 41
-30.0
 62
     5
 63
     7
 74
     1
 91
        4
 64
     7
 65
   257
 75
     1
175
     1
 42
1.0
 92
        0
 66
   257
 43
1.0
 76
     1
 77
     6
 78
     2
 67
     7
 79
     5
170
     0
171
     0
290
     0
174
     0
 93
        1
 44
0.0
173
     0
291
     0
 45
0.0
1001
ACAD
1000
AcDbSavedByObjectVersion
1070
     0
1000
AcDbSavedByObjectVersion
1070
     0
1000
AcDbSavedByObjectVersion
1070
     0
  0
VISUALSTYLE
  5
581D
102
{ACAD_REACTORS
330
5818
102
}
330
5818
100
AcDbVisualStyle
  2
Basic
 70
     7
 71
     1
 72
     0
 73
     1
 90
        0
 40
-0.6
 41
-30.0
 62
     5
 63
     7
 74
     0
 91
        4
 64
     7
 65
   257
 75
     1
175
     1
 42
1.0
 92
        8
 66
     7
 43
1.0
 76
     1
 77
     6
 78
     2
 67
     7
 79
     5
170
     0
171
     0
290
     0
174
     0
 93
        1
 44
0.0
173
     0
291
     1
 45
0.0
1001
ACAD
1000
AcDbSavedByObjectVersion
1070
     0
1000
AcDbSavedByObjectVersion
1070
     0
1000
AcDbSavedByObjectVersion
1070
     0
  0
VISUALSTYLE
  5
5824
102
{ACAD_REACTORS
330
5818
102
}
330
5818
100
AcDbVisualStyle
  2
Brighten
 70
    12
 71
     2
 72
     2
 73
     0
 90
        0
 40
-0.6
 41
-30.0
 62
     5
 63
     7
 74
     1
 91
        4
 64
     7
 65
   257
 75
     1
175
     1
 42
1.0
 92
        8
 66
     7
 43
1.0
 76
     1
 77
     6
 78
     2
 67
     7
 79
     5
170
     0
171
     0
290
     0
174
     0
 93
        1
 44
50.0
173
     0
291
     1
 45
0.0
1001
ACAD
1000
AcDbSavedByObjectVersion
1070
     0
1000
AcDbSavedByObjectVersion
1070
     0
1000
AcDbSavedByObjectVersion
1070
     0
  0
VISUALSTYLE
  5
5828
102
{ACAD_REACTORS
330
5818
102
}
330
5818
100
AcDbVisualStyle
  2
ColorChange
 70
    16
 71
     2
 72
     2
 73
     3
 90
        0
 40
-0.6
 41
-30.0
 62
     5
 63
     8
 74
     1
 91
        4
 64
     7
 65
   257
 75
     1
175
     1
 42
1.0
 92
        8
 66
     8
 43
1.0
 76
     1
 77
     6
 78
     2
 67
     7
 79
     5
170
     0
171
     0
290
     0
174
     0
 93
        1
 44
0.0
173
     0
291
     1
 45
0.0
1001
ACAD
1000
AcDbSavedByObjectVersion
1070
     0
1000
AcDbSavedByObjectVersion
1070
     0
1000
AcDbSavedByObjectVersion
1070
     0
  0
VISUALSTYLE
  5
5821
102
{ACAD_REACTORS
330
5818
102
}
330
5818
100
AcDbVisualStyle
  2
Conceptual
 70
     9
 71
     3
 72
     2
 73
     0
 90
        0
 40
-0.6
 41
-30.0
 62
     5
 63
     7
 74
     2
 91
        2
 64
     7
 65
   257
 75
     1
175
     1
 42
40.0
 92
        8
 66
     7
 43
1.0
 76
     1
 77
     6
 78
     2
 67
     7
 79
     3
170
     0
171
     0
290
     0
174
     0
 93
        1
 44
0.0
173
     0
291
     0
 45
0.0
1001
ACAD
1000
AcDbSavedByObjectVersion
1070
     0
1000
AcDbSavedByObjectVersion
1070
     0
1000
AcDbSavedByObjectVersion
1070
     0
  0
VISUALSTYLE
  5
5823
102
{ACAD_REACTORS
330
5818
102
}
330
5818
100
AcDbVisualStyle
  2
Dim
 70
    11
 71
     2
 72
     2
 73
     0
 90
        0
 40
-0.6
 41
-30.0
 62
     5
 63
     7
 74
     1
 91
        4
 64
     7
 65
   257
 75
     1
175
     1
 42
1.0
 92
        8
 66
     7
 43
1.0
 76
     1
 77
     6
 78
     2
 67
     7
 79
     5
170
     0
171
     0
290
     0
174
     0
 93
        1
 44
-50.0
173
     0
291
     1
 45
0.0
1001
ACAD
1000
AcDbSavedByObjectVersion
1070
     0
1000
AcDbSavedByObjectVersion
1070
     0
1000
AcDbSavedByObjectVersion
1070
     0
  0
VISUALSTYLE
  5
5827
102
{ACAD_REACTORS
330
5818
102
}
330
5818
100
AcDbVisualStyle
  2
Facepattern
 70
    15
 71
     2
 72
     2
 73
     0
 90
        0
 40
-0.6
 41
-30.0
 62
     5
 63
     7
 74
     1
 91
        4
 64
     7
 65
   257
 75
     1
175
     1
 42
1.0
 92
        8
 66
     7
 43
1.0
 76
     1
 77
     6
 78
     2
 67
     7
 79
     5
170
     0
171
     0
290
     0
174
     0
 93
        1
 44
0.0
173
     0
291
     1
 45
0.0
1001
ACAD
1000
AcDbSavedByObjectVersion
1070
     0
1000
AcDbSavedByObjectVersion
1070
     0
1000
AcDbSavedByObjectVersion
1070
     0
  0
VISUALSTYLE
  5
5819
102
{ACAD_REACTORS
330
5818
102
}
330
5818
100
AcDbVisualStyle
  2
Flat
 70
     0
 71
     2
 72
     1
 73
     1
 90
        2
 40
-0.6
 41
30.0
 62
     5
 63
     7
 74
     0
 91
        4
 64
     7
 65
   257
 75
     1
175
     1
 42
1.0
 92
        8
 66
     7
 43
1.0
 76
     1
 77
     6
 78
     2
 67
     7
 79
     5
170
     0
171
     0
290
     0
174
     0
 93
       13
 44
0.0
173
     0
291
     1
 45
0.0
1001
ACAD
1000
AcDbSavedByObjectVersion
1070
     0
1000
AcDbSavedByObjectVersion
1070
     0
1000
AcDbSavedByObjectVersion
1070
     0
  0
VISUALSTYLE
  5
581A
102
{ACAD_REACTORS
330
5818
102
}
330
5818
100
AcDbVisualStyle
  2
FlatWithEdges
 70
     1
 71
     2
 72
     1
 73
     1
 90
        2
 40
-0.6
 41
30.0
 62
     5
 63
     7
 74
     1
 91
        4
 64
     7
 65
   257
 75
     1
175
     1
 42
1.0
 92
        0
 66
   257
 43
1.0
 76
     1
 77
     6
 78
     2
 67
     7
 79
     5
170
     0
171
     0
290
     0
174
     0
 93
       13
 44
0.0
173
     0
291
     1
 45
0.0
1001
ACAD
1000
AcDbSavedByObjectVersion
1070
     0
1000
AcDbSavedByObjectVersion
1070
     0
1000
AcDbSavedByObjectVersion
1070
     0
  0
VISUALSTYLE
  5
581B
102
{ACAD_REACTORS
330
5818
102
}
330
5818
100
AcDbVisualStyle
  2
Gouraud
 70
     2
 71
     2
 72
     2
 73
     1
 90
        2
 40
-0.6
 41
30.0
 62
     5
 63
     7
 74
     0
 91
        4
 64
     7
 65
   257
 75
     1
175
     1
 42
1.0
 92
        0
 66
     7
 43
1.0
 76
     1
 77
     6
 78
     2
 67
     7
 79
     5
170
     0
171
     0
290
     0
174
     0
 93
       13
 44
0.0
173
     0
291
     1
 45
0.0
1001
ACAD
1000
AcDbSavedByObjectVersion
1070
     0
1000
AcDbSavedByObjectVersion
1070
     0
1000
AcDbSavedByObjectVersion
1070
     0
  0
VISUALSTYLE
  5
581C
102
{ACAD_REACTORS
330
5818
102
}
330
5818
100
AcDbVisualStyle
  2
GouraudWithEdges
 70
     3
 71
     2
 72
     2
 73
     1
 90
        2
 40
-0.6
 41
30.0
 62
     5
 63
     7
 74
     1
 91
        4
 64
     7
 65
   257
 75
     1
175
     1
 42
1.0
 92
        0
 66
   257
 43
1.0
 76
     1
 77
     6
 78
     2
 67
     7
 79
     5
170
     0
171
     0
290
     0
174
     0
 93
       13
 44
0.0
173
     0
291
     1
 45
0.0
1001
ACAD
1000
AcDbSavedByObjectVersion
1070
     0
1000
AcDbSavedByObjectVersion
1070
     0
1000
AcDbSavedByObjectVersion
1070
     0
  0
VISUALSTYLE
  5
5826
102
{ACAD_REACTORS
330
5818
102
}
330
5818
100
AcDbVisualStyle
  2
Linepattern
 70
    14
 71
     2
 72
     2
 73
     0
 90
        0
 40
-0.6
 41
-30.0
 62
     5
 63
     7
 74
     1
 91
        4
 64
     7
 65
   257
 75
     7
175
     7
 42
1.0
 92
        8
 66
     7
 43
1.0
 76
     1
 77
     6
 78
     2
 67
     7
 79
     5
170
     0
171
     0
290
     0
174
     0
 93
        1
 44
0.0
173
     0
291
     1
 45
0.0
1001
ACAD
1000
AcDbSavedByObjectVersion
1070
     0
1000
AcDbSavedByObjectVersion
1070
     0
1000
AcDbSavedByObjectVersion
1070
     0
  0
VISUALSTYLE
  5
5822
102
{ACAD_REACTORS
330
5818
102
}
330
5818
100
AcDbVisualStyle
  2
Realistic
 70
     8
 71
     2
 72
     2
 73
     0
 90
        0
 40
-0.6
 41
-30.0
 62
     5
 63
     7
 74
     1
 91
        0
 64
     7
 65
   257
 75
     1
175
     1
 42
1.0
 92
        8
 66
     8
 43
1.0
 76
     1
 77
     6
 78
     2
 67
     7
 79
     5
170
     0
171
     0
290
     0
174
     0
 93
       13
 44
0.0
173
     0
291
     0
 45
0.0
1001
ACAD
1000
AcDbSavedByObjectVersion
1070
     0
1000
AcDbSavedByObjectVersion
1070
     0
1000
AcDbSavedByObjectVersion
1070
     0
  0
VISUALSTYLE
  5
5825
102
{ACAD_REACTORS
330
5818
102
}
330
5818
100
AcDbVisualStyle
  2
Thicken
 70
    13
 71
     2
 72
     2
 73
     0
 90
        0
 40
-0.6
 41
-30.0
 62
     5
 63
     7
 74
     1
 91
        4
 64
     7
 65
   257
 75
     1
175
     1
 42
1.0
 92
       12
 66
     7
 43
1.0
 76
     1
 77
     6
 78
     2
 67
     7
 79
     5
170
     0
171
     0
290
     0
174
     0
 93
        1
 44
0.0
173
     0
291
     1
 45
0.0
1001
ACAD
1000
AcDbSavedByObjectVersion
1070
     0
1000
AcDbSavedByObjectVersion
1070
     0
1000
AcDbSavedByObjectVersion
1070
     0
  0
DICTIONARYVAR
  5
AB95
102
{ACAD_REACTORS
330
AB91
102
}
330
AB91
100
DictionaryVariables
280
     0
  1
1:1
  0
DICTIONARYVAR
  5
AB93
102
{ACAD_REACTORS
330
AB91
102
}
330
AB91
100
DictionaryVariables
280
     0
  1
STANDARD
  0
DICTIONARYVAR
  5
AB92
102
{ACAD_REACTORS
330
AB91
102
}
330
AB91
100
DictionaryVariables
280
     0
  1
STANDARD
  0
DICTIONARYVAR
  5
B616
102
{ACAD_REACTORS
330
AB91
102
}
330
AB91
100
DictionaryVariables
280
     0
  1
1
  0
DICTIONARYVAR
  5
B615
102
{ACAD_REACTORS
330
AB91
102
}
330
AB91
100
DictionaryVariables
280
     0
  1
0
  0
DICTIONARYVAR
  5
AB96
102
{ACAD_REACTORS
330
AB91
102
}
330
AB91
100
DictionaryVariables
280
     0
  1
0
  0
DICTIONARYVAR
  5
AB94
102
{ACAD_REACTORS
330
AB91
102
}
330
AB91
100
DictionaryVariables
280
     0
  1
0
  0
DICTIONARYVAR
  5
B614
102
{ACAD_REACTORS
330
AB91
102
}
330
AB91
100
DictionaryVariables
280
     0
  1
127
  0
XRECORD
  5
B60D
102
{ACAD_REACTORS
330
B60C
102
}
330
B60C
100
AcDbXrecord
280
     1
  0
DICTIONARY
  5
B844
330
21
100
AcDbDictionary
280
     1
281
     1
  3
ACAD_XREC_ROUNDTRIP
360
B845
  0
DICTIONARY
  5
B842
330
20
100
AcDbDictionary
280
     1
281
     1
  3
ACAD_XREC_ROUNDTRIP
360
B843
  0
DICTIONARY
  5
5809
330
5808
100
AcDbDictionary
280
     1
281
     1
  3
ACAD_XREC_ROUNDTRIP
360
B61E
  3
BUMPTILE
360
580B
  3
DIFFUSETILE
360
580A
  3
OPACITYTILE
360
580E
  3
REFLECTIONTILE
360
580D
  3
REFRACTIONTILE
360
580F
  3
SPECULARTILE
360
580C
  0
DICTIONARY
  5
5801
330
5800
100
AcDbDictionary
280
     1
281
     1
  3
ACAD_XREC_ROUNDTRIP
360
B61D
  3
BUMPTILE
360
5803
  3
DIFFUSETILE
360
5802
  3
OPACITYTILE
360
5806
  3
REFLECTIONTILE
360
5805
  3
REFRACTIONTILE
360
5807
  3
SPECULARTILE
360
5804
  0
DICTIONARY
  5
5811
330
5810
100
AcDbDictionary
280
     1
281
     1
  3
ACAD_XREC_ROUNDTRIP
360
B61F
  3
BUMPTILE
360
5813
  3
DIFFUSETILE
360
5812
  3
OPACITYTILE
360
5816
  3
REFLECTIONTILE
360
5815
  3
REFRACTIONTILE
360
5817
  3
SPECULARTILE
360
5814
  0
DICTIONARY
  5
AB8E
330
582B
100
AcDbDictionary
280
     1
281
     1
  3
ACAD_ROUNDTRIP_2008_TABLESTYLE_CELLSTYLEMAP
360
B840
  3
ACAD_XREC_ROUNDTRIP
360
B846
  0
XRECORD
  5
B845
102
{ACAD_REACTORS
330
B844
102
}
330
B844
100
AcDbXrecord
280
     1
102
SHADEPLOT
 70
     0
102
SHADEPLOTRESLEVEL
 70
     2
102
SHADEPLOTCUSTOMDPI
 70
   300
  0
XRECORD
  5
B843
102
{ACAD_REACTORS
330
B842
102
}
330
B842
100
AcDbXrecord
280
     1
102
SHADEPLOT
 70
     0
102
SHADEPLOTRESLEVEL
 70
     2
102
SHADEPLOTCUSTOMDPI
 70
   300
  0
XRECORD
  5
B61E
102
{ACAD_REACTORS
330
5809
102
}
330
5809
100
AcDbXrecord
280
     1
102
MATERIAL
148
0.0
149
0.0
149
0.0
 93
        0
 94
      127
282
     0
 72
     0
 77
     0
171
     0
175
     0
179
     0
273
     0
  0
XRECORD
  5
580B
102
{ACAD_REACTORS
330
5809
102
}
330
5809
100
AcDbXrecord
280
     1
270
     1
271
     1
  0
XRECORD
  5
580A
102
{ACAD_REACTORS
330
5809
102
}
330
5809
100
AcDbXrecord
280
     1
270
     1
271
     1
  0
XRECORD
  5
580E
102
{ACAD_REACTORS
330
5809
102
}
330
5809
100
AcDbXrecord
280
     1
270
     1
271
     1
  0
XRECORD
  5
580D
102
{ACAD_REACTORS
330
5809
102
}
330
5809
100
AcDbXrecord
280
     1
270
     1
271
     1
  0
XRECORD
  5
580F
102
{ACAD_REACTORS
330
5809
102
}
330
5809
100
AcDbXrecord
280
     1
270
     1
271
     1
  0
XRECORD
  5
580C
102
{ACAD_REACTORS
330
5809
102
}
330
5809
100
AcDbXrecord
280
     1
270
     1
271
     1
  0
XRECORD
  5
B61D
102
{ACAD_REACTORS
330
5801
102
}
330
5801
100
AcDbXrecord
280
     1
102
MATERIAL
148
0.0
149
0.0
149
0.0
 93
        0
 94
      127
282
     0
 72
     0
 77
     0
171
     0
175
     0
179
     0
273
     0
  0
XRECORD
  5
5803
102
{ACAD_REACTORS
330
5801
102
}
330
5801
100
AcDbXrecord
280
     1
270
     1
271
     1
  0
XRECORD
  5
5802
102
{ACAD_REACTORS
330
5801
102
}
330
5801
100
AcDbXrecord
280
     1
270
     1
271
     1
  0
XRECORD
  5
5806
102
{ACAD_REACTORS
330
5801
102
}
330
5801
100
AcDbXrecord
280
     1
270
     1
271
     1
  0
XRECORD
  5
5805
102
{ACAD_REACTORS
330
5801
102
}
330
5801
100
AcDbXrecord
280
     1
270
     1
271
     1
  0
XRECORD
  5
5807
102
{ACAD_REACTORS
330
5801
102
}
330
5801
100
AcDbXrecord
280
     1
270
     1
271
     1
  0
XRECORD
  5
5804
102
{ACAD_REACTORS
330
5801
102
}
330
5801
100
AcDbXrecord
280
     1
270
     1
271
     1
  0
XRECORD
  5
B61F
102
{ACAD_REACTORS
330
5811
102
}
330
5811
100
AcDbXrecord
280
     1
102
MATERIAL
148
0.0
149
0.0
149
0.0
 93
        0
 94
      127
282
     0
 72
     0
 77
     0
171
     0
175
     0
179
     0
273
     0
  0
XRECORD
  5
5813
102
{ACAD_REACTORS
330
5811
102
}
330
5811
100
AcDbXrecord
280
     1
270
     1
271
     1
  0
XRECORD
  5
5812
102
{ACAD_REACTORS
330
5811
102
}
330
5811
100
AcDbXrecord
280
     1
270
     1
271
     1
  0
XRECORD
  5
5816
102
{ACAD_REACTORS
330
5811
102
}
330
5811
100
AcDbXrecord
280
     1
270
     1
271
     1
  0
XRECORD
  5
5815
102
{ACAD_REACTORS
330
5811
102
}
330
5811
100
AcDbXrecord
280
     1
270
     1
271
     1
  0
XRECORD
  5
5817
102
{ACAD_REACTORS
330
5811
102
}
330
5811
100
AcDbXrecord
280
     1
270
     1
271
     1
  0
XRECORD
  5
5814
102
{ACAD_REACTORS
330
5811
102
}
330
5811
100
AcDbXrecord
280
     1
270
     1
271
     1
  0
CELLSTYLEMAP
  5
B840
102
{ACAD_REACTORS
330
AB8E
102
}
330
AB8E
100
AcDbCellStyleMap
 90
        3
300
CELLSTYLE
  1
TABLEFORMAT_BEGIN
 90
        5
170
     1
 91
        0
 92
    32768
 62
   257
 93
        1
300
CONTENTFORMAT
  1
CONTENTFORMAT_BEGIN
 90
        0
 91
        0
 92
      512
 93
        0
300

 40
0.0
140
1.0
 94
        5
 62
     0
340
17
144
6.0
309
CONTENTFORMAT_END
171
     1
301
MARGIN
  1
CELLMARGIN_BEGIN
 40
1.5
 40
1.5
 40
1.5
 40
1.5
 40
0.18
 40
0.18
309
CELLMARGIN_END
 94
        6
 95
        1
302
GRIDFORMAT
  1
GRIDFORMAT_BEGIN
 90
        0
 91
        1
 62
     0
 92
       -2
340
0
 93
        0
 40
1.125
309
GRIDFORMAT_END
 95
        2
302
GRIDFORMAT
  1
GRIDFORMAT_BEGIN
 90
        0
 91
        1
 62
     0
 92
       -2
340
0
 93
        0
 40
1.125
309
GRIDFORMAT_END
 95
        4
302
GRIDFORMAT
  1
GRIDFORMAT_BEGIN
 90
        0
 91
        1
 62
     0
 92
       -2
340
0
 93
        0
 40
1.125
309
GRIDFORMAT_END
 95
        8
302
GRIDFORMAT
  1
GRIDFORMAT_BEGIN
 90
        0
 91
        1
 62
     0
 92
       -2
340
0
 93
        0
 40
1.125
309
GRIDFORMAT_END
 95
       16
302
GRIDFORMAT
  1
GRIDFORMAT_BEGIN
 90
        0
 91
        1
 62
     0
 92
       -2
340
0
 93
        0
 40
1.125
309
GRIDFORMAT_END
 95
       32
302
GRIDFORMAT
  1
GRIDFORMAT_BEGIN
 90
        0
 91
        1
 62
     0
 92
       -2
340
0
 93
        0
 40
1.125
309
GRIDFORMAT_END
309
TABLEFORMAT_END
  1
CELLSTYLE_BEGIN
 90
        1
 91
        1
300
_TITLE
309
CELLSTYLE_END
300
CELLSTYLE
  1
TABLEFORMAT_BEGIN
 90
        5
170
     1
 91
        0
 92
        0
 62
   257
 93
        1
300
CONTENTFORMAT
  1
CONTENTFORMAT_BEGIN
 90
        0
 91
        0
 92
      512
 93
        0
300

 40
0.0
140
1.0
 94
        5
 62
     0
340
17
144
4.5
309
CONTENTFORMAT_END
171
     1
301
MARGIN
  1
CELLMARGIN_BEGIN
 40
1.5
 40
1.5
 40
1.5
 40
1.5
 40
0.18
 40
0.18
309
CELLMARGIN_END
 94
        6
 95
        1
302
GRIDFORMAT
  1
GRIDFORMAT_BEGIN
 90
        0
 91
        1
 62
     0
 92
       -2
340
0
 93
        0
 40
1.125
309
GRIDFORMAT_END
 95
        2
302
GRIDFORMAT
  1
GRIDFORMAT_BEGIN
 90
        0
 91
        1
 62
     0
 92
       -2
340
0
 93
        0
 40
1.125
309
GRIDFORMAT_END
 95
        4
302
GRIDFORMAT
  1
GRIDFORMAT_BEGIN
 90
        0
 91
        1
 62
     0
 92
       -2
340
0
 93
        0
 40
1.125
309
GRIDFORMAT_END
 95
        8
302
GRIDFORMAT
  1
GRIDFORMAT_BEGIN
 90
        0
 91
        1
 62
     0
 92
       -2
340
0
 93
        0
 40
1.125
309
GRIDFORMAT_END
 95
       16
302
GRIDFORMAT
  1
GRIDFORMAT_BEGIN
 90
        0
 91
        1
 62
     0
 92
       -2
340
0
 93
        0
 40
1.125
309
GRIDFORMAT_END
 95
       32
302
GRIDFORMAT
  1
GRIDFORMAT_BEGIN
 90
        0
 91
        1
 62
     0
 92
       -2
340
0
 93
        0
 40
1.125
309
GRIDFORMAT_END
309
TABLEFORMAT_END
  1
CELLSTYLE_BEGIN
 90
        2
 91
        1
300
_HEADER
309
CELLSTYLE_END
300
CELLSTYLE
  1
TABLEFORMAT_BEGIN
 90
        5
170
     1
 91
        0
 92
        0
 62
   257
 93
        1
300
CONTENTFORMAT
  1
CONTENTFORMAT_BEGIN
 90
        0
 91
        0
 92
      512
 93
        0
300

 40
0.0
140
1.0
 94
        2
 62
     0
340
17
144
4.5
309
CONTENTFORMAT_END
171
     1
301
MARGIN
  1
CELLMARGIN_BEGIN
 40
1.5
 40
1.5
 40
1.5
 40
1.5
 40
0.18
 40
0.18
309
CELLMARGIN_END
 94
        6
 95
        1
302
GRIDFORMAT
  1
GRIDFORMAT_BEGIN
 90
        0
 91
        1
 62
     0
 92
       -2
340
0
 93
        0
 40
1.125
309
GRIDFORMAT_END
 95
        2
302
GRIDFORMAT
  1
GRIDFORMAT_BEGIN
 90
        0
 91
        1
 62
     0
 92
       -2
340
0
 93
        0
 40
1.125
309
GRIDFORMAT_END
 95
        4
302
GRIDFORMAT
  1
GRIDFORMAT_BEGIN
 90
        0
 91
        1
 62
     0
 92
       -2
340
0
 93
        0
 40
1.125
309
GRIDFORMAT_END
 95
        8
302
GRIDFORMAT
  1
GRIDFORMAT_BEGIN
 90
        0
 91
        1
 62
     0
 92
       -2
340
0
 93
        0
 40
1.125
309
GRIDFORMAT_END
 95
       16
302
GRIDFORMAT
  1
GRIDFORMAT_BEGIN
 90
        0
 91
        1
 62
     0
 92
       -2
340
0
 93
        0
 40
1.125
309
GRIDFORMAT_END
 95
       32
302
GRIDFORMAT
  1
GRIDFORMAT_BEGIN
 90
        0
 91
        1
 62
     0
 92
       -2
340
0
 93
        0
 40
1.125
309
GRIDFORMAT_END
309
TABLEFORMAT_END
  1
CELLSTYLE_BEGIN
 90
        3
 91
        2
300
_DATA
309
CELLSTYLE_END
  0
XRECORD
  5
B846
102
{ACAD_REACTORS
330
AB8E
102
}
330
AB8E
100
AcDbXrecord
280
     1
102
ACAD_ROUNDTRIP_PRE2007_TABLESTYLE
 90
      512
 91
        0
  1

 92
      512
 93
        0
  2

 94
      512
 95
        0
  3

  0
ENDSEC
  0
EOF
