  0
SECTION
  2
HEADER
  9
$ACADVER
  1
AC1015
  9
$ACADMAINTVER
 70
     6
  9
$DWGCODEPAGE
  3
ANSI_1252
  9
$INSBASE
 10
0.0
 20
0.0
 30
0.0
  9
$EXTMIN
 10
6554.020637295479
 20
6854.214552598387
 30
0.0
  9
$EXTMAX
 10
6888.383538799189
 20
7207.715554240499
 30
0.0
  9
$LIMMIN
 10
0.0
 20
0.0
  9
$LIMMAX
 10
3150.0
 20
4455.0
  9
$ORTHOMODE
 70
     1
  9
$REGENMODE
 70
     1
  9
$FILLMODE
 70
     1
  9
$QTEXTMODE
 70
     0
  9
$MIRRTEXT
 70
     1
  9
$LTSCALE
 40
15.0
  9
$ATTMODE
 70
     1
  9
$TEXTSIZE
 40
42.0
  9
$TRACEWID
 40
1.0
  9
$TEXTSTYLE
  7
STANDARD
  9
$CLAYER
  8
0
  9
$CELTYPE
  6
ByLayer
  9
$CECOLOR
 62
   256
  9
$CELTSCALE
 40
1.0
  9
$DISPSILH
 70
     0
  9
$DIMSCALE
 40
1.0
  9
$DIMASZ
 40
48.0
  9
$DIMEXO
 40
1.5
  9
$DIMDLI
 40
3.75
  9
$DIMRND
 40
0.0
  9
$DIMDLE
 40
0.0
  9
$DIMEXE
 40
15.0
  9
$DIMTP
 40
0.0
  9
$DIMTM
 40
0.0
  9
$DIMTXT
 40
48.0
  9
$DIMCEN
 40
2.5
  9
$DIMTSZ
 40
0.0
  9
$DIMTOL
 70
     0
  9
$DIMLIM
 70
     0
  9
$DIMTIH
 70
     1
  9
$DIMTOH
 70
     1
  9
$DIMSE1
 70
     0
  9
$DIMSE2
 70
     0
  9
$DIMTAD
 70
     1
  9
$DIMZIN
 70
     0
  9
$DIMBLK
  1

  9
$DIMASO
 70
     1
  9
$DIMSHO
 70
     1
  9
$DIMPOST
  1

  9
$DIMAPOST
  1

  9
$DIMALT
 70
     0
  9
$DIMALTD
 70
     3
  9
$DIMALTF
 40
0.0393700787
  9
$DIMLFAC
 40
1.0
  9
$DIMTOFL
 70
     1
  9
$DIMTVP
 40
0.0
  9
$DIMTIX
 70
     0
  9
$DIMSOXD
 70
     0
  9
$DIMSAH
 70
     0
  9
$DIMBLK1
  1

  9
$DIMBLK2
  1

  9
$DIMSTYLE
  2
ISO-25
  9
$DIMCLRD
 70
     0
  9
$DIMCLRE
 70
     0
  9
$DIMCLRT
 70
     0
  9
$DIMTFAC
 40
1.0
  9
$DIMGAP
 40
30.0
  9
$DIMJUST
 70
     0
  9
$DIMSD1
 70
     0
  9
$DIMSD2
 70
     0
  9
$DIMTOLJ
 70
     1
  9
$DIMTZIN
 70
     0
  9
$DIMALTZ
 70
     0
  9
$DIMALTTZ
 70
     0
  9
$DIMUPT
 70
     0
  9
$DIMDEC
 70
     2
  9
$DIMTDEC
 70
     2
  9
$DIMALTU
 70
     2
  9
$DIMALTTD
 70
     2
  9
$DIMTXSTY
  7
STANDARD
  9
$DIMAUNIT
 70
     0
  9
$DIMADEC
 70
     0
  9
$DIMALTRND
 40
0.0
  9
$DIMAZIN
 70
     0
  9
$DIMDSEP
 70
    46
  9
$DIMATFIT
 70
     3
  9
$DIMFRAC
 70
     0
  9
$DIMLDRBLK
  1

  9
$DIMLUNIT
 70
     2
  9
$DIMLWD
 70
    -2
  9
$DIMLWE
 70
    -2
  9
$DIMTMOVE
 70
     2
  9
$LUNITS
 70
     2
  9
$LUPREC
 70
     2
  9
$SKETCHINC
 40
1.0
  9
$FILLETRAD
 40
10.0
  9
$AUNITS
 70
     0
  9
$AUPREC
 70
     2
  9
$MENU
  1
.
  9
$ELEVATION
 40
0.0
  9
$PELEVATION
 40
0.0
  9
$THICKNESS
 40
0.0
  9
$LIMCHECK
 70
     0
  9
$CHAMFERA
 40
0.0
  9
$CHAMFERB
 40
0.0
  9
$CHAMFERC
 40
0.0
  9
$CHAMFERD
 40
0.0
  9
$SKPOLY
 70
     0
  9
$TDCREATE
 40
2457771.413085799
  9
$TDUCREATE
 40
2457771.371419132
  9
$TDUPDATE
 40
2458788.428837431
  9
$TDUUPDATE
 40
2458788.387170764
  9
$TDINDWG
 40
0.0096966667
  9
$TDUSRTIMER
 40
0.0002337616
  9
$USRTIMER
 70
     1
  9
$ANGBASE
 50
0.0
  9
$ANGDIR
 70
     0
  9
$PDMODE
 70
     0
  9
$PDSIZE
 40
-1.0
  9
$PLINEWID
 40
0.0
  9
$SPLFRAME
 70
     0
  9
$SPLINETYPE
 70
     6
  9
$SPLINESEGS
 70
     8
  9
$HANDSEED
  5
E493
  9
$SURFTAB1
 70
     6
  9
$SURFTAB2
 70
     6
  9
$SURFTYPE
 70
     6
  9
$SURFU
 70
     6
  9
$SURFV
 70
     6
  9
$UCSBASE
  2

  9
$UCSNAME
  2

  9
$UCSORG
 10
0.0
 20
0.0
 30
0.0
  9
$UCSXDIR
 10
1.0
 20
0.0
 30
0.0
  9
$UCSYDIR
 10
0.0
 20
1.0
 30
0.0
  9
$UCSORTHOREF
  2

  9
$UCSORTHOVIEW
 70
     0
  9
$UCSORGTOP
 10
0.0
 20
0.0
 30
0.0
  9
$UCSORGBOTTOM
 10
0.0
 20
0.0
 30
0.0
  9
$UCSORGLEFT
 10
0.0
 20
0.0
 30
0.0
  9
$UCSORGRIGHT
 10
0.0
 20
0.0
 30
0.0
  9
$UCSORGFRONT
 10
0.0
 20
0.0
 30
0.0
  9
$UCSORGBACK
 10
0.0
 20
0.0
 30
0.0
  9
$PUCSBASE
  2

  9
$PUCSNAME
  2

  9
$PUCSORG
 10
0.0
 20
0.0
 30
0.0
  9
$PUCSXDIR
 10
1.0
 20
0.0
 30
0.0
  9
$PUCSYDIR
 10
0.0
 20
1.0
 30
0.0
  9
$PUCSORTHOREF
  2

  9
$PUCSORTHOVIEW
 70
     0
  9
$PUCSORGTOP
 10
0.0
 20
0.0
 30
0.0
  9
$PUCSORGBOTTOM
 10
0.0
 20
0.0
 30
0.0
  9
$PUCSORGLEFT
 10
0.0
 20
0.0
 30
0.0
  9
$PUCSORGRIGHT
 10
0.0
 20
0.0
 30
0.0
  9
$PUCSORGFRONT
 10
0.0
 20
0.0
 30
0.0
  9
$PUCSORGBACK
 10
0.0
 20
0.0
 30
0.0
  9
$USERI1
 70
     0
  9
$USERI2
 70
     0
  9
$USERI3
 70
     0
  9
$USERI4
 70
     0
  9
$USERI5
 70
     0
  9
$USERR1
 40
0.0
  9
$USERR2
 40
0.0
  9
$USERR3
 40
0.0
  9
$USERR4
 40
0.0
  9
$USERR5
 40
0.0
  9
$WORLDVIEW
 70
     1
  9
$SHADEDGE
 70
     3
  9
$SHADEDIF
 70
    70
  9
$TILEMODE
 70
     1
  9
$MAXACTVP
 70
    64
  9
$PINSBASE
 10
0.0
 20
0.0
 30
0.0
  9
$PLIMCHECK
 70
     0
  9
$PEXTMIN
 10
1.000000000000000E+20
 20
1.000000000000000E+20
 30
1.000000000000000E+20
  9
$PEXTMAX
 10
-1.000000000000000E+20
 20
-1.000000000000000E+20
 30
-1.000000000000000E+20
  9
$PLIMMIN
 10
0.0
 20
0.0
  9
$PLIMMAX
 10
0.0
 20
0.0
  9
$UNITMODE
 70
     0
  9
$VISRETAIN
 70
     1
  9
$PLINEGEN
 70
     0
  9
$PSLTSCALE
 70
     1
  9
$TREEDEPTH
 70
  3020
  9
$CMLSTYLE
  2
Standard
  9
$CMLJUST
 70
     0
  9
$CMLSCALE
 40
1.0
  9
$PROXYGRAPHICS
 70
     1
  9
$MEASUREMENT
 70
     0
  9
$CELWEIGHT
370
    -1
  9
$ENDCAPS
280
     0
  9
$JOINSTYLE
280
     0
  9
$LWDISPLAY
290
     0
  9
$INSUNITS
 70
     0
  9
$HYPERLINKBASE
  1

  9
$STYLESHEET
  1

  9
$XEDIT
290
     1
  9
$CEPSNTYPE
380
     0
  9
$PSTYLEMODE
290
     1
  9
$FINGERPRINTGUID
  2
{EAF31BF3-DDA0-4144-82C5-3F1636E0FD7E}
  9
$VERSIONGUID
  2
{FAEB1C32-E019-11D5-929B-00C0DF256EC4}
  9
$EXTNAMES
290
     1
  9
$PSVPSCALE
 40
0.0
  9
$OLESTARTUP
290
     0
  0
ENDSEC
  0
SECTION
  2
CLASSES
  0
CLASS
  1
ACDBDICTIONARYWDFLT
  2
AcDbDictionaryWithDefault
  3
ObjectDBX Classes
 90
        0
280
     0
281
     0
  0
CLASS
  1
MATERIAL
  2
AcDbMaterial
  3
ObjectDBX Classes
 90
     1153
280
     0
281
     0
  0
CLASS
  1
SCALE
  2
AcDbScale
  3
ObjectDBX Classes
 90
     1153
280
     0
281
     0
  0
CLASS
  1
VISUALSTYLE
  2
AcDbVisualStyle
  3
ObjectDBX Classes
 90
     4095
280
     0
281
     0
  0
CLASS
  1
TABLESTYLE
  2
AcDbTableStyle
  3
ObjectDBX Classes
 90
     4095
280
     0
281
     0
  0
CLASS
  1
MLEADERSTYLE
  2
AcDbMLeaderStyle
  3
ACDB_MLEADERSTYLE_CLASS
 90
     4095
280
     0
281
     0
  0
CLASS
  1
DICTIONARYVAR
  2
AcDbDictionaryVar
  3
ObjectDBX Classes
 90
        0
280
     0
281
     0
  0
CLASS
  1
ACDBPLACEHOLDER
  2
AcDbPlaceHolder
  3
ObjectDBX Classes
 90
        0
280
     0
281
     0
  0
CLASS
  1
LAYOUT
  2
AcDbLayout
  3
ObjectDBX Classes
 90
        0
280
     0
281
     0
  0
ENDSEC
  0
SECTION
  2
TABLES
  0
TABLE
  2
VPORT
  5
DBDD
330
0
100
AcDbSymbolTable
 70
     1
  0
VPORT
  5
DBF4
330
DBDD
100
AcDbSymbolTableRecord
100
AcDbViewportTableRecord
  2
*ACTIVE
 70
     0
 10
0.0
 20
0.0
 11
1.0
 21
1.0
 12
6721.202088047334
 22
7030.965053419442
 13
0.0
 23
0.0
 14
10.0
 24
10.0
 15
10.0
 25
10.0
 16
0.0
 26
0.0
 36
1.0
 17
0.0
 27
0.0
 37
0.0
 40
360.5710216749542
 41
2.584131326949384
 42
50.0
 43
0.0
 44
0.0
 50
0.0
 51
0.0
 71
    16
 72
  2000
 73
     1
 74
     3
 75
     0
 76
     0
 77
     0
 78
     0
281
     0
 65
     0
110
0.0
120
0.0
130
0.0
111
1.0
121
0.0
131
0.0
112
0.0
122
1.0
132
0.0
 79
     0
146
0.0
  0
ENDTAB
  0
TABLE
  2
LTYPE
  5
DBDA
330
0
100
AcDbSymbolTable
 70
     6
  0
LTYPE
  5
DBE8
330
DBDA
100
AcDbSymbolTableRecord
100
AcDbLinetypeTableRecord
  2
ByBlock
 70
     0
  3

 72
    65
 73
     0
 40
0.0
  0
LTYPE
  5
DBE9
330
DBDA
100
AcDbSymbolTableRecord
100
AcDbLinetypeTableRecord
  2
ByLayer
 70
     0
  3

 72
    65
 73
     0
 40
0.0
  0
LTYPE
  5
DBEA
330
DBDA
100
AcDbSymbolTableRecord
100
AcDbLinetypeTableRecord
  2
CONTINUOUS
 70
     0
  3
Solid line
 72
    65
 73
     0
 40
0.0
  0
ENDTAB
  0
TABLE
  2
LAYER
  5
DBD7
330
0
100
AcDbSymbolTable
 70
     5
  0
LAYER
  5
DBE5
330
DBD7
100
AcDbSymbolTableRecord
100
AcDbLayerTableRecord
  2
0
 70
     0
 62
     7
  6
CONTINUOUS
370
    -3
390
DBE4
  0
ENDTAB
  0
TABLE
  2
STYLE
  5
DBD8
330
0
100
AcDbSymbolTable
 70
     2
  0
STYLE
  5
DBE6
330
DBD8
100
AcDbSymbolTableRecord
100
AcDbTextStyleTableRecord
  2
STANDARD
 70
     0
 40
0.0
 41
1.0
 50
0.0
 71
     0
 42
42.0
  3
txt
  4

  0
STYLE
  5
DC05
330
DBD8
100
AcDbSymbolTableRecord
100
AcDbTextStyleTableRecord
  2
SLDTEXTSTYLE0
 70
     0
 40
0.0
 41
0.75
 50
0.0
 71
     0
 42
42.0
  3
TXT
  4

  0
ENDTAB
  0
TABLE
  2
VIEW
  5
DBDB
330
0
100
AcDbSymbolTable
 70
     0
  0
ENDTAB
  0
TABLE
  2
UCS
  5
DBDC
330
0
100
AcDbSymbolTable
 70
     0
  0
ENDTAB
  0
TABLE
  2
APPID
  5
DBDE
330
0
100
AcDbSymbolTable
 70
     1
  0
APPID
  5
DBE7
330
DBDE
100
AcDbSymbolTableRecord
100
AcDbRegAppTableRecord
  2
ACAD
 70
     0
  0
ENDTAB
  0
TABLE
  2
DIMSTYLE
  5
DBDF
330
0
100
AcDbSymbolTable
 70
     2
100
AcDbDimStyleTable
  0
DIMSTYLE
105
DC07
330
DBDF
100
AcDbSymbolTableRecord
100
AcDbDimStyleTableRecord
  2
ISO-25
 70
     0
 41
2.5
 42
0.625
 43
3.75
 44
1.25
 73
     0
 74
     0
 77
     1
 78
     8
140
2.5
141
2.5
143
0.0393700787
147
0.625
171
     3
172
     1
178
     0
340
DBE6
  0
ENDTAB
  0
TABLE
  2
BLOCK_RECORD
  5
DBD6
330
0
100
AcDbSymbolTable
 70
   234
  0
BLOCK_RECORD
  5
DBF1
330
DBD6
100
AcDbSymbolTableRecord
100
AcDbBlockTableRecord
  2
*Model_Space
340
DBF2
  0
BLOCK_RECORD
  5
DBEF
330
DBD6
100
AcDbSymbolTableRecord
100
AcDbBlockTableRecord
  2
*Paper_Space
340
DBF0
  0
ENDTAB
  0
ENDSEC
  0
SECTION
  2
BLOCKS
  0
BLOCK
  5
DC09
330
DBF1
100
AcDbEntity
  8
0
100
AcDbBlockBegin
  2
*Model_Space
 70
     0
 10
0.0
 20
0.0
 30
0.0
  3
*Model_Space
  1

  0
ENDBLK
  5
21
330
DBF1
100
AcDbEntity
  8
0
100
AcDbBlockEnd
  0
BLOCK
  5
DC0A
330
DBEF
100
AcDbEntity
 67
     1
  8
0
100
AcDbBlockBegin
  2
*Paper_Space
 70
     0
 10
0.0
 20
0.0
 30
0.0
  3
*Paper_Space
  1

  0
ENDBLK
  5
1D
330
DBEF
100
AcDbEntity
 67
     1
  8
0
100
AcDbBlockEnd
  0
ENDSEC
  0
SECTION
  2
ENTITIES
  0
LINE
  5
DFB8
330
DBF1
100
AcDbEntity
  8
0
  6
Continuous
 62
     7
370
    25
100
AcDbLine
 10
6657.516348965872
 20
7116.755080763487
 30
0.0
 11
6658.216348965871
 21
7116.755080763487
 31
0.0
  0
ARC
  5
DFB9
330
DBF1
100
AcDbEntity
  8
0
  6
Continuous
 62
     7
370
    25
100
AcDbCircle
 10
6657.516348965872
 20
7117.255080763487
 30
0.0
 40
0.5
100
AcDbArc
 50
180.0
 51
270.0
  0
LINE
  5
DFBA
330
DBF1
100
AcDbEntity
  8
0
  6
Continuous
 62
     7
370
    25
100
AcDbLine
 10
6657.016348965872
 20
7121.455080763487
 30
0.0
 11
6657.016348965872
 21
7117.255080763487
 31
0.0
  0
ARC
  5
DFBB
330
DBF1
100
AcDbEntity
  8
0
  6
Continuous
 62
     7
370
    25
100
AcDbCircle
 10
6656.716348965871
 20
7121.455080763487
 30
0.0
 40
0.3000000000001819
100
AcDbArc
 50
0.0
 51
90.0
  0
LINE
  5
DFBC
330
DBF1
100
AcDbEntity
  8
0
  6
Continuous
 62
     7
370
    25
100
AcDbLine
 10
6655.016348965872
 20
7121.755080763487
 30
0.0
 11
6656.716348965871
 21
7121.755080763487
 31
0.0
  0
ARC
  5
DFBD
330
DBF1
100
AcDbEntity
  8
0
  6
Continuous
 62
     7
370
    25
100
AcDbCircle
 10
6655.016348965872
 20
7121.455080763487
 30
0.0
 40
0.3000000000001819
100
AcDbArc
 50
90.0
 51
180.0
  0
LINE
  5
DFBE
330
DBF1
100
AcDbEntity
  8
0
  6
Continuous
 62
     7
370
    25
100
AcDbLine
 10
6654.716348965871
 20
7117.255080763487
 30
0.0
 11
6654.716348965871
 21
7121.455080763487
 31
0.0
  0
ARC
  5
DFBF
330
DBF1
100
AcDbEntity
  8
0
  6
Continuous
 62
     7
370
    25
100
AcDbCircle
 10
6654.216348965871
 20
7117.255080763487
 30
0.0
 40
0.5
100
AcDbArc
 50
270.0
 51
0.0
  0
LINE
  5
DFC0
330
DBF1
100
AcDbEntity
  8
0
  6
Continuous
 62
     7
370
    25
100
AcDbLine
 10
6652.416350260873
 20
7116.755080763487
 30
0.0
 11
6654.216348965871
 21
7116.755080763487
 31
0.0
  0
ARC
  5
DFC1
330
DBF1
100
AcDbEntity
  8
0
  6
Continuous
 62
     7
370
    25
100
AcDbCircle
 10
6652.416350260873
 20
7117.255080763487
 30
0.0
 40
0.5
100
AcDbArc
 50
180.0
 51
270.0
  0
LINE
  5
DFC2
330
DBF1
100
AcDbEntity
  8
0
  6
Continuous
 62
     7
370
    25
100
AcDbLine
 10
6651.916350260873
 20
7118.649041034023
 30
0.0
 11
6651.916350260873
 21
7117.255080763487
 31
0.0
  0
ARC
  5
DFC3
330
DBF1
100
AcDbEntity
  8
0
  6
Continuous
 62
     7
370
    25
100
AcDbCircle
 10
6652.216350260874
 20
7118.649041034023
 30
0.0
 40
0.3000000000009865
100
AcDbArc
 50
111.0375110252846
 51
180.0
  0
LINE
  5
DFC4
330
DBF1
100
AcDbEntity
  8
0
  6
Continuous
 62
     7
370
    25
100
AcDbLine
 10
6653.024043984669
 20
7119.28111681111
 30
0.0
 11
6652.108656537082
 21
7118.929044715885
 31
0.0
  0
ARC
  5
DFC5
330
DBF1
100
AcDbEntity
  8
0
  6
Continuous
 62
     7
370
    25
100
AcDbCircle
 10
6652.916350260876
 20
7119.561120492971
 30
0.0
 40
0.3000000000008498
100
AcDbArc
 50
291.0375110254467
 51
0.0
  0
LINE
  5
DFC6
330
DBF1
100
AcDbEntity
  8
0
  6
Continuous
 62
     7
370
    25
100
AcDbLine
 10
6653.216350260877
 20
7123.248447601977
 30
0.0
 11
6653.216350260877
 21
7119.561120492971
 31
0.0
  0
ARC
  5
DFC7
330
DBF1
100
AcDbEntity
  8
0
  6
Continuous
 62
     7
370
    25
100
AcDbCircle
 10
6652.916350260876
 20
7123.248447601977
 30
0.0
 40
0.3000000000009989
100
AcDbArc
 50
0.0
 51
24.00000000019476
  0
LINE
  5
DFC8
330
DBF1
100
AcDbEntity
  8
0
  6
Continuous
 62
     7
370
    25
100
AcDbLine
 10
6651.495591620207
 20
7127.17710175642
 30
0.0
 11
6653.19041389817
 21
7123.370468594901
 31
0.0
  0
ARC
  5
DFC9
330
DBF1
100
AcDbEntity
  8
0
  6
Continuous
 62
     7
370
    25
100
AcDbCircle
 10
6651.221527982913
 20
7127.055080763496
 30
0.0
 40
0.3000000000011143
100
AcDbArc
 50
24.00000000003607
 51
90.0
  0
LINE
  5
DFCA
330
DBF1
100
AcDbEntity
  8
0
  6
Continuous
 62
     7
370
    25
100
AcDbLine
 10
6647.611172538826
 20
7127.355080763497
 30
0.0
 11
6651.221527982913
 21
7127.355080763497
 31
0.0
  0
ARC
  5
DFCB
330
DBF1
100
AcDbEntity
  8
0
  6
Continuous
 62
     7
370
    25
100
AcDbCircle
 10
6647.611172538826
 20
7127.055080763496
 30
0.0
 40
0.3000000000010914
100
AcDbArc
 50
90.0
 51
156.0000000001226
  0
LINE
  5
DFCC
330
DBF1
100
AcDbEntity
  8
0
  6
Continuous
 62
     7
370
    25
100
AcDbLine
 10
6645.642286623577
 20
7123.370468594897
 30
0.0
 11
6647.337108901533
 21
7127.177101756419
 31
0.0
  0
ARC
  5
DFCD
330
DBF1
100
AcDbEntity
  8
0
  6
Continuous
 62
     7
370
    25
100
AcDbCircle
 10
6645.916350260871
 20
7123.248447601974
 30
0.0
 40
0.3000000000010772
100
AcDbArc
 50
155.9999999999639
 51
180.0
  0
LINE
  5
DFCE
330
DBF1
100
AcDbEntity
  8
0
  6
Continuous
 62
     7
370
    25
100
AcDbLine
 10
6645.61635026087
 20
7119.561120492977
 30
0.0
 11
6645.61635026087
 21
7123.248447601974
 31
0.0
  0
ARC
  5
DFCF
330
DBF1
100
AcDbEntity
  8
0
  6
Continuous
 62
     7
370
    25
100
AcDbCircle
 10
6645.916350260871
 20
7119.561120492978
 30
0.0
 40
0.300000000001057
100
AcDbArc
 50
180.0000000001737
 51
248.9624889741667
  0
LINE
  5
DFD0
330
DBF1
100
AcDbEntity
  8
0
  6
Continuous
 62
     7
370
    25
100
AcDbLine
 10
6646.724043984661
 20
7118.929044715884
 30
0.0
 11
6645.808656537076
 21
7119.281116811117
 31
0.0
  0
ARC
  5
DFD1
330
DBF1
100
AcDbEntity
  8
0
  6
Continuous
 62
     7
370
    25
100
AcDbCircle
 10
6646.616350260866
 20
7118.649041034023
 30
0.0
 40
0.3000000000009804
100
AcDbArc
 50
0.0
 51
68.96248897416665
  0
LINE
  5
DFD2
330
DBF1
100
AcDbEntity
  8
0
  6
Continuous
 62
     7
370
    25
100
AcDbLine
 10
6646.916350260867
 20
7117.255080763487
 30
0.0
 11
6646.916350260867
 21
7118.649041034023
 31
0.0
  0
ARC
  5
DFD3
330
DBF1
100
AcDbEntity
  8
0
  6
Continuous
 62
     7
370
    25
100
AcDbCircle
 10
6646.416350260867
 20
7117.255080763487
 30
0.0
 40
0.5
100
AcDbArc
 50
270.0
 51
0.0
  0
LINE
  5
DFD4
330
DBF1
100
AcDbEntity
  8
0
  6
Continuous
 62
     7
370
    25
100
AcDbLine
 10
6644.61635026087
 20
7116.755080763487
 30
0.0
 11
6646.416350260867
 21
7116.755080763487
 31
0.0
  0
ARC
  5
DFD5
330
DBF1
100
AcDbEntity
  8
0
  6
Continuous
 62
     7
370
    25
100
AcDbCircle
 10
6644.61635026087
 20
7117.255080763487
 30
0.0
 40
0.5
100
AcDbArc
 50
180.0
 51
270.0
  0
LINE
  5
DFD6
330
DBF1
100
AcDbEntity
  8
0
  6
Continuous
 62
     7
370
    25
100
AcDbLine
 10
6644.11635026087
 20
7121.455080763487
 30
0.0
 11
6644.11635026087
 21
7117.255080763487
 31
0.0
  0
ARC
  5
DFD7
330
DBF1
100
AcDbEntity
  8
0
  6
Continuous
 62
     7
370
    25
100
AcDbCircle
 10
6643.81635026087
 20
7121.455080763487
 30
0.0
 40
0.3000000000001819
100
AcDbArc
 50
0.0
 51
90.0
  0
LINE
  5
DFD8
330
DBF1
100
AcDbEntity
  8
0
  6
Continuous
 62
     7
370
    25
100
AcDbLine
 10
6642.11635026087
 20
7121.755080763487
 30
0.0
 11
6643.81635026087
 21
7121.755080763487
 31
0.0
  0
ARC
  5
DFD9
330
DBF1
100
AcDbEntity
  8
0
  6
Continuous
 62
     7
370
    25
100
AcDbCircle
 10
6642.11635026087
 20
7121.455080763487
 30
0.0
 40
0.3000000000001961
100
AcDbArc
 50
90.0
 51
180.0
  0
LINE
  5
DFDA
330
DBF1
100
AcDbEntity
  8
0
  6
Continuous
 62
     7
370
    25
100
AcDbLine
 10
6641.81635026087
 20
7117.255080763487
 30
0.0
 11
6641.81635026087
 21
7121.455080763487
 31
0.0
  0
ARC
  5
DFDB
330
DBF1
100
AcDbEntity
  8
0
  6
Continuous
 62
     7
370
    25
100
AcDbCircle
 10
6641.31635026087
 20
7117.255080763487
 30
0.0
 40
0.5
100
AcDbArc
 50
270.0
 51
0.0
  0
LINE
  5
DFDC
330
DBF1
100
AcDbEntity
  8
0
  6
Continuous
 62
     7
370
    25
100
AcDbLine
 10
6637.51635026087
 20
7116.755080763487
 30
0.0
 11
6641.31635026087
 21
7116.755080763487
 31
0.0
  0
LINE
  5
DFDD
330
DBF1
100
AcDbEntity
  8
0
  6
Continuous
 62
     7
370
    25
100
AcDbLine
 10
6637.51635026087
 20
7120.255080763487
 30
0.0
 11
6637.51635026087
 21
7116.755080763487
 31
0.0
  0
LINE
  5
DFDE
330
DBF1
100
AcDbEntity
  8
0
  6
Continuous
 62
     7
370
    25
100
AcDbLine
 10
6640.31635026087
 20
7120.255080763487
 30
0.0
 11
6637.51635026087
 21
7120.255080763487
 31
0.0
  0
LINE
  5
DFDF
330
DBF1
100
AcDbEntity
  8
0
  6
Continuous
 62
     7
370
    25
100
AcDbLine
 10
6640.31635026087
 20
7124.755080763487
 30
0.0
 11
6640.31635026087
 21
7120.255080763487
 31
0.0
  0
LINE
  5
DFE0
330
DBF1
100
AcDbEntity
  8
0
  6
Continuous
 62
     7
370
    25
100
AcDbLine
 10
6634.51635026087
 20
7124.755080763487
 30
0.0
 11
6640.31635026087
 21
7124.755080763487
 31
0.0
  0
LINE
  5
DFE1
330
DBF1
100
AcDbEntity
  8
0
  6
Continuous
 62
     7
370
    25
100
AcDbLine
 10
6633.51635026087
 20
7125.755080763487
 30
0.0
 11
6634.51635026087
 21
7124.755080763487
 31
0.0
  0
LINE
  5
DFE2
330
DBF1
100
AcDbEntity
  8
0
  6
Continuous
 62
     7
370
    25
100
AcDbLine
 10
6632.51635026087
 20
7124.755080763487
 30
0.0
 11
6633.51635026087
 21
7125.755080763487
 31
0.0
  0
LINE
  5
DFE3
330
DBF1
100
AcDbEntity
  8
0
  6
Continuous
 62
     7
370
    25
100
AcDbLine
 10
6626.71635026087
 20
7124.755080763487
 30
0.0
 11
6632.51635026087
 21
7124.755080763487
 31
0.0
  0
LINE
  5
DFE4
330
DBF1
100
AcDbEntity
  8
0
  6
Continuous
 62
     7
370
    25
100
AcDbLine
 10
6626.71635026087
 20
7120.255080763487
 30
0.0
 11
6626.71635026087
 21
7124.755080763487
 31
0.0
  0
LINE
  5
DFE5
330
DBF1
100
AcDbEntity
  8
0
  6
Continuous
 62
     7
370
    25
100
AcDbLine
 10
6629.51635026087
 20
7120.255080763487
 30
0.0
 11
6626.71635026087
 21
7120.255080763487
 31
0.0
  0
LINE
  5
DFE6
330
DBF1
100
AcDbEntity
  8
0
  6
Continuous
 62
     7
370
    25
100
AcDbLine
 10
6629.51635026087
 20
7116.755080763487
 30
0.0
 11
6629.51635026087
 21
7120.255080763487
 31
0.0
  0
LINE
  5
DFE7
330
DBF1
100
AcDbEntity
  8
0
  6
Continuous
 62
     7
370
    25
100
AcDbLine
 10
6625.71635026087
 20
7116.755080763487
 30
0.0
 11
6629.51635026087
 21
7116.755080763487
 31
0.0
  0
ARC
  5
DFE8
330
DBF1
100
AcDbEntity
  8
0
  6
Continuous
 62
     7
370
    25
100
AcDbCircle
 10
6625.71635026087
 20
7117.255080763487
 30
0.0
 40
0.5
100
AcDbArc
 50
180.0
 51
270.0
  0
LINE
  5
DFE9
330
DBF1
100
AcDbEntity
  8
0
  6
Continuous
 62
     7
370
    25
100
AcDbLine
 10
6625.21635026087
 20
7121.455080763487
 30
0.0
 11
6625.21635026087
 21
7117.255080763487
 31
0.0
  0
ARC
  5
DFEA
330
DBF1
100
AcDbEntity
  8
0
  6
Continuous
 62
     7
370
    25
100
AcDbCircle
 10
6624.91635026087
 20
7121.455080763487
 30
0.0
 40
0.3000000000001819
100
AcDbArc
 50
0.0
 51
90.0
  0
LINE
  5
DFEB
330
DBF1
100
AcDbEntity
  8
0
  6
Continuous
 62
     7
370
    25
100
AcDbLine
 10
6623.216350260869
 20
7121.755080763487
 30
0.0
 11
6624.91635026087
 21
7121.755080763487
 31
0.0
  0
ARC
  5
DFEC
330
DBF1
100
AcDbEntity
  8
0
  6
Continuous
 62
     7
370
    25
100
AcDbCircle
 10
6623.216350260869
 20
7121.455080763487
 30
0.0
 40
0.3000000000001819
100
AcDbArc
 50
90.0
 51
180.0
  0
LINE
  5
DFED
330
DBF1
100
AcDbEntity
  8
0
  6
Continuous
 62
     7
370
    25
100
AcDbLine
 10
6622.91635026087
 20
7117.255080763487
 30
0.0
 11
6622.91635026087
 21
7121.455080763487
 31
0.0
  0
ARC
  5
DFEE
330
DBF1
100
AcDbEntity
  8
0
  6
Continuous
 62
     7
370
    25
100
AcDbCircle
 10
6622.41635026087
 20
7117.255080763487
 30
0.0
 40
0.5
100
AcDbArc
 50
270.0
 51
0.0
  0
LINE
  5
DFEF
330
DBF1
100
AcDbEntity
  8
0
  6
Continuous
 62
     7
370
    25
100
AcDbLine
 10
6620.616350260872
 20
7116.755080763487
 30
0.0
 11
6622.41635026087
 21
7116.755080763487
 31
0.0
  0
ARC
  5
DFF0
330
DBF1
100
AcDbEntity
  8
0
  6
Continuous
 62
     7
370
    25
100
AcDbCircle
 10
6620.616350260872
 20
7117.255080763487
 30
0.0
 40
0.5
100
AcDbArc
 50
180.0
 51
270.0
  0
LINE
  5
DFF1
330
DBF1
100
AcDbEntity
  8
0
  6
Continuous
 62
     7
370
    25
100
AcDbLine
 10
6620.116350260872
 20
7118.649041034023
 30
0.0
 11
6620.116350260872
 21
7117.255080763487
 31
0.0
  0
ARC
  5
DFF2
330
DBF1
100
AcDbEntity
  8
0
  6
Continuous
 62
     7
370
    25
100
AcDbCircle
 10
6620.416350260874
 20
7118.649041034023
 30
0.0
 40
0.3000000000010722
100
AcDbArc
 50
111.0375110258334
 51
180.0
  0
LINE
  5
DFF3
330
DBF1
100
AcDbEntity
  8
0
  6
Continuous
 62
     7
370
    25
100
AcDbLine
 10
6621.224043984664
 20
7119.281116811117
 30
0.0
 11
6620.308656537079
 21
7118.929044715884
 31
0.0
  0
ARC
  5
DFF4
330
DBF1
100
AcDbEntity
  8
0
  6
Continuous
 62
     7
370
    25
100
AcDbCircle
 10
6621.116350260869
 20
7119.561120492977
 30
0.0
 40
0.3000000000008498
100
AcDbArc
 50
291.0375110258333
 51
0.0
  0
LINE
  5
DFF5
330
DBF1
100
AcDbEntity
  8
0
  6
Continuous
 62
     7
370
    25
100
AcDbLine
 10
6621.41635026087
 20
7123.248447601974
 30
0.0
 11
6621.416350260869
 21
7119.561120492977
 31
0.0
  0
ARC
  5
DFF6
330
DBF1
100
AcDbEntity
  8
0
  6
Continuous
 62
     7
370
    25
100
AcDbCircle
 10
6621.116350260869
 20
7123.248447601974
 30
0.0
 40
0.3000000000008612
100
AcDbArc
 50
0.0
 51
24.00000000003607
  0
LINE
  5
DFF7
330
DBF1
100
AcDbEntity
  8
0
  6
Continuous
 62
     7
370
    25
100
AcDbLine
 10
6619.695591620207
 20
7127.177101756419
 30
0.0
 11
6621.390413898162
 21
7123.370468594897
 31
0.0
  0
ARC
  5
DFF8
330
DBF1
100
AcDbEntity
  8
0
  6
Continuous
 62
     7
370
    25
100
AcDbCircle
 10
6619.421527982913
 20
7127.055080763496
 30
0.0
 40
0.3000000000010914
100
AcDbArc
 50
23.99999999987739
 51
90.0
  0
LINE
  5
DFF9
330
DBF1
100
AcDbEntity
  8
0
  6
Continuous
 62
     7
370
    25
100
AcDbLine
 10
6615.811172538826
 20
7127.355080763497
 30
0.0
 11
6619.421527982913
 21
7127.355080763497
 31
0.0
  0
ARC
  5
DFFA
330
DBF1
100
AcDbEntity
  8
0
  6
Continuous
 62
     7
370
    25
100
AcDbCircle
 10
6615.811172538826
 20
7127.055080763496
 30
0.0
 40
0.3000000000011208
100
AcDbArc
 50
90.0
 51
155.9999999999639
  0
LINE
  5
DFFB
330
DBF1
100
AcDbEntity
  8
0
  6
Continuous
 62
     7
370
    25
100
AcDbLine
 10
6613.84228662357
 20
7123.370468594901
 30
0.0
 11
6615.537108901533
 21
7127.17710175642
 31
0.0
  0
ARC
  5
DFFC
330
DBF1
100
AcDbEntity
  8
0
  6
Continuous
 62
     7
370
    25
100
AcDbCircle
 10
6614.116350260862
 20
7123.248447601977
 30
0.0
 40
0.3000000000010119
100
AcDbArc
 50
155.9999999997346
 51
180.0
  0
LINE
  5
DFFD
330
DBF1
100
AcDbEntity
  8
0
  6
Continuous
 62
     7
370
    25
100
AcDbLine
 10
6613.816350260862
 20
7119.561120492971
 30
0.0
 11
6613.816350260862
 21
7123.248447601977
 31
0.0
  0
ARC
  5
DFFE
330
DBF1
100
AcDbEntity
  8
0
  6
Continuous
 62
     7
370
    25
100
AcDbCircle
 10
6614.116350260862
 20
7119.561120492971
 30
0.0
 40
0.3000000000008569
100
AcDbArc
 50
180.0
 51
248.9624889747154
  0
LINE
  5
DFFF
330
DBF1
100
AcDbEntity
  8
0
  6
Continuous
 62
     7
370
    25
100
AcDbLine
 10
6614.924043984659
 20
7118.929044715885
 30
0.0
 11
6614.00865653707
 21
7119.28111681111
 31
0.0
  0
ARC
  5
E000
330
DBF1
100
AcDbEntity
  8
0
  6
Continuous
 62
     7
370
    25
100
AcDbCircle
 10
6614.816350260866
 20
7118.649041034023
 30
0.0
 40
0.3000000000009993
100
AcDbArc
 50
0.0
 51
68.96248897455324
  0
LINE
  5
E001
330
DBF1
100
AcDbEntity
  8
0
  6
Continuous
 62
     7
370
    25
100
AcDbLine
 10
6615.116350260867
 20
7117.255080763487
 30
0.0
 11
6615.116350260867
 21
7118.649041034023
 31
0.0
  0
ARC
  5
E002
330
DBF1
100
AcDbEntity
  8
0
  6
Continuous
 62
     7
370
    25
100
AcDbCircle
 10
6614.616350260867
 20
7117.255080763487
 30
0.0
 40
0.5
100
AcDbArc
 50
270.0
 51
0.0
  0
LINE
  5
E003
330
DBF1
100
AcDbEntity
  8
0
  6
Continuous
 62
     7
370
    25
100
AcDbLine
 10
6612.816351555868
 20
7116.755080763487
 30
0.0
 11
6614.616350260867
 21
7116.755080763487
 31
0.0
  0
ARC
  5
E004
330
DBF1
100
AcDbEntity
  8
0
  6
Continuous
 62
     7
370
    25
100
AcDbCircle
 10
6612.816351555868
 20
7117.255080763487
 30
0.0
 40
0.5
100
AcDbArc
 50
180.0
 51
270.0
  0
LINE
  5
E005
330
DBF1
100
AcDbEntity
  8
0
  6
Continuous
 62
     7
370
    25
100
AcDbLine
 10
6612.316351555868
 20
7121.455080763487
 30
0.0
 11
6612.316351555868
 21
7117.255080763487
 31
0.0
  0
ARC
  5
E006
330
DBF1
100
AcDbEntity
  8
0
  6
Continuous
 62
     7
370
    25
100
AcDbCircle
 10
6612.016351555868
 20
7121.455080763487
 30
0.0
 40
0.3000000000001819
100
AcDbArc
 50
0.0
 51
90.0
  0
LINE
  5
E007
330
DBF1
100
AcDbEntity
  8
0
  6
Continuous
 62
     7
370
    25
100
AcDbLine
 10
6610.316351555868
 20
7121.755080763487
 30
0.0
 11
6612.016351555868
 21
7121.755080763487
 31
0.0
  0
ARC
  5
E008
330
DBF1
100
AcDbEntity
  8
0
  6
Continuous
 62
     7
370
    25
100
AcDbCircle
 10
6610.316351555868
 20
7121.455080763487
 30
0.0
 40
0.3000000000001819
100
AcDbArc
 50
90.0
 51
180.0
  0
LINE
  5
E009
330
DBF1
100
AcDbEntity
  8
0
  6
Continuous
 62
     7
370
    25
100
AcDbLine
 10
6610.016351555868
 20
7117.255080763487
 30
0.0
 11
6610.016351555868
 21
7121.455080763487
 31
0.0
  0
ARC
  5
E00A
330
DBF1
100
AcDbEntity
  8
0
  6
Continuous
 62
     7
370
    25
100
AcDbCircle
 10
6609.516351555868
 20
7117.255080763487
 30
0.0
 40
0.5000000000000071
100
AcDbArc
 50
270.0
 51
0.0
  0
LINE
  5
E00B
330
DBF1
100
AcDbEntity
  8
0
  6
Continuous
 62
     7
370
    25
100
AcDbLine
 10
6608.816351555868
 20
7116.755080763487
 30
0.0
 11
6609.516351555868
 21
7116.755080763487
 31
0.0
  0
LINE
  5
E00C
330
DBF1
100
AcDbEntity
  8
0
  6
Continuous
 62
     7
370
    25
100
AcDbLine
 10
6615.816351555868
 20
7154.755080763487
 30
0.0
 11
6608.516351555868
 21
7154.755080763487
 31
0.0
  0
LINE
  5
E00D
330
DBF1
100
AcDbEntity
  8
0
  6
Continuous
 62
     7
370
    25
100
AcDbLine
 10
6615.816351555868
 20
7153.255080763487
 30
0.0
 11
6615.816351555868
 21
7154.755080763487
 31
0.0
  0
LINE
  5
E00E
330
DBF1
100
AcDbEntity
  8
0
  6
Continuous
 62
     7
370
    25
100
AcDbLine
 10
6614.516351555869
 20
7153.255080763487
 30
0.0
 11
6615.816351555868
 21
7153.255080763487
 31
0.0
  0
LINE
  5
E00F
330
DBF1
100
AcDbEntity
  8
0
  6
Continuous
 62
     7
370
    25
100
AcDbLine
 10
6614.516351555869
 20
7150.555080763487
 30
0.0
 11
6614.516351555869
 21
7153.255080763487
 31
0.0
  0
ARC
  5
E010
330
DBF1
100
AcDbEntity
  8
0
  6
Continuous
 62
     7
370
    25
100
AcDbCircle
 10
6614.216351555869
 20
7150.555080763487
 30
0.0
 40
0.3000000000001819
100
AcDbArc
 50
270.0
 51
0.0
  0
LINE
  5
E011
330
DBF1
100
AcDbEntity
  8
0
  6
Continuous
 62
     7
370
    25
100
AcDbLine
 10
6613.016351555869
 20
7150.255080763487
 30
0.0
 11
6614.216351555869
 21
7150.255080763487
 31
0.0
  0
ARC
  5
E012
330
DBF1
100
AcDbEntity
  8
0
  6
Continuous
 62
     7
370
    25
100
AcDbCircle
 10
6613.016351555869
 20
7150.555080763487
 30
0.0
 40
0.3000000000001819
100
AcDbArc
 50
180.0
 51
270.0
  0
LINE
  5
E013
330
DBF1
100
AcDbEntity
  8
0
  6
Continuous
 62
     7
370
    25
100
AcDbLine
 10
6612.716351555869
 20
7150.955080763487
 30
0.0
 11
6612.716351555869
 21
7150.555080763487
 31
0.0
  0
ARC
  5
E014
330
DBF1
100
AcDbEntity
  8
0
  6
Continuous
 62
     7
370
    25
100
AcDbCircle
 10
6612.416351555868
 20
7150.955080763487
 30
0.0
 40
0.3000000000001819
100
AcDbArc
 50
0.0
 51
90.0
  0
LINE
  5
E015
330
DBF1
100
AcDbEntity
  8
0
  6
Continuous
 62
     7
370
    25
100
AcDbLine
 10
6610.316351555868
 20
7151.255080763488
 30
0.0
 11
6612.416351555868
 21
7151.255080763488
 31
0.0
  0
ARC
  5
E016
330
DBF1
100
AcDbEntity
  8
0
  6
Continuous
 62
     7
370
    25
100
AcDbCircle
 10
6610.316351555868
 20
7150.955080763487
 30
0.0
 40
0.3000000000001819
100
AcDbArc
 50
90.0
 51
180.0
  0
LINE
  5
E017
330
DBF1
100
AcDbEntity
  8
0
  6
Continuous
 62
     7
370
    25
100
AcDbLine
 10
6610.016351555868
 20
7145.555080763487
 30
0.0
 11
6610.016351555868
 21
7150.955080763487
 31
0.0
  0
ARC
  5
E018
330
DBF1
100
AcDbEntity
  8
0
  6
Continuous
 62
     7
370
    25
100
AcDbCircle
 10
6610.316351555868
 20
7145.555080763487
 30
0.0
 40
0.3000000000001819
100
AcDbArc
 50
180.0
 51
270.0
  0
LINE
  5
E019
330
DBF1
100
AcDbEntity
  8
0
  6
Continuous
 62
     7
370
    25
100
AcDbLine
 10
6612.416351555868
 20
7145.255080763487
 30
0.0
 11
6610.316351555868
 21
7145.255080763487
 31
0.0
  0
ARC
  5
E01A
330
DBF1
100
AcDbEntity
  8
0
  6
Continuous
 62
     7
370
    25
100
AcDbCircle
 10
6612.416351555868
 20
7145.555080763487
 30
0.0
 40
0.3000000000001819
100
AcDbArc
 50
270.0
 51
0.0
  0
LINE
  5
E01B
330
DBF1
100
AcDbEntity
  8
0
  6
Continuous
 62
     7
370
    25
100
AcDbLine
 10
6612.716351555869
 20
7145.955080763488
 30
0.0
 11
6612.716351555869
 21
7145.555080763487
 31
0.0
  0
ARC
  5
E01C
330
DBF1
100
AcDbEntity
  8
0
  6
Continuous
 62
     7
370
    25
100
AcDbCircle
 10
6613.016351555868
 20
7145.955080763488
 30
0.0
 40
0.2999999999999332
100
AcDbArc
 50
90.0
 51
180.0
  0
LINE
  5
E01D
330
DBF1
100
AcDbEntity
  8
0
  6
Continuous
 62
     7
370
    25
100
AcDbLine
 10
6614.216351555868
 20
7146.255080763487
 30
0.0
 11
6613.016351555868
 21
7146.255080763487
 31
0.0
  0
ARC
  5
E01E
330
DBF1
100
AcDbEntity
  8
0
  6
Continuous
 62
     7
370
    25
100
AcDbCircle
 10
6614.216351555868
 20
7145.955080763488
 30
0.0
 40
0.3000000000000824
100
AcDbArc
 50
0.0
 51
90.0
  0
LINE
  5
E01F
330
DBF1
100
AcDbEntity
  8
0
  6
Continuous
 62
     7
370
    25
100
AcDbLine
 10
6614.516351555868
 20
7138.555080763485
 30
0.0
 11
6614.516351555868
 21
7145.955080763488
 31
0.0
  0
ARC
  5
E020
330
DBF1
100
AcDbEntity
  8
0
  6
Continuous
 62
     7
370
    25
100
AcDbCircle
 10
6614.816351555865
 20
7138.555080763485
 30
0.0
 40
0.2999999999975387
100
AcDbArc
 50
180.0
 51
270.0
  0
LINE
  5
E021
330
DBF1
100
AcDbEntity
  8
0
  6
Continuous
 62
     7
370
    25
100
AcDbLine
 10
6623.766351555868
 20
7138.255080763488
 30
0.0
 11
6614.816351555865
 21
7138.255080763487
 31
0.0
  0
ARC
  5
E022
330
DBF1
100
AcDbEntity
  8
0
  6
Continuous
 62
     7
370
    25
100
AcDbCircle
 10
6623.766351555868
 20
7137.955080763488
 30
0.0
 40
0.3000000000001819
100
AcDbArc
 50
0.0
 51
90.0
  0
LINE
  5
E023
330
DBF1
100
AcDbEntity
  8
0
  6
Continuous
 62
     7
370
    25
100
AcDbLine
 10
6624.066351555868
 20
7137.555341690236
 30
0.0
 11
6624.066351555868
 21
7137.955080763488
 31
0.0
  0
LINE
  5
E024
330
DBF1
100
AcDbEntity
  8
0
  6
Continuous
 62
     7
370
    25
100
AcDbLine
 10
6624.716351555869
 20
7137.555341690236
 30
0.0
 11
6624.066351555868
 21
7137.555341690236
 31
0.0
  0
ARC
  5
E025
330
DBF1
100
AcDbEntity
  8
0
  6
Continuous
 62
     7
370
    25
100
AcDbCircle
 10
6624.716351555869
 20
7137.055211226862
 30
0.0
 40
0.5001304633749157
100
AcDbArc
 50
270.0
 51
90.0
  0
LINE
  5
E026
330
DBF1
100
AcDbEntity
  8
0
  6
Continuous
 62
     7
370
    25
100
AcDbLine
 10
6624.066351555868
 20
7136.555080763487
 30
0.0
 11
6624.716351555869
 21
7136.555080763487
 31
0.0
  0
LINE
  5
E027
330
DBF1
100
AcDbEntity
  8
0
  6
Continuous
 62
     7
370
    25
100
AcDbLine
 10
6624.066351555868
 20
7135.755080763487
 30
0.0
 11
6624.066351555868
 21
7136.555080763487
 31
0.0
  0
LINE
  5
E028
330
DBF1
100
AcDbEntity
  8
0
  6
Continuous
 62
     7
370
    25
100
AcDbLine
 10
6614.816351555868
 20
7135.755080763487
 30
0.0
 11
6624.066351555868
 21
7135.755080763487
 31
0.0
  0
LINE
  5
E029
330
DBF1
100
AcDbEntity
  8
0
  6
Continuous
 62
     7
370
    25
100
AcDbLine
 10
6614.816351555868
 20
7128.855080763487
 30
0.0
 11
6614.816351555868
 21
7135.755080763487
 31
0.0
  0
LINE
  5
E02A
330
DBF1
100
AcDbEntity
  8
0
  6
Continuous
 62
     7
370
    25
100
AcDbLine
 10
6632.316348965871
 20
7128.855080763487
 30
0.0
 11
6614.816351555868
 21
7128.855080763487
 31
0.0
  0
LINE
  5
E02B
330
DBF1
100
AcDbEntity
  8
0
  6
Continuous
 62
     7
370
    25
100
AcDbLine
 10
6632.816348965871
 20
7128.355080763487
 30
0.0
 11
6632.316348965871
 21
7128.855080763487
 31
0.0
  0
LINE
  5
E02C
330
DBF1
100
AcDbEntity
  8
0
  6
Continuous
 62
     7
370
    25
100
AcDbLine
 10
6633.316348965872
 20
7128.855080763487
 30
0.0
 11
6632.816348965871
 21
7128.355080763487
 31
0.0
  0
LINE
  5
E02D
330
DBF1
100
AcDbEntity
  8
0
  6
Continuous
 62
     7
370
    25
100
AcDbLine
 10
6650.816351555868
 20
7128.855080763487
 30
0.0
 11
6633.316348965872
 21
7128.855080763487
 31
0.0
  0
LINE
  5
E02E
330
DBF1
100
AcDbEntity
  8
0
  6
Continuous
 62
     7
370
    25
100
AcDbLine
 10
6650.816351555868
 20
7135.755080763487
 30
0.0
 11
6650.816351555868
 21
7128.855080763487
 31
0.0
  0
LINE
  5
E02F
330
DBF1
100
AcDbEntity
  8
0
  6
Continuous
 62
     7
370
    25
100
AcDbLine
 10
6640.966351555868
 20
7135.755080763487
 30
0.0
 11
6650.816351555868
 21
7135.755080763487
 31
0.0
  0
LINE
  5
E030
330
DBF1
100
AcDbEntity
  8
0
  6
Continuous
 62
     7
370
    25
100
AcDbLine
 10
6640.966351555868
 20
7136.555080763487
 30
0.0
 11
6640.966351555868
 21
7135.755080763487
 31
0.0
  0
LINE
  5
E031
330
DBF1
100
AcDbEntity
  8
0
  6
Continuous
 62
     7
370
    25
100
AcDbLine
 10
6640.316351555868
 20
7136.555080763487
 30
0.0
 11
6640.966351555868
 21
7136.555080763487
 31
0.0
  0
ARC
  5
E032
330
DBF1
100
AcDbEntity
  8
0
  6
Continuous
 62
     7
370
    25
100
AcDbCircle
 10
6640.316351555868
 20
7137.055211226862
 30
0.0
 40
0.5001304633749157
100
AcDbArc
 50
90.0
 51
270.0
  0
LINE
  5
E033
330
DBF1
100
AcDbEntity
  8
0
  6
Continuous
 62
     7
370
    25
100
AcDbLine
 10
6640.966351555868
 20
7137.555341690236
 30
0.0
 11
6640.316351555868
 21
7137.555341690236
 31
0.0
  0
LINE
  5
E034
330
DBF1
100
AcDbEntity
  8
0
  6
Continuous
 62
     7
370
    25
100
AcDbLine
 10
6640.966351555868
 20
7137.955080763488
 30
0.0
 11
6640.966351555868
 21
7137.555341690236
 31
0.0
  0
ARC
  5
E035
330
DBF1
100
AcDbEntity
  8
0
  6
Continuous
 62
     7
370
    25
100
AcDbCircle
 10
6641.266351555868
 20
7137.955080763488
 30
0.0
 40
0.3000000000000398
100
AcDbArc
 50
90.0
 51
180.0
  0
LINE
  5
E036
330
DBF1
100
AcDbEntity
  8
0
  6
Continuous
 62
     7
370
    25
100
AcDbLine
 10
6658.516348965872
 20
7138.255080763487
 30
0.0
 11
6641.266351555868
 21
7138.255080763487
 31
0.0
  0
LINE
  5
E037
330
DBF1
100
AcDbEntity
  8
0
  6
Continuous
 62
     7
370
    25
100
AcDbLine
 10
6658.516348965872
 20
7117.055080763487
 30
0.0
 11
6658.516348965872
 21
7138.255080763487
 31
0.0
  0
ARC
  5
E038
330
DBF1
100
AcDbEntity
  8
0
  6
Continuous
 62
     7
370
    25
100
AcDbCircle
 10
6658.216348965871
 20
7117.055080763487
 30
0.0
 40
0.3000000000001819
100
AcDbArc
 50
270.0
 51
0.0
  0
ARC
  5
E039
330
DBF1
100
AcDbEntity
  8
0
  6
Continuous
 62
     7
370
    25
100
AcDbCircle
 10
6656.816348965871
 20
7123.455080763488
 30
0.0
 40
0.2000000000004434
100
AcDbArc
 50
270.0
 51
0.0
  0
LINE
  5
E03A
330
DBF1
100
AcDbEntity
  8
0
  6
Continuous
 62
     7
370
    25
100
AcDbLine
 10
6657.016348965872
 20
7123.455080763488
 30
0.0
 11
6657.016348965872
 21
7136.255080763487
 31
0.0
  0
LINE
  5
E03B
330
DBF1
100
AcDbEntity
  8
0
  6
Continuous
 62
     7
370
    25
100
AcDbLine
 10
6657.016348965872
 20
7136.255080763487
 30
0.0
 11
6652.516351555868
 21
7136.255080763487
 31
0.0
  0
LINE
  5
E03C
330
DBF1
100
AcDbEntity
  8
0
  6
Continuous
 62
     7
370
    25
100
AcDbLine
 10
6652.516351555868
 20
7136.255080763487
 30
0.0
 11
6652.516351555868
 21
7128.572327406954
 31
0.0
  0
LINE
  5
E03D
330
DBF1
100
AcDbEntity
  8
0
  6
Continuous
 62
     7
370
    25
100
AcDbLine
 10
6652.516351555868
 20
7128.572327406954
 30
0.0
 11
6654.830914715522
 21
7123.373733434872
 31
0.0
  0
ARC
  5
E03E
330
DBF1
100
AcDbEntity
  8
0
  6
Continuous
 62
     7
370
    25
100
AcDbCircle
 10
6655.013623807051
 20
7123.455080763488
 30
0.0
 40
0.2000000000004434
100
AcDbArc
 50
204.0000000002654
 51
270.0
  0
LINE
  5
E03F
330
DBF1
100
AcDbEntity
  8
0
  6
Continuous
 62
     7
370
    25
100
AcDbLine
 10
6655.013623807051
 20
7123.255080763487
 30
0.0
 11
6656.816348965871
 21
7123.255080763487
 31
0.0
  0
LINE
  5
E040
330
DBF1
100
AcDbEntity
  8
0
  6
Continuous
 62
     7
370
    25
100
AcDbLine
 10
6613.116351555868
 20
7141.755080763487
 30
0.0
 11
6613.116351555868
 21
7125.427881740732
 31
0.0
  0
LINE
  5
E041
330
DBF1
100
AcDbEntity
  8
0
  6
Continuous
 62
     7
370
    25
100
AcDbLine
 10
6613.116351555868
 20
7141.755080763487
 30
0.0
 11
6609.716351555868
 21
7141.755080763487
 31
0.0
  0
LINE
  5
E042
330
DBF1
100
AcDbEntity
  8
0
  6
Continuous
 62
     7
370
    25
100
AcDbLine
 10
6609.716351555868
 20
7123.255080763487
 30
0.0
 11
6609.716351555868
 21
7141.755080763487
 31
0.0
  0
LINE
  5
E043
330
DBF1
100
AcDbEntity
  8
0
  6
Continuous
 62
     7
370
    25
100
AcDbLine
 10
6609.716351555868
 20
7123.255080763487
 30
0.0
 11
6612.148958233328
 21
7123.255080763487
 31
0.0
  0
LINE
  5
E044
330
DBF1
100
AcDbEntity
  8
0
  6
Continuous
 62
     7
370
    25
100
AcDbLine
 10
6613.116351555868
 20
7125.427881740732
 30
0.0
 11
6612.148958233328
 21
7123.255080763487
 31
0.0
  0
LINE
  5
E045
330
DBF1
100
AcDbEntity
  8
0
  6
Continuous
 62
     7
370
    25
100
AcDbLine
 10
6608.516351555868
 20
7154.755080763487
 30
0.0
 11
6608.516351555868
 21
7117.055080763487
 31
0.0
  0
ARC
  5
E046
330
DBF1
100
AcDbEntity
  8
0
  6
Continuous
 62
     7
370
    25
100
AcDbCircle
 10
6608.816351555868
 20
7117.055080763487
 30
0.0
 40
0.3000000000001819
100
AcDbArc
 50
180.0
 51
270.0
  0
LINE
  5
E06B
330
DBF1
100
AcDbEntity
  8
0
  6
Continuous
 62
     7
370
    25
100
AcDbLine
 10
6820.1457946889
 20
7151.64298504171
 30
0.0
 11
6820.644275008826
 21
7151.64298504171
 31
0.0
  0
ARC
  5
E06C
330
DBF1
100
AcDbEntity
  8
0
  6
Continuous
 62
     7
370
    25
100
AcDbCircle
 10
6820.155694688901
 20
7151.990277377565
 30
0.0
 40
0.3474334131079054
100
AcDbArc
 50
91.63284527002821
 51
268.3671547304216
  0
LINE
  5
E06D
330
DBF1
100
AcDbEntity
  8
0
  6
Continuous
 62
     7
370
    25
100
AcDbLine
 10
6835.607727862684
 20
7152.337569713421
 30
0.0
 11
6820.145794688898
 21
7152.337569713421
 31
0.0
  0
ARC
  5
E06E
330
DBF1
100
AcDbEntity
  8
0
  6
Continuous
 62
     7
370
    25
100
AcDbCircle
 10
6835.597827862685
 20
7151.990277377565
 30
0.0
 40
0.3474334131077947
100
AcDbArc
 50
271.6328452695784
 51
88.36715473072142
  0
LINE
  5
E06F
330
DBF1
100
AcDbEntity
  8
0
  6
Continuous
 62
     7
370
    25
100
AcDbLine
 10
6835.10924754276
 20
7151.64298504171
 30
0.0
 11
6835.607727862686
 21
7151.64298504171
 31
0.0
  0
ARC
  5
E070
330
DBF1
100
AcDbEntity
  8
0
  6
Continuous
 62
     7
370
    25
100
AcDbCircle
 10
6835.10924754276
 20
7151.44498504171
 30
0.0
 40
0.1980000000000928
100
AcDbArc
 50
90.0
 51
179.9999999997368
  0
LINE
  5
E071
330
DBF1
100
AcDbEntity
  8
0
  6
Continuous
 62
     7
370
    25
100
AcDbLine
 10
6835.168901281604
 20
7150.737087212198
 30
0.0
 11
6834.91124754276
 21
7151.44498504171
 31
0.0
  0
LINE
  5
E072
330
DBF1
100
AcDbEntity
  8
0
  6
Continuous
 62
     7
370
    25
100
AcDbLine
 10
6835.542257203027
 20
7150.475660581583
 30
0.0
 11
6835.168901281604
 21
7150.737087212198
 31
0.0
  0
ARC
  5
E073
330
DBF1
100
AcDbEntity
  8
0
  6
Continuous
 62
     7
370
    25
100
AcDbCircle
 10
6835.457081102229
 20
7150.354016503006
 30
0.0
 40
0.1485000000000652
100
AcDbArc
 50
324.9999999999637
 51
54.99999999996373
  0
LINE
  5
E074
330
DBF1
100
AcDbEntity
  8
0
  6
Continuous
 62
     7
370
    25
100
AcDbLine
 10
6834.726284879554
 20
7149.051429485107
 30
0.0
 11
6835.578725180806
 21
7150.268840402207
 31
0.0
  0
ARC
  5
E075
330
DBF1
100
AcDbEntity
  8
0
  6
Continuous
 62
     7
370
    25
100
AcDbCircle
 10
6834.442448696207
 20
7149.250173720303
 30
0.0
 40
0.3465000000000132
100
AcDbArc
 50
145.0000000000377
 51
325.0000000000377
  0
LINE
  5
E076
330
DBF1
100
AcDbEntity
  8
0
  6
Continuous
 62
     7
370
    25
100
AcDbLine
 10
6834.646615668952
 20
7150.145858690154
 30
0.0
 11
6834.158612512861
 21
7149.448917955498
 31
0.0
  0
LINE
  5
E077
330
DBF1
100
AcDbEntity
  8
0
  6
Continuous
 62
     7
370
    25
100
AcDbLine
 10
6834.327773742169
 20
7151.021869684367
 30
0.0
 11
6834.646615668952
 21
7150.145858690154
 31
0.0
  0
ARC
  5
E078
330
DBF1
100
AcDbEntity
  8
0
  6
Continuous
 62
     7
370
    25
100
AcDbCircle
 10
6833.862625894879
 20
7150.85256971342
 30
0.0
 40
0.495000000000033
100
AcDbArc
 50
20.00000000005949
 51
90.0
  0
LINE
  5
E079
330
DBF1
100
AcDbEntity
  8
0
  6
Continuous
 62
     7
370
    25
100
AcDbLine
 10
6821.890896656707
 20
7151.34756971342
 30
0.0
 11
6833.862625894879
 21
7151.34756971342
 31
0.0
  0
ARC
  5
E07A
330
DBF1
100
AcDbEntity
  8
0
  6
Continuous
 62
     7
370
    25
100
AcDbCircle
 10
6821.890896656707
 20
7150.85256971342
 30
0.0
 40
0.494999999999969
100
AcDbArc
 50
90.0
 51
159.9999999999405
  0
LINE
  5
E07B
330
DBF1
100
AcDbEntity
  8
0
  6
Continuous
 62
     7
370
    25
100
AcDbLine
 10
6821.106906882635
 20
7150.145858690154
 30
0.0
 11
6821.425748809418
 21
7151.021869684367
 31
0.0
  0
LINE
  5
E07C
330
DBF1
100
AcDbEntity
  8
0
  6
Continuous
 62
     7
370
    25
100
AcDbLine
 10
6821.594910038725
 20
7149.448917955498
 30
0.0
 11
6821.106906882635
 21
7150.145858690154
 31
0.0
  0
ARC
  5
E07D
330
DBF1
100
AcDbEntity
  8
0
  6
Continuous
 62
     7
370
    25
100
AcDbCircle
 10
6821.311073855379
 20
7149.250173720303
 30
0.0
 40
0.3464999999999783
100
AcDbArc
 50
215.0000000000486
 51
34.99999999996232
  0
LINE
  5
E07E
330
DBF1
100
AcDbEntity
  8
0
  6
Continuous
 62
     7
370
    25
100
AcDbLine
 10
6820.174797370781
 20
7150.268840402207
 30
0.0
 11
6821.027237672033
 21
7149.051429485107
 31
0.0
  0
ARC
  5
E07F
330
DBF1
100
AcDbEntity
  8
0
  6
Continuous
 62
     7
370
    25
100
AcDbCircle
 10
6820.296441449357
 20
7150.354016503006
 30
0.0
 40
0.1485000000000594
100
AcDbArc
 50
125.0000000000363
 51
215.0000000003237
  0
LINE
  5
E080
330
DBF1
100
AcDbEntity
  8
0
  6
Continuous
 62
     7
370
    25
100
AcDbLine
 10
6820.584621269983
 20
7150.737087212198
 30
0.0
 11
6820.211265348559
 21
7150.475660581583
 31
0.0
  0
LINE
  5
E081
330
DBF1
100
AcDbEntity
  8
0
  6
Continuous
 62
     7
370
    25
100
AcDbLine
 10
6820.842275008826
 20
7151.44498504171
 30
0.0
 11
6820.584621269983
 21
7150.737087212198
 31
0.0
  0
ARC
  5
E082
330
DBF1
100
AcDbEntity
  8
0
  6
Continuous
 62
     7
370
    25
100
AcDbCircle
 10
6820.644275008826
 20
7151.44498504171
 30
0.0
 40
0.1979999999999791
100
AcDbArc
 50
0.0
 51
90.0
  0
LINE
  5
E083
330
DBF1
100
AcDbEntity
  8
0
  6
Continuous
 62
     7
370
    25
100
AcDbLine
 10
6592.799078476124
 20
7021.428667135454
 30
0.0
 11
6594.424078476124
 21
7021.428667135454
 31
0.0
  0
LINE
  5
E084
330
DBF1
100
AcDbEntity
  8
0
  6
Continuous
 62
     7
370
    25
100
AcDbLine
 10
6596.924078476124
 20
7021.428667135454
 30
0.0
 11
6597.924578476124
 21
7021.428667135454
 31
0.0
  0
LINE
  5
E085
330
DBF1
100
AcDbEntity
  8
0
  6
Continuous
 62
     7
370
    25
100
AcDbLine
 10
6597.924578476124
 20
7026.428667135454
 30
0.0
 11
6596.924078476124
 21
7026.428667135454
 31
0.0
  0
LINE
  5
E086
330
DBF1
100
AcDbEntity
  8
0
  6
Continuous
 62
     7
370
    25
100
AcDbLine
 10
6594.424078476124
 20
7026.428667135454
 30
0.0
 11
6592.799078476124
 21
7026.428667135454
 31
0.0
  0
LINE
  5
E087
330
DBF1
100
AcDbEntity
  8
0
  6
Continuous
 62
     7
370
    25
100
AcDbLine
 10
6592.799078476124
 20
7026.428667135446
 30
0.0
 11
6592.424078476136
 21
7025.628667135482
 31
0.0
  0
LINE
  5
E088
330
DBF1
100
AcDbEntity
  8
0
  6
Continuous
 62
     7
370
    25
100
AcDbLine
 10
6592.424078476136
 20
7022.228667135426
 30
0.0
 11
6592.799078476124
 21
7021.428667135462
 31
0.0
  0
LINE
  5
E089
330
DBF1
100
AcDbEntity
  8
0
  6
Continuous
 62
     7
370
    25
100
AcDbLine
 10
6597.924578476124
 20
7021.428667135456
 30
0.0
 11
6600.424578476122
 21
7023.928667135454
 31
0.0
  0
LINE
  5
E08A
330
DBF1
100
AcDbEntity
  8
0
  6
Continuous
 62
     7
370
    25
100
AcDbLine
 10
6600.424578476122
 20
7023.928667135455
 30
0.0
 11
6597.924578476124
 21
7026.428667135453
 31
0.0
  0
LINE
  5
E08B
330
DBF1
100
AcDbEntity
  8
0
  6
Continuous
 62
     7
370
    25
100
AcDbLine
 10
6648.924078476123
 20
6975.429167135454
 30
0.0
 11
6646.424078476124
 21
6977.929167135453
 31
0.0
  0
LINE
  5
E08C
330
DBF1
100
AcDbEntity
  8
0
  6
Continuous
 62
     7
370
    25
100
AcDbLine
 10
6646.424078476124
 20
6977.929167135453
 30
0.0
 11
6643.924078476126
 21
6975.429167135454
 31
0.0
  0
LINE
  5
E08D
330
DBF1
100
AcDbEntity
  8
0
  6
Continuous
 62
     7
370
    25
100
AcDbLine
 10
6648.924078476124
 20
6970.303667135454
 30
0.0
 11
6648.924078476124
 21
6971.928667135454
 31
0.0
  0
LINE
  5
E08E
330
DBF1
100
AcDbEntity
  8
0
  6
Continuous
 62
     7
370
    25
100
AcDbLine
 10
6648.924078476124
 20
6974.428667135454
 30
0.0
 11
6648.924078476124
 21
6975.429167135454
 31
0.0
  0
LINE
  5
E08F
330
DBF1
100
AcDbEntity
  8
0
  6
Continuous
 62
     7
370
    25
100
AcDbLine
 10
6643.924078476124
 20
6975.429167135454
 30
0.0
 11
6643.924078476124
 21
6974.428667135454
 31
0.0
  0
LINE
  5
E090
330
DBF1
100
AcDbEntity
  8
0
  6
Continuous
 62
     7
370
    25
100
AcDbLine
 10
6643.924078476124
 20
6971.928667135454
 30
0.0
 11
6643.924078476124
 21
6970.303667135454
 31
0.0
  0
LINE
  5
E091
330
DBF1
100
AcDbEntity
  8
0
  6
Continuous
 62
     7
370
    25
100
AcDbLine
 10
6643.924078476132
 20
6970.303667135454
 30
0.0
 11
6644.724078476096
 21
6969.928667135466
 31
0.0
  0
LINE
  5
E092
330
DBF1
100
AcDbEntity
  8
0
  6
Continuous
 62
     7
370
    25
100
AcDbLine
 10
6648.124078476152
 20
6969.928667135466
 30
0.0
 11
6648.924078476116
 21
6970.303667135454
 31
0.0
  0
LINE
  5
E093
330
DBF1
100
AcDbEntity
  8
0
  6
Continuous
 62
     7
370
    25
100
AcDbLine
 10
6613.924078476124
 20
6970.303667135454
 30
0.0
 11
6613.924078476124
 21
6971.928667135454
 31
0.0
  0
LINE
  5
E094
330
DBF1
100
AcDbEntity
  8
0
  6
Continuous
 62
     7
370
    25
100
AcDbLine
 10
6613.924078476124
 20
6974.428667135454
 30
0.0
 11
6613.924078476124
 21
6975.429167135454
 31
0.0
  0
LINE
  5
E095
330
DBF1
100
AcDbEntity
  8
0
  6
Continuous
 62
     7
370
    25
100
AcDbLine
 10
6608.924078476124
 20
6975.429167135454
 30
0.0
 11
6608.924078476124
 21
6974.428667135454
 31
0.0
  0
LINE
  5
E096
330
DBF1
100
AcDbEntity
  8
0
  6
Continuous
 62
     7
370
    25
100
AcDbLine
 10
6608.924078476124
 20
6971.928667135454
 30
0.0
 11
6608.924078476124
 21
6970.303667135454
 31
0.0
  0
LINE
  5
E097
330
DBF1
100
AcDbEntity
  8
0
  6
Continuous
 62
     7
370
    25
100
AcDbLine
 10
6613.924078476122
 20
6975.429167135454
 30
0.0
 11
6611.424078476124
 21
6977.929167135452
 31
0.0
  0
LINE
  5
E098
330
DBF1
100
AcDbEntity
  8
0
  6
Continuous
 62
     7
370
    25
100
AcDbLine
 10
6611.424078476123
 20
6977.929167135453
 30
0.0
 11
6608.924078476125
 21
6975.429167135454
 31
0.0
  0
LINE
  5
E099
330
DBF1
100
AcDbEntity
  8
0
  6
Continuous
 62
     7
370
    25
100
AcDbLine
 10
6608.924078476132
 20
6970.303667135454
 30
0.0
 11
6609.724078476096
 21
6969.928667135466
 31
0.0
  0
LINE
  5
E09A
330
DBF1
100
AcDbEntity
  8
0
  6
Continuous
 62
     7
370
    25
100
AcDbLine
 10
6613.124078476152
 20
6969.928667135466
 30
0.0
 11
6613.924078476116
 21
6970.303667135454
 31
0.0
  0
LINE
  5
E09B
330
DBF1
100
AcDbEntity
  8
0
  6
Continuous
 62
     7
370
    25
100
AcDbLine
 10
6592.799078476124
 20
6991.428667135446
 30
0.0
 11
6592.424078476136
 21
6990.628667135482
 31
0.0
  0
LINE
  5
E09C
330
DBF1
100
AcDbEntity
  8
0
  6
Continuous
 62
     7
370
    25
100
AcDbLine
 10
6592.424078476136
 20
6987.228667135426
 30
0.0
 11
6592.799078476124
 21
6986.428667135462
 31
0.0
  0
LINE
  5
E09D
330
DBF1
100
AcDbEntity
  8
0
  6
Continuous
 62
     7
370
    25
100
AcDbLine
 10
6592.799078476124
 20
6986.428667135454
 30
0.0
 11
6594.424078476124
 21
6986.428667135454
 31
0.0
  0
LINE
  5
E09E
330
DBF1
100
AcDbEntity
  8
0
  6
Continuous
 62
     7
370
    25
100
AcDbLine
 10
6596.924078476124
 20
6986.428667135454
 30
0.0
 11
6597.924578476124
 21
6986.428667135454
 31
0.0
  0
LINE
  5
E09F
330
DBF1
100
AcDbEntity
  8
0
  6
Continuous
 62
     7
370
    25
100
AcDbLine
 10
6597.924578476124
 20
6991.428667135454
 30
0.0
 11
6596.924078476124
 21
6991.428667135454
 31
0.0
  0
LINE
  5
E0A0
330
DBF1
100
AcDbEntity
  8
0
  6
Continuous
 62
     7
370
    25
100
AcDbLine
 10
6594.424078476124
 20
6991.428667135454
 30
0.0
 11
6592.799078476124
 21
6991.428667135454
 31
0.0
  0
LINE
  5
E0A1
330
DBF1
100
AcDbEntity
  8
0
  6
Continuous
 62
     7
370
    25
100
AcDbLine
 10
6597.924578476124
 20
6986.428667135456
 30
0.0
 11
6600.424578476122
 21
6988.928667135454
 31
0.0
  0
LINE
  5
E0A2
330
DBF1
100
AcDbEntity
  8
0
  6
Continuous
 62
     7
370
    25
100
AcDbLine
 10
6600.424578476122
 20
6988.928667135455
 30
0.0
 11
6597.924578476124
 21
6991.428667135453
 31
0.0
  0
LINE
  5
E0A3
330
DBF1
100
AcDbEntity
  8
0
  6
Continuous
 62
     7
370
    25
100
AcDbLine
 10
6592.799078476124
 20
7021.741863933287
 30
0.0
 11
6592.799078476124
 21
7021.428667135454
 31
0.0
  0
LINE
  5
E0A4
330
DBF1
100
AcDbEntity
  8
0
  6
Continuous
 62
     7
370
    25
100
AcDbLine
 10
6592.799078476124
 20
7026.428667135454
 30
0.0
 11
6592.799078476124
 21
7021.741863933287
 31
0.0
  0
LINE
  5
E0A5
330
DBF1
100
AcDbEntity
  8
0
  6
Continuous
 62
     7
370
    25
100
AcDbLine
 10
6597.924578476124
 20
7021.741863933287
 30
0.0
 11
6597.924578476124
 21
7026.428667135455
 31
0.0
  0
LINE
  5
E0A6
330
DBF1
100
AcDbEntity
  8
0
  6
Continuous
 62
     7
370
    25
100
AcDbLine
 10
6597.924578476124
 20
7021.428667135455
 30
0.0
 11
6597.924578476124
 21
7021.741863933287
 31
0.0
  0
LINE
  5
E0A7
330
DBF1
100
AcDbEntity
  8
0
  6
Continuous
 62
     7
370
    25
100
AcDbLine
 10
6592.424078476136
 20
7022.441640957956
 30
0.0
 11
6592.424078476136
 21
7022.228667135426
 31
0.0
  0
LINE
  5
E0A8
330
DBF1
100
AcDbEntity
  8
0
  6
Continuous
 62
     7
370
    25
100
AcDbLine
 10
6592.424078476136
 20
7025.628667135482
 30
0.0
 11
6592.424078476136
 21
7022.441640957956
 31
0.0
  0
LINE
  5
E0A9
330
DBF1
100
AcDbEntity
  8
0
  6
Continuous
 62
     7
370
    25
100
AcDbLine
 10
6648.924078476123
 20
6975.429167135454
 30
0.0
 11
6643.924078476126
 21
6975.429167135454
 31
0.0
  0
LINE
  5
E0AA
330
DBF1
100
AcDbEntity
  8
0
  6
Continuous
 62
     7
370
    25
100
AcDbLine
 10
6643.924078476124
 20
6970.303667135454
 30
0.0
 11
6648.924078476124
 21
6970.303667135454
 31
0.0
  0
LINE
  5
E0AB
330
DBF1
100
AcDbEntity
  8
0
  6
Continuous
 62
     7
370
    25
100
AcDbLine
 10
6644.724078476096
 20
6969.928667135466
 30
0.0
 11
6648.124078476152
 21
6969.928667135466
 31
0.0
  0
LINE
  5
E0AC
330
DBF1
100
AcDbEntity
  8
0
  6
Continuous
 62
     7
370
    25
100
AcDbLine
 10
6608.924078476124
 20
6970.303667135454
 30
0.0
 11
6613.924078476124
 21
6970.303667135454
 31
0.0
  0
LINE
  5
E0AD
330
DBF1
100
AcDbEntity
  8
0
  6
Continuous
 62
     7
370
    25
100
AcDbLine
 10
6613.924078476123
 20
6975.429167135454
 30
0.0
 11
6608.924078476123
 21
6975.429167135454
 31
0.0
  0
LINE
  5
E0AE
330
DBF1
100
AcDbEntity
  8
0
  6
Continuous
 62
     7
370
    25
100
AcDbLine
 10
6609.724078476096
 20
6969.928667135466
 30
0.0
 11
6613.124078476152
 21
6969.928667135466
 31
0.0
  0
LINE
  5
E0AF
330
DBF1
100
AcDbEntity
  8
0
  6
Continuous
 62
     7
370
    25
100
AcDbLine
 10
6592.424078476136
 20
6987.441640957956
 30
0.0
 11
6592.424078476136
 21
6987.228667135426
 31
0.0
  0
LINE
  5
E0B0
330
DBF1
100
AcDbEntity
  8
0
  6
Continuous
 62
     7
370
    25
100
AcDbLine
 10
6592.424078476136
 20
6990.628667135482
 30
0.0
 11
6592.424078476136
 21
6987.441640957956
 31
0.0
  0
LINE
  5
E0B1
330
DBF1
100
AcDbEntity
  8
0
  6
Continuous
 62
     7
370
    25
100
AcDbLine
 10
6592.799078476124
 20
6986.741863933287
 30
0.0
 11
6592.799078476124
 21
6986.428667135462
 31
0.0
  0
LINE
  5
E0B2
330
DBF1
100
AcDbEntity
  8
0
  6
Continuous
 62
     7
370
    25
100
AcDbLine
 10
6592.799078476124
 20
6991.428667135446
 30
0.0
 11
6592.799078476124
 21
6986.741863933287
 31
0.0
  0
LINE
  5
E0B3
330
DBF1
100
AcDbEntity
  8
0
  6
Continuous
 62
     7
370
    25
100
AcDbLine
 10
6597.924578476124
 20
6986.741863933287
 30
0.0
 11
6597.924578476124
 21
6991.428667135455
 31
0.0
  0
LINE
  5
E0B4
330
DBF1
100
AcDbEntity
  8
0
  6
Continuous
 62
     7
370
    25
100
AcDbLine
 10
6597.924578476124
 20
6986.428667135455
 30
0.0
 11
6597.924578476124
 21
6986.741863933287
 31
0.0
  0
ARC
  5
E0B5
330
DBF1
100
AcDbEntity
  8
0
  6
Continuous
 62
     7
370
    25
100
AcDbCircle
 10
6599.424078476124
 20
6976.928667135454
 30
0.0
 40
5.0
100
AcDbArc
 50
180.0
 51
270.0
  0
LINE
  5
E0B6
330
DBF1
100
AcDbEntity
  8
0
  6
Continuous
 62
     7
370
    25
100
AcDbLine
 10
6596.924078476124
 20
7028.928667135454
 30
0.0
 11
6594.424078476124
 21
7028.928667135454
 31
0.0
  0
LINE
  5
E0B7
330
DBF1
100
AcDbEntity
  8
0
  6
Continuous
 62
     7
370
    25
100
AcDbLine
 10
6651.424078476124
 20
6971.928667135454
 30
0.0
 11
6651.424078476124
 21
6974.428667135454
 31
0.0
  0
LINE
  5
E0B8
330
DBF1
100
AcDbEntity
  8
0
  6
Continuous
 62
     7
370
    25
100
AcDbLine
 10
6651.424078476124
 20
6971.928667135454
 30
0.0
 11
6599.424078476124
 21
6971.928667135454
 31
0.0
  0
LINE
  5
E0B9
330
DBF1
100
AcDbEntity
  8
0
  6
Continuous
 62
     7
370
    25
100
AcDbLine
 10
6599.424078476124
 20
6974.428667135454
 30
0.0
 11
6651.424078476124
 21
6974.428667135454
 31
0.0
  0
LINE
  5
E0BA
330
DBF1
100
AcDbEntity
  8
0
  6
Continuous
 62
     7
370
    25
100
AcDbLine
 10
6596.924078476124
 20
7028.928667135454
 30
0.0
 11
6596.924078476124
 21
6976.928667135454
 31
0.0
  0
ARC
  5
E0BB
330
DBF1
100
AcDbEntity
  8
0
  6
Continuous
 62
     7
370
    25
100
AcDbCircle
 10
6599.424078476124
 20
6976.928667135454
 30
0.0
 40
2.5
100
AcDbArc
 50
180.0
 51
270.0
  0
LINE
  5
E0BC
330
DBF1
100
AcDbEntity
  8
0
  6
Continuous
 62
     7
370
    25
100
AcDbLine
 10
6594.424078476124
 20
6976.928667135454
 30
0.0
 11
6594.424078476124
 21
7028.928667135454
 31
0.0
  0
LINE
  5
E0BD
330
DBF1
100
AcDbEntity
  8
0
  6
Continuous
 62
     7
370
    25
100
AcDbLine
 10
6594.424078476124
 20
7031.928667135454
 30
0.0
 11
6596.924078476124
 21
7031.928667135454
 31
0.0
  0
LINE
  5
E0BE
330
DBF1
100
AcDbEntity
  8
0
  6
Continuous
 62
     7
370
    25
100
AcDbLine
 10
6596.924078476124
 20
7031.928667135454
 30
0.0
 11
6596.924078476124
 21
7028.928667135454
 31
0.0
  0
LINE
  5
E0BF
330
DBF1
100
AcDbEntity
  8
0
  6
Continuous
 62
     7
370
    25
100
AcDbLine
 10
6594.424078476124
 20
7028.928667135454
 30
0.0
 11
6594.424078476124
 21
7031.928667135454
 31
0.0
  0
LINE
  5
E0C0
330
DBF1
100
AcDbEntity
  8
0
  6
Continuous
 62
     7
370
    25
100
AcDbLine
 10
6654.424078476124
 20
6974.428667135454
 30
0.0
 11
6654.424078476124
 21
6971.928667135454
 31
0.0
  0
LINE
  5
E0C1
330
DBF1
100
AcDbEntity
  8
0
  6
Continuous
 62
     7
370
    25
100
AcDbLine
 10
6654.424078476124
 20
6971.928667135454
 30
0.0
 11
6651.424078476124
 21
6971.928667135454
 31
0.0
  0
LINE
  5
E0C2
330
DBF1
100
AcDbEntity
  8
0
  6
Continuous
 62
     7
370
    25
100
AcDbLine
 10
6651.424078476124
 20
6974.428667135454
 30
0.0
 11
6654.424078476124
 21
6974.428667135454
 31
0.0
  0
LINE
  5
E0C3
330
DBF1
100
AcDbEntity
  8
0
  6
Continuous
 62
     7
370
    25
100
AcDbLine
 10
6597.924578476124
 20
6918.273336396156
 30
0.0
 11
6600.424578476122
 21
6920.773336396154
 31
0.0
  0
LINE
  5
E0C4
330
DBF1
100
AcDbEntity
  8
0
  6
Continuous
 62
     7
370
    25
100
AcDbLine
 10
6600.424578476122
 20
6920.773336396154
 30
0.0
 11
6597.924578476124
 21
6923.273336396153
 31
0.0
  0
LINE
  5
E0C5
330
DBF1
100
AcDbEntity
  8
0
  6
Continuous
 62
     7
370
    25
100
AcDbLine
 10
6592.799078476124
 20
6918.273336396154
 30
0.0
 11
6594.424078476124
 21
6918.273336396154
 31
0.0
  0
LINE
  5
E0C6
330
DBF1
100
AcDbEntity
  8
0
  6
Continuous
 62
     7
370
    25
100
AcDbLine
 10
6596.924078476124
 20
6918.273336396154
 30
0.0
 11
6597.924578476124
 21
6918.273336396154
 31
0.0
  0
LINE
  5
E0C7
330
DBF1
100
AcDbEntity
  8
0
  6
Continuous
 62
     7
370
    25
100
AcDbLine
 10
6597.924578476124
 20
6923.273336396154
 30
0.0
 11
6596.924078476124
 21
6923.273336396154
 31
0.0
  0
LINE
  5
E0C8
330
DBF1
100
AcDbEntity
  8
0
  6
Continuous
 62
     7
370
    25
100
AcDbLine
 10
6594.424078476124
 20
6923.273336396154
 30
0.0
 11
6592.799078476124
 21
6923.273336396154
 31
0.0
  0
LINE
  5
E0C9
330
DBF1
100
AcDbEntity
  8
0
  6
Continuous
 62
     7
370
    25
100
AcDbLine
 10
6592.799078476124
 20
6923.273336396146
 30
0.0
 11
6592.424078476136
 21
6922.473336396182
 31
0.0
  0
LINE
  5
E0CA
330
DBF1
100
AcDbEntity
  8
0
  6
Continuous
 62
     7
370
    25
100
AcDbLine
 10
6592.424078476136
 20
6919.073336396126
 30
0.0
 11
6592.799078476124
 21
6918.273336396162
 31
0.0
  0
LINE
  5
E0CB
330
DBF1
100
AcDbEntity
  8
0
  6
Continuous
 62
     7
370
    25
100
AcDbLine
 10
6597.924578476124
 20
6918.273336396156
 30
0.0
 11
6597.924578476124
 21
6923.273336396153
 31
0.0
  0
LINE
  5
E0CC
330
DBF1
100
AcDbEntity
  8
0
  6
Continuous
 62
     7
370
    25
100
AcDbLine
 10
6592.799078476124
 20
6923.273336396154
 30
0.0
 11
6592.799078476124
 21
6918.273336396154
 31
0.0
  0
LINE
  5
E0CD
330
DBF1
100
AcDbEntity
  8
0
  6
Continuous
 62
     7
370
    25
100
AcDbLine
 10
6592.424078476136
 20
6922.473336396182
 30
0.0
 11
6592.424078476136
 21
6919.073336396126
 31
0.0
  0
CIRCLE
  5
E0CE
330
DBF1
100
AcDbEntity
  8
0
  6
Continuous
 62
     7
370
    25
100
AcDbCircle
 10
6646.424078476124
 20
6920.773336396154
 30
0.0
 40
2.499999999999992
  0
CIRCLE
  5
E0CF
330
DBF1
100
AcDbEntity
  8
0
  6
Continuous
 62
     7
370
    25
100
AcDbCircle
 10
6611.424078476123
 20
6920.773336396154
 30
0.0
 40
2.5
  0
LINE
  5
E0D0
330
DBF1
100
AcDbEntity
  8
0
  6
Continuous
 62
     7
370
    25
100
AcDbLine
 10
6594.424078476124
 20
6927.273336396154
 30
0.0
 11
6596.924078476124
 21
6927.273336396154
 31
0.0
  0
LINE
  5
E0D1
330
DBF1
100
AcDbEntity
  8
0
  6
Continuous
 62
     7
370
    25
100
AcDbLine
 10
6596.924078476124
 20
6924.273336396154
 30
0.0
 11
6594.424078476124
 21
6924.273336396154
 31
0.0
  0
LINE
  5
E0D2
330
DBF1
100
AcDbEntity
  8
0
  6
Continuous
 62
     7
370
    25
100
AcDbLine
 10
6594.424078476124
 20
6924.273336396154
 30
0.0
 11
6594.424078476124
 21
6927.273336396154
 31
0.0
  0
LINE
  5
E0D3
330
DBF1
100
AcDbEntity
  8
0
  6
Continuous
 62
     7
370
    25
100
AcDbLine
 10
6596.924078476124
 20
6927.273336396154
 30
0.0
 11
6596.924078476124
 21
6924.273336396154
 31
0.0
  0
LINE
  5
E0D4
330
DBF1
100
AcDbEntity
  8
0
  6
Continuous
 62
     7
370
    25
100
AcDbLine
 10
6594.424078476124
 20
6917.273336396154
 30
0.0
 11
6596.924078476124
 21
6917.273336396154
 31
0.0
  0
LINE
  5
E0D5
330
DBF1
100
AcDbEntity
  8
0
  6
Continuous
 62
     7
370
    25
100
AcDbLine
 10
6594.424078476124
 20
6924.273336396154
 30
0.0
 11
6594.424078476124
 21
6917.273336396154
 31
0.0
  0
LINE
  5
E0D6
330
DBF1
100
AcDbEntity
  8
0
  6
Continuous
 62
     7
370
    25
100
AcDbLine
 10
6596.924078476124
 20
6924.273336396154
 30
0.0
 11
6596.924078476124
 21
6917.273336396154
 31
0.0
  0
LINE
  5
E0D7
330
DBF1
100
AcDbEntity
  8
0
  6
Continuous
 62
     7
370
    25
100
AcDbLine
 10
6596.924078476124
 20
6914.273336396154
 30
0.0
 11
6594.424078476124
 21
6914.273336396154
 31
0.0
  0
LINE
  5
E0D8
330
DBF1
100
AcDbEntity
  8
0
  6
Continuous
 62
     7
370
    25
100
AcDbLine
 10
6594.424078476124
 20
6914.273336396154
 30
0.0
 11
6594.424078476124
 21
6917.273336396154
 31
0.0
  0
LINE
  5
E0D9
330
DBF1
100
AcDbEntity
  8
0
  6
Continuous
 62
     7
370
    25
100
AcDbLine
 10
6596.924078476124
 20
6917.273336396154
 30
0.0
 11
6596.924078476124
 21
6914.273336396154
 31
0.0
  0
LINE
  5
E0DA
330
DBF1
100
AcDbEntity
  8
0
  6
Continuous
 62
     7
370
    25
100
AcDbLine
 10
6599.424078476124
 20
6914.273336396154
 30
0.0
 11
6596.924078476124
 21
6914.273336396154
 31
0.0
  0
LINE
  5
E0DB
330
DBF1
100
AcDbEntity
  8
0
  6
Continuous
 62
     7
370
    25
100
AcDbLine
 10
6596.924078476124
 20
6927.273336396154
 30
0.0
 11
6599.424078476124
 21
6927.273336396154
 31
0.0
  0
LINE
  5
E0DC
330
DBF1
100
AcDbEntity
  8
0
  6
Continuous
 62
     7
370
    25
100
AcDbLine
 10
6654.424078476124
 20
6924.273336396154
 30
0.0
 11
6651.424078476124
 21
6927.273336396154
 31
0.0
  0
LINE
  5
E0DD
330
DBF1
100
AcDbEntity
  8
0
  6
Continuous
 62
     7
370
    25
100
AcDbLine
 10
6654.424078476124
 20
6924.273336396154
 30
0.0
 11
6654.424078476124
 21
6917.273336396154
 31
0.0
  0
LINE
  5
E0DE
330
DBF1
100
AcDbEntity
  8
0
  6
Continuous
 62
     7
370
    25
100
AcDbLine
 10
6651.424078476124
 20
6914.273336396154
 30
0.0
 11
6654.424078476124
 21
6917.273336396154
 31
0.0
  0
LINE
  5
E0DF
330
DBF1
100
AcDbEntity
  8
0
  6
Continuous
 62
     7
370
    25
100
AcDbLine
 10
6599.424078476124
 20
6914.273336396154
 30
0.0
 11
6651.424078476124
 21
6914.273336396154
 31
0.0
  0
LINE
  5
E0E0
330
DBF1
100
AcDbEntity
  8
0
  6
Continuous
 62
     7
370
    25
100
AcDbLine
 10
6599.424078476124
 20
6927.273336396154
 30
0.0
 11
6651.424078476124
 21
6927.273336396154
 31
0.0
  0
LINE
  5
E0E1
330
DBF1
100
AcDbEntity
  8
0
  6
Continuous
 62
     8
370
    25
100
AcDbLine
 10
6599.424078476124
 20
6927.273336396154
 30
0.0
 11
6599.424078476124
 21
6921.773836396153
 31
0.0
  0
LINE
  5
E0E2
330
DBF1
100
AcDbEntity
  8
0
  6
Continuous
 62
     8
370
    25
100
AcDbLine
 10
6599.424078476124
 20
6919.772836396156
 30
0.0
 11
6599.424078476124
 21
6914.273336396154
 31
0.0
  0
LINE
  5
E0E3
330
DBF1
100
AcDbEntity
  8
0
  6
Continuous
 62
     7
370
    25
100
AcDbLine
 10
6707.651082367175
 20
6970.303667135454
 30
0.0
 11
6707.651082367175
 21
6971.928667135454
 31
0.0
  0
LINE
  5
E0E4
330
DBF1
100
AcDbEntity
  8
0
  6
Continuous
 62
     7
370
    25
100
AcDbLine
 10
6702.651082367175
 20
6971.928667135454
 30
0.0
 11
6702.651082367175
 21
6970.303667135454
 31
0.0
  0
LINE
  5
E0E5
330
DBF1
100
AcDbEntity
  8
0
  6
Continuous
 62
     7
370
    25
100
AcDbLine
 10
6702.651082367183
 20
6970.303667135454
 30
0.0
 11
6703.451082367147
 21
6969.928667135466
 31
0.0
  0
LINE
  5
E0E6
330
DBF1
100
AcDbEntity
  8
0
  6
Continuous
 62
     7
370
    25
100
AcDbLine
 10
6706.851082367203
 20
6969.928667135466
 30
0.0
 11
6707.651082367167
 21
6970.303667135454
 31
0.0
  0
CIRCLE
  5
E0E7
330
DBF1
100
AcDbEntity
  8
0
  6
Continuous
 62
     7
370
    25
100
AcDbCircle
 10
6705.151082367175
 20
7023.928667135454
 30
0.0
 40
1.700000000028012
  0
LINE
  5
E0E8
330
DBF1
100
AcDbEntity
  8
0
  6
Continuous
 62
     7
370
    25
100
AcDbLine
 10
6706.388140989772
 20
7023.185014462769
 30
0.0
 11
6706.413633784611
 21
7024.628164992251
 31
0.0
  0
LINE
  5
E0E9
330
DBF1
100
AcDbEntity
  8
0
  6
Continuous
 62
     7
370
    25
100
AcDbLine
 10
6706.413633784611
 20
7024.628164992251
 30
0.0
 11
6705.176575162014
 21
7025.371817664936
 31
0.0
  0
LINE
  5
E0EA
330
DBF1
100
AcDbEntity
  8
0
  6
Continuous
 62
     7
370
    25
100
AcDbLine
 10
6705.176575162014
 20
7025.371817664936
 30
0.0
 11
6703.914023744578
 21
7024.672319808139
 31
0.0
  0
LINE
  5
E0EB
330
DBF1
100
AcDbEntity
  8
0
  6
Continuous
 62
     7
370
    25
100
AcDbLine
 10
6703.914023744578
 20
7024.672319808139
 30
0.0
 11
6703.888530949739
 21
7023.229169278657
 31
0.0
  0
LINE
  5
E0EC
330
DBF1
100
AcDbEntity
  8
0
  6
Continuous
 62
     7
370
    25
100
AcDbLine
 10
6705.125589572336
 20
7022.485516605972
 30
0.0
 11
6703.888530949739
 21
7023.229169278657
 31
0.0
  0
LINE
  5
E0ED
330
DBF1
100
AcDbEntity
  8
0
  6
Continuous
 62
     7
370
    25
100
AcDbLine
 10
6705.125589572336
 20
7022.485516605972
 30
0.0
 11
6706.388140989772
 21
7023.185014462769
 31
0.0
  0
CIRCLE
  5
E0EE
330
DBF1
100
AcDbEntity
  8
0
  6
Continuous
 62
     7
370
    25
100
AcDbCircle
 10
6705.151082367175
 20
7023.928667135454
 30
0.0
 40
2.499999999999996
  0
LINE
  5
E0EF
330
DBF1
100
AcDbEntity
  8
0
  6
Continuous
 62
     7
370
    25
100
AcDbLine
 10
6702.651082367175
 20
6970.303667135454
 30
0.0
 11
6707.651082367175
 21
6970.303667135454
 31
0.0
  0
LINE
  5
E0F0
330
DBF1
100
AcDbEntity
  8
0
  6
Continuous
 62
     7
370
    25
100
AcDbLine
 10
6703.451082367147
 20
6969.928667135466
 30
0.0
 11
6706.851082367203
 21
6969.928667135466
 31
0.0
  0
CIRCLE
  5
E0F1
330
DBF1
100
AcDbEntity
  8
0
  6
Continuous
 62
     7
370
    25
100
AcDbCircle
 10
6705.151082367175
 20
6988.928667135454
 30
0.0
 40
1.700000000028012
  0
LINE
  5
E0F2
330
DBF1
100
AcDbEntity
  8
0
  6
Continuous
 62
     7
370
    25
100
AcDbLine
 10
6706.388140989772
 20
6988.185014462769
 30
0.0
 11
6706.413633784611
 21
6989.628164992251
 31
0.0
  0
LINE
  5
E0F3
330
DBF1
100
AcDbEntity
  8
0
  6
Continuous
 62
     7
370
    25
100
AcDbLine
 10
6706.413633784611
 20
6989.628164992251
 30
0.0
 11
6705.176575162014
 21
6990.371817664936
 31
0.0
  0
LINE
  5
E0F4
330
DBF1
100
AcDbEntity
  8
0
  6
Continuous
 62
     7
370
    25
100
AcDbLine
 10
6705.176575162014
 20
6990.371817664936
 30
0.0
 11
6703.914023744578
 21
6989.672319808139
 31
0.0
  0
LINE
  5
E0F5
330
DBF1
100
AcDbEntity
  8
0
  6
Continuous
 62
     7
370
    25
100
AcDbLine
 10
6703.914023744578
 20
6989.672319808139
 30
0.0
 11
6703.888530949739
 21
6988.229169278657
 31
0.0
  0
LINE
  5
E0F6
330
DBF1
100
AcDbEntity
  8
0
  6
Continuous
 62
     7
370
    25
100
AcDbLine
 10
6705.125589572336
 20
6987.485516605972
 30
0.0
 11
6703.888530949739
 21
6988.229169278657
 31
0.0
  0
LINE
  5
E0F7
330
DBF1
100
AcDbEntity
  8
0
  6
Continuous
 62
     7
370
    25
100
AcDbLine
 10
6705.125589572336
 20
6987.485516605972
 30
0.0
 11
6706.388140989772
 21
6988.185014462769
 31
0.0
  0
CIRCLE
  5
E0F8
330
DBF1
100
AcDbEntity
  8
0
  6
Continuous
 62
     7
370
    25
100
AcDbCircle
 10
6705.151082367175
 20
6988.928667135454
 30
0.0
 40
2.500000000000024
  0
LINE
  5
E0F9
330
DBF1
100
AcDbEntity
  8
0
  6
Continuous
 62
     7
370
    25
100
AcDbLine
 10
6698.651082367175
 20
6976.928667135454
 30
0.0
 11
6711.651082367175
 21
6976.928667135454
 31
0.0
  0
LINE
  5
E0FA
330
DBF1
100
AcDbEntity
  8
0
  6
Continuous
 62
     7
370
    25
100
AcDbLine
 10
6711.651082367175
 20
6976.928667135454
 30
0.0
 11
6711.651082367175
 21
6971.928667135454
 31
0.0
  0
LINE
  5
E0FB
330
DBF1
100
AcDbEntity
  8
0
  6
Continuous
 62
     7
370
    25
100
AcDbLine
 10
6711.651082367175
 20
6971.928667135454
 30
0.0
 11
6698.651082367175
 21
6971.928667135454
 31
0.0
  0
LINE
  5
E0FC
330
DBF1
100
AcDbEntity
  8
0
  6
Continuous
 62
     7
370
    25
100
AcDbLine
 10
6698.651082367175
 20
6971.928667135454
 30
0.0
 11
6698.651082367175
 21
6976.928667135454
 31
0.0
  0
LINE
  5
E0FD
330
DBF1
100
AcDbEntity
  8
0
  6
Continuous
 62
     7
370
    25
100
AcDbLine
 10
6711.651082367175
 20
7028.928667135454
 30
0.0
 11
6708.651082367175
 21
7031.928667135454
 31
0.0
  0
LINE
  5
E0FE
330
DBF1
100
AcDbEntity
  8
0
  6
Continuous
 62
     7
370
    25
100
AcDbLine
 10
6711.651082367175
 20
6976.928667135454
 30
0.0
 11
6711.651082367175
 21
7028.928667135454
 31
0.0
  0
LINE
  5
E0FF
330
DBF1
100
AcDbEntity
  8
0
  6
Continuous
 62
     7
370
    25
100
AcDbLine
 10
6701.651082367175
 20
7031.928667135454
 30
0.0
 11
6698.651082367175
 21
7028.928667135454
 31
0.0
  0
LINE
  5
E100
330
DBF1
100
AcDbEntity
  8
0
  6
Continuous
 62
     7
370
    25
100
AcDbLine
 10
6701.651082367175
 20
7031.928667135454
 30
0.0
 11
6708.651082367175
 21
7031.928667135454
 31
0.0
  0
LINE
  5
E101
330
DBF1
100
AcDbEntity
  8
0
  6
Continuous
 62
     7
370
    25
100
AcDbLine
 10
6698.651082367175
 20
6976.928667135454
 30
0.0
 11
6698.651082367175
 21
7028.928667135454
 31
0.0
  0
LINE
  5
E102
330
DBF1
100
AcDbEntity
  8
0
  6
Continuous
 62
     7
370
    25
100
AcDbLine
 10
6682.994858288808
 20
6945.367619380489
 30
0.0
 11
6684.762337929928
 21
6946.388295381866
 31
0.0
  0
LINE
  5
E103
330
DBF1
100
AcDbEntity
  8
0
  6
Continuous
 62
     7
370
    25
100
AcDbLine
 10
6684.762337929928
 20
6946.388295381866
 30
0.0
 11
6684.762337929928
 21
6948.429315661421
 31
0.0
  0
LINE
  5
E104
330
DBF1
100
AcDbEntity
  8
0
  6
Continuous
 62
     7
370
    25
100
AcDbLine
 10
6681.03721222659
 20
6945.652091523631
 30
0.0
 11
6681.744672561167
 21
6945.243683365691
 31
0.0
  0
LINE
  5
E105
330
DBF1
100
AcDbEntity
  8
0
  6
Continuous
 62
     7
370
    25
100
AcDbLine
 10
6684.244469392757
 20
6949.573927677595
 30
0.0
 11
6683.53700905818
 21
6949.982335835534
 31
0.0
  0
LINE
  5
E106
330
DBF1
100
AcDbEntity
  8
0
  6
Continuous
 62
     7
370
    25
100
AcDbLine
 10
6719.056950505905
 20
6889.029636097574
 30
0.0
 11
6717.288896311119
 21
6890.050643835631
 31
0.0
  0
LINE
  5
E107
330
DBF1
100
AcDbEntity
  8
0
  6
Continuous
 62
     7
370
    25
100
AcDbLine
 10
6717.288896311119
 20
6890.050643835631
 30
0.0
 11
6715.520842116333
 21
6889.029636097574
 31
0.0
  0
LINE
  5
E108
330
DBF1
100
AcDbEntity
  8
0
  6
Continuous
 62
     7
370
    25
100
AcDbLine
 10
6719.788896311119
 20
6887.192342723625
 30
0.0
 11
6719.788896311119
 21
6888.009291805917
 31
0.0
  0
LINE
  5
E109
330
DBF1
100
AcDbEntity
  8
0
  6
Continuous
 62
     7
370
    25
100
AcDbLine
 10
6714.788896311119
 20
6888.009291805917
 30
0.0
 11
6714.788896311119
 21
6887.192342723625
 31
0.0
  0
LINE
  5
E10A
330
DBF1
100
AcDbEntity
  8
0
  6
Continuous
 62
     7
370
    25
100
AcDbLine
 10
6694.308213164375
 20
6903.316778054471
 30
0.0
 11
6692.540158969589
 21
6904.337785792528
 31
0.0
  0
LINE
  5
E10B
330
DBF1
100
AcDbEntity
  8
0
  6
Continuous
 62
     7
370
    25
100
AcDbLine
 10
6692.540158969589
 20
6904.337785792528
 30
0.0
 11
6690.772104774804
 21
6903.316778054471
 31
0.0
  0
LINE
  5
E10C
330
DBF1
100
AcDbEntity
  8
0
  6
Continuous
 62
     7
370
    25
100
AcDbLine
 10
6695.04015896959
 20
6901.479484680523
 30
0.0
 11
6695.04015896959
 21
6902.296433762815
 31
0.0
  0
LINE
  5
E10D
330
DBF1
100
AcDbEntity
  8
0
  6
Continuous
 62
     7
370
    25
100
AcDbLine
 10
6690.04015896959
 20
6902.296433762815
 30
0.0
 11
6690.04015896959
 21
6901.479484680523
 31
0.0
  0
LINE
  5
E10E
330
DBF1
100
AcDbEntity
  8
0
  6
Continuous
 62
     7
370
    25
100
AcDbLine
 10
6682.994858288808
 20
6916.788690964489
 30
0.0
 11
6684.762337929928
 21
6917.809366965864
 31
0.0
  0
LINE
  5
E10F
330
DBF1
100
AcDbEntity
  8
0
  6
Continuous
 62
     7
370
    25
100
AcDbLine
 10
6684.762337929928
 20
6917.809366965865
 30
0.0
 11
6684.762337929928
 21
6919.85038724542
 31
0.0
  0
LINE
  5
E110
330
DBF1
100
AcDbEntity
  8
0
  6
Continuous
 62
     7
370
    25
100
AcDbLine
 10
6681.03721222659
 20
6917.07316310763
 30
0.0
 11
6681.744672561167
 21
6916.66475494969
 31
0.0
  0
LINE
  5
E111
330
DBF1
100
AcDbEntity
  8
0
  6
Continuous
 62
     7
370
    25
100
AcDbLine
 10
6684.244469392757
 20
6920.994999261594
 30
0.0
 11
6683.53700905818
 21
6921.403407419532
 31
0.0
  0
LWPOLYLINE
  5
E112
330
DBF1
100
AcDbEntity
  8
0
  6
Continuous
 62
     7
370
    25
100
AcDbPolyline
 90
       24
 70
   128
 43
0.0
 10
6682.137864564301
 20
6945.128625374617
 10
6681.860706527671
 20
6945.188118738866
 10
6681.624529306494
 20
6945.327873509387
 10
6681.437868960897
 20
6945.542838584647
 10
6681.307471882107
 20
6945.82524456674
 10
6681.2380509603
 20
6946.16488456767
 10
6681.232115248463
 20
6946.549483112882
 10
6681.289879278687
 20
6946.965139808889
 10
6681.409255308418
 20
6947.396831739714
 10
6681.585928776911
 20
6947.828956434216
 10
6681.813514244694
 20
6948.245895780045
 10
6682.083786179995
 20
6948.632580502917
 10
6682.386976250885
 20
6948.975034809453
 10
6682.712126378247
 20
6949.260881508756
 10
6683.04748478931
 20
6949.479789356347
 10
6683.380930757329
 20
6949.623846452258
 10
6683.700412676235
 20
6949.687846197702
 10
6683.994383637076
 20
6949.669475475132
 10
6684.252218763395
 20
6949.569398250324
 10
6684.464599221942
 20
6949.391231574931
 10
6684.623849029595
 20
6949.141414856813
 10
6684.724212483383
 20
6948.828977123052
 10
6684.762062186592
 20
6948.465210687395
 10
6684.762337929928
 20
6948.429315661421
  0
ARC
  5
E113
330
DBF1
100
AcDbEntity
  8
0
  6
Continuous
 62
     7
370
    25
100
AcDbCircle
 10
6682.15783429877
 20
6946.71303436781
 30
0.0
 40
1.584534836476321
100
AcDbArc
 50
269.2778878899578
 51
301.8870120608174
  0
LWPOLYLINE
  5
E114
330
DBF1
100
AcDbEntity
  8
0
  6
Continuous
 62
     7
370
    25
100
AcDbPolyline
 90
       27
 70
   128
 43
0.0
 10
6719.056950505905
 20
6889.029636097574
 10
6719.228311145184
 20
6888.919993152032
 10
6719.491817058954
 20
6888.691649832436
 10
6719.675703677242
 20
6888.438644315896
 10
6719.773324858554
 20
6888.170120880977
 10
6719.781152319045
 20
6887.89578466425
 10
6719.698903153901
 20
6887.625550891362
 10
6719.529550062246
 20
6887.369186514954
 10
6719.279213906059
 20
6887.135957211539
 10
6718.95694248627
 20
6886.934292495816
 10
6718.574383531659
 20
6886.771481056044
 10
6718.145363719593
 20
6886.653407321856
 10
6717.685388943881
 20
6886.584338785645
 10
6717.211083891369
 20
6886.566771764265
 10
6716.739591182445
 20
6886.60134117564
 10
6716.287951792072
 20
6886.686797591174
 10
6715.872489144553
 20
6886.820052393352
 10
6715.508219142446
 20
6886.996289406434
 10
6715.208307452725
 20
6887.209138965585
 10
6714.983593665267
 20
6887.450908133164
 10
6714.842199521838
 20
6887.71285874153
 10
6714.789235375179
 20
6887.985523213192
 10
6714.826615487549
 20
6888.259046743724
 10
6714.952988844293
 20
6888.523543480073
 10
6715.163787983035
 20
6888.769453821049
 10
6715.45139407367
 20
6888.987889926215
 10
6715.520842116333
 20
6889.029636097574
  0
LWPOLYLINE
  5
E115
330
DBF1
100
AcDbEntity
  8
0
  6
Continuous
 62
     7
370
    25
100
AcDbPolyline
 90
       21
 70
   128
 43
0.0
 10
6694.951205527735
 20
6901.914875627709
 10
6694.782549223927
 20
6901.658358214215
 10
6694.532847093837
 20
6901.424902513538
 10
6694.211124023038
 20
6901.222946222961
 10
6693.82900792155
 20
6901.059788569019
 10
6693.400309460875
 20
6900.941326494429
 10
6692.940522920346
 20
6900.871841527216
 10
6692.466266183497
 20
6900.853845035136
 10
6691.994680124464
 20
6900.887987458303
 10
6691.542809092125
 20
6900.973034800586
 10
6691.126984882927
 20
6901.105913229446
 10
6690.762236467211
 20
6901.281820172253
 10
6690.461746803062
 20
6901.494397893773
 10
6690.236376369861
 20
6901.735963281284
 10
6690.094270642262
 20
6901.99778553229
 10
6690.040565691513
 20
6902.270401708466
 10
6690.077202554459
 20
6902.543958750914
 10
6690.202857079419
 20
6902.80856959537
 10
6690.412987784471
 20
6903.054670516482
 10
6690.699999998443
 20
6903.273366785749
 10
6690.772104774804
 20
6903.316778054471
  0
ARC
  5
E116
330
DBF1
100
AcDbEntity
  8
0
  6
Continuous
 62
     7
370
    25
100
AcDbCircle
 10
6693.885743388307
 20
6902.274601645741
 30
0.0
 40
1.12454985598827
100
AcDbArc
 50
341.3440626285304
 51
67.93371401529915
  0
LWPOLYLINE
  5
E117
330
DBF1
100
AcDbEntity
  8
0
  6
Continuous
 62
     7
370
    25
100
AcDbPolyline
 90
       24
 70
   128
 43
0.0
 10
6682.137864564301
 20
6916.549696958616
 10
6681.860706527671
 20
6916.609190322864
 10
6681.624529306494
 20
6916.748945093386
 10
6681.437868960897
 20
6916.963910168646
 10
6681.307471882107
 20
6917.246316150738
 10
6681.2380509603
 20
6917.585956151669
 10
6681.232115248463
 20
6917.970554696881
 10
6681.289879278687
 20
6918.386211392887
 10
6681.409255308418
 20
6918.817903323713
 10
6681.585928776911
 20
6919.250028018215
 10
6681.813514244694
 20
6919.666967364044
 10
6682.083786179995
 20
6920.053652086916
 10
6682.386976250885
 20
6920.396106393451
 10
6682.712126378247
 20
6920.681953092754
 10
6683.04748478931
 20
6920.900860940346
 10
6683.380930757329
 20
6921.044918036257
 10
6683.700412676235
 20
6921.108917781701
 10
6683.994383637076
 20
6921.09054705913
 10
6684.252218763395
 20
6920.990469834323
 10
6684.464599221942
 20
6920.81230315893
 10
6684.623849029595
 20
6920.562486440812
 10
6684.724212483383
 20
6920.250048707051
 10
6684.762062186592
 20
6919.886282271395
 10
6684.762337929928
 20
6919.85038724542
  0
ARC
  5
E118
330
DBF1
100
AcDbEntity
  8
0
  6
Continuous
 62
     7
370
    25
100
AcDbCircle
 10
6682.15783429877
 20
6918.134105951809
 30
0.0
 40
1.584534836476265
100
AcDbArc
 50
269.2778878899578
 51
301.8870120608174
  0
ARC
  5
E119
330
DBF1
100
AcDbEntity
  8
0
  6
Continuous
 62
     7
370
    25
100
AcDbCircle
 10
6683.599230118544
 20
6908.156283558609
 30
0.0
 40
7.684024037860453
100
AcDbArc
 50
182.6054784856523
 51
237.3945216599671
  0
LINE
  5
E11A
330
DBF1
100
AcDbEntity
  8
0
  6
Continuous
 62
     7
370
    25
100
AcDbLine
 10
6675.923149611706
 20
6907.806979297306
 30
0.0
 11
6675.923149611706
 21
6950.267101515366
 31
0.0
  0
LINE
  5
E11B
330
DBF1
100
AcDbEntity
  8
0
  6
Continuous
 62
     7
370
    25
100
AcDbLine
 10
6677.690916564673
 20
6949.246591375587
 30
0.0
 11
6675.923149611706
 21
6950.267101515366
 31
0.0
  0
LINE
  5
E11C
330
DBF1
100
AcDbEntity
  8
0
  6
Continuous
 62
     7
370
    25
100
AcDbLine
 10
6677.690916564673
 20
6949.246591375587
 30
0.0
 11
6677.690916564673
 21
6906.786469157529
 31
0.0
  0
ARC
  5
E11D
330
DBF1
100
AcDbEntity
  8
0
  6
Continuous
 62
     7
370
    25
100
AcDbCircle
 10
6681.528956818092
 20
6906.96112128818
 30
0.0
 40
3.842012018930547
100
AcDbArc
 50
182.6054784856656
 51
237.3945216599708
  0
LINE
  5
E11E
330
DBF1
100
AcDbEntity
  8
0
  6
Continuous
 62
     7
370
    25
100
AcDbLine
 10
6679.458683517639
 20
6903.724606988036
 30
0.0
 11
6716.228236139339
 21
6882.497996080645
 31
0.0
  0
LINE
  5
E11F
330
DBF1
100
AcDbEntity
  8
0
  6
Continuous
 62
     7
370
    25
100
AcDbLine
 10
6716.228236139339
 20
6880.456644050931
 30
0.0
 11
6716.228236139339
 21
6882.497996080645
 31
0.0
  0
LINE
  5
E120
330
DBF1
100
AcDbEntity
  8
0
  6
Continuous
 62
     7
370
    25
100
AcDbLine
 10
6716.228236139339
 20
6880.456644050931
 30
0.0
 11
6679.458683517639
 21
6901.683254958321
 31
0.0
  0
LINE
  5
E121
330
DBF1
100
AcDbEntity
  8
0
  6
Continuous
 62
     7
370
    25
100
AcDbLine
 10
6688.651071673064
 20
6909.031259714883
 30
0.0
 11
6679.458683517639
 21
6903.724606988036
 31
0.0
  0
LINE
  5
E122
330
DBF1
100
AcDbEntity
  8
0
  6
Continuous
 62
     7
370
    25
100
AcDbLine
 10
6725.420624294765
 20
6885.355424472024
 30
0.0
 11
6725.420624294765
 21
6887.804648807492
 31
0.0
  0
LINE
  5
E123
330
DBF1
100
AcDbEntity
  8
0
  6
Continuous
 62
     7
370
    25
100
AcDbLine
 10
6725.420624294765
 20
6885.355424472024
 30
0.0
 11
6720.470876826458
 21
6882.497996080645
 31
0.0
  0
LINE
  5
E124
330
DBF1
100
AcDbEntity
  8
0
  6
Continuous
 62
     7
370
    25
100
AcDbLine
 10
6716.228236139339
 20
6882.497996080645
 30
0.0
 11
6720.470876826458
 21
6882.497996080645
 31
0.0
  0
LINE
  5
E125
330
DBF1
100
AcDbEntity
  8
0
  6
Continuous
 62
     7
370
    25
100
AcDbLine
 10
6688.651071673064
 20
6909.031259714883
 30
0.0
 11
6725.420624294765
 21
6887.804648807492
 31
0.0
  0
LINE
  5
E126
330
DBF1
100
AcDbEntity
  8
0
  6
Continuous
 62
     7
370
    25
100
AcDbLine
 10
6720.470876826458
 20
6882.497996080645
 30
0.0
 11
6720.470876826458
 21
6880.456644050931
 31
0.0
  0
LINE
  5
E127
330
DBF1
100
AcDbEntity
  8
0
  6
Continuous
 62
     7
370
    25
100
AcDbLine
 10
6720.470876826458
 20
6880.456644050931
 30
0.0
 11
6716.228236139339
 21
6880.456644050931
 31
0.0
  0
LINE
  5
E128
330
DBF1
100
AcDbEntity
  8
0
  6
Continuous
 62
     7
370
    25
100
AcDbLine
 10
6677.690916564673
 20
6906.786469157529
 30
0.0
 11
6686.883304720098
 21
6912.093121884376
 31
0.0
  0
LINE
  5
E129
330
DBF1
100
AcDbEntity
  8
0
  6
Continuous
 62
     7
370
    25
100
AcDbLine
 10
6679.812236908232
 20
6952.920825978978
 30
0.0
 11
6677.690916564673
 21
6949.246591375587
 31
0.0
  0
LINE
  5
E12A
330
DBF1
100
AcDbEntity
  8
0
  6
Continuous
 62
     7
370
    25
100
AcDbLine
 10
6684.761984376538
 20
6955.778254370358
 30
0.0
 11
6679.812236908232
 21
6952.920825978978
 31
0.0
  0
LINE
  5
E12B
330
DBF1
100
AcDbEntity
  8
0
  6
Continuous
 62
     7
370
    25
100
AcDbLine
 10
6686.883304720098
 20
6954.553244102435
 30
0.0
 11
6684.761984376538
 21
6955.778254370358
 31
0.0
  0
LINE
  5
E12C
330
DBF1
100
AcDbEntity
  8
0
  6
Continuous
 62
     7
370
    25
100
AcDbLine
 10
6686.883304720098
 20
6954.553244102435
 30
0.0
 11
6686.883304720098
 21
6912.093121884376
 31
0.0
  0
LINE
  5
E12D
330
DBF1
100
AcDbEntity
  8
0
  6
Continuous
 62
     7
370
    25
100
AcDbLine
 10
6678.044469955265
 20
6953.941336118757
 30
0.0
 11
6679.812236908232
 21
6952.920825978978
 31
0.0
  0
LINE
  5
E12E
330
DBF1
100
AcDbEntity
  8
0
  6
Continuous
 62
     7
370
    25
100
AcDbLine
 10
6675.923149611706
 20
6950.267101515366
 30
0.0
 11
6678.044469955265
 21
6953.941336118757
 31
0.0
  0
LINE
  5
E12F
330
DBF1
100
AcDbEntity
  8
0
  6
Continuous
 62
     7
370
    25
100
AcDbLine
 10
6725.420624294765
 20
6883.31407244231
 30
0.0
 11
6725.420624294765
 21
6885.355424472024
 31
0.0
  0
LINE
  5
E130
330
DBF1
100
AcDbEntity
  8
0
  6
Continuous
 62
     7
370
    25
100
AcDbLine
 10
6725.420624294765
 20
6883.31407244231
 30
0.0
 11
6720.470876826458
 21
6880.456644050931
 31
0.0
  0
LINE
  5
E131
330
DBF1
100
AcDbEntity
  8
0
  6
Continuous
 62
     7
370
    25
100
AcDbLine
 10
6684.761984376538
 20
6955.778254370358
 30
0.0
 11
6682.994217423572
 21
6956.798764510137
 31
0.0
  0
LINE
  5
E132
330
DBF1
100
AcDbEntity
  8
0
  6
Continuous
 62
     7
370
    25
100
AcDbLine
 10
6682.994217423572
 20
6956.798764510137
 30
0.0
 11
6678.044469955265
 21
6953.941336118757
 31
0.0
  0
ARC
  5
E133
330
DBF1
100
AcDbEntity
  8
0
  6
Continuous
 62
     7
370
    25
100
AcDbCircle
 10
6690.721344973516
 20
6912.267774015027
 30
0.0
 40
3.842012018929907
100
AcDbArc
 50
182.6054784856526
 51
237.3945216599822
  0
LWPOLYLINE
  5
E134
330
DBF1
100
AcDbEntity
  8
0
100
AcDbPolyline
 90
        4
 70
     1
 43
0.0
 10
6554.020637295479
 20
7207.715554240499
 10
6554.02063729548
 20
7059.793117449339
 10
6733.989492485281
 20
7059.793117449339
 10
6733.989492485281
 20
7207.715554240499
  0
TEXT
  5
E135
330
DBF1
100
AcDbEntity
  8
0
  6
Continuous
 62
     7
100
AcDbText
 10
6607.561343699789
 20
7190.722201559838
 30
0.0
 40
10.58333333333333
  1
P35EG40/6
 41
0.75
  7
SLDTEXTSTYLE0
100
AcDbText
  0
LWPOLYLINE
  5
E136
330
DBF1
100
AcDbEntity
  8
0
100
AcDbPolyline
 90
        4
 70
     1
 43
0.0
 10
6554.02063729548
 20
7059.793117449339
 10
6554.02063729548
 20
6854.214552598387
 10
6733.989492485281
 20
6854.214552598387
 10
6733.989492485281
 20
7059.793117449339
  0
TEXT
  5
E137
330
DBF1
100
AcDbEntity
  8
0
  6
Continuous
 62
     7
100
AcDbText
 10
6598.022367050975
 20
7042.799764768679
 30
0.0
 40
10.58333333333333
  1
P35EP22
 41
0.75
  7
SLDTEXTSTYLE0
100
AcDbText
  0
LINE
  5
E13A
330
DBF1
100
AcDbEntity
  8
0
  6
Continuous
 62
     7
370
    25
100
AcDbLine
 10
6842.366939941281
 20
7116.755080763488
 30
0.0
 11
6843.066939941281
 21
7116.755080763488
 31
0.0
  0
ARC
  5
E13B
330
DBF1
100
AcDbEntity
  8
0
  6
Continuous
 62
     7
370
    25
100
AcDbCircle
 10
6842.366939941281
 20
7117.255080763488
 30
0.0
 40
0.5
100
AcDbArc
 50
180.0
 51
270.0
  0
LINE
  5
E13C
330
DBF1
100
AcDbEntity
  8
0
  6
Continuous
 62
     7
370
    25
100
AcDbLine
 10
6841.866939941281
 20
7121.455080763488
 30
0.0
 11
6841.866939941281
 21
7117.255080763488
 31
0.0
  0
ARC
  5
E13D
330
DBF1
100
AcDbEntity
  8
0
  6
Continuous
 62
     7
370
    25
100
AcDbCircle
 10
6841.566939941281
 20
7121.455080763488
 30
0.0
 40
0.3000000000001819
100
AcDbArc
 50
0.0
 51
90.0
  0
LINE
  5
E13E
330
DBF1
100
AcDbEntity
  8
0
  6
Continuous
 62
     7
370
    25
100
AcDbLine
 10
6839.866939941281
 20
7121.755080763488
 30
0.0
 11
6841.566939941281
 21
7121.755080763488
 31
0.0
  0
ARC
  5
E13F
330
DBF1
100
AcDbEntity
  8
0
  6
Continuous
 62
     7
370
    25
100
AcDbCircle
 10
6839.866939941281
 20
7121.455080763488
 30
0.0
 40
0.3000000000001819
100
AcDbArc
 50
90.0
 51
180.0
  0
LINE
  5
E140
330
DBF1
100
AcDbEntity
  8
0
  6
Continuous
 62
     7
370
    25
100
AcDbLine
 10
6839.566939941281
 20
7117.255080763488
 30
0.0
 11
6839.566939941281
 21
7121.455080763488
 31
0.0
  0
ARC
  5
E141
330
DBF1
100
AcDbEntity
  8
0
  6
Continuous
 62
     7
370
    25
100
AcDbCircle
 10
6839.066939941281
 20
7117.255080763488
 30
0.0
 40
0.5
100
AcDbArc
 50
270.0
 51
0.0
  0
LINE
  5
E142
330
DBF1
100
AcDbEntity
  8
0
  6
Continuous
 62
     7
370
    25
100
AcDbLine
 10
6837.266941236282
 20
7116.755080763488
 30
0.0
 11
6839.066939941281
 21
7116.755080763488
 31
0.0
  0
ARC
  5
E143
330
DBF1
100
AcDbEntity
  8
0
  6
Continuous
 62
     7
370
    25
100
AcDbCircle
 10
6837.266941236282
 20
7117.255080763488
 30
0.0
 40
0.5
100
AcDbArc
 50
180.0
 51
270.0
  0
LINE
  5
E144
330
DBF1
100
AcDbEntity
  8
0
  6
Continuous
 62
     7
370
    25
100
AcDbLine
 10
6836.766941236282
 20
7118.649041034024
 30
0.0
 11
6836.766941236282
 21
7117.255080763488
 31
0.0
  0
ARC
  5
E145
330
DBF1
100
AcDbEntity
  8
0
  6
Continuous
 62
     7
370
    25
100
AcDbCircle
 10
6837.066941236283
 20
7118.649041034024
 30
0.0
 40
0.3000000000009865
100
AcDbArc
 50
111.0375110252846
 51
180.0
  0
LINE
  5
E146
330
DBF1
100
AcDbEntity
  8
0
  6
Continuous
 62
     7
370
    25
100
AcDbLine
 10
6837.874634960079
 20
7119.281116811111
 30
0.0
 11
6836.959247512491
 21
7118.929044715886
 31
0.0
  0
ARC
  5
E147
330
DBF1
100
AcDbEntity
  8
0
  6
Continuous
 62
     7
370
    25
100
AcDbCircle
 10
6837.766941236286
 20
7119.561120492972
 30
0.0
 40
0.3000000000008498
100
AcDbArc
 50
291.0375110254467
 51
0.0
  0
LINE
  5
E148
330
DBF1
100
AcDbEntity
  8
0
  6
Continuous
 62
     7
370
    25
100
AcDbLine
 10
6838.066941236287
 20
7123.248447601978
 30
0.0
 11
6838.066941236287
 21
7119.561120492972
 31
0.0
  0
ARC
  5
E149
330
DBF1
100
AcDbEntity
  8
0
  6
Continuous
 62
     7
370
    25
100
AcDbCircle
 10
6837.766941236286
 20
7123.248447601978
 30
0.0
 40
0.3000000000009989
100
AcDbArc
 50
0.0
 51
24.00000000019476
  0
LINE
  5
E14A
330
DBF1
100
AcDbEntity
  8
0
  6
Continuous
 62
     7
370
    25
100
AcDbLine
 10
6836.346182595616
 20
7127.177101756421
 30
0.0
 11
6838.041004873579
 21
7123.370468594902
 31
0.0
  0
ARC
  5
E14B
330
DBF1
100
AcDbEntity
  8
0
  6
Continuous
 62
     7
370
    25
100
AcDbCircle
 10
6836.072118958323
 20
7127.055080763497
 30
0.0
 40
0.3000000000011143
100
AcDbArc
 50
24.00000000003607
 51
90.0
  0
LINE
  5
E14C
330
DBF1
100
AcDbEntity
  8
0
  6
Continuous
 62
     7
370
    25
100
AcDbLine
 10
6832.461763514236
 20
7127.355080763498
 30
0.0
 11
6836.072118958323
 21
7127.355080763498
 31
0.0
  0
ARC
  5
E14D
330
DBF1
100
AcDbEntity
  8
0
  6
Continuous
 62
     7
370
    25
100
AcDbCircle
 10
6832.461763514236
 20
7127.055080763497
 30
0.0
 40
0.3000000000010914
100
AcDbArc
 50
90.0
 51
156.0000000001226
  0
LINE
  5
E14E
330
DBF1
100
AcDbEntity
  8
0
  6
Continuous
 62
     7
370
    25
100
AcDbLine
 10
6830.492877598987
 20
7123.370468594898
 30
0.0
 11
6832.187699876942
 21
7127.17710175642
 31
0.0
  0
ARC
  5
E14F
330
DBF1
100
AcDbEntity
  8
0
  6
Continuous
 62
     7
370
    25
100
AcDbCircle
 10
6830.76694123628
 20
7123.248447601974
 30
0.0
 40
0.3000000000010772
100
AcDbArc
 50
155.9999999999639
 51
180.0
  0
LINE
  5
E150
330
DBF1
100
AcDbEntity
  8
0
  6
Continuous
 62
     7
370
    25
100
AcDbLine
 10
6830.466941236279
 20
7119.561120492978
 30
0.0
 11
6830.466941236279
 21
7123.248447601974
 31
0.0
  0
ARC
  5
E151
330
DBF1
100
AcDbEntity
  8
0
  6
Continuous
 62
     7
370
    25
100
AcDbCircle
 10
6830.76694123628
 20
7119.561120492979
 30
0.0
 40
0.300000000001057
100
AcDbArc
 50
180.0000000001737
 51
248.9624889741667
  0
LINE
  5
E152
330
DBF1
100
AcDbEntity
  8
0
  6
Continuous
 62
     7
370
    25
100
AcDbLine
 10
6831.57463496007
 20
7118.929044715885
 30
0.0
 11
6830.659247512485
 21
7119.281116811118
 31
0.0
  0
ARC
  5
E153
330
DBF1
100
AcDbEntity
  8
0
  6
Continuous
 62
     7
370
    25
100
AcDbCircle
 10
6831.466941236275
 20
7118.649041034024
 30
0.0
 40
0.3000000000009804
100
AcDbArc
 50
0.0
 51
68.96248897416665
  0
LINE
  5
E154
330
DBF1
100
AcDbEntity
  8
0
  6
Continuous
 62
     7
370
    25
100
AcDbLine
 10
6831.766941236277
 20
7117.255080763488
 30
0.0
 11
6831.766941236277
 21
7118.649041034024
 31
0.0
  0
ARC
  5
E155
330
DBF1
100
AcDbEntity
  8
0
  6
Continuous
 62
     7
370
    25
100
AcDbCircle
 10
6831.266941236277
 20
7117.255080763488
 30
0.0
 40
0.5
100
AcDbArc
 50
270.0
 51
0.0
  0
LINE
  5
E156
330
DBF1
100
AcDbEntity
  8
0
  6
Continuous
 62
     7
370
    25
100
AcDbLine
 10
6829.466941236279
 20
7116.755080763488
 30
0.0
 11
6831.266941236277
 21
7116.755080763488
 31
0.0
  0
ARC
  5
E157
330
DBF1
100
AcDbEntity
  8
0
  6
Continuous
 62
     7
370
    25
100
AcDbCircle
 10
6829.466941236279
 20
7117.255080763488
 30
0.0
 40
0.5
100
AcDbArc
 50
180.0
 51
270.0
  0
LINE
  5
E158
330
DBF1
100
AcDbEntity
  8
0
  6
Continuous
 62
     7
370
    25
100
AcDbLine
 10
6828.966941236279
 20
7121.455080763488
 30
0.0
 11
6828.966941236279
 21
7117.255080763488
 31
0.0
  0
ARC
  5
E159
330
DBF1
100
AcDbEntity
  8
0
  6
Continuous
 62
     7
370
    25
100
AcDbCircle
 10
6828.666941236279
 20
7121.455080763488
 30
0.0
 40
0.3000000000001819
100
AcDbArc
 50
0.0
 51
90.0
  0
LINE
  5
E15A
330
DBF1
100
AcDbEntity
  8
0
  6
Continuous
 62
     7
370
    25
100
AcDbLine
 10
6826.966941236279
 20
7121.755080763488
 30
0.0
 11
6828.666941236279
 21
7121.755080763488
 31
0.0
  0
ARC
  5
E15B
330
DBF1
100
AcDbEntity
  8
0
  6
Continuous
 62
     7
370
    25
100
AcDbCircle
 10
6826.966941236279
 20
7121.455080763488
 30
0.0
 40
0.3000000000001961
100
AcDbArc
 50
90.0
 51
180.0
  0
LINE
  5
E15C
330
DBF1
100
AcDbEntity
  8
0
  6
Continuous
 62
     7
370
    25
100
AcDbLine
 10
6826.666941236279
 20
7117.255080763488
 30
0.0
 11
6826.666941236279
 21
7121.455080763488
 31
0.0
  0
ARC
  5
E15D
330
DBF1
100
AcDbEntity
  8
0
  6
Continuous
 62
     7
370
    25
100
AcDbCircle
 10
6826.166941236279
 20
7117.255080763488
 30
0.0
 40
0.5
100
AcDbArc
 50
270.0
 51
0.0
  0
LINE
  5
E15E
330
DBF1
100
AcDbEntity
  8
0
  6
Continuous
 62
     7
370
    25
100
AcDbLine
 10
6822.36694123628
 20
7116.755080763488
 30
0.0
 11
6826.166941236279
 21
7116.755080763488
 31
0.0
  0
LINE
  5
E15F
330
DBF1
100
AcDbEntity
  8
0
  6
Continuous
 62
     7
370
    25
100
AcDbLine
 10
6822.36694123628
 20
7120.255080763488
 30
0.0
 11
6822.36694123628
 21
7116.755080763488
 31
0.0
  0
LINE
  5
E160
330
DBF1
100
AcDbEntity
  8
0
  6
Continuous
 62
     7
370
    25
100
AcDbLine
 10
6825.166941236279
 20
7120.255080763488
 30
0.0
 11
6822.36694123628
 21
7120.255080763488
 31
0.0
  0
LINE
  5
E161
330
DBF1
100
AcDbEntity
  8
0
  6
Continuous
 62
     7
370
    25
100
AcDbLine
 10
6825.166941236279
 20
7124.755080763488
 30
0.0
 11
6825.166941236279
 21
7120.255080763488
 31
0.0
  0
LINE
  5
E162
330
DBF1
100
AcDbEntity
  8
0
  6
Continuous
 62
     7
370
    25
100
AcDbLine
 10
6819.36694123628
 20
7124.755080763488
 30
0.0
 11
6825.166941236279
 21
7124.755080763488
 31
0.0
  0
LINE
  5
E163
330
DBF1
100
AcDbEntity
  8
0
  6
Continuous
 62
     7
370
    25
100
AcDbLine
 10
6818.36694123628
 20
7125.755080763488
 30
0.0
 11
6819.36694123628
 21
7124.755080763488
 31
0.0
  0
LINE
  5
E164
330
DBF1
100
AcDbEntity
  8
0
  6
Continuous
 62
     7
370
    25
100
AcDbLine
 10
6817.36694123628
 20
7124.755080763488
 30
0.0
 11
6818.36694123628
 21
7125.755080763488
 31
0.0
  0
LINE
  5
E165
330
DBF1
100
AcDbEntity
  8
0
  6
Continuous
 62
     7
370
    25
100
AcDbLine
 10
6811.566941236279
 20
7124.755080763488
 30
0.0
 11
6817.36694123628
 21
7124.755080763488
 31
0.0
  0
LINE
  5
E166
330
DBF1
100
AcDbEntity
  8
0
  6
Continuous
 62
     7
370
    25
100
AcDbLine
 10
6811.566941236279
 20
7120.255080763488
 30
0.0
 11
6811.566941236279
 21
7124.755080763488
 31
0.0
  0
LINE
  5
E167
330
DBF1
100
AcDbEntity
  8
0
  6
Continuous
 62
     7
370
    25
100
AcDbLine
 10
6814.36694123628
 20
7120.255080763488
 30
0.0
 11
6811.566941236279
 21
7120.255080763488
 31
0.0
  0
LINE
  5
E168
330
DBF1
100
AcDbEntity
  8
0
  6
Continuous
 62
     7
370
    25
100
AcDbLine
 10
6814.36694123628
 20
7116.755080763488
 30
0.0
 11
6814.36694123628
 21
7120.255080763488
 31
0.0
  0
LINE
  5
E169
330
DBF1
100
AcDbEntity
  8
0
  6
Continuous
 62
     7
370
    25
100
AcDbLine
 10
6810.566941236279
 20
7116.755080763488
 30
0.0
 11
6814.36694123628
 21
7116.755080763488
 31
0.0
  0
ARC
  5
E16A
330
DBF1
100
AcDbEntity
  8
0
  6
Continuous
 62
     7
370
    25
100
AcDbCircle
 10
6810.566941236279
 20
7117.255080763488
 30
0.0
 40
0.5
100
AcDbArc
 50
180.0
 51
270.0
  0
LINE
  5
E16B
330
DBF1
100
AcDbEntity
  8
0
  6
Continuous
 62
     7
370
    25
100
AcDbLine
 10
6810.066941236279
 20
7121.455080763488
 30
0.0
 11
6810.066941236279
 21
7117.255080763488
 31
0.0
  0
ARC
  5
E16C
330
DBF1
100
AcDbEntity
  8
0
  6
Continuous
 62
     7
370
    25
100
AcDbCircle
 10
6809.766941236279
 20
7121.455080763488
 30
0.0
 40
0.3000000000001819
100
AcDbArc
 50
0.0
 51
90.0
  0
LINE
  5
E16D
330
DBF1
100
AcDbEntity
  8
0
  6
Continuous
 62
     7
370
    25
100
AcDbLine
 10
6808.066941236279
 20
7121.755080763488
 30
0.0
 11
6809.766941236279
 21
7121.755080763488
 31
0.0
  0
ARC
  5
E16E
330
DBF1
100
AcDbEntity
  8
0
  6
Continuous
 62
     7
370
    25
100
AcDbCircle
 10
6808.066941236279
 20
7121.455080763488
 30
0.0
 40
0.3000000000001819
100
AcDbArc
 50
90.0
 51
180.0
  0
LINE
  5
E16F
330
DBF1
100
AcDbEntity
  8
0
  6
Continuous
 62
     7
370
    25
100
AcDbLine
 10
6807.766941236279
 20
7117.255080763488
 30
0.0
 11
6807.766941236279
 21
7121.455080763488
 31
0.0
  0
ARC
  5
E170
330
DBF1
100
AcDbEntity
  8
0
  6
Continuous
 62
     7
370
    25
100
AcDbCircle
 10
6807.266941236279
 20
7117.255080763488
 30
0.0
 40
0.5
100
AcDbArc
 50
270.0
 51
0.0
  0
LINE
  5
E171
330
DBF1
100
AcDbEntity
  8
0
  6
Continuous
 62
     7
370
    25
100
AcDbLine
 10
6805.466941236282
 20
7116.755080763488
 30
0.0
 11
6807.266941236279
 21
7116.755080763488
 31
0.0
  0
ARC
  5
E172
330
DBF1
100
AcDbEntity
  8
0
  6
Continuous
 62
     7
370
    25
100
AcDbCircle
 10
6805.466941236282
 20
7117.255080763488
 30
0.0
 40
0.5
100
AcDbArc
 50
180.0
 51
270.0
  0
LINE
  5
E173
330
DBF1
100
AcDbEntity
  8
0
  6
Continuous
 62
     7
370
    25
100
AcDbLine
 10
6804.966941236282
 20
7118.649041034024
 30
0.0
 11
6804.966941236282
 21
7117.255080763488
 31
0.0
  0
ARC
  5
E174
330
DBF1
100
AcDbEntity
  8
0
  6
Continuous
 62
     7
370
    25
100
AcDbCircle
 10
6805.266941236283
 20
7118.649041034024
 30
0.0
 40
0.3000000000010722
100
AcDbArc
 50
111.0375110258334
 51
180.0
  0
LINE
  5
E175
330
DBF1
100
AcDbEntity
  8
0
  6
Continuous
 62
     7
370
    25
100
AcDbLine
 10
6806.074634960073
 20
7119.281116811118
 30
0.0
 11
6805.159247512488
 21
7118.929044715885
 31
0.0
  0
ARC
  5
E176
330
DBF1
100
AcDbEntity
  8
0
  6
Continuous
 62
     7
370
    25
100
AcDbCircle
 10
6805.966941236278
 20
7119.561120492978
 30
0.0
 40
0.3000000000008498
100
AcDbArc
 50
291.0375110258333
 51
0.0
  0
LINE
  5
E177
330
DBF1
100
AcDbEntity
  8
0
  6
Continuous
 62
     7
370
    25
100
AcDbLine
 10
6806.266941236279
 20
7123.248447601974
 30
0.0
 11
6806.266941236278
 21
7119.561120492978
 31
0.0
  0
ARC
  5
E178
330
DBF1
100
AcDbEntity
  8
0
  6
Continuous
 62
     7
370
    25
100
AcDbCircle
 10
6805.966941236278
 20
7123.248447601974
 30
0.0
 40
0.3000000000008612
100
AcDbArc
 50
0.0
 51
24.00000000003607
  0
LINE
  5
E179
330
DBF1
100
AcDbEntity
  8
0
  6
Continuous
 62
     7
370
    25
100
AcDbLine
 10
6804.546182595616
 20
7127.17710175642
 30
0.0
 11
6806.241004873572
 21
7123.370468594898
 31
0.0
  0
ARC
  5
E17A
330
DBF1
100
AcDbEntity
  8
0
  6
Continuous
 62
     7
370
    25
100
AcDbCircle
 10
6804.272118958323
 20
7127.055080763497
 30
0.0
 40
0.3000000000010914
100
AcDbArc
 50
23.99999999987739
 51
90.0
  0
LINE
  5
E17B
330
DBF1
100
AcDbEntity
  8
0
  6
Continuous
 62
     7
370
    25
100
AcDbLine
 10
6800.661763514236
 20
7127.355080763498
 30
0.0
 11
6804.272118958323
 21
7127.355080763498
 31
0.0
  0
ARC
  5
E17C
330
DBF1
100
AcDbEntity
  8
0
  6
Continuous
 62
     7
370
    25
100
AcDbCircle
 10
6800.661763514236
 20
7127.055080763497
 30
0.0
 40
0.3000000000011208
100
AcDbArc
 50
90.0
 51
155.9999999999639
  0
LINE
  5
E17D
330
DBF1
100
AcDbEntity
  8
0
  6
Continuous
 62
     7
370
    25
100
AcDbLine
 10
6798.692877598979
 20
7123.370468594902
 30
0.0
 11
6800.387699876942
 21
7127.177101756421
 31
0.0
  0
ARC
  5
E17E
330
DBF1
100
AcDbEntity
  8
0
  6
Continuous
 62
     7
370
    25
100
AcDbCircle
 10
6798.966941236272
 20
7123.248447601978
 30
0.0
 40
0.3000000000010119
100
AcDbArc
 50
155.9999999997346
 51
180.0
  0
LINE
  5
E17F
330
DBF1
100
AcDbEntity
  8
0
  6
Continuous
 62
     7
370
    25
100
AcDbLine
 10
6798.666941236272
 20
7119.561120492972
 30
0.0
 11
6798.666941236272
 21
7123.248447601978
 31
0.0
  0
ARC
  5
E180
330
DBF1
100
AcDbEntity
  8
0
  6
Continuous
 62
     7
370
    25
100
AcDbCircle
 10
6798.966941236272
 20
7119.561120492972
 30
0.0
 40
0.3000000000008569
100
AcDbArc
 50
180.0
 51
248.9624889747154
  0
LINE
  5
E181
330
DBF1
100
AcDbEntity
  8
0
  6
Continuous
 62
     7
370
    25
100
AcDbLine
 10
6799.774634960068
 20
7118.929044715886
 30
0.0
 11
6798.85924751248
 21
7119.281116811111
 31
0.0
  0
ARC
  5
E182
330
DBF1
100
AcDbEntity
  8
0
  6
Continuous
 62
     7
370
    25
100
AcDbCircle
 10
6799.666941236275
 20
7118.649041034024
 30
0.0
 40
0.3000000000009993
100
AcDbArc
 50
0.0
 51
68.96248897455324
  0
LINE
  5
E183
330
DBF1
100
AcDbEntity
  8
0
  6
Continuous
 62
     7
370
    25
100
AcDbLine
 10
6799.966941236276
 20
7117.255080763488
 30
0.0
 11
6799.966941236276
 21
7118.649041034024
 31
0.0
  0
ARC
  5
E184
330
DBF1
100
AcDbEntity
  8
0
  6
Continuous
 62
     7
370
    25
100
AcDbCircle
 10
6799.466941236276
 20
7117.255080763488
 30
0.0
 40
0.5
100
AcDbArc
 50
270.0
 51
0.0
  0
LINE
  5
E185
330
DBF1
100
AcDbEntity
  8
0
  6
Continuous
 62
     7
370
    25
100
AcDbLine
 10
6797.666942531278
 20
7116.755080763488
 30
0.0
 11
6799.466941236276
 21
7116.755080763488
 31
0.0
  0
ARC
  5
E186
330
DBF1
100
AcDbEntity
  8
0
  6
Continuous
 62
     7
370
    25
100
AcDbCircle
 10
6797.666942531278
 20
7117.255080763488
 30
0.0
 40
0.5
100
AcDbArc
 50
180.0
 51
270.0
  0
LINE
  5
E187
330
DBF1
100
AcDbEntity
  8
0
  6
Continuous
 62
     7
370
    25
100
AcDbLine
 10
6797.166942531278
 20
7121.455080763488
 30
0.0
 11
6797.166942531278
 21
7117.255080763488
 31
0.0
  0
ARC
  5
E188
330
DBF1
100
AcDbEntity
  8
0
  6
Continuous
 62
     7
370
    25
100
AcDbCircle
 10
6796.866942531277
 20
7121.455080763488
 30
0.0
 40
0.3000000000001819
100
AcDbArc
 50
0.0
 51
90.0
  0
LINE
  5
E189
330
DBF1
100
AcDbEntity
  8
0
  6
Continuous
 62
     7
370
    25
100
AcDbLine
 10
6795.166942531278
 20
7121.755080763488
 30
0.0
 11
6796.866942531277
 21
7121.755080763488
 31
0.0
  0
ARC
  5
E18A
330
DBF1
100
AcDbEntity
  8
0
  6
Continuous
 62
     7
370
    25
100
AcDbCircle
 10
6795.166942531278
 20
7121.455080763488
 30
0.0
 40
0.3000000000001819
100
AcDbArc
 50
90.0
 51
180.0
  0
LINE
  5
E18B
330
DBF1
100
AcDbEntity
  8
0
  6
Continuous
 62
     7
370
    25
100
AcDbLine
 10
6794.866942531277
 20
7117.255080763488
 30
0.0
 11
6794.866942531277
 21
7121.455080763488
 31
0.0
  0
ARC
  5
E18C
330
DBF1
100
AcDbEntity
  8
0
  6
Continuous
 62
     7
370
    25
100
AcDbCircle
 10
6794.366942531277
 20
7117.255080763488
 30
0.0
 40
0.5000000000000071
100
AcDbArc
 50
270.0
 51
0.0
  0
LINE
  5
E18D
330
DBF1
100
AcDbEntity
  8
0
  6
Continuous
 62
     7
370
    25
100
AcDbLine
 10
6793.666942531278
 20
7116.755080763488
 30
0.0
 11
6794.366942531277
 21
7116.755080763488
 31
0.0
  0
LINE
  5
E18E
330
DBF1
100
AcDbEntity
  8
0
  6
Continuous
 62
     7
370
    25
100
AcDbLine
 10
6800.666942531278
 20
7154.755080763488
 30
0.0
 11
6793.366942531277
 21
7154.755080763488
 31
0.0
  0
LINE
  5
E18F
330
DBF1
100
AcDbEntity
  8
0
  6
Continuous
 62
     7
370
    25
100
AcDbLine
 10
6800.666942531278
 20
7153.255080763488
 30
0.0
 11
6800.666942531278
 21
7154.755080763488
 31
0.0
  0
LINE
  5
E190
330
DBF1
100
AcDbEntity
  8
0
  6
Continuous
 62
     7
370
    25
100
AcDbLine
 10
6799.366942531278
 20
7153.255080763488
 30
0.0
 11
6800.666942531278
 21
7153.255080763488
 31
0.0
  0
LINE
  5
E191
330
DBF1
100
AcDbEntity
  8
0
  6
Continuous
 62
     7
370
    25
100
AcDbLine
 10
6799.366942531278
 20
7150.555080763488
 30
0.0
 11
6799.366942531278
 21
7153.255080763488
 31
0.0
  0
ARC
  5
E192
330
DBF1
100
AcDbEntity
  8
0
  6
Continuous
 62
     7
370
    25
100
AcDbCircle
 10
6799.066942531278
 20
7150.555080763488
 30
0.0
 40
0.3000000000001819
100
AcDbArc
 50
270.0
 51
0.0
  0
LINE
  5
E193
330
DBF1
100
AcDbEntity
  8
0
  6
Continuous
 62
     7
370
    25
100
AcDbLine
 10
6797.866942531278
 20
7150.255080763488
 30
0.0
 11
6799.066942531278
 21
7150.255080763488
 31
0.0
  0
ARC
  5
E194
330
DBF1
100
AcDbEntity
  8
0
  6
Continuous
 62
     7
370
    25
100
AcDbCircle
 10
6797.866942531278
 20
7150.555080763488
 30
0.0
 40
0.3000000000001819
100
AcDbArc
 50
180.0
 51
270.0
  0
LINE
  5
E195
330
DBF1
100
AcDbEntity
  8
0
  6
Continuous
 62
     7
370
    25
100
AcDbLine
 10
6797.566942531278
 20
7150.955080763488
 30
0.0
 11
6797.566942531278
 21
7150.555080763488
 31
0.0
  0
ARC
  5
E196
330
DBF1
100
AcDbEntity
  8
0
  6
Continuous
 62
     7
370
    25
100
AcDbCircle
 10
6797.266942531278
 20
7150.955080763488
 30
0.0
 40
0.3000000000001819
100
AcDbArc
 50
0.0
 51
90.0
  0
LINE
  5
E197
330
DBF1
100
AcDbEntity
  8
0
  6
Continuous
 62
     7
370
    25
100
AcDbLine
 10
6795.166942531278
 20
7151.255080763489
 30
0.0
 11
6797.266942531278
 21
7151.255080763489
 31
0.0
  0
ARC
  5
E198
330
DBF1
100
AcDbEntity
  8
0
  6
Continuous
 62
     7
370
    25
100
AcDbCircle
 10
6795.166942531278
 20
7150.955080763488
 30
0.0
 40
0.3000000000001819
100
AcDbArc
 50
90.0
 51
180.0
  0
LINE
  5
E199
330
DBF1
100
AcDbEntity
  8
0
  6
Continuous
 62
     7
370
    25
100
AcDbLine
 10
6794.866942531277
 20
7145.555080763488
 30
0.0
 11
6794.866942531277
 21
7150.955080763488
 31
0.0
  0
ARC
  5
E19A
330
DBF1
100
AcDbEntity
  8
0
  6
Continuous
 62
     7
370
    25
100
AcDbCircle
 10
6795.166942531278
 20
7145.555080763488
 30
0.0
 40
0.3000000000001819
100
AcDbArc
 50
180.0
 51
270.0
  0
LINE
  5
E19B
330
DBF1
100
AcDbEntity
  8
0
  6
Continuous
 62
     7
370
    25
100
AcDbLine
 10
6797.266942531278
 20
7145.255080763488
 30
0.0
 11
6795.166942531278
 21
7145.255080763488
 31
0.0
  0
ARC
  5
E19C
330
DBF1
100
AcDbEntity
  8
0
  6
Continuous
 62
     7
370
    25
100
AcDbCircle
 10
6797.266942531278
 20
7145.555080763488
 30
0.0
 40
0.3000000000001819
100
AcDbArc
 50
270.0
 51
0.0
  0
LINE
  5
E19D
330
DBF1
100
AcDbEntity
  8
0
  6
Continuous
 62
     7
370
    25
100
AcDbLine
 10
6797.566942531278
 20
7145.955080763489
 30
0.0
 11
6797.566942531278
 21
7145.555080763488
 31
0.0
  0
ARC
  5
E19E
330
DBF1
100
AcDbEntity
  8
0
  6
Continuous
 62
     7
370
    25
100
AcDbCircle
 10
6797.866942531277
 20
7145.955080763489
 30
0.0
 40
0.2999999999999332
100
AcDbArc
 50
90.0
 51
180.0
  0
LINE
  5
E19F
330
DBF1
100
AcDbEntity
  8
0
  6
Continuous
 62
     7
370
    25
100
AcDbLine
 10
6799.066942531277
 20
7146.255080763488
 30
0.0
 11
6797.866942531277
 21
7146.255080763488
 31
0.0
  0
ARC
  5
E1A0
330
DBF1
100
AcDbEntity
  8
0
  6
Continuous
 62
     7
370
    25
100
AcDbCircle
 10
6799.066942531277
 20
7145.955080763489
 30
0.0
 40
0.3000000000000824
100
AcDbArc
 50
0.0
 51
90.0
  0
LINE
  5
E1A1
330
DBF1
100
AcDbEntity
  8
0
  6
Continuous
 62
     7
370
    25
100
AcDbLine
 10
6799.366942531277
 20
7138.555080763485
 30
0.0
 11
6799.366942531277
 21
7145.955080763489
 31
0.0
  0
ARC
  5
E1A2
330
DBF1
100
AcDbEntity
  8
0
  6
Continuous
 62
     7
370
    25
100
AcDbCircle
 10
6799.666942531275
 20
7138.555080763485
 30
0.0
 40
0.2999999999975387
100
AcDbArc
 50
180.0
 51
270.0
  0
LINE
  5
E1A3
330
DBF1
100
AcDbEntity
  8
0
  6
Continuous
 62
     7
370
    25
100
AcDbLine
 10
6808.616942531277
 20
7138.255080763489
 30
0.0
 11
6799.666942531275
 21
7138.255080763488
 31
0.0
  0
ARC
  5
E1A4
330
DBF1
100
AcDbEntity
  8
0
  6
Continuous
 62
     7
370
    25
100
AcDbCircle
 10
6808.616942531277
 20
7137.955080763489
 30
0.0
 40
0.3000000000001819
100
AcDbArc
 50
0.0
 51
90.0
  0
LINE
  5
E1A5
330
DBF1
100
AcDbEntity
  8
0
  6
Continuous
 62
     7
370
    25
100
AcDbLine
 10
6808.916942531278
 20
7137.555341690237
 30
0.0
 11
6808.916942531278
 21
7137.955080763489
 31
0.0
  0
LINE
  5
E1A6
330
DBF1
100
AcDbEntity
  8
0
  6
Continuous
 62
     7
370
    25
100
AcDbLine
 10
6809.566942531278
 20
7137.555341690237
 30
0.0
 11
6808.916942531278
 21
7137.555341690237
 31
0.0
  0
ARC
  5
E1A7
330
DBF1
100
AcDbEntity
  8
0
  6
Continuous
 62
     7
370
    25
100
AcDbCircle
 10
6809.566942531278
 20
7137.055211226862
 30
0.0
 40
0.5001304633749157
100
AcDbArc
 50
270.0
 51
90.0
  0
LINE
  5
E1A8
330
DBF1
100
AcDbEntity
  8
0
  6
Continuous
 62
     7
370
    25
100
AcDbLine
 10
6808.916942531278
 20
7136.555080763488
 30
0.0
 11
6809.566942531278
 21
7136.555080763488
 31
0.0
  0
LINE
  5
E1A9
330
DBF1
100
AcDbEntity
  8
0
  6
Continuous
 62
     7
370
    25
100
AcDbLine
 10
6808.916942531278
 20
7135.755080763488
 30
0.0
 11
6808.916942531278
 21
7136.555080763488
 31
0.0
  0
LINE
  5
E1AA
330
DBF1
100
AcDbEntity
  8
0
  6
Continuous
 62
     7
370
    25
100
AcDbLine
 10
6799.666942531278
 20
7135.755080763488
 30
0.0
 11
6808.916942531278
 21
7135.755080763488
 31
0.0
  0
LINE
  5
E1AB
330
DBF1
100
AcDbEntity
  8
0
  6
Continuous
 62
     7
370
    25
100
AcDbLine
 10
6799.666942531278
 20
7128.855080763488
 30
0.0
 11
6799.666942531278
 21
7135.755080763488
 31
0.0
  0
LINE
  5
E1AC
330
DBF1
100
AcDbEntity
  8
0
  6
Continuous
 62
     7
370
    25
100
AcDbLine
 10
6817.16693994128
 20
7128.855080763488
 30
0.0
 11
6799.666942531278
 21
7128.855080763488
 31
0.0
  0
LINE
  5
E1AD
330
DBF1
100
AcDbEntity
  8
0
  6
Continuous
 62
     7
370
    25
100
AcDbLine
 10
6817.66693994128
 20
7128.355080763488
 30
0.0
 11
6817.16693994128
 21
7128.855080763488
 31
0.0
  0
LINE
  5
E1AE
330
DBF1
100
AcDbEntity
  8
0
  6
Continuous
 62
     7
370
    25
100
AcDbLine
 10
6818.166939941281
 20
7128.855080763488
 30
0.0
 11
6817.66693994128
 21
7128.355080763488
 31
0.0
  0
LINE
  5
E1AF
330
DBF1
100
AcDbEntity
  8
0
  6
Continuous
 62
     7
370
    25
100
AcDbLine
 10
6835.666942531278
 20
7128.855080763488
 30
0.0
 11
6818.166939941281
 21
7128.855080763488
 31
0.0
  0
LINE
  5
E1B0
330
DBF1
100
AcDbEntity
  8
0
  6
Continuous
 62
     7
370
    25
100
AcDbLine
 10
6835.666942531278
 20
7135.755080763488
 30
0.0
 11
6835.666942531278
 21
7128.855080763488
 31
0.0
  0
LINE
  5
E1B1
330
DBF1
100
AcDbEntity
  8
0
  6
Continuous
 62
     7
370
    25
100
AcDbLine
 10
6825.816942531277
 20
7135.755080763488
 30
0.0
 11
6835.666942531278
 21
7135.755080763488
 31
0.0
  0
LINE
  5
E1B2
330
DBF1
100
AcDbEntity
  8
0
  6
Continuous
 62
     7
370
    25
100
AcDbLine
 10
6825.816942531277
 20
7136.555080763488
 30
0.0
 11
6825.816942531277
 21
7135.755080763488
 31
0.0
  0
LINE
  5
E1B3
330
DBF1
100
AcDbEntity
  8
0
  6
Continuous
 62
     7
370
    25
100
AcDbLine
 10
6825.166942531278
 20
7136.555080763488
 30
0.0
 11
6825.816942531277
 21
7136.555080763488
 31
0.0
  0
ARC
  5
E1B4
330
DBF1
100
AcDbEntity
  8
0
  6
Continuous
 62
     7
370
    25
100
AcDbCircle
 10
6825.166942531278
 20
7137.055211226862
 30
0.0
 40
0.5001304633749157
100
AcDbArc
 50
90.0
 51
270.0
  0
LINE
  5
E1B5
330
DBF1
100
AcDbEntity
  8
0
  6
Continuous
 62
     7
370
    25
100
AcDbLine
 10
6825.816942531277
 20
7137.555341690237
 30
0.0
 11
6825.166942531278
 21
7137.555341690237
 31
0.0
  0
LINE
  5
E1B6
330
DBF1
100
AcDbEntity
  8
0
  6
Continuous
 62
     7
370
    25
100
AcDbLine
 10
6825.816942531277
 20
7137.955080763489
 30
0.0
 11
6825.816942531277
 21
7137.555341690237
 31
0.0
  0
ARC
  5
E1B7
330
DBF1
100
AcDbEntity
  8
0
  6
Continuous
 62
     7
370
    25
100
AcDbCircle
 10
6826.116942531277
 20
7137.955080763489
 30
0.0
 40
0.3000000000000398
100
AcDbArc
 50
90.0
 51
180.0
  0
LINE
  5
E1B8
330
DBF1
100
AcDbEntity
  8
0
  6
Continuous
 62
     7
370
    25
100
AcDbLine
 10
6843.366939941281
 20
7138.255080763488
 30
0.0
 11
6826.116942531277
 21
7138.255080763488
 31
0.0
  0
LINE
  5
E1B9
330
DBF1
100
AcDbEntity
  8
0
  6
Continuous
 62
     7
370
    25
100
AcDbLine
 10
6843.366939941281
 20
7117.055080763488
 30
0.0
 11
6843.366939941281
 21
7138.255080763488
 31
0.0
  0
ARC
  5
E1BA
330
DBF1
100
AcDbEntity
  8
0
  6
Continuous
 62
     7
370
    25
100
AcDbCircle
 10
6843.066939941281
 20
7117.055080763488
 30
0.0
 40
0.3000000000001819
100
AcDbArc
 50
270.0
 51
0.0
  0
ARC
  5
E1BB
330
DBF1
100
AcDbEntity
  8
0
  6
Continuous
 62
     7
370
    25
100
AcDbCircle
 10
6841.66693994128
 20
7123.455080763489
 30
0.0
 40
0.2000000000004434
100
AcDbArc
 50
270.0
 51
0.0
  0
LINE
  5
E1BC
330
DBF1
100
AcDbEntity
  8
0
  6
Continuous
 62
     7
370
    25
100
AcDbLine
 10
6841.866939941281
 20
7123.455080763489
 30
0.0
 11
6841.866939941281
 21
7136.255080763488
 31
0.0
  0
LINE
  5
E1BD
330
DBF1
100
AcDbEntity
  8
0
  6
Continuous
 62
     7
370
    25
100
AcDbLine
 10
6841.866939941281
 20
7136.255080763488
 30
0.0
 11
6837.366942531277
 21
7136.255080763488
 31
0.0
  0
LINE
  5
E1BE
330
DBF1
100
AcDbEntity
  8
0
  6
Continuous
 62
     7
370
    25
100
AcDbLine
 10
6837.366942531277
 20
7136.255080763488
 30
0.0
 11
6837.366942531277
 21
7128.572327406955
 31
0.0
  0
LINE
  5
E1BF
330
DBF1
100
AcDbEntity
  8
0
  6
Continuous
 62
     7
370
    25
100
AcDbLine
 10
6837.366942531277
 20
7128.572327406955
 30
0.0
 11
6839.681505690932
 21
7123.373733434873
 31
0.0
  0
ARC
  5
E1C0
330
DBF1
100
AcDbEntity
  8
0
  6
Continuous
 62
     7
370
    25
100
AcDbCircle
 10
6839.86421478246
 20
7123.455080763489
 30
0.0
 40
0.2000000000004434
100
AcDbArc
 50
204.0000000002654
 51
270.0
  0
LINE
  5
E1C1
330
DBF1
100
AcDbEntity
  8
0
  6
Continuous
 62
     7
370
    25
100
AcDbLine
 10
6839.86421478246
 20
7123.255080763488
 30
0.0
 11
6841.66693994128
 21
7123.255080763488
 31
0.0
  0
LINE
  5
E1C2
330
DBF1
100
AcDbEntity
  8
0
  6
Continuous
 62
     7
370
    25
100
AcDbLine
 10
6797.966942531278
 20
7141.755080763488
 30
0.0
 11
6797.966942531278
 21
7125.427881740733
 31
0.0
  0
LINE
  5
E1C3
330
DBF1
100
AcDbEntity
  8
0
  6
Continuous
 62
     7
370
    25
100
AcDbLine
 10
6797.966942531278
 20
7141.755080763488
 30
0.0
 11
6794.566942531277
 21
7141.755080763488
 31
0.0
  0
LINE
  5
E1C4
330
DBF1
100
AcDbEntity
  8
0
  6
Continuous
 62
     7
370
    25
100
AcDbLine
 10
6794.566942531277
 20
7123.255080763488
 30
0.0
 11
6794.566942531277
 21
7141.755080763488
 31
0.0
  0
LINE
  5
E1C5
330
DBF1
100
AcDbEntity
  8
0
  6
Continuous
 62
     7
370
    25
100
AcDbLine
 10
6794.566942531277
 20
7123.255080763488
 30
0.0
 11
6796.999549208737
 21
7123.255080763488
 31
0.0
  0
LINE
  5
E1C6
330
DBF1
100
AcDbEntity
  8
0
  6
Continuous
 62
     7
370
    25
100
AcDbLine
 10
6797.966942531278
 20
7125.427881740733
 30
0.0
 11
6796.999549208737
 21
7123.255080763488
 31
0.0
  0
LINE
  5
E1C7
330
DBF1
100
AcDbEntity
  8
0
  6
Continuous
 62
     7
370
    25
100
AcDbLine
 10
6793.366942531277
 20
7154.755080763488
 30
0.0
 11
6793.366942531277
 21
7117.055080763488
 31
0.0
  0
ARC
  5
E1C8
330
DBF1
100
AcDbEntity
  8
0
  6
Continuous
 62
     7
370
    25
100
AcDbCircle
 10
6793.666942531278
 20
7117.055080763488
 30
0.0
 40
0.3000000000001819
100
AcDbArc
 50
180.0
 51
270.0
  0
ARC
  5
E215
330
DBF1
100
AcDbEntity
  8
0
  6
Continuous
 62
     7
370
    25
100
AcDbCircle
 10
6824.524231112097
 20
7163.579232072216
 30
0.0
 40
0.1999999999999176
100
AcDbArc
 50
180.0
 51
270.0
  0
LINE
  5
E216
330
DBF1
100
AcDbEntity
  8
0
  6
Continuous
 62
     7
370
    25
100
AcDbLine
 10
6826.324231112098
 20
7163.379232072216
 30
0.0
 11
6824.524231112097
 21
7163.379232072216
 31
0.0
  0
ARC
  5
E217
330
DBF1
100
AcDbEntity
  8
0
  6
Continuous
 62
     7
370
    25
100
AcDbCircle
 10
6826.324231112098
 20
7163.579232072216
 30
0.0
 40
0.2000000000000739
100
AcDbArc
 50
270.0
 51
0.0
  0
LINE
  5
E218
330
DBF1
100
AcDbEntity
  8
0
  6
Continuous
 62
     7
370
    25
100
AcDbLine
 10
6826.524231112097
 20
7165.629232072216
 30
0.0
 11
6826.524231112097
 21
7163.579232072216
 31
0.0
  0
ARC
  5
E219
330
DBF1
100
AcDbEntity
  8
0
  6
Continuous
 62
     7
370
    25
100
AcDbCircle
 10
6826.724231112098
 20
7165.629232072216
 30
0.0
 40
0.2000000000005855
100
AcDbArc
 50
90.0
 51
180.0
  0
LINE
  5
E21A
330
DBF1
100
AcDbEntity
  8
0
  6
Continuous
 62
     7
370
    25
100
AcDbLine
 10
6828.773933502573
 20
7165.829232072217
 30
0.0
 11
6826.724231112098
 21
7165.829232072217
 31
0.0
  0
ARC
  5
E21B
330
DBF1
100
AcDbEntity
  8
0
  6
Continuous
 62
     7
370
    25
100
AcDbCircle
 10
6828.773933502573
 20
7161.578934452216
 30
0.0
 40
4.250297620000225
100
AcDbArc
 50
270.9589127250939
 51
90.0
  0
LINE
  5
E21C
330
DBF1
100
AcDbEntity
  8
0
  6
Continuous
 62
     7
370
    25
100
AcDbLine
 10
6826.724231112098
 20
7157.329232072217
 30
0.0
 11
6828.845063946124
 21
7157.329232072217
 31
0.0
  0
ARC
  5
E21D
330
DBF1
100
AcDbEntity
  8
0
  6
Continuous
 62
     7
370
    25
100
AcDbCircle
 10
6826.724231112098
 20
7157.529232072216
 30
0.0
 40
0.2000000000000171
100
AcDbArc
 50
180.0
 51
270.0
  0
LINE
  5
E21E
330
DBF1
100
AcDbEntity
  8
0
  6
Continuous
 62
     7
370
    25
100
AcDbLine
 10
6826.524231112097
 20
7159.579232072217
 30
0.0
 11
6826.524231112097
 21
7157.529232072216
 31
0.0
  0
ARC
  5
E21F
330
DBF1
100
AcDbEntity
  8
0
  6
Continuous
 62
     7
370
    25
100
AcDbCircle
 10
6826.324231112098
 20
7159.579232072217
 30
0.0
 40
0.2000000000003865
100
AcDbArc
 50
0.0
 51
90.0
  0
LINE
  5
E220
330
DBF1
100
AcDbEntity
  8
0
  6
Continuous
 62
     7
370
    25
100
AcDbLine
 10
6824.526077054882
 20
7159.779232072216
 30
0.0
 11
6826.324231112098
 21
7159.779232072216
 31
0.0
  0
ARC
  5
E221
330
DBF1
100
AcDbEntity
  8
0
  6
Continuous
 62
     7
370
    25
100
AcDbCircle
 10
6824.526077054882
 20
7159.579232072217
 30
0.0
 40
0.2000000000000455
100
AcDbArc
 50
90.0
 51
180.0
  0
LINE
  5
E222
330
DBF1
100
AcDbEntity
  8
0
  6
Continuous
 62
     7
370
    25
100
AcDbLine
 10
6824.326077054881
 20
7159.228963769734
 30
0.0
 11
6824.326077054881
 21
7159.579232072217
 31
0.0
  0
ARC
  5
E223
330
DBF1
100
AcDbEntity
  8
0
  6
Continuous
 62
     7
370
    25
100
AcDbCircle
 10
6824.029777648359
 20
7159.228963769734
 30
0.0
 40
0.2962994065222537
100
AcDbArc
 50
308.3069243358473
 51
0.0
  0
ARC
  5
E224
330
DBF1
100
AcDbEntity
  8
0
  6
Continuous
 62
     7
370
    25
100
AcDbCircle
 10
6824.024195134886
 20
7159.229232072216
 30
0.0
 40
0.300000000000041
100
AcDbArc
 50
222.2090464123453
 51
309.1118214452122
  0
LINE
  5
E225
330
DBF1
100
AcDbEntity
  8
0
  6
Continuous
 62
     7
370
    25
100
AcDbLine
 10
6822.753287016485
 20
7160.317560253021
 30
0.0
 11
6823.801985576095
 21
7159.027680808311
 31
0.0
  0
ARC
  5
E226
330
DBF1
100
AcDbEntity
  8
0
  6
Continuous
 62
     7
370
    25
100
AcDbCircle
 10
6824.305119552762
 20
7161.579232072216
 30
0.0
 40
1.999999999999946
100
AcDbArc
 50
140.8881786095407
 51
219.1118213904795
  0
LINE
  5
E227
330
DBF1
100
AcDbEntity
  8
0
  6
Continuous
 62
     7
370
    25
100
AcDbLine
 10
6823.801985576095
 20
7164.130783336122
 30
0.0
 11
6822.753287016485
 21
7162.840903891411
 31
0.0
  0
ARC
  5
E228
330
DBF1
100
AcDbEntity
  8
0
  6
Continuous
 62
     7
370
    25
100
AcDbCircle
 10
6824.024195134886
 20
7163.929232072216
 30
0.0
 40
0.2999999999998814
100
AcDbArc
 50
50.88817854529199
 51
137.7909535876547
  0
ARC
  5
E229
330
DBF1
100
AcDbEntity
  8
0
  6
Continuous
 62
     7
370
    25
100
AcDbCircle
 10
6824.023481554009
 20
7163.928846404982
 30
0.0
 40
0.3007495580891089
100
AcDbArc
 50
0.0
 51
50.8290468659508
  0
LINE
  5
E22A
330
DBF1
100
AcDbEntity
  8
0
  6
Continuous
 62
     7
370
    25
100
AcDbLine
 10
6824.324231112098
 20
7163.928846404982
 30
0.0
 11
6824.324231112098
 21
7163.579232072216
 31
0.0
  0
LINE
  5
E22B
330
DBF1
100
AcDbEntity
  8
0
  6
Continuous
 62
     7
370
    25
100
AcDbLine
 10
6826.524231112097
 20
7162.079232072217
 30
0.0
 11
6826.524231112097
 21
7161.079232072226
 31
0.0
  0
ARC
  5
E22C
330
DBF1
100
AcDbEntity
  8
0
  6
Continuous
 62
     7
370
    25
100
AcDbCircle
 10
6826.324231112098
 20
7162.079232072217
 30
0.0
 40
0.2000000000000313
100
AcDbArc
 50
0.0
 51
90.0
  0
LINE
  5
E22D
330
DBF1
100
AcDbEntity
  8
0
  6
Continuous
 62
     7
370
    25
100
AcDbLine
 10
6826.324231112098
 20
7162.279232072216
 30
0.0
 11
6823.973457073749
 21
7162.279232072216
 31
0.0
  0
ARC
  5
E22E
330
DBF1
100
AcDbEntity
  8
0
  6
Continuous
 62
     7
370
    25
100
AcDbCircle
 10
6823.973457073749
 20
7162.079232072217
 30
0.0
 40
0.1999999999996191
100
AcDbArc
 50
90.0
 51
123.5573097600228
  0
ARC
  5
E22F
330
DBF1
100
AcDbEntity
  8
0
  6
Continuous
 62
     7
370
    25
100
AcDbCircle
 10
6824.305119552762
 20
7161.579232072216
 30
0.0
 40
0.7999999999883591
100
AcDbArc
 50
123.5573097600937
 51
236.4426902380817
  0
ARC
  5
E230
330
DBF1
100
AcDbEntity
  8
0
  6
Continuous
 62
     7
370
    25
100
AcDbCircle
 10
6823.97345707373
 20
7161.079232072221
 30
0.0
 40
0.1999999999942618
100
AcDbArc
 50
236.4426902381736
 51
270.0
  0
LINE
  5
E231
330
DBF1
100
AcDbEntity
  8
0
  6
Continuous
 62
     7
370
    25
100
AcDbLine
 10
6823.97345707373
 20
7160.879232072227
 30
0.0
 11
6826.324231112098
 21
7160.879232072227
 31
0.0
  0
ARC
  5
E232
330
DBF1
100
AcDbEntity
  8
0
  6
Continuous
 62
     7
370
    25
100
AcDbCircle
 10
6826.324231112098
 20
7161.079232072226
 30
0.0
 40
0.1999999999996049
100
AcDbArc
 50
270.0
 51
0.0
  0
LINE
  5
E233
330
DBF1
100
AcDbEntity
  8
0
  6
Continuous
 62
     7
370
    25
100
AcDbLine
 10
6827.524231112097
 20
7165.029232072216
 30
0.0
 11
6827.524231112097
 21
7158.129232072216
 31
0.0
  0
ARC
  5
E234
330
DBF1
100
AcDbEntity
  8
0
  6
Continuous
 62
     7
370
    25
100
AcDbCircle
 10
6827.724231112097
 20
7158.129232072216
 30
0.0
 40
0.1999999999998181
100
AcDbArc
 50
180.0
 51
270.0
  0
LINE
  5
E235
330
DBF1
100
AcDbEntity
  8
0
  6
Continuous
 62
     7
370
    25
100
AcDbLine
 10
6827.724231112097
 20
7157.929232072216
 30
0.0
 11
6828.773949421533
 21
7157.929232072216
 31
0.0
  0
ARC
  5
E236
330
DBF1
100
AcDbEntity
  8
0
  6
Continuous
 62
     7
370
    25
100
AcDbCircle
 10
6828.773949421533
 20
7161.579232072216
 30
0.0
 40
3.650000000000091
100
AcDbArc
 50
270.0
 51
89.99999997044709
  0
LINE
  5
E237
330
DBF1
100
AcDbEntity
  8
0
  6
Continuous
 62
     7
370
    25
100
AcDbLine
 10
6828.773941462784
 20
7165.229232072216
 30
0.0
 11
6827.724231112097
 21
7165.229232072216
 31
0.0
  0
ARC
  5
E238
330
DBF1
100
AcDbEntity
  8
0
  6
Continuous
 62
     7
370
    25
100
AcDbCircle
 10
6827.724231112097
 20
7165.029232072216
 30
0.0
 40
0.1999999999999886
100
AcDbArc
 50
90.0
 51
180.0
  0
LINE
  5
E239
330
DBF1
100
AcDbEntity
  8
0
100
AcDbLine
 10
6801.033117876314
 20
7148.380882470695
 30
0.0
 11
6820.01874582546
 21
7160.19291248326
 31
0.0
  0
ARC
  5
E283
330
DBF1
100
AcDbEntity
  8
0
  6
Continuous
 62
     7
370
    25
100
AcDbCircle
 10
6855.851281967698
 20
7085.46743822285
 30
0.0
 40
0.1999999999999176
100
AcDbArc
 50
180.0
 51
270.0
  0
LINE
  5
E284
330
DBF1
100
AcDbEntity
  8
0
  6
Continuous
 62
     7
370
    25
100
AcDbLine
 10
6857.651281967698
 20
7085.267438222851
 30
0.0
 11
6855.851281967698
 21
7085.267438222851
 31
0.0
  0
ARC
  5
E285
330
DBF1
100
AcDbEntity
  8
0
  6
Continuous
 62
     7
370
    25
100
AcDbCircle
 10
6857.651281967698
 20
7085.46743822285
 30
0.0
 40
0.2000000000000739
100
AcDbArc
 50
270.0
 51
0.0
  0
LINE
  5
E286
330
DBF1
100
AcDbEntity
  8
0
  6
Continuous
 62
     7
370
    25
100
AcDbLine
 10
6857.851281967698
 20
7087.517438222851
 30
0.0
 11
6857.851281967698
 21
7085.46743822285
 31
0.0
  0
ARC
  5
E287
330
DBF1
100
AcDbEntity
  8
0
  6
Continuous
 62
     7
370
    25
100
AcDbCircle
 10
6858.051281967699
 20
7087.517438222851
 30
0.0
 40
0.2000000000005855
100
AcDbArc
 50
90.0
 51
180.0
  0
LINE
  5
E288
330
DBF1
100
AcDbEntity
  8
0
  6
Continuous
 62
     7
370
    25
100
AcDbLine
 10
6860.100984358173
 20
7087.717438222851
 30
0.0
 11
6858.051281967699
 21
7087.717438222851
 31
0.0
  0
ARC
  5
E289
330
DBF1
100
AcDbEntity
  8
0
  6
Continuous
 62
     7
370
    25
100
AcDbCircle
 10
6860.100984358173
 20
7083.467140602851
 30
0.0
 40
4.250297620000225
100
AcDbArc
 50
270.9589127250939
 51
90.0
  0
LINE
  5
E28A
330
DBF1
100
AcDbEntity
  8
0
  6
Continuous
 62
     7
370
    25
100
AcDbLine
 10
6858.051281967699
 20
7079.217438222851
 30
0.0
 11
6860.172114801725
 21
7079.217438222851
 31
0.0
  0
ARC
  5
E28B
330
DBF1
100
AcDbEntity
  8
0
  6
Continuous
 62
     7
370
    25
100
AcDbCircle
 10
6858.051281967699
 20
7079.417438222851
 30
0.0
 40
0.2000000000000171
100
AcDbArc
 50
180.0
 51
270.0
  0
LINE
  5
E28C
330
DBF1
100
AcDbEntity
  8
0
  6
Continuous
 62
     7
370
    25
100
AcDbLine
 10
6857.851281967698
 20
7081.467438222851
 30
0.0
 11
6857.851281967698
 21
7079.417438222851
 31
0.0
  0
ARC
  5
E28D
330
DBF1
100
AcDbEntity
  8
0
  6
Continuous
 62
     7
370
    25
100
AcDbCircle
 10
6857.651281967698
 20
7081.467438222851
 30
0.0
 40
0.2000000000003865
100
AcDbArc
 50
0.0
 51
90.0
  0
LINE
  5
E28E
330
DBF1
100
AcDbEntity
  8
0
  6
Continuous
 62
     7
370
    25
100
AcDbLine
 10
6855.853127910483
 20
7081.667438222851
 30
0.0
 11
6857.651281967698
 21
7081.667438222851
 31
0.0
  0
ARC
  5
E28F
330
DBF1
100
AcDbEntity
  8
0
  6
Continuous
 62
     7
370
    25
100
AcDbCircle
 10
6855.853127910483
 20
7081.467438222851
 30
0.0
 40
0.2000000000000455
100
AcDbArc
 50
90.0
 51
180.0
  0
LINE
  5
E290
330
DBF1
100
AcDbEntity
  8
0
  6
Continuous
 62
     7
370
    25
100
AcDbLine
 10
6855.653127910482
 20
7081.117169920369
 30
0.0
 11
6855.653127910482
 21
7081.467438222851
 31
0.0
  0
ARC
  5
E291
330
DBF1
100
AcDbEntity
  8
0
  6
Continuous
 62
     7
370
    25
100
AcDbCircle
 10
6855.35682850396
 20
7081.117169920369
 30
0.0
 40
0.2962994065222537
100
AcDbArc
 50
308.3069243358473
 51
0.0
  0
ARC
  5
E292
330
DBF1
100
AcDbEntity
  8
0
  6
Continuous
 62
     7
370
    25
100
AcDbCircle
 10
6855.351245990487
 20
7081.117438222851
 30
0.0
 40
0.300000000000041
100
AcDbArc
 50
222.2090464123453
 51
309.1118214452122
  0
LINE
  5
E293
330
DBF1
100
AcDbEntity
  8
0
  6
Continuous
 62
     7
370
    25
100
AcDbLine
 10
6854.080337872086
 20
7082.205766403656
 30
0.0
 11
6855.129036431696
 21
7080.915886958946
 31
0.0
  0
ARC
  5
E294
330
DBF1
100
AcDbEntity
  8
0
  6
Continuous
 62
     7
370
    25
100
AcDbCircle
 10
6855.632170408363
 20
7083.46743822285
 30
0.0
 40
1.999999999999946
100
AcDbArc
 50
140.8881786095407
 51
219.1118213904795
  0
LINE
  5
E295
330
DBF1
100
AcDbEntity
  8
0
  6
Continuous
 62
     7
370
    25
100
AcDbLine
 10
6855.129036431696
 20
7086.018989486756
 30
0.0
 11
6854.080337872086
 21
7084.729110042045
 31
0.0
  0
ARC
  5
E296
330
DBF1
100
AcDbEntity
  8
0
  6
Continuous
 62
     7
370
    25
100
AcDbCircle
 10
6855.351245990487
 20
7085.817438222851
 30
0.0
 40
0.2999999999998814
100
AcDbArc
 50
50.88817854529199
 51
137.7909535876547
  0
ARC
  5
E297
330
DBF1
100
AcDbEntity
  8
0
  6
Continuous
 62
     7
370
    25
100
AcDbCircle
 10
6855.35053240961
 20
7085.817052555617
 30
0.0
 40
0.3007495580891089
100
AcDbArc
 50
0.0
 51
50.8290468659508
  0
LINE
  5
E298
330
DBF1
100
AcDbEntity
  8
0
  6
Continuous
 62
     7
370
    25
100
AcDbLine
 10
6855.651281967698
 20
7085.817052555617
 30
0.0
 11
6855.651281967698
 21
7085.46743822285
 31
0.0
  0
LINE
  5
E299
330
DBF1
100
AcDbEntity
  8
0
  6
Continuous
 62
     7
370
    25
100
AcDbLine
 10
6857.851281967698
 20
7083.967438222851
 30
0.0
 11
6857.851281967698
 21
7082.96743822286
 31
0.0
  0
ARC
  5
E29A
330
DBF1
100
AcDbEntity
  8
0
  6
Continuous
 62
     7
370
    25
100
AcDbCircle
 10
6857.651281967698
 20
7083.967438222851
 30
0.0
 40
0.2000000000000313
100
AcDbArc
 50
0.0
 51
90.0
  0
LINE
  5
E29B
330
DBF1
100
AcDbEntity
  8
0
  6
Continuous
 62
     7
370
    25
100
AcDbLine
 10
6857.651281967698
 20
7084.167438222851
 30
0.0
 11
6855.30050792935
 21
7084.167438222851
 31
0.0
  0
ARC
  5
E29C
330
DBF1
100
AcDbEntity
  8
0
  6
Continuous
 62
     7
370
    25
100
AcDbCircle
 10
6855.30050792935
 20
7083.967438222851
 30
0.0
 40
0.1999999999996191
100
AcDbArc
 50
90.0
 51
123.5573097600228
  0
ARC
  5
E29D
330
DBF1
100
AcDbEntity
  8
0
  6
Continuous
 62
     7
370
    25
100
AcDbCircle
 10
6855.632170408363
 20
7083.46743822285
 30
0.0
 40
0.7999999999883591
100
AcDbArc
 50
123.5573097600937
 51
236.4426902380817
  0
ARC
  5
E29E
330
DBF1
100
AcDbEntity
  8
0
  6
Continuous
 62
     7
370
    25
100
AcDbCircle
 10
6855.300507929331
 20
7082.967438222856
 30
0.0
 40
0.1999999999942618
100
AcDbArc
 50
236.4426902381736
 51
270.0
  0
LINE
  5
E29F
330
DBF1
100
AcDbEntity
  8
0
  6
Continuous
 62
     7
370
    25
100
AcDbLine
 10
6855.300507929331
 20
7082.767438222862
 30
0.0
 11
6857.651281967698
 21
7082.767438222862
 31
0.0
  0
ARC
  5
E2A0
330
DBF1
100
AcDbEntity
  8
0
  6
Continuous
 62
     7
370
    25
100
AcDbCircle
 10
6857.651281967698
 20
7082.96743822286
 30
0.0
 40
0.1999999999996049
100
AcDbArc
 50
270.0
 51
0.0
  0
LINE
  5
E2A1
330
DBF1
100
AcDbEntity
  8
0
  6
Continuous
 62
     7
370
    25
100
AcDbLine
 10
6858.851281967698
 20
7086.917438222851
 30
0.0
 11
6858.851281967698
 21
7080.017438222851
 31
0.0
  0
ARC
  5
E2A2
330
DBF1
100
AcDbEntity
  8
0
  6
Continuous
 62
     7
370
    25
100
AcDbCircle
 10
6859.051281967698
 20
7080.017438222851
 30
0.0
 40
0.1999999999998181
100
AcDbArc
 50
180.0
 51
270.0
  0
LINE
  5
E2A3
330
DBF1
100
AcDbEntity
  8
0
  6
Continuous
 62
     7
370
    25
100
AcDbLine
 10
6859.051281967698
 20
7079.817438222851
 30
0.0
 11
6860.101000277134
 21
7079.817438222851
 31
0.0
  0
ARC
  5
E2A4
330
DBF1
100
AcDbEntity
  8
0
  6
Continuous
 62
     7
370
    25
100
AcDbCircle
 10
6860.101000277134
 20
7083.46743822285
 30
0.0
 40
3.650000000000091
100
AcDbArc
 50
270.0
 51
89.99999997044709
  0
LINE
  5
E2A5
330
DBF1
100
AcDbEntity
  8
0
  6
Continuous
 62
     7
370
    25
100
AcDbLine
 10
6860.100992318385
 20
7087.117438222851
 30
0.0
 11
6859.051281967698
 21
7087.117438222851
 31
0.0
  0
ARC
  5
E2A6
330
DBF1
100
AcDbEntity
  8
0
  6
Continuous
 62
     7
370
    25
100
AcDbCircle
 10
6859.051281967698
 20
7086.917438222851
 30
0.0
 40
0.1999999999999886
100
AcDbArc
 50
90.0
 51
180.0
  0
TEXT
  5
E2A7
330
DBF1
100
AcDbEntity
  8
0
  6
Continuous
 62
     7
100
AcDbText
 10
6764.574060685784
 20
7079.971130063472
 30
0.0
 40
10.58333333333333
  1
P35EJ01/6
 41
0.75
  7
SLDTEXTSTYLE0
100
AcDbText
  0
LINE
  5
E2A8
330
DBF1
100
AcDbEntity
  8
0
100
AcDbLine
 10
6888.383538799189
 20
7102.43939987025
 30
0.0
 11
6748.410204919704
 21
7102.43939987025
 31
0.0
  0
TEXT
  5
E379
330
DBF1
100
AcDbEntity
  8
0
  6
Continuous
100
AcDbText
 10
6764.574060685784
 20
7037.324847642561
 30
0.0
 40
10.58333333333333
  1
P35EG43/3
 41
0.75
  7
SLDTEXTSTYLE0
100
AcDbText
  0
LINE
  5
E37A
330
DBF1
100
AcDbEntity
  8
0
100
AcDbLine
 10
6888.383538799189
 20
7017.146835028428
 30
0.0
 11
6748.410204919704
 21
7017.146835028428
 31
0.0
  0
LINE
  5
E42E
330
DBF1
100
AcDbEntity
  8
0
100
AcDbLine
 10
6817.032961430677
 20
7136.25804988034
 30
0.0
 11
6826.468598318739
 21
7148.959868768115
 31
0.0
  0
LINE
  5
E46C
330
DBF1
100
AcDbEntity
  8
0
  6
Continuous
 62
     7
370
    25
100
AcDbLine
 10
6854.994671650817
 20
7042.268052337441
 30
0.0
 11
6855.493151970742
 21
7042.268052337441
 31
0.0
  0
ARC
  5
E46D
330
DBF1
100
AcDbEntity
  8
0
  6
Continuous
 62
     7
370
    25
100
AcDbCircle
 10
6855.004571650818
 20
7042.615344673296
 30
0.0
 40
0.3474334131079054
100
AcDbArc
 50
91.63284527002821
 51
268.3671547304216
  0
LINE
  5
E46E
330
DBF1
100
AcDbEntity
  8
0
  6
Continuous
 62
     7
370
    25
100
AcDbLine
 10
6870.456604824601
 20
7042.962637009152
 30
0.0
 11
6854.994671650814
 21
7042.962637009152
 31
0.0
  0
ARC
  5
E46F
330
DBF1
100
AcDbEntity
  8
0
  6
Continuous
 62
     7
370
    25
100
AcDbCircle
 10
6870.446704824602
 20
7042.615344673296
 30
0.0
 40
0.3474334131077947
100
AcDbArc
 50
271.6328452695784
 51
88.36715473072142
  0
LINE
  5
E470
330
DBF1
100
AcDbEntity
  8
0
  6
Continuous
 62
     7
370
    25
100
AcDbLine
 10
6869.958124504677
 20
7042.268052337441
 30
0.0
 11
6870.456604824602
 21
7042.268052337441
 31
0.0
  0
ARC
  5
E471
330
DBF1
100
AcDbEntity
  8
0
  6
Continuous
 62
     7
370
    25
100
AcDbCircle
 10
6869.958124504677
 20
7042.070052337441
 30
0.0
 40
0.1980000000000928
100
AcDbArc
 50
90.0
 51
179.9999999997368
  0
LINE
  5
E472
330
DBF1
100
AcDbEntity
  8
0
  6
Continuous
 62
     7
370
    25
100
AcDbLine
 10
6870.01777824352
 20
7041.36215450793
 30
0.0
 11
6869.760124504676
 21
7042.070052337442
 31
0.0
  0
LINE
  5
E473
330
DBF1
100
AcDbEntity
  8
0
  6
Continuous
 62
     7
370
    25
100
AcDbLine
 10
6870.391134164943
 20
7041.100727877314
 30
0.0
 11
6870.01777824352
 21
7041.36215450793
 31
0.0
  0
ARC
  5
E474
330
DBF1
100
AcDbEntity
  8
0
  6
Continuous
 62
     7
370
    25
100
AcDbCircle
 10
6870.305958064145
 20
7040.979083798738
 30
0.0
 40
0.1485000000000652
100
AcDbArc
 50
324.9999999999637
 51
54.99999999996373
  0
LINE
  5
E475
330
DBF1
100
AcDbEntity
  8
0
  6
Continuous
 62
     7
370
    25
100
AcDbLine
 10
6869.57516184147
 20
7039.676496780839
 30
0.0
 11
6870.427602142722
 21
7040.893907697939
 31
0.0
  0
ARC
  5
E476
330
DBF1
100
AcDbEntity
  8
0
  6
Continuous
 62
     7
370
    25
100
AcDbCircle
 10
6869.291325658123
 20
7039.875241016034
 30
0.0
 40
0.3465000000000132
100
AcDbArc
 50
145.0000000000377
 51
325.0000000000377
  0
LINE
  5
E477
330
DBF1
100
AcDbEntity
  8
0
  6
Continuous
 62
     7
370
    25
100
AcDbLine
 10
6869.495492630868
 20
7040.770925985885
 30
0.0
 11
6869.007489474777
 21
7040.07398525123
 31
0.0
  0
LINE
  5
E478
330
DBF1
100
AcDbEntity
  8
0
  6
Continuous
 62
     7
370
    25
100
AcDbLine
 10
6869.176650704085
 20
7041.646936980098
 30
0.0
 11
6869.495492630868
 21
7040.770925985885
 31
0.0
  0
ARC
  5
E479
330
DBF1
100
AcDbEntity
  8
0
  6
Continuous
 62
     7
370
    25
100
AcDbCircle
 10
6868.711502856795
 20
7041.477637009151
 30
0.0
 40
0.495000000000033
100
AcDbArc
 50
20.00000000005949
 51
90.0
  0
LINE
  5
E47A
330
DBF1
100
AcDbEntity
  8
0
  6
Continuous
 62
     7
370
    25
100
AcDbLine
 10
6856.739773618623
 20
7041.972637009151
 30
0.0
 11
6868.711502856795
 21
7041.972637009151
 31
0.0
  0
ARC
  5
E47B
330
DBF1
100
AcDbEntity
  8
0
  6
Continuous
 62
     7
370
    25
100
AcDbCircle
 10
6856.739773618623
 20
7041.477637009151
 30
0.0
 40
0.494999999999969
100
AcDbArc
 50
90.0
 51
159.9999999999405
  0
LINE
  5
E47C
330
DBF1
100
AcDbEntity
  8
0
  6
Continuous
 62
     7
370
    25
100
AcDbLine
 10
6855.955783844551
 20
7040.770925985885
 30
0.0
 11
6856.274625771334
 21
7041.646936980098
 31
0.0
  0
LINE
  5
E47D
330
DBF1
100
AcDbEntity
  8
0
  6
Continuous
 62
     7
370
    25
100
AcDbLine
 10
6856.443787000641
 20
7040.07398525123
 30
0.0
 11
6855.955783844551
 21
7040.770925985885
 31
0.0
  0
ARC
  5
E47E
330
DBF1
100
AcDbEntity
  8
0
  6
Continuous
 62
     7
370
    25
100
AcDbCircle
 10
6856.159950817295
 20
7039.875241016034
 30
0.0
 40
0.3464999999999783
100
AcDbArc
 50
215.0000000000486
 51
34.99999999996232
  0
LINE
  5
E47F
330
DBF1
100
AcDbEntity
  8
0
  6
Continuous
 62
     7
370
    25
100
AcDbLine
 10
6855.023674332697
 20
7040.893907697939
 30
0.0
 11
6855.876114633949
 21
7039.676496780839
 31
0.0
  0
ARC
  5
E480
330
DBF1
100
AcDbEntity
  8
0
  6
Continuous
 62
     7
370
    25
100
AcDbCircle
 10
6855.145318411273
 20
7040.979083798738
 30
0.0
 40
0.1485000000000594
100
AcDbArc
 50
125.0000000000363
 51
215.0000000003237
  0
LINE
  5
E481
330
DBF1
100
AcDbEntity
  8
0
  6
Continuous
 62
     7
370
    25
100
AcDbLine
 10
6855.433498231899
 20
7041.36215450793
 30
0.0
 11
6855.060142310475
 21
7041.100727877314
 31
0.0
  0
LINE
  5
E482
330
DBF1
100
AcDbEntity
  8
0
  6
Continuous
 62
     7
370
    25
100
AcDbLine
 10
6855.691151970742
 20
7042.070052337441
 30
0.0
 11
6855.433498231899
 21
7041.36215450793
 31
0.0
  0
ARC
  5
E483
330
DBF1
100
AcDbEntity
  8
0
  6
Continuous
 62
     7
370
    25
100
AcDbCircle
 10
6855.493151970742
 20
7042.070052337441
 30
0.0
 40
0.1979999999999791
100
AcDbArc
 50
0.0
 51
90.0
  0
MTEXT
  5
E48B
330
DBF1
100
AcDbEntity
  8
0
100
AcDbMText
 10
6755.096518475198
 20
7203.508017870859
 30
0.0
 40
6.0
 41
128.8558406507955
 71
     1
 72
     5
  1
{P35EG40/6 + P35EJ01/6 + P35EG43/3}
 73
     1
 44
1.0
1001
ACAD
1000
ACAD_MTEXT_DEFINED_HEIGHT_BEGIN
1070
    46
1040
18.0
1000
ACAD_MTEXT_DEFINED_HEIGHT_END
  0
LINE
  5
E48C
330
DBF1
100
AcDbEntity
  8
0
100
AcDbLine
 10
6888.383538799189
 20
7017.146835028428
 30
0.0
 11
6888.383538799189
 21
7059.793117449339
 31
0.0
  0
LINE
  5
E48E
330
DBF1
100
AcDbEntity
  8
0
100
AcDbLine
 10
6748.410204919704
 20
7207.715554240499
 30
0.0
 11
6748.410204919704
 21
7017.146835028428
 31
0.0
  0
LINE
  5
E48F
330
DBF1
100
AcDbEntity
  8
0
100
AcDbLine
 10
6748.410204919704
 20
7059.793117449339
 30
0.0
 11
6888.383538799189
 21
7059.793117449339
 31
0.0
  0
LINE
  5
E490
330
DBF1
100
AcDbEntity
  8
0
100
AcDbLine
 10
6888.383538799189
 20
7059.793117449339
 30
0.0
 11
6888.383538799189
 21
7207.715554240499
 31
0.0
  0
LINE
  5
E491
330
DBF1
100
AcDbEntity
  8
0
100
AcDbLine
 10
6888.383538799189
 20
7207.715554240499
 30
0.0
 11
6748.410204919704
 21
7207.715554240499
 31
0.0
  0
ENDSEC
  0
SECTION
  2
OBJECTS
  0
DICTIONARY
  5
DBE1
330
0
100
AcDbDictionary
281
     1
  3
ACAD_DETAILVIEWSTYLE
350
E489
  3
ACAD_GROUP
350
DBE2
  3
ACAD_LAYOUT
350
DBEE
  3
ACAD_MLINESTYLE
350
DBEB
  3
ACAD_PLOTSETTINGS
350
DBED
  3
ACAD_PLOTSTYLENAME
350
DBE3
  3
ACAD_SCALELIST
350
DDD7
  3
ACAD_SECTIONVIEWSTYLE
350
E48A
  3
AcDbVariableDictionary
350
E484
  3
APPDATA
350
DE16
  3
DWGPROPS
350
E492
  0
DICTIONARY
  5
E489
102
{ACAD_REACTORS
330
DBE1
102
}
330
DBE1
100
AcDbDictionary
281
     1
  0
DICTIONARY
  5
DBE2
102
{ACAD_REACTORS
330
DBE1
102
}
330
DBE1
100
AcDbDictionary
281
     1
  0
DICTIONARY
  5
DBEE
102
{ACAD_REACTORS
330
DBE1
102
}
330
DBE1
100
AcDbDictionary
281
     1
  3
Foglio 1
350
DBF0
  3
Model
350
DBF2
  0
DICTIONARY
  5
DBEB
102
{ACAD_REACTORS
330
DBE1
102
}
330
DBE1
100
AcDbDictionary
281
     1
  3
Standard
350
DBEC
  0
DICTIONARY
  5
DBED
102
{ACAD_REACTORS
330
DBE1
102
}
330
DBE1
100
AcDbDictionary
281
     1
  0
ACDBDICTIONARYWDFLT
  5
DBE3
102
{ACAD_REACTORS
330
DBE1
102
}
330
DBE1
100
AcDbDictionary
281
     1
  3
Normal
350
DBE4
100
AcDbDictionaryWithDefault
340
DBE4
  0
DICTIONARY
  5
DDD7
102
{ACAD_REACTORS
330
DBE1
102
}
330
DBE1
100
AcDbDictionary
281
     1
  3
A0
350
DDD8
  3
A1
350
DDD9
  3
A2
350
DDDA
  3
A3
350
DDDB
  3
A4
350
DDDC
  3
A5
350
DDDD
  3
A6
350
DDDE
  3
A7
350
DDDF
  3
A8
350
DDE0
  3
A9
350
DDE1
  3
B0
350
DDE2
  3
B1
350
DDE3
  3
B2
350
DDE4
  3
B3
350
DDE5
  3
B4
350
DDE6
  3
B5
350
DDE7
  3
B6
350
DDE8
  3
B7
350
DDE9
  3
B8
350
DDEA
  3
B9
350
DDEB
  3
C0
350
DDEC
  3
C1
350
DDED
  3
C2
350
DDEE
  3
C3
350
DDEF
  3
C4
350
DDF0
  3
C5
350
DDF1
  3
C6
350
DDF2
  3
C7
350
DDF3
  3
C8
350
DDF4
  3
C9
350
DDF5
  3
D0
350
DDF6
  3
D1
350
DDF7
  3
D2
350
DDF8
  0
DICTIONARY
  5
E48A
102
{ACAD_REACTORS
330
DBE1
102
}
330
DBE1
100
AcDbDictionary
281
     1
  0
DICTIONARY
  5
E484
102
{ACAD_REACTORS
330
DBE1
102
}
330
DBE1
100
AcDbDictionary
281
     1
  0
DICTIONARY
  5
DE16
102
{ACAD_REACTORS
330
DBE1
102
}
330
DBE1
100
AcDbDictionary
281
     1
  0
XRECORD
  5
E492
102
{ACAD_REACTORS
330
DBE1
102
}
330
DBE1
100
AcDbXrecord
280
     1
  1
DWGPROPS COOKIE
  2

  3

  4

  6

  7

  8
simone.danesi
  9

300
=
301
=
302
=
303
=
304
=
305
=
306
=
307
=
308
=
309
=
 40
0.0
 41
2457771.371419132
 42
2458788.387170764
  1

 90
        0
  0
LAYOUT
  5
DBF0
102
{ACAD_REACTORS
330
DBEE
102
}
330
DBEE
100
AcDbPlotSettings
  1

  2
none_device
  4

  6

 40
0.0
 41
0.0
 42
0.0
 43
0.0
 44
0.0
 45
0.0
 46
0.0
 47
0.0
 48
0.0
 49
0.0
140
0.0
141
0.0
142
1.0
143
1.0
 70
   688
 72
     0
 73
     0
 74
     5
  7

 75
    16
147
1.0
148
0.0
149
0.0
100
AcDbLayout
  1
Foglio 1
 70
     1
 71
     1
 10
0.0
 20
0.0
 11
0.0
 21
0.0
 12
0.0
 22
0.0
 32
0.0
 14
1.000000000000000E+20
 24
1.000000000000000E+20
 34
1.000000000000000E+20
 15
-1.000000000000000E+20
 25
-1.000000000000000E+20
 35
-1.000000000000000E+20
146
0.0
 13
0.0
 23
0.0
 33
0.0
 16
1.0
 26
0.0
 36
0.0
 17
0.0
 27
1.0
 37
0.0
 76
     0
330
DBEF
  0
LAYOUT
  5
DBF2
102
{ACAD_REACTORS
330
DBEE
102
}
330
DBEE
100
AcDbPlotSettings
  1

  2
none_device
  4
Letter_(8.50_x_11.00_Inches)
  6

 40
6.35
 41
6.35
 42
6.35
 43
6.35
 44
215.9
 45
279.4
 46
0.0
 47
0.0
 48
0.0
 49
0.0
140
0.0
141
0.0
142
1.0
143
1.0
 70
  1712
 72
     0
 73
     0
 74
     0
  7

 75
     0
147
1.0
148
0.0
149
0.0
100
AcDbLayout
  1
Model
 70
     1
 71
     0
 10
0.0
 20
0.0
 11
12.0
 21
9.0
 12
0.0
 22
0.0
 32
0.0
 14
6554.020637295479
 24
6854.214552598387
 34
0.0
 15
6888.383538799189
 25
7207.715554240499
 35
0.0
146
0.0
 13
0.0
 23
0.0
 33
0.0
 16
1.0
 26
0.0
 36
0.0
 17
0.0
 27
1.0
 37
0.0
 76
     0
330
DBF1
331
DBF4
  0
MLINESTYLE
  5
DBEC
102
{ACAD_REACTORS
330
DBEB
102
}
330
DBEB
100
AcDbMlineStyle
  2
Standard
 70
     0
  3

 62
   256
 51
90.0
 52
90.0
 71
     2
 49
0.5
 62
   256
  6
BYLAYER
 49
-0.5
 62
   256
  6
BYLAYER
  0
ACDBPLACEHOLDER
  5
DBE4
102
{ACAD_REACTORS
330
DBE3
102
}
330
DBE3
  0
SCALE
  5
DDD8
102
{ACAD_REACTORS
330
DDD7
102
}
330
DDD7
100
AcDbScale
 70
     0
300
1:1
140
1.0
141
1.0
290
     1
  0
SCALE
  5
DDD9
102
{ACAD_REACTORS
330
DDD7
102
}
330
DDD7
100
AcDbScale
 70
     0
300
1:2
140
1.0
141
2.0
290
     0
  0
SCALE
  5
DDDA
102
{ACAD_REACTORS
330
DDD7
102
}
330
DDD7
100
AcDbScale
 70
     0
300
1:4
140
1.0
141
4.0
290
     0
  0
SCALE
  5
DDDB
102
{ACAD_REACTORS
330
DDD7
102
}
330
DDD7
100
AcDbScale
 70
     0
300
1:5
140
1.0
141
5.0
290
     0
  0
SCALE
  5
DDDC
102
{ACAD_REACTORS
330
DDD7
102
}
330
DDD7
100
AcDbScale
 70
     0
300
1:8
140
1.0
141
8.0
290
     0
  0
SCALE
  5
DDDD
102
{ACAD_REACTORS
330
DDD7
102
}
330
DDD7
100
AcDbScale
 70
     0
300
1:10
140
1.0
141
10.0
290
     0
  0
SCALE
  5
DDDE
102
{ACAD_REACTORS
330
DDD7
102
}
330
DDD7
100
AcDbScale
 70
     0
300
1:16
140
1.0
141
16.0
290
     0
  0
SCALE
  5
DDDF
102
{ACAD_REACTORS
330
DDD7
102
}
330
DDD7
100
AcDbScale
 70
     0
300
1:20
140
1.0
141
20.0
290
     0
  0
SCALE
  5
DDE0
102
{ACAD_REACTORS
330
DDD7
102
}
330
DDD7
100
AcDbScale
 70
     0
300
1:30
140
1.0
141
30.0
290
     0
  0
SCALE
  5
DDE1
102
{ACAD_REACTORS
330
DDD7
102
}
330
DDD7
100
AcDbScale
 70
     0
300
1:40
140
1.0
141
40.0
290
     0
  0
SCALE
  5
DDE2
102
{ACAD_REACTORS
330
DDD7
102
}
330
DDD7
100
AcDbScale
 70
     0
300
1:50
140
1.0
141
50.0
290
     0
  0
SCALE
  5
DDE3
102
{ACAD_REACTORS
330
DDD7
102
}
330
DDD7
100
AcDbScale
 70
     0
300
1:100
140
1.0
141
100.0
290
     0
  0
SCALE
  5
DDE4
102
{ACAD_REACTORS
330
DDD7
102
}
330
DDD7
100
AcDbScale
 70
     0
300
2:1
140
2.0
141
1.0
290
     0
  0
SCALE
  5
DDE5
102
{ACAD_REACTORS
330
DDD7
102
}
330
DDD7
100
AcDbScale
 70
     0
300
4:1
140
4.0
141
1.0
290
     0
  0
SCALE
  5
DDE6
102
{ACAD_REACTORS
330
DDD7
102
}
330
DDD7
100
AcDbScale
 70
     0
300
8:1
140
8.0
141
1.0
290
     0
  0
SCALE
  5
DDE7
102
{ACAD_REACTORS
330
DDD7
102
}
330
DDD7
100
AcDbScale
 70
     0
300
10:1
140
10.0
141
1.0
290
     0
  0
SCALE
  5
DDE8
102
{ACAD_REACTORS
330
DDD7
102
}
330
DDD7
100
AcDbScale
 70
     0
300
100:1
140
100.0
141
1.0
290
     0
  0
SCALE
  5
DDE9
102
{ACAD_REACTORS
330
DDD7
102
}
330
DDD7
100
AcDbScale
 70
     0
300
1/128" = 1'-0"
140
0.0078125
141
12.0
290
     0
  0
SCALE
  5
DDEA
102
{ACAD_REACTORS
330
DDD7
102
}
330
DDD7
100
AcDbScale
 70
     0
300
1/64" = 1'-0"
140
0.015625
141
12.0
290
     0
  0
SCALE
  5
DDEB
102
{ACAD_REACTORS
330
DDD7
102
}
330
DDD7
100
AcDbScale
 70
     0
300
1/32" = 1'-0"
140
0.03125
141
12.0
290
     0
  0
SCALE
  5
DDEC
102
{ACAD_REACTORS
330
DDD7
102
}
330
DDD7
100
AcDbScale
 70
     0
300
1/16" = 1'-0"
140
0.0625
141
12.0
290
     0
  0
SCALE
  5
DDED
102
{ACAD_REACTORS
330
DDD7
102
}
330
DDD7
100
AcDbScale
 70
     0
300
3/32" = 1'-0"
140
0.09375
141
12.0
290
     0
  0
SCALE
  5
DDEE
102
{ACAD_REACTORS
330
DDD7
102
}
330
DDD7
100
AcDbScale
 70
     0
300
1/8" = 1'-0"
140
0.125
141
12.0
290
     0
  0
SCALE
  5
DDEF
102
{ACAD_REACTORS
330
DDD7
102
}
330
DDD7
100
AcDbScale
 70
     0
300
3/16" = 1'-0"
140
0.1875
141
12.0
290
     0
  0
SCALE
  5
DDF0
102
{ACAD_REACTORS
330
DDD7
102
}
330
DDD7
100
AcDbScale
 70
     0
300
1/4" = 1'-0"
140
0.25
141
12.0
290
     0
  0
SCALE
  5
DDF1
102
{ACAD_REACTORS
330
DDD7
102
}
330
DDD7
100
AcDbScale
 70
     0
300
3/8" = 1'-0"
140
0.375
141
12.0
290
     0
  0
SCALE
  5
DDF2
102
{ACAD_REACTORS
330
DDD7
102
}
330
DDD7
100
AcDbScale
 70
     0
300
1/2" = 1'-0"
140
0.5
141
12.0
290
     0
  0
SCALE
  5
DDF3
102
{ACAD_REACTORS
330
DDD7
102
}
330
DDD7
100
AcDbScale
 70
     0
300
3/4" = 1'-0"
140
0.75
141
12.0
290
     0
  0
SCALE
  5
DDF4
102
{ACAD_REACTORS
330
DDD7
102
}
330
DDD7
100
AcDbScale
 70
     0
300
1" = 1'-0"
140
1.0
141
12.0
290
     0
  0
SCALE
  5
DDF5
102
{ACAD_REACTORS
330
DDD7
102
}
330
DDD7
100
AcDbScale
 70
     0
300
1-1/2" = 1'-0"
140
1.5
141
12.0
290
     0
  0
SCALE
  5
DDF6
102
{ACAD_REACTORS
330
DDD7
102
}
330
DDD7
100
AcDbScale
 70
     0
300
3" = 1'-0"
140
3.0
141
12.0
290
     0
  0
SCALE
  5
DDF7
102
{ACAD_REACTORS
330
DDD7
102
}
330
DDD7
100
AcDbScale
 70
     0
300
6" = 1'-0"
140
6.0
141
12.0
290
     0
  0
SCALE
  5
DDF8
102
{ACAD_REACTORS
330
DDD7
102
}
330
DDD7
100
AcDbScale
 70
     0
300
1'-0" = 1'-0"
140
12.0
141
12.0
290
     0
  0
ENDSEC
  0
EOF
