  0
SECTION
  2
HEADER
  9
$ACADVER
  1
AC1015
  9
$ACADMAINTVER
 70
     6
  9
$DWGCODEPAGE
  3
ANSI_1252
  9
$INSBASE
 10
0.0
 20
0.0
 30
0.0
  9
$EXTMIN
 10
0.0
 20
0.0
 30
0.0
  9
$EXTMAX
 10
840.0
 20
594.0
 30
0.0
  9
$LIMMIN
 10
0.0
 20
0.0
  9
$LIMMAX
 10
840.0
 20
594.0
  9
$ORTHOMODE
 70
     0
  9
$REGENMODE
 70
     1
  9
$FILLMODE
 70
     1
  9
$QTEXTMODE
 70
     0
  9
$MIRRTEXT
 70
     1
  9
$LTSCALE
 40
1.0
  9
$ATTMODE
 70
     1
  9
$TEXTSIZE
 40
2.8
  9
$TRACEWID
 40
1.0
  9
$TEXTSTYLE
  7
Standard
  9
$CLAYER
  8
0
  9
$CELTYPE
  6
ByLayer
  9
$CECOLOR
 62
   256
  9
$CELTSCALE
 40
1.0
  9
$DISPSILH
 70
     0
  9
$DIMSCALE
 40
1.0
  9
$DIMASZ
 40
3.2
  9
$DIMEXO
 40
0.1
  9
$DIMDLI
 40
3.75
  9
$DIMRND
 40
0.0
  9
$DIMDLE
 40
0.0
  9
$DIMEXE
 40
1.0
  9
$DIMTP
 40
0.0
  9
$DIMTM
 40
0.0
  9
$DIMTXT
 40
3.2
  9
$DIMCEN
 40
2.5
  9
$DIMTSZ
 40
0.0
  9
$DIMTOL
 70
     0
  9
$DIMLIM
 70
     0
  9
$DIMTIH
 70
     1
  9
$DIMTOH
 70
     1
  9
$DIMSE1
 70
     0
  9
$DIMSE2
 70
     0
  9
$DIMTAD
 70
     1
  9
$DIMZIN
 70
     0
  9
$DIMBLK
  1

  9
$DIMASO
 70
     1
  9
$DIMSHO
 70
     1
  9
$DIMPOST
  1

  9
$DIMAPOST
  1

  9
$DIMALT
 70
     0
  9
$DIMALTD
 70
     3
  9
$DIMALTF
 40
0.0393700787
  9
$DIMLFAC
 40
1.0
  9
$DIMTOFL
 70
     1
  9
$DIMTVP
 40
0.0
  9
$DIMTIX
 70
     0
  9
$DIMSOXD
 70
     0
  9
$DIMSAH
 70
     0
  9
$DIMBLK1
  1

  9
$DIMBLK2
  1

  9
$DIMSTYLE
  2
ISO-25
  9
$DIMCLRD
 70
     0
  9
$DIMCLRE
 70
     0
  9
$DIMCLRT
 70
     0
  9
$DIMTFAC
 40
1.0
  9
$DIMGAP
 40
2.0
  9
$DIMJUST
 70
     0
  9
$DIMSD1
 70
     0
  9
$DIMSD2
 70
     0
  9
$DIMTOLJ
 70
     0
  9
$DIMTZIN
 70
     0
  9
$DIMALTZ
 70
     0
  9
$DIMALTTZ
 70
     0
  9
$DIMUPT
 70
     0
  9
$DIMDEC
 70
     2
  9
$DIMTDEC
 70
     2
  9
$DIMALTU
 70
     2
  9
$DIMALTTD
 70
     3
  9
$DIMTXSTY
  7
Standard
  9
$DIMAUNIT
 70
     0
  9
$DIMADEC
 70
     2
  9
$DIMALTRND
 40
0.0
  9
$DIMAZIN
 70
     0
  9
$DIMDSEP
 70
    44
  9
$DIMATFIT
 70
     3
  9
$DIMFRAC
 70
     0
  9
$DIMLDRBLK
  1

  9
$DIMLUNIT
 70
     2
  9
$DIMLWD
 70
    -2
  9
$DIMLWE
 70
    -2
  9
$DIMTMOVE
 70
     0
  9
$LUNITS
 70
     2
  9
$LUPREC
 70
     2
  9
$SKETCHINC
 40
1.0
  9
$FILLETRAD
 40
10.0
  9
$AUNITS
 70
     0
  9
$AUPREC
 70
     2
  9
$MENU
  1
.
  9
$ELEVATION
 40
0.0
  9
$PELEVATION
 40
0.0
  9
$THICKNESS
 40
0.0
  9
$LIMCHECK
 70
     0
  9
$CHAMFERA
 40
0.0
  9
$CHAMFERB
 40
0.0
  9
$CHAMFERC
 40
0.0
  9
$CHAMFERD
 40
0.0
  9
$SKPOLY
 70
     0
  9
$TDCREATE
 40
2458555.481589282
  9
$TDUCREATE
 40
2458555.439922616
  9
$TDUPDATE
 40
2458555.481590324
  9
$TDUUPDATE
 40
2458555.439923658
  9
$TDINDWG
 40
0.0000000116
  9
$TDUSRTIMER
 40
0.0000000116
  9
$USRTIMER
 70
     1
  9
$ANGBASE
 50
0.0
  9
$ANGDIR
 70
     0
  9
$PDMODE
 70
     0
  9
$PDSIZE
 40
-1.0
  9
$PLINEWID
 40
0.0
  9
$SPLFRAME
 70
     0
  9
$SPLINETYPE
 70
     6
  9
$SPLINESEGS
 70
     8
  9
$HANDSEED
  5
521
  9
$SURFTAB1
 70
     6
  9
$SURFTAB2
 70
     6
  9
$SURFTYPE
 70
     6
  9
$SURFU
 70
     6
  9
$SURFV
 70
     6
  9
$UCSBASE
  2

  9
$UCSNAME
  2

  9
$UCSORG
 10
0.0
 20
0.0
 30
0.0
  9
$UCSXDIR
 10
1.0
 20
0.0
 30
0.0
  9
$UCSYDIR
 10
0.0
 20
1.0
 30
0.0
  9
$UCSORTHOREF
  2

  9
$UCSORTHOVIEW
 70
     0
  9
$UCSORGTOP
 10
0.0
 20
0.0
 30
0.0
  9
$UCSORGBOTTOM
 10
0.0
 20
0.0
 30
0.0
  9
$UCSORGLEFT
 10
0.0
 20
0.0
 30
0.0
  9
$UCSORGRIGHT
 10
0.0
 20
0.0
 30
0.0
  9
$UCSORGFRONT
 10
0.0
 20
0.0
 30
0.0
  9
$UCSORGBACK
 10
0.0
 20
0.0
 30
0.0
  9
$PUCSBASE
  2

  9
$PUCSNAME
  2

  9
$PUCSORG
 10
0.0
 20
0.0
 30
0.0
  9
$PUCSXDIR
 10
1.0
 20
0.0
 30
0.0
  9
$PUCSYDIR
 10
0.0
 20
1.0
 30
0.0
  9
$PUCSORTHOREF
  2

  9
$PUCSORTHOVIEW
 70
     0
  9
$PUCSORGTOP
 10
0.0
 20
0.0
 30
0.0
  9
$PUCSORGBOTTOM
 10
0.0
 20
0.0
 30
0.0
  9
$PUCSORGLEFT
 10
0.0
 20
0.0
 30
0.0
  9
$PUCSORGRIGHT
 10
0.0
 20
0.0
 30
0.0
  9
$PUCSORGFRONT
 10
0.0
 20
0.0
 30
0.0
  9
$PUCSORGBACK
 10
0.0
 20
0.0
 30
0.0
  9
$USERI1
 70
     0
  9
$USERI2
 70
     0
  9
$USERI3
 70
     0
  9
$USERI4
 70
     0
  9
$USERI5
 70
     0
  9
$USERR1
 40
0.0
  9
$USERR2
 40
0.0
  9
$USERR3
 40
0.0
  9
$USERR4
 40
0.0
  9
$USERR5
 40
0.0
  9
$WORLDVIEW
 70
     1
  9
$SHADEDGE
 70
     3
  9
$SHADEDIF
 70
    70
  9
$TILEMODE
 70
     1
  9
$MAXACTVP
 70
    64
  9
$PINSBASE
 10
0.0
 20
0.0
 30
0.0
  9
$PLIMCHECK
 70
     0
  9
$PEXTMIN
 10
1.0000000000E+20
 20
1.0000000000E+20
 30
1.0000000000E+20
  9
$PEXTMAX
 10
-1.0000000000E+20
 20
-1.0000000000E+20
 30
-1.0000000000E+20
  9
$PLIMMIN
 10
0.0
 20
0.0
  9
$PLIMMAX
 10
420.0
 20
297.0
  9
$UNITMODE
 70
     0
  9
$VISRETAIN
 70
     1
  9
$PLINEGEN
 70
     0
  9
$PSLTSCALE
 70
     1
  9
$TREEDEPTH
 70
  3020
  9
$CMLSTYLE
  2
Standard
  9
$CMLJUST
 70
     0
  9
$CMLSCALE
 40
20.0
  9
$PROXYGRAPHICS
 70
     1
  9
$MEASUREMENT
 70
     1
  9
$CELWEIGHT
370
    -1
  9
$ENDCAPS
280
     0
  9
$JOINSTYLE
280
     0
  9
$LWDISPLAY
290
     1
  9
$INSUNITS
 70
     4
  9
$HYPERLINKBASE
  1

  9
$STYLESHEET
  1

  9
$XEDIT
290
     1
  9
$CEPSNTYPE
380
     0
  9
$PSTYLEMODE
290
     1
  9
$FINGERPRINTGUID
  2
{512D7737-59BF-4BFE-892C-82845189C38A}
  9
$VERSIONGUID
  2
{FAEB1C32-E019-11D5-929B-00C0DF256EC4}
  9
$EXTNAMES
290
     1
  9
$PSVPSCALE
 40
0.0
  9
$OLESTARTUP
290
     0
  0
ENDSEC
  0
SECTION
  2
CLASSES
  0
CLASS
  1
ACDBDICTIONARYWDFLT
  2
AcDbDictionaryWithDefault
  3
ObjectDBX Classes
 90
        0
280
     0
281
     0
  0
CLASS
  1
VISUALSTYLE
  2
AcDbVisualStyle
  3
ObjectDBX Classes
 90
     4095
280
     0
281
     0
  0
CLASS
  1
MATERIAL
  2
AcDbMaterial
  3
ObjectDBX Classes
 90
     1153
280
     0
281
     0
  0
CLASS
  1
SCALE
  2
AcDbScale
  3
ObjectDBX Classes
 90
     1153
280
     0
281
     0
  0
CLASS
  1
TABLESTYLE
  2
AcDbTableStyle
  3
ObjectDBX Classes
 90
     4095
280
     0
281
     0
  0
CLASS
  1
MLEADERSTYLE
  2
AcDbMLeaderStyle
  3
ACDB_MLEADERSTYLE_CLASS
 90
     4095
280
     0
281
     0
  0
CLASS
  1
SUN
  2
AcDbSun
  3
SCENEOE
 90
     1153
280
     0
281
     0
  0
CLASS
  1
ACDBPLACEHOLDER
  2
AcDbPlaceHolder
  3
ObjectDBX Classes
 90
        0
280
     0
281
     0
  0
CLASS
  1
LAYOUT
  2
AcDbLayout
  3
ObjectDBX Classes
 90
        0
280
     0
281
     0
  0
ENDSEC
  0
SECTION
  2
TABLES
  0
TABLE
  2
VPORT
  5
8
330
0
100
AcDbSymbolTable
 70
     1
  0
VPORT
  5
29
330
8
100
AcDbSymbolTableRecord
100
AcDbViewportTableRecord
  2
*Active
 70
     0
 10
0.0
 20
0.0
 11
1.0
 21
1.0
 12
420.0
 22
297.0
 13
0.0
 23
0.0
 14
10.0
 24
10.0
 15
10.0
 25
10.0
 16
0.0
 26
0.0
 36
1.0
 17
0.0
 27
0.0
 37
0.0
 40
594.0
 41
1.4141414141
 42
50.0
 43
0.0
 44
0.0
 50
0.0
 51
0.0
 71
     0
 72
  2000
 73
     1
 74
     3
 75
     0
 76
     0
 77
     0
 78
     0
281
     0
 65
     1
110
0.0
120
0.0
130
0.0
111
1.0
121
0.0
131
0.0
112
0.0
122
1.0
132
0.0
 79
     0
146
0.0
  0
ENDTAB
  0
TABLE
  2
LTYPE
  5
5
330
0
100
AcDbSymbolTable
 70
     6
  0
LTYPE
  5
14
330
5
100
AcDbSymbolTableRecord
100
AcDbLinetypeTableRecord
  2
ByBlock
 70
     0
  3

 72
    65
 73
     0
 40
0.0
  0
LTYPE
  5
15
330
5
100
AcDbSymbolTableRecord
100
AcDbLinetypeTableRecord
  2
ByLayer
 70
     0
  3

 72
    65
 73
     0
 40
0.0
  0
LTYPE
  5
16
330
5
100
AcDbSymbolTableRecord
100
AcDbLinetypeTableRecord
  2
Continuous
 70
     0
  3
Solid line
 72
    65
 73
     0
 40
0.0
  0
LTYPE
  5
6E
330
5
100
AcDbSymbolTableRecord
100
AcDbLinetypeTableRecord
  2
HIDDEN
 70
     0
  3
Hidden __ __ __ __ __ __ __ __ __ __ __ __ __ __
 72
    65
 73
     2
 40
1.905
 49
1.27
 74
     0
 49
-0.635
 74
     0
  0
LTYPE
  5
6F
330
5
100
AcDbSymbolTableRecord
100
AcDbLinetypeTableRecord
  2
PHANTOM
 70
     0
  3
Phantom ______  __  __  ______  __  __  ______
 72
    65
 73
     6
 40
12.7
 49
6.35
 74
     0
 49
-1.27
 74
     0
 49
1.27
 74
     0
 49
-1.27
 74
     0
 49
1.27
 74
     0
 49
-1.27
 74
     0
  0
LTYPE
  5
70
330
5
100
AcDbSymbolTableRecord
100
AcDbLinetypeTableRecord
  2
CENTER
 70
     0
  3
Center ____ _ ____ _ ____ _ ____ _ ____ _ ____
 72
    65
 73
     4
 40
10.16
 49
6.35
 74
     0
 49
-1.27
 74
     0
 49
1.27
 74
     0
 49
-1.27
 74
     0
  0
LTYPE
  5
71
330
5
100
AcDbSymbolTableRecord
100
AcDbLinetypeTableRecord
  2
CENTERX2
 70
     0
  3
Center (2x) ________  __  ________  __  _____
 72
    65
 73
     4
 40
20.32
 49
12.7
 74
     0
 49
-2.54
 74
     0
 49
2.54
 74
     0
 49
-2.54
 74
     0
  0
LTYPE
  5
72
330
5
100
AcDbSymbolTableRecord
100
AcDbLinetypeTableRecord
  2
DOT2
 70
     0
  3
Dot (.5x) ........................................
 72
    65
 73
     2
 40
0.635
 49
0.0
 74
     0
 49
-0.635
 74
     0
  0
ENDTAB
  0
TABLE
  2
LAYER
  5
2
330
0
100
AcDbSymbolTable
 70
     2
  0
LAYER
  5
10
330
2
100
AcDbSymbolTableRecord
100
AcDbLayerTableRecord
  2
0
 70
     0
 62
     7
  6
Continuous
370
    -3
390
F
  0
LAYER
  5
73
330
2
100
AcDbSymbolTableRecord
100
AcDbLayerTableRecord
  2
FORMAT
 70
     0
 62
     7
  6
Continuous
370
    -3
390
F
  0
ENDTAB
  0
TABLE
  2
STYLE
  5
3
330
0
100
AcDbSymbolTable
 70
     2
  0
STYLE
  5
11
330
3
100
AcDbSymbolTableRecord
100
AcDbTextStyleTableRecord
  2
Standard
 70
     0
 40
0.0
 41
1.0
 50
0.0
 71
     0
 42
2.8
  3
txt
  4

  0
STYLE
  5
75
330
3
100
AcDbSymbolTableRecord
100
AcDbTextStyleTableRecord
  2
SLDTEXTSTYLE0
 70
     0
 40
0.0
 41
0.75
 50
0.0
 71
     0
 42
2.8
  3
TXT
  4

  0
ENDTAB
  0
TABLE
  2
VIEW
  5
6
330
0
100
AcDbSymbolTable
 70
     0
  0
ENDTAB
  0
TABLE
  2
UCS
  5
7
330
0
100
AcDbSymbolTable
 70
     0
  0
ENDTAB
  0
TABLE
  2
APPID
  5
9
330
0
100
AcDbSymbolTable
 70
     1
  0
APPID
  5
12
330
9
100
AcDbSymbolTableRecord
100
AcDbRegAppTableRecord
  2
ACAD
 70
     0
  0
ENDTAB
  0
TABLE
  2
DIMSTYLE
  5
A
330
0
100
AcDbSymbolTable
 70
     1
100
AcDbDimStyleTable
  0
DIMSTYLE
105
27
330
A
100
AcDbSymbolTableRecord
100
AcDbDimStyleTableRecord
  2
ISO-25
 70
     0
 41
2.5
 42
0.625
 43
3.75
 44
1.25
 73
     0
 74
     0
 77
     1
 78
     8
140
2.5
141
2.5
143
0.0393700787
147
0.625
171
     3
172
     1
178
     0
271
     2
272
     2
274
     3
278
    44
283
     0
284
     8
340
11
  0
ENDTAB
  0
TABLE
  2
BLOCK_RECORD
  5
1
330
0
100
AcDbSymbolTable
 70
    16
  0
BLOCK_RECORD
  5
1F
330
1
100
AcDbSymbolTableRecord
100
AcDbBlockTableRecord
  2
*Model_Space
340
22
  0
BLOCK_RECORD
  5
1B
330
1
100
AcDbSymbolTableRecord
100
AcDbBlockTableRecord
  2
*Paper_Space
340
1E
  0
BLOCK_RECORD
  5
23
330
1
100
AcDbSymbolTableRecord
100
AcDbBlockTableRecord
  2
*Paper_Space0
340
26
  0
BLOCK_RECORD
  5
13F
330
1
100
AcDbSymbolTableRecord
100
AcDbBlockTableRecord
  2
SW_CENTERMARKSYMBOL_0
340
0
102
{BLKREFS
331
14A
102
}
  0
BLOCK_RECORD
  5
14B
330
1
100
AcDbSymbolTableRecord
100
AcDbBlockTableRecord
  2
SW_CENTERMARKSYMBOL_1
340
0
102
{BLKREFS
331
156
102
}
  0
BLOCK_RECORD
  5
157
330
1
100
AcDbSymbolTableRecord
100
AcDbBlockTableRecord
  2
SW_CENTERMARKSYMBOL_2
340
0
102
{BLKREFS
331
162
102
}
  0
BLOCK_RECORD
  5
21D
330
1
100
AcDbSymbolTableRecord
100
AcDbBlockTableRecord
  2
SW_CENTERMARKSYMBOL_3
340
0
102
{BLKREFS
331
228
102
}
  0
BLOCK_RECORD
  5
229
330
1
100
AcDbSymbolTableRecord
100
AcDbBlockTableRecord
  2
SW_CENTERMARKSYMBOL_4
340
0
102
{BLKREFS
331
234
102
}
  0
BLOCK_RECORD
  5
235
330
1
100
AcDbSymbolTableRecord
100
AcDbBlockTableRecord
  2
SW_CENTERMARKSYMBOL_5
340
0
102
{BLKREFS
331
240
102
}
  0
BLOCK_RECORD
  5
241
330
1
100
AcDbSymbolTableRecord
100
AcDbBlockTableRecord
  2
SW_CENTERMARKSYMBOL_6
340
0
102
{BLKREFS
331
24C
102
}
  0
BLOCK_RECORD
  5
24D
330
1
100
AcDbSymbolTableRecord
100
AcDbBlockTableRecord
  2
SW_CENTERMARKSYMBOL_7
340
0
102
{BLKREFS
331
258
102
}
  0
BLOCK_RECORD
  5
259
330
1
100
AcDbSymbolTableRecord
100
AcDbBlockTableRecord
  2
SW_CENTERMARKSYMBOL_8
340
0
102
{BLKREFS
331
264
102
}
  0
BLOCK_RECORD
  5
494
330
1
100
AcDbSymbolTableRecord
100
AcDbBlockTableRecord
  2
SW_CENTERMARKSYMBOL_9
340
0
102
{BLKREFS
331
49F
102
}
  0
BLOCK_RECORD
  5
4A0
330
1
100
AcDbSymbolTableRecord
100
AcDbBlockTableRecord
  2
SW_CENTERMARKSYMBOL_10
340
0
102
{BLKREFS
331
4AB
102
}
  0
BLOCK_RECORD
  5
4AC
330
1
100
AcDbSymbolTableRecord
100
AcDbBlockTableRecord
  2
SW_CENTERMARKSYMBOL_11
340
0
102
{BLKREFS
331
4B7
102
}
  0
BLOCK_RECORD
  5
4B8
330
1
100
AcDbSymbolTableRecord
100
AcDbBlockTableRecord
  2
SW_CENTERMARKSYMBOL_12
340
0
102
{BLKREFS
331
4C3
102
}
  0
BLOCK_RECORD
  5
4C4
330
1
100
AcDbSymbolTableRecord
100
AcDbBlockTableRecord
  2
SW_CENTERMARKSYMBOL_13
340
0
102
{BLKREFS
331
4CF
102
}
  0
BLOCK_RECORD
  5
4D0
330
1
100
AcDbSymbolTableRecord
100
AcDbBlockTableRecord
  2
SW_CENTERMARKSYMBOL_14
340
0
102
{BLKREFS
331
4DB
102
}
  0
ENDTAB
  0
ENDSEC
  0
SECTION
  2
BLOCKS
  0
BLOCK
  5
20
330
1F
100
AcDbEntity
  8
0
100
AcDbBlockBegin
  2
*Model_Space
 70
     0
 10
0.0
 20
0.0
 30
0.0
  3
*Model_Space
  1

  0
ENDBLK
  5
21
330
1F
100
AcDbEntity
  8
0
100
AcDbBlockEnd
  0
BLOCK
  5
1C
330
1B
100
AcDbEntity
 67
     1
  8
0
100
AcDbBlockBegin
  2
*Paper_Space
 70
     0
 10
0.0
 20
0.0
 30
0.0
  3
*Paper_Space
  1

  0
ENDBLK
  5
1D
330
1B
100
AcDbEntity
 67
     1
  8
0
100
AcDbBlockEnd
  0
BLOCK
  5
24
330
23
100
AcDbEntity
  8
0
100
AcDbBlockBegin
  2
*Paper_Space0
 70
     0
 10
0.0
 20
0.0
 30
0.0
  3
*Paper_Space0
  1

  0
ENDBLK
  5
25
330
23
100
AcDbEntity
  8
0
100
AcDbBlockEnd
  0
BLOCK
  5
140
330
13F
100
AcDbEntity
  8
0
100
AcDbBlockBegin
  2
SW_CENTERMARKSYMBOL_0
 70
     0
 10
0.0
 20
0.0
 30
0.0
  3
SW_CENTERMARKSYMBOL_0
  1

  0
LINE
  5
142
330
13F
100
AcDbEntity
  8
0
  6
Continuous
 62
     0
370
     0
100
AcDbLine
 10
0.0
 20
0.0
 30
0.0
 11
0.0
 21
-2.5
 31
0.0
  0
LINE
  5
143
330
13F
100
AcDbEntity
  8
0
  6
Continuous
 62
     0
370
     0
100
AcDbLine
 10
0.0
 20
0.0
 30
0.0
 11
2.5
 21
0.0
 31
0.0
  0
LINE
  5
144
330
13F
100
AcDbEntity
  8
0
  6
Continuous
 62
     0
370
     0
100
AcDbLine
 10
0.0
 20
0.0
 30
0.0
 11
0.0
 21
2.5
 31
0.0
  0
LINE
  5
145
330
13F
100
AcDbEntity
  8
0
  6
Continuous
 62
     0
370
     0
100
AcDbLine
 10
0.0
 20
0.0
 30
0.0
 11
-2.5
 21
0.0
 31
0.0
  0
LINE
  5
146
330
13F
100
AcDbEntity
  8
0
  6
Continuous
 62
     0
370
     0
100
AcDbLine
 10
0.0
 20
-5.0
 30
0.0
 11
0.0
 21
-5.7
 31
0.0
  0
LINE
  5
147
330
13F
100
AcDbEntity
  8
0
  6
Continuous
 62
     0
370
     0
100
AcDbLine
 10
5.0
 20
0.0
 30
0.0
 11
5.7
 21
0.0
 31
0.0
  0
LINE
  5
148
330
13F
100
AcDbEntity
  8
0
  6
Continuous
 62
     0
370
     0
100
AcDbLine
 10
0.0
 20
5.0
 30
0.0
 11
0.0
 21
5.7
 31
0.0
  0
LINE
  5
149
330
13F
100
AcDbEntity
  8
0
  6
Continuous
 62
     0
370
     0
100
AcDbLine
 10
-5.0
 20
0.0
 30
0.0
 11
-5.7
 21
0.0
 31
0.0
  0
ENDBLK
  5
141
330
13F
100
AcDbEntity
  8
0
100
AcDbBlockEnd
  0
BLOCK
  5
14C
330
14B
100
AcDbEntity
  8
0
100
AcDbBlockBegin
  2
SW_CENTERMARKSYMBOL_1
 70
     0
 10
0.0
 20
0.0
 30
0.0
  3
SW_CENTERMARKSYMBOL_1
  1

  0
LINE
  5
14E
330
14B
100
AcDbEntity
  8
0
  6
Continuous
 62
     0
370
     0
100
AcDbLine
 10
0.0
 20
0.0
 30
0.0
 11
0.0
 21
-2.5
 31
0.0
  0
LINE
  5
14F
330
14B
100
AcDbEntity
  8
0
  6
Continuous
 62
     0
370
     0
100
AcDbLine
 10
0.0
 20
0.0
 30
0.0
 11
2.5
 21
0.0
 31
0.0
  0
LINE
  5
150
330
14B
100
AcDbEntity
  8
0
  6
Continuous
 62
     0
370
     0
100
AcDbLine
 10
0.0
 20
0.0
 30
0.0
 11
0.0
 21
2.5
 31
0.0
  0
LINE
  5
151
330
14B
100
AcDbEntity
  8
0
  6
Continuous
 62
     0
370
     0
100
AcDbLine
 10
0.0
 20
0.0
 30
0.0
 11
-2.5
 21
0.0
 31
0.0
  0
LINE
  5
152
330
14B
100
AcDbEntity
  8
0
  6
Continuous
 62
     0
370
     0
100
AcDbLine
 10
0.0
 20
-5.0
 30
0.0
 11
0.0
 21
-5.7
 31
0.0
  0
LINE
  5
153
330
14B
100
AcDbEntity
  8
0
  6
Continuous
 62
     0
370
     0
100
AcDbLine
 10
5.0
 20
0.0
 30
0.0
 11
5.7
 21
0.0
 31
0.0
  0
LINE
  5
154
330
14B
100
AcDbEntity
  8
0
  6
Continuous
 62
     0
370
     0
100
AcDbLine
 10
0.0
 20
5.0
 30
0.0
 11
0.0
 21
5.7
 31
0.0
  0
LINE
  5
155
330
14B
100
AcDbEntity
  8
0
  6
Continuous
 62
     0
370
     0
100
AcDbLine
 10
-5.0
 20
0.0
 30
0.0
 11
-5.7
 21
0.0
 31
0.0
  0
ENDBLK
  5
14D
330
14B
100
AcDbEntity
  8
0
100
AcDbBlockEnd
  0
BLOCK
  5
158
330
157
100
AcDbEntity
  8
0
100
AcDbBlockBegin
  2
SW_CENTERMARKSYMBOL_2
 70
     0
 10
0.0
 20
0.0
 30
0.0
  3
SW_CENTERMARKSYMBOL_2
  1

  0
LINE
  5
15A
330
157
100
AcDbEntity
  8
0
  6
Continuous
 62
     0
370
     0
100
AcDbLine
 10
0.0
 20
0.0
 30
0.0
 11
0.0
 21
-2.5
 31
0.0
  0
LINE
  5
15B
330
157
100
AcDbEntity
  8
0
  6
Continuous
 62
     0
370
     0
100
AcDbLine
 10
0.0
 20
0.0
 30
0.0
 11
2.5
 21
0.0
 31
0.0
  0
LINE
  5
15C
330
157
100
AcDbEntity
  8
0
  6
Continuous
 62
     0
370
     0
100
AcDbLine
 10
0.0
 20
0.0
 30
0.0
 11
0.0
 21
2.5
 31
0.0
  0
LINE
  5
15D
330
157
100
AcDbEntity
  8
0
  6
Continuous
 62
     0
370
     0
100
AcDbLine
 10
0.0
 20
0.0
 30
0.0
 11
-2.5
 21
0.0
 31
0.0
  0
LINE
  5
15E
330
157
100
AcDbEntity
  8
0
  6
Continuous
 62
     0
370
     0
100
AcDbLine
 10
0.0
 20
-5.0
 30
0.0
 11
0.0
 21
-5.7
 31
0.0
  0
LINE
  5
15F
330
157
100
AcDbEntity
  8
0
  6
Continuous
 62
     0
370
     0
100
AcDbLine
 10
5.0
 20
0.0
 30
0.0
 11
5.7
 21
0.0
 31
0.0
  0
LINE
  5
160
330
157
100
AcDbEntity
  8
0
  6
Continuous
 62
     0
370
     0
100
AcDbLine
 10
0.0
 20
5.0
 30
0.0
 11
0.0
 21
5.7
 31
0.0
  0
LINE
  5
161
330
157
100
AcDbEntity
  8
0
  6
Continuous
 62
     0
370
     0
100
AcDbLine
 10
-5.0
 20
0.0
 30
0.0
 11
-5.7
 21
0.0
 31
0.0
  0
ENDBLK
  5
159
330
157
100
AcDbEntity
  8
0
100
AcDbBlockEnd
  0
BLOCK
  5
21E
330
21D
100
AcDbEntity
  8
0
100
AcDbBlockBegin
  2
SW_CENTERMARKSYMBOL_3
 70
     0
 10
0.0
 20
0.0
 30
0.0
  3
SW_CENTERMARKSYMBOL_3
  1

  0
LINE
  5
220
330
21D
100
AcDbEntity
  8
0
  6
Continuous
 62
     0
370
     0
100
AcDbLine
 10
0.0
 20
0.0
 30
0.0
 11
0.0
 21
2.5
 31
0.0
  0
LINE
  5
221
330
21D
100
AcDbEntity
  8
0
  6
Continuous
 62
     0
370
     0
100
AcDbLine
 10
0.0
 20
0.0
 30
0.0
 11
-2.5
 21
0.0
 31
0.0
  0
LINE
  5
222
330
21D
100
AcDbEntity
  8
0
  6
Continuous
 62
     0
370
     0
100
AcDbLine
 10
0.0
 20
0.0
 30
0.0
 11
0.0
 21
-2.5
 31
0.0
  0
LINE
  5
223
330
21D
100
AcDbEntity
  8
0
  6
Continuous
 62
     0
370
     0
100
AcDbLine
 10
0.0
 20
0.0
 30
0.0
 11
2.5
 21
0.0
 31
0.0
  0
LINE
  5
224
330
21D
100
AcDbEntity
  8
0
  6
Continuous
 62
     0
370
     0
100
AcDbLine
 10
0.0
 20
5.0
 30
0.0
 11
0.0
 21
8.7
 31
0.0
  0
LINE
  5
225
330
21D
100
AcDbEntity
  8
0
  6
Continuous
 62
     0
370
     0
100
AcDbLine
 10
-5.0
 20
0.0
 30
0.0
 11
-8.7
 21
0.0
 31
0.0
  0
LINE
  5
226
330
21D
100
AcDbEntity
  8
0
  6
Continuous
 62
     0
370
     0
100
AcDbLine
 10
0.0
 20
-5.0
 30
0.0
 11
0.0
 21
-8.7
 31
0.0
  0
LINE
  5
227
330
21D
100
AcDbEntity
  8
0
  6
Continuous
 62
     0
370
     0
100
AcDbLine
 10
5.0
 20
0.0
 30
0.0
 11
8.7
 21
0.0
 31
0.0
  0
ENDBLK
  5
21F
330
21D
100
AcDbEntity
  8
0
100
AcDbBlockEnd
  0
BLOCK
  5
22A
330
229
100
AcDbEntity
  8
0
100
AcDbBlockBegin
  2
SW_CENTERMARKSYMBOL_4
 70
     0
 10
0.0
 20
0.0
 30
0.0
  3
SW_CENTERMARKSYMBOL_4
  1

  0
LINE
  5
22C
330
229
100
AcDbEntity
  8
0
  6
Continuous
 62
     0
370
     0
100
AcDbLine
 10
0.0
 20
0.0
 30
0.0
 11
0.0
 21
2.5
 31
0.0
  0
LINE
  5
22D
330
229
100
AcDbEntity
  8
0
  6
Continuous
 62
     0
370
     0
100
AcDbLine
 10
0.0
 20
0.0
 30
0.0
 11
-2.5
 21
0.0
 31
0.0
  0
LINE
  5
22E
330
229
100
AcDbEntity
  8
0
  6
Continuous
 62
     0
370
     0
100
AcDbLine
 10
0.0
 20
0.0
 30
0.0
 11
0.0
 21
-2.5
 31
0.0
  0
LINE
  5
22F
330
229
100
AcDbEntity
  8
0
  6
Continuous
 62
     0
370
     0
100
AcDbLine
 10
0.0
 20
0.0
 30
0.0
 11
2.5
 21
0.0
 31
0.0
  0
LINE
  5
230
330
229
100
AcDbEntity
  8
0
  6
Continuous
 62
     0
370
     0
100
AcDbLine
 10
0.0
 20
5.0
 30
0.0
 11
0.0
 21
8.7
 31
0.0
  0
LINE
  5
231
330
229
100
AcDbEntity
  8
0
  6
Continuous
 62
     0
370
     0
100
AcDbLine
 10
-5.0
 20
0.0
 30
0.0
 11
-8.7
 21
0.0
 31
0.0
  0
LINE
  5
232
330
229
100
AcDbEntity
  8
0
  6
Continuous
 62
     0
370
     0
100
AcDbLine
 10
0.0
 20
-5.0
 30
0.0
 11
0.0
 21
-8.7
 31
0.0
  0
LINE
  5
233
330
229
100
AcDbEntity
  8
0
  6
Continuous
 62
     0
370
     0
100
AcDbLine
 10
5.0
 20
0.0
 30
0.0
 11
8.7
 21
0.0
 31
0.0
  0
ENDBLK
  5
22B
330
229
100
AcDbEntity
  8
0
100
AcDbBlockEnd
  0
BLOCK
  5
236
330
235
100
AcDbEntity
  8
0
100
AcDbBlockBegin
  2
SW_CENTERMARKSYMBOL_5
 70
     0
 10
0.0
 20
0.0
 30
0.0
  3
SW_CENTERMARKSYMBOL_5
  1

  0
LINE
  5
238
330
235
100
AcDbEntity
  8
0
  6
Continuous
 62
     0
370
     0
100
AcDbLine
 10
0.0
 20
0.0
 30
0.0
 11
0.0
 21
2.5
 31
0.0
  0
LINE
  5
239
330
235
100
AcDbEntity
  8
0
  6
Continuous
 62
     0
370
     0
100
AcDbLine
 10
0.0
 20
0.0
 30
0.0
 11
-2.5
 21
0.0
 31
0.0
  0
LINE
  5
23A
330
235
100
AcDbEntity
  8
0
  6
Continuous
 62
     0
370
     0
100
AcDbLine
 10
0.0
 20
0.0
 30
0.0
 11
0.0
 21
-2.5
 31
0.0
  0
LINE
  5
23B
330
235
100
AcDbEntity
  8
0
  6
Continuous
 62
     0
370
     0
100
AcDbLine
 10
0.0
 20
0.0
 30
0.0
 11
2.5
 21
0.0
 31
0.0
  0
LINE
  5
23C
330
235
100
AcDbEntity
  8
0
  6
Continuous
 62
     0
370
     0
100
AcDbLine
 10
0.0
 20
5.0
 30
0.0
 11
0.0
 21
8.7
 31
0.0
  0
LINE
  5
23D
330
235
100
AcDbEntity
  8
0
  6
Continuous
 62
     0
370
     0
100
AcDbLine
 10
-5.0
 20
0.0
 30
0.0
 11
-8.7
 21
0.0
 31
0.0
  0
LINE
  5
23E
330
235
100
AcDbEntity
  8
0
  6
Continuous
 62
     0
370
     0
100
AcDbLine
 10
0.0
 20
-5.0
 30
0.0
 11
0.0
 21
-8.7
 31
0.0
  0
LINE
  5
23F
330
235
100
AcDbEntity
  8
0
  6
Continuous
 62
     0
370
     0
100
AcDbLine
 10
5.0
 20
0.0
 30
0.0
 11
8.7
 21
0.0
 31
0.0
  0
ENDBLK
  5
237
330
235
100
AcDbEntity
  8
0
100
AcDbBlockEnd
  0
BLOCK
  5
242
330
241
100
AcDbEntity
  8
0
100
AcDbBlockBegin
  2
SW_CENTERMARKSYMBOL_6
 70
     0
 10
0.0
 20
0.0
 30
0.0
  3
SW_CENTERMARKSYMBOL_6
  1

  0
LINE
  5
244
330
241
100
AcDbEntity
  8
0
  6
Continuous
 62
     0
370
     0
100
AcDbLine
 10
0.0
 20
0.0
 30
0.0
 11
0.0
 21
2.5
 31
0.0
  0
LINE
  5
245
330
241
100
AcDbEntity
  8
0
  6
Continuous
 62
     0
370
     0
100
AcDbLine
 10
0.0
 20
0.0
 30
0.0
 11
-2.5
 21
0.0
 31
0.0
  0
LINE
  5
246
330
241
100
AcDbEntity
  8
0
  6
Continuous
 62
     0
370
     0
100
AcDbLine
 10
0.0
 20
0.0
 30
0.0
 11
0.0
 21
-2.5
 31
0.0
  0
LINE
  5
247
330
241
100
AcDbEntity
  8
0
  6
Continuous
 62
     0
370
     0
100
AcDbLine
 10
0.0
 20
0.0
 30
0.0
 11
2.5
 21
0.0
 31
0.0
  0
LINE
  5
248
330
241
100
AcDbEntity
  8
0
  6
Continuous
 62
     0
370
     0
100
AcDbLine
 10
0.0
 20
5.0
 30
0.0
 11
0.0
 21
5.7
 31
0.0
  0
LINE
  5
249
330
241
100
AcDbEntity
  8
0
  6
Continuous
 62
     0
370
     0
100
AcDbLine
 10
-5.0
 20
0.0
 30
0.0
 11
-5.7
 21
0.0
 31
0.0
  0
LINE
  5
24A
330
241
100
AcDbEntity
  8
0
  6
Continuous
 62
     0
370
     0
100
AcDbLine
 10
0.0
 20
-5.0
 30
0.0
 11
0.0
 21
-5.7
 31
0.0
  0
LINE
  5
24B
330
241
100
AcDbEntity
  8
0
  6
Continuous
 62
     0
370
     0
100
AcDbLine
 10
5.0
 20
0.0
 30
0.0
 11
5.7
 21
0.0
 31
0.0
  0
ENDBLK
  5
243
330
241
100
AcDbEntity
  8
0
100
AcDbBlockEnd
  0
BLOCK
  5
24E
330
24D
100
AcDbEntity
  8
0
100
AcDbBlockBegin
  2
SW_CENTERMARKSYMBOL_7
 70
     0
 10
0.0
 20
0.0
 30
0.0
  3
SW_CENTERMARKSYMBOL_7
  1

  0
LINE
  5
250
330
24D
100
AcDbEntity
  8
0
  6
Continuous
 62
     0
370
     0
100
AcDbLine
 10
0.0
 20
0.0
 30
0.0
 11
0.0
 21
2.5
 31
0.0
  0
LINE
  5
251
330
24D
100
AcDbEntity
  8
0
  6
Continuous
 62
     0
370
     0
100
AcDbLine
 10
0.0
 20
0.0
 30
0.0
 11
-2.5
 21
0.0
 31
0.0
  0
LINE
  5
252
330
24D
100
AcDbEntity
  8
0
  6
Continuous
 62
     0
370
     0
100
AcDbLine
 10
0.0
 20
0.0
 30
0.0
 11
0.0
 21
-2.5
 31
0.0
  0
LINE
  5
253
330
24D
100
AcDbEntity
  8
0
  6
Continuous
 62
     0
370
     0
100
AcDbLine
 10
0.0
 20
0.0
 30
0.0
 11
2.5
 21
0.0
 31
0.0
  0
LINE
  5
254
330
24D
100
AcDbEntity
  8
0
  6
Continuous
 62
     0
370
     0
100
AcDbLine
 10
0.0
 20
5.0
 30
0.0
 11
0.0
 21
5.7
 31
0.0
  0
LINE
  5
255
330
24D
100
AcDbEntity
  8
0
  6
Continuous
 62
     0
370
     0
100
AcDbLine
 10
-5.0
 20
0.0
 30
0.0
 11
-5.7
 21
0.0
 31
0.0
  0
LINE
  5
256
330
24D
100
AcDbEntity
  8
0
  6
Continuous
 62
     0
370
     0
100
AcDbLine
 10
0.0
 20
-5.0
 30
0.0
 11
0.0
 21
-5.7
 31
0.0
  0
LINE
  5
257
330
24D
100
AcDbEntity
  8
0
  6
Continuous
 62
     0
370
     0
100
AcDbLine
 10
5.0
 20
0.0
 30
0.0
 11
5.7
 21
0.0
 31
0.0
  0
ENDBLK
  5
24F
330
24D
100
AcDbEntity
  8
0
100
AcDbBlockEnd
  0
BLOCK
  5
25A
330
259
100
AcDbEntity
  8
0
100
AcDbBlockBegin
  2
SW_CENTERMARKSYMBOL_8
 70
     0
 10
0.0
 20
0.0
 30
0.0
  3
SW_CENTERMARKSYMBOL_8
  1

  0
LINE
  5
25C
330
259
100
AcDbEntity
  8
0
  6
Continuous
 62
     0
370
     0
100
AcDbLine
 10
0.0
 20
0.0
 30
0.0
 11
0.0
 21
2.5
 31
0.0
  0
LINE
  5
25D
330
259
100
AcDbEntity
  8
0
  6
Continuous
 62
     0
370
     0
100
AcDbLine
 10
0.0
 20
0.0
 30
0.0
 11
-2.5
 21
0.0
 31
0.0
  0
LINE
  5
25E
330
259
100
AcDbEntity
  8
0
  6
Continuous
 62
     0
370
     0
100
AcDbLine
 10
0.0
 20
0.0
 30
0.0
 11
0.0
 21
-2.5
 31
0.0
  0
LINE
  5
25F
330
259
100
AcDbEntity
  8
0
  6
Continuous
 62
     0
370
     0
100
AcDbLine
 10
0.0
 20
0.0
 30
0.0
 11
2.5
 21
0.0
 31
0.0
  0
LINE
  5
260
330
259
100
AcDbEntity
  8
0
  6
Continuous
 62
     0
370
     0
100
AcDbLine
 10
0.0
 20
5.0
 30
0.0
 11
0.0
 21
5.7
 31
0.0
  0
LINE
  5
261
330
259
100
AcDbEntity
  8
0
  6
Continuous
 62
     0
370
     0
100
AcDbLine
 10
-5.0
 20
0.0
 30
0.0
 11
-5.7
 21
0.0
 31
0.0
  0
LINE
  5
262
330
259
100
AcDbEntity
  8
0
  6
Continuous
 62
     0
370
     0
100
AcDbLine
 10
0.0
 20
-5.0
 30
0.0
 11
0.0
 21
-5.7
 31
0.0
  0
LINE
  5
263
330
259
100
AcDbEntity
  8
0
  6
Continuous
 62
     0
370
     0
100
AcDbLine
 10
5.0
 20
0.0
 30
0.0
 11
5.7
 21
0.0
 31
0.0
  0
ENDBLK
  5
25B
330
259
100
AcDbEntity
  8
0
100
AcDbBlockEnd
  0
BLOCK
  5
495
330
494
100
AcDbEntity
  8
0
100
AcDbBlockBegin
  2
SW_CENTERMARKSYMBOL_9
 70
     0
 10
0.0
 20
0.0
 30
0.0
  3
SW_CENTERMARKSYMBOL_9
  1

  0
LINE
  5
497
330
494
100
AcDbEntity
  8
0
  6
Continuous
 62
     0
370
     0
100
AcDbLine
 10
0.0
 20
0.0
 30
0.0
 11
0.0
 21
2.5
 31
0.0
  0
LINE
  5
498
330
494
100
AcDbEntity
  8
0
  6
Continuous
 62
     0
370
     0
100
AcDbLine
 10
0.0
 20
0.0
 30
0.0
 11
-2.5
 21
0.0
 31
0.0
  0
LINE
  5
499
330
494
100
AcDbEntity
  8
0
  6
Continuous
 62
     0
370
     0
100
AcDbLine
 10
0.0
 20
0.0
 30
0.0
 11
0.0
 21
-2.5
 31
0.0
  0
LINE
  5
49A
330
494
100
AcDbEntity
  8
0
  6
Continuous
 62
     0
370
     0
100
AcDbLine
 10
0.0
 20
0.0
 30
0.0
 11
2.5
 21
0.0
 31
0.0
  0
LINE
  5
49B
330
494
100
AcDbEntity
  8
0
  6
Continuous
 62
     0
370
     0
100
AcDbLine
 10
0.0
 20
5.0
 30
0.0
 11
0.0
 21
5.7
 31
0.0
  0
LINE
  5
49C
330
494
100
AcDbEntity
  8
0
  6
Continuous
 62
     0
370
     0
100
AcDbLine
 10
-5.0
 20
0.0
 30
0.0
 11
-5.7
 21
0.0
 31
0.0
  0
LINE
  5
49D
330
494
100
AcDbEntity
  8
0
  6
Continuous
 62
     0
370
     0
100
AcDbLine
 10
0.0
 20
-5.0
 30
0.0
 11
0.0
 21
-5.7
 31
0.0
  0
LINE
  5
49E
330
494
100
AcDbEntity
  8
0
  6
Continuous
 62
     0
370
     0
100
AcDbLine
 10
5.0
 20
0.0
 30
0.0
 11
5.7
 21
0.0
 31
0.0
  0
ENDBLK
  5
496
330
494
100
AcDbEntity
  8
0
100
AcDbBlockEnd
  0
BLOCK
  5
4A1
330
4A0
100
AcDbEntity
  8
0
100
AcDbBlockBegin
  2
SW_CENTERMARKSYMBOL_10
 70
     0
 10
0.0
 20
0.0
 30
0.0
  3
SW_CENTERMARKSYMBOL_10
  1

  0
LINE
  5
4A3
330
4A0
100
AcDbEntity
  8
0
  6
Continuous
 62
     0
370
     0
100
AcDbLine
 10
0.0
 20
0.0
 30
0.0
 11
0.0
 21
2.5
 31
0.0
  0
LINE
  5
4A4
330
4A0
100
AcDbEntity
  8
0
  6
Continuous
 62
     0
370
     0
100
AcDbLine
 10
0.0
 20
0.0
 30
0.0
 11
-2.5
 21
0.0
 31
0.0
  0
LINE
  5
4A5
330
4A0
100
AcDbEntity
  8
0
  6
Continuous
 62
     0
370
     0
100
AcDbLine
 10
0.0
 20
0.0
 30
0.0
 11
0.0
 21
-2.5
 31
0.0
  0
LINE
  5
4A6
330
4A0
100
AcDbEntity
  8
0
  6
Continuous
 62
     0
370
     0
100
AcDbLine
 10
0.0
 20
0.0
 30
0.0
 11
2.5
 21
0.0
 31
0.0
  0
LINE
  5
4A7
330
4A0
100
AcDbEntity
  8
0
  6
Continuous
 62
     0
370
     0
100
AcDbLine
 10
0.0
 20
5.0
 30
0.0
 11
0.0
 21
5.7
 31
0.0
  0
LINE
  5
4A8
330
4A0
100
AcDbEntity
  8
0
  6
Continuous
 62
     0
370
     0
100
AcDbLine
 10
-5.0
 20
0.0
 30
0.0
 11
-5.7
 21
0.0
 31
0.0
  0
LINE
  5
4A9
330
4A0
100
AcDbEntity
  8
0
  6
Continuous
 62
     0
370
     0
100
AcDbLine
 10
0.0
 20
-5.0
 30
0.0
 11
0.0
 21
-5.7
 31
0.0
  0
LINE
  5
4AA
330
4A0
100
AcDbEntity
  8
0
  6
Continuous
 62
     0
370
     0
100
AcDbLine
 10
5.0
 20
0.0
 30
0.0
 11
5.7
 21
0.0
 31
0.0
  0
ENDBLK
  5
4A2
330
4A0
100
AcDbEntity
  8
0
100
AcDbBlockEnd
  0
BLOCK
  5
4AD
330
4AC
100
AcDbEntity
  8
0
100
AcDbBlockBegin
  2
SW_CENTERMARKSYMBOL_11
 70
     0
 10
0.0
 20
0.0
 30
0.0
  3
SW_CENTERMARKSYMBOL_11
  1

  0
LINE
  5
4AF
330
4AC
100
AcDbEntity
  8
0
  6
Continuous
 62
     0
370
     0
100
AcDbLine
 10
0.0
 20
0.0
 30
0.0
 11
0.0
 21
2.5
 31
0.0
  0
LINE
  5
4B0
330
4AC
100
AcDbEntity
  8
0
  6
Continuous
 62
     0
370
     0
100
AcDbLine
 10
0.0
 20
0.0
 30
0.0
 11
-2.5
 21
0.0
 31
0.0
  0
LINE
  5
4B1
330
4AC
100
AcDbEntity
  8
0
  6
Continuous
 62
     0
370
     0
100
AcDbLine
 10
0.0
 20
0.0
 30
0.0
 11
0.0
 21
-2.5
 31
0.0
  0
LINE
  5
4B2
330
4AC
100
AcDbEntity
  8
0
  6
Continuous
 62
     0
370
     0
100
AcDbLine
 10
0.0
 20
0.0
 30
0.0
 11
2.5
 21
0.0
 31
0.0
  0
LINE
  5
4B3
330
4AC
100
AcDbEntity
  8
0
  6
Continuous
 62
     0
370
     0
100
AcDbLine
 10
0.0
 20
5.0
 30
0.0
 11
0.0
 21
5.7
 31
0.0
  0
LINE
  5
4B4
330
4AC
100
AcDbEntity
  8
0
  6
Continuous
 62
     0
370
     0
100
AcDbLine
 10
-5.0
 20
0.0
 30
0.0
 11
-5.7
 21
0.0
 31
0.0
  0
LINE
  5
4B5
330
4AC
100
AcDbEntity
  8
0
  6
Continuous
 62
     0
370
     0
100
AcDbLine
 10
0.0
 20
-5.0
 30
0.0
 11
0.0
 21
-5.7
 31
0.0
  0
LINE
  5
4B6
330
4AC
100
AcDbEntity
  8
0
  6
Continuous
 62
     0
370
     0
100
AcDbLine
 10
5.0
 20
0.0
 30
0.0
 11
5.7
 21
0.0
 31
0.0
  0
ENDBLK
  5
4AE
330
4AC
100
AcDbEntity
  8
0
100
AcDbBlockEnd
  0
BLOCK
  5
4B9
330
4B8
100
AcDbEntity
  8
0
100
AcDbBlockBegin
  2
SW_CENTERMARKSYMBOL_12
 70
     0
 10
0.0
 20
0.0
 30
0.0
  3
SW_CENTERMARKSYMBOL_12
  1

  0
LINE
  5
4BB
330
4B8
100
AcDbEntity
  8
0
  6
Continuous
 62
     0
370
     0
100
AcDbLine
 10
0.0
 20
0.0
 30
0.0
 11
0.0
 21
2.5
 31
0.0
  0
LINE
  5
4BC
330
4B8
100
AcDbEntity
  8
0
  6
Continuous
 62
     0
370
     0
100
AcDbLine
 10
0.0
 20
0.0
 30
0.0
 11
-2.5
 21
0.0
 31
0.0
  0
LINE
  5
4BD
330
4B8
100
AcDbEntity
  8
0
  6
Continuous
 62
     0
370
     0
100
AcDbLine
 10
0.0
 20
0.0
 30
0.0
 11
0.0
 21
-2.5
 31
0.0
  0
LINE
  5
4BE
330
4B8
100
AcDbEntity
  8
0
  6
Continuous
 62
     0
370
     0
100
AcDbLine
 10
0.0
 20
0.0
 30
0.0
 11
2.5
 21
0.0
 31
0.0
  0
LINE
  5
4BF
330
4B8
100
AcDbEntity
  8
0
  6
Continuous
 62
     0
370
     0
100
AcDbLine
 10
0.0
 20
5.0
 30
0.0
 11
0.0
 21
8.7
 31
0.0
  0
LINE
  5
4C0
330
4B8
100
AcDbEntity
  8
0
  6
Continuous
 62
     0
370
     0
100
AcDbLine
 10
-5.0
 20
0.0
 30
0.0
 11
-8.7
 21
0.0
 31
0.0
  0
LINE
  5
4C1
330
4B8
100
AcDbEntity
  8
0
  6
Continuous
 62
     0
370
     0
100
AcDbLine
 10
0.0
 20
-5.0
 30
0.0
 11
0.0
 21
-8.7
 31
0.0
  0
LINE
  5
4C2
330
4B8
100
AcDbEntity
  8
0
  6
Continuous
 62
     0
370
     0
100
AcDbLine
 10
5.0
 20
0.0
 30
0.0
 11
8.7
 21
0.0
 31
0.0
  0
ENDBLK
  5
4BA
330
4B8
100
AcDbEntity
  8
0
100
AcDbBlockEnd
  0
BLOCK
  5
4C5
330
4C4
100
AcDbEntity
  8
0
100
AcDbBlockBegin
  2
SW_CENTERMARKSYMBOL_13
 70
     0
 10
0.0
 20
0.0
 30
0.0
  3
SW_CENTERMARKSYMBOL_13
  1

  0
LINE
  5
4C7
330
4C4
100
AcDbEntity
  8
0
  6
Continuous
 62
     0
370
     0
100
AcDbLine
 10
0.0
 20
0.0
 30
0.0
 11
0.0
 21
2.5
 31
0.0
  0
LINE
  5
4C8
330
4C4
100
AcDbEntity
  8
0
  6
Continuous
 62
     0
370
     0
100
AcDbLine
 10
0.0
 20
0.0
 30
0.0
 11
-2.5
 21
0.0
 31
0.0
  0
LINE
  5
4C9
330
4C4
100
AcDbEntity
  8
0
  6
Continuous
 62
     0
370
     0
100
AcDbLine
 10
0.0
 20
0.0
 30
0.0
 11
0.0
 21
-2.5
 31
0.0
  0
LINE
  5
4CA
330
4C4
100
AcDbEntity
  8
0
  6
Continuous
 62
     0
370
     0
100
AcDbLine
 10
0.0
 20
0.0
 30
0.0
 11
2.5
 21
0.0
 31
0.0
  0
LINE
  5
4CB
330
4C4
100
AcDbEntity
  8
0
  6
Continuous
 62
     0
370
     0
100
AcDbLine
 10
0.0
 20
5.0
 30
0.0
 11
0.0
 21
8.7
 31
0.0
  0
LINE
  5
4CC
330
4C4
100
AcDbEntity
  8
0
  6
Continuous
 62
     0
370
     0
100
AcDbLine
 10
-5.0
 20
0.0
 30
0.0
 11
-8.7
 21
0.0
 31
0.0
  0
LINE
  5
4CD
330
4C4
100
AcDbEntity
  8
0
  6
Continuous
 62
     0
370
     0
100
AcDbLine
 10
0.0
 20
-5.0
 30
0.0
 11
0.0
 21
-8.7
 31
0.0
  0
LINE
  5
4CE
330
4C4
100
AcDbEntity
  8
0
  6
Continuous
 62
     0
370
     0
100
AcDbLine
 10
5.0
 20
0.0
 30
0.0
 11
8.7
 21
0.0
 31
0.0
  0
ENDBLK
  5
4C6
330
4C4
100
AcDbEntity
  8
0
100
AcDbBlockEnd
  0
BLOCK
  5
4D1
330
4D0
100
AcDbEntity
  8
0
100
AcDbBlockBegin
  2
SW_CENTERMARKSYMBOL_14
 70
     0
 10
0.0
 20
0.0
 30
0.0
  3
SW_CENTERMARKSYMBOL_14
  1

  0
LINE
  5
4D3
330
4D0
100
AcDbEntity
  8
0
  6
Continuous
 62
     0
370
     0
100
AcDbLine
 10
0.0
 20
0.0
 30
0.0
 11
0.0
 21
2.5
 31
0.0
  0
LINE
  5
4D4
330
4D0
100
AcDbEntity
  8
0
  6
Continuous
 62
     0
370
     0
100
AcDbLine
 10
0.0
 20
0.0
 30
0.0
 11
-2.5
 21
0.0
 31
0.0
  0
LINE
  5
4D5
330
4D0
100
AcDbEntity
  8
0
  6
Continuous
 62
     0
370
     0
100
AcDbLine
 10
0.0
 20
0.0
 30
0.0
 11
0.0
 21
-2.5
 31
0.0
  0
LINE
  5
4D6
330
4D0
100
AcDbEntity
  8
0
  6
Continuous
 62
     0
370
     0
100
AcDbLine
 10
0.0
 20
0.0
 30
0.0
 11
2.5
 21
0.0
 31
0.0
  0
LINE
  5
4D7
330
4D0
100
AcDbEntity
  8
0
  6
Continuous
 62
     0
370
     0
100
AcDbLine
 10
0.0
 20
5.0
 30
0.0
 11
0.0
 21
8.7
 31
0.0
  0
LINE
  5
4D8
330
4D0
100
AcDbEntity
  8
0
  6
Continuous
 62
     0
370
     0
100
AcDbLine
 10
-5.0
 20
0.0
 30
0.0
 11
-8.7
 21
0.0
 31
0.0
  0
LINE
  5
4D9
330
4D0
100
AcDbEntity
  8
0
  6
Continuous
 62
     0
370
     0
100
AcDbLine
 10
0.0
 20
-5.0
 30
0.0
 11
0.0
 21
-8.7
 31
0.0
  0
LINE
  5
4DA
330
4D0
100
AcDbEntity
  8
0
  6
Continuous
 62
     0
370
     0
100
AcDbLine
 10
5.0
 20
0.0
 30
0.0
 11
8.7
 21
0.0
 31
0.0
  0
ENDBLK
  5
4D2
330
4D0
100
AcDbEntity
  8
0
100
AcDbBlockEnd
  0
ENDSEC
  0
SECTION
  2
ENTITIES
  0
LINE
  5
74
330
1F
100
AcDbEntity
  8
0
  6
Continuous
 62
     7
370
    18
100
AcDbLine
 10
406.6135711291
 20
587.4831590278
 30
0.0
 11
406.6135711291
 21
7.8054600229
 31
0.0
  0
MTEXT
  5
76
330
1F
100
AcDbEntity
  8
0
  6
Continuous
 62
     7
370
     0
100
AcDbMText
 10
144.4383289201
 20
580.6422213305
 30
0.0
 40
19.05
 41
0.0
 71
     1
 72
     1
  1
835E40L
  7
SLDTEXTSTYLE0
 73
     1
 44
1.0
  0
MTEXT
  5
77
330
1F
100
AcDbEntity
  8
0
  6
Continuous
 62
     7
370
     0
100
AcDbMText
 10
559.9273082173
 20
580.6422213305
 30
0.0
 40
19.05
 41
0.0
 71
     1
 72
     1
  1
835E40R
  7
SLDTEXTSTYLE0
 73
     1
 44
1.0
  0
ARC
  5
78
330
1F
100
AcDbEntity
  8
0
  6
Continuous
 62
     7
370
    25
100
AcDbCircle
 10
71.6522211864
 20
179.056002903
 30
0.0
 40
34.16666666666675
100
AcDbArc
 50
67.3070034312
 51
112.7455708282
  0
LINE
  5
79
330
1F
100
AcDbEntity
  8
0
  6
Continuous
 62
     7
370
    25
100
AcDbLine
 10
57.6380811942
 20
209.8711541309
 30
0.0
 11
57.6389886234
 21
207.893309349
 31
0.0
  0
LINE
  5
7A
330
1F
100
AcDbEntity
  8
0
  6
Continuous
 62
     7
370
    25
100
AcDbLine
 10
85.6389869164
 20
207.906155664
 30
0.0
 11
85.6380794871
 21
209.8840004459
 31
0.0
  0
LINE
  5
7B
330
1F
100
AcDbEntity
  8
0
  6
Continuous
 62
     7
370
    25
100
AcDbLine
 10
85.7190679832
 20
33.3604034103
 30
0.0
 11
85.7182746788
 21
35.0895002292
 31
0.0
  0
LINE
  5
7C
330
1F
100
AcDbEntity
  8
0
  6
Continuous
 62
     7
370
    25
100
AcDbLine
 10
57.7187720518
 20
33.996293807
 30
0.0
 11
57.7190696902
 21
33.3475570953
 31
0.0
  0
ARC
  5
7D
330
1F
100
AcDbEntity
  8
0
  6
Continuous
 62
     7
370
    25
100
AcDbCircle
 10
71.7049279876
 20
64.1755620413
 30
0.0
 40
34.16666666666676
100
AcDbArc
 50
247.3070034312
 51
292.7455708282
  0
LINE
  5
7E
330
1F
100
AcDbEntity
  8
0
  6
Continuous
 62
     7
370
    25
100
AcDbLine
 10
57.6777360624
 20
123.4388788678
 30
0.0
 11
57.6794601895
 21
119.6809487308
 31
0.0
  0
LINE
  5
7F
330
1F
100
AcDbEntity
  8
0
  6
Continuous
 62
     7
370
    25
100
AcDbLine
 10
85.6794584825
 20
119.6937950457
 30
0.0
 11
85.6777343554
 21
123.4517251828
 31
0.0
  0
LINE
  5
80
330
1F
100
AcDbEntity
  8
0
  6
Continuous
 62
     7
370
    25
100
AcDbLine
 10
57.5389888308
 20
207.8932635056
 30
0.0
 11
57.5775547833
 21
123.8344034544
 31
0.0
  0
LINE
  5
81
330
1F
100
AcDbEntity
  8
0
  6
Continuous
 62
     7
370
    25
100
AcDbLine
 10
85.7775526615
 20
123.8473414562
 30
0.0
 11
85.738986709
 21
207.9062015074
 31
0.0
  0
LINE
  5
82
330
1F
100
AcDbEntity
  8
0
  6
Continuous
 62
     7
370
    25
100
AcDbLine
 10
85.8181603416
 20
35.3383048575
 30
0.0
 11
85.7795943891
 21
119.3971649087
 31
0.0
  0
LINE
  5
83
330
1F
100
AcDbEntity
  8
0
  6
Continuous
 62
     7
370
    25
100
AcDbLine
 10
45.2621640706
 20
119.1130486526
 30
0.0
 11
45.3007300231
 21
35.0541886014
 31
0.0
  0
LWPOLYLINE
  5
84
330
1F
100
AcDbEntity
  8
0
  6
Continuous
 62
     7
370
    25
100
AcDbPolyline
 90
       29
 70
   128
 43
0.0
 10
58.4420327304
 20
210.565550041
 10
57.9651868623
 20
210.317916435
 10
57.6795282855
 20
210.0310586836
 10
57.665556967
 20
209.741213319
 10
57.923544444
 20
209.4540222441
 10
58.4484701809
 20
209.1750752427
 10
59.230116685
 20
208.909801555
 10
60.2532701494
 20
208.6633645516
 10
61.4980153588
 20
208.440560739
 10
62.9401264029
 20
208.245726975
 10
64.5515323419
 20
208.0826551921
 10
66.300870464
 20
207.9545195745
 10
68.1540909452
 20
207.863814085
 10
70.0751233508
 20
207.8123042005
 10
72.02657715
 20
207.8009924778
 10
73.9704696611
 20
207.830099133
 10
75.8689642919
 20
207.8990576655
 10
77.6851099404
 20
208.0065257887
 10
79.3835560799
 20
208.1504118795
 10
80.9312466657
 20
208.3279151377
 10
82.2980553868
 20
208.5355809397
 10
83.4573803049
 20
208.7693671123
 10
84.3866558292
 20
209.0247233001
 10
85.0677950705
 20
209.2966794118
 10
85.4875396132
 20
209.5799419286
 10
85.63772078
 20
209.8689976892
 10
85.5154150561
 20
210.1582204154
 10
85.1230020137
 20
210.4419807216
 10
84.8334914645
 20
210.5776584356
  0
LWPOLYLINE
  5
85
330
1F
100
AcDbEntity
  8
0
  6
Continuous
 62
     7
370
    25
100
AcDbPolyline
 90
       25
 70
   128
 43
0.0
 10
57.6389886234
 20
207.893309349
 10
57.6664643963
 20
207.7633685371
 10
57.9244518732
 20
207.4761774622
 10
58.4493776101
 20
207.1972304608
 10
59.2310241142
 20
206.9319567731
 10
60.2541775786
 20
206.6855197697
 10
61.4989227881
 20
206.4627159571
 10
62.9410338322
 20
206.2678821932
 10
64.5524397711
 20
206.1048104102
 10
66.3017778932
 20
205.9766747926
 10
68.1549983745
 20
205.8859693031
 10
70.07603078
 20
205.8344594186
 10
72.0274845793
 20
205.8231476959
 10
73.9713770904
 20
205.8522543511
 10
75.8698717211
 20
205.9212128837
 10
77.6860173696
 20
206.0286810068
 10
79.3844635091
 20
206.1725670976
 10
80.932154095
 20
206.3500703558
 10
82.298962816
 20
206.5577361578
 10
83.4582877342
 20
206.7915223304
 10
84.3875632584
 20
207.0468785182
 10
85.0687024997
 20
207.3188346299
 10
85.4884470424
 20
207.6020971467
 10
85.6386282092
 20
207.8911529073
 10
85.6389869164
 20
207.906155664
  0
ARC
  5
86
330
1F
100
AcDbEntity
  8
0
  6
Continuous
 62
     7
370
    25
100
AcDbCircle
 10
61.2541577564
 20
195.9122913046
 30
0.0
 40
0.7801553129756158
100
AcDbArc
 50
55.3735728339
 51
95.7432503567
  0
LINE
  5
87
330
1F
100
AcDbEntity
  8
0
  6
Continuous
 62
     7
370
    25
100
AcDbLine
 10
61.176086951
 20
196.6885304827
 30
0.0
 11
60.8586582534
 21
196.7702886489
 31
0.0
  0
LINE
  5
88
330
1F
100
AcDbEntity
  8
0
  6
Continuous
 62
     7
370
    25
100
AcDbLine
 10
60.8586582534
 20
196.7702886489
 30
0.0
 11
60.6828310907
 21
196.4075528608
 31
0.0
  0
ARC
  5
89
330
1F
100
AcDbEntity
  8
0
  6
Continuous
 62
     7
370
    25
100
AcDbCircle
 10
61.7816279166
 20
195.5070324378
 30
0.0
 40
1.420665863985635
100
AcDbArc
 50
140.6636213011
 51
167.6124494127
  0
LINE
  5
8A
330
1F
100
AcDbEntity
  8
0
  6
Continuous
 62
     7
370
    25
100
AcDbLine
 10
60.3940366973
 20
195.8117980937
 30
0.0
 11
60.2182095346
 21
195.4490623057
 31
0.0
  0
LINE
  5
8B
330
1F
100
AcDbEntity
  8
0
  6
Continuous
 62
     7
370
    25
100
AcDbLine
 10
60.2182095346
 20
195.4490623057
 30
0.0
 11
60.359811017
 21
195.0045978303
 31
0.0
  0
ARC
  5
8C
330
1F
100
AcDbEntity
  8
0
  6
Continuous
 62
     7
370
    25
100
AcDbCircle
 10
62.5305723873
 20
195.2941008796
 30
0.0
 40
2.189981036993691
100
AcDbArc
 50
187.59641201
 51
207.745712208
  0
LINE
  5
8D
330
1F
100
AcDbEntity
  8
0
  6
Continuous
 62
     7
370
    25
100
AcDbLine
 10
60.5923899393
 20
194.2745589527
 30
0.0
 11
60.7339913828
 21
193.8300944837
 31
0.0
  0
LINE
  5
8E
330
1F
100
AcDbEntity
  8
0
  6
Continuous
 62
     7
370
    25
100
AcDbLine
 10
60.7339913828
 20
193.8300944837
 30
0.0
 11
61.0514200804
 21
193.7483363176
 31
0.0
  0
ARC
  5
8F
330
1F
100
AcDbEntity
  8
0
  6
Continuous
 62
     7
370
    25
100
AcDbCircle
 10
61.4947478045
 20
194.3904042111
 30
0.0
 40
0.7802503769733437
100
AcDbArc
 50
235.3761391472
 51
275.7406840434
  0
LINE
  5
90
330
1F
100
AcDbEntity
  8
0
  6
Continuous
 62
     7
370
    25
100
AcDbLine
 10
61.5727933505
 20
193.6140669496
 30
0.0
 11
61.8902220413
 21
193.5323235197
 31
0.0
  0
LINE
  5
91
330
1F
100
AcDbEntity
  8
0
  6
Continuous
 62
     7
370
    25
100
AcDbLine
 10
61.8902220413
 20
193.5323235197
 30
0.0
 11
62.0660492108
 21
193.8950445715
 31
0.0
  0
ARC
  5
92
330
1F
100
AcDbEntity
  8
0
  6
Continuous
 62
     7
370
    25
100
AcDbCircle
 10
60.9673126803
 20
194.795528213
 30
0.0
 40
1.420595914394714
100
AcDbArc
 50
320.6632272011
 51
347.6139571174
  0
LINE
  5
93
330
1F
100
AcDbEntity
  8
0
  6
Continuous
 62
     7
370
    25
100
AcDbLine
 10
62.3548435974
 20
194.4908140748
 30
0.0
 11
62.5306707669
 21
194.8535351267
 31
0.0
  0
LINE
  5
94
330
1F
100
AcDbEntity
  8
0
  6
Continuous
 62
     7
370
    25
100
AcDbLine
 10
62.5306707669
 20
194.8535351267
 30
0.0
 11
62.3890692777
 21
195.2980143382
 31
0.0
  0
ARC
  5
95
330
1F
100
AcDbEntity
  8
0
  6
Continuous
 62
     7
370
    25
100
AcDbCircle
 10
60.2182162743
 20
195.0084820961
 30
0.0
 40
2.190075725082046
100
AcDbArc
 50
7.5968521333
 51
27.7452720847
  0
LINE
  5
96
330
1F
100
AcDbEntity
  8
0
  6
Continuous
 62
     7
370
    25
100
AcDbLine
 10
62.1564903554
 20
196.0280532158
 30
0.0
 11
62.0148889119
 21
196.4725176848
 31
0.0
  0
LINE
  5
97
330
1F
100
AcDbEntity
  8
0
  6
Continuous
 62
     7
370
    25
100
AcDbLine
 10
62.0148889119
 20
196.4725176848
 30
0.0
 11
61.697460221
 21
196.5542611148
 31
0.0
  0
LINE
  5
98
330
1F
100
AcDbEntity
  8
0
  6
Continuous
 62
     7
370
    25
100
AcDbLine
 10
61.9546447356
 20
193.6652204501
 30
0.0
 11
61.5727933505
 21
193.6140669496
 31
0.0
  0
LINE
  5
99
330
1F
100
AcDbEntity
  8
0
  6
Continuous
 62
     7
370
    25
100
AcDbLine
 10
61.0514200804
 20
193.7483363176
 30
0.0
 11
62.0604581943
 21
193.8835088838
 31
0.0
  0
LINE
  5
9A
330
1F
100
AcDbEntity
  8
0
  6
Continuous
 62
     7
370
    25
100
AcDbLine
 10
62.3651301312
 20
194.5120384272
 30
0.0
 11
60.5923899393
 21
194.2745589527
 31
0.0
  0
LINE
  5
9B
330
1F
100
AcDbEntity
  8
0
  6
Continuous
 62
     7
370
    25
100
AcDbLine
 10
60.359811017
 20
195.0045978303
 30
0.0
 11
62.3956598502
 21
195.2773238131
 31
0.0
  0
LINE
  5
9C
330
1F
100
AcDbEntity
  8
0
  6
Continuous
 62
     7
370
    25
100
AcDbLine
 10
62.1504270615
 20
196.0470873158
 30
0.0
 11
60.3940366973
 21
195.8117980937
 31
0.0
  0
LINE
  5
9D
330
1F
100
AcDbEntity
  8
0
  6
Continuous
 62
     7
370
    25
100
AcDbLine
 10
60.6828310907
 20
196.4075528608
 30
0.0
 11
61.7250091941
 21
196.5471649199
 31
0.0
  0
LINE
  5
9E
330
1F
100
AcDbEntity
  8
0
  6
Continuous
 62
     7
370
    25
100
AcDbLine
 10
62.1599975285
 20
194.0211248398
 30
0.0
 11
60.7339913828
 21
193.8300944837
 31
0.0
  0
LINE
  5
9F
330
1F
100
AcDbEntity
  8
0
  6
Continuous
 62
     7
370
    25
100
AcDbLine
 10
62.2874482953
 20
195.7262612634
 30
0.0
 11
60.2182095346
 21
195.4490623057
 31
0.0
  0
LWPOLYLINE
  5
A0
330
1F
100
AcDbEntity
  8
0
  6
Continuous
 62
     7
370
    25
100
AcDbPolyline
 90
       24
 70
   128
 43
0.0
 10
85.7190679832
 20
33.3604034103
 10
85.6493434629
 20
33.1531433664
 10
85.3195600359
 20
32.8673104624
 10
84.7250577831
 20
32.5909499172
 10
83.8774091459
 20
32.3294409773
 10
82.793112199
 20
32.0878734843
 10
81.4932722115
 20
31.8709492586
 10
80.0031879107
 20
31.6828906071
 10
78.3518623359
 20
31.5273578796
 10
76.5714374708
 20
31.4073781921
 10
74.6965665192
 20
31.3252869921
 10
72.7637420115
 20
31.2826819238
 10
70.8105838125
 20
31.280392332
 10
68.8751090952
 20
31.3184627075
 10
66.9949877602
 20
31.3961522177
 10
65.2068161459
 20
31.5119485851
 10
63.5453975937
 20
31.6635979891
 10
62.0430707144
 20
31.8481488173
 10
60.7290761289
 20
32.0620089261
 10
59.6289885881
 20
32.301015702
 10
58.7642214587
 20
32.5605173634
 10
58.1516050369
 20
32.8354627808
 10
57.8030640675
 20
33.1205006022
 10
57.7190696902
 20
33.3475570953
  0
LWPOLYLINE
  5
A1
330
1F
100
AcDbEntity
  8
0
  6
Continuous
 62
     7
370
    25
100
AcDbPolyline
 90
       21
 70
   128
 43
0.0
 10
85.346197418
 20
34.8622323559
 10
85.3186526017
 20
34.8451660661
 10
84.7241503489
 20
34.568805521
 10
83.8765017117
 20
34.307296581
 10
82.7922047648
 20
34.0657290881
 10
81.4923647773
 20
33.8488048623
 10
80.0022804765
 20
33.6607462109
 10
78.3509549017
 20
33.5052134833
 10
76.5705300366
 20
33.3852337959
 10
74.695659085
 20
33.3031425958
 10
72.7628345773
 20
33.2605375276
 10
70.8096763783
 20
33.2582479358
 10
68.874201661
 20
33.2963183112
 10
66.9940803259
 20
33.3740078215
 10
65.2059087117
 20
33.4898041889
 10
63.5444901595
 20
33.6414535928
 10
62.0421632802
 20
33.8260044211
 10
60.7281686947
 20
34.0398645298
 10
59.6280811539
 20
34.2788713057
 10
58.7633140245
 20
34.5383729671
 10
58.2458081857
 20
34.7607961322
  0
ARC
  5
A2
330
1F
100
AcDbEntity
  8
0
  6
Continuous
 62
     7
370
    25
100
AcDbCircle
 10
71.6476705033
 20
188.9749141003
 30
0.0
 40
71.44079512135072
100
AcDbArc
 50
263.6841103994
 51
276.3684637592
  0
ARC
  5
A3
330
1F
100
AcDbEntity
  8
0
  6
Continuous
 62
     7
370
    25
100
AcDbCircle
 10
74.7592908597
 20
156.0271826908
 30
0.0
 40
34.44383698584434
100
AcDbArc
 50
269.2036147996
 51
284.4639768677
  0
ARC
  5
A4
330
1F
100
AcDbEntity
  8
0
  6
Continuous
 62
     7
370
    25
100
AcDbCircle
 10
70.880807173
 20
171.7557555881
 30
0.0
 40
50.28414391344164
100
AcDbArc
 50
257.4958966612
 51
273.8767643892
  0
LWPOLYLINE
  5
A5
330
1F
100
AcDbEntity
  8
0
  6
Continuous
 62
     7
370
    25
100
AcDbPolyline
 90
       11
 70
   128
 43
0.0
 10
74.5262911071
 20
117.6544962514
 10
76.4063007664
 20
117.7339313396
 10
78.1943085661
 20
117.8513878874
 10
79.8555111571
 20
118.0045798639
 10
81.3575768872
 20
118.1905253898
 10
82.6712690865
 20
118.4056053225
 10
83.7710180275
 20
118.6456333697
 10
84.635418377
 20
118.9059377878
 10
85.2476459688
 20
119.1814517925
 10
85.5957839184
 20
119.4668130184
 10
85.6794584825
 20
119.6937950457
  0
LWPOLYLINE
  5
A6
330
1F
100
AcDbEntity
  8
0
  6
Continuous
 62
     7
370
    25
100
AcDbPolyline
 90
       14
 70
   128
 43
0.0
 10
57.6794601895
 20
119.6809487308
 10
57.7494768917
 20
119.473601192
 10
58.0796642096
 20
119.1880745739
 10
58.6745557815
 20
118.9122662364
 10
59.5225732986
 20
118.651544521
 10
60.6072104058
 20
118.4109839326
 10
61.9073566195
 20
118.1952668119
 10
63.3977055086
 20
118.0085918097
 10
65.0492491363
 20
117.8545923496
 10
66.8298420661
 20
117.7362657557
 10
68.7048283045
 20
117.6559153797
 10
70.6377109075
 20
117.6151049255
 10
72.5908710179
 20
117.6146288197
 10
74.5262911071
 20
117.6544962514
  0
LWPOLYLINE
  5
A7
330
1F
100
AcDbEntity
  8
0
  6
Continuous
 62
     7
370
    25
100
AcDbPolyline
 90
       12
 70
   128
 43
0.0
 10
74.5245669801
 20
121.4124263884
 10
76.4045766394
 20
121.4918614767
 10
78.192584439
 20
121.6093180245
 10
79.8537870301
 20
121.7625100009
 10
81.3558527602
 20
121.9484555269
 10
82.6695449595
 20
122.1635354596
 10
83.7692939004
 20
122.4035635068
 10
84.63369425
 20
122.6638679249
 10
85.2459218417
 20
122.9393819296
 10
85.5940597914
 20
123.2247431555
 10
85.6713325215
 20
123.5143973251
 10
85.6544740406
 20
123.5712828976
  0
LWPOLYLINE
  5
A8
330
1F
100
AcDbEntity
  8
0
  6
Continuous
 62
     7
370
    25
100
AcDbPolyline
 90
       15
 70
   128
 43
0.0
 10
57.7008868647
 20
123.5584579253
 10
57.6886969165
 20
123.521218722
 10
57.7477527646
 20
123.231531329
 10
58.0779400825
 20
122.9460047109
 10
58.6728316544
 20
122.6701963734
 10
59.5208491716
 20
122.409474658
 10
60.6054862787
 20
122.1689140697
 10
61.9056324924
 20
121.9531969489
 10
63.3959813816
 20
121.7665219468
 10
65.0475250092
 20
121.6125224866
 10
66.828117939
 20
121.4941958927
 10
68.7031041775
 20
121.4138455167
 10
70.6359867804
 20
121.3730350626
 10
72.5891468908
 20
121.3725589568
 10
74.5245669801
 20
121.4124263884
  0
LWPOLYLINE
  5
A9
330
1F
100
AcDbEntity
  8
0
  6
Continuous
 62
     7
370
    25
100
AcDbPolyline
 90
       26
 70
   128
 43
0.0
 10
85.6388721723
 20
208.1549143838
 10
85.6967404478
 20
208.0678912439
 10
85.7101370983
 20
207.7722648055
 10
85.4426254866
 20
207.479183248
 10
84.8995463546
 20
207.1944972043
 10
84.091740985
 20
206.9238900946
 10
83.035336721
 20
206.6727640615
 10
81.7514222524
 20
206.4461325187
 10
80.2656296297
 20
206.2485197237
 10
78.6076196175
 20
206.083870828
 10
76.8104919165
 20
205.955472683
 10
74.9101233733
 20
205.8658886098
 10
72.9444522439
 20
205.8169069506
 10
70.9527191757
 20
205.8095055724
 10
68.9746864708
 20
205.8438322386
 10
67.0498421721
 20
205.9192016315
 10
65.2166134452
 20
206.0341092356
 10
63.511596106
 20
206.1862609561
 10
61.9688297268
 20
206.3726194164
 10
60.6191128938
 20
206.5894643134
 10
59.4893901457
 20
206.8324666057
 10
58.6022141686
 20
207.0967751185
 10
57.9752966013
 20
207.3771133681
 10
57.6211536657
 20
207.667884966
 10
57.5468541187
 20
207.9632849206
 10
57.6388751946
 20
208.1420680592
  0
LINE
  5
AA
330
1F
100
AcDbEntity
  8
0
  6
Continuous
 62
     7
370
    25
100
AcDbLine
 10
38.9396224707
 20
212.9013234425
 30
0.0
 11
57.6381022444
 21
209.8255795902
 31
0.0
  0
LINE
  5
AB
330
1F
100
AcDbEntity
  8
0
  6
Continuous
 62
     7
370
    25
100
AcDbLine
 10
38.9396224707
 20
212.9013234425
 30
0.0
 11
41.7645589732
 21
213.2797570332
 31
0.0
  0
LINE
  5
AC
330
1F
100
AcDbEntity
  8
0
  6
Continuous
 62
     7
370
    25
100
AcDbLine
 10
41.7645589732
 20
213.2797570332
 30
0.0
 11
58.3927749344
 21
210.5445542982
 31
0.0
  0
LWPOLYLINE
  5
AD
330
1F
100
AcDbEntity
  8
0
  6
Continuous
 62
     7
370
    25
100
AcDbPolyline
 90
       24
 70
   128
 43
0.0
 10
85.7775526615
 20
123.8473414562
 10
85.7487030508
 20
123.7134047543
 10
85.4811914391
 20
123.4203231968
 10
84.9381123071
 20
123.1356371531
 10
84.1303069375
 20
122.8650300434
 10
83.0739026735
 20
122.6139040103
 10
81.7899882049
 20
122.3872724675
 10
80.3041955822
 20
122.1896596725
 10
78.6461855699
 20
122.0250107768
 10
76.849057869
 20
121.8966126318
 10
74.9486893258
 20
121.8070285586
 10
72.9830181963
 20
121.7580468994
 10
70.9912851282
 20
121.7506455212
 10
69.0132524233
 20
121.7849721874
 10
67.0884081246
 20
121.8603415803
 10
65.2551793977
 20
121.9752491844
 10
63.5501620585
 20
122.1274009049
 10
62.0073956793
 20
122.3137593652
 10
60.6576788463
 20
122.5306042621
 10
59.5279560982
 20
122.7736065545
 10
58.6407801211
 20
123.0379150673
 10
58.0138625538
 20
123.3182533169
 10
57.6597196182
 20
123.6090249148
 10
57.5775547833
 20
123.8344034544
  0
SPLINE
  5
AE
330
1F
100
AcDbEntity
  8
0
  6
Continuous
 62
     7
370
    25
100
AcDbSpline
210
0.0
220
0.0
230
1.0
 70
    11
 71
     3
 72
    26
 73
    22
 74
     0
 42
0.000000001
 43
0.00000001
 40
0.0
 40
0.0
 40
0.0
 40
0.0
 40
0.0531118867302654
 40
0.1062028894278998
 40
0.1598218726831612
 40
0.2137974384346401
 40
0.2672062767479605
 40
0.3200222190770212
 40
0.3731143812840676
 40
0.4269335235499776
 40
0.480818741543879
 40
0.5339753355493475
 40
0.5867527771863092
 40
0.6400822944701755
 40
0.6940394629180342
 40
0.7477280005833575
 40
0.800683750952257
 40
0.8535708755156358
 40
0.9071454790675558
 40
0.9611288130916978
 40
1.0
 40
1.0
 40
1.0
 40
1.0
 10
59.65617599605979
 20
195.4201699045989
 30
0.0
 10
59.67049021750759
 20
195.6922389291568
 30
0.0
 10
59.69911303193306
 20
196.2362699984844
 30
0.0
 10
59.93001594449042
 20
196.9177513224315
 30
0.0
 10
60.29107158920002
 20
197.4056591102898
 30
0.0
 10
60.77687643902921
 20
197.6408825399775
 30
0.0
 10
61.33923074057295
 20
197.5966483575864
 30
0.0
 10
61.9148288889471
 20
197.2836242600988
 30
0.0
 10
62.43458398497048
 20
196.7367499591814
 30
0.0
 10
62.82643867265969
 20
196.0073695514368
 30
0.0
 10
63.02346229405865
 20
195.1742012163756
 30
0.0
 10
62.99153216869015
 20
194.3373431730276
 30
0.0
 10
62.74123919037473
 20
193.5901292173583
 30
0.0
 10
62.31237154048753
 20
193.0092669051303
 30
0.0
 10
61.76633564682728
 20
192.6630091121087
 30
0.0
 10
61.18315167575732
 20
192.5987456339694
 30
0.0
 10
60.63972323579875
 20
192.8213441342583
 30
0.0
 10
60.18706385721398
 20
193.3006710693686
 30
0.0
 10
59.8594641649314
 20
193.9858550566033
 30
0.0
 10
59.68305532106505
 20
194.732100230832
 30
0.0
 10
59.66410786663673
 20
195.2171261302792
 30
0.0
 10
59.65617599605979
 20
195.4201699045989
 30
0.0
  0
LINE
  5
AF
330
1F
100
AcDbEntity
  8
0
  6
Continuous
 62
     7
370
    25
100
AcDbLine
 10
38.9781884232
 20
128.8424633913
 30
0.0
 11
38.9396224707
 21
212.9013234425
 31
0.0
  0
LWPOLYLINE
  5
B0
330
1F
100
AcDbEntity
  8
0
  6
Continuous
 62
     7
370
    25
100
AcDbPolyline
 90
       31
 70
   128
 43
0.0
 10
49.1774426702
 20
201.3287509447
 10
49.2674759321
 20
202.5886270402
 10
49.5348105657
 20
203.763625279
 10
49.9677615918
 20
204.8024005015
 10
50.5474086494
 20
205.6595423974
 10
51.2484172398
 20
206.2976064713
 10
52.0401504359
 20
206.6886846486
 10
52.8880049454
 20
206.8157032145
 10
53.7549268423
 20
206.6731017984
 10
54.6030271398
 20
206.2671128224
 10
55.3952387245
 20
205.6154889494
 10
56.0969386587
 20
204.7466910311
 10
56.6774585346
 20
203.6987113582
 10
57.1114294054
 20
202.5173347196
 10
57.3798826453
 20
201.2542038477
 10
57.4710843937
 20
199.9645161057
 10
57.3810523776
 20
198.7046398052
 10
57.113717744
 20
197.5296415664
 10
56.6807654721
 20
196.4908665488
 10
56.1011196604
 20
195.6337244481
 10
55.4001110632
 20
194.9956751103
 10
54.6083778738
 20
194.6045821968
 10
53.7605221185
 20
194.4775638358
 10
52.8936002216
 20
194.6201652519
 10
52.04550117
 20
195.0261540231
 10
51.2532895785
 20
195.6777926322
 10
50.5515896511
 20
196.5465758144
 10
49.9710685294
 20
197.5945556921
 10
49.5370989044
 20
198.7759321258
 10
49.2686456644
 20
200.0390629977
 10
49.1774426702
 20
201.3287509447
  0
LWPOLYLINE
  5
B1
330
1F
100
AcDbEntity
  8
0
  6
Continuous
 62
     7
370
    25
100
AcDbPolyline
 90
       31
 70
   128
 43
0.0
 10
41.5005036237
 20
170.453818047
 10
41.5905368856
 20
171.7136941426
 10
41.8578727651
 20
172.8886921764
 10
42.2908225453
 20
173.9274676038
 10
42.8704696029
 20
174.7846094997
 10
43.5714781933
 20
175.4226735737
 10
44.3632113894
 20
175.8137517509
 10
45.2110658989
 20
175.9407703168
 10
46.0779890417
 20
175.7981686958
 10
46.9260880933
 20
175.3921799247
 10
47.718299678
 20
174.7405560517
 10
48.4199996122
 20
173.8717581334
 10
49.0005207339
 20
172.8237782556
 10
49.4344916047
 20
171.642401617
 10
49.7029435988
 20
170.37927095
 10
49.7941465931
 20
169.0895830031
 10
49.7041133311
 20
167.8297069075
 10
49.4367799433
 20
166.6547084638
 10
49.0038276714
 20
165.6159334462
 10
48.4241806139
 20
164.7587915504
 10
47.7231720167
 20
164.1207422126
 10
46.9314388273
 20
163.7296492992
 10
46.0835843178
 20
163.6026307332
 10
45.2166611751
 20
163.7452323543
 10
44.3685621235
 20
164.1512211254
 10
43.576350532
 20
164.8028597346
 10
42.8746506046
 20
165.6716429167
 10
42.2941294829
 20
166.7196227944
 10
41.8601611037
 20
167.9009990232
 10
41.5917066179
 20
169.1641301001
 10
41.5005036237
 20
170.453818047
  0
LWPOLYLINE
  5
B2
330
1F
100
AcDbEntity
  8
0
  6
Continuous
 62
     7
370
    25
100
AcDbPolyline
 90
       31
 70
   128
 43
0.0
 10
49.2069342795
 20
137.0484492336
 10
49.2969675415
 20
138.3083253291
 10
49.5643021751
 20
139.4833235679
 10
49.9972532046
 20
140.5220914223
 10
50.5769002587
 20
141.3792406863
 10
51.2779088525
 20
142.0172973921
 10
52.0696420453
 20
142.4083829375
 10
52.9174965581
 20
142.5353941353
 10
53.7844184551
 20
142.3927927192
 10
54.6325187491
 20
141.9868111112
 10
55.4247303372
 20
141.3351798702
 10
56.126430268
 20
140.4663893199
 10
56.7069501473
 20
139.418402279
 10
57.1409210147
 20
138.2370330085
 10
57.4093742546
 20
136.9739021366
 10
57.5005760031
 20
135.6842143945
 10
57.410543987
 20
134.4243380941
 10
57.1432093533
 20
133.2493398553
 10
56.7102570814
 20
132.2105648377
 10
56.1306112697
 20
131.3534227369
 10
55.4296026759
 20
130.715366031
 10
54.6378694831
 20
130.3242804857
 10
53.7900137245
 20
130.1972694928
 10
52.9230918276
 20
130.3398709089
 10
52.0749927793
 20
130.745852312
 10
51.2827811912
 20
131.397483553
 10
50.5810812604
 20
132.2662741032
 10
50.0005601387
 20
133.314253981
 10
49.5665905137
 20
134.4956304147
 10
49.2981372738
 20
135.7587612866
 10
49.2069342795
 20
137.0484492336
  0
LINE
  5
B3
330
1F
100
AcDbEntity
  8
0
  6
Continuous
 62
     7
370
    25
100
AcDbLine
 10
38.9781884232
 20
128.8424633913
 30
0.0
 11
57.5766616031
 21
125.783169789
 31
0.0
  0
LWPOLYLINE
  5
B4
330
1F
100
AcDbEntity
  8
0
  6
Continuous
 62
     7
370
    25
100
AcDbPolyline
 90
        9
 70
   128
 43
0.0
 10
53.414182394
 20
201.2974574271
 10
53.5088413101
 20
202.2145866389
 10
53.7852641112
 20
203.0189472326
 10
54.2188893116
 20
203.6390621863
 10
54.7711883535
 20
204.0198386619
 10
55.3930841284
 20
204.1274281891
 10
56.0293220589
 20
203.952279834
 10
56.6233666492
 20
203.5099703494
 10
56.881811742
 20
203.2080622966
  0
LWPOLYLINE
  5
B5
330
1F
100
AcDbEntity
  8
0
  6
Continuous
 62
     7
370
    25
100
AcDbPolyline
 90
       10
 70
   128
 43
0.0
 10
57.4305441092
 20
199.1118681126
 10
57.1244111805
 20
198.5348645193
 10
56.625881404
 20
198.028777536
 10
56.0321530419
 20
197.781832053
 10
55.3959797997
 20
197.8159847154
 10
54.7738914132
 20
198.1282139891
 10
54.2211595851
 20
198.6907440843
 10
53.7868998732
 20
199.4536188621
 10
53.5096972144
 20
200.349046223
 10
53.414182394
 20
201.2974574271
  0
LWPOLYLINE
  5
B6
330
1F
100
AcDbEntity
  8
0
  6
Continuous
 62
     7
370
    25
100
AcDbPolyline
 90
       11
 70
   128
 43
0.0
 10
55.4312469504
 20
204.1248774257
 10
55.077795234
 20
203.941701209
 10
54.5792654642
 20
203.4355994894
 10
54.2202314382
 20
202.7153202787
 10
54.0325941294
 20
201.8448561786
 10
54.0330269157
 20
200.9015496078
 10
54.2214913476
 20
199.9692051756
 10
54.5812405428
 20
199.1306921243
 10
55.0803099888
 20
198.4605083955
 10
55.6743558316
 20
198.0181839698
 10
56.272429908
 20
197.8456000152
  0
LWPOLYLINE
  5
B7
330
1F
100
AcDbEntity
  8
0
  6
Continuous
 62
     7
370
    25
100
AcDbPolyline
 90
        9
 70
   128
 43
0.0
 10
53.4436740033
 20
137.017155716
 10
53.5383329194
 20
137.9342849278
 10
53.8147557206
 20
138.7386455215
 10
54.248380921
 20
139.3587604751
 10
54.8006799662
 20
139.7395295827
 10
55.4225757377
 20
139.8471264779
 10
56.0588136683
 20
139.6719781229
 10
56.6528582619
 20
139.2296612702
 10
56.9113033547
 20
138.9277532174
  0
LWPOLYLINE
  5
B8
330
1F
100
AcDbEntity
  8
0
  6
Continuous
 62
     7
370
    25
100
AcDbPolyline
 90
       10
 70
   128
 43
0.0
 10
57.4600357185
 20
134.8315664015
 10
57.1539027898
 20
134.2545628082
 10
56.6553730167
 20
133.7484684567
 10
56.0616446512
 20
133.5015303419
 10
55.425471409
 20
133.5356830043
 10
54.8033830259
 20
133.8479049099
 10
54.2506511944
 20
134.4104423732
 10
53.8163914825
 20
135.173317151
 10
53.5391888238
 20
136.0687445119
 10
53.4436740033
 20
137.017155716
  0
LWPOLYLINE
  5
B9
330
1F
100
AcDbEntity
  8
0
  6
Continuous
 62
     7
370
    25
100
AcDbPolyline
 90
        9
 70
   128
 43
0.0
 10
45.7372445933
 20
170.4225243245
 10
45.8319022636
 20
171.3396537413
 10
46.1083250648
 20
172.1440143349
 10
46.5419502651
 20
172.7641292886
 10
47.0942505528
 20
173.1449055593
 10
47.7161450819
 20
173.2524952914
 10
48.3523830125
 20
173.0773469363
 10
48.9464288485
 20
172.6350372468
 10
49.2048726955
 20
172.3331293989
  0
LWPOLYLINE
  5
BA
330
1F
100
AcDbEntity
  8
0
  6
Continuous
 62
     7
370
    25
100
AcDbPolyline
 90
       10
 70
   128
 43
0.0
 10
49.7536063085
 20
168.23693501
 10
49.4474733798
 20
167.6599314167
 10
48.9489436033
 20
167.1538444333
 10
48.3552139954
 20
166.9068991553
 10
47.7190407532
 20
166.9410518177
 10
47.0969536192
 20
167.2532661503
 10
46.5442205386
 20
167.8158111867
 10
46.1099608267
 20
168.5786859644
 10
45.8327581679
 20
169.4741133253
 10
45.7372445933
 20
170.4225243245
  0
LWPOLYLINE
  5
BB
330
1F
100
AcDbEntity
  8
0
  6
Continuous
 62
     7
370
    25
100
AcDbPolyline
 90
       11
 70
   128
 43
0.0
 10
55.4607385631
 20
139.8445683465
 10
55.1072868467
 20
139.6613921298
 10
54.6087570736
 20
139.1552977783
 10
54.2497230476
 20
138.4350185675
 10
54.0620857422
 20
137.5645470994
 10
54.0625185284
 20
136.6212405286
 10
54.2509829569
 20
135.6889034644
 10
54.6107321521
 20
134.8503904132
 10
55.1098016015
 20
134.1801993163
 10
55.7038474409
 20
133.7378822587
 10
56.3019215207
 20
133.565290936
  0
LWPOLYLINE
  5
BC
330
1F
100
AcDbEntity
  8
0
  6
Continuous
 62
     7
370
    25
100
AcDbPolyline
 90
       11
 70
   128
 43
0.0
 10
47.7543079039
 20
173.249944528
 10
47.4008561875
 20
173.0667683113
 10
46.9023264177
 20
172.5606665917
 10
46.5432936375
 20
171.840387176
 10
46.3556563288
 20
170.969923076
 10
46.3560891217
 20
170.026601769
 10
46.5445535469
 20
169.0942720729
 10
46.9043014963
 20
168.2557592267
 10
47.4033709423
 20
167.5855754978
 10
47.9974167851
 20
167.1432510721
 10
48.5954921073
 20
166.9706669126
  0
LWPOLYLINE
  5
BD
330
1F
100
AcDbEntity
  8
0
  6
Continuous
 62
     7
370
    25
100
AcDbPolyline
 90
       13
 70
   128
 43
0.0
 10
52.031397609
 20
118.7547702201
 10
51.4301014578
 20
118.8860373071
 10
51.0902492543
 20
119.0366182171
 10
51.0370427587
 20
119.1953448067
 10
51.2744295096
 20
119.3504450423
 10
51.7848028051
 20
119.4904159936
 10
52.5303118953
 20
119.6048766161
 10
53.4556644971
 20
119.6853376798
 10
54.4922326522
 20
119.7258321096
 10
55.5631370744
 20
119.7233562718
 10
56.5889557988
 20
119.678094091
 10
57.4936069428
 20
119.5934021751
 10
57.7011382525
 20
119.5655326302
  0
ARC
  5
BE
330
1F
100
AcDbEntity
  8
0
  6
Continuous
 62
     7
370
    25
100
AcDbCircle
 10
54.8468504655
 20
136.3026245058
 30
0.0
 40
17.77228079959234
100
AcDbArc
 50
260.8849047914
 51
282.2421221781
  0
LWPOLYLINE
  5
BF
330
1F
100
AcDbEntity
  8
0
  6
Continuous
 62
     7
370
    25
100
AcDbPolyline
 90
        9
 70
   128
 43
0.0
 10
46.4035581373
 20
118.8455282018
 10
45.9900555571
 20
118.8843758122
 10
45.6529341946
 20
118.9370084947
 10
45.4124350717
 20
119.0002662101
 10
45.282997409
 20
119.0703509451
 10
45.2723933633
 20
119.1430541743
 10
45.3812606279
 20
119.2140110353
 10
45.60306188
 20
119.278960746
 10
45.924478401
 20
119.3340042063
  0
LINE
  5
C0
330
1F
100
AcDbEntity
  8
0
  6
Continuous
 62
     7
370
    25
100
AcDbLine
 10
57.2613211763
 20
120.8527081185
 30
0.0
 11
45.924478401
 21
119.3340042063
 31
0.0
  0
ARC
  5
C1
330
1F
100
AcDbEntity
  8
0
  6
Continuous
 62
     7
370
    25
100
AcDbCircle
 10
57.466738819
 20
124.0189581224
 30
0.0
 40
3.172906474303326
100
AcDbArc
 50
266.2880086559
 51
273.8344439849
  0
LINE
  5
C2
330
1F
100
AcDbEntity
  8
0
  6
Continuous
 62
     7
370
    25
100
AcDbLine
 10
57.6787505785
 20
121.2277876861
 30
0.0
 11
38.6828684821
 21
124.3524517381
 31
0.0
  0
LINE
  5
C3
330
1F
100
AcDbEntity
  8
0
  6
Continuous
 62
     7
370
    25
100
AcDbLine
 10
38.6828684821
 20
124.3524517381
 30
0.0
 11
41.5078049845
 21
124.7308853288
 31
0.0
  0
LINE
  5
C4
330
1F
100
AcDbEntity
  8
0
  6
Continuous
 62
     7
370
    25
100
AcDbLine
 10
41.5078049845
 20
124.7308853288
 30
0.0
 11
57.6783643915
 21
122.070963277
 31
0.0
  0
LWPOLYLINE
  5
C5
330
1F
100
AcDbEntity
  8
0
  6
Continuous
 62
     7
370
    25
100
AcDbPolyline
 90
       17
 70
   128
 43
0.0
 10
65.6264269268
 20
117.4982076484
 10
67.4649927817
 20
117.3920663613
 10
69.3862333751
 20
117.3251306828
 10
71.3524604399
 20
117.2987135366
 10
73.3251052234
 20
117.3133329075
 10
75.2654713979
 20
117.3687023658
 10
77.1354959138
 20
117.4637355758
 10
78.8984969962
 20
117.5965684176
 10
80.5198900715
 20
117.7645952166
 10
81.9678705865
 20
117.9645198733
 10
83.2140347489
 20
118.1924206134
 10
84.2339371816
 20
118.4438269238
 10
85.0075709897
 20
118.713807287
 10
85.5197614095
 20
118.997065604
 10
85.7604603364
 20
119.2880453463
 10
85.7249465399
 20
119.5810387344
 10
85.6763308305
 20
119.6497463437
  0
LINE
  5
C6
330
1F
100
AcDbEntity
  8
0
  6
Continuous
 62
     7
370
    25
100
AcDbLine
 10
65.6264269268
 20
117.4982076484
 30
0.0
 11
46.4035581373
 21
118.8455282018
 31
0.0
  0
LWPOLYLINE
  5
C7
330
1F
100
AcDbEntity
  8
0
  6
Continuous
 62
     7
370
    25
100
AcDbPolyline
 90
       16
 70
   128
 43
0.0
 10
85.8181603416
 20
35.3383048575
 10
85.7990262889
 20
35.2291852951
 10
85.558327362
 20
34.9382055528
 10
85.0461369422
 20
34.6549472357
 10
84.2725031341
 20
34.3849668726
 10
83.2526007014
 20
34.1335605622
 10
82.006436539
 20
33.9056598221
 10
80.5584560239
 20
33.7057351654
 10
78.9370629487
 20
33.5377083664
 10
77.1740618663
 20
33.4048755246
 10
75.3040373504
 20
33.3098423146
 10
73.3636711759
 20
33.2544728563
 10
71.3910263924
 20
33.2398534854
 10
69.4247993276
 20
33.2662706316
 10
67.5035587342
 20
33.3332063101
 10
65.6649928793
 20
33.4393475972
  0
LINE
  5
C8
330
1F
100
AcDbEntity
  8
0
  6
Continuous
 62
     7
370
    25
100
AcDbLine
 10
65.6264269268
 20
117.4982076484
 30
0.0
 11
65.6649928793
 21
33.4393475972
 31
0.0
  0
LINE
  5
C9
330
1F
100
AcDbEntity
  8
0
  6
Continuous
 62
     7
370
    25
100
AcDbLine
 10
46.4421240898
 20
34.7866681506
 30
0.0
 11
46.4035581373
 21
118.8455282018
 31
0.0
  0
LINE
  5
CA
330
1F
100
AcDbEntity
  8
0
  6
Continuous
 62
     7
370
    25
100
AcDbLine
 10
65.6649928793
 20
33.4393475972
 30
0.0
 11
46.4421240898
 21
34.7866681506
 31
0.0
  0
ARC
  5
CB
330
1F
100
AcDbEntity
  8
0
  6
Continuous
 62
     7
370
    25
100
AcDbCircle
 10
54.9635773385
 20
100.9204418722
 30
0.0
 40
18.01703033743485
100
AcDbArc
 50
81.2771981539
 51
98.7753748315
  0
ARC
  5
CC
330
1F
100
AcDbEntity
  8
0
  6
Continuous
 62
     7
370
    25
100
AcDbCircle
 10
46.2570352882
 20
36.5656519334
 30
0.0
 40
1.788586359099334
100
AcDbArc
 50
237.678397506
 51
275.9397894601
  0
LINE
  5
CD
330
1F
100
AcDbEntity
  8
0
  6
Continuous
 62
     7
370
    25
100
AcDbLine
 10
38.7214344345
 20
40.2935916869
 30
0.0
 11
38.6828684821
 21
124.3524517381
 31
0.0
  0
LWPOLYLINE
  5
CE
330
1F
100
AcDbEntity
  8
0
  6
Continuous
 62
     7
370
    25
100
AcDbPolyline
 90
        7
 70
   128
 43
0.0
 10
43.2502775246
 20
81.5748929364
 10
43.3449351932
 20
82.4920260372
 10
43.6213579961
 20
83.2963829468
 10
44.0549831964
 20
83.9164979005
 10
44.6072834875
 20
84.2972668031
 10
45.2291780148
 20
84.4048602192
 10
45.2673406182
 20
84.4023070759
  0
ARC
  5
CF
330
1F
100
AcDbEntity
  8
0
  6
Continuous
 62
     7
370
    25
100
AcDbCircle
 10
46.5582295055
 20
81.1602565015
 30
0.0
 40
3.333837080776841
100
AcDbArc
 50
172.855501184
 51
247.4732793247
  0
LINE
  5
D0
330
1F
100
AcDbEntity
  8
0
  6
Continuous
 62
     7
370
    25
100
AcDbLine
 10
45.2988220334
 20
39.2116663264
 30
0.0
 11
38.7214344345
 21
40.2935916869
 31
0.0
  0
LWPOLYLINE
  5
D1
330
1F
100
AcDbEntity
  8
0
  6
Continuous
 62
     7
370
    25
100
AcDbPolyline
 90
       10
 70
   128
 43
0.0
 10
45.2673408386
 20
84.4023057718
 10
44.9138891222
 20
84.2191295551
 10
44.415359349
 20
83.7130352037
 10
44.0563265705
 20
82.9927521039
 10
43.8686892634
 20
82.1222843198
 10
43.8691220497
 20
81.178977749
 10
44.0575864765
 20
80.2466443689
 10
44.4173344276
 20
79.4081278386
 10
44.916403877
 20
78.7379367417
 10
45.2808285056
 20
78.4310765354
  0
ARC
  5
D2
330
1F
100
AcDbEntity
  8
0
  6
Continuous
 62
     7
370
    25
100
AcDbCircle
 10
53.2548402855
 20
82.2763445021
 30
0.0
 40
9.185929729815813
100
AcDbArc
 50
174.6299862347
 51
200.6300683072
  0
LINE
  5
D3
330
1F
100
AcDbEntity
  8
0
  6
Continuous
 62
     7
370
    25
100
AcDbLine
 10
625.8108221203
 20
351.2486371555
 30
0.0
 11
625.8108221203
 21
350.9486371555
 31
0.0
  0
LINE
  5
D4
330
1F
100
AcDbEntity
  8
0
  6
Continuous
 62
     7
370
    25
100
AcDbLine
 10
650.6108221203
 20
350.9486371555
 30
0.0
 11
650.6108221203
 21
351.2486371555
 31
0.0
  0
LINE
  5
D5
330
1F
100
AcDbEntity
  8
0
  6
Continuous
 62
     7
370
    25
100
AcDbLine
 10
624.1108221203
 20
440.0486371555
 30
0.0
 11
624.1108221203
 21
355.0486371555
 31
0.0
  0
LINE
  5
D6
330
1F
100
AcDbEntity
  8
0
  6
Continuous
 62
     7
370
    25
100
AcDbLine
 10
624.1108221203
 20
350.9486371555
 30
0.0
 11
624.1108221203
 21
265.9486371555
 31
0.0
  0
ARC
  5
D7
330
1F
100
AcDbEntity
  8
0
  6
Continuous
 62
     7
370
    25
100
AcDbCircle
 10
638.2108221204
 20
411.2819704888
 30
0.0
 40
34.16666666666669
100
AcDbArc
 50
65.810485846
 51
114.189514154
  0
LINE
  5
D8
330
1F
100
AcDbEntity
  8
0
  6
Continuous
 62
     7
370
    25
100
AcDbLine
 10
624.2108221204
 20
442.4486371555
 30
0.0
 11
624.2108221204
 21
440.4486371555
 31
0.0
  0
LINE
  5
D9
330
1F
100
AcDbEntity
  8
0
  6
Continuous
 62
     7
370
    25
100
AcDbLine
 10
652.2108221204
 20
440.4486371555
 30
0.0
 11
652.2108221204
 21
442.4486371555
 31
0.0
  0
ARC
  5
DA
330
1F
100
AcDbEntity
  8
0
  6
Continuous
 62
     7
370
    25
100
AcDbCircle
 10
650.0108221204
 20
440.0486371555
 30
0.0
 40
0.3999999999999204
100
AcDbArc
 50
90.0
 51
180.0
  0
ARC
  5
DB
330
1F
100
AcDbEntity
  8
0
  6
Continuous
 62
     7
370
    25
100
AcDbCircle
 10
626.4108221204
 20
440.0486371555
 30
0.0
 40
0.3999999999999773
100
AcDbArc
 50
0.0
 51
90.0
  0
LINE
  5
DC
330
1F
100
AcDbEntity
  8
0
  6
Continuous
 62
     7
370
    25
100
AcDbLine
 10
652.2108221203
 20
263.9486371555
 30
0.0
 11
652.2108221203
 21
265.9486371555
 31
0.0
  0
LINE
  5
DD
330
1F
100
AcDbEntity
  8
0
  6
Continuous
 62
     7
370
    25
100
AcDbLine
 10
624.2108221203
 20
265.9486371555
 30
0.0
 11
624.2108221203
 21
263.9486371555
 31
0.0
  0
ARC
  5
DE
330
1F
100
AcDbEntity
  8
0
  6
Continuous
 62
     7
370
    25
100
AcDbCircle
 10
638.2108221203
 20
295.1153038221
 30
0.0
 40
34.16666666666677
100
AcDbArc
 50
275.4776094312
 51
294.189514154
  0
ARC
  5
DF
330
1F
100
AcDbEntity
  8
0
  6
Continuous
 62
     7
370
    25
100
AcDbCircle
 10
638.2108221203
 20
295.1153038221
 30
0.0
 40
34.16666666666679
100
AcDbArc
 50
245.810485846
 51
264.5223905688
  0
LINE
  5
E0
330
1F
100
AcDbEntity
  8
0
  6
Continuous
 62
     7
370
    25
100
AcDbLine
 10
624.2108221203
 20
355.0486371555
 30
0.0
 11
624.2108221203
 21
351.2486371555
 31
0.0
  0
LINE
  5
E1
330
1F
100
AcDbEntity
  8
0
  6
Continuous
 62
     7
370
    25
100
AcDbLine
 10
652.2108221203
 20
351.2486371555
 30
0.0
 11
652.2108221203
 21
355.0486371555
 31
0.0
  0
LINE
  5
E2
330
1F
100
AcDbEntity
  8
0
  6
Continuous
 62
     7
370
    25
100
AcDbLine
 10
624.1108221203
 20
440.0486371555
 30
0.0
 11
651.3077582937
 21
440.0486371555
 31
0.0
  0
LINE
  5
E3
330
1F
100
AcDbEntity
  8
0
  6
Continuous
 62
     7
370
    25
100
AcDbLine
 10
651.3077582937
 20
355.0486371555
 30
0.0
 11
651.3077582937
 21
440.0486371555
 31
0.0
  0
LINE
  5
E4
330
1F
100
AcDbEntity
  8
0
  6
Continuous
 62
     7
370
    25
100
AcDbLine
 10
624.1108221203
 20
355.0486371555
 30
0.0
 11
651.3077582937
 21
355.0486371555
 31
0.0
  0
SPLINE
  5
E5
330
1F
100
AcDbEntity
  8
0
  6
Continuous
 62
     7
370
    25
100
AcDbSpline
210
0.0
220
0.0
230
1.0
 70
    11
 71
     3
 72
    45
 73
    41
 74
     0
 42
0.000000001
 43
0.00000001
 40
0.0
 40
0.0
 40
0.0
 40
0.0
 40
0.0261750634602467
 40
0.0531167472714857
 40
0.0792896982148058
 40
0.10620762054116
 40
0.1326395823112954
 40
0.1598273003130905
 40
0.1864254926299115
 40
0.2138104628681751
 40
0.2401284828428589
 40
0.2672271775378595
 40
0.2932616497256179
 40
0.3200442830606238
 40
0.3462199904539316
 40
0.3731347303590176
 40
0.3996623683118239
 40
0.4269564311006696
 40
0.4535083039144799
 40
0.4808506421947276
 40
0.5070464740949919
 40
0.5340135898208956
 40
0.5600321028872829
 40
0.5867905602427134
 40
0.6130826083385443
 40
0.6401193176194953
 40
0.6667116079478027
 40
0.6940816804637319
 40
0.7205363404880762
 40
0.7477792558314912
 40
0.7738791853036797
 40
0.8007388563325792
 40
0.8268129644981219
 40
0.8536246492392554
 40
0.8800353156985242
 40
0.9071997591441785
 40
0.9338023134781884
 40
0.9611906040645228
 40
0.9804462398559427
 40
1.0
 40
1.0
 40
1.0
 40
1.0
 10
640.7253201246731
 20
428.5486371554738
 30
0.0
 10
640.7187605336972
 20
428.6859589151559
 30
0.0
 10
640.7054492331686
 20
428.9646243409337
 30
0.0
 10
640.5984528826885
 20
429.3688670625692
 30
0.0
 10
640.4294597450709
 20
429.7532600932174
 30
0.0
 10
640.1994224748593
 20
430.1015727287526
 30
0.0
 10
639.9115971220615
 20
430.4103873657443
 30
0.0
 10
639.5771793204851
 20
430.6658350140836
 30
0.0
 10
639.1999179960342
 20
430.8639706727493
 30
0.0
 10
638.7982140838371
 20
430.99440970633
 30
0.0
 10
638.3774361486431
 20
431.0558536650692
 30
0.0
 10
637.9590777725984
 20
431.0461458993513
 30
0.0
 10
637.5462190954827
 20
430.9665421760993
 30
0.0
 10
637.157068663787
 20
430.8215901182567
 30
0.0
 10
636.793882303579
 20
430.6122663559514
 30
0.0
 10
636.4716228030218
 20
430.3466544010585
 30
0.0
 10
636.1944066049132
 20
430.0267089713743
 30
0.0
 10
635.9756006922477
 20
429.6659479058479
 30
0.0
 10
635.8188951849344
 20
429.26915321731
 30
0.0
 10
635.732403401218
 20
428.8565375973139
 30
0.0
 10
635.7162823961735
 20
428.4330327383493
 30
0.0
 10
635.7700737257434
 20
428.0196035744679
 30
0.0
 10
635.8924114179406
 20
427.6186214569929
 30
0.0
 10
636.0774938508279
 20
427.2468860821467
 30
0.0
 10
636.3244069040493
 20
426.9070977488226
 30
0.0
 10
636.6237870313404
 20
426.6137416464136
 30
0.0
 10
636.9727723537181
 20
426.3713172323106
 30
0.0
 10
637.3554795873894
 20
426.1921734167315
 30
0.0
 10
637.7665535735952
 20
426.0790024681549
 30
0.0
 10
638.1847261675533
 20
426.0371867975766
 30
0.0
 10
638.6059151974084
 20
426.0660033456231
 30
0.0
 10
639.0103367480381
 20
426.1628366931232
 30
0.0
 10
639.3958997091298
 20
426.3265055841404
 30
0.0
 10
639.7467852862288
 20
426.5501658608025
 30
0.0
 10
640.0596054201387
 20
426.8325649778003
 30
0.0
 10
640.3202001735003
 20
427.1626031122203
 30
0.0
 10
640.5246153729711
 20
427.53644409367
 30
0.0
 10
640.6487065057678
 20
427.9009060294031
 30
0.0
 10
640.7144232091545
 20
428.2425850117021
 30
0.0
 10
640.7216692653524
 20
428.446098660079
 30
0.0
 10
640.7253201246731
 20
428.5486371554738
 30
0.0
  0
LINE
  5
E6
330
1F
100
AcDbEntity
  8
0
  6
Continuous
 62
     7
370
    25
100
AcDbLine
 10
655.2125891348
 20
355.0486371555
 30
0.0
 11
655.2125891348
 21
440.0486371555
 31
0.0
  0
LINE
  5
E7
330
1F
100
AcDbEntity
  8
0
  6
Continuous
 62
     7
370
    25
100
AcDbLine
 10
655.2125891348
 20
355.0486371555
 30
0.0
 11
651.3077582937
 21
355.0486371555
 31
0.0
  0
LINE
  5
E8
330
1F
100
AcDbEntity
  8
0
  6
Continuous
 62
     7
370
    25
100
AcDbLine
 10
655.2125891348
 20
440.0486371555
 30
0.0
 11
651.3077582937
 21
440.0486371555
 31
0.0
  0
LINE
  5
E9
330
1F
100
AcDbEntity
  8
0
  6
Continuous
 62
     7
370
    25
100
AcDbLine
 10
685.2125727582
 20
355.0486371555
 30
0.0
 11
685.2125727582
 21
440.0486371555
 31
0.0
  0
CIRCLE
  5
EA
330
1F
100
AcDbEntity
  8
0
  6
Continuous
 62
     7
370
    25
100
AcDbCircle
 10
663.7125821536
 20
430.0486367123
 30
0.0
 40
6.199998956678217
  0
CIRCLE
  5
EB
330
1F
100
AcDbEntity
  8
0
  6
Continuous
 62
     7
370
    25
100
AcDbCircle
 10
675.2125758759
 20
397.5486367123
 30
0.0
 40
6.19999895667833
  0
CIRCLE
  5
EC
330
1F
100
AcDbEntity
  8
0
  6
Continuous
 62
     7
370
    25
100
AcDbCircle
 10
663.7125821536
 20
365.0486367123
 30
0.0
 40
6.199998956678217
  0
LINE
  5
ED
330
1F
100
AcDbEntity
  8
0
  6
Continuous
 62
     7
370
    25
100
AcDbLine
 10
685.2125727582
 20
355.0486371555
 30
0.0
 11
655.2125891348
 21
355.0486371555
 31
0.0
  0
LINE
  5
EE
330
1F
100
AcDbEntity
  8
0
  6
Continuous
 62
     7
370
    25
100
AcDbLine
 10
685.2125727582
 20
440.0486371555
 30
0.0
 11
655.2125891348
 21
440.0486371555
 31
0.0
  0
CIRCLE
  5
EF
330
1F
100
AcDbEntity
  8
0
  6
Continuous
 62
     7
370
    25
100
AcDbCircle
 10
663.709448554
 20
365.0486368507
 30
0.0
 40
3.199999556512481
  0
CIRCLE
  5
F0
330
1F
100
AcDbEntity
  8
0
  6
Continuous
 62
     7
370
    25
100
AcDbCircle
 10
663.709448554
 20
430.0486368507
 30
0.0
 40
3.199999556512367
  0
CIRCLE
  5
F1
330
1F
100
AcDbEntity
  8
0
  6
Continuous
 62
     7
370
    25
100
AcDbCircle
 10
675.2094422763
 20
397.5486368507
 30
0.0
 40
3.199999556512481
  0
ARC
  5
F2
330
1F
100
AcDbEntity
  8
0
  6
Continuous
 62
     7
370
    25
100
AcDbCircle
 10
663.7086126091
 20
365.0486371555
 30
0.0
 40
3.200000000000271
100
AcDbArc
 50
270.0000240804
 51
89.9999759196
  0
ARC
  5
F3
330
1F
100
AcDbEntity
  8
0
  6
Continuous
 62
     7
370
    25
100
AcDbCircle
 10
663.7086126091
 20
430.0486371555
 30
0.0
 40
3.200000000000271
100
AcDbArc
 50
270.0000240804
 51
89.9999759196
  0
ARC
  5
F4
330
1F
100
AcDbEntity
  8
0
  6
Continuous
 62
     7
370
    25
100
AcDbCircle
 10
675.2086063314
 20
397.5486371555
 30
0.0
 40
3.200000000000328
100
AcDbArc
 50
270.0000240804
 51
89.9999759196
  0
LINE
  5
F5
330
1F
100
AcDbEntity
  8
0
  6
Continuous
 62
     7
370
    25
100
AcDbLine
 10
652.4422664958
 20
265.9486371555
 30
0.0
 11
652.4422664958
 21
350.9486371555
 31
0.0
  0
LINE
  5
F6
330
1F
100
AcDbEntity
  8
0
  6
Continuous
 62
     7
370
    25
100
AcDbLine
 10
652.4422664958
 20
350.9486371555
 30
0.0
 11
655.2108221203
 21
350.9486371555
 31
0.0
  0
LINE
  5
F7
330
1F
100
AcDbEntity
  8
0
  6
Continuous
 62
     7
370
    25
100
AcDbLine
 10
655.2108221203
 20
350.9486371555
 30
0.0
 11
655.2108221203
 21
265.9486371555
 31
0.0
  0
LINE
  5
F8
330
1F
100
AcDbEntity
  8
0
  6
Continuous
 62
     7
370
    25
100
AcDbLine
 10
655.2108221203
 20
265.9486371555
 30
0.0
 11
652.4422664958
 21
265.9486371555
 31
0.0
  0
LINE
  5
F9
330
1F
100
AcDbEntity
  8
0
  6
Continuous
 62
     7
370
    25
100
AcDbLine
 10
632.7925049671
 20
350.9486371555
 30
0.0
 11
632.7925049671
 21
265.9486371555
 31
0.0
  0
LINE
  5
FA
330
1F
100
AcDbEntity
  8
0
  6
Continuous
 62
     7
370
    25
100
AcDbLine
 10
632.7925049671
 20
265.9486371555
 30
0.0
 11
652.4422664958
 21
265.9486371555
 31
0.0
  0
LINE
  5
FB
330
1F
100
AcDbEntity
  8
0
  6
Continuous
 62
     7
370
    25
100
AcDbLine
 10
632.7925049671
 20
350.9486371555
 30
0.0
 11
652.4422664958
 21
350.9486371555
 31
0.0
  0
LINE
  5
FC
330
1F
100
AcDbEntity
  8
0
  6
Continuous
 62
     7
370
    25
100
AcDbLine
 10
624.1108221203
 20
265.9486371555
 30
0.0
 11
632.7925049671
 21
265.9486371555
 31
0.0
  0
LINE
  5
FD
330
1F
100
AcDbEntity
  8
0
  6
Continuous
 62
     7
370
    25
100
AcDbLine
 10
632.7925049671
 20
350.9486371555
 30
0.0
 11
624.1108221203
 21
350.9486371555
 31
0.0
  0
LINE
  5
FE
330
1F
100
AcDbEntity
  8
0
  6
Continuous
 62
     7
370
    25
100
AcDbLine
 10
655.4108221203
 20
350.9486371555
 30
0.0
 11
655.4108221203
 21
265.9486371555
 31
0.0
  0
LINE
  5
FF
330
1F
100
AcDbEntity
  8
0
  6
Continuous
 62
     7
370
    25
100
AcDbLine
 10
655.4108221203
 20
265.9486371555
 30
0.0
 11
655.2108221203
 21
265.9486371555
 31
0.0
  0
LINE
  5
100
330
1F
100
AcDbEntity
  8
0
  6
Continuous
 62
     7
370
    25
100
AcDbLine
 10
655.2108221203
 20
350.9486371555
 30
0.0
 11
655.4108221203
 21
350.9486371555
 31
0.0
  0
LINE
  5
101
330
1F
100
AcDbEntity
  8
0
  6
Continuous
 62
     7
370
    25
100
AcDbLine
 10
685.2108221203
 20
265.9486371555
 30
0.0
 11
685.2108221203
 21
350.9486371555
 31
0.0
  0
CIRCLE
  5
102
330
1F
100
AcDbEntity
  8
0
  6
Continuous
 62
     7
370
    25
100
AcDbCircle
 10
675.2108221203
 20
308.4486371555
 30
0.0
 40
3.199999999999932
  0
CIRCLE
  5
103
330
1F
100
AcDbEntity
  8
0
  6
Continuous
 62
     7
370
    25
100
AcDbCircle
 10
663.7108221203
 20
275.9486371555
 30
0.0
 40
3.200000000000045
  0
CIRCLE
  5
104
330
1F
100
AcDbEntity
  8
0
  6
Continuous
 62
     7
370
    25
100
AcDbCircle
 10
663.7108221203
 20
340.9486371555
 30
0.0
 40
3.200000000000045
  0
LINE
  5
105
330
1F
100
AcDbEntity
  8
0
  6
Continuous
 62
     7
370
    25
100
AcDbLine
 10
655.4108221203
 20
265.9486371555
 30
0.0
 11
685.2108221203
 21
265.9486371555
 31
0.0
  0
LINE
  5
106
330
1F
100
AcDbEntity
  8
0
  6
Continuous
 62
     7
370
    25
100
AcDbLine
 10
655.4108221203
 20
350.9486371555
 30
0.0
 11
685.2108221203
 21
350.9486371555
 31
0.0
  0
LINE
  5
107
330
1F
100
AcDbEntity
  8
0
  6
Continuous
 62
     7
370
    25
100
AcDbLine
 10
635.7590700081
 20
442.4486371555
 30
0.0
 11
652.2108221204
 21
442.4486371555
 31
0.0
  0
LINE
  5
108
330
1F
100
AcDbEntity
  8
0
  6
Continuous
 62
     7
370
    25
100
AcDbLine
 10
624.2108221204
 20
442.4486371555
 30
0.0
 11
635.7590700081
 21
442.4486371555
 31
0.0
  0
LINE
  5
109
330
1F
100
AcDbEntity
  8
0
  6
Continuous
 62
     7
370
    25
100
AcDbLine
 10
635.7590700081
 20
440.4486371555
 30
0.0
 11
652.2108221204
 21
440.4486371555
 31
0.0
  0
LINE
  5
10A
330
1F
100
AcDbEntity
  8
0
  6
Continuous
 62
     7
370
    25
100
AcDbLine
 10
624.2108221204
 20
440.4486371555
 30
0.0
 11
635.7590700081
 21
440.4486371555
 31
0.0
  0
ARC
  5
10B
330
1F
100
AcDbEntity
  8
0
  6
Continuous
 62
     7
370
    25
100
AcDbCircle
 10
638.225256119
 20
428.5486365128
 30
0.0
 40
2.499999316173145
100
AcDbArc
 50
12.3218188634
 51
265.852352818
  0
ARC
  5
10C
330
1F
100
AcDbEntity
  8
0
  6
Continuous
 62
     7
370
    25
100
AcDbCircle
 10
638.2252580461
 20
428.5486371957
 30
0.0
 40
1.550000586180278
100
AcDbArc
 50
147.7292652021
 51
176.9143536221
  0
LINE
  5
10D
330
1F
100
AcDbEntity
  8
0
  6
Continuous
 62
     7
370
    25
100
AcDbLine
 10
636.6775046713
 20
428.6320716501
 30
0.0
 11
636.5331054742
 21
428.1790138324
 31
0.0
  0
LINE
  5
10E
330
1F
100
AcDbEntity
  8
0
  6
Continuous
 62
     7
370
    25
100
AcDbLine
 10
636.5331054742
 20
428.1790138324
 30
0.0
 11
636.853265241
 21
427.8274314823
 31
0.0
  0
ARC
  5
10F
330
1F
100
AcDbEntity
  8
0
  6
Continuous
 62
     7
370
    25
100
AcDbCircle
 10
638.2252572755
 20
428.5486366571
 30
0.0
 40
1.549999692455772
100
AcDbArc
 50
207.7292349221
 51
236.9143346629
  0
LINE
  5
110
330
1F
100
AcDbEntity
  8
0
  6
Continuous
 62
     7
370
    25
100
AcDbLine
 10
637.3791242892
 20
427.2499611718
 30
0.0
 11
637.699284056
 21
426.8983788217
 31
0.0
  0
LINE
  5
111
330
1F
100
AcDbEntity
  8
0
  6
Continuous
 62
     7
370
    25
100
AcDbLine
 10
637.699284056
 20
426.8983788217
 30
0.0
 11
638.1638430198
 21
426.9998542893
 31
0.0
  0
ARC
  5
112
330
1F
100
AcDbEntity
  8
0
  6
Continuous
 62
     7
370
    25
100
AcDbCircle
 10
638.2252566004
 20
428.5486356082
 30
0.0
 40
1.549998452177715
100
AcDbArc
 50
267.7292491579
 51
296.9143646092
  0
LINE
  5
113
330
1F
100
AcDbEntity
  8
0
  6
Continuous
 62
     7
370
    25
100
AcDbLine
 10
638.9268762298
 20
427.1665266771
 30
0.0
 11
639.3914351937
 21
427.2680021447
 31
0.0
  0
LINE
  5
114
330
1F
100
AcDbEntity
  8
0
  6
Continuous
 62
     7
370
    25
100
AcDbLine
 10
639.3914351937
 20
427.2680021447
 30
0.0
 11
639.5358343908
 21
427.7210599624
 31
0.0
  0
ARC
  5
115
330
1F
100
AcDbEntity
  8
0
  6
Continuous
 62
     7
370
    25
100
AcDbCircle
 10
638.2252551779
 20
428.5486371152
 30
0.0
 40
1.550000586182246
100
AcDbArc
 50
327.7292652021
 51
356.9143536221
  0
LINE
  5
116
330
1F
100
AcDbEntity
  8
0
  6
Continuous
 62
     7
370
    25
100
AcDbLine
 10
639.7730085526
 20
428.4652026608
 30
0.0
 11
639.9174077497
 21
428.9182604785
 31
0.0
  0
LINE
  5
117
330
1F
100
AcDbEntity
  8
0
  6
Continuous
 62
     7
370
    25
100
AcDbLine
 10
639.9174077497
 20
428.9182604785
 30
0.0
 11
639.5972479829
 21
429.2698428286
 31
0.0
  0
ARC
  5
118
330
1F
100
AcDbEntity
  8
0
  6
Continuous
 62
     7
370
    25
100
AcDbCircle
 10
638.2252559484
 20
428.5486376539
 30
0.0
 40
1.549999692456844
100
AcDbArc
 50
27.7292349221
 51
56.9143346629
  0
LINE
  5
119
330
1F
100
AcDbEntity
  8
0
  6
Continuous
 62
     7
370
    25
100
AcDbLine
 10
639.0713889347
 20
429.8473131392
 30
0.0
 11
638.751229168
 21
430.1988954893
 31
0.0
  0
LINE
  5
11A
330
1F
100
AcDbEntity
  8
0
  6
Continuous
 62
     7
370
    25
100
AcDbLine
 10
638.751229168
 20
430.1988954893
 30
0.0
 11
638.2866702041
 21
430.0974200217
 31
0.0
  0
ARC
  5
11B
330
1F
100
AcDbEntity
  8
0
  6
Continuous
 62
     7
370
    25
100
AcDbCircle
 10
638.2252566235
 20
428.5486387027
 30
0.0
 40
1.549998452177199
100
AcDbArc
 50
87.7292491579
 51
116.9143646092
  0
LINE
  5
11C
330
1F
100
AcDbEntity
  8
0
  6
Continuous
 62
     7
370
    25
100
AcDbLine
 10
637.5236369941
 20
429.9307476338
 30
0.0
 11
637.0590780302
 21
429.8292721662
 31
0.0
  0
LINE
  5
11D
330
1F
100
AcDbEntity
  8
0
  6
Continuous
 62
     7
370
    25
100
AcDbLine
 10
637.0590780302
 20
429.8292721662
 30
0.0
 11
636.9146788331
 21
429.3762143485
 31
0.0
  0
ARC
  5
11E
330
1F
100
AcDbEntity
  8
0
  6
Continuous
 62
     7
370
    25
100
AcDbCircle
 10
638.2200319625
 20
428.5486378671
 30
0.0
 40
1.54999928832634
100
AcDbArc
 50
12.3217791817
 51
89.9999906245
  0
ARC
  5
11F
330
1F
100
AcDbEntity
  8
0
  6
Continuous
 62
     7
370
    25
100
AcDbCircle
 10
638.2200316872
 20
428.5486369158
 30
0.0
 40
1.549999760325965
100
AcDbArc
 50
270.0000195528
 51
12.3218113664
  0
ARC
  5
120
330
1F
100
AcDbEntity
  8
0
  6
Continuous
 62
     7
370
    25
100
AcDbCircle
 10
638.2210770559
 20
428.5486385862
 30
0.0
 40
1.549998570633179
100
AcDbArc
 50
56.914335179
 51
87.7292474477
  0
LINE
  5
121
330
1F
100
AcDbEntity
  8
0
  6
Continuous
 62
     7
370
    25
100
AcDbLine
 10
639.0672094181
 20
429.8473131392
 30
0.0
 11
639.0713889347
 21
429.8473131392
 31
0.0
  0
LINE
  5
122
330
1F
100
AcDbEntity
  8
0
  6
Continuous
 62
     7
370
    25
100
AcDbLine
 10
639.5972479829
 20
429.2698428286
 30
0.0
 11
639.5930684663
 21
429.2698428286
 31
0.0
  0
ARC
  5
123
330
1F
100
AcDbEntity
  8
0
  6
Continuous
 62
     7
370
    25
100
AcDbCircle
 10
638.2210755516
 20
428.5486371664
 30
0.0
 40
1.550000698422348
100
AcDbArc
 50
356.9143519513
 51
27.7292357325
  0
LINE
  5
124
330
1F
100
AcDbEntity
  8
0
  6
Continuous
 62
     7
370
    25
100
AcDbLine
 10
639.768829036
 20
428.4652026608
 30
0.0
 11
639.7730085526
 21
428.4652026608
 31
0.0
  0
LINE
  5
125
330
1F
100
AcDbEntity
  8
0
  6
Continuous
 62
     7
370
    25
100
AcDbLine
 10
639.5358343908
 20
427.7210599624
 30
0.0
 11
639.5316548741
 21
427.7210599624
 31
0.0
  0
ARC
  5
126
330
1F
100
AcDbEntity
  8
0
  6
Continuous
 62
     7
370
    25
100
AcDbCircle
 10
638.221076599
 20
428.5486364943
 30
0.0
 40
1.549999461754792
100
AcDbArc
 50
296.9143657639
 51
327.729266102
  0
LINE
  5
127
330
1F
100
AcDbEntity
  8
0
  6
Continuous
 62
     7
370
    25
100
AcDbLine
 10
638.9226967132
 20
427.1665266771
 30
0.0
 11
638.9268762298
 21
427.1665266771
 31
0.0
  0
LINE
  5
128
330
1F
100
AcDbEntity
  8
0
  6
Continuous
 62
     7
370
    25
100
AcDbLine
 10
638.1638430198
 20
426.9998542893
 30
0.0
 11
638.1596635032
 21
426.9998542893
 31
0.0
  0
ARC
  5
129
330
1F
100
AcDbEntity
  8
0
  6
Continuous
 62
     7
370
    25
100
AcDbCircle
 10
638.2210771347
 20
428.5486357248
 30
0.0
 40
1.549998570634422
100
AcDbArc
 50
236.914335179
 51
267.7292474477
  0
ARC
  5
12A
330
1F
100
AcDbEntity
  8
0
  6
Continuous
 62
     7
370
    25
100
AcDbCircle
 10
638.2210786391
 20
428.5486371445
 30
0.0
 40
1.550000698426727
100
AcDbArc
 50
176.9143519514
 51
207.7292357324
  0
ARC
  5
12B
330
1F
100
AcDbEntity
  8
0
  6
Continuous
 62
     7
370
    25
100
AcDbCircle
 10
638.2210775917
 20
428.5486378166
 30
0.0
 40
1.549999461754001
100
AcDbArc
 50
116.9143657639
 51
147.729266102
  0
LINE
  5
12C
330
1F
100
AcDbEntity
  8
0
  6
Continuous
 62
     7
370
    25
100
AcDbLine
 10
638.2866702041
 20
430.0974200217
 30
0.0
 11
638.2824906874
 21
430.0974200217
 31
0.0
  0
LINE
  5
12D
330
1F
100
AcDbEntity
  8
0
  6
Continuous
 62
     7
370
    25
100
AcDbLine
 10
637.698590632
 20
426.8991403028
 30
0.0
 11
638.1596635032
 21
426.9998542893
 31
0.0
  0
LINE
  5
12E
330
1F
100
AcDbEntity
  8
0
  6
Continuous
 62
     7
370
    25
100
AcDbLine
 10
639.0672094181
 20
429.8473131392
 30
0.0
 11
638.7477430753
 21
430.1981340082
 31
0.0
  0
LINE
  5
12F
330
1F
100
AcDbEntity
  8
0
  6
Continuous
 62
     7
370
    25
100
AcDbLine
 10
638.9226967132
 20
427.1665266771
 30
0.0
 11
639.3872556771
 21
427.2680021447
 31
0.0
  0
LINE
  5
130
330
1F
100
AcDbEntity
  8
0
  6
Continuous
 62
     7
370
    25
100
AcDbLine
 10
639.3872556771
 20
427.2680021447
 30
0.0
 11
639.3914351937
 21
427.2680021447
 31
0.0
  0
LINE
  5
131
330
1F
100
AcDbEntity
  8
0
  6
Continuous
 62
     7
370
    25
100
AcDbLine
 10
639.3872556771
 20
427.2680021447
 30
0.0
 11
639.5316548741
 21
427.7210599624
 31
0.0
  0
LINE
  5
132
330
1F
100
AcDbEntity
  8
0
  6
Continuous
 62
     7
370
    25
100
AcDbLine
 10
639.9132282331
 20
428.9182604785
 30
0.0
 11
639.9174077497
 21
428.9182604785
 31
0.0
  0
LINE
  5
133
330
1F
100
AcDbEntity
  8
0
  6
Continuous
 62
     7
370
    25
100
AcDbLine
 10
639.9132282331
 20
428.9182604785
 30
0.0
 11
639.5930684663
 21
429.2698428286
 31
0.0
  0
LINE
  5
134
330
1F
100
AcDbEntity
  8
0
  6
Continuous
 62
     7
370
    25
100
AcDbLine
 10
639.768829036
 20
428.4652026608
 30
0.0
 11
639.9132282331
 21
428.9182604785
 31
0.0
  0
LINE
  5
135
330
1F
100
AcDbEntity
  8
0
  6
Continuous
 62
     7
370
    25
100
AcDbLine
 10
632.7186879484
 20
263.9486371555
 30
0.0
 11
624.2108221203
 21
263.9486371555
 31
0.0
  0
LINE
  5
136
330
1F
100
AcDbEntity
  8
0
  6
Continuous
 62
     7
370
    25
100
AcDbLine
 10
652.2108221203
 20
263.9486371555
 30
0.0
 11
632.7186879484
 21
263.9486371555
 31
0.0
  0
ARC
  5
137
330
1F
100
AcDbEntity
  8
0
  6
Continuous
 62
     7
370
    25
100
AcDbCircle
 10
635.4515549658
 20
266.3427575741
 30
0.0
 40
5.262142805537612
100
AcDbArc
 50
262.5782001476
 51
271.5487472349
  0
ARC
  5
138
330
1F
100
AcDbEntity
  8
0
  6
Continuous
 62
     7
370
    25
100
AcDbCircle
 10
637.8502765544
 20
294.6239302577
 30
0.0
 40
33.54333093067887
100
AcDbArc
 50
267.8298812097
 51
270.6158642113
  0
ARC
  5
139
330
1F
100
AcDbEntity
  8
0
  6
Continuous
 62
     7
370
    25
100
AcDbCircle
 10
640.6098200053
 20
273.3612094299
 30
0.0
 40
12.28060826473029
100
AcDbArc
 50
266.41321762
 51
271.0173623433
  0
ARC
  5
13A
330
1F
100
AcDbEntity
  8
0
  6
Continuous
 62
     7
370
    25
100
AcDbCircle
 10
640.9701995686
 20
266.3389410586
 30
0.0
 40
5.25830770760194
100
AcDbArc
 50
262.5770574354
 51
275.4789305932
  0
ARC
  5
13B
330
1F
100
AcDbEntity
  8
0
  6
Continuous
 62
     7
370
    25
100
AcDbCircle
 10
638.5713680388
 20
294.6240881196
 30
0.0
 40
33.54348873809914
100
AcDbArc
 50
267.061632344
 51
272.938367656
  0
ARC
  5
13C
330
1F
100
AcDbEntity
  8
0
  6
Continuous
 62
     7
370
    25
100
AcDbCircle
 10
635.8118500388
 20
273.3681982941
 30
0.0
 40
12.28759054651054
100
AcDbArc
 50
265.1446778857
 51
274.8553221143
  0
LINE
  5
13D
330
1F
100
AcDbEntity
  8
0
  6
Continuous
 62
     7
370
    25
100
AcDbLine
 10
649.6563049632
 20
351.2486371555
 30
0.0
 11
652.2108221203
 21
351.2486371555
 31
0.0
  0
LINE
  5
13E
330
1F
100
AcDbEntity
  8
0
  6
Continuous
 62
     7
370
    25
100
AcDbLine
 10
624.2108221203
 20
351.2486371555
 30
0.0
 11
649.6563049632
 21
351.2486371555
 31
0.0
  0
INSERT
  5
14A
330
1F
100
AcDbEntity
  8
0
  6
Continuous
 62
     7
370
     0
100
AcDbBlockReference
  2
SW_CENTERMARKSYMBOL_0
 10
663.7108221203
 20
275.9486371555
 30
0.0
  0
INSERT
  5
156
330
1F
100
AcDbEntity
  8
0
  6
Continuous
 62
     7
370
     0
100
AcDbBlockReference
  2
SW_CENTERMARKSYMBOL_1
 10
675.2108221203
 20
308.4486371555
 30
0.0
  0
INSERT
  5
162
330
1F
100
AcDbEntity
  8
0
  6
Continuous
 62
     7
370
     0
100
AcDbBlockReference
  2
SW_CENTERMARKSYMBOL_2
 10
663.7108221203
 20
340.9486371555
 30
0.0
  0
LINE
  5
163
330
1F
100
AcDbEntity
  8
0
  6
Continuous
 62
     7
370
    25
100
AcDbLine
 10
735.1864607131
 20
221.6710219011
 30
0.0
 11
734.9467023731
 21
137.473230748
 31
0.0
  0
LINE
  5
164
330
1F
100
AcDbEntity
  8
0
  6
Continuous
 62
     7
370
    25
100
AcDbLine
 10
763.1465879689
 20
137.3929298522
 30
0.0
 11
763.386346309
 21
221.5907210052
 31
0.0
  0
LINE
  5
165
330
1F
100
AcDbEntity
  8
0
  6
Continuous
 62
     7
370
    25
100
AcDbLine
 10
734.9351375515
 20
133.4119228882
 30
0.0
 11
734.6953791905
 21
49.2141243549
 31
0.0
  0
LINE
  5
166
330
1F
100
AcDbEntity
  8
0
  6
Continuous
 62
     7
370
    25
100
AcDbLine
 10
774.4506932949
 20
48.2372663029
 30
0.0
 11
774.6904516559
 21
132.4350648362
 31
0.0
  0
ARC
  5
167
330
1F
100
AcDbEntity
  8
0
  6
Continuous
 62
     7
370
    25
100
AcDbCircle
 10
749.2052633224
 20
193.1356982286
 30
0.0
 40
34.16666666666677
100
AcDbArc
 50
66.8922746232
 51
112.781419813
  0
LINE
  5
168
330
1F
100
AcDbEntity
  8
0
  6
Continuous
 62
     7
370
    25
100
AcDbLine
 10
735.2932322441
 20
224.0480822393
 30
0.0
 11
735.2875909016
 21
222.0669683345
 31
0.0
  0
LINE
  5
169
330
1F
100
AcDbEntity
  8
0
  6
Continuous
 62
     7
370
    25
100
AcDbLine
 10
763.2874772205
 20
221.9872370214
 30
0.0
 11
763.2931185631
 21
223.9683509263
 31
0.0
  0
LINE
  5
16A
330
1F
100
AcDbEntity
  8
0
  6
Continuous
 62
     7
370
    25
100
AcDbLine
 10
762.7896260308
 20
47.1529830933
 30
0.0
 11
762.7910125149
 21
47.6398854306
 31
0.0
  0
LINE
  5
16B
330
1F
100
AcDbEntity
  8
0
  6
Continuous
 62
     7
370
    25
100
AcDbLine
 10
734.7947269722
 20
48.9841291986
 30
0.0
 11
734.7897397119
 21
47.2327144063
 31
0.0
  0
ARC
  5
16C
330
1F
100
AcDbEntity
  8
0
  6
Continuous
 62
     7
370
    25
100
AcDbCircle
 10
748.8775935657
 20
78.0653747768
 30
0.0
 40
34.16666666666679
100
AcDbArc
 50
246.8922746232
 51
292.781419813
  0
LINE
  5
16D
330
1F
100
AcDbEntity
  8
0
  6
Continuous
 62
     7
370
    25
100
AcDbLine
 10
735.0460501526
 20
137.2432348134
 30
0.0
 11
735.0359856456
 21
133.708804032
 31
0.0
  0
LINE
  5
16E
330
1F
100
AcDbEntity
  8
0
  6
Continuous
 62
     7
370
    25
100
AcDbLine
 10
763.0358719645
 20
133.6290727189
 30
0.0
 11
763.0459364715
 21
137.1635035004
 31
0.0
  0
ARC
  5
16F
330
1F
100
AcDbEntity
  8
0
  6
Continuous
 62
     7
370
    25
100
AcDbCircle
 10
749.2393319362
 20
205.0994657559
 30
0.0
 40
73.4527317881833
100
AcDbArc
 50
262.8931227582
 51
276.7805703149
  0
LWPOLYLINE
  5
170
330
1F
100
AcDbEntity
  8
0
  6
Continuous
 62
     7
370
    25
100
AcDbPolyline
 90
       25
 70
   128
 43
0.0
 10
735.3201562691
 20
221.9353420759
 10
735.1910592097
 20
221.7195850912
 10
735.2946456849
 20
221.4310714134
 10
735.710335104
 20
221.1470130545
 10
736.4288452314
 20
220.8737481387
 10
737.4341518501
 20
220.6173717713
 10
738.7038346949
 20
220.3836017852
 10
740.2095651928
 20
220.1776537492
 10
741.917768341
 20
220.0041195406
 10
743.7903294024
 20
219.8668722799
 10
745.785486054
 20
219.7689721278
 10
747.8587330888
 20
219.7126028691
 10
749.9638247403
 20
219.6990222555
 10
752.0538053492
 20
219.7285331892
 10
754.082061268
 20
219.8004763093
 10
756.0033406715
 20
219.9132488322
 10
757.7747974018
 20
220.0643335299
 10
759.3569164705
 20
220.2503606047
 10
760.7143990753
 20
220.4671821335
 10
761.8169764337
 20
220.7099598171
 10
762.6400464293
 20
220.9732796503
 10
763.1652595543
 20
221.2512665779
 10
763.380887602
 20
221.537722006
 10
763.2821297392
 20
221.8262549554
 10
763.2541644673
 20
221.8557981012
  0
LWPOLYLINE
  5
171
330
1F
100
AcDbEntity
  8
0
  6
Continuous
 62
     7
370
    25
100
AcDbPolyline
 90
       23
 70
   128
 43
0.0
 10
734.9467023731
 20
137.473230748
 10
735.0548873449
 20
137.2332802604
 10
735.470576764
 20
136.9492219015
 10
736.1890868914
 20
136.6759569857
 10
737.1943935101
 20
136.4195806183
 10
738.4640763549
 20
136.1858106322
 10
739.9698068528
 20
135.9798625962
 10
741.678010001
 20
135.8063283876
 10
743.5505710624
 20
135.6690811268
 10
745.5457277139
 20
135.5711809747
 10
747.6189747488
 20
135.5148117161
 10
749.7240664003
 20
135.5012311025
 10
751.8140470092
 20
135.5307420362
 10
753.842302928
 20
135.6026851563
 10
755.7635823315
 20
135.7154576791
 10
757.5350390618
 20
135.8665423769
 10
759.1171581305
 20
136.0525694516
 10
760.4746407353
 20
136.2693909804
 10
761.5772180937
 20
136.512168664
 10
762.4002880893
 20
136.7754884972
 10
762.9255012143
 20
137.0534754249
 10
763.1411292619
 20
137.3399308529
 10
763.1465879689
 20
137.3929298522
  0
SPLINE
  5
172
330
1F
100
AcDbEntity
  8
0
  6
Continuous
 62
     7
370
    25
100
AcDbSpline
210
0.0
220
0.0
230
1.0
 70
    11
 71
     3
 72
    26
 73
    22
 74
     0
 42
0.000000001
 43
0.00000001
 40
0.0
 40
0.0
 40
0.0
 40
0.0
 40
0.0531119178362141
 40
0.1062037503872452
 40
0.1598221161447874
 40
0.2137977163014592
 40
0.2672065758792894
 40
0.3200222675262615
 40
0.3731150062629634
 40
0.4269333937347714
 40
0.4808186249407191
 40
0.5339752362807599
 40
0.5867527218387795
 40
0.6400829684818938
 40
0.6940396936243897
 40
0.747728413185062
 40
0.8006841818329241
 40
0.8535717634216514
 40
0.9071463742702909
 40
0.9611297349783922
 40
1.0
 40
1.0
 40
1.0
 40
1.0
 10
759.6579248997533
 20
208.9062230922412
 30
0.0
 10
759.64014830495
 20
209.1794827406756
 30
0.0
 10
759.6046018379017
 20
209.7258986991941
 30
0.0
 10
759.3124552000519
 20
210.4201681383311
 30
0.0
 10
758.8629092672193
 20
210.9263912018833
 30
0.0
 10
758.2704253207593
 20
211.1845353720392
 30
0.0
 10
757.5994679855413
 20
211.1650667730121
 30
0.0
 10
756.9260429677273
 20
210.8758835009976
 30
0.0
 10
756.327520768832
 20
210.3492530583157
 30
0.0
 10
755.8811439334701
 20
209.6341959839782
 30
0.0
 10
755.6573096217462
 20
208.8073106299872
 30
0.0
 10
755.6912330143276
 20
207.9678170373531
 30
0.0
 10
755.971833406586
 20
207.2095703998211
 30
0.0
 10
756.4584630105531
 20
206.6106193074454
 30
0.0
 10
757.0876078778917
 20
206.2413661561086
 30
0.0
 10
757.7726439945324
 20
206.1520229326985
 30
0.0
 10
758.4254747483872
 20
206.350670322467
 30
0.0
 10
758.9824338890143
 20
206.8095736904752
 30
0.0
 10
759.3950247281404
 20
207.479843083856
 30
0.0
 10
759.621882583312
 20
208.2183868639573
 30
0.0
 10
759.647289210327
 20
208.7032502197245
 30
0.0
 10
759.6579248997533
 20
208.9062230922412
 30
0.0
  0
LINE
  5
173
330
1F
100
AcDbEntity
  8
0
  6
Continuous
 62
     7
370
    25
100
AcDbLine
 10
756.6791780027
 20
220.3386681985
 30
0.0
 11
757.944588929
 21
220.4951866449
 31
0.0
  0
ARC
  5
174
330
1F
100
AcDbEntity
  8
0
  6
Continuous
 62
     7
370
    25
100
AcDbCircle
 10
749.5626101934
 20
291.0513618813
 30
0.0
 40
71.07145776361254
100
AcDbArc
 50
262.7731021102
 51
275.4247925779
  0
LINE
  5
175
330
1F
100
AcDbEntity
  8
0
  6
Continuous
 62
     7
370
    25
100
AcDbLine
 10
756.2816415772
 20
220.2982225453
 30
0.0
 11
756.9722521873
 21
220.1722321935
 31
0.0
  0
LINE
  5
176
330
1F
100
AcDbEntity
  8
0
  6
Continuous
 62
     7
370
    25
100
AcDbLine
 10
756.9722521873
 20
220.1722321935
 30
0.0
 11
757.3697886128
 21
220.2126778468
 31
0.0
  0
LINE
  5
177
330
1F
100
AcDbEntity
  8
0
  6
Continuous
 62
     7
370
    25
100
AcDbLine
 10
757.3697886128
 20
220.2126778468
 30
0.0
 11
756.6791780027
 21
220.3386681985
 31
0.0
  0
LINE
  5
178
330
1F
100
AcDbEntity
  8
0
  6
Continuous
 62
     7
370
    25
100
AcDbLine
 10
785.3811106473
 20
225.6651314839
 30
0.0
 11
763.2915482714
 21
223.4177147119
 31
0.0
  0
LINE
  5
179
330
1F
100
AcDbEntity
  8
0
  6
Continuous
 62
     7
370
    25
100
AcDbLine
 10
787.685841302
 20
225.2446712352
 30
0.0
 11
785.3811106473
 21
225.6651314839
 31
0.0
  0
LINE
  5
17A
330
1F
100
AcDbEntity
  8
0
  6
Continuous
 62
     7
370
    25
100
AcDbLine
 10
787.685841302
 20
225.2446712352
 30
0.0
 11
763.833688472
 21
222.8179263772
 31
0.0
  0
LWPOLYLINE
  5
17B
330
1F
100
AcDbEntity
  8
0
  6
Continuous
 62
     7
370
    25
100
AcDbPolyline
 90
        3
 70
   128
 43
0.0
 10
763.833688472
 20
222.8179263772
 10
763.4591589848
 20
222.7409018828
 10
763.2895022868
 20
222.6983017182
  0
LINE
  5
17C
330
1F
100
AcDbEntity
  8
0
  6
Continuous
 62
     7
370
    25
100
AcDbLine
 10
756.6791780027
 20
220.3386681985
 30
0.0
 11
756.6536865332
 21
220.2303567525
 31
0.0
  0
LINE
  5
17D
330
1F
100
AcDbEntity
  8
0
  6
Continuous
 62
     7
370
    25
100
AcDbLine
 10
763.593930132
 20
138.6201352241
 30
0.0
 11
763.833688472
 21
222.8179263772
 31
0.0
  0
LWPOLYLINE
  5
17E
330
1F
100
AcDbEntity
  8
0
  6
Continuous
 62
     7
370
    25
100
AcDbPolyline
 90
        3
 70
   128
 43
0.0
 10
763.593930132
 20
138.6201352241
 10
763.2194006448
 20
138.5431107298
 10
763.149815672
 20
138.5263734019
  0
LINE
  5
17F
330
1F
100
AcDbEntity
  8
0
  6
Continuous
 62
     7
370
    25
100
AcDbLine
 10
787.446082962
 20
141.0468800822
 30
0.0
 11
787.685841302
 21
225.2446712352
 31
0.0
  0
LWPOLYLINE
  5
180
330
1F
100
AcDbEntity
  8
0
  6
Continuous
 62
     7
370
    25
100
AcDbPolyline
 90
       29
 70
   128
 43
0.0
 10
775.4930387271
 20
214.101417224
 10
775.3733409714
 20
215.4554464233
 10
775.0124573226
 20
216.7164392229
 10
774.4284900118
 20
217.8211472447
 10
773.6507236694
 20
218.7141874285
 10
772.7181556516
 20
219.3507741585
 10
771.6775484566
 20
219.6989954747
 10
770.5810796368
 20
219.7413773341
 10
769.4837398665
 20
219.4757948442
 10
768.4405412878
 20
218.9155654749
 10
767.5038062666
 20
218.0887933717
 10
766.7205016849
 20
217.0369272279
 10
766.1299056738
 20
215.8127180274
 10
765.7616307537
 20
214.4775405946
 10
765.6341500242
 20
213.0983626609
 10
765.7538477379
 20
211.7443187011
 10
766.1147299046
 20
210.483325751
 10
766.6986941848
 20
209.3786187047
 10
767.4764605273
 20
208.485578521
 10
768.409028545
 20
207.8489917909
 10
769.4496402527
 20
207.5007696497
 10
770.5461031197
 20
207.4584032254
 10
771.6434488428
 20
207.7239702802
 10
772.6866429088
 20
208.2842004745
 10
773.62337793
 20
209.1109725777
 10
774.4066825117
 20
210.1628387215
 10
774.9972815534
 20
211.3870469466
 10
775.3655579556
 20
212.7222245299
 10
775.4930387271
 20
214.101417224
  0
LWPOLYLINE
  5
181
330
1F
100
AcDbEntity
  8
0
  6
Continuous
 62
     7
370
    25
100
AcDbPolyline
 90
       29
 70
   128
 43
0.0
 10
784.5446903876
 20
182.8383953056
 10
784.424992632
 20
184.1924245049
 10
784.0641104652
 20
185.4534174549
 10
783.4801476671
 20
186.5581246517
 10
782.702376812
 20
187.4511656605
 10
781.7698087942
 20
188.0877523905
 10
780.7292015993
 20
188.4359737068
 10
779.6327312553
 20
188.4783406551
 10
778.535391527
 20
188.2127729258
 10
777.492197461
 20
187.6525427315
 10
776.5554624398
 20
186.8257706282
 10
775.7721533454
 20
185.7739053095
 10
775.1815588164
 20
184.5496962594
 10
774.8132838964
 20
183.2145188266
 10
774.6858016847
 20
181.8353407425
 10
774.8055008805
 20
180.4812969331
 10
775.1663830472
 20
179.2203039831
 10
775.7503458453
 20
178.1155967863
 10
776.5281167005
 20
177.2225557775
 10
777.4606847182
 20
176.5859690474
 10
778.5012919132
 20
176.2377477312
 10
779.5977547802
 20
176.195381307
 10
780.6951019854
 20
176.4609485122
 10
781.7382960514
 20
177.0211787065
 10
782.6750310726
 20
177.8479508097
 10
783.458340167
 20
178.8998161285
 10
784.048934696
 20
180.1240251786
 10
784.4172096161
 20
181.4592026114
 10
784.5446903876
 20
182.8383953056
  0
LWPOLYLINE
  5
182
330
1F
100
AcDbEntity
  8
0
  6
Continuous
 62
     7
370
    25
100
AcDbPolyline
 90
       29
 70
   128
 43
0.0
 10
775.3096940857
 20
149.7148610631
 10
775.1899963511
 20
151.0688976427
 10
774.8291126812
 20
152.329883062
 10
774.2451453915
 20
153.4345984641
 10
773.467379049
 20
154.3276386478
 10
772.5348110312
 20
154.9642253779
 10
771.4942038152
 20
155.3124393138
 10
770.3977349954
 20
155.3548211731
 10
769.3003952251
 20
155.0892386833
 10
768.2571966675
 20
154.5290166943
 10
767.3204616463
 20
153.702244591
 10
766.5371570645
 20
152.6503784473
 10
765.9465610324
 20
151.4261618664
 10
765.5782861333
 20
150.0909918139
 10
765.4508053828
 20
148.7118065
 10
765.5705031175
 20
147.3577699204
 10
765.9313853052
 20
146.0967843506
 10
766.5153495644
 20
144.992069924
 10
767.2931159069
 20
144.0990297403
 10
768.2256839247
 20
143.4624430102
 10
769.2662956533
 20
143.1142282493
 10
770.3627584783
 20
143.0718470645
 10
771.4601042434
 20
143.3374288798
 10
772.5032982884
 20
143.8976516938
 10
773.4400333096
 20
144.7244237971
 10
774.2233378914
 20
145.7762899408
 10
774.813936954
 20
147.0005055462
 10
775.1822133352
 20
148.3356757492
 10
775.3096940857
 20
149.7148610631
  0
LINE
  5
183
330
1F
100
AcDbEntity
  8
0
  6
Continuous
 62
     7
370
    25
100
AcDbLine
 10
787.446082962
 20
141.0468800822
 30
0.0
 11
763.593930132
 21
138.6201352241
 31
0.0
  0
LWPOLYLINE
  5
184
330
1F
100
AcDbEntity
  8
0
  6
Continuous
 62
     7
370
    25
100
AcDbPolyline
 90
       21
 70
   128
 43
0.0
 10
771.2882946887
 20
214.1906856107
 10
771.1665594415
 20
215.1575250019
 10
770.8076955628
 20
216.0044112681
 10
770.2468268598
 20
216.6484030135
 10
769.5388624336
 20
217.0264679712
 10
768.7530922598
 20
217.101626661
 10
767.9664415303
 20
216.8664885371
 10
767.2559085016
 20
216.344103016
 10
766.6910460489
 20
215.5855788281
 10
766.327149654
 20
214.6651574504
 10
766.1998374676
 20
213.6729795989
 10
766.3215711906
 20
212.7061252967
 10
766.6804351113
 20
211.859253791
 10
767.2413038144
 20
211.2152620456
 10
767.9492727111
 20
210.8371815023
 10
768.7350398544
 20
210.762023788
 10
769.5216936145
 20
210.9971609364
 10
770.2322221726
 20
211.5195620431
 10
770.7970846253
 20
212.278086231
 10
771.1609809781
 20
213.1984928482
 10
771.2882946887
 20
214.1906856107
  0
LWPOLYLINE
  5
185
330
1F
100
AcDbEntity
  8
0
  6
Continuous
 62
     7
370
    25
100
AcDbPolyline
 90
       11
 70
   128
 43
0.0
 10
769.0730128696
 20
217.1090170577
 10
769.7616215052
 20
216.736920937
 10
770.3224902083
 20
216.0929291917
 10
770.681354087
 20
215.2460429255
 10
770.803087852
 20
214.2792033838
 10
770.6757756235
 20
213.2870107718
 10
770.3118792707
 20
212.3666041546
 10
769.7470168181
 20
211.6080799666
 10
769.0364837473
 20
211.085679685
 10
768.2498330178
 20
210.8505415612
 10
767.9299151382
 20
210.8431514473
  0
LWPOLYLINE
  5
186
330
1F
100
AcDbEntity
  8
0
  6
Continuous
 62
     7
370
    25
100
AcDbPolyline
 90
       21
 70
   128
 43
0.0
 10
771.1049500473
 20
149.8041294498
 10
770.9832148422
 20
150.7709836015
 10
770.6243509215
 20
151.6178551072
 10
770.0634822184
 20
152.2618468525
 10
769.3555178343
 20
152.6399265708
 10
768.5697476395
 20
152.7150778803
 10
767.7830969309
 20
152.4799471367
 10
767.0725638602
 20
151.9575468551
 10
766.5077014075
 20
151.1990226672
 10
766.1438050547
 20
150.27861605
 10
766.0164928262
 20
149.286423438
 10
766.1382265493
 20
148.3195691358
 10
766.4970904699
 20
147.47269763
 10
767.057959173
 20
146.8287058847
 10
767.7659280698
 20
146.4506253414
 10
768.5516952341
 20
146.3754750074
 10
769.3383489732
 20
146.6106047755
 10
770.0488775312
 20
147.1330058821
 10
770.6137399839
 20
147.8915300701
 10
770.9776363367
 20
148.8119366873
 10
771.1049500473
 20
149.8041294498
  0
LWPOLYLINE
  5
187
330
1F
100
AcDbEntity
  8
0
  6
Continuous
 62
     7
370
    25
100
AcDbPolyline
 90
       21
 70
   128
 43
0.0
 10
780.3399508619
 20
182.9276628672
 10
780.2182170968
 20
183.8945024089
 10
779.8593486635
 20
184.7413747396
 10
779.2984830329
 20
185.38538027
 10
778.5905140942
 20
185.7634460528
 10
777.8047439204
 20
185.8386047425
 10
777.0180917087
 20
185.6034664682
 10
776.30755868
 20
185.0810809471
 10
775.74270218
 20
184.3225413241
 10
775.3788013146
 20
183.4021355319
 10
775.2514891281
 20
182.4099576804
 10
775.3732228512
 20
181.4431033783
 10
775.7320912845
 20
180.5962310475
 10
776.2929539508
 20
179.9522252162
 10
777.0009228896
 20
179.5741594334
 10
777.786691515
 20
179.4990018696
 10
778.5733452751
 20
179.734139018
 10
779.2838783038
 20
180.2565245391
 10
779.8487377679
 20
181.015064463
 10
780.2126386334
 20
181.9354702552
 10
780.3399508619
 20
182.9276628672
  0
LWPOLYLINE
  5
188
330
1F
100
AcDbEntity
  8
0
  6
Continuous
 62
     7
370
    25
100
AcDbPolyline
 90
       11
 70
   128
 43
0.0
 10
768.8896682282
 20
152.7224608968
 10
769.5782768638
 20
152.3503647761
 10
770.1391455669
 20
151.7063730308
 10
770.4980094876
 20
150.8595015251
 10
770.6197432107
 20
149.8926472229
 10
770.4924309822
 20
148.9004546109
 10
770.1285346293
 20
147.9800479936
 10
769.5636721767
 20
147.2215238057
 10
768.853139106
 20
146.6991235241
 10
768.0664883974
 20
146.4639927805
 10
767.7465705389
 20
146.4566100469
  0
LWPOLYLINE
  5
189
330
1F
100
AcDbEntity
  8
0
  6
Continuous
 62
     7
370
    25
100
AcDbPolyline
 90
       11
 70
   128
 43
0.0
 10
778.1246660122
 20
185.8459952897
 10
778.8132776784
 20
185.4738981936
 10
779.3741403447
 20
184.8298923623
 10
779.733008778
 20
183.9830200315
 10
779.8547425431
 20
183.0161804899
 10
779.7274303146
 20
182.0239878779
 10
779.3635294491
 20
181.1035820857
 10
778.7986729492
 20
180.3450424627
 10
778.0881399205
 20
179.8226569416
 10
777.3014831962
 20
179.5875194923
 10
776.9815653167
 20
179.5801293784
  0
LWPOLYLINE
  5
18A
330
1F
100
AcDbEntity
  8
0
  6
Continuous
 62
     7
370
    25
100
AcDbPolyline
 90
       13
 70
   128
 43
0.0
 10
767.5509212308
 20
132.2491406467
 10
768.3361144008
 20
132.3562862834
 10
768.8647108651
 20
132.4900337124
 10
769.093884403
 20
132.6395479963
 10
769.0050679263
 20
132.7927165713
 10
768.6054602662
 20
132.9371298198
 10
767.9274344841
 20
133.061088558
 10
767.025914053
 20
133.1545515096
 10
765.9739459466
 20
133.209944646
 10
764.8567459092
 20
133.2227820711
 10
763.7648217082
 20
133.1920239344
 10
762.7866450269
 20
133.120160131
 10
762.4482286947
 20
133.0814663578
  0
LWPOLYLINE
  5
18B
330
1F
100
AcDbEntity
  8
0
  6
Continuous
 62
     7
370
    25
100
AcDbPolyline
 90
        9
 70
   128
 43
0.0
 10
761.2358072352
 20
132.693776726
 10
761.3324941893
 20
132.576585069
 10
761.7321063621
 20
132.4321709956
 10
762.4101321441
 20
132.3082122573
 10
763.3116480625
 20
132.2147501308
 10
764.3636206816
 20
132.1593561693
 10
765.4808203485
 20
132.1465187066
 10
766.5727400369
 20
132.1772776683
 10
767.5509212308
 20
132.2491406467
  0
LWPOLYLINE
  5
18C
330
1F
100
AcDbEntity
  8
0
  6
Continuous
 62
     7
370
    25
100
AcDbPolyline
 90
       14
 70
   128
 43
0.0
 10
752.6080302111
 20
131.4926657146
 10
750.5162223419
 20
131.4461360691
 10
748.3907253049
 20
131.4434039132
 10
746.2798841932
 20
131.4845306554
 10
744.2317126184
 20
131.5685804324
 10
742.2927829884
 20
131.6936434669
 10
740.507205076
 20
131.8568735197
 10
738.915588347
 20
132.0545583379
 10
737.5541280451
 20
132.2822026659
 10
736.4537939514
 20
132.5346280955
 10
735.6396111809
 20
132.8060938064
 10
735.1300962571
 20
133.0904253718
 10
734.9368393072
 20
133.3811558305
 10
735.0426159902
 20
133.6489855589
  0
LINE
  5
18D
330
1F
100
AcDbEntity
  8
0
  6
Continuous
 62
     7
370
    25
100
AcDbLine
 10
785.4035647686
 20
137.3564811662
 30
0.0
 11
763.0400194581
 21
135.0862500941
 31
0.0
  0
LINE
  5
18E
330
1F
100
AcDbEntity
  8
0
  6
Continuous
 62
     7
370
    25
100
AcDbLine
 10
787.7051430286
 20
136.9356996197
 30
0.0
 11
785.4035647686
 21
137.3564811662
 31
0.0
  0
LINE
  5
18F
330
1F
100
AcDbEntity
  8
0
  6
Continuous
 62
     7
370
    25
100
AcDbLine
 10
763.9931343589
 20
134.5285795447
 30
0.0
 11
787.7051430286
 21
136.9356996197
 31
0.0
  0
LWPOLYLINE
  5
190
330
1F
100
AcDbEntity
  8
0
  6
Continuous
 62
     7
370
    25
100
AcDbPolyline
 90
        9
 70
   128
 43
0.0
 10
763.8981159985
 20
134.4328263278
 10
763.8466811293
 20
134.4444035005
 10
763.8125121747
 20
134.4570880112
 10
763.7969217733
 20
134.4703920832
 10
763.8005055981
 20
134.483805199
 10
763.8231325352
 20
134.4968110665
 10
763.8639331158
 20
134.508909541
 10
763.9213342253
 20
134.5196368294
 10
763.9931343589
 20
134.5285795447
  0
LINE
  5
191
330
1F
100
AcDbEntity
  8
0
  6
Continuous
 62
     7
370
    25
100
AcDbLine
 10
764.5290793453
 20
134.3174716873
 30
0.0
 11
763.8981159985
 21
134.4328263278
 31
0.0
  0
ARC
  5
192
330
1F
100
AcDbEntity
  8
0
  6
Continuous
 62
     7
370
    25
100
AcDbCircle
 10
764.927960503
 20
137.0451304326
 30
0.0
 40
2.756669804116043
100
AcDbArc
 50
261.6802810287
 51
272.4405488057
  0
LINE
  5
193
330
1F
100
AcDbEntity
  8
0
  6
Continuous
 62
     7
370
    25
100
AcDbLine
 10
765.045347036
 20
134.2909610822
 30
0.0
 11
774.2818722728
 21
132.6023114104
 31
0.0
  0
LWPOLYLINE
  5
194
330
1F
100
AcDbEntity
  8
0
  6
Continuous
 62
     7
370
    25
100
AcDbPolyline
 90
        9
 70
   128
 43
0.0
 10
773.1972609927
 20
132.1742200018
 10
773.6525491283
 20
132.1977966002
 10
774.0500724837
 20
132.2359608269
 10
774.3659569061
 20
132.2864225461
 10
774.5812470285
 20
132.3461501769
 10
774.683004245
 20
132.4115591413
 10
774.6651272336
 20
132.4787209048
 10
774.5286851333
 20
132.5436033808
 10
774.2818722728
 20
132.6023114104
  0
LINE
  5
195
330
1F
100
AcDbEntity
  8
0
  6
Continuous
 62
     7
370
    25
100
AcDbLine
 10
752.6080302111
 20
131.4926657146
 30
0.0
 11
773.1972609927
 21
132.1742200018
 31
0.0
  0
LINE
  5
196
330
1F
100
AcDbEntity
  8
0
  6
Continuous
 62
     7
370
    25
100
AcDbLine
 10
752.6080302111
 20
131.4926657146
 30
0.0
 11
752.3682718501
 21
47.2948671813
 31
0.0
  0
LINE
  5
197
330
1F
100
AcDbEntity
  8
0
  6
Continuous
 62
     7
370
    25
100
AcDbLine
 10
772.9575026317
 20
47.9764214685
 30
0.0
 11
773.1972609927
 21
132.1742200018
 31
0.0
  0
LINE
  5
198
330
1F
100
AcDbEntity
  8
0
  6
Continuous
 62
     7
370
    25
100
AcDbLine
 10
752.3682718501
 20
47.2948671813
 30
0.0
 11
772.9575026317
 21
47.9764214685
 31
0.0
  0
LWPOLYLINE
  5
199
330
1F
100
AcDbEntity
  8
0
  6
Continuous
 62
     7
370
    25
100
AcDbPolyline
 90
       14
 70
   128
 43
0.0
 10
734.6953791905
 20
49.2141243549
 10
734.6970809462
 20
49.1833572972
 10
734.890337896
 20
48.8926268384
 10
735.3998528199
 20
48.6082952731
 10
736.2140355903
 20
48.3368295622
 10
737.314369684
 20
48.0844041326
 10
738.675829986
 20
47.8567598046
 10
740.267446715
 20
47.6590749864
 10
742.0530246274
 20
47.4958449336
 10
743.9919542574
 20
47.3707818991
 10
746.0401258322
 20
47.2867321221
 10
748.1509669439
 20
47.2456053799
 10
750.2764639809
 20
47.2483375358
 10
752.3682718501
 20
47.2948671813
  0
ARC
  5
19A
330
1F
100
AcDbEntity
  8
0
  6
Continuous
 62
     7
370
    25
100
AcDbCircle
 10
765.1111502264
 20
112.4464804992
 30
0.0
 40
19.98744530043125
100
AcDbArc
 50
82.5521787559
 51
97.121499835
  0
ARC
  5
19B
330
1F
100
AcDbEntity
  8
0
  6
Continuous
 62
     7
370
    25
100
AcDbCircle
 10
773.3081440906
 20
50.3734581626
 30
0.0
 40
2.422547078136064
100
AcDbArc
 50
261.6777288599
 51
298.1402446844
  0
LINE
  5
19C
330
1F
100
AcDbEntity
  8
0
  6
Continuous
 62
     7
370
    25
100
AcDbLine
 10
787.4653846675
 20
52.7379010864
 30
0.0
 11
787.7051430286
 21
136.9356996197
 31
0.0
  0
LWPOLYLINE
  5
19D
330
1F
100
AcDbEntity
  8
0
  6
Continuous
 62
     7
370
    25
100
AcDbPolyline
 90
       21
 70
   128
 43
0.0
 10
782.174469824
 20
94.2875246212
 10
782.0526368121
 20
95.2543933836
 10
781.6934840922
 20
96.1013213805
 10
781.1321701188
 20
96.7453949529
 10
780.423634166
 20
97.1235746323
 10
779.6372412254
 20
97.198839794
 10
778.8499617762
 20
96.9638235773
 10
778.1388646347
 20
96.4415301129
 10
777.5735569117
 20
95.6830877521
 10
777.2093717387
 20
94.7627302458
 10
777.0819572782
 20
93.7705591733
 10
777.2037932438
 20
92.8036870217
 10
777.5629459741
 20
91.9567627149
 10
778.1242599475
 20
91.3126891425
 10
778.8327929361
 20
90.9345091622
 10
779.6191888305
 20
90.8592406112
 10
780.4064653259
 20
91.0942602172
 10
781.1175654317
 20
91.6165539825
 10
781.6828731547
 20
92.3749963434
 10
782.0470583171
 20
93.2953501595
 10
782.174469824
 20
94.2875246212
  0
LINE
  5
19E
330
1F
100
AcDbEntity
  8
0
  6
Continuous
 62
     7
370
    25
100
AcDbLine
 10
774.4597532295
 20
51.417636871
 30
0.0
 11
787.4653846675
 21
52.7379010864
 31
0.0
  0
LWPOLYLINE
  5
19F
330
1F
100
AcDbEntity
  8
0
  6
Continuous
 62
     7
370
    25
100
AcDbPolyline
 90
       11
 70
   128
 43
0.0
 10
779.958682669
 20
97.2061077427
 10
780.6476242397
 20
96.8339811061
 10
781.2089382131
 20
96.1899075337
 10
781.5680909329
 20
95.3429795368
 10
781.6899239448
 20
94.3761107744
 10
781.562512438
 20
93.3839363127
 10
781.1983272755
 20
92.4635824966
 10
780.6330195525
 20
91.7051401357
 10
779.9219194467
 20
91.1828463704
 10
779.1346429513
 20
90.9478267644
 10
778.8131967835
 20
90.940561232
  0
LWPOLYLINE
  5
1A0
330
1F
100
AcDbEntity
  8
0
  6
Continuous
 62
     7
370
    25
100
AcDbPolyline
 90
       11
 70
   128
 43
0.0
 10
755.6907507405
 20
222.2838857558
 10
757.4752718141
 20
222.4286236355
 10
759.0770191359
 20
222.6086468807
 10
760.4602107979
 20
222.8199343131
 10
761.5939496109
 20
223.0577660436
 10
762.4529096907
 20
223.3168290977
 10
763.0179033347
 20
223.5913365521
 10
763.2763078754
 20
223.875156835
 10
763.222352525
 20
224.1619493443
 10
762.8572416678
 20
224.4453078413
 10
762.6143520787
 20
224.5611176675
  0
LWPOLYLINE
  5
1A1
330
1F
100
AcDbEntity
  8
0
  6
Continuous
 62
     7
370
    25
100
AcDbPolyline
 90
       17
 70
   128
 43
0.0
 10
735.975359804
 20
224.6369741774
 10
735.5684474726
 20
224.4250966136
 10
735.3100429318
 20
224.1412763306
 10
735.3639982822
 20
223.8544838213
 10
735.7291046268
 20
223.5711261494
 10
736.3972125697
 20
223.2975319765
 10
737.353396602
 20
223.0398129927
 10
738.5762952391
 20
222.8037265072
 10
740.0385885192
 20
222.5945468521
 10
741.7076158271
 20
222.4169458973
 10
743.5460926216
 20
222.2748913053
 10
745.5129509859
 20
222.1715560723
 10
747.5642498498
 20
222.1092492567
 10
749.6541723246
 20
222.0893619657
 10
751.7360317824
 20
222.1123386096
 10
753.7633190771
 20
222.1776664465
 10
755.6907507405
 20
222.2838857558
  0
LWPOLYLINE
  5
1A2
330
1F
100
AcDbEntity
  8
0
  6
Continuous
 62
     7
370
    25
100
AcDbPolyline
 90
        9
 70
   128
 43
0.0
 10
755.685109398
 20
220.3027718509
 10
757.4696304715
 20
220.4475097306
 10
759.0713777933
 20
220.6275329758
 10
760.4545694554
 20
220.8388204083
 10
761.5883082684
 20
221.0766521387
 10
762.4472683481
 20
221.3357151928
 10
763.0122619921
 20
221.6102226472
 10
763.2706665329
 20
221.8940429302
 10
763.2874772205
 20
221.9872370214
  0
LWPOLYLINE
  5
1A3
330
1F
100
AcDbEntity
  8
0
  6
Continuous
 62
     7
370
    25
100
AcDbPolyline
 90
       15
 70
   128
 43
0.0
 10
735.2875909016
 20
222.0669683345
 10
735.3583569396
 20
221.8733699164
 10
735.7234632843
 20
221.5900122445
 10
736.3915712272
 20
221.3164180717
 10
737.3477552594
 20
221.0586990878
 10
738.5706538965
 20
220.8226126023
 10
740.0329471766
 20
220.6134329472
 10
741.7019744846
 20
220.4358319924
 10
743.540451279
 20
220.2937774004
 10
745.5073096434
 20
220.1904421675
 10
747.5586085073
 20
220.1281353518
 10
749.648530982
 20
220.1082480608
 10
751.7303904399
 20
220.1312247047
 10
753.7576777346
 20
220.1965525416
 10
755.685109398
 20
220.3027718509
  0
LWPOLYLINE
  5
1A4
330
1F
100
AcDbEntity
  8
0
  6
Continuous
 62
     7
370
    25
100
AcDbPolyline
 90
       11
 70
   128
 43
0.0
 10
758.1050758873
 20
211.1657396279
 10
757.55910742
 20
211.1770531864
 10
756.8841728904
 20
210.9248905255
 10
756.299508424
 20
210.4057044297
 10
755.8756350386
 20
209.6820789882
 10
755.6636737902
 20
208.8413204185
 10
755.6891924761
 20
207.9848225377
 10
755.949114906
 20
207.2159050123
 10
756.4120880178
 20
206.62729433
 10
757.0222711658
 20
206.2899973008
 10
757.3274911742
 20
206.2321444617
  0
ARC
  5
1A5
330
1F
100
AcDbEntity
  8
0
  6
Continuous
 62
     7
370
    25
100
AcDbCircle
 10
758.3469582648
 20
208.5802251505
 30
0.0
 40
1.946704357796725
100
AcDbArc
 50
154.2938367711
 51
177.4066242765
  0
LINE
  5
1A6
330
1F
100
AcDbEntity
  8
0
  6
Continuous
 62
     7
370
    25
100
AcDbLine
 10
756.4022477065
 20
208.6683086392
 30
0.0
 11
756.2861654373
 21
208.2078482324
 31
0.0
  0
LINE
  5
1A7
330
1F
100
AcDbEntity
  8
0
  6
Continuous
 62
     7
370
    25
100
AcDbLine
 10
756.2861654373
 20
208.2078482324
 30
0.0
 11
756.5397233769
 21
207.8854866119
 31
0.0
  0
ARC
  5
1A8
330
1F
100
AcDbEntity
  8
0
  6
Continuous
 62
     7
370
    25
100
AcDbCircle
 10
757.7063700234
 20
208.3745988619
 30
0.0
 40
1.26502774312871
100
AcDbArc
 50
202.7456857292
 51
233.6287288761
  0
LINE
  5
1A9
330
1F
100
AcDbEntity
  8
0
  6
Continuous
 62
     7
370
    25
100
AcDbLine
 10
756.9561893086
 20
207.3560095992
 30
0.0
 11
757.2097472525
 21
207.0336332229
 31
0.0
  0
LINE
  5
1AA
330
1F
100
AcDbEntity
  8
0
  6
Continuous
 62
     7
370
    25
100
AcDbLine
 10
757.2097472525
 20
207.0336332229
 30
0.0
 11
757.5793920753
 21
207.1717311944
 31
0.0
  0
ARC
  5
1AB
330
1F
100
AcDbEntity
  8
0
  6
Continuous
 62
     7
370
    25
100
AcDbCircle
 10
757.5037617328
 20
208.3001570962
 30
0.0
 40
1.130957543137685
100
AcDbArc
 50
273.8343929949
 51
307.1358562597
  0
LINE
  5
1AC
330
1F
100
AcDbEntity
  8
0
  6
Continuous
 62
     7
370
    25
100
AcDbLine
 10
758.1865287244
 20
207.3985506413
 30
0.0
 11
758.5561735385
 21
207.5366486119
 31
0.0
  0
LINE
  5
1AD
330
1F
100
AcDbEntity
  8
0
  6
Continuous
 62
     7
370
    25
100
AcDbLine
 10
758.5561735385
 20
207.5366486119
 30
0.0
 11
758.6722559424
 21
207.9971237886
 31
0.0
  0
ARC
  5
1AE
330
1F
100
AcDbEntity
  8
0
  6
Continuous
 62
     7
370
    25
100
AcDbCircle
 10
756.9182409714
 20
208.8415136315
 30
0.0
 40
1.94667992368662
100
AcDbArc
 50
334.2936496956
 51
357.406300066
  0
LINE
  5
1AF
330
1F
100
AcDbEntity
  8
0
  6
Continuous
 62
     7
370
    25
100
AcDbLine
 10
758.8629266222
 20
208.7534202443
 30
0.0
 11
758.9790134967
 21
209.2138798355
 31
0.0
  0
LINE
  5
1B0
330
1F
100
AcDbEntity
  8
0
  6
Continuous
 62
     7
370
    25
100
AcDbLine
 10
758.9790134967
 20
209.2138798355
 30
0.0
 11
758.7254555065
 21
209.5362562071
 31
0.0
  0
ARC
  5
1B1
330
1F
100
AcDbEntity
  8
0
  6
Continuous
 62
     7
370
    25
100
AcDbCircle
 10
757.5586853467
 20
209.047046881
 30
0.0
 40
1.265179185117434
100
AcDbArc
 50
22.7475774035
 51
53.6268305147
  0
LINE
  5
1B2
330
1F
100
AcDbEntity
  8
0
  6
Continuous
 62
     7
370
    25
100
AcDbLine
 10
758.3089896211
 20
210.0657332245
 30
0.0
 11
758.0554271226
 21
210.3880956653
 31
0.0
  0
LINE
  5
1B3
330
1F
100
AcDbEntity
  8
0
  6
Continuous
 62
     7
370
    25
100
AcDbLine
 10
758.0554271226
 20
210.3880956653
 30
0.0
 11
757.6857868269
 21
210.2499968702
 31
0.0
  0
ARC
  5
1B4
330
1F
100
AcDbEntity
  8
0
  6
Continuous
 62
     7
370
    25
100
AcDbCircle
 10
757.7613121076
 20
209.1218521538
 30
0.0
 40
1.130669964781508
100
AcDbArc
 50
93.8300338533
 51
127.1402147491
  0
LINE
  5
1B5
330
1F
100
AcDbEntity
  8
0
  6
Continuous
 62
     7
370
    25
100
AcDbLine
 10
757.0786501633
 20
210.0231774219
 30
0.0
 11
756.7090053955
 21
209.885079456
 31
0.0
  0
LINE
  5
1B6
330
1F
100
AcDbEntity
  8
0
  6
Continuous
 62
     7
370
    25
100
AcDbLine
 10
756.7090053955
 20
209.885079456
 30
0.0
 11
756.592918521
 21
209.4246198648
 31
0.0
  0
LINE
  5
1B7
330
1F
100
AcDbEntity
  8
0
  6
Continuous
 62
     7
370
    25
100
AcDbLine
 10
757.4781863671
 20
210.2172993823
 30
0.0
 11
758.3089896211
 21
210.0657332245
 31
0.0
  0
LINE
  5
1B8
330
1F
100
AcDbEntity
  8
0
  6
Continuous
 62
     7
370
    25
100
AcDbLine
 10
758.7254555065
 20
209.5362562071
 30
0.0
 11
756.7432369771
 21
209.8978788374
 31
0.0
  0
LINE
  5
1B9
330
1F
100
AcDbEntity
  8
0
  6
Continuous
 62
     7
370
    25
100
AcDbLine
 10
756.4965338657
 20
209.185129014
 30
0.0
 11
758.8629266222
 21
208.7534202443
 31
0.0
  0
LINE
  5
1BA
330
1F
100
AcDbEntity
  8
0
  6
Continuous
 62
     7
370
    25
100
AcDbLine
 10
758.6722559424
 20
207.9971237886
 30
0.0
 11
756.3402877095
 21
208.4225523685
 31
0.0
  0
LINE
  5
1BB
330
1F
100
AcDbEntity
  8
0
  6
Continuous
 62
     7
370
    25
100
AcDbLine
 10
756.650939222
 20
207.6786932531
 30
0.0
 11
758.1865287244
 21
207.3985506413
 31
0.0
  0
LINE
  5
1BC
330
1F
100
AcDbEntity
  8
0
  6
Continuous
 62
     7
370
    25
100
AcDbLine
 10
757.5793920753
 20
207.1717311944
 30
0.0
 11
757.0210028769
 21
207.2735999611
 31
0.0
  0
LINE
  5
1BD
330
1F
100
AcDbEntity
  8
0
  6
Continuous
 62
     7
370
    25
100
AcDbLine
 10
756.5222412771
 20
207.9077055286
 30
0.0
 11
758.5561735385
 21
207.5366486119
 31
0.0
  0
LINE
  5
1BE
330
1F
100
AcDbEntity
  8
0
  6
Continuous
 62
     7
370
    25
100
AcDbLine
 10
756.6470452638
 20
209.6393084154
 30
0.0
 11
758.9790134967
 21
209.2138798355
 31
0.0
  0
LWPOLYLINE
  5
1BF
330
1F
100
AcDbEntity
  8
0
  6
Continuous
 62
     7
370
    25
100
AcDbPolyline
 90
       13
 70
   128
 43
0.0
 10
752.2249726534
 20
47.3043645284
 10
750.1636596631
 20
47.2608522946
 10
748.0717830509
 20
47.2600754884
 10
745.9960706171
 20
47.3020519519
 10
743.9828878295
 20
47.3858440334
 10
742.0772079242
 20
47.5095797819
 10
740.3215957674
 20
47.6704960705
 10
738.7552773481
 20
47.8649968262
 10
737.4132346892
 20
48.0887382209
 10
736.3254478193
 20
48.3367223744
 10
735.5162207617
 20
48.603408569
 10
735.0036266339
 20
48.8828404047
 10
734.8081315407
 20
49.1311829854
  0
LWPOLYLINE
  5
1C0
330
1F
100
AcDbEntity
  8
0
  6
Continuous
 62
     7
370
    25
100
AcDbPolyline
 90
       14
 70
   128
 43
0.0
 10
752.21933128
 20
45.3232397838
 10
750.1580182896
 20
45.27972755
 10
748.0661416775
 20
45.2789507437
 10
745.9904292437
 20
45.3209272073
 10
743.9772464561
 20
45.4047192887
 10
742.0715665508
 20
45.5284550373
 10
740.315954394
 20
45.6893713258
 10
738.7496359747
 20
45.8838720816
 10
737.4075933158
 20
46.1076134763
 10
736.3198064459
 20
46.3555976298
 10
735.5105793883
 20
46.6222838244
 10
734.9979852604
 20
46.9017156601
 10
734.7934713652
 20
47.1876516198
 10
734.7897397119
 20
47.2327144063
  0
LWPOLYLINE
  5
1C1
330
1F
100
AcDbEntity
  8
0
  6
Continuous
 62
     7
370
    25
100
AcDbPolyline
 90
       10
 70
   128
 43
0.0
 10
762.7896260308
 20
47.1529830933
 10
762.6777535936
 20
46.9119945522
 10
762.2593759202
 20
46.6322168645
 10
761.5401097309
 20
46.3649623733
 10
760.5360162171
 20
46.1162023138
 10
759.2695344273
 20
45.8914916638
 10
757.7689461844
 20
45.6958519519
 10
756.0677762638
 20
45.5336526268
 10
754.2040273726
 20
45.4085167157
 10
752.21933128
 20
45.3232397838
  0
LWPOLYLINE
  5
1C2
330
1F
100
AcDbEntity
  8
0
  6
Continuous
 62
     7
370
    25
100
AcDbPolyline
 90
       23
 70
   128
 43
0.0
 10
735.0467042679
 20
137.4729455441
 10
735.0562544345
 20
137.401316242
 10
735.2895781111
 20
137.1157155707
 10
735.8302118713
 20
136.8372042138
 10
736.6660761925
 20
136.5720044175
 10
737.7785082307
 20
136.3260383783
 10
739.1426452831
 20
136.1048029308
 10
740.7280260974
 20
135.9132381221
 10
742.4992271674
 20
135.7556249996
 10
744.4166912821
 20
135.6354823863
 10
746.4375752338
 20
135.5554963949
 10
748.5167486897
 20
135.517451174
 10
750.6077519037
 20
135.522199101
 10
752.6638889643
 20
135.5696319033
 10
754.6392200805
 20
135.6586915717
 10
756.4896219534
 20
135.7873881857
 10
758.1737584809
 20
135.9528471298
 10
759.6540126756
 20
136.1513716186
 10
760.8973176682
 20
136.3785270567
 10
761.8758937272
 20
136.6292402355
 10
762.5678888522
 20
136.8979092726
 10
762.9578385983
 20
137.1785336933
 10
763.0465905868
 20
137.3932142311
  0
LWPOLYLINE
  5
1C3
330
1F
100
AcDbEntity
  8
0
  6
Continuous
 62
     7
370
    25
100
AcDbPolyline
 90
       23
 70
   128
 43
0.0
 10
735.0359856456
 20
133.708804032
 10
735.0455358122
 20
133.6371747299
 10
735.2788594889
 20
133.3515740586
 10
735.8194932491
 20
133.0730627016
 10
736.6553575702
 20
132.8078629053
 10
737.7677896084
 20
132.5618968661
 10
739.1319266609
 20
132.3406614187
 10
740.7173074752
 20
132.14909661
 10
742.4885085451
 20
131.9914834875
 10
744.4059726598
 20
131.8713408741
 10
746.4268566115
 20
131.7913548828
 10
748.5060300674
 20
131.7533096619
 10
750.5970332814
 20
131.7580575889
 10
752.653170342
 20
131.8054903911
 10
754.6285014583
 20
131.8945500595
 10
756.4789033311
 20
132.0232466736
 10
758.1630398586
 20
132.1887056176
 10
759.6432940533
 20
132.3872301065
 10
760.886599046
 20
132.6143855445
 10
761.8651751049
 20
132.8650987233
 10
762.5571702299
 20
133.1337677604
 10
762.947119976
 20
133.4143921811
 10
763.0358719645
 20
133.6290727189
  0
LINE
  5
1C4
330
1F
100
AcDbEntity
  8
0
  6
Continuous
 62
     8
370
    25
100
AcDbLine
 10
763.9931343589
 20
134.5285795447
 30
0.0
 11
763.9928123975
 21
134.4155138935
 31
0.0
  0
ARC
  5
1C5
330
1F
100
AcDbEntity
  8
0
  6
Continuous
 62
     8
370
    25
100
AcDbCircle
 10
749.5000870422
 20
296.6716265247
 30
0.0
 40
76.60702991642786
100
AcDbArc
 50
265.7043805256
 51
273.9693165123
  0
LINE
  5
1C6
330
1F
100
AcDbEntity
  8
0
  6
Continuous
 62
     7
370
    25
100
AcDbLine
 10
188.268492376
 20
444.3314977157
 30
0.0
 11
188.268492376
 21
442.3315085637
 31
0.0
  0
LINE
  5
1C7
330
1F
100
AcDbEntity
  8
0
  6
Continuous
 62
     7
370
    25
100
AcDbLine
 10
216.2684932402
 20
442.3315085637
 30
0.0
 11
216.2684932402
 21
444.3314977157
 31
0.0
  0
ARC
  5
1C8
330
1F
100
AcDbEntity
  8
0
  6
Continuous
 62
     7
370
    25
100
AcDbCircle
 10
202.2684928081
 20
413.16483844
 30
0.0
 40
34.16666666666669
100
AcDbArc
 50
65.810485846
 51
114.189514154
  0
LINE
  5
1C9
330
1F
100
AcDbEntity
  8
0
  6
Continuous
 62
     7
370
    25
100
AcDbLine
 10
216.2684932402
 20
265.8315050117
 30
0.0
 11
216.2684932402
 21
267.8315051067
 31
0.0
  0
LINE
  5
1CA
330
1F
100
AcDbEntity
  8
0
  6
Continuous
 62
     7
370
    25
100
AcDbLine
 10
188.268492376
 20
267.8315051067
 30
0.0
 11
188.268492376
 21
265.8315050117
 31
0.0
  0
ARC
  5
1CB
330
1F
100
AcDbEntity
  8
0
  6
Continuous
 62
     7
370
    25
100
AcDbCircle
 10
202.2684928081
 20
296.9981717733
 30
0.0
 40
34.16666666666674
100
AcDbArc
 50
275.0908172057
 51
294.189514154
  0
ARC
  5
1CC
330
1F
100
AcDbEntity
  8
0
  6
Continuous
 62
     7
370
    25
100
AcDbCircle
 10
202.2684928081
 20
296.9981717733
 30
0.0
 40
34.16666666666674
100
AcDbArc
 50
245.810485846
 51
264.9091827943
  0
LINE
  5
1CD
330
1F
100
AcDbEntity
  8
0
  6
Continuous
 62
     7
370
    25
100
AcDbLine
 10
189.8684924519
 20
353.1315036285
 30
0.0
 11
189.8684924519
 21
352.8315060007
 31
0.0
  0
LINE
  5
1CE
330
1F
100
AcDbEntity
  8
0
  6
Continuous
 62
     7
370
    25
100
AcDbLine
 10
214.6684931642
 20
352.8315060007
 30
0.0
 11
214.6684931642
 21
353.1315036285
 31
0.0
  0
LINE
  5
1CF
330
1F
100
AcDbEntity
  8
0
  6
Continuous
 62
     7
370
    25
100
AcDbLine
 10
188.268492376
 20
356.9315083492
 30
0.0
 11
188.268492376
 21
353.1315036285
 31
0.0
  0
LINE
  5
1D0
330
1F
100
AcDbEntity
  8
0
  6
Continuous
 62
     7
370
    25
100
AcDbLine
 10
216.2684932402
 20
353.1315036285
 30
0.0
 11
216.2684932402
 21
356.9315083492
 31
0.0
  0
LINE
  5
1D1
330
1F
100
AcDbEntity
  8
0
  6
Continuous
 62
     7
370
    25
100
AcDbLine
 10
189.4684931314
 20
357.3315076697
 30
0.0
 11
189.4684931314
 21
356.9315083492
 31
0.0
  0
LINE
  5
1D2
330
1F
100
AcDbEntity
  8
0
  6
Continuous
 62
     7
370
    25
100
AcDbLine
 10
215.0684924847
 20
356.9315083492
 30
0.0
 11
215.0684924847
 21
357.3315076697
 31
0.0
  0
LINE
  5
1D3
330
1F
100
AcDbEntity
  8
0
  6
Continuous
 62
     7
370
    25
100
AcDbLine
 10
216.3684930703
 20
357.3315076697
 30
0.0
 11
216.3684930703
 21
442.3315085637
 31
0.0
  0
LINE
  5
1D4
330
1F
100
AcDbEntity
  8
0
  6
Continuous
 62
     7
370
    25
100
AcDbLine
 10
216.3684930703
 20
267.8315051067
 30
0.0
 11
216.3684930703
 21
352.8315060007
 31
0.0
  0
LINE
  5
1D5
330
1F
100
AcDbEntity
  8
0
  6
Continuous
 62
     7
370
    25
100
AcDbLine
 10
189.0807034499
 20
444.3314977157
 30
0.0
 11
216.2684932402
 21
444.3314977157
 31
0.0
  0
LINE
  5
1D6
330
1F
100
AcDbEntity
  8
0
  6
Continuous
 62
     7
370
    25
100
AcDbLine
 10
188.268492376
 20
444.3314977157
 30
0.0
 11
189.0807034499
 21
444.3314977157
 31
0.0
  0
ARC
  5
1D7
330
1F
100
AcDbEntity
  8
0
  6
Continuous
 62
     7
370
    25
100
AcDbCircle
 10
202.2684928081
 20
430.8315051067
 30
0.0
 40
2.500000000000015
100
AcDbArc
 50
296.3990127772
 51
186.5325181405
  0
ARC
  5
1D8
330
1F
100
AcDbEntity
  8
0
  6
Continuous
 62
     7
370
    25
100
AcDbCircle
 10
202.2684928081
 20
430.8315051067
 30
0.0
 40
1.550000000000062
100
AcDbArc
 50
71.8064621751
 51
100.9915633792
  0
LINE
  5
1D9
330
1F
100
AcDbEntity
  8
0
  6
Continuous
 62
     7
370
    25
100
AcDbLine
 10
201.9729629094
 20
432.3530651796
 30
0.0
 11
201.4983888068
 21
432.3829420078
 31
0.0
  0
LINE
  5
1DA
330
1F
100
AcDbEntity
  8
0
  6
Continuous
 62
     7
370
    25
100
AcDbLine
 10
201.4983888068
 20
432.3829420078
 30
0.0
 11
201.2352372105
 21
431.9868691432
 31
0.0
  0
ARC
  5
1DB
330
1F
100
AcDbEntity
  8
0
  6
Continuous
 62
     7
370
    25
100
AcDbCircle
 10
202.2684928081
 20
430.8315051067
 30
0.0
 40
1.550000000000031
100
AcDbArc
 50
131.8064621751
 51
160.9915633792
  0
LINE
  5
1DC
330
1F
100
AcDbEntity
  8
0
  6
Continuous
 62
     7
370
    25
100
AcDbLine
 10
200.803013314
 20
431.3363589513
 30
0.0
 11
200.5398617177
 21
430.9402860868
 31
0.0
  0
LINE
  5
1DD
330
1F
100
AcDbEntity
  8
0
  6
Continuous
 62
     7
370
    25
100
AcDbLine
 10
200.5398617177
 20
430.9402860868
 30
0.0
 11
200.7512841658
 21
430.5143661964
 31
0.0
  0
ARC
  5
1DE
330
1F
100
AcDbEntity
  8
0
  6
Continuous
 62
     7
370
    25
100
AcDbCircle
 10
202.2684928081
 20
430.8315051067
 30
0.0
 40
1.550000000000019
100
AcDbArc
 50
191.8064621751
 51
220.9915633792
  0
LINE
  5
1DF
330
1F
100
AcDbEntity
  8
0
  6
Continuous
 62
     7
370
    25
100
AcDbLine
 10
201.0985432709
 20
429.8147864806
 30
0.0
 11
201.3099656608
 21
429.3888665902
 31
0.0
  0
LINE
  5
1E0
330
1F
100
AcDbEntity
  8
0
  6
Continuous
 62
     7
370
    25
100
AcDbLine
 10
201.3099656608
 20
429.3888665902
 30
0.0
 11
201.7845397633
 21
429.358989762
 31
0.0
  0
ARC
  5
1E1
330
1F
100
AcDbEntity
  8
0
  6
Continuous
 62
     7
370
    25
100
AcDbCircle
 10
202.2684928081
 20
430.8315051067
 30
0.0
 40
1.549999999999955
100
AcDbArc
 50
251.8064621751
 51
280.9915633792
  0
LINE
  5
1E2
330
1F
100
AcDbEntity
  8
0
  6
Continuous
 62
     7
370
    25
100
AcDbLine
 10
202.5640227068
 20
429.3099351394
 30
0.0
 11
203.0385968094
 21
429.2800732124
 31
0.0
  0
LINE
  5
1E3
330
1F
100
AcDbEntity
  8
0
  6
Continuous
 62
     7
370
    25
100
AcDbLine
 10
203.0385968094
 20
429.2800732124
 30
0.0
 11
203.3017484057
 21
429.6761311757
 31
0.0
  0
ARC
  5
1E4
330
1F
100
AcDbEntity
  8
0
  6
Continuous
 62
     7
370
    25
100
AcDbCircle
 10
202.2684928081
 20
430.8315051067
 30
0.0
 40
1.549999999999967
100
AcDbArc
 50
311.8064621751
 51
340.9915633792
  0
LINE
  5
1E5
330
1F
100
AcDbEntity
  8
0
  6
Continuous
 62
     7
370
    25
100
AcDbLine
 10
203.7339723022
 20
430.3266562688
 30
0.0
 11
203.9971238985
 21
430.7227142322
 31
0.0
  0
LINE
  5
1E6
330
1F
100
AcDbEntity
  8
0
  6
Continuous
 62
     7
370
    25
100
AcDbLine
 10
203.9971238985
 20
430.7227142322
 30
0.0
 11
203.7857014504
 21
431.1486490238
 31
0.0
  0
ARC
  5
1E7
330
1F
100
AcDbEntity
  8
0
  6
Continuous
 62
     7
370
    25
100
AcDbCircle
 10
202.2684928081
 20
430.8315051067
 30
0.0
 40
1.550000000000035
100
AcDbArc
 50
11.8064621751
 51
40.9915633792
  0
LINE
  5
1E8
330
1F
100
AcDbEntity
  8
0
  6
Continuous
 62
     7
370
    25
100
AcDbLine
 10
203.4384423452
 20
431.8482287395
 30
0.0
 11
203.2270199554
 21
432.2741486299
 31
0.0
  0
LINE
  5
1E9
330
1F
100
AcDbEntity
  8
0
  6
Continuous
 62
     7
370
    25
100
AcDbLine
 10
203.2270199554
 20
432.2741486299
 30
0.0
 11
202.7524458528
 21
432.3040105569
 31
0.0
  0
ARC
  5
1EA
330
1F
100
AcDbEntity
  8
0
  6
Continuous
 62
     7
370
    25
100
AcDbCircle
 10
202.2684928081
 20
430.8315051067
 30
0.0
 40
1.550000000000022
100
AcDbArc
 50
160.9915633792
 51
191.8064621751
  0
ARC
  5
1EB
330
1F
100
AcDbEntity
  8
0
  6
Continuous
 62
     7
370
    25
100
AcDbCircle
 10
202.2684928081
 20
430.8315051067
 30
0.0
 40
1.550000000000011
100
AcDbArc
 50
280.9915633792
 51
311.8064621751
  0
ARC
  5
1EC
330
1F
100
AcDbEntity
  8
0
  6
Continuous
 62
     7
370
    25
100
AcDbCircle
 10
202.2684928081
 20
430.8315051067
 30
0.0
 40
1.550000000000035
100
AcDbArc
 50
40.9915633792
 51
71.8064621751
  0
ARC
  5
1ED
330
1F
100
AcDbEntity
  8
0
  6
Continuous
 62
     7
370
    25
100
AcDbCircle
 10
202.2684928081
 20
430.8315051067
 30
0.0
 40
1.550000000000012
100
AcDbArc
 50
340.9915633792
 51
11.8064621751
  0
ARC
  5
1EE
330
1F
100
AcDbEntity
  8
0
  6
Continuous
 62
     7
370
    25
100
AcDbCircle
 10
202.2684928081
 20
430.8315051067
 30
0.0
 40
1.550000000000019
100
AcDbArc
 50
220.9915633792
 51
251.8064621751
  0
ARC
  5
1EF
330
1F
100
AcDbEntity
  8
0
  6
Continuous
 62
     7
370
    25
100
AcDbCircle
 10
202.2684928081
 20
430.8315051067
 30
0.0
 40
1.550000000000016
100
AcDbArc
 50
100.9915633792
 51
131.8064621751
  0
LINE
  5
1F0
330
1F
100
AcDbEntity
  8
0
  6
Continuous
 62
     7
370
    25
100
AcDbLine
 10
216.2684932402
 20
265.8315050117
 30
0.0
 11
188.268492376
 21
265.8315050117
 31
0.0
  0
ARC
  5
1F1
330
1F
100
AcDbEntity
  8
0
  6
Continuous
 62
     7
370
    25
100
AcDbCircle
 10
205.2375105542
 20
263.6965713236
 30
0.0
 40
0.7328293002650517
100
AcDbArc
 50
256.3604877866
 51
289.915580976
  0
ARC
  5
1F2
330
1F
100
AcDbEntity
  8
0
  6
Continuous
 62
     7
370
    25
100
AcDbCircle
 10
204.1278954123
 20
283.9335249989
 30
0.0
 40
20.97005475111931
100
AcDbArc
 50
266.283581347
 51
273.716418653
  0
ARC
  5
1F3
330
1F
100
AcDbEntity
  8
0
  6
Continuous
 62
     7
370
    25
100
AcDbCircle
 10
201.1593300842
 20
292.3493810778
 30
0.0
 40
29.3859130435879
100
AcDbArc
 50
266.8606198295
 51
273.1393801705
  0
ARC
  5
1F4
330
1F
100
AcDbEntity
  8
0
  6
Continuous
 62
     7
370
    25
100
AcDbCircle
 10
199.2994579984
 20
263.6995107299
 30
0.0
 40
0.7359069607293006
100
AcDbArc
 50
265.1098495356
 51
289.9051092056
  0
ARC
  5
1F5
330
1F
100
AcDbEntity
  8
0
  6
Continuous
 62
     7
370
    25
100
AcDbCircle
 10
200.4090904899
 20
283.9282647086
 30
0.0
 40
20.9647967608612
100
AcDbArc
 50
267.4389036402
 51
270.9388614768
  0
ARC
  5
1F6
330
1F
100
AcDbEntity
  8
0
  6
Continuous
 62
     7
370
    25
100
AcDbCircle
 10
203.3776615218
 20
292.3480308759
 30
0.0
 40
29.38456321002612
100
AcDbArc
 50
267.8367625694
 51
270.7930628037
  0
LINE
  5
1F7
330
1F
100
AcDbEntity
  8
0
  6
Continuous
 62
     7
370
    25
100
AcDbLine
 10
214.3627902544
 20
353.1315036285
 30
0.0
 11
216.2684932402
 21
353.1315036285
 31
0.0
  0
LINE
  5
1F8
330
1F
100
AcDbEntity
  8
0
  6
Continuous
 62
     7
370
    25
100
AcDbLine
 10
188.268492376
 20
353.1315036285
 30
0.0
 11
214.3627902544
 21
353.1315036285
 31
0.0
  0
LINE
  5
1F9
330
1F
100
AcDbEntity
  8
0
  6
Continuous
 62
     7
370
    25
100
AcDbLine
 10
214.3627902544
 20
356.9315083492
 30
0.0
 11
216.2684932402
 21
356.9315083492
 31
0.0
  0
LINE
  5
1FA
330
1F
100
AcDbEntity
  8
0
  6
Continuous
 62
     7
370
    25
100
AcDbLine
 10
188.268492376
 20
356.9315083492
 30
0.0
 11
214.3627902544
 21
356.9315083492
 31
0.0
  0
LINE
  5
1FB
330
1F
100
AcDbEntity
  8
0
  6
Continuous
 62
     7
370
    25
100
AcDbLine
 10
189.1770208306
 20
357.3315076697
 30
0.0
 11
189.1770208306
 21
442.3315085637
 31
0.0
  0
SPLINE
  5
1FC
330
1F
100
AcDbEntity
  8
0
  6
Continuous
 62
     7
370
    25
100
AcDbSpline
210
0.0
220
0.0
230
1.0
 70
    11
 71
     3
 72
    26
 73
    22
 74
     0
 42
0.000000001
 43
0.00000001
 40
0.0
 40
0.0
 40
0.0
 40
0.0
 40
0.0531118867302654
 40
0.1062028894278998
 40
0.1598218726831612
 40
0.2137974384346401
 40
0.2672062767479605
 40
0.3200222190770212
 40
0.3731143812840676
 40
0.4269335235499776
 40
0.480818741543879
 40
0.5339753355493475
 40
0.5867527771863092
 40
0.6400822944701755
 40
0.6940394629180342
 40
0.7477280005833575
 40
0.800683750952257
 40
0.8535708755156358
 40
0.9071454790675558
 40
0.9611288130916978
 40
1.0
 40
1.0
 40
1.0
 40
1.0
 10
199.7684928639662
 20
430.8315076100618
 30
0.0
 10
199.7956871083411
 20
431.1101558682161
 30
0.0
 10
199.8500649040894
 20
431.6673428177276
 30
0.0
 10
200.2734419342581
 20
432.4105899877775
 30
0.0
 10
200.9004234173768
 20
432.9815744243044
 30
0.0
 10
201.6901715066147
 20
433.313016343451
 30
0.0
 10
202.5413550027309
 20
433.3639204433935
 30
0.0
 10
203.3563517353456
 20
433.1339440146975
 30
0.0
 10
204.0512545344453
 20
432.6508379511579
 30
0.0
 10
204.552387704681
 20
431.9614076663771
 30
0.0
 10
204.7973514623778
 20
431.1417189523926
 30
0.0
 10
204.7573887223815
 20
430.2918022065326
 30
0.0
 10
204.4433958349978
 20
429.5067951655727
 30
0.0
 10
203.8887495909349
 20
428.8656068082996
 30
0.0
 10
203.1482246213994
 20
428.4399879920459
 30
0.0
 10
202.3076239766315
 20
428.284335710972
 30
0.0
 10
201.4690130153883
 20
428.4137559284229
 30
0.0
 10
200.7204191463389
 20
428.8086371613881
 30
0.0
 10
200.1438606582975
 20
429.4294514791609
 30
0.0
 10
199.8183158025655
 20
430.1421923300612
 30
0.0
 10
199.7831952086365
 20
430.6280962674555
 30
0.0
 10
199.7684928639662
 20
430.8315076100618
 30
0.0
  0
LINE
  5
1FD
330
1F
100
AcDbEntity
  8
0
  6
Continuous
 62
     7
370
    25
100
AcDbLine
 10
216.3684930703
 20
442.3315085637
 30
0.0
 11
189.1770208306
 21
442.3315085637
 31
0.0
  0
LINE
  5
1FE
330
1F
100
AcDbEntity
  8
0
  6
Continuous
 62
     7
370
    25
100
AcDbLine
 10
216.3684930703
 20
357.3315076697
 30
0.0
 11
189.1770208306
 21
357.3315076697
 31
0.0
  0
LINE
  5
1FF
330
1F
100
AcDbEntity
  8
0
  6
Continuous
 62
     7
370
    25
100
AcDbLine
 10
185.2684918842
 20
357.3315076697
 30
0.0
 11
185.2684918842
 21
442.3315085637
 31
0.0
  0
LINE
  5
200
330
1F
100
AcDbEntity
  8
0
  6
Continuous
 62
     7
370
    25
100
AcDbLine
 10
185.2684918842
 20
442.3315085637
 30
0.0
 11
189.1770208306
 21
442.3315085637
 31
0.0
  0
LINE
  5
201
330
1F
100
AcDbEntity
  8
0
  6
Continuous
 62
     7
370
    25
100
AcDbLine
 10
185.2684918842
 20
357.3315076697
 30
0.0
 11
189.1770208306
 21
357.3315076697
 31
0.0
  0
LINE
  5
202
330
1F
100
AcDbEntity
  8
0
  6
Continuous
 62
     7
370
    25
100
AcDbLine
 10
155.2684944174
 20
357.3315076697
 30
0.0
 11
155.2684944174
 21
442.3315085637
 31
0.0
  0
CIRCLE
  5
203
330
1F
100
AcDbEntity
  8
0
  6
Continuous
 62
     7
370
    25
100
AcDbCircle
 10
176.7684928081
 20
432.3315051067
 30
0.0
 40
6.199999999999989
  0
CIRCLE
  5
204
330
1F
100
AcDbEntity
  8
0
  6
Continuous
 62
     7
370
    25
100
AcDbCircle
 10
165.2684928081
 20
399.8315051067
 30
0.0
 40
6.200000000000017
  0
CIRCLE
  5
205
330
1F
100
AcDbEntity
  8
0
  6
Continuous
 62
     7
370
    25
100
AcDbCircle
 10
176.7684928081
 20
367.3315051067
 30
0.0
 40
6.199999999999989
  0
LINE
  5
206
330
1F
100
AcDbEntity
  8
0
  6
Continuous
 62
     7
370
    25
100
AcDbLine
 10
155.2684944174
 20
442.3315085637
 30
0.0
 11
185.2684918842
 21
442.3315085637
 31
0.0
  0
LINE
  5
207
330
1F
100
AcDbEntity
  8
0
  6
Continuous
 62
     7
370
    25
100
AcDbLine
 10
155.2684944174
 20
357.3315076697
 30
0.0
 11
185.2684918842
 21
357.3315076697
 31
0.0
  0
CIRCLE
  5
208
330
1F
100
AcDbEntity
  8
0
  6
Continuous
 62
     7
370
    25
100
AcDbCircle
 10
165.2684928081
 20
399.8315051067
 30
0.0
 40
3.199999999999989
  0
CIRCLE
  5
209
330
1F
100
AcDbEntity
  8
0
  6
Continuous
 62
     7
370
    25
100
AcDbCircle
 10
176.7684928081
 20
432.3315051067
 30
0.0
 40
3.199999999999989
  0
CIRCLE
  5
20A
330
1F
100
AcDbEntity
  8
0
  6
Continuous
 62
     7
370
    25
100
AcDbCircle
 10
176.7684928081
 20
367.3315051067
 30
0.0
 40
3.199999999999989
  0
LINE
  5
20B
330
1F
100
AcDbEntity
  8
0
  6
Continuous
 62
     7
370
    25
100
AcDbLine
 10
185.2684918842
 20
352.8315060007
 30
0.0
 11
185.2684918842
 21
267.8315051067
 31
0.0
  0
LINE
  5
20C
330
1F
100
AcDbEntity
  8
0
  6
Continuous
 62
     7
370
    25
100
AcDbLine
 10
188.0370484716
 20
267.8315051067
 30
0.0
 11
188.0370484716
 21
352.8315060007
 31
0.0
  0
LINE
  5
20D
330
1F
100
AcDbEntity
  8
0
  6
Continuous
 62
     7
370
    25
100
AcDbLine
 10
188.0370484716
 20
352.8315060007
 30
0.0
 11
185.2684918842
 21
352.8315060007
 31
0.0
  0
LINE
  5
20E
330
1F
100
AcDbEntity
  8
0
  6
Continuous
 62
     7
370
    25
100
AcDbLine
 10
185.2684918842
 20
267.8315051067
 30
0.0
 11
188.0370484716
 21
267.8315051067
 31
0.0
  0
LINE
  5
20F
330
1F
100
AcDbEntity
  8
0
  6
Continuous
 62
     7
370
    25
100
AcDbLine
 10
207.6868097349
 20
352.8315060007
 30
0.0
 11
207.6868097349
 21
267.8315051067
 31
0.0
  0
LINE
  5
210
330
1F
100
AcDbEntity
  8
0
  6
Continuous
 62
     7
370
    25
100
AcDbLine
 10
207.6868097349
 20
352.8315060007
 30
0.0
 11
188.0370484716
 21
352.8315060007
 31
0.0
  0
LINE
  5
211
330
1F
100
AcDbEntity
  8
0
  6
Continuous
 62
     7
370
    25
100
AcDbLine
 10
207.6868097349
 20
267.8315051067
 30
0.0
 11
188.0370484716
 21
267.8315051067
 31
0.0
  0
LINE
  5
212
330
1F
100
AcDbEntity
  8
0
  6
Continuous
 62
     7
370
    25
100
AcDbLine
 10
207.6868097349
 20
352.8315060007
 30
0.0
 11
216.3684930703
 21
352.8315060007
 31
0.0
  0
LINE
  5
213
330
1F
100
AcDbEntity
  8
0
  6
Continuous
 62
     7
370
    25
100
AcDbLine
 10
216.3684930703
 20
267.8315051067
 30
0.0
 11
207.6868097349
 21
267.8315051067
 31
0.0
  0
LINE
  5
214
330
1F
100
AcDbEntity
  8
0
  6
Continuous
 62
     7
370
    25
100
AcDbLine
 10
185.068492224
 20
352.8315060007
 30
0.0
 11
185.068492224
 21
267.8315051067
 31
0.0
  0
LINE
  5
215
330
1F
100
AcDbEntity
  8
0
  6
Continuous
 62
     7
370
    25
100
AcDbLine
 10
185.2684918842
 20
352.8315060007
 30
0.0
 11
185.068492224
 21
352.8315060007
 31
0.0
  0
LINE
  5
216
330
1F
100
AcDbEntity
  8
0
  6
Continuous
 62
     7
370
    25
100
AcDbLine
 10
185.068492224
 20
267.8315051067
 30
0.0
 11
185.2684918842
 21
267.8315051067
 31
0.0
  0
LINE
  5
217
330
1F
100
AcDbEntity
  8
0
  6
Continuous
 62
     7
370
    25
100
AcDbLine
 10
155.2684944174
 20
267.8315051067
 30
0.0
 11
155.2684944174
 21
352.8315060007
 31
0.0
  0
CIRCLE
  5
218
330
1F
100
AcDbEntity
  8
0
  6
Continuous
 62
     7
370
    25
100
AcDbCircle
 10
176.7684928081
 20
342.8315051067
 30
0.0
 40
3.199999999999989
  0
CIRCLE
  5
219
330
1F
100
AcDbEntity
  8
0
  6
Continuous
 62
     7
370
    25
100
AcDbCircle
 10
165.2684928081
 20
310.3315051067
 30
0.0
 40
3.199999999999989
  0
CIRCLE
  5
21A
330
1F
100
AcDbEntity
  8
0
  6
Continuous
 62
     7
370
    25
100
AcDbCircle
 10
176.7684928081
 20
277.8315051067
 30
0.0
 40
3.200000000000017
  0
LINE
  5
21B
330
1F
100
AcDbEntity
  8
0
  6
Continuous
 62
     7
370
    25
100
AcDbLine
 10
185.068492224
 20
352.8315060007
 30
0.0
 11
155.2684944174
 21
352.8315060007
 31
0.0
  0
LINE
  5
21C
330
1F
100
AcDbEntity
  8
0
  6
Continuous
 62
     7
370
    25
100
AcDbLine
 10
185.068492224
 20
267.8315051067
 30
0.0
 11
155.2684944174
 21
267.8315051067
 31
0.0
  0
INSERT
  5
228
330
1F
100
AcDbEntity
  8
0
  6
Continuous
 62
     7
370
     0
100
AcDbBlockReference
  2
SW_CENTERMARKSYMBOL_3
 10
176.7684928081
 20
432.3315051067
 30
0.0
  0
INSERT
  5
234
330
1F
100
AcDbEntity
  8
0
  6
Continuous
 62
     7
370
     0
100
AcDbBlockReference
  2
SW_CENTERMARKSYMBOL_4
 10
165.2684928081
 20
399.8315051067
 30
0.0
  0
INSERT
  5
240
330
1F
100
AcDbEntity
  8
0
  6
Continuous
 62
     7
370
     0
100
AcDbBlockReference
  2
SW_CENTERMARKSYMBOL_5
 10
176.7684928081
 20
367.3315051067
 30
0.0
  0
INSERT
  5
24C
330
1F
100
AcDbEntity
  8
0
  6
Continuous
 62
     7
370
     0
100
AcDbBlockReference
  2
SW_CENTERMARKSYMBOL_6
 10
176.7684928081
 20
342.8315051067
 30
0.0
  0
INSERT
  5
258
330
1F
100
AcDbEntity
  8
0
  6
Continuous
 62
     7
370
     0
100
AcDbBlockReference
  2
SW_CENTERMARKSYMBOL_7
 10
165.2684928081
 20
310.3315051067
 30
0.0
  0
INSERT
  5
264
330
1F
100
AcDbEntity
  8
0
  6
Continuous
 62
     7
370
     0
100
AcDbBlockReference
  2
SW_CENTERMARKSYMBOL_8
 10
176.7684928081
 20
277.8315051067
 30
0.0
  0
LINE
  5
265
330
1F
100
AcDbEntity
  8
0
  6
Continuous
 62
     7
370
    25
100
AcDbLine
 10
747.335913342
 20
351.2486356773
 30
0.0
 11
747.335913342
 21
350.9486380495
 31
0.0
  0
LINE
  5
266
330
1F
100
AcDbEntity
  8
0
  6
Continuous
 62
     7
370
    25
100
AcDbLine
 10
772.1359084663
 20
350.9486380495
 30
0.0
 11
772.1359084663
 21
351.2486356773
 31
0.0
  0
LINE
  5
267
330
1F
100
AcDbEntity
  8
0
  6
Continuous
 62
     7
370
    25
100
AcDbLine
 10
745.6359069166
 20
440.0486338415
 30
0.0
 11
745.6359069166
 21
355.048640398
 31
0.0
  0
LINE
  5
268
330
1F
100
AcDbEntity
  8
0
  6
Continuous
 62
     7
370
    25
100
AcDbLine
 10
773.8359074411
 20
431.0186642684
 30
0.0
 11
773.8359074411
 21
440.0486338415
 31
0.0
  0
LINE
  5
269
330
1F
100
AcDbEntity
  8
0
  6
Continuous
 62
     7
370
    25
100
AcDbLine
 10
773.8359074411
 20
355.048640398
 30
0.0
 11
773.8359074411
 21
426.0519433298
 31
0.0
  0
LINE
  5
26A
330
1F
100
AcDbEntity
  8
0
  6
Continuous
 62
     7
370
    25
100
AcDbLine
 10
745.6359069166
 20
350.9486380495
 30
0.0
 11
745.6359069166
 21
265.9486371555
 31
0.0
  0
LINE
  5
26B
330
1F
100
AcDbEntity
  8
0
  6
Continuous
 62
     7
370
    25
100
AcDbLine
 10
781.0858141002
 20
265.9486371555
 30
0.0
 11
781.0858141002
 21
350.9486380495
 31
0.0
  0
LINE
  5
26C
330
1F
100
AcDbEntity
  8
0
  6
Continuous
 62
     7
370
    25
100
AcDbLine
 10
745.7359086093
 20
442.4486297645
 30
0.0
 11
745.7359086093
 21
440.4486406125
 31
0.0
  0
LINE
  5
26D
330
1F
100
AcDbEntity
  8
0
  6
Continuous
 62
     7
370
    25
100
AcDbLine
 10
773.7359131989
 20
440.4486406125
 30
0.0
 11
773.7359131989
 21
442.4486297645
 31
0.0
  0
ARC
  5
26E
330
1F
100
AcDbEntity
  8
0
  6
Continuous
 62
     7
370
    25
100
AcDbCircle
 10
759.7359097418
 20
411.2819704888
 30
0.0
 40
34.16666666666669
100
AcDbArc
 50
65.810485846
 51
114.189514154
  0
ARC
  5
26F
330
1F
100
AcDbEntity
  8
0
  6
Continuous
 62
     7
370
    25
100
AcDbCircle
 10
771.5359097418
 20
440.0486371555
 30
0.0
 40
0.4000000000000909
100
AcDbArc
 50
90.0
 51
180.0
  0
ARC
  5
270
330
1F
100
AcDbEntity
  8
0
  6
Continuous
 62
     7
370
    25
100
AcDbCircle
 10
747.9359097418
 20
440.0486371555
 30
0.0
 40
0.4000000000000909
100
AcDbArc
 50
0.0
 51
90.0
  0
LINE
  5
271
330
1F
100
AcDbEntity
  8
0
  6
Continuous
 62
     7
370
    25
100
AcDbLine
 10
773.7359131989
 20
263.9486370605
 30
0.0
 11
773.7359131989
 21
265.9486371555
 31
0.0
  0
LINE
  5
272
330
1F
100
AcDbEntity
  8
0
  6
Continuous
 62
     7
370
    25
100
AcDbLine
 10
745.7359086093
 20
265.9486371555
 30
0.0
 11
745.7359086093
 21
263.9486370605
 31
0.0
  0
ARC
  5
273
330
1F
100
AcDbEntity
  8
0
  6
Continuous
 62
     7
370
    25
100
AcDbCircle
 10
759.7359097418
 20
295.1153038221
 30
0.0
 40
34.16666666666679
100
AcDbArc
 50
275.0742097408
 51
294.189514154
  0
ARC
  5
274
330
1F
100
AcDbEntity
  8
0
  6
Continuous
 62
     7
370
    25
100
AcDbCircle
 10
759.7359097418
 20
295.1153038221
 30
0.0
 40
34.16666666666676
100
AcDbArc
 50
245.810485846
 51
264.9257902592
  0
LINE
  5
275
330
1F
100
AcDbEntity
  8
0
  6
Continuous
 62
     7
370
    25
100
AcDbLine
 10
745.7359086093
 20
355.048640398
 30
0.0
 11
745.7359086093
 21
351.2486356773
 31
0.0
  0
LINE
  5
276
330
1F
100
AcDbEntity
  8
0
  6
Continuous
 62
     7
370
    25
100
AcDbLine
 10
773.7359131989
 20
351.2486356773
 30
0.0
 11
773.7359131989
 21
355.048640398
 31
0.0
  0
LINE
  5
277
330
1F
100
AcDbEntity
  8
0
  6
Continuous
 62
     7
370
    25
100
AcDbLine
 10
745.6359069166
 20
440.0486338415
 30
0.0
 11
773.8359074411
 21
440.0486338415
 31
0.0
  0
LINE
  5
278
330
1F
100
AcDbEntity
  8
0
  6
Continuous
 62
     7
370
    25
100
AcDbLine
 10
745.6359069166
 20
355.048640398
 30
0.0
 11
773.8359074411
 21
355.048640398
 31
0.0
  0
SPLINE
  5
279
330
1F
100
AcDbEntity
  8
0
  6
Continuous
 62
     7
370
    25
100
AcDbSpline
210
0.0
220
0.0
230
1.0
 70
     8
 71
     3
 72
    18
 73
    14
 74
     0
 42
0.000000001
 43
0.00000001
 40
0.0
 40
0.0
 40
0.0
 40
0.0
 40
0.0328512259775467
 40
0.1388694659627328
 40
0.2454438294015792
 40
0.3534748054368799
 40
0.461639958547715
 40
0.5683425350379879
 40
0.6742840829988692
 40
0.7813352019138857
 40
0.8896438665661983
 40
0.9974145570065844
 40
1.0
 40
1.0
 40
1.0
 40
1.0
 10
773.8306547817707
 20
431.0186642684344
 30
0.0
 10
773.8321582304413
 20
431.0267401060057
 30
0.0
 10
773.8385136436043
 20
431.0608784742816
 30
0.0
 10
773.7997734381048
 20
430.8384259861148
 30
0.0
 10
773.7296500390731
 20
430.3714210625408
 30
0.0
 10
773.6535985660572
 20
429.6775866242758
 30
0.0
 10
773.609909526521
 20
428.8592112318244
 30
0.0
 10
773.617401036294
 20
428.0084856963205
 30
0.0
 10
773.6714462048473
 20
427.2254066181226
 30
0.0
 10
773.7503304923879
 20
426.5772086762497
 30
0.0
 10
773.8135294758489
 20
426.1779373441937
 30
0.0
 10
773.8435546722962
 20
426.0061956544681
 30
0.0
 10
773.8355292187108
 20
426.0508960802777
 30
0.0
 10
773.8353411969662
 20
426.0519433297519
 30
0.0
  0
LINE
  5
27A
330
1F
100
AcDbEntity
  8
0
  6
Continuous
 62
     7
370
    25
100
AcDbLine
 10
772.7532784757
 20
350.9486380495
 30
0.0
 11
772.7532784757
 21
265.9486371555
 31
0.0
  0
LINE
  5
27B
330
1F
100
AcDbEntity
  8
0
  6
Continuous
 62
     7
370
    25
100
AcDbLine
 10
772.7532784757
 20
350.9486380495
 30
0.0
 11
745.6359069166
 21
350.9486380495
 31
0.0
  0
LINE
  5
27C
330
1F
100
AcDbEntity
  8
0
  6
Continuous
 62
     7
370
    25
100
AcDbLine
 10
745.6359069166
 20
265.9486371555
 30
0.0
 11
772.7532784757
 21
265.9486371555
 31
0.0
  0
LINE
  5
27D
330
1F
100
AcDbEntity
  8
0
  6
Continuous
 62
     7
370
    25
100
AcDbLine
 10
780.932242733
 20
265.9486371555
 30
0.0
 11
780.932242733
 21
350.9486380495
 31
0.0
  0
LINE
  5
27E
330
1F
100
AcDbEntity
  8
0
  6
Continuous
 62
     7
370
    25
100
AcDbLine
 10
772.7532784757
 20
350.9486380495
 30
0.0
 11
780.932242733
 21
350.9486380495
 31
0.0
  0
LINE
  5
27F
330
1F
100
AcDbEntity
  8
0
  6
Continuous
 62
     7
370
    25
100
AcDbLine
 10
772.7532784757
 20
265.9486371555
 30
0.0
 11
780.932242733
 21
265.9486371555
 31
0.0
  0
LINE
  5
280
330
1F
100
AcDbEntity
  8
0
  6
Continuous
 62
     7
370
    25
100
AcDbLine
 10
780.932242733
 20
350.9486380495
 30
0.0
 11
781.0858141002
 21
350.9486380495
 31
0.0
  0
LINE
  5
281
330
1F
100
AcDbEntity
  8
0
  6
Continuous
 62
     7
370
    25
100
AcDbLine
 10
781.0858141002
 20
265.9486371555
 30
0.0
 11
780.932242733
 21
265.9486371555
 31
0.0
  0
LINE
  5
282
330
1F
100
AcDbEntity
  8
0
  6
Continuous
 62
     7
370
    25
100
AcDbLine
 10
773.5195557889
 20
442.4486297645
 30
0.0
 11
773.7359131989
 21
442.4486297645
 31
0.0
  0
LINE
  5
283
330
1F
100
AcDbEntity
  8
0
  6
Continuous
 62
     7
370
    25
100
AcDbLine
 10
745.7359086093
 20
442.4486297645
 30
0.0
 11
773.5195557889
 21
442.4486297645
 31
0.0
  0
LINE
  5
284
330
1F
100
AcDbEntity
  8
0
  6
Continuous
 62
     7
370
    25
100
AcDbLine
 10
773.5195557889
 20
440.4486406125
 30
0.0
 11
773.7359131989
 21
440.4486406125
 31
0.0
  0
LINE
  5
285
330
1F
100
AcDbEntity
  8
0
  6
Continuous
 62
     7
370
    25
100
AcDbLine
 10
745.7359086093
 20
440.4486406125
 30
0.0
 11
773.5195557889
 21
440.4486406125
 31
0.0
  0
LINE
  5
286
330
1F
100
AcDbEntity
  8
0
  6
Continuous
 62
     7
370
    25
100
AcDbLine
 10
772.6136620459
 20
263.9486370605
 30
0.0
 11
745.7359086093
 21
263.9486370605
 31
0.0
  0
LINE
  5
287
330
1F
100
AcDbEntity
  8
0
  6
Continuous
 62
     7
370
    25
100
AcDbLine
 10
773.7359131989
 20
263.9486370605
 30
0.0
 11
772.6136620459
 21
263.9486370605
 31
0.0
  0
ARC
  5
288
330
1F
100
AcDbEntity
  8
0
  6
Continuous
 62
     7
370
    25
100
AcDbCircle
 10
758.5590246436
 20
289.8813879616
 30
0.0
 40
28.80078778527025
100
AcDbArc
 50
266.82888519
 51
273.17111481
  0
ARC
  5
289
330
1F
100
AcDbEntity
  8
0
  6
Continuous
 62
     7
370
    25
100
AcDbCircle
 10
756.7566991264
 20
261.6005919854
 30
0.0
 40
0.5198111266642667
100
AcDbArc
 50
265.288637803
 51
293.7219720926
  0
ARC
  5
28A
330
1F
100
AcDbEntity
  8
0
  6
Continuous
 62
     7
370
    25
100
AcDbCircle
 10
757.9345457394
 20
282.849237863
 30
0.0
 40
21.76863790065331
100
AcDbArc
 50
267.3061115222
 51
270.7644006653
  0
ARC
  5
28B
330
1F
100
AcDbEntity
  8
0
  6
Continuous
 62
     7
370
    25
100
AcDbCircle
 10
760.9127916461
 20
289.8795269447
 30
0.0
 40
28.79892740174794
100
AcDbArc
 50
267.6579233586
 51
270.6646526502
  0
ARC
  5
28C
330
1F
100
AcDbEntity
  8
0
  6
Continuous
 62
     7
370
    25
100
AcDbCircle
 10
762.7147002892
 20
261.5961252481
 30
0.0
 40
0.515121361319341
100
AcDbArc
 50
252.5699179064
 51
293.7698179395
  0
ARC
  5
28D
330
1F
100
AcDbEntity
  8
0
  6
Continuous
 62
     7
370
    25
100
AcDbCircle
 10
761.5372787532
 20
282.8534815804
 30
0.0
 40
21.77287954169132
100
AcDbArc
 50
266.3527549759
 51
273.6472450241
  0
LINE
  5
28E
330
1F
100
AcDbEntity
  8
0
  6
Continuous
 62
     7
370
    25
100
AcDbLine
 10
745.7359086093
 20
351.2486356773
 30
0.0
 11
773.7359131989
 21
351.2486356773
 31
0.0
  0
LINE
  5
28F
330
1F
100
AcDbEntity
  8
0
  6
Continuous
 62
     7
370
    25
100
AcDbLine
 10
547.3124126726
 20
351.2486356773
 30
0.0
 11
547.3124126726
 21
350.9486380495
 31
0.0
  0
LINE
  5
290
330
1F
100
AcDbEntity
  8
0
  6
Continuous
 62
     7
370
    25
100
AcDbLine
 10
572.1124077969
 20
350.9486380495
 30
0.0
 11
572.1124077969
 21
351.2486356773
 31
0.0
  0
LINE
  5
291
330
1F
100
AcDbEntity
  8
0
  6
Continuous
 62
     7
370
    25
100
AcDbLine
 10
545.6124136978
 20
426.0519433298
 30
0.0
 11
545.6124136978
 21
355.048640398
 31
0.0
  0
LINE
  5
292
330
1F
100
AcDbEntity
  8
0
  6
Continuous
 62
     7
370
    25
100
AcDbLine
 10
545.6124136978
 20
440.0486338415
 30
0.0
 11
545.6124136978
 21
431.0186642684
 31
0.0
  0
LINE
  5
293
330
1F
100
AcDbEntity
  8
0
  6
Continuous
 62
     7
370
    25
100
AcDbLine
 10
573.8124142223
 20
355.048640398
 30
0.0
 11
573.8124142223
 21
440.0486338415
 31
0.0
  0
LINE
  5
294
330
1F
100
AcDbEntity
  8
0
  6
Continuous
 62
     7
370
    25
100
AcDbLine
 10
538.3625070387
 20
350.9486380495
 30
0.0
 11
538.3625070387
 21
265.9486371555
 31
0.0
  0
LINE
  5
295
330
1F
100
AcDbEntity
  8
0
  6
Continuous
 62
     7
370
    25
100
AcDbLine
 10
573.8124142223
 20
265.9486371555
 30
0.0
 11
573.8124142223
 21
350.9486380495
 31
0.0
  0
LINE
  5
296
330
1F
100
AcDbEntity
  8
0
  6
Continuous
 62
     7
370
    25
100
AcDbLine
 10
545.71240794
 20
442.4486297645
 30
0.0
 11
545.71240794
 21
440.4486406125
 31
0.0
  0
LINE
  5
297
330
1F
100
AcDbEntity
  8
0
  6
Continuous
 62
     7
370
    25
100
AcDbLine
 10
573.7124125296
 20
440.4486406125
 30
0.0
 11
573.7124125296
 21
442.4486297645
 31
0.0
  0
ARC
  5
298
330
1F
100
AcDbEntity
  8
0
  6
Continuous
 62
     7
370
    25
100
AcDbCircle
 10
559.7124113971
 20
411.2819704888
 30
0.0
 40
34.16666666666669
100
AcDbArc
 50
65.810485846
 51
114.189514154
  0
ARC
  5
299
330
1F
100
AcDbEntity
  8
0
  6
Continuous
 62
     7
370
    25
100
AcDbCircle
 10
571.5124113971
 20
440.0486371555
 30
0.0
 40
0.3999999999999773
100
AcDbArc
 50
90.0
 51
180.0
  0
ARC
  5
29A
330
1F
100
AcDbEntity
  8
0
  6
Continuous
 62
     7
370
    25
100
AcDbCircle
 10
547.9124113971
 20
440.0486371555
 30
0.0
 40
0.3999999999999773
100
AcDbArc
 50
0.0
 51
90.0
  0
LINE
  5
29B
330
1F
100
AcDbEntity
  8
0
  6
Continuous
 62
     7
370
    25
100
AcDbLine
 10
573.7124125296
 20
263.9486370605
 30
0.0
 11
573.7124125296
 21
265.9486371555
 31
0.0
  0
LINE
  5
29C
330
1F
100
AcDbEntity
  8
0
  6
Continuous
 62
     7
370
    25
100
AcDbLine
 10
545.71240794
 20
265.9486371555
 30
0.0
 11
545.71240794
 21
263.9486370605
 31
0.0
  0
ARC
  5
29D
330
1F
100
AcDbEntity
  8
0
  6
Continuous
 62
     7
370
    25
100
AcDbCircle
 10
559.7124113971
 20
295.1153038221
 30
0.0
 40
34.16666666666676
100
AcDbArc
 50
275.0742097408
 51
294.189514154
  0
ARC
  5
29E
330
1F
100
AcDbEntity
  8
0
  6
Continuous
 62
     7
370
    25
100
AcDbCircle
 10
559.7124113971
 20
295.1153038221
 30
0.0
 40
34.16666666666676
100
AcDbArc
 50
245.810485846
 51
264.9257902592
  0
LINE
  5
29F
330
1F
100
AcDbEntity
  8
0
  6
Continuous
 62
     7
370
    25
100
AcDbLine
 10
545.71240794
 20
355.048640398
 30
0.0
 11
545.71240794
 21
351.2486356773
 31
0.0
  0
LINE
  5
2A0
330
1F
100
AcDbEntity
  8
0
  6
Continuous
 62
     7
370
    25
100
AcDbLine
 10
573.7124125296
 20
351.2486356773
 30
0.0
 11
573.7124125296
 21
355.048640398
 31
0.0
  0
LINE
  5
2A1
330
1F
100
AcDbEntity
  8
0
  6
Continuous
 62
     7
370
    25
100
AcDbLine
 10
561.3835568362
 20
351.2486356773
 30
0.0
 11
561.3835568362
 21
350.9486380495
 31
0.0
  0
LINE
  5
2A2
330
1F
100
AcDbEntity
  8
0
  6
Continuous
 62
     7
370
    25
100
AcDbLine
 10
562.3444135123
 20
350.9486380495
 30
0.0
 11
562.3444135123
 21
351.2486356773
 31
0.0
  0
LINE
  5
2A3
330
1F
100
AcDbEntity
  8
0
  6
Continuous
 62
     7
370
    25
100
AcDbLine
 10
561.8615190321
 20
355.048640398
 30
0.0
 11
561.8615190321
 21
440.0486338415
 31
0.0
  0
LINE
  5
2A4
330
1F
100
AcDbEntity
  8
0
  6
Continuous
 62
     7
370
    25
100
AcDbLine
 10
558.061521762
 20
355.048640398
 30
0.0
 11
558.061521762
 21
440.0486338415
 31
0.0
  0
LINE
  5
2A5
330
1F
100
AcDbEntity
  8
0
  6
Continuous
 62
     7
370
    25
100
AcDbLine
 10
558.061521762
 20
440.0486338415
 30
0.0
 11
561.8615190321
 21
440.0486338415
 31
0.0
  0
LINE
  5
2A6
330
1F
100
AcDbEntity
  8
0
  6
Continuous
 62
     7
370
    25
100
AcDbLine
 10
558.061521762
 20
355.048640398
 30
0.0
 11
561.8615190321
 21
355.048640398
 31
0.0
  0
LINE
  5
2A7
330
1F
100
AcDbEntity
  8
0
  6
Continuous
 62
     7
370
    25
100
AcDbLine
 10
558.0301771694
 20
355.048640398
 30
0.0
 11
558.0301771694
 21
440.0486338415
 31
0.0
  0
LWPOLYLINE
  5
2A8
330
1F
100
AcDbEntity
  8
0
  6
Continuous
 62
     7
370
    25
100
AcDbPolyline
 90
       32
 70
   128
 43
0.0
 10
558.045532816
 20
430.0486433782
 10
558.0453987056
 20
431.296690134
 10
558.0450112754
 20
432.493640808
 10
558.0443705254
 20
433.5905003824
 10
558.0435211593
 20
434.5423567571
 10
558.0424855286
 20
435.3102284946
 10
558.0413083368
 20
435.862703947
 10
558.0400342875
 20
436.1771333494
 10
558.0387304359
 20
436.2406868019
 10
558.0374340349
 20
436.0507118978
 10
558.0362046891
 20
435.6150317468
 10
558.0350945526
 20
434.9514532365
 10
558.0341408783
 20
434.0871411838
 10
558.0333958202
 20
433.0575156488
 10
558.0328742796
 20
431.904687313
 10
558.0326135093
 20
430.6758779563
 10
558.0326135093
 20
429.4213938989
 10
558.0328742796
 20
428.1925845422
 10
558.0333958202
 20
427.0397711076
 10
558.0341408783
 20
426.0101306714
 10
558.0350945526
 20
425.1458335199
 10
558.0362046891
 20
424.4822550096
 10
558.0374340349
 20
424.0465599574
 10
558.0387304359
 20
423.8565999545
 10
558.0400342875
 20
423.9201385059
 10
558.0413083368
 20
424.2345679082
 10
558.0424855286
 20
424.7870433607
 10
558.0435211593
 20
425.5549150981
 10
558.0443705254
 20
426.5067714729
 10
558.0450112754
 20
427.6036310472
 10
558.0453987056
 20
428.8005817212
 10
558.045532816
 20
430.0486433782
  0
LWPOLYLINE
  5
2A9
330
1F
100
AcDbEntity
  8
0
  6
Continuous
 62
     7
370
    25
100
AcDbPolyline
 90
       32
 70
   128
 43
0.0
 10
558.0575506025
 20
397.5486445703
 10
558.0574164921
 20
398.7966913261
 10
558.0570290619
 20
399.9936420001
 10
558.0563883119
 20
401.0905015745
 10
558.0555389458
 20
402.0423579492
 10
558.0545033151
 20
402.8102296867
 10
558.0533261233
 20
403.3627051391
 10
558.052052074
 20
403.6771345415
 10
558.0507482224
 20
403.7406730928
 10
558.0494518214
 20
403.5507130899
 10
558.0482224756
 20
403.1150180377
 10
558.0471048885
 20
402.4514395275
 10
558.0461586648
 20
401.5871423759
 10
558.0454061561
 20
400.5575019397
 10
558.0448920661
 20
399.4046885051
 10
558.0446312958
 20
398.1758791484
 10
558.0446312958
 20
396.921395091
 10
558.0448920661
 20
395.6925857343
 10
558.0454061561
 20
394.5397722997
 10
558.0461586648
 20
393.5101318635
 10
558.0471048885
 20
392.645834712
 10
558.0482224756
 20
391.9822562017
 10
558.0494518214
 20
391.5465611495
 10
558.0507482224
 20
391.3566011466
 10
558.052052074
 20
391.420139698
 10
558.0533261233
 20
391.7345691003
 10
558.0545033151
 20
392.2870445527
 10
558.0555389458
 20
393.0549162902
 10
558.0563883119
 20
394.006772665
 10
558.0570290619
 20
395.1036322393
 10
558.0574164921
 20
396.3005829133
 10
558.0575506025
 20
397.5486445703
  0
LWPOLYLINE
  5
2AA
330
1F
100
AcDbEntity
  8
0
  6
Continuous
 62
     7
370
    25
100
AcDbPolyline
 90
       32
 70
   128
 43
0.0
 10
558.045532816
 20
365.0486383118
 10
558.0453987056
 20
366.2966850676
 10
558.0450112754
 20
367.4936431922
 10
558.0443705254
 20
368.5905027665
 10
558.0435211593
 20
369.5423516907
 10
558.0424855286
 20
370.3102308788
 10
558.0413083368
 20
370.8626988806
 10
558.0400342875
 20
371.1771431841
 10
558.0387304359
 20
371.2406817355
 10
558.0374340349
 20
371.050714282
 10
558.0362046891
 20
370.6150266804
 10
558.0350945526
 20
369.9514481701
 10
558.0341408783
 20
369.087143568
 10
558.0333958202
 20
368.0575105824
 10
558.0328742796
 20
366.9046896972
 10
558.0326135093
 20
365.6758803405
 10
558.0326135093
 20
364.4213962831
 10
558.0328742796
 20
363.1925869264
 10
558.0333958202
 20
362.0397660412
 10
558.0341408783
 20
361.010125605
 10
558.0350945526
 20
360.1458284535
 10
558.0362046891
 20
359.4822499432
 10
558.0374340349
 20
359.0465623416
 10
558.0387304359
 20
358.8565948882
 10
558.0400342875
 20
358.9201334395
 10
558.0413083368
 20
359.2345702924
 10
558.0424855286
 20
359.7870457448
 10
558.0435211593
 20
360.5549249329
 10
558.0443705254
 20
361.5067738571
 10
558.0450112754
 20
362.6036334314
 10
558.0453987056
 20
363.8005841054
 10
558.045532816
 20
365.0486383118
  0
LINE
  5
2AB
330
1F
100
AcDbEntity
  8
0
  6
Continuous
 62
     7
370
    25
100
AcDbLine
 10
558.061521762
 20
440.0486338415
 30
0.0
 11
558.0301771694
 21
440.0486338415
 31
0.0
  0
LINE
  5
2AC
330
1F
100
AcDbEntity
  8
0
  6
Continuous
 62
     7
370
    25
100
AcDbLine
 10
558.061521762
 20
355.048640398
 30
0.0
 11
558.0301771694
 21
355.048640398
 31
0.0
  0
LINE
  5
2AD
330
1F
100
AcDbEntity
  8
0
  6
Continuous
 62
     7
370
    25
100
AcDbLine
 10
562.3298625284
 20
440.0486338415
 30
0.0
 11
562.3298625284
 21
355.048640398
 31
0.0
  0
LINE
  5
2AE
330
1F
100
AcDbEntity
  8
0
  6
Continuous
 62
     7
370
    25
100
AcDbLine
 10
561.8615190321
 20
440.0486338415
 30
0.0
 11
562.3298625284
 21
440.0486338415
 31
0.0
  0
LINE
  5
2AF
330
1F
100
AcDbEntity
  8
0
  6
Continuous
 62
     7
370
    25
100
AcDbLine
 10
562.3298625284
 20
355.048640398
 30
0.0
 11
561.8615190321
 21
355.048640398
 31
0.0
  0
LINE
  5
2B0
330
1F
100
AcDbEntity
  8
0
  6
Continuous
 62
     7
370
    25
100
AcDbLine
 10
554.4893632465
 20
355.048640398
 30
0.0
 11
554.4893632465
 21
440.0486338415
 31
0.0
  0
LINE
  5
2B1
330
1F
100
AcDbEntity
  8
0
  6
Continuous
 62
     7
370
    25
100
AcDbLine
 10
558.0301771694
 20
440.0486338415
 30
0.0
 11
554.4893632465
 21
440.0486338415
 31
0.0
  0
LINE
  5
2B2
330
1F
100
AcDbEntity
  8
0
  6
Continuous
 62
     7
370
    25
100
AcDbLine
 10
558.0301771694
 20
355.048640398
 30
0.0
 11
554.4893632465
 21
355.048640398
 31
0.0
  0
LINE
  5
2B3
330
1F
100
AcDbEntity
  8
0
  6
Continuous
 62
     7
370
    25
100
AcDbLine
 10
563.3716027075
 20
355.048640398
 30
0.0
 11
563.3716027075
 21
440.0486338415
 31
0.0
  0
LINE
  5
2B4
330
1F
100
AcDbEntity
  8
0
  6
Continuous
 62
     7
370
    25
100
AcDbLine
 10
563.830171042
 20
355.048640398
 30
0.0
 11
563.830171042
 21
440.0486338415
 31
0.0
  0
LINE
  5
2B5
330
1F
100
AcDbEntity
  8
0
  6
Continuous
 62
     7
370
    25
100
AcDbLine
 10
563.3716027075
 20
440.0486338415
 30
0.0
 11
563.830171042
 21
440.0486338415
 31
0.0
  0
LINE
  5
2B6
330
1F
100
AcDbEntity
  8
0
  6
Continuous
 62
     7
370
    25
100
AcDbLine
 10
563.830171042
 20
355.048640398
 30
0.0
 11
563.3716027075
 21
355.048640398
 31
0.0
  0
LINE
  5
2B7
330
1F
100
AcDbEntity
  8
0
  6
Continuous
 62
     7
370
    25
100
AcDbLine
 10
565.0020132595
 20
355.048640398
 30
0.0
 11
565.0020132595
 21
440.0486338415
 31
0.0
  0
LINE
  5
2B8
330
1F
100
AcDbEntity
  8
0
  6
Continuous
 62
     7
370
    25
100
AcDbLine
 10
563.830171042
 20
440.0486338415
 30
0.0
 11
565.0020132595
 21
440.0486338415
 31
0.0
  0
LINE
  5
2B9
330
1F
100
AcDbEntity
  8
0
  6
Continuous
 62
     7
370
    25
100
AcDbLine
 10
563.830171042
 20
355.048640398
 30
0.0
 11
565.0020132595
 21
355.048640398
 31
0.0
  0
LINE
  5
2BA
330
1F
100
AcDbEntity
  8
0
  6
Continuous
 62
     7
370
    25
100
AcDbLine
 10
565.4992352062
 20
355.048640398
 30
0.0
 11
565.4992352062
 21
440.0486338415
 31
0.0
  0
LINE
  5
2BB
330
1F
100
AcDbEntity
  8
0
  6
Continuous
 62
     7
370
    25
100
AcDbLine
 10
565.0020132595
 20
440.0486338415
 30
0.0
 11
565.4992352062
 21
440.0486338415
 31
0.0
  0
LINE
  5
2BC
330
1F
100
AcDbEntity
  8
0
  6
Continuous
 62
     7
370
    25
100
AcDbLine
 10
565.4992352062
 20
355.048640398
 30
0.0
 11
565.0020132595
 21
355.048640398
 31
0.0
  0
LINE
  5
2BD
330
1F
100
AcDbEntity
  8
0
  6
Continuous
 62
     7
370
    25
100
AcDbLine
 10
562.3298625284
 20
440.0486338415
 30
0.0
 11
563.3716027075
 21
440.0486338415
 31
0.0
  0
LINE
  5
2BE
330
1F
100
AcDbEntity
  8
0
  6
Continuous
 62
     7
370
    25
100
AcDbLine
 10
562.3298625284
 20
355.048640398
 30
0.0
 11
563.3716027075
 21
355.048640398
 31
0.0
  0
LINE
  5
2BF
330
1F
100
AcDbEntity
  8
0
  6
Continuous
 62
     7
370
    25
100
AcDbLine
 10
568.4854949647
 20
440.0486338415
 30
0.0
 11
568.4854949647
 21
355.048640398
 31
0.0
  0
LINE
  5
2C0
330
1F
100
AcDbEntity
  8
0
  6
Continuous
 62
     7
370
    25
100
AcDbLine
 10
565.4992352062
 20
440.0486338415
 30
0.0
 11
568.4854949647
 21
440.0486338415
 31
0.0
  0
LINE
  5
2C1
330
1F
100
AcDbEntity
  8
0
  6
Continuous
 62
     7
370
    25
100
AcDbLine
 10
568.4854949647
 20
355.048640398
 30
0.0
 11
565.4992352062
 21
355.048640398
 31
0.0
  0
SPLINE
  5
2C2
330
1F
100
AcDbEntity
  8
0
  6
Continuous
 62
     7
370
    25
100
AcDbSpline
210
0.0
220
0.0
230
1.0
 70
    11
 71
     3
 72
    26
 73
    22
 74
     0
 42
0.000000001
 43
0.00000001
 40
0.0
 40
0.0
 40
0.0
 40
0.0
 40
0.0531119178362141
 40
0.1062037503872452
 40
0.1598221161447874
 40
0.2137977163014592
 40
0.2672065758792894
 40
0.3200222675262615
 40
0.3731150062629634
 40
0.4269333937347714
 40
0.4808186249407191
 40
0.5339752362807599
 40
0.5867527218387795
 40
0.6400829684818938
 40
0.6940396936243897
 40
0.747728413185062
 40
0.8006841818329241
 40
0.8535717634216514
 40
0.9071463742702909
 40
0.9611297349783922
 40
1.0
 40
1.0
 40
1.0
 40
1.0
 10
545.8384345107896
 20
428.548632887781
 30
0.0
 10
545.8333614078716
 20
428.8272803716403
 30
0.0
 10
545.8232171205264
 20
429.3844699634957
 30
0.0
 10
545.7529297520307
 20
430.1277287613238
 30
0.0
 10
545.6742029878977
 20
430.6986976012044
 30
0.0
 10
545.6165237179026
 20
431.0301440145525
 30
0.0
 10
545.6063212151519
 20
431.0810394763251
 30
0.0
 10
545.6463359876508
 20
430.8510915720227
 30
0.0
 10
545.7192728582984
 20
430.3679610511195
 30
0.0
 10
545.7945647194784
 20
429.6785474208007
 30
0.0
 10
545.838436172793
 20
428.8588584812323
 30
0.0
 10
545.8309763248459
 20
428.008941266504
 30
0.0
 10
545.7766265623263
 20
427.2239360891585
 30
0.0
 10
545.6989441259179
 20
426.5827280114879
 30
0.0
 10
545.6311924950381
 20
426.1571368728381
 30
0.0
 10
545.6038016322783
 20
426.0014556662514
 30
0.0
 10
545.6282497700416
 20
426.1308791943957
 30
0.0
 10
545.6938839716279
 20
426.5257796465176
 30
0.0
 10
545.7729181085425
 20
427.1465907051015
 30
0.0
 10
545.8292866211498
 20
427.8593281006281
 30
0.0
 10
545.8357350696126
 20
428.3452266597652
 30
0.0
 10
545.8384345107896
 20
428.548632887781
 30
0.0
  0
LINE
  5
2C3
330
1F
100
AcDbEntity
  8
0
  6
Continuous
 62
     7
370
    25
100
AcDbLine
 10
568.4854949647
 20
440.0486338415
 30
0.0
 11
573.8124142223
 21
440.0486338415
 31
0.0
  0
LINE
  5
2C4
330
1F
100
AcDbEntity
  8
0
  6
Continuous
 62
     7
370
    25
100
AcDbLine
 10
545.6124136978
 20
440.0486338415
 30
0.0
 11
554.4893632465
 21
440.0486338415
 31
0.0
  0
LINE
  5
2C5
330
1F
100
AcDbEntity
  8
0
  6
Continuous
 62
     7
370
    25
100
AcDbLine
 10
568.4854949647
 20
355.048640398
 30
0.0
 11
573.8124142223
 21
355.048640398
 31
0.0
  0
LINE
  5
2C6
330
1F
100
AcDbEntity
  8
0
  6
Continuous
 62
     7
370
    25
100
AcDbLine
 10
545.6124136978
 20
355.048640398
 30
0.0
 11
554.4893632465
 21
355.048640398
 31
0.0
  0
LINE
  5
2C7
330
1F
100
AcDbEntity
  8
0
  6
Continuous
 62
     7
370
    25
100
AcDbLine
 10
557.6124082142
 20
265.9486371555
 30
0.0
 11
557.6124082142
 21
350.9486380495
 31
0.0
  0
LINE
  5
2C8
330
1F
100
AcDbEntity
  8
0
  6
Continuous
 62
     7
370
    25
100
AcDbLine
 10
561.4124129349
 20
265.9486371555
 30
0.0
 11
561.4124129349
 21
350.9486380495
 31
0.0
  0
LINE
  5
2C9
330
1F
100
AcDbEntity
  8
0
  6
Continuous
 62
     7
370
    25
100
AcDbLine
 10
557.6124082142
 20
350.9486380495
 30
0.0
 11
561.4124129349
 21
350.9486380495
 31
0.0
  0
LINE
  5
2CA
330
1F
100
AcDbEntity
  8
0
  6
Continuous
 62
     7
370
    25
100
AcDbLine
 10
557.6124082142
 20
265.9486371555
 30
0.0
 11
561.4124129349
 21
265.9486371555
 31
0.0
  0
LINE
  5
2CB
330
1F
100
AcDbEntity
  8
0
  6
Continuous
 62
     7
370
    25
100
AcDbLine
 10
565.1139060789
 20
350.9486380495
 30
0.0
 11
565.1139060789
 21
265.9486371555
 31
0.0
  0
LINE
  5
2CC
330
1F
100
AcDbEntity
  8
0
  6
Continuous
 62
     7
370
    25
100
AcDbLine
 10
561.4124129349
 20
350.9486380495
 30
0.0
 11
565.1139060789
 21
350.9486380495
 31
0.0
  0
LINE
  5
2CD
330
1F
100
AcDbEntity
  8
0
  6
Continuous
 62
     7
370
    25
100
AcDbLine
 10
565.1139060789
 20
265.9486371555
 30
0.0
 11
561.4124129349
 21
265.9486371555
 31
0.0
  0
LINE
  5
2CE
330
1F
100
AcDbEntity
  8
0
  6
Continuous
 62
     7
370
    25
100
AcDbLine
 10
557.1124146515
 20
265.9486371555
 30
0.0
 11
557.1124146515
 21
350.9486380495
 31
0.0
  0
LINE
  5
2CF
330
1F
100
AcDbEntity
  8
0
  6
Continuous
 62
     7
370
    25
100
AcDbLine
 10
557.1124146515
 20
350.9486380495
 30
0.0
 11
557.6124082142
 21
350.9486380495
 31
0.0
  0
LINE
  5
2D0
330
1F
100
AcDbEntity
  8
0
  6
Continuous
 62
     7
370
    25
100
AcDbLine
 10
557.6124082142
 20
265.9486371555
 30
0.0
 11
557.1124146515
 21
265.9486371555
 31
0.0
  0
LINE
  5
2D1
330
1F
100
AcDbEntity
  8
0
  6
Continuous
 62
     7
370
    25
100
AcDbLine
 10
555.6124116116
 20
265.9486371555
 30
0.0
 11
555.6124116116
 21
350.9486380495
 31
0.0
  0
LINE
  5
2D2
330
1F
100
AcDbEntity
  8
0
  6
Continuous
 62
     7
370
    25
100
AcDbLine
 10
556.0706670218
 20
350.9486380495
 30
0.0
 11
556.0706670218
 21
265.9486371555
 31
0.0
  0
LINE
  5
2D3
330
1F
100
AcDbEntity
  8
0
  6
Continuous
 62
     7
370
    25
100
AcDbLine
 10
555.6124116116
 20
350.9486380495
 30
0.0
 11
556.0706670218
 21
350.9486380495
 31
0.0
  0
LINE
  5
2D4
330
1F
100
AcDbEntity
  8
0
  6
Continuous
 62
     7
370
    25
100
AcDbLine
 10
556.0706670218
 20
265.9486371555
 30
0.0
 11
555.6124116116
 21
265.9486371555
 31
0.0
  0
LINE
  5
2D5
330
1F
100
AcDbEntity
  8
0
  6
Continuous
 62
     7
370
    25
100
AcDbLine
 10
540.3625110918
 20
350.9486380495
 30
0.0
 11
540.3625110918
 21
265.9486371555
 31
0.0
  0
LINE
  5
2D6
330
1F
100
AcDbEntity
  8
0
  6
Continuous
 62
     7
370
    25
100
AcDbLine
 10
555.6124116116
 20
350.9486380495
 30
0.0
 11
540.3625110918
 21
350.9486380495
 31
0.0
  0
LINE
  5
2D7
330
1F
100
AcDbEntity
  8
0
  6
Continuous
 62
     7
370
    25
100
AcDbLine
 10
555.6124116116
 20
265.9486371555
 30
0.0
 11
540.3625110918
 21
265.9486371555
 31
0.0
  0
LINE
  5
2D8
330
1F
100
AcDbEntity
  8
0
  6
Continuous
 62
     7
370
    25
100
AcDbLine
 10
538.3625070387
 20
350.9486380495
 30
0.0
 11
540.3625110918
 21
350.9486380495
 31
0.0
  0
LINE
  5
2D9
330
1F
100
AcDbEntity
  8
0
  6
Continuous
 62
     7
370
    25
100
AcDbLine
 10
540.3625110918
 20
265.9486371555
 30
0.0
 11
538.3625070387
 21
265.9486371555
 31
0.0
  0
LINE
  5
2DA
330
1F
100
AcDbEntity
  8
0
  6
Continuous
 62
     7
370
    25
100
AcDbLine
 10
556.0706670218
 20
350.9486380495
 30
0.0
 11
557.1124146515
 21
350.9486380495
 31
0.0
  0
LINE
  5
2DB
330
1F
100
AcDbEntity
  8
0
  6
Continuous
 62
     7
370
    25
100
AcDbLine
 10
556.0706670218
 20
265.9486371555
 30
0.0
 11
557.1124146515
 21
265.9486371555
 31
0.0
  0
LINE
  5
2DC
330
1F
100
AcDbEntity
  8
0
  6
Continuous
 62
     7
370
    25
100
AcDbLine
 10
573.8124142223
 20
350.9486380495
 30
0.0
 11
565.1139060789
 21
350.9486380495
 31
0.0
  0
LINE
  5
2DD
330
1F
100
AcDbEntity
  8
0
  6
Continuous
 62
     7
370
    25
100
AcDbLine
 10
565.1139060789
 20
265.9486371555
 30
0.0
 11
573.8124142223
 21
265.9486371555
 31
0.0
  0
LINE
  5
2DE
330
1F
100
AcDbEntity
  8
0
  6
Continuous
 62
     7
370
    25
100
AcDbLine
 10
545.71240794
 20
442.4486297645
 30
0.0
 11
573.7124125296
 21
442.4486297645
 31
0.0
  0
LINE
  5
2DF
330
1F
100
AcDbEntity
  8
0
  6
Continuous
 62
     7
370
    25
100
AcDbLine
 10
545.71240794
 20
440.4486406125
 30
0.0
 11
573.7124125296
 21
440.4486406125
 31
0.0
  0
LINE
  5
2E0
330
1F
100
AcDbEntity
  8
0
  6
Continuous
 62
     7
370
    25
100
AcDbLine
 10
573.7124125296
 20
263.9486370605
 30
0.0
 11
545.71240794
 21
263.9486370605
 31
0.0
  0
ARC
  5
2E1
330
1F
100
AcDbEntity
  8
0
  6
Continuous
 62
     7
370
    25
100
AcDbCircle
 10
560.8892943536
 20
289.879361202
 30
0.0
 40
28.79876163102509
100
AcDbArc
 50
267.6579179812
 51
270.6646497574
  0
ARC
  5
2E2
330
1F
100
AcDbEntity
  8
0
  6
Continuous
 62
     7
370
    25
100
AcDbCircle
 10
562.6912006583
 20
261.5961064975
 30
0.0
 40
0.5151037827766509
100
AcDbArc
 50
252.5691829621
 51
293.7705528839
  0
ARC
  5
2E3
330
1F
100
AcDbEntity
  8
0
  6
Continuous
 62
     7
370
    25
100
AcDbCircle
 10
561.5137818092
 20
282.8533385785
 30
0.0
 40
21.77273659244464
100
AcDbArc
 50
266.3527408206
 51
273.6472591794
  0
ARC
  5
2E4
330
1F
100
AcDbEntity
  8
0
  6
Continuous
 62
     7
370
    25
100
AcDbCircle
 10
558.5355276996
 20
289.8815524556
 30
0.0
 40
28.80095223342882
100
AcDbArc
 50
266.8288958926
 51
273.1711041074
  0
ARC
  5
2E5
330
1F
100
AcDbEntity
  8
0
  6
Continuous
 62
     7
370
    25
100
AcDbCircle
 10
556.7332038632
 20
261.6005672423
 30
0.0
 40
0.5197862993056402
100
AcDbArc
 50
265.2886383712
 51
293.7225237538
  0
ARC
  5
2E6
330
1F
100
AcDbEntity
  8
0
  6
Continuous
 62
     7
370
    25
100
AcDbCircle
 10
557.9110465328
 20
282.8493247221
 30
0.0
 40
21.76872473249027
100
AcDbArc
 50
267.3061184216
 51
270.7643937659
  0
LINE
  5
2E7
330
1F
100
AcDbEntity
  8
0
  6
Continuous
 62
     7
370
    25
100
AcDbLine
 10
551.6500959926
 20
351.2486356773
 30
0.0
 11
573.7124125296
 21
351.2486356773
 31
0.0
  0
LINE
  5
2E8
330
1F
100
AcDbEntity
  8
0
  6
Continuous
 62
     7
370
    25
100
AcDbLine
 10
545.71240794
 20
351.2486356773
 30
0.0
 11
551.6500959926
 21
351.2486356773
 31
0.0
  0
LINE
  5
2E9
330
1F
100
AcDbEntity
  8
0
  6
Continuous
 62
     7
370
    25
100
AcDbLine
 10
685.2125713974
 20
505.5799536441
 30
0.0
 11
685.210820511
 21
505.5799536441
 31
0.0
  0
LINE
  5
2EA
330
1F
100
AcDbEntity
  8
0
  6
Continuous
 62
     7
370
    25
100
AcDbLine
 10
685.2125713974
 20
505.5799536441
 30
0.0
 11
685.210820511
 21
503.9045117829
 31
0.0
  0
LINE
  5
2EB
330
1F
100
AcDbEntity
  8
0
  6
Continuous
 62
     7
370
    25
100
AcDbLine
 10
685.2090696246
 20
502.2290624712
 30
0.0
 11
685.2086039633
 21
501.779956374
 31
0.0
  0
LINE
  5
2EC
330
1F
100
AcDbEntity
  8
0
  6
Continuous
 62
     7
370
    25
100
AcDbLine
 10
685.2086039633
 20
501.779956374
 30
0.0
 11
655.4086191952
 21
501.8110923503
 31
0.0
  0
ARC
  5
2ED
330
1F
100
AcDbEntity
  8
0
  6
Continuous
 62
     7
370
    25
100
AcDbCircle
 10
655.4080960453
 20
501.3110935068
 30
0.0
 40
0.5000000000000756
100
AcDbArc
 50
89.9401328233
 51
179.9401328233
  0
LINE
  5
2EE
330
1F
100
AcDbEntity
  8
0
  6
Continuous
 62
     7
370
    25
100
AcDbLine
 10
654.9080966413
 20
501.3116128776
 30
0.0
 11
654.9070069939
 21
500.2698726986
 31
0.0
  0
ARC
  5
2EF
330
1F
100
AcDbEntity
  8
0
  6
Continuous
 62
     7
370
    25
100
AcDbCircle
 10
655.4070075503
 20
500.269351645
 30
0.0
 40
0.4999999999999962
100
AcDbArc
 50
179.9401328233
 51
246.3619543451
  0
LINE
  5
2F0
330
1F
100
AcDbEntity
  8
0
  6
Continuous
 62
     7
370
    25
100
AcDbLine
 10
655.2065296471
 20
499.811304364
 30
0.0
 11
655.2053040266
 21
498.6394621465
 31
0.0
  0
ARC
  5
2F1
330
1F
100
AcDbEntity
  8
0
  6
Continuous
 62
     7
370
    25
100
AcDbCircle
 10
654.7053046783
 20
498.6399872171
 30
0.0
 40
0.5000000000000756
100
AcDbArc
 50
275.4452800798
 51
359.9401328233
  0
ARC
  5
2F2
330
1F
100
AcDbEntity
  8
0
  6
Continuous
 62
     7
370
    25
100
AcDbCircle
 10
655.5119127139
 20
490.1783453269
 30
0.0
 40
8.000000000000052
100
AcDbArc
 50
95.4452800797
 51
141.5227044802
  0
ARC
  5
2F3
330
1F
100
AcDbEntity
  8
0
  6
Continuous
 62
     7
370
    25
100
AcDbCircle
 10
648.2108221203
 20
517.429064009
 30
0.0
 40
3.933012701892207
100
AcDbArc
 50
273.1431507352
 51
90.0
  0
ARC
  5
2F4
330
1F
100
AcDbEntity
  8
0
  6
Continuous
 62
     7
370
    25
100
AcDbCircle
 10
648.2108221203
 20
517.429064009
 30
0.0
 40
3.933012701892243
100
AcDbArc
 50
90.0
 51
193.7991385309
  0
LINE
  5
2F5
330
1F
100
AcDbEntity
  8
0
  6
Continuous
 62
     7
370
    25
100
AcDbLine
 10
632.7925051935
 20
516.9464327429
 30
0.0
 11
652.4422664568
 21
525.1253970001
 31
0.0
  0
ARC
  5
2F6
330
1F
100
AcDbEntity
  8
0
  6
Continuous
 62
     7
370
    25
100
AcDbCircle
 10
653.2108221203
 20
523.2789648421
 30
0.0
 40
2.0
100
AcDbArc
 50
0.0
 51
112.5989132849
  0
LINE
  5
2F7
330
1F
100
AcDbEntity
  8
0
  6
Continuous
 62
     7
370
    25
100
AcDbLine
 10
655.2108230442
 20
508.0290637944
 30
0.0
 11
655.2108230442
 21
523.2789643142
 31
0.0
  0
ARC
  5
2F8
330
1F
100
AcDbEntity
  8
0
  6
Continuous
 62
     7
370
    25
100
AcDbCircle
 10
655.4108221203
 20
507.5708064395
 30
0.0
 40
0.5000000000001137
100
AcDbArc
 50
113.5781784782
 51
180.0
  0
LINE
  5
2F9
330
1F
100
AcDbEntity
  8
0
  6
Continuous
 62
     7
370
    25
100
AcDbLine
 10
654.9108216912
 20
507.5708083842
 30
0.0
 11
654.9108216912
 21
506.5290607546
 31
0.0
  0
ARC
  5
2FA
330
1F
100
AcDbEntity
  8
0
  6
Continuous
 62
     7
370
    25
100
AcDbCircle
 10
655.4108221203
 20
506.529064009
 30
0.0
 40
0.5000000000001137
100
AcDbArc
 50
180.0
 51
270.0
  0
LINE
  5
2FB
330
1F
100
AcDbEntity
  8
0
  6
Continuous
 62
     7
370
    25
100
AcDbLine
 10
655.4108227045
 20
506.0290671919
 30
0.0
 11
685.210820511
 21
506.0290671919
 31
0.0
  0
LINE
  5
2FC
330
1F
100
AcDbEntity
  8
0
  6
Continuous
 62
     7
370
    25
100
AcDbLine
 10
685.210820511
 20
506.0290671919
 30
0.0
 11
685.210820511
 21
502.2290624712
 31
0.0
  0
LINE
  5
2FD
330
1F
100
AcDbEntity
  8
0
  6
Continuous
 62
     7
370
    25
100
AcDbLine
 10
685.210820511
 20
502.2290624712
 30
0.0
 11
656.777458489
 21
502.2290624712
 31
0.0
  0
ARC
  5
2FE
330
1F
100
AcDbEntity
  8
0
  6
Continuous
 62
     7
370
    25
100
AcDbCircle
 10
656.7774588648
 20
496.229064009
 30
0.0
 40
6.0
100
AcDbArc
 50
90.0
 51
157.4751201664
  0
ARC
  5
2FF
330
1F
100
AcDbEntity
  8
0
  6
Continuous
 62
     7
370
    25
100
AcDbCircle
 10
638.2108221203
 20
503.929064009
 30
0.0
 40
14.10000000000007
100
AcDbArc
 50
112.5989132849
 51
337.4751201664
  0
ARC
  5
300
330
1F
100
AcDbEntity
  8
0
  6
Continuous
 62
     7
370
    25
100
AcDbCircle
 10
648.2108221203
 20
517.429064009
 30
0.0
 40
3.500000000000083
100
AcDbArc
 50
266.586723806
 51
90.0
  0
ARC
  5
301
330
1F
100
AcDbEntity
  8
0
  6
Continuous
 62
     7
370
    25
100
AcDbCircle
 10
648.2108221203
 20
517.429064009
 30
0.0
 40
3.5
100
AcDbArc
 50
90.0
 51
200.3555654601
  0
CIRCLE
  5
302
330
1F
100
AcDbEntity
  8
0
  6
Continuous
 62
     7
370
    25
100
AcDbCircle
 10
638.2108221203
 20
503.929064009
 30
0.0
 40
14.00000000000006
  0
LWPOLYLINE
  5
303
330
1F
100
AcDbEntity
  8
0
  6
Continuous
 62
     7
370
    25
100
AcDbPolyline
 90
        9
 70
   128
 43
0.0
 10
634.7718287632
 20
504.3453849886
 10
634.9416011851
 20
503.9473079179
 10
635.111456262
 20
503.549037132
 10
635.2813665196
 20
503.1506396864
 10
635.4513040185
 20
502.7521751855
 10
635.6212417502
 20
502.3537181351
 10
635.7911520079
 20
501.9553132389
 10
635.9610070847
 20
501.5570424531
 10
636.1307795067
 20
501.1589728329
  0
LWPOLYLINE
  5
304
330
1F
100
AcDbEntity
  8
0
  6
Continuous
 62
     7
370
    25
100
AcDbPolyline
 90
        9
 70
   128
 43
0.0
 10
636.1307795067
 20
501.1589728329
 10
636.5604099026
 20
501.1069603298
 10
636.9902492641
 20
501.0549254749
 10
637.4202278583
 20
501.0028682683
 10
637.8502762143
 20
500.9508110616
 10
638.280324534
 20
500.8987464044
 10
638.7103032228
 20
500.8466966484
 10
639.140142526
 20
500.7946543429
 10
639.5697728638
 20
500.7426492903
  0
LWPOLYLINE
  5
305
330
1F
100
AcDbEntity
  8
0
  6
Continuous
 62
     7
370
    25
100
AcDbPolyline
 90
        9
 70
   128
 43
0.0
 10
639.5697728638
 20
500.7426492903
 10
639.8296307214
 20
501.0887138579
 10
640.089615006
 20
501.4349497888
 10
640.3496835753
 20
501.7812900279
 10
640.609794287
 20
502.1276973222
 10
640.8699047659
 20
502.4740971658
 10
641.1299733352
 20
502.8204448555
 10
641.3899576198
 20
503.1666733358
 10
641.6498154774
 20
503.5127379034
  0
LWPOLYLINE
  5
306
330
1F
100
AcDbEntity
  8
0
  6
Continuous
 62
     7
370
    25
100
AcDbPolyline
 90
        9
 70
   128
 43
0.0
 10
641.6498154774
 20
503.5127379034
 10
641.4800430555
 20
503.9108149741
 10
641.3101879787
 20
504.3090857599
 10
641.140277721
 20
504.7074832056
 10
640.9703402221
 20
505.1059477065
 10
640.8004024904
 20
505.5044122074
 10
640.6304922328
 20
505.9028096531
 10
640.4606371559
 20
506.3010804389
 10
640.290864734
 20
506.6991575096
  0
LWPOLYLINE
  5
307
330
1F
100
AcDbEntity
  8
0
  6
Continuous
 62
     7
370
    25
100
AcDbPolyline
 90
        9
 70
   128
 43
0.0
 10
640.290864734
 20
506.6991575096
 10
639.861234338
 20
506.7511700127
 10
639.4313949766
 20
506.8032048676
 10
639.0014163824
 20
506.8552546237
 10
638.5713680263
 20
506.9073192809
 10
638.1413197066
 20
506.9593839381
 10
637.7113410179
 20
507.0114336941
 10
637.2815017146
 20
507.063468549
 10
636.8518713769
 20
507.1154810522
  0
LWPOLYLINE
  5
308
330
1F
100
AcDbEntity
  8
0
  6
Continuous
 62
     7
370
    25
100
AcDbPolyline
 90
        9
 70
   128
 43
0.0
 10
636.8518713769
 20
507.1154810522
 10
636.5920135193
 20
506.7694164846
 10
636.3320292346
 20
506.4231805537
 10
636.0719606653
 20
506.0768328641
 10
635.8118499536
 20
505.7304330204
 10
635.5517394748
 20
505.3840331767
 10
635.2916709054
 20
505.0376854871
 10
635.0316866208
 20
504.6914495561
 10
634.7718287632
 20
504.3453849886
  0
ARC
  5
309
330
1F
100
AcDbEntity
  8
0
  6
Continuous
 62
     7
370
    25
100
AcDbCircle
 10
638.2108221203
 20
503.929064009
 30
0.0
 40
2.99999999999996
100
AcDbArc
 50
263.0973951396
 51
323.0973951396
  0
ARC
  5
30A
330
1F
100
AcDbEntity
  8
0
  6
Continuous
 62
     7
370
    25
100
AcDbCircle
 10
638.2108221203
 20
503.929064009
 30
0.0
 40
2.99999999999996
100
AcDbArc
 50
203.0973951396
 51
263.0973951396
  0
ARC
  5
30B
330
1F
100
AcDbEntity
  8
0
  6
Continuous
 62
     7
370
    25
100
AcDbCircle
 10
638.2108221203
 20
503.929064009
 30
0.0
 40
2.999999999999956
100
AcDbArc
 50
323.0973951396
 51
23.0973951396
  0
ARC
  5
30C
330
1F
100
AcDbEntity
  8
0
  6
Continuous
 62
     7
370
    25
100
AcDbCircle
 10
638.2108221203
 20
503.929064009
 30
0.0
 40
3.000000000000082
100
AcDbArc
 50
143.0973951396
 51
203.0973951396
  0
ARC
  5
30D
330
1F
100
AcDbEntity
  8
0
  6
Continuous
 62
     7
370
    25
100
AcDbCircle
 10
638.2108221203
 20
503.929064009
 30
0.0
 40
3.000000000000072
100
AcDbArc
 50
23.0973951396
 51
83.0973951396
  0
ARC
  5
30E
330
1F
100
AcDbEntity
  8
0
  6
Continuous
 62
     7
370
    25
100
AcDbCircle
 10
638.2108221203
 20
503.929064009
 30
0.0
 40
3.000000000000082
100
AcDbArc
 50
83.0973951396
 51
143.0973951396
  0
ARC
  5
30F
330
1F
100
AcDbEntity
  8
0
  6
Continuous
 62
     7
370
    25
100
AcDbCircle
 10
648.2108221203
 20
517.429064009
 30
0.0
 40
2.900000000000027
100
AcDbArc
 50
162.9371289865
 51
219.7477688303
  0
ARC
  5
310
330
1F
100
AcDbEntity
  8
0
  6
Continuous
 62
     7
370
    25
100
AcDbCircle
 10
648.2108221203
 20
517.429064009
 30
0.0
 40
2.900000000000027
100
AcDbArc
 50
247.1945204358
 51
162.9371289865
  0
CIRCLE
  5
311
330
1F
100
AcDbEntity
  8
0
  6
Continuous
 62
     7
370
    25
100
AcDbCircle
 10
648.2108221203
 20
517.429064009
 30
0.0
 40
2.600000000000047
  0
LINE
  5
312
330
1F
100
AcDbEntity
  8
0
  6
Continuous
 62
     7
370
    25
100
AcDbLine
 10
647.8230471164
 20
519.1171519492
 30
0.0
 11
649.4788594917
 21
518.6089254949
 31
0.0
  0
LINE
  5
313
330
1F
100
AcDbEntity
  8
0
  6
Continuous
 62
     7
370
    25
100
AcDbLine
 10
646.5550104529
 20
517.9372854564
 30
0.0
 11
647.8230471164
 21
519.1171519492
 31
0.0
  0
LINE
  5
314
330
1F
100
AcDbEntity
  8
0
  6
Continuous
 62
     7
370
    25
100
AcDbLine
 10
646.9427852333
 20
516.24919996
 30
0.0
 11
646.5550104529
 21
517.9372854564
 31
0.0
  0
LINE
  5
315
330
1F
100
AcDbEntity
  8
0
  6
Continuous
 62
     7
370
    25
100
AcDbLine
 10
648.5985966772
 20
515.7409809563
 30
0.0
 11
646.9427852333
 21
516.24919996
 31
0.0
  0
LINE
  5
316
330
1F
100
AcDbEntity
  8
0
  6
Continuous
 62
     7
370
    25
100
AcDbLine
 10
649.8666342721
 20
516.9208474491
 30
0.0
 11
648.5985966772
 21
515.7409809563
 31
0.0
  0
LINE
  5
317
330
1F
100
AcDbEntity
  8
0
  6
Continuous
 62
     7
370
    25
100
AcDbLine
 10
649.4788594917
 20
518.6089254949
 30
0.0
 11
649.8666342721
 21
516.9208474491
 31
0.0
  0
LWPOLYLINE
  5
318
330
1F
100
AcDbEntity
  8
0
  6
Continuous
 62
     7
370
    25
100
AcDbPolyline
 90
        3
 70
   128
 43
0.0
 10
644.9126794376
 20
518.4413693879
 10
644.7618675791
 20
517.513995621
 10
644.7614252009
 20
517.3645667765
  0
ARC
  5
319
330
1F
100
AcDbEntity
  8
0
  6
Continuous
 62
     7
370
    25
100
AcDbCircle
 10
648.2108221203
 20
517.429064009
 30
0.0
 40
3.450000000000043
100
AcDbArc
 50
120.2319281863
 51
162.9371289865
  0
ARC
  5
31A
330
1F
100
AcDbEntity
  8
0
  6
Continuous
 62
     7
370
    25
100
AcDbCircle
 10
648.2108221203
 20
517.429064009
 30
0.0
 40
1.499999999999945
100
AcDbArc
 50
252.9371289865
 51
312.9371289865
  0
ARC
  5
31B
330
1F
100
AcDbEntity
  8
0
  6
Continuous
 62
     7
370
    25
100
AcDbCircle
 10
648.2108221203
 20
517.429064009
 30
0.0
 40
1.500000000000046
100
AcDbArc
 50
192.9371289865
 51
252.9371289865
  0
ARC
  5
31C
330
1F
100
AcDbEntity
  8
0
  6
Continuous
 62
     7
370
    25
100
AcDbCircle
 10
648.2108221203
 20
517.429064009
 30
0.0
 40
1.500000000000021
100
AcDbArc
 50
312.9371289865
 51
12.9371289865
  0
ARC
  5
31D
330
1F
100
AcDbEntity
  8
0
  6
Continuous
 62
     7
370
    25
100
AcDbCircle
 10
648.2108221203
 20
517.429064009
 30
0.0
 40
1.500000000000046
100
AcDbArc
 50
132.9371289865
 51
192.9371289865
  0
ARC
  5
31E
330
1F
100
AcDbEntity
  8
0
  6
Continuous
 62
     7
370
    25
100
AcDbCircle
 10
648.2108221203
 20
517.429064009
 30
0.0
 40
1.500000000000021
100
AcDbArc
 50
12.9371289865
 51
72.9371289865
  0
ARC
  5
31F
330
1F
100
AcDbEntity
  8
0
  6
Continuous
 62
     7
370
    25
100
AcDbCircle
 10
648.2108221203
 20
517.429064009
 30
0.0
 40
1.499999999999945
100
AcDbArc
 50
72.9371289865
 51
132.9371289865
  0
LWPOLYLINE
  5
320
330
1F
100
AcDbEntity
  8
0
  6
Continuous
 62
     7
370
    25
100
AcDbPolyline
 90
        3
 70
   128
 43
0.0
 10
645.0784231909
 20
517.0965321396
 10
645.3127490729
 20
516.1946915124
 10
645.4501824826
 20
515.9120388363
  0
ARC
  5
321
330
1F
100
AcDbEntity
  8
0
  6
Continuous
 62
     7
370
    25
100
AcDbCircle
 10
648.2108221203
 20
517.429064009
 30
0.0
 40
3.150000000000042
100
AcDbArc
 50
258.152624512
 51
115.2433862107
  0
LWPOLYLINE
  5
322
330
1F
100
AcDbEntity
  8
0
  6
Continuous
 62
     7
370
    25
100
AcDbPolyline
 90
        9
 70
   128
 43
0.0
 10
646.8674598634
 20
520.2782504294
 10
646.8650011718
 20
520.2834658358
 10
646.8577210233
 20
520.2989108894
 10
646.8458978832
 20
520.3239820931
 10
646.8299871683
 20
520.3577332232
 10
646.8105998263
 20
520.3988529775
 10
646.7884799838
 20
520.445761833
 10
646.7644798011
 20
520.4966641996
 10
646.7395203561
 20
520.5496005748
  0
LWPOLYLINE
  5
323
330
1F
100
AcDbEntity
  8
0
  6
Continuous
 62
     7
370
    25
100
AcDbPolyline
 90
        9
 70
   128
 43
0.0
 10
645.0784231909
 20
517.0965321396
 10
645.0726909004
 20
517.0959286425
 10
645.0557142869
 20
517.094125602
 10
645.0281462074
 20
517.0911975239
 10
644.9910460413
 20
517.0872561667
 10
644.9458391778
 20
517.0824579928
 10
644.8942629993
 20
517.0769818161
 10
644.8382993601
 20
517.0710437033
 10
644.7800991498
 20
517.064867172
  0
LWPOLYLINE
  5
324
330
1F
100
AcDbEntity
  8
0
  6
Continuous
 62
     7
370
    25
100
AcDbPolyline
 90
        9
 70
   128
 43
0.0
 10
644.7800991498
 20
517.064867172
 10
644.7790053114
 20
517.123384032
 10
644.7779529169
 20
517.1796508167
 10
644.7769834101
 20
517.2315068577
 10
644.7761335783
 20
517.2769628499
 10
644.7754360177
 20
517.3142604563
 10
644.7749177367
 20
517.3419840667
 10
644.7745987587
 20
517.3590458963
 10
644.7744911909
 20
517.3648126457
  0
ARC
  5
325
330
1F
100
AcDbEntity
  8
0
  6
Continuous
 62
     7
370
    25
100
AcDbCircle
 10
644.7800992857
 20
517.0648651183
 30
0.0
 40
0.3000000000000862
100
AcDbArc
 50
6.0597135926
 51
91.071171617
  0
LINE
  5
326
330
1F
100
AcDbEntity
  8
0
  6
Continuous
 62
     7
370
    25
100
AcDbLine
 10
644.7114336677
 20
517.363635454
 30
0.0
 11
644.7744911909
 21
517.3648126457
 31
0.0
  0
LWPOLYLINE
  5
327
330
1F
100
AcDbEntity
  8
0
  6
Continuous
 62
     7
370
    25
100
AcDbPolyline
 90
        9
 70
   128
 43
0.0
 10
646.4803221077
 20
520.3985549543
 10
646.4853018895
 20
520.4014532302
 10
646.5000521764
 20
520.4100512002
 10
646.5240048617
 20
520.4240135882
 10
646.5562388674
 20
520.4427965019
 10
646.5955173969
 20
520.4656846855
 10
646.6403289139
 20
520.4917989705
 10
646.6889532656
 20
520.5201335285
 10
646.7395203561
 20
520.5496005748
  0
ARC
  5
328
330
1F
100
AcDbEntity
  8
0
  6
Continuous
 62
     7
370
    25
100
AcDbCircle
 10
646.7395201693
 20
520.5496041175
 30
0.0
 40
0.2999999999999833
100
AcDbArc
 50
210.2319281863
 51
295.2433862107
  0
LINE
  5
329
330
1F
100
AcDbEntity
  8
0
  6
Continuous
 62
     7
370
    25
100
AcDbLine
 10
646.4803221077
 20
520.3985549543
 30
0.0
 11
646.4485668019
 21
520.4530410502
 31
0.0
  0
ARC
  5
32A
330
1F
100
AcDbEntity
  8
0
  6
Continuous
 62
     8
370
    25
100
AcDbCircle
 10
648.2108221203
 20
517.429064009
 30
0.0
 40
3.450000000000025
100
AcDbArc
 50
265.6154026605
 51
115.2433862107
  0
LINE
  5
32B
330
1F
100
AcDbEntity
  8
0
  6
Continuous
 62
     8
370
    25
100
AcDbLine
 10
644.9970758893
 20
516.1743365262
 30
0.0
 11
644.7800991498
 21
517.064867172
 31
0.0
  0
LINE
  5
32C
330
1F
100
AcDbEntity
  8
0
  6
Continuous
 62
     8
370
    25
100
AcDbLine
 10
644.7800991498
 20
517.064867172
 30
0.0
 11
644.7299208865
 21
517.0639283989
 31
0.0
  0
LINE
  5
32D
330
1F
100
AcDbEntity
  8
0
  6
Continuous
 62
     8
370
    25
100
AcDbLine
 10
646.7142507807
 20
520.5929629538
 30
0.0
 11
646.7395203561
 21
520.5496005748
 31
0.0
  0
ARC
  5
32E
330
1F
100
AcDbEntity
  8
0
  6
Continuous
 62
     7
370
    25
100
AcDbCircle
 10
655.4070075503
 20
228.3306987273
 30
0.0
 40
0.499999999999962
100
AcDbArc
 50
113.6380456548
 51
180.0598671767
  0
LINE
  5
32F
330
1F
100
AcDbEntity
  8
0
  6
Continuous
 62
     7
370
    25
100
AcDbLine
 10
654.9080966413
 20
227.2884374946
 30
0.0
 11
654.9070069939
 21
228.3301776737
 31
0.0
  0
ARC
  5
330
330
1F
100
AcDbEntity
  8
0
  6
Continuous
 62
     7
370
    25
100
AcDbCircle
 10
655.4080960453
 20
227.2889568655
 30
0.0
 40
0.5000000000000756
100
AcDbArc
 50
180.0598671766
 51
270.0598671767
  0
LINE
  5
331
330
1F
100
AcDbEntity
  8
0
  6
Continuous
 62
     7
370
    25
100
AcDbLine
 10
685.2086039633
 20
226.8200939983
 30
0.0
 11
655.4086191952
 21
226.788958022
 31
0.0
  0
LINE
  5
332
330
1F
100
AcDbEntity
  8
0
  6
Continuous
 62
     7
370
    25
100
AcDbLine
 10
685.2125713974
 20
223.0200967282
 30
0.0
 11
685.2086039633
 21
226.8200939983
 31
0.0
  0
LINE
  5
333
330
1F
100
AcDbEntity
  8
0
  6
Continuous
 62
     7
370
    25
100
AcDbLine
 10
685.2125713974
 20
223.0200967282
 30
0.0
 11
655.2125888318
 21
222.9887521356
 31
0.0
  0
ARC
  5
334
330
1F
100
AcDbEntity
  8
0
  6
Continuous
 62
     7
370
    25
100
AcDbCircle
 10
656.8809226229
 20
217.2253603167
 30
0.0
 40
6.000000000000029
100
AcDbArc
 50
106.1441899464
 51
158.2579130919
  0
ARC
  5
335
330
1F
100
AcDbEntity
  8
0
  6
Continuous
 62
     7
370
    25
100
AcDbCircle
 10
638.2108221203
 20
224.6709863633
 30
0.0
 40
14.09999999999988
100
AcDbArc
 50
38.4772955198
 51
338.2579130919
  0
ARC
  5
336
330
1F
100
AcDbEntity
  8
0
  6
Continuous
 62
     7
370
    25
100
AcDbCircle
 10
654.7053046783
 20
229.9600631552
 30
0.0
 40
0.5000000000000756
100
AcDbArc
 50
0.0598671766
 51
84.5547199202
  0
LINE
  5
337
330
1F
100
AcDbEntity
  8
0
  6
Continuous
 62
     7
370
    25
100
AcDbLine
 10
655.2065296471
 20
228.7887460083
 30
0.0
 11
655.2053040266
 21
229.9605882257
 31
0.0
  0
ARC
  5
338
330
1F
100
AcDbEntity
  8
0
  6
Continuous
 62
     7
370
    25
100
AcDbCircle
 10
655.5119127139
 20
238.4217050453
 30
0.0
 40
7.999999999999969
100
AcDbArc
 50
218.4772955198
 51
264.5547199203
  0
ARC
  5
339
330
1F
100
AcDbEntity
  8
0
  6
Continuous
 62
     7
370
    25
100
AcDbCircle
 10
648.2108221203
 20
211.1709863633
 30
0.0
 40
3.933012701892238
100
AcDbArc
 50
270.0
 51
84.9849805068
  0
ARC
  5
33A
330
1F
100
AcDbEntity
  8
0
  6
Continuous
 62
     7
370
    25
100
AcDbCircle
 10
648.2108221203
 20
211.1709863633
 30
0.0
 40
3.933012701892288
100
AcDbArc
 50
168.0727302271
 51
270.0
  0
LINE
  5
33B
330
1F
100
AcDbEntity
  8
0
  6
Continuous
 62
     7
370
    25
100
AcDbLine
 10
685.210820511
 20
226.3709879011
 30
0.0
 11
685.2090696246
 21
226.3709879011
 31
0.0
  0
LINE
  5
33C
330
1F
100
AcDbEntity
  8
0
  6
Continuous
 62
     7
370
    25
100
AcDbLine
 10
685.210820511
 20
222.5709831804
 30
0.0
 11
685.210820511
 21
223.0200967282
 31
0.0
  0
LINE
  5
33D
330
1F
100
AcDbEntity
  8
0
  6
Continuous
 62
     7
370
    25
100
AcDbLine
 10
685.210820511
 20
224.6955385894
 30
0.0
 11
685.210820511
 21
226.3709879011
 31
0.0
  0
LINE
  5
33E
330
1F
100
AcDbEntity
  8
0
  6
Continuous
 62
     7
370
    25
100
AcDbLine
 10
655.4108227045
 20
222.5709831804
 30
0.0
 11
685.210820511
 21
222.5709831804
 31
0.0
  0
ARC
  5
33F
330
1F
100
AcDbEntity
  8
0
  6
Continuous
 62
     7
370
    25
100
AcDbCircle
 10
655.4108221203
 20
222.0709863633
 30
0.0
 40
0.5000000000001137
100
AcDbArc
 50
90.0
 51
180.0
  0
LINE
  5
340
330
1F
100
AcDbEntity
  8
0
  6
Continuous
 62
     7
370
    25
100
AcDbLine
 10
654.9108216912
 20
221.0292419881
 30
0.0
 11
654.9108216912
 21
222.0709896177
 31
0.0
  0
ARC
  5
341
330
1F
100
AcDbEntity
  8
0
  6
Continuous
 62
     7
370
    25
100
AcDbCircle
 10
655.4108221203
 20
221.0292439328
 30
0.0
 40
0.5000000000001137
100
AcDbArc
 50
180.0
 51
246.4218215218
  0
LINE
  5
342
330
1F
100
AcDbEntity
  8
0
  6
Continuous
 62
     7
370
    25
100
AcDbLine
 10
655.2108230442
 20
220.5709865779
 30
0.0
 11
655.2108230442
 21
205.321086058
 31
0.0
  0
ARC
  5
343
330
1F
100
AcDbEntity
  8
0
  6
Continuous
 62
     7
370
    25
100
AcDbCircle
 10
653.2108221203
 20
205.3210855302
 30
0.0
 40
2.000000000000019
100
AcDbArc
 50
247.4010867151
 51
0.0
  0
LINE
  5
344
330
1F
100
AcDbEntity
  8
0
  6
Continuous
 62
     7
370
    25
100
AcDbLine
 10
632.7925051935
 20
211.6536176294
 30
0.0
 11
652.4422664568
 21
203.4746533722
 31
0.0
  0
ARC
  5
345
330
1F
100
AcDbEntity
  8
0
  6
Continuous
 62
     7
370
    25
100
AcDbCircle
 10
648.2108221203
 20
211.1709863633
 30
0.0
 40
3.5
100
AcDbArc
 50
270.0
 51
90.9776966654
  0
ARC
  5
346
330
1F
100
AcDbEntity
  8
0
  6
Continuous
 62
     7
370
    25
100
AcDbCircle
 10
648.2108221203
 20
211.1709863633
 30
0.0
 40
3.5
100
AcDbArc
 50
162.0721919315
 51
270.0
  0
CIRCLE
  5
347
330
1F
100
AcDbEntity
  8
0
  6
Continuous
 62
     7
370
    25
100
AcDbCircle
 10
638.2108221204
 20
224.6709863633
 30
0.0
 40
13.99999999999999
  0
CIRCLE
  5
348
330
1F
100
AcDbEntity
  8
0
  6
Continuous
 62
     7
370
    25
100
AcDbCircle
 10
648.2108221203
 20
211.1709863633
 30
0.0
 40
2.600000000000042
  0
ARC
  5
349
330
1F
100
AcDbEntity
  8
0
  6
Continuous
 62
     7
370
    25
100
AcDbCircle
 10
648.2108221203
 20
211.1709863633
 30
0.0
 40
2.900000000000036
100
AcDbArc
 50
146.0334595024
 51
57.2513648033
  0
ARC
  5
34A
330
1F
100
AcDbEntity
  8
0
  6
Continuous
 62
     7
370
    25
100
AcDbCircle
 10
648.2108221203
 20
211.1709863633
 30
0.0
 40
2.900000000000036
100
AcDbArc
 50
57.2513648033
 51
107.0242512316
  0
LINE
  5
34B
330
1F
100
AcDbEntity
  8
0
  6
Continuous
 62
     7
370
    25
100
AcDbLine
 10
646.4807635546
 20
211.254042992
 30
0.0
 11
647.4177243561
 21
212.7107879609
 31
0.0
  0
LINE
  5
34C
330
1F
100
AcDbEntity
  8
0
  6
Continuous
 62
     7
370
    25
100
AcDbLine
 10
647.2738610953
 20
209.7142389506
 30
0.0
 11
646.4807635546
 21
211.254042992
 31
0.0
  0
LINE
  5
34D
330
1F
100
AcDbEntity
  8
0
  6
Continuous
 62
     7
370
    25
100
AcDbLine
 10
649.0039194375
 20
209.6311798781
 30
0.0
 11
647.2738610953
 21
209.7142389506
 31
0.0
  0
LINE
  5
34E
330
1F
100
AcDbEntity
  8
0
  6
Continuous
 62
     7
370
    25
100
AcDbLine
 10
649.940880239
 20
211.087924847
 30
0.0
 11
649.0039194375
 21
209.6311798781
 31
0.0
  0
LINE
  5
34F
330
1F
100
AcDbEntity
  8
0
  6
Continuous
 62
     7
370
    25
100
AcDbLine
 10
649.1477826983
 20
212.6277288884
 30
0.0
 11
649.940880239
 21
211.087924847
 31
0.0
  0
LINE
  5
350
330
1F
100
AcDbEntity
  8
0
  6
Continuous
 62
     7
370
    25
100
AcDbLine
 10
647.4177243561
 20
212.7107879609
 30
0.0
 11
649.1477826983
 21
212.6277288884
 31
0.0
  0
ARC
  5
351
330
1F
100
AcDbEntity
  8
0
  6
Continuous
 62
     7
370
    25
100
AcDbCircle
 10
648.2108221203
 20
211.1709863633
 30
0.0
 40
3.45000000000003
100
AcDbArc
 50
25.2213528991
 51
57.2513648033
  0
LWPOLYLINE
  5
352
330
1F
100
AcDbEntity
  8
0
  6
Continuous
 62
     7
370
    25
100
AcDbPolyline
 90
        3
 70
   128
 43
0.0
 10
648.4478416294
 20
214.6128317803
 10
649.2250573263
 20
214.4685363859
 10
650.0771150366
 20
214.072612533
  0
ARC
  5
353
330
1F
100
AcDbEntity
  8
0
  6
Continuous
 62
     7
370
    25
100
AcDbCircle
 10
648.2108221203
 20
211.1709863633
 30
0.0
 40
1.499999999999988
100
AcDbArc
 50
267.2513648033
 51
327.2513648033
  0
ARC
  5
354
330
1F
100
AcDbEntity
  8
0
  6
Continuous
 62
     7
370
    25
100
AcDbCircle
 10
648.2108221203
 20
211.1709863633
 30
0.0
 40
1.499999999999994
100
AcDbArc
 50
147.2513648033
 51
207.2513648033
  0
ARC
  5
355
330
1F
100
AcDbEntity
  8
0
  6
Continuous
 62
     7
370
    25
100
AcDbCircle
 10
648.2108221203
 20
211.1709863633
 30
0.0
 40
1.50000000000002
100
AcDbArc
 50
27.2513648033
 51
87.2513648033
  0
ARC
  5
356
330
1F
100
AcDbEntity
  8
0
  6
Continuous
 62
     7
370
    25
100
AcDbCircle
 10
648.2108221203
 20
211.1709863633
 30
0.0
 40
1.499999999999994
100
AcDbArc
 50
207.2513648033
 51
267.2513648033
  0
ARC
  5
357
330
1F
100
AcDbEntity
  8
0
  6
Continuous
 62
     7
370
    25
100
AcDbCircle
 10
648.2108221203
 20
211.1709863633
 30
0.0
 40
1.50000000000002
100
AcDbArc
 50
327.2513648033
 51
27.2513648033
  0
ARC
  5
358
330
1F
100
AcDbEntity
  8
0
  6
Continuous
 62
     7
370
    25
100
AcDbCircle
 10
648.2108221203
 20
211.1709863633
 30
0.0
 40
1.499999999999988
100
AcDbArc
 50
87.2513648033
 51
147.2513648033
  0
LINE
  5
359
330
1F
100
AcDbEntity
  8
0
  6
Continuous
 62
     7
370
    25
100
AcDbLine
 10
648.1531460211
 20
214.3204560965
 30
0.0
 11
647.7493077889
 21
214.2869955391
 31
0.0
  0
ARC
  5
35A
330
1F
100
AcDbEntity
  8
0
  6
Continuous
 62
     7
370
    25
100
AcDbCircle
 10
648.2108221203
 20
211.1709863633
 30
0.0
 40
3.150000000000049
100
AcDbArc
 50
154.6328333773
 51
20.2328109235
  0
LWPOLYLINE
  5
35B
330
1F
100
AcDbEntity
  8
0
  6
Continuous
 62
     7
370
    25
100
AcDbPolyline
 90
        9
 70
   128
 43
0.0
 10
651.1664513871
 20
212.2603705615
 10
651.1718605086
 20
212.2623598665
 10
651.1878792569
 20
212.2682681769
 10
651.2138910964
 20
212.2778570741
 10
651.2488976494
 20
212.2907540292
 10
651.2915540859
 20
212.3064747542
 10
651.3402194157
 20
212.3244157523
 10
651.3930244744
 20
212.3438766688
 10
651.44793991
 20
212.3641198963
  0
LWPOLYLINE
  5
35C
330
1F
100
AcDbEntity
  8
0
  6
Continuous
 62
     7
370
    25
100
AcDbPolyline
 90
        9
 70
   128
 43
0.0
 10
648.1531460211
 20
214.3204560965
 10
648.1530407816
 20
214.3262228459
 10
648.1527278572
 20
214.3432921261
 10
648.1522202864
 20
214.3710082859
 10
648.1515366957
 20
214.4083133429
 10
648.1507050246
 20
214.4537618846
 10
648.1497550756
 20
214.5056253761
 10
648.1487250328
 20
214.5618921608
 10
648.1476530805
 20
214.6204090208
  0
LWPOLYLINE
  5
35D
330
1F
100
AcDbEntity
  8
0
  6
Continuous
 62
     7
370
    25
100
AcDbPolyline
 90
        9
 70
   128
 43
0.0
 10
648.4469438344
 20
214.5998007149
 10
648.4411929175
 20
214.6001955956
 10
648.4241618216
 20
214.6013653368
 10
648.3965043351
 20
214.6032726854
 10
648.3592840284
 20
214.6058356851
 10
648.3139304817
 20
214.6089574784
 10
648.2621871308
 20
214.6125188559
 10
648.206041418
 20
214.6163857073
 10
648.1476530805
 20
214.6204090208
  0
ARC
  5
35E
330
1F
100
AcDbEntity
  8
0
  6
Continuous
 62
     7
370
    25
100
AcDbCircle
 10
648.1476529843
 20
214.6204080047
 30
0.0
 40
0.3000000000001234
100
AcDbArc
 50
271.0491383054
 51
356.0605963298
  0
LINE
  5
35F
330
1F
100
AcDbEntity
  8
0
  6
Continuous
 62
     7
370
    25
100
AcDbLine
 10
648.4512772784
 20
214.6627134174
 30
0.0
 11
648.4469438344
 21
214.5998007149
 31
0.0
  0
ARC
  5
360
330
1F
100
AcDbEntity
  8
0
  6
Continuous
 62
     7
370
    25
100
AcDbCircle
 10
651.4479403219
 20
212.3641191091
 30
0.0
 40
0.3000000000000604
100
AcDbArc
 50
115.2213528991
 51
200.2328109235
  0
LWPOLYLINE
  5
361
330
1F
100
AcDbEntity
  8
0
  6
Continuous
 62
     7
370
    25
100
AcDbPolyline
 90
        9
 70
   128
 43
0.0
 10
651.44793991
 20
212.3641198963
 10
651.4230009541
 20
212.417063722
 10
651.3990203291
 20
212.4679809898
 10
651.3769191131
 20
212.5149047464
 10
651.3575476036
 20
212.5560319513
 10
651.3416489959
 20
212.5897830814
 10
651.3298361004
 20
212.6148617357
 10
651.3225615397
 20
212.6303067893
 10
651.3201056421
 20
212.6355221957
  0
LINE
  5
362
330
1F
100
AcDbEntity
  8
0
  6
Continuous
 62
     7
370
    25
100
AcDbLine
 10
651.3201056421
 20
212.6355221957
 30
0.0
 11
651.377161257
 21
212.6623964399
 31
0.0
  0
ARC
  5
363
330
1F
100
AcDbEntity
  8
0
  6
Continuous
 62
     8
370
    25
100
AcDbCircle
 10
648.2108221203
 20
211.1709863633
 30
0.0
 40
3.450000000000029
100
AcDbArc
 50
161.1959582814
 51
20.2328109235
  0
LINE
  5
364
330
1F
100
AcDbEntity
  8
0
  6
Continuous
 62
     8
370
    25
100
AcDbLine
 10
648.1476530805
 20
214.6204090208
 30
0.0
 11
648.1511008367
 21
214.6704769224
 31
0.0
  0
LINE
  5
365
330
1F
100
AcDbEntity
  8
0
  6
Continuous
 62
     8
370
    25
100
AcDbLine
 10
651.4933428168
 20
212.3855030626
 30
0.0
 11
651.44793991
 21
212.3641198963
 31
0.0
  0
CIRCLE
  5
366
330
1F
100
AcDbEntity
  8
0
  6
Continuous
 62
     7
370
    25
100
AcDbCircle
 10
202.2684928081
 20
504.2659042946
 30
0.0
 40
14.00000000000004
  0
LWPOLYLINE
  5
367
330
1F
100
AcDbEntity
  8
0
  6
Continuous
 62
     7
370
    25
100
AcDbPolyline
 90
        9
 70
   128
 43
0.0
 10
204.9869782342
 20
502.1188511591
 10
205.0494627613
 20
502.5470835234
 10
205.1119775562
 20
502.9755242712
 10
205.1745128403
 20
503.4041039607
 10
205.2370581361
 20
503.8327530628
 10
205.2996034319
 20
504.2614021363
 10
205.362138716
 20
504.6899817671
 10
205.424653511
 20
505.1184225439
 10
205.487138038
 20
505.5466550247
  0
LWPOLYLINE
  5
368
330
1F
100
AcDbEntity
  8
0
  6
Continuous
 62
     7
370
    25
100
AcDbPolyline
 90
        9
 70
   128
 43
0.0
 10
205.487138038
 20
505.5466550247
 10
205.1475200853
 20
505.8148844245
 10
204.8077370557
 20
506.0832443259
 10
204.4678436643
 20
506.351691306
 10
204.1278954414
 20
506.6201815925
 10
203.787947102
 20
506.8886721119
 10
203.448053827
 20
507.1571188591
 10
203.1082707392
 20
507.4254787605
 10
202.7686527865
 20
507.6937082767
  0
LWPOLYLINE
  5
369
330
1F
100
AcDbEntity
  8
0
  6
Continuous
 62
     7
370
    25
100
AcDbPolyline
 90
        9
 70
   128
 43
0.0
 10
202.7686527865
 20
507.6937082767
 10
202.3665503068
 20
507.5337051957
 10
201.9642522493
 20
507.3736243493
 10
201.5618238067
 20
507.2134915817
 10
201.1593301133
 20
507.0533329699
 10
200.7568364781
 20
506.8931741252
 10
200.3544080355
 20
506.7330413576
 10
199.9521098616
 20
506.5729605112
 10
199.5500073819
 20
506.4129574302
  0
LWPOLYLINE
  5
36A
330
1F
100
AcDbEntity
  8
0
  6
Continuous
 62
     7
370
    25
100
AcDbPolyline
 90
        9
 70
   128
 43
0.0
 10
199.5500073819
 20
506.4129574302
 10
199.4875228549
 20
505.9847250658
 10
199.4250080599
 20
505.5562843181
 10
199.3624727758
 20
505.1277046286
 10
199.29992748
 20
504.6990555265
 10
199.2373821842
 20
504.270406453
 10
199.1748469001
 20
503.8418268222
 10
199.1123321052
 20
503.4133860453
 10
199.0498475782
 20
502.9851535646
  0
LWPOLYLINE
  5
36B
330
1F
100
AcDbEntity
  8
0
  6
Continuous
 62
     7
370
    25
100
AcDbPolyline
 90
        9
 70
   128
 43
0.0
 10
199.0498475782
 20
502.9851535646
 10
199.3894655309
 20
502.7169241648
 10
199.7292485605
 20
502.4485642634
 10
200.0691419518
 20
502.1801172833
 10
200.4090901748
 20
501.9116269968
 10
200.7490385142
 20
501.6431364774
 10
201.0889317891
 20
501.3746897302
 10
201.428714877
 20
501.1063298288
 10
201.7683328297
 20
500.8381003126
  0
LWPOLYLINE
  5
36C
330
1F
100
AcDbEntity
  8
0
  6
Continuous
 62
     7
370
    25
100
AcDbPolyline
 90
        9
 70
   128
 43
0.0
 10
201.7683328297
 20
500.8381003126
 10
202.1704353094
 20
500.9981033936
 10
202.5727333668
 20
501.15818424
 10
202.9751618095
 20
501.3183170076
 10
203.3776555029
 20
501.4784756194
 10
203.7801491381
 20
501.6386344641
 10
204.1825775807
 20
501.7987672317
 10
204.5848757545
 20
501.9588480781
 10
204.9869782342
 20
502.1188511591
  0
ARC
  5
36D
330
1F
100
AcDbEntity
  8
0
  6
Continuous
 62
     7
370
    25
100
AcDbCircle
 10
202.2684928081
 20
504.2659042946
 30
0.0
 40
3.0
100
AcDbArc
 50
231.6984049558
 51
291.6984049558
  0
ARC
  5
36E
330
1F
100
AcDbEntity
  8
0
  6
Continuous
 62
     7
370
    25
100
AcDbCircle
 10
202.2684928081
 20
504.2659042946
 30
0.0
 40
3.0
100
AcDbArc
 50
291.6984049558
 51
351.6984049558
  0
ARC
  5
36F
330
1F
100
AcDbEntity
  8
0
  6
Continuous
 62
     7
370
    25
100
AcDbCircle
 10
202.2684928081
 20
504.2659042946
 30
0.0
 40
3.000000000000023
100
AcDbArc
 50
171.6984049558
 51
231.6984049558
  0
ARC
  5
370
330
1F
100
AcDbEntity
  8
0
  6
Continuous
 62
     7
370
    25
100
AcDbCircle
 10
202.2684928081
 20
504.2659042946
 30
0.0
 40
3.000000000000036
100
AcDbArc
 50
351.6984049558
 51
51.6984049558
  0
ARC
  5
371
330
1F
100
AcDbEntity
  8
0
  6
Continuous
 62
     7
370
    25
100
AcDbCircle
 10
202.2684928081
 20
504.2659042946
 30
0.0
 40
3.000000000000054
100
AcDbArc
 50
111.6984049558
 51
171.6984049558
  0
ARC
  5
372
330
1F
100
AcDbEntity
  8
0
  6
Continuous
 62
     7
370
    25
100
AcDbCircle
 10
202.2684928081
 20
504.2659042946
 30
0.0
 40
3.000000000000054
100
AcDbArc
 50
51.6984049558
 51
111.6984049558
  0
ARC
  5
373
330
1F
100
AcDbEntity
  8
0
  6
Continuous
 62
     7
370
    25
100
AcDbCircle
 10
192.2684928081
 20
517.7659042946
 30
0.0
 40
2.899999999999993
100
AcDbArc
 50
341.9841190292
 51
292.8054795643
  0
LWPOLYLINE
  5
374
330
1F
100
AcDbEntity
  8
0
  6
Continuous
 62
     7
370
    25
100
AcDbPolyline
 90
        3
 70
   128
 43
0.0
 10
194.4982064008
 20
515.9116181157
 10
194.6394163235
 20
516.0959575869
 10
195.0263082101
 20
516.868990714
  0
CIRCLE
  5
375
330
1F
100
AcDbEntity
  8
0
  6
Continuous
 62
     7
370
    25
100
AcDbCircle
 10
192.2684928081
 20
517.7659042946
 30
0.0
 40
2.599999999999951
  0
LINE
  5
376
330
1F
100
AcDbEntity
  8
0
  6
Continuous
 62
     7
370
    25
100
AcDbLine
 10
192.6281372136
 20
516.0716035015
 30
0.0
 11
190.9810066274
 21
516.6072927959
 31
0.0
  0
LINE
  5
377
330
1F
100
AcDbEntity
  8
0
  6
Continuous
 62
     7
370
    25
100
AcDbLine
 10
193.9156226865
 20
517.2302144192
 30
0.0
 11
192.6281372136
 21
516.0716035015
 31
0.0
  0
LINE
  5
378
330
1F
100
AcDbEntity
  8
0
  6
Continuous
 62
     7
370
    25
100
AcDbLine
 10
193.5559785045
 20
518.9245155624
 30
0.0
 11
193.9156226865
 21
517.2302144192
 31
0.0
  0
LINE
  5
379
330
1F
100
AcDbEntity
  8
0
  6
Continuous
 62
     7
370
    25
100
AcDbLine
 10
191.9088488496
 20
519.4602057881
 30
0.0
 11
193.5559785045
 21
518.9245155624
 31
0.0
  0
LINE
  5
37A
330
1F
100
AcDbEntity
  8
0
  6
Continuous
 62
     7
370
    25
100
AcDbLine
 10
190.6213633767
 20
518.3015939392
 30
0.0
 11
191.9088488496
 21
519.4602057881
 31
0.0
  0
LINE
  5
37B
330
1F
100
AcDbEntity
  8
0
  6
Continuous
 62
     7
370
    25
100
AcDbLine
 10
190.9810066274
 20
516.6072927959
 30
0.0
 11
190.6213633767
 21
518.3015939392
 31
0.0
  0
ARC
  5
37C
330
1F
100
AcDbEntity
  8
0
  6
Continuous
 62
     7
370
    25
100
AcDbCircle
 10
192.2684928081
 20
517.7659042946
 30
0.0
 40
3.450000000000017
100
AcDbArc
 50
338.6731133944
 51
13.2823258929
  0
ARC
  5
37D
330
1F
100
AcDbEntity
  8
0
  6
Continuous
 62
     7
370
    25
100
AcDbCircle
 10
192.2684928081
 20
517.7659042946
 30
0.0
 40
1.499999999999967
100
AcDbArc
 50
251.9841190292
 51
311.9841190292
  0
ARC
  5
37E
330
1F
100
AcDbEntity
  8
0
  6
Continuous
 62
     7
370
    25
100
AcDbCircle
 10
192.2684928081
 20
517.7659042946
 30
0.0
 40
1.500000000000009
100
AcDbArc
 50
311.9841190292
 51
11.9841190292
  0
ARC
  5
37F
330
1F
100
AcDbEntity
  8
0
  6
Continuous
 62
     7
370
    25
100
AcDbCircle
 10
192.2684928081
 20
517.7659042946
 30
0.0
 40
1.49999999999999
100
AcDbArc
 50
191.9841190292
 51
251.9841190292
  0
ARC
  5
380
330
1F
100
AcDbEntity
  8
0
  6
Continuous
 62
     7
370
    25
100
AcDbCircle
 10
192.2684928081
 20
517.7659042946
 30
0.0
 40
1.500000000000136
100
AcDbArc
 50
131.9841190292
 51
191.9841190292
  0
ARC
  5
381
330
1F
100
AcDbEntity
  8
0
  6
Continuous
 62
     7
370
    25
100
AcDbCircle
 10
192.2684928081
 20
517.7659042946
 30
0.0
 40
1.500000000000098
100
AcDbArc
 50
11.9841190292
 51
71.9841190292
  0
ARC
  5
382
330
1F
100
AcDbEntity
  8
0
  6
Continuous
 62
     7
370
    25
100
AcDbCircle
 10
192.2684928081
 20
517.7659042946
 30
0.0
 40
1.500000000000136
100
AcDbArc
 50
71.9841190292
 51
131.9841190292
  0
ARC
  5
383
330
1F
100
AcDbEntity
  8
0
  6
Continuous
 62
     7
370
    25
100
AcDbCircle
 10
192.2684928081
 20
517.7659042946
 30
0.0
 40
3.150000000000047
100
AcDbArc
 50
18.2708678684
 51
281.8473754879
  0
LWPOLYLINE
  5
384
330
1F
100
AcDbEntity
  8
0
  6
Continuous
 62
     7
370
    25
100
AcDbPolyline
 90
        9
 70
   128
 43
0.0
 10
195.2596855401
 20
518.7534595452
 10
195.2651593885
 20
518.7552672423
 10
195.2813704549
 20
518.7606195531
 10
195.3076956845
 20
518.7693106554
 10
195.3431236609
 20
518.7810071356
 10
195.3862927905
 20
518.7952600963
 10
195.4355439222
 20
518.8115200571
 10
195.4889846085
 20
518.8291639633
 10
195.5445612832
 20
518.8475128807
  0
LINE
  5
385
330
1F
100
AcDbEntity
  8
0
  6
Continuous
 62
     7
370
    25
100
AcDbLine
 10
195.6748672812
 20
518.5700271822
 30
0.0
 11
195.6134861386
 21
518.5555376656
 31
0.0
  0
LWPOLYLINE
  5
386
330
1F
100
AcDbEntity
  8
0
  6
Continuous
 62
     7
370
    25
100
AcDbPolyline
 90
        9
 70
   128
 43
0.0
 10
195.5445612832
 20
518.8475128807
 10
195.5580077185
 20
518.7905513293
 10
195.5709372698
 20
518.7357783861
 10
195.5828535422
 20
518.6852997712
 10
195.5932983248
 20
518.6410554297
 10
195.6018702178
 20
518.6047440938
 10
195.6082395329
 20
518.5777627475
 10
195.6121613323
 20
518.5611479528
 10
195.6134861386
 20
518.5555376656
  0
ARC
  5
387
330
1F
100
AcDbEntity
  8
0
  6
Continuous
 62
     7
370
    25
100
AcDbCircle
 10
195.5445610749
 20
518.8475126854
 30
0.0
 40
0.2999999999999776
100
AcDbArc
 50
198.2708678684
 51
283.2823258929
  0
ARC
  5
388
330
1F
100
AcDbEntity
  8
0
  6
Continuous
 62
     7
370
    25
100
AcDbCircle
 10
184.9530438196
 20
490.5332706679
 30
0.0
 40
8.00000000000005
100
AcDbArc
 50
38.4174283431
 51
84.4948527436
  0
ARC
  5
389
330
1F
100
AcDbEntity
  8
0
  6
Continuous
 62
     7
370
    25
100
AcDbCircle
 10
185.7684928081
 20
498.994065131
 30
0.0
 40
0.5
100
AcDbArc
 50
180.0
 51
264.4948527436
  0
LINE
  5
38A
330
1F
100
AcDbEntity
  8
0
  6
Continuous
 62
     7
370
    25
100
AcDbLine
 10
185.2684918842
 20
500.1659042745
 30
0.0
 11
185.2684918842
 21
498.9940653167
 31
0.0
  0
ARC
  5
38B
330
1F
100
AcDbEntity
  8
0
  6
Continuous
 62
     7
370
    25
100
AcDbCircle
 10
185.0684928081
 20
500.6241618641
 30
0.0
 40
0.5000000000000888
100
AcDbArc
 50
293.5781784782
 51
0.0
  0
LINE
  5
38C
330
1F
100
AcDbEntity
  8
0
  6
Continuous
 62
     7
370
    25
100
AcDbLine
 10
185.5684932372
 20
501.6659042876
 30
0.0
 11
185.5684932372
 21
500.6241617802
 31
0.0
  0
ARC
  5
38D
330
1F
100
AcDbEntity
  8
0
  6
Continuous
 62
     7
370
    25
100
AcDbCircle
 10
185.0684928081
 20
501.6659042946
 30
0.0
 40
0.5
100
AcDbArc
 50
0.0
 51
90.0
  0
LINE
  5
38E
330
1F
100
AcDbEntity
  8
0
  6
Continuous
 62
     7
370
    25
100
AcDbLine
 10
155.2684944174
 20
502.1659043695
 30
0.0
 11
185.068492224
 21
502.1659043695
 31
0.0
  0
LINE
  5
38F
330
1F
100
AcDbEntity
  8
0
  6
Continuous
 62
     7
370
    25
100
AcDbLine
 10
155.2684944174
 20
502.5659042721
 30
0.0
 11
155.2684944174
 21
502.1659043695
 31
0.0
  0
ARC
  5
390
330
1F
100
AcDbEntity
  8
0
  6
Continuous
 62
     7
370
    25
100
AcDbCircle
 10
192.2684928081
 20
517.7659042946
 30
0.0
 40
3.933012701892267
100
AcDbArc
 50
90.0
 51
266.8568492648
  0
ARC
  5
391
330
1F
100
AcDbEntity
  8
0
  6
Continuous
 62
     7
370
    25
100
AcDbCircle
 10
192.2684928081
 20
517.7659042946
 30
0.0
 40
3.933012701892267
100
AcDbArc
 50
346.2008614691
 51
90.0
  0
ARC
  5
392
330
1F
100
AcDbEntity
  8
0
  6
Continuous
 62
     7
370
    25
100
AcDbCircle
 10
183.7018560636
 20
496.5659042946
 30
0.0
 40
6.000000000000003
100
AcDbArc
 50
22.5248798336
 51
90.0
  0
LINE
  5
393
330
1F
100
AcDbEntity
  8
0
  6
Continuous
 62
     7
370
    25
100
AcDbLine
 10
155.2684944174
 20
502.5659042721
 30
0.0
 11
183.7018564395
 21
502.5659042721
 31
0.0
  0
LINE
  5
394
330
1F
100
AcDbEntity
  8
0
  6
Continuous
 62
     7
370
    25
100
AcDbLine
 10
155.2684944174
 20
506.3659042198
 30
0.0
 11
155.2684944174
 21
502.5659042721
 31
0.0
  0
LINE
  5
395
330
1F
100
AcDbEntity
  8
0
  6
Continuous
 62
     7
370
    25
100
AcDbLine
 10
185.068492224
 20
506.3659042198
 30
0.0
 11
155.2684944174
 21
506.3659042198
 31
0.0
  0
ARC
  5
396
330
1F
100
AcDbEntity
  8
0
  6
Continuous
 62
     7
370
    25
100
AcDbCircle
 10
185.0684928081
 20
506.8659042946
 30
0.0
 40
0.5
100
AcDbArc
 50
270.0
 51
0.0
  0
LINE
  5
397
330
1F
100
AcDbEntity
  8
0
  6
Continuous
 62
     7
370
    25
100
AcDbLine
 10
185.5684932372
 20
507.9076468091
 30
0.0
 11
185.5684932372
 21
506.8659043017
 31
0.0
  0
ARC
  5
398
330
1F
100
AcDbEntity
  8
0
  6
Continuous
 62
     7
370
    25
100
AcDbCircle
 10
185.0684928081
 20
507.9076467251
 30
0.0
 40
0.5
100
AcDbArc
 50
0.0
 51
66.4218215218
  0
LINE
  5
399
330
1F
100
AcDbEntity
  8
0
  6
Continuous
 62
     7
370
    25
100
AcDbLine
 10
185.2684918842
 20
508.3659043148
 30
0.0
 11
185.2684918842
 21
523.6158053003
 31
0.0
  0
ARC
  5
39A
330
1F
100
AcDbEntity
  8
0
  6
Continuous
 62
     7
370
    25
100
AcDbCircle
 10
187.2684928081
 20
523.6158051278
 30
0.0
 40
2.00000000000005
100
AcDbArc
 50
67.4010867151
 51
180.0
  0
LINE
  5
39B
330
1F
100
AcDbEntity
  8
0
  6
Continuous
 62
     7
370
    25
100
AcDbLine
 10
207.6868097349
 20
517.2832709349
 30
0.0
 11
188.0370484716
 21
525.4622398488
 31
0.0
  0
ARC
  5
39C
330
1F
100
AcDbEntity
  8
0
  6
Continuous
 62
     7
370
    25
100
AcDbCircle
 10
202.2684928081
 20
504.2659042946
 30
0.0
 40
14.10000000000005
100
AcDbArc
 50
202.5248798336
 51
67.4010867151
  0
ARC
  5
39D
330
1F
100
AcDbEntity
  8
0
  6
Continuous
 62
     7
370
    25
100
AcDbCircle
 10
192.2684928081
 20
517.7659042946
 30
0.0
 40
3.500000000000114
100
AcDbArc
 50
90.0
 51
273.4132761941
  0
ARC
  5
39E
330
1F
100
AcDbEntity
  8
0
  6
Continuous
 62
     7
370
    25
100
AcDbCircle
 10
192.2684928081
 20
517.7659042946
 30
0.0
 40
3.500000000000114
100
AcDbArc
 50
339.6444345399
 51
90.0
  0
ARC
  5
39F
330
1F
100
AcDbEntity
  8
0
  6
Continuous
 62
     8
370
    25
100
AcDbCircle
 10
192.2684928081
 20
517.7659042946
 30
0.0
 40
3.450000000000025
100
AcDbArc
 50
18.2708678684
 51
274.3845973395
  0
LINE
  5
3A0
330
1F
100
AcDbEntity
  8
0
  6
Continuous
 62
     8
370
    25
100
AcDbLine
 10
195.5445612832
 20
518.8475128807
 30
0.0
 11
195.5934058926
 21
518.8590435855
 31
0.0
  0
CIRCLE
  5
3A1
330
1F
100
AcDbEntity
  8
0
  6
Continuous
 62
     7
370
    25
100
AcDbCircle
 10
202.2684928081
 20
220.0462541765
 30
0.0
 40
14.00000000000003
  0
CIRCLE
  5
3A2
330
1F
100
AcDbEntity
  8
0
  6
Continuous
 62
     7
370
    25
100
AcDbCircle
 10
192.2684928081
 20
206.5462541765
 30
0.0
 40
2.599999999999978
  0
ARC
  5
3A3
330
1F
100
AcDbEntity
  8
0
  6
Continuous
 62
     7
370
    25
100
AcDbCircle
 10
192.2684928081
 20
206.5462541765
 30
0.0
 40
2.900000000000003
100
AcDbArc
 50
72.9757487684
 51
245.7132160068
  0
ARC
  5
3A4
330
1F
100
AcDbEntity
  8
0
  6
Continuous
 62
     7
370
    25
100
AcDbCircle
 10
192.2684928081
 20
206.5462541765
 30
0.0
 40
2.900000000000003
100
AcDbArc
 50
245.7132160068
 51
33.9665404977
  0
LINE
  5
3A5
330
1F
100
AcDbEntity
  8
0
  6
Continuous
 62
     7
370
    25
100
AcDbLine
 10
193.9919399149
 20
206.7186788878
 30
0.0
 11
193.2795405439
 21
205.1399176231
 31
0.0
  0
LINE
  5
3A6
330
1F
100
AcDbEntity
  8
0
  6
Continuous
 62
     7
370
    25
100
AcDbLine
 10
192.9808924026
 20
208.125015091
 30
0.0
 11
193.9919399149
 21
206.7186788878
 31
0.0
  0
LINE
  5
3A7
330
1F
100
AcDbEntity
  8
0
  6
Continuous
 62
     7
370
    25
100
AcDbLine
 10
191.2574455193
 20
207.9525909609
 30
0.0
 11
192.9808924026
 21
208.125015091
 31
0.0
  0
LINE
  5
3A8
330
1F
100
AcDbEntity
  8
0
  6
Continuous
 62
     7
370
    25
100
AcDbLine
 10
190.5450461483
 20
206.3738296962
 30
0.0
 11
191.2574455193
 21
207.9525909609
 31
0.0
  0
LINE
  5
3A9
330
1F
100
AcDbEntity
  8
0
  6
Continuous
 62
     7
370
    25
100
AcDbLine
 10
191.5560927293
 20
204.967493493
 30
0.0
 11
190.5450461483
 21
206.3738296962
 31
0.0
  0
LINE
  5
3AA
330
1F
100
AcDbEntity
  8
0
  6
Continuous
 62
     7
370
    25
100
AcDbLine
 10
193.2795405439
 20
205.1399176231
 30
0.0
 11
191.5560927293
 21
204.967493493
 31
0.0
  0
LWPOLYLINE
  5
3AB
330
1F
100
AcDbEntity
  8
0
  6
Continuous
 62
     7
370
    25
100
AcDbPolyline
 90
        3
 70
   128
 43
0.0
 10
190.8494936353
 20
203.4015863425
 10
190.0536924652
 20
203.9010397381
 10
190.0485543585
 20
203.905349899
  0
ARC
  5
3AC
330
1F
100
AcDbEntity
  8
0
  6
Continuous
 62
     7
370
    25
100
AcDbCircle
 10
192.2684928081
 20
206.5462541765
 30
0.0
 40
3.450000000000025
100
AcDbArc
 50
245.7132160068
 51
290.7889098705
  0
ARC
  5
3AD
330
1F
100
AcDbEntity
  8
0
  6
Continuous
 62
     7
370
    25
100
AcDbCircle
 10
192.2684928081
 20
206.5462541765
 30
0.0
 40
1.499999999999978
100
AcDbArc
 50
155.7132160067
 51
215.7132160068
  0
ARC
  5
3AE
330
1F
100
AcDbEntity
  8
0
  6
Continuous
 62
     7
370
    25
100
AcDbCircle
 10
192.2684928081
 20
206.5462541765
 30
0.0
 40
1.500000000000018
100
AcDbArc
 50
335.7132160068
 51
35.7132160067
  0
ARC
  5
3AF
330
1F
100
AcDbEntity
  8
0
  6
Continuous
 62
     7
370
    25
100
AcDbCircle
 10
192.2684928081
 20
206.5462541765
 30
0.0
 40
1.500000000000018
100
AcDbArc
 50
35.7132160067
 51
95.7132160067
  0
ARC
  5
3B0
330
1F
100
AcDbEntity
  8
0
  6
Continuous
 62
     7
370
    25
100
AcDbCircle
 10
192.2684928081
 20
206.5462541765
 30
0.0
 40
1.499999999999994
100
AcDbArc
 50
95.7132160067
 51
155.7132160067
  0
ARC
  5
3B1
330
1F
100
AcDbEntity
  8
0
  6
Continuous
 62
     7
370
    25
100
AcDbCircle
 10
192.2684928081
 20
206.5462541765
 30
0.0
 40
1.500000000000008
100
AcDbArc
 50
275.7132160068
 51
335.7132160068
  0
ARC
  5
3B2
330
1F
100
AcDbEntity
  8
0
  6
Continuous
 62
     7
370
    25
100
AcDbCircle
 10
192.2684928081
 20
206.5462541765
 30
0.0
 40
1.499999999999997
100
AcDbArc
 50
215.7132160068
 51
275.7132160068
  0
ARC
  5
3B3
330
1F
100
AcDbEntity
  8
0
  6
Continuous
 62
     7
370
    25
100
AcDbCircle
 10
192.2684928081
 20
206.5462541765
 30
0.0
 40
3.150000000000056
100
AcDbArc
 50
295.7774518461
 51
25.3671666227
  0
ARC
  5
3B4
330
1F
100
AcDbEntity
  8
0
  6
Continuous
 62
     7
370
    25
100
AcDbCircle
 10
192.2684928081
 20
206.5462541765
 30
0.0
 40
3.149999999999996
100
AcDbArc
 50
81.5751226433
 51
224.9611244642
  0
LWPOLYLINE
  5
3B5
330
1F
100
AcDbEntity
  8
0
  6
Continuous
 62
     7
370
    25
100
AcDbPolyline
 90
        9
 70
   128
 43
0.0
 10
190.0395959667
 20
204.3203789032
 10
190.0355167738
 20
204.3163071609
 10
190.02343752
 20
204.3042428083
 10
190.0038210726
 20
204.2846533692
 10
189.9774218029
 20
204.2582894898
 10
189.9452539212
 20
204.2261663115
 10
189.9085542238
 20
204.1895150429
 10
189.8687327332
 20
204.149747569
 10
189.8273196122
 20
204.1083912588
  0
LWPOLYLINE
  5
3B6
330
1F
100
AcDbEntity
  8
0
  6
Continuous
 62
     7
370
    25
100
AcDbPolyline
 90
        9
 70
   128
 43
0.0
 10
193.6383549175
 20
203.709710691
 10
193.6408611066
 20
203.704519499
 10
193.6482856101
 20
203.6891470886
 10
193.6603415809
 20
203.6641820556
 10
193.6765661514
 20
203.6305873877
 10
193.696336267
 20
203.5896501726
 10
193.7188919685
 20
203.5429443455
 10
193.7433652631
 20
203.4922673589
 10
193.7688173777
 20
203.4395638144
  0
LWPOLYLINE
  5
3B7
330
1F
100
AcDbEntity
  8
0
  6
Continuous
 62
     7
370
    25
100
AcDbPolyline
 90
        9
 70
   128
 43
0.0
 10
193.4883495844
 20
203.3330857045
 10
193.4937382168
 20
203.3351327515
 10
193.5096982918
 20
203.3411919362
 10
193.535616999
 20
203.3510304279
 10
193.5704968921
 20
203.3642719722
 10
193.6129977978
 20
203.3804080671
 10
193.6614871076
 20
203.3988165892
 10
193.7141012451
 20
203.4187915957
 10
193.7688173777
 20
203.4395638144
  0
ARC
  5
3B8
330
1F
100
AcDbEntity
  8
0
  6
Continuous
 62
     7
370
    25
100
AcDbCircle
 10
193.7688176116
 20
203.4395637375
 30
0.0
 40
0.2999999999999806
100
AcDbArc
 50
115.7774518461
 51
200.7889098705
  0
ARC
  5
3B9
330
1F
100
AcDbEntity
  8
0
  6
Continuous
 62
     7
370
    25
100
AcDbCircle
 10
189.8273197466
 20
204.108391571
 30
0.0
 40
0.300000000000004
100
AcDbArc
 50
319.9496664398
 51
44.9611244642
  0
LWPOLYLINE
  5
3BA
330
1F
100
AcDbEntity
  8
0
  6
Continuous
 62
     7
370
    25
100
AcDbPolyline
 90
        9
 70
   128
 43
0.0
 10
189.8273196122
 20
204.1083912588
 10
189.8721208847
 20
204.0707322991
 10
189.915201073
 20
204.0345187521
 10
189.9549033544
 20
204.001145739
 10
189.9897022224
 20
203.9718928969
 10
190.0182612291
 20
203.9478871262
 10
190.0394832766
 20
203.930046711
 10
190.0525506637
 20
203.9190626926
 10
190.0569632701
 20
203.9153541661
  0
LINE
  5
3BB
330
1F
100
AcDbEntity
  8
0
  6
Continuous
 62
     7
370
    25
100
AcDbLine
 10
190.0569632701
 20
203.9153541661
 30
0.0
 11
190.0163818202
 21
203.8670762664
 31
0.0
  0
LINE
  5
3BC
330
1F
100
AcDbEntity
  8
0
  6
Continuous
 62
     7
370
    25
100
AcDbLine
 10
193.5107339225
 20
203.2741236723
 30
0.0
 11
193.4883495844
 21
203.3330857045
 31
0.0
  0
ARC
  5
3BD
330
1F
100
AcDbEntity
  8
0
  6
Continuous
 62
     7
370
    25
100
AcDbCircle
 10
185.7684928081
 20
225.3180933402
 30
0.0
 40
0.5000000000000091
100
AcDbArc
 50
95.5051472564
 51
180.0
  0
ARC
  5
3BE
330
1F
100
AcDbEntity
  8
0
  6
Continuous
 62
     7
370
    25
100
AcDbCircle
 10
184.9530438196
 20
233.7788878033
 30
0.0
 40
8.000000000000004
100
AcDbArc
 50
275.5051472564
 51
321.5825716569
  0
ARC
  5
3BF
330
1F
100
AcDbEntity
  8
0
  6
Continuous
 62
     7
370
    25
100
AcDbCircle
 10
202.2684928081
 20
220.0462541765
 30
0.0
 40
14.09999999999999
100
AcDbArc
 50
201.8019540847
 51
141.5825716569
  0
ARC
  5
3C0
330
1F
100
AcDbEntity
  8
0
  6
Continuous
 62
     7
370
    25
100
AcDbCircle
 10
183.6061822768
 20
212.5811241956
 30
0.0
 40
6.000000000000004
100
AcDbArc
 50
21.8019540847
 51
73.9156772302
  0
LINE
  5
3C1
330
1F
100
AcDbEntity
  8
0
  6
Continuous
 62
     7
370
    25
100
AcDbLine
 10
155.2684944174
 20
218.346254154
 30
0.0
 11
185.2684918842
 21
218.346254154
 31
0.0
  0
LINE
  5
3C2
330
1F
100
AcDbEntity
  8
0
  6
Continuous
 62
     7
370
    25
100
AcDbLine
 10
155.2684944174
 20
218.346254154
 30
0.0
 11
155.2684944174
 21
222.1462541017
 31
0.0
  0
LINE
  5
3C3
330
1F
100
AcDbEntity
  8
0
  6
Continuous
 62
     7
370
    25
100
AcDbLine
 10
155.2684944174
 20
222.1462541017
 30
0.0
 11
185.068492224
 21
222.1462541017
 31
0.0
  0
ARC
  5
3C4
330
1F
100
AcDbEntity
  8
0
  6
Continuous
 62
     7
370
    25
100
AcDbCircle
 10
185.0684928081
 20
222.6462541765
 30
0.0
 40
0.5
100
AcDbArc
 50
270.0
 51
0.0
  0
LINE
  5
3C5
330
1F
100
AcDbEntity
  8
0
  6
Continuous
 62
     7
370
    25
100
AcDbLine
 10
185.5684932372
 20
222.6462541836
 30
0.0
 11
185.5684932372
 21
223.687996691
 31
0.0
  0
ARC
  5
3C6
330
1F
100
AcDbEntity
  8
0
  6
Continuous
 62
     7
370
    25
100
AcDbCircle
 10
185.0684928081
 20
223.687996607
 30
0.0
 40
0.5
100
AcDbArc
 50
0.0
 51
66.4218215218
  0
LINE
  5
3C7
330
1F
100
AcDbEntity
  8
0
  6
Continuous
 62
     7
370
    25
100
AcDbLine
 10
185.2684918842
 20
224.1462541967
 30
0.0
 11
185.2684918842
 21
225.3180931545
 31
0.0
  0
ARC
  5
3C8
330
1F
100
AcDbEntity
  8
0
  6
Continuous
 62
     7
370
    25
100
AcDbCircle
 10
192.2684928081
 20
206.5462541765
 30
0.0
 40
3.933012701892238
100
AcDbArc
 50
95.0150194932
 51
270.0
  0
ARC
  5
3C9
330
1F
100
AcDbEntity
  8
0
  6
Continuous
 62
     7
370
    25
100
AcDbCircle
 10
192.2684928081
 20
206.5462541765
 30
0.0
 40
3.933012701892238
100
AcDbArc
 50
270.0
 51
11.9272697729
  0
ARC
  5
3CA
330
1F
100
AcDbEntity
  8
0
  6
Continuous
 62
     7
370
    25
100
AcDbCircle
 10
187.2684928081
 20
200.6963533434
 30
0.0
 40
2.0
100
AcDbArc
 50
180.0
 51
292.5989132849
  0
LINE
  5
3CB
330
1F
100
AcDbEntity
  8
0
  6
Continuous
 62
     7
370
    25
100
AcDbLine
 10
185.2684918842
 20
215.9462541564
 30
0.0
 11
185.2684918842
 21
200.6963531709
 31
0.0
  0
ARC
  5
3CC
330
1F
100
AcDbEntity
  8
0
  6
Continuous
 62
     7
370
    25
100
AcDbCircle
 10
185.0684928081
 20
216.404511746
 30
0.0
 40
0.5
100
AcDbArc
 50
293.5781784782
 51
0.0
  0
LINE
  5
3CD
330
1F
100
AcDbEntity
  8
0
  6
Continuous
 62
     7
370
    25
100
AcDbLine
 10
185.5684932372
 20
216.4045116621
 30
0.0
 11
185.5684932372
 21
217.4462541695
 31
0.0
  0
ARC
  5
3CE
330
1F
100
AcDbEntity
  8
0
  6
Continuous
 62
     7
370
    25
100
AcDbCircle
 10
185.0684928081
 20
217.4462541765
 30
0.0
 40
0.5
100
AcDbArc
 50
0.0
 51
90.0
  0
LINE
  5
3CF
330
1F
100
AcDbEntity
  8
0
  6
Continuous
 62
     7
370
    25
100
AcDbLine
 10
185.068492224
 20
217.9462542514
 30
0.0
 11
155.2684944174
 21
217.9462542514
 31
0.0
  0
LINE
  5
3D0
330
1F
100
AcDbEntity
  8
0
  6
Continuous
 62
     7
370
    25
100
AcDbLine
 10
155.2684944174
 20
217.9462542514
 30
0.0
 11
155.2684944174
 21
218.346254154
 31
0.0
  0
LINE
  5
3D1
330
1F
100
AcDbEntity
  8
0
  6
Continuous
 62
     7
370
    25
100
AcDbLine
 10
207.6868097349
 20
207.0288875363
 30
0.0
 11
188.0370484716
 21
198.8499186224
 31
0.0
  0
ARC
  5
3D2
330
1F
100
AcDbEntity
  8
0
  6
Continuous
 62
     7
370
    25
100
AcDbCircle
 10
192.2684928081
 20
206.5462541765
 30
0.0
 40
3.499999999999992
100
AcDbArc
 50
89.0144811976
 51
270.0
  0
ARC
  5
3D3
330
1F
100
AcDbEntity
  8
0
  6
Continuous
 62
     7
370
    25
100
AcDbCircle
 10
192.2684928081
 20
206.5462541765
 30
0.0
 40
3.500000000000017
100
AcDbArc
 50
270.0
 51
17.9278080685
  0
LINE
  5
3D4
330
1F
100
AcDbEntity
  8
0
  6
Continuous
 62
     8
370
    25
100
AcDbLine
 10
193.7688173777
 20
203.4395638144
 30
0.0
 11
193.7866307846
 21
203.3926437831
 31
0.0
  0
ARC
  5
3D5
330
1F
100
AcDbEntity
  8
0
  6
Continuous
 62
     8
370
    25
100
AcDbCircle
 10
192.2684928081
 20
206.5462541765
 30
0.0
 40
3.450000000000002
100
AcDbArc
 50
88.1382475474
 51
224.9611244642
  0
ARC
  5
3D6
330
1F
100
AcDbEntity
  8
0
  6
Continuous
 62
     8
370
    25
100
AcDbCircle
 10
192.2684928081
 20
206.5462541765
 30
0.0
 40
3.450000000000017
100
AcDbArc
 50
295.7774518461
 51
18.8040417186
  0
LINE
  5
3D7
330
1F
100
AcDbEntity
  8
0
  6
Continuous
 62
     8
370
    25
100
AcDbLine
 10
189.795026002
 20
204.0699742026
 30
0.0
 11
189.8273196122
 21
204.1083912588
 31
0.0
  0
LINE
  5
3D8
330
1F
100
AcDbEntity
  8
0
  6
Continuous
 62
     7
370
    25
100
AcDbLine
 10
253.7636989496
 20
444.3314977157
 30
0.0
 11
253.7636989496
 21
442.3315085637
 31
0.0
  0
LINE
  5
3D9
330
1F
100
AcDbEntity
  8
0
  6
Continuous
 62
     7
370
    25
100
AcDbLine
 10
281.7636998139
 20
442.3315085637
 30
0.0
 11
281.7636998139
 21
444.3314977157
 31
0.0
  0
ARC
  5
3DA
330
1F
100
AcDbEntity
  8
0
  6
Continuous
 62
     7
370
    25
100
AcDbCircle
 10
267.7636993817
 20
413.16483844
 30
0.0
 40
34.16666666666669
100
AcDbArc
 50
65.810485846
 51
114.189514154
  0
LINE
  5
3DB
330
1F
100
AcDbEntity
  8
0
  6
Continuous
 62
     7
370
    25
100
AcDbLine
 10
281.7636998139
 20
265.8315050117
 30
0.0
 11
281.7636998139
 21
267.8315051067
 31
0.0
  0
LINE
  5
3DC
330
1F
100
AcDbEntity
  8
0
  6
Continuous
 62
     7
370
    25
100
AcDbLine
 10
253.7636989496
 20
267.8315051067
 30
0.0
 11
253.7636989496
 21
265.8315050117
 31
0.0
  0
ARC
  5
3DD
330
1F
100
AcDbEntity
  8
0
  6
Continuous
 62
     7
370
    25
100
AcDbCircle
 10
267.7636993817
 20
296.9981717733
 30
0.0
 40
34.16666666666671
100
AcDbArc
 50
275.4225968014
 51
294.189514154
  0
ARC
  5
3DE
330
1F
100
AcDbEntity
  8
0
  6
Continuous
 62
     7
370
    25
100
AcDbCircle
 10
267.7636993817
 20
296.9981717733
 30
0.0
 40
34.16666666666674
100
AcDbArc
 50
245.810485846
 51
264.5774031986
  0
LINE
  5
3DF
330
1F
100
AcDbEntity
  8
0
  6
Continuous
 62
     7
370
    25
100
AcDbLine
 10
255.3636990256
 20
353.1315036285
 30
0.0
 11
255.3636990256
 21
352.8315060007
 31
0.0
  0
LINE
  5
3E0
330
1F
100
AcDbEntity
  8
0
  6
Continuous
 62
     7
370
    25
100
AcDbLine
 10
280.1636997379
 20
352.8315060007
 30
0.0
 11
280.1636997379
 21
353.1315036285
 31
0.0
  0
LINE
  5
3E1
330
1F
100
AcDbEntity
  8
0
  6
Continuous
 62
     7
370
    25
100
AcDbLine
 10
253.7636989496
 20
356.9315083492
 30
0.0
 11
253.7636989496
 21
353.1315036285
 31
0.0
  0
LINE
  5
3E2
330
1F
100
AcDbEntity
  8
0
  6
Continuous
 62
     7
370
    25
100
AcDbLine
 10
281.7636998139
 20
353.1315036285
 30
0.0
 11
281.7636998139
 21
356.9315083492
 31
0.0
  0
LINE
  5
3E3
330
1F
100
AcDbEntity
  8
0
  6
Continuous
 62
     7
370
    25
100
AcDbLine
 10
254.9636997051
 20
357.3315076697
 30
0.0
 11
254.9636997051
 21
356.9315083492
 31
0.0
  0
LINE
  5
3E4
330
1F
100
AcDbEntity
  8
0
  6
Continuous
 62
     7
370
    25
100
AcDbLine
 10
280.5636990584
 20
356.9315083492
 30
0.0
 11
280.5636990584
 21
357.3315076697
 31
0.0
  0
LINE
  5
3E5
330
1F
100
AcDbEntity
  8
0
  6
Continuous
 62
     7
370
    25
100
AcDbLine
 10
253.6636991195
 20
442.3315085637
 30
0.0
 11
253.6636991195
 21
357.3315076697
 31
0.0
  0
LINE
  5
3E6
330
1F
100
AcDbEntity
  8
0
  6
Continuous
 62
     7
370
    25
100
AcDbLine
 10
281.863699644
 20
433.300644921
 30
0.0
 11
281.863699644
 21
442.3315085637
 31
0.0
  0
LINE
  5
3E7
330
1F
100
AcDbEntity
  8
0
  6
Continuous
 62
     7
370
    25
100
AcDbLine
 10
281.863699644
 20
357.3315076697
 30
0.0
 11
281.863699644
 21
428.3370830285
 31
0.0
  0
LINE
  5
3E8
330
1F
100
AcDbEntity
  8
0
  6
Continuous
 62
     7
370
    25
100
AcDbLine
 10
289.1136007152
 20
267.8315051067
 30
0.0
 11
289.1136007152
 21
352.8315060007
 31
0.0
  0
LINE
  5
3E9
330
1F
100
AcDbEntity
  8
0
  6
Continuous
 62
     7
370
    25
100
AcDbLine
 10
253.6636991195
 20
352.8315060007
 30
0.0
 11
253.6636991195
 21
267.8315051067
 31
0.0
  0
LINE
  5
3EA
330
1F
100
AcDbEntity
  8
0
  6
Continuous
 62
     7
370
    25
100
AcDbLine
 10
272.4628718338
 20
444.3314977157
 30
0.0
 11
281.7636998139
 21
444.3314977157
 31
0.0
  0
LINE
  5
3EB
330
1F
100
AcDbEntity
  8
0
  6
Continuous
 62
     7
370
    25
100
AcDbLine
 10
253.7636989496
 20
444.3314977157
 30
0.0
 11
272.4628718338
 21
444.3314977157
 31
0.0
  0
LINE
  5
3EC
330
1F
100
AcDbEntity
  8
0
  6
Continuous
 62
     7
370
    25
100
AcDbLine
 10
253.9103943623
 20
265.8315050117
 30
0.0
 11
253.7636989496
 21
265.8315050117
 31
0.0
  0
LINE
  5
3ED
330
1F
100
AcDbEntity
  8
0
  6
Continuous
 62
     7
370
    25
100
AcDbLine
 10
281.7636998139
 20
265.8315050117
 30
0.0
 11
253.9103943623
 21
265.8315050117
 31
0.0
  0
ARC
  5
3EE
330
1F
100
AcDbEntity
  8
0
  6
Continuous
 62
     7
370
    25
100
AcDbCircle
 10
267.3305546539
 20
296.2895511375
 30
0.0
 40
33.32608358774443
100
AcDbArc
 50
267.9687198585
 51
270.7447038753
  0
ARC
  5
3EF
330
1F
100
AcDbEntity
  8
0
  6
Continuous
 62
     7
370
    25
100
AcDbCircle
 10
270.1179700646
 20
276.0449761615
 30
0.0
 40
13.08150759196034
100
AcDbArc
 50
266.7576664211
 51
271.1884280582
  0
ARC
  5
3F0
330
1F
100
AcDbEntity
  8
0
  6
Continuous
 62
     7
370
    25
100
AcDbCircle
 10
270.5509720325
 20
267.6366072631
 30
0.0
 40
4.673101858124831
100
AcDbArc
 50
262.1256574083
 51
275.4213285319
  0
ARC
  5
3F1
330
1F
100
AcDbEntity
  8
0
  6
Continuous
 62
     7
370
    25
100
AcDbCircle
 10
268.1968505845
 20
296.2892115577
 30
0.0
 40
33.32574417803027
100
AcDbArc
 50
267.0520482143
 51
272.9479517857
  0
ARC
  5
3F2
330
1F
100
AcDbEntity
  8
0
  6
Continuous
 62
     7
370
    25
100
AcDbCircle
 10
265.4094220257
 20
276.0538557948
 30
0.0
 40
13.09038088889213
100
AcDbArc
 50
265.2959581327
 51
274.7040418673
  0
ARC
  5
3F3
330
1F
100
AcDbEntity
  8
0
  6
Continuous
 62
     7
370
    25
100
AcDbCircle
 10
264.9764373613
 20
267.639294803
 30
0.0
 40
4.675808232666023
100
AcDbArc
 50
262.1262552598
 51
271.9814985128
  0
LINE
  5
3F4
330
1F
100
AcDbEntity
  8
0
  6
Continuous
 62
     7
370
    25
100
AcDbLine
 10
265.2395393002
 20
353.1315036285
 30
0.0
 11
265.2395393002
 21
352.8315060007
 31
0.0
  0
LINE
  5
3F5
330
1F
100
AcDbEntity
  8
0
  6
Continuous
 62
     7
370
    25
100
AcDbLine
 10
264.2928412884
 20
352.8315060007
 30
0.0
 11
264.2928412884
 21
353.1315036285
 31
0.0
  0
LINE
  5
3F6
330
1F
100
AcDbEntity
  8
0
  6
Continuous
 62
     7
370
    25
100
AcDbLine
 10
253.7636989496
 20
353.1315036285
 30
0.0
 11
281.7636998139
 21
353.1315036285
 31
0.0
  0
LINE
  5
3F7
330
1F
100
AcDbEntity
  8
0
  6
Continuous
 62
     7
370
    25
100
AcDbLine
 10
253.7636989496
 20
356.9315083492
 30
0.0
 11
281.7636998139
 21
356.9315083492
 31
0.0
  0
LINE
  5
3F8
330
1F
100
AcDbEntity
  8
0
  6
Continuous
 62
     7
370
    25
100
AcDbLine
 10
265.6636994566
 20
357.3315076697
 30
0.0
 11
265.6636994566
 21
442.3315085637
 31
0.0
  0
LINE
  5
3F9
330
1F
100
AcDbEntity
  8
0
  6
Continuous
 62
     7
370
    25
100
AcDbLine
 10
269.4636994043
 20
357.3315076697
 30
0.0
 11
269.4636994043
 21
442.3315085637
 31
0.0
  0
LINE
  5
3FA
330
1F
100
AcDbEntity
  8
0
  6
Continuous
 62
     7
370
    25
100
AcDbLine
 10
269.4636994043
 20
357.3315076697
 30
0.0
 11
265.6636994566
 21
357.3315076697
 31
0.0
  0
LINE
  5
3FB
330
1F
100
AcDbEntity
  8
0
  6
Continuous
 62
     7
370
    25
100
AcDbLine
 10
269.4636994043
 20
442.3315085637
 30
0.0
 11
265.6636994566
 21
442.3315085637
 31
0.0
  0
LINE
  5
3FC
330
1F
100
AcDbEntity
  8
0
  6
Continuous
 62
     7
370
    25
100
AcDbLine
 10
265.1636993747
 20
442.3315085637
 30
0.0
 11
265.1636993747
 21
357.3315076697
 31
0.0
  0
LINE
  5
3FD
330
1F
100
AcDbEntity
  8
0
  6
Continuous
 62
     7
370
    25
100
AcDbLine
 10
265.1636993747
 20
357.3315076697
 30
0.0
 11
265.6636994566
 21
357.3315076697
 31
0.0
  0
LINE
  5
3FE
330
1F
100
AcDbEntity
  8
0
  6
Continuous
 62
     7
370
    25
100
AcDbLine
 10
265.6636994566
 20
442.3315085637
 30
0.0
 11
265.1636993747
 21
442.3315085637
 31
0.0
  0
LINE
  5
3FF
330
1F
100
AcDbEntity
  8
0
  6
Continuous
 62
     7
370
    25
100
AcDbLine
 10
261.9941662765
 20
357.3315076697
 30
0.0
 11
261.9941662765
 21
442.3315085637
 31
0.0
  0
LINE
  5
400
330
1F
100
AcDbEntity
  8
0
  6
Continuous
 62
     7
370
    25
100
AcDbLine
 10
262.4918604038
 20
357.3315076697
 30
0.0
 11
262.4918604038
 21
442.3315085637
 31
0.0
  0
LINE
  5
401
330
1F
100
AcDbEntity
  8
0
  6
Continuous
 62
     7
370
    25
100
AcDbLine
 10
261.9941662765
 20
357.3315076697
 30
0.0
 11
262.4918604038
 21
357.3315076697
 31
0.0
  0
LINE
  5
402
330
1F
100
AcDbEntity
  8
0
  6
Continuous
 62
     7
370
    25
100
AcDbLine
 10
262.4918604038
 20
442.3315085637
 30
0.0
 11
261.9941662765
 21
442.3315085637
 31
0.0
  0
LINE
  5
403
330
1F
100
AcDbEntity
  8
0
  6
Continuous
 62
     7
370
    25
100
AcDbLine
 10
263.6636993616
 20
357.3315076697
 30
0.0
 11
263.6636993616
 21
442.3315085637
 31
0.0
  0
LINE
  5
404
330
1F
100
AcDbEntity
  8
0
  6
Continuous
 62
     7
370
    25
100
AcDbLine
 10
263.6636993616
 20
357.3315076697
 30
0.0
 11
262.4918604038
 21
357.3315076697
 31
0.0
  0
LINE
  5
405
330
1F
100
AcDbEntity
  8
0
  6
Continuous
 62
     7
370
    25
100
AcDbLine
 10
263.6636993616
 20
442.3315085637
 30
0.0
 11
262.4918604038
 21
442.3315085637
 31
0.0
  0
LINE
  5
406
330
1F
100
AcDbEntity
  8
0
  6
Continuous
 62
     7
370
    25
100
AcDbLine
 10
264.1219568673
 20
357.3315076697
 30
0.0
 11
264.1219568673
 21
442.3315085637
 31
0.0
  0
LINE
  5
407
330
1F
100
AcDbEntity
  8
0
  6
Continuous
 62
     7
370
    25
100
AcDbLine
 10
263.6636993616
 20
357.3315076697
 30
0.0
 11
264.1219568673
 21
357.3315076697
 31
0.0
  0
LINE
  5
408
330
1F
100
AcDbEntity
  8
0
  6
Continuous
 62
     7
370
    25
100
AcDbLine
 10
264.1219568673
 20
442.3315085637
 30
0.0
 11
263.6636993616
 21
442.3315085637
 31
0.0
  0
LINE
  5
409
330
1F
100
AcDbEntity
  8
0
  6
Continuous
 62
     7
370
    25
100
AcDbLine
 10
273.0004321552
 20
357.3315076697
 30
0.0
 11
273.0004321552
 21
442.3315085637
 31
0.0
  0
LINE
  5
40A
330
1F
100
AcDbEntity
  8
0
  6
Continuous
 62
     7
370
    25
100
AcDbLine
 10
269.4636994043
 20
357.3315076697
 30
0.0
 11
273.0004321552
 21
357.3315076697
 31
0.0
  0
LINE
  5
40B
330
1F
100
AcDbEntity
  8
0
  6
Continuous
 62
     7
370
    25
100
AcDbLine
 10
269.4636994043
 20
442.3315085637
 30
0.0
 11
273.0004321552
 21
442.3315085637
 31
0.0
  0
LINE
  5
40C
330
1F
100
AcDbEntity
  8
0
  6
Continuous
 62
     7
370
    25
100
AcDbLine
 10
265.1636993747
 20
357.3315076697
 30
0.0
 11
264.1219568673
 21
357.3315076697
 31
0.0
  0
LINE
  5
40D
330
1F
100
AcDbEntity
  8
0
  6
Continuous
 62
     7
370
    25
100
AcDbLine
 10
265.1636993747
 20
442.3315085637
 30
0.0
 11
264.1219568673
 21
442.3315085637
 31
0.0
  0
LINE
  5
40E
330
1F
100
AcDbEntity
  8
0
  6
Continuous
 62
     7
370
    25
100
AcDbLine
 10
259.0021546698
 20
442.3315085637
 30
0.0
 11
259.0021546698
 21
357.3315076697
 31
0.0
  0
LINE
  5
40F
330
1F
100
AcDbEntity
  8
0
  6
Continuous
 62
     7
370
    25
100
AcDbLine
 10
259.0021546698
 20
357.3315076697
 30
0.0
 11
261.9941662765
 21
357.3315076697
 31
0.0
  0
LINE
  5
410
330
1F
100
AcDbEntity
  8
0
  6
Continuous
 62
     7
370
    25
100
AcDbLine
 10
261.9941662765
 20
442.3315085637
 30
0.0
 11
259.0021546698
 21
442.3315085637
 31
0.0
  0
SPLINE
  5
411
330
1F
100
AcDbEntity
  8
0
  6
Continuous
 62
     7
370
    25
100
AcDbSpline
210
0.0
220
0.0
230
1.0
 70
     8
 71
     3
 72
    12
 73
     8
 74
     0
 42
0.000000001
 43
0.00000001
 40
0.0
 40
0.0
 40
0.0
 40
0.0
 40
0.2125338350714104
 40
0.4249841000830834
 40
0.6395471451081173
 40
0.8555370994392605
 40
1.0
 40
1.0
 40
1.0
 40
1.0
 10
281.6402986414074
 20
430.8315076100618
 30
0.0
 10
281.6453144404293
 20
431.1100080436996
 30
0.0
 10
281.6553440662196
 20
431.666899402304
 30
0.0
 10
281.7255907074682
 20
432.4123701816659
 30
0.0
 10
281.802163032559
 20
432.9748054573514
 30
0.0
 10
281.8579172218234
 20
433.2992717822621
 30
0.0
 10
281.8581757380439
 20
433.3002520483532
 30
0.0
 10
281.858279346609
 20
433.3006449210436
 30
0.0
  0
SPLINE
  5
412
330
1F
100
AcDbEntity
  8
0
  6
Continuous
 62
     7
370
    25
100
AcDbSpline
210
0.0
220
0.0
230
1.0
 70
     8
 71
     3
 72
    12
 73
     8
 74
     0
 42
0.000000001
 43
0.00000001
 40
0.0
 40
0.0
 40
0.0
 40
0.0
 40
0.2028397865906136
 40
0.4143604814911747
 40
0.6286307309305064
 40
0.8445356873845447
 40
1.0
 40
1.0
 40
1.0
 40
1.0
 10
281.8627338624834
 20
428.3370830285341
 30
0.0
 10
281.8586271479747
 20
428.3596390841633
 30
0.0
 10
281.8502379644238
 20
428.4057165240392
 30
0.0
 10
281.7831756714997
 20
428.812395988159
 30
0.0
 10
281.7056025786444
 20
429.4284239779253
 30
0.0
 10
281.6493564662362
 20
430.1423678327152
 30
0.0
 10
281.6429715319742
 20
430.6281480568638
 30
0.0
 10
281.6402986414074
 20
430.8315076100618
 30
0.0
  0
LINE
  5
413
330
1F
100
AcDbEntity
  8
0
  6
Continuous
 62
     7
370
    25
100
AcDbLine
 10
259.0021546698
 20
357.3315076697
 30
0.0
 11
253.6636991195
 21
357.3315076697
 31
0.0
  0
LINE
  5
414
330
1F
100
AcDbEntity
  8
0
  6
Continuous
 62
     7
370
    25
100
AcDbLine
 10
281.863699644
 20
357.3315076697
 30
0.0
 11
273.0004321552
 21
357.3315076697
 31
0.0
  0
LINE
  5
415
330
1F
100
AcDbEntity
  8
0
  6
Continuous
 62
     7
370
    25
100
AcDbLine
 10
259.0021546698
 20
442.3315085637
 30
0.0
 11
253.6636991195
 21
442.3315085637
 31
0.0
  0
LINE
  5
416
330
1F
100
AcDbEntity
  8
0
  6
Continuous
 62
     7
370
    25
100
AcDbLine
 10
281.863699644
 20
442.3315085637
 30
0.0
 11
273.0004321552
 21
442.3315085637
 31
0.0
  0
LINE
  5
417
330
1F
100
AcDbEntity
  8
0
  6
Continuous
 62
     7
370
    25
100
AcDbLine
 10
266.0636993592
 20
267.8315051067
 30
0.0
 11
266.0636993592
 21
352.8315060007
 31
0.0
  0
LINE
  5
418
330
1F
100
AcDbEntity
  8
0
  6
Continuous
 62
     7
370
    25
100
AcDbLine
 10
269.8636993069
 20
267.8315051067
 30
0.0
 11
269.8636993069
 21
352.8315060007
 31
0.0
  0
LINE
  5
419
330
1F
100
AcDbEntity
  8
0
  6
Continuous
 62
     7
370
    25
100
AcDbLine
 10
269.8636993069
 20
352.8315060007
 30
0.0
 11
266.0636993592
 21
352.8315060007
 31
0.0
  0
LINE
  5
41A
330
1F
100
AcDbEntity
  8
0
  6
Continuous
 62
     7
370
    25
100
AcDbLine
 10
269.8636993069
 20
267.8315051067
 30
0.0
 11
266.0636993592
 21
267.8315051067
 31
0.0
  0
LINE
  5
41B
330
1F
100
AcDbEntity
  8
0
  6
Continuous
 62
     7
370
    25
100
AcDbLine
 10
262.3622067972
 20
352.8315060007
 30
0.0
 11
262.3622067972
 21
267.8315051067
 31
0.0
  0
LINE
  5
41C
330
1F
100
AcDbEntity
  8
0
  6
Continuous
 62
     7
370
    25
100
AcDbLine
 10
266.0636993592
 20
352.8315060007
 30
0.0
 11
262.3622067972
 21
352.8315060007
 31
0.0
  0
LINE
  5
41D
330
1F
100
AcDbEntity
  8
0
  6
Continuous
 62
     7
370
    25
100
AcDbLine
 10
262.3622067972
 20
267.8315051067
 30
0.0
 11
266.0636993592
 21
267.8315051067
 31
0.0
  0
LINE
  5
41E
330
1F
100
AcDbEntity
  8
0
  6
Continuous
 62
     7
370
    25
100
AcDbLine
 10
270.3636993888
 20
267.8315051067
 30
0.0
 11
270.3636993888
 21
352.8315060007
 31
0.0
  0
LINE
  5
41F
330
1F
100
AcDbEntity
  8
0
  6
Continuous
 62
     7
370
    25
100
AcDbLine
 10
270.3636993888
 20
352.8315060007
 30
0.0
 11
269.8636993069
 21
352.8315060007
 31
0.0
  0
LINE
  5
420
330
1F
100
AcDbEntity
  8
0
  6
Continuous
 62
     7
370
    25
100
AcDbLine
 10
269.8636993069
 20
267.8315051067
 30
0.0
 11
270.3636993888
 21
267.8315051067
 31
0.0
  0
LINE
  5
421
330
1F
100
AcDbEntity
  8
0
  6
Continuous
 62
     7
370
    25
100
AcDbLine
 10
287.1136003874
 20
352.8315060007
 30
0.0
 11
287.1136003874
 21
267.8315051067
 31
0.0
  0
LINE
  5
422
330
1F
100
AcDbEntity
  8
0
  6
Continuous
 62
     7
370
    25
100
AcDbLine
 10
271.8636994018
 20
267.8315051067
 30
0.0
 11
271.8636994018
 21
352.8315060007
 31
0.0
  0
LINE
  5
423
330
1F
100
AcDbEntity
  8
0
  6
Continuous
 62
     7
370
    25
100
AcDbLine
 10
271.8636994018
 20
352.8315060007
 30
0.0
 11
287.1136003874
 21
352.8315060007
 31
0.0
  0
LINE
  5
424
330
1F
100
AcDbEntity
  8
0
  6
Continuous
 62
     7
370
    25
100
AcDbLine
 10
271.8636994018
 20
267.8315051067
 30
0.0
 11
287.1136003874
 21
267.8315051067
 31
0.0
  0
LINE
  5
425
330
1F
100
AcDbEntity
  8
0
  6
Continuous
 62
     7
370
    25
100
AcDbLine
 10
271.4054418962
 20
352.8315060007
 30
0.0
 11
271.4054418962
 21
267.8315051067
 31
0.0
  0
LINE
  5
426
330
1F
100
AcDbEntity
  8
0
  6
Continuous
 62
     7
370
    25
100
AcDbLine
 10
271.8636994018
 20
352.8315060007
 30
0.0
 11
271.4054418962
 21
352.8315060007
 31
0.0
  0
LINE
  5
427
330
1F
100
AcDbEntity
  8
0
  6
Continuous
 62
     7
370
    25
100
AcDbLine
 10
271.4054418962
 20
267.8315051067
 30
0.0
 11
271.8636994018
 21
267.8315051067
 31
0.0
  0
LINE
  5
428
330
1F
100
AcDbEntity
  8
0
  6
Continuous
 62
     7
370
    25
100
AcDbLine
 10
289.1136007152
 20
352.8315060007
 30
0.0
 11
287.1136003874
 21
352.8315060007
 31
0.0
  0
LINE
  5
429
330
1F
100
AcDbEntity
  8
0
  6
Continuous
 62
     7
370
    25
100
AcDbLine
 10
287.1136003874
 20
267.8315051067
 30
0.0
 11
289.1136007152
 21
267.8315051067
 31
0.0
  0
LINE
  5
42A
330
1F
100
AcDbEntity
  8
0
  6
Continuous
 62
     7
370
    25
100
AcDbLine
 10
271.4054418962
 20
352.8315060007
 30
0.0
 11
270.3636993888
 21
352.8315060007
 31
0.0
  0
LINE
  5
42B
330
1F
100
AcDbEntity
  8
0
  6
Continuous
 62
     7
370
    25
100
AcDbLine
 10
271.4054418962
 20
267.8315051067
 30
0.0
 11
270.3636993888
 21
267.8315051067
 31
0.0
  0
LINE
  5
42C
330
1F
100
AcDbEntity
  8
0
  6
Continuous
 62
     7
370
    25
100
AcDbLine
 10
253.6636991195
 20
352.8315060007
 30
0.0
 11
262.3622067972
 21
352.8315060007
 31
0.0
  0
LINE
  5
42D
330
1F
100
AcDbEntity
  8
0
  6
Continuous
 62
     7
370
    25
100
AcDbLine
 10
262.3622067972
 20
267.8315051067
 30
0.0
 11
253.6636991195
 21
267.8315051067
 31
0.0
  0
LINE
  5
42E
330
1F
100
AcDbEntity
  8
0
  6
Continuous
 62
     7
370
    25
100
AcDbLine
 10
69.1453070504
 20
444.3314977157
 30
0.0
 11
69.1453070504
 21
442.3315085637
 31
0.0
  0
LINE
  5
42F
330
1F
100
AcDbEntity
  8
0
  6
Continuous
 62
     7
370
    25
100
AcDbLine
 10
97.1453079146
 20
442.3315085637
 30
0.0
 11
97.1453079146
 21
444.3314977157
 31
0.0
  0
ARC
  5
430
330
1F
100
AcDbEntity
  8
0
  6
Continuous
 62
     7
370
    25
100
AcDbCircle
 10
83.1453074825
 20
413.16483844
 30
0.0
 40
34.16666666666669
100
AcDbArc
 50
65.810485846
 51
114.189514154
  0
ARC
  5
431
330
1F
100
AcDbEntity
  8
0
  6
Continuous
 62
     7
370
    25
100
AcDbCircle
 10
83.1453074825
 20
296.9981717733
 30
0.0
 40
34.16666666666674
100
AcDbArc
 50
275.4225968014
 51
294.189514154
  0
ARC
  5
432
330
1F
100
AcDbEntity
  8
0
  6
Continuous
 62
     7
370
    25
100
AcDbCircle
 10
83.1453074825
 20
296.9981717733
 30
0.0
 40
34.1666666666667
100
AcDbArc
 50
245.810485846
 51
264.5774031986
  0
LINE
  5
433
330
1F
100
AcDbEntity
  8
0
  6
Continuous
 62
     7
370
    25
100
AcDbLine
 10
97.1453079146
 20
265.8315050117
 30
0.0
 11
97.1453079146
 21
267.8315051067
 31
0.0
  0
LINE
  5
434
330
1F
100
AcDbEntity
  8
0
  6
Continuous
 62
     7
370
    25
100
AcDbLine
 10
69.1453070504
 20
267.8315051067
 30
0.0
 11
69.1453070504
 21
265.8315050117
 31
0.0
  0
LINE
  5
435
330
1F
100
AcDbEntity
  8
0
  6
Continuous
 62
     7
370
    25
100
AcDbLine
 10
70.7453071264
 20
353.1315036285
 30
0.0
 11
70.7453071264
 21
352.8315060007
 31
0.0
  0
LINE
  5
436
330
1F
100
AcDbEntity
  8
0
  6
Continuous
 62
     7
370
    25
100
AcDbLine
 10
95.5453078386
 20
352.8315060007
 30
0.0
 11
95.5453078386
 21
353.1315036285
 31
0.0
  0
LINE
  5
437
330
1F
100
AcDbEntity
  8
0
  6
Continuous
 62
     7
370
    25
100
AcDbLine
 10
69.1453070504
 20
356.9315083492
 30
0.0
 11
69.1453070504
 21
353.1315036285
 31
0.0
  0
LINE
  5
438
330
1F
100
AcDbEntity
  8
0
  6
Continuous
 62
     7
370
    25
100
AcDbLine
 10
97.1453079146
 20
353.1315036285
 30
0.0
 11
97.1453079146
 21
356.9315083492
 31
0.0
  0
LINE
  5
439
330
1F
100
AcDbEntity
  8
0
  6
Continuous
 62
     7
370
    25
100
AcDbLine
 10
70.3453078058
 20
357.3315076697
 30
0.0
 11
70.3453078058
 21
356.9315083492
 31
0.0
  0
LINE
  5
43A
330
1F
100
AcDbEntity
  8
0
  6
Continuous
 62
     7
370
    25
100
AcDbLine
 10
95.9453071591
 20
356.9315083492
 30
0.0
 11
95.9453071591
 21
357.3315076697
 31
0.0
  0
LINE
  5
43B
330
1F
100
AcDbEntity
  8
0
  6
Continuous
 62
     7
370
    25
100
AcDbLine
 10
69.0453072202
 20
428.3370830285
 30
0.0
 11
69.0453072202
 21
357.3315076697
 31
0.0
  0
LINE
  5
43C
330
1F
100
AcDbEntity
  8
0
  6
Continuous
 62
     7
370
    25
100
AcDbLine
 10
69.0453072202
 20
442.3315085637
 30
0.0
 11
69.0453072202
 21
433.300644921
 31
0.0
  0
LINE
  5
43D
330
1F
100
AcDbEntity
  8
0
  6
Continuous
 62
     7
370
    25
100
AcDbLine
 10
97.2453077447
 20
357.3315076697
 30
0.0
 11
97.2453077447
 21
442.3315085637
 31
0.0
  0
LINE
  5
43E
330
1F
100
AcDbEntity
  8
0
  6
Continuous
 62
     7
370
    25
100
AcDbLine
 10
97.2453077447
 20
267.8315051067
 30
0.0
 11
97.2453077447
 21
352.8315060007
 31
0.0
  0
LINE
  5
43F
330
1F
100
AcDbEntity
  8
0
  6
Continuous
 62
     7
370
    25
100
AcDbLine
 10
61.795406149
 20
352.8315060007
 30
0.0
 11
61.795406149
 21
267.8315051067
 31
0.0
  0
LINE
  5
440
330
1F
100
AcDbEntity
  8
0
  6
Continuous
 62
     7
370
    25
100
AcDbLine
 10
69.1453070504
 20
444.3314977157
 30
0.0
 11
97.1453079146
 21
444.3314977157
 31
0.0
  0
LINE
  5
441
330
1F
100
AcDbEntity
  8
0
  6
Continuous
 62
     7
370
    25
100
AcDbLine
 10
97.1453079146
 20
265.8315050117
 30
0.0
 11
69.1453070504
 21
265.8315050117
 31
0.0
  0
ARC
  5
442
330
1F
100
AcDbEntity
  8
0
  6
Continuous
 62
     7
370
    25
100
AcDbCircle
 10
83.5784586852
 20
296.2892115577
 30
0.0
 40
33.32574417803027
100
AcDbArc
 50
267.0520482143
 51
272.9479517857
  0
ARC
  5
443
330
1F
100
AcDbEntity
  8
0
  6
Continuous
 62
     7
370
    25
100
AcDbCircle
 10
80.7910301264
 20
276.0538557948
 30
0.0
 40
13.09038088889213
100
AcDbArc
 50
265.2959581327
 51
274.7040418673
  0
ARC
  5
444
330
1F
100
AcDbEntity
  8
0
  6
Continuous
 62
     7
370
    25
100
AcDbCircle
 10
80.358045462
 20
267.639294803
 30
0.0
 40
4.675808232666023
100
AcDbArc
 50
262.1262552598
 51
271.9814985128
  0
ARC
  5
445
330
1F
100
AcDbEntity
  8
0
  6
Continuous
 62
     7
370
    25
100
AcDbCircle
 10
82.7121627546
 20
296.2895511298
 30
0.0
 40
33.32608358006063
100
AcDbArc
 50
267.9687198582
 51
270.7447038756
  0
ARC
  5
446
330
1F
100
AcDbEntity
  8
0
  6
Continuous
 62
     7
370
    25
100
AcDbCircle
 10
85.4995781654
 20
276.0449761615
 30
0.0
 40
13.08150759196033
100
AcDbArc
 50
266.7576664211
 51
271.1884280582
  0
ARC
  5
447
330
1F
100
AcDbEntity
  8
0
  6
Continuous
 62
     7
370
    25
100
AcDbCircle
 10
85.9325801333
 20
267.6366072631
 30
0.0
 40
4.673101858124823
100
AcDbArc
 50
262.1256574083
 51
275.4213285319
  0
LINE
  5
448
330
1F
100
AcDbEntity
  8
0
  6
Continuous
 62
     7
370
    25
100
AcDbLine
 10
76.0935010512
 20
356.9315083492
 30
0.0
 11
97.1453079146
 21
356.9315083492
 31
0.0
  0
LINE
  5
449
330
1F
100
AcDbEntity
  8
0
  6
Continuous
 62
     7
370
    25
100
AcDbLine
 10
69.1453070504
 20
356.9315083492
 30
0.0
 11
76.0935010512
 21
356.9315083492
 31
0.0
  0
LINE
  5
44A
330
1F
100
AcDbEntity
  8
0
  6
Continuous
 62
     7
370
    25
100
AcDbLine
 10
76.0935010512
 20
353.1315036285
 30
0.0
 11
97.1453079146
 21
353.1315036285
 31
0.0
  0
LINE
  5
44B
330
1F
100
AcDbEntity
  8
0
  6
Continuous
 62
     7
370
    25
100
AcDbLine
 10
69.1453070504
 20
353.1315036285
 30
0.0
 11
76.0935010512
 21
353.1315036285
 31
0.0
  0
LINE
  5
44C
330
1F
100
AcDbEntity
  8
0
  6
Continuous
 62
     7
370
    25
100
AcDbLine
 10
97.2453077447
 20
442.3315085637
 30
0.0
 11
69.0453072202
 21
442.3315085637
 31
0.0
  0
LINE
  5
44D
330
1F
100
AcDbEntity
  8
0
  6
Continuous
 62
     7
370
    25
100
AcDbLine
 10
97.2453077447
 20
357.3315076697
 30
0.0
 11
69.0453072202
 21
357.3315076697
 31
0.0
  0
SPLINE
  5
44E
330
1F
100
AcDbEntity
  8
0
  6
Continuous
 62
     7
370
    25
100
AcDbSpline
210
0.0
220
0.0
230
1.0
 70
     8
 71
     3
 72
    18
 73
    14
 74
     0
 42
0.000000001
 43
0.00000001
 40
0.0
 40
0.0
 40
0.0
 40
0.0
 40
0.0346108009158914
 40
0.1402281868285787
 40
0.2463979366708579
 40
0.3540214470642498
 40
0.4617770907748744
 40
0.5680756865265308
 40
0.6736160816240213
 40
0.7802604764625146
 40
0.8881600013296065
 40
0.9955223383746898
 40
1.0
 40
1.0
 40
1.0
 40
1.0
 10
69.05072751761216
 20
433.3006449210436
 30
0.0
 10
69.04920580052126
 20
433.3093234092734
 30
0.0
 10
69.04304045262771
 20
433.3444849379488
 30
0.0
 10
69.08251543631589
 20
433.121648126931
 30
0.0
 10
69.15343797425068
 20
432.6541970197138
 30
0.0
 10
69.22999312067257
 20
431.9604749821434
 30
0.0
 10
69.27395019905757
 20
431.1420611009474
 30
0.0
 10
69.26640423331166
 20
430.2913610622786
 30
0.0
 10
69.21203533591805
 20
429.5082185626054
 30
0.0
 10
69.13259858244477
 20
428.860264576553
 30
0.0
 10
69.06849498384003
 20
428.4601213731267
 30
0.0
 10
69.03795439529888
 20
428.2890402947747
 30
0.0
 10
69.0459527760323
 20
428.335233618008
 30
0.0
 10
69.04627300173777
 20
428.3370830285341
 30
0.0
  0
LINE
  5
44F
330
1F
100
AcDbEntity
  8
0
  6
Continuous
 62
     7
370
    25
100
AcDbLine
 10
97.2453077447
 20
267.8315051067
 30
0.0
 11
70.1279408422
 21
267.8315051067
 31
0.0
  0
LINE
  5
450
330
1F
100
AcDbEntity
  8
0
  6
Continuous
 62
     7
370
    25
100
AcDbLine
 10
70.1279408422
 20
352.8315060007
 30
0.0
 11
70.1279408422
 21
267.8315051067
 31
0.0
  0
LINE
  5
451
330
1F
100
AcDbEntity
  8
0
  6
Continuous
 62
     7
370
    25
100
AcDbLine
 10
70.1279408422
 20
352.8315060007
 30
0.0
 11
97.2453077447
 21
352.8315060007
 31
0.0
  0
LINE
  5
452
330
1F
100
AcDbEntity
  8
0
  6
Continuous
 62
     7
370
    25
100
AcDbLine
 10
61.9489719284
 20
267.8315051067
 30
0.0
 11
61.9489719284
 21
352.8315060007
 31
0.0
  0
LINE
  5
453
330
1F
100
AcDbEntity
  8
0
  6
Continuous
 62
     7
370
    25
100
AcDbLine
 10
70.1279408422
 20
267.8315051067
 30
0.0
 11
61.9489719284
 21
267.8315051067
 31
0.0
  0
LINE
  5
454
330
1F
100
AcDbEntity
  8
0
  6
Continuous
 62
     7
370
    25
100
AcDbLine
 10
70.1279408422
 20
352.8315060007
 30
0.0
 11
61.9489719284
 21
352.8315060007
 31
0.0
  0
LINE
  5
455
330
1F
100
AcDbEntity
  8
0
  6
Continuous
 62
     7
370
    25
100
AcDbLine
 10
61.795406149
 20
267.8315051067
 30
0.0
 11
61.9489719284
 21
267.8315051067
 31
0.0
  0
LINE
  5
456
330
1F
100
AcDbEntity
  8
0
  6
Continuous
 62
     7
370
    25
100
AcDbLine
 10
61.9489719284
 20
352.8315060007
 30
0.0
 11
61.795406149
 21
352.8315060007
 31
0.0
  0
LINE
  5
457
330
1F
100
AcDbEntity
  8
0
  6
Continuous
 62
     7
370
    25
100
AcDbLine
 10
329.8955085346
 20
444.3314977157
 30
0.0
 11
329.8955085346
 21
442.3315085637
 31
0.0
  0
LINE
  5
458
330
1F
100
AcDbEntity
  8
0
  6
Continuous
 62
     7
370
    25
100
AcDbLine
 10
357.8955093988
 20
442.3315085637
 30
0.0
 11
357.8955093988
 21
444.3314977157
 31
0.0
  0
ARC
  5
459
330
1F
100
AcDbEntity
  8
0
  6
Continuous
 62
     7
370
    25
100
AcDbCircle
 10
343.8955089667
 20
413.16483844
 30
0.0
 40
34.16666666666671
100
AcDbArc
 50
65.810485846
 51
114.189514154
  0
ARC
  5
45A
330
1F
100
AcDbEntity
  8
0
  6
Continuous
 62
     7
370
    25
100
AcDbCircle
 10
343.8955089667
 20
296.9981717733
 30
0.0
 40
34.16666666666674
100
AcDbArc
 50
275.0908172057
 51
294.189514154
  0
ARC
  5
45B
330
1F
100
AcDbEntity
  8
0
  6
Continuous
 62
     7
370
    25
100
AcDbCircle
 10
343.8955089667
 20
296.9981717733
 30
0.0
 40
34.16666666666674
100
AcDbArc
 50
245.810485846
 51
264.9091827943
  0
LINE
  5
45C
330
1F
100
AcDbEntity
  8
0
  6
Continuous
 62
     7
370
    25
100
AcDbLine
 10
357.8955093988
 20
265.8315050117
 30
0.0
 11
357.8955093988
 21
267.8315051067
 31
0.0
  0
LINE
  5
45D
330
1F
100
AcDbEntity
  8
0
  6
Continuous
 62
     7
370
    25
100
AcDbLine
 10
329.8955085346
 20
267.8315051067
 30
0.0
 11
329.8955085346
 21
265.8315050117
 31
0.0
  0
LINE
  5
45E
330
1F
100
AcDbEntity
  8
0
  6
Continuous
 62
     7
370
    25
100
AcDbLine
 10
331.4955086106
 20
353.1315036285
 30
0.0
 11
331.4955086106
 21
352.8315060007
 31
0.0
  0
LINE
  5
45F
330
1F
100
AcDbEntity
  8
0
  6
Continuous
 62
     7
370
    25
100
AcDbLine
 10
356.2955093228
 20
352.8315060007
 30
0.0
 11
356.2955093228
 21
353.1315036285
 31
0.0
  0
LINE
  5
460
330
1F
100
AcDbEntity
  8
0
  6
Continuous
 62
     7
370
    25
100
AcDbLine
 10
329.8955085346
 20
356.9315083492
 30
0.0
 11
329.8955085346
 21
353.1315036285
 31
0.0
  0
LINE
  5
461
330
1F
100
AcDbEntity
  8
0
  6
Continuous
 62
     7
370
    25
100
AcDbLine
 10
357.8955093988
 20
353.1315036285
 30
0.0
 11
357.8955093988
 21
356.9315083492
 31
0.0
  0
LINE
  5
462
330
1F
100
AcDbEntity
  8
0
  6
Continuous
 62
     7
370
    25
100
AcDbLine
 10
331.09550929
 20
357.3315076697
 30
0.0
 11
331.09550929
 21
356.9315083492
 31
0.0
  0
LINE
  5
463
330
1F
100
AcDbEntity
  8
0
  6
Continuous
 62
     7
370
    25
100
AcDbLine
 10
356.6955086433
 20
356.9315083492
 30
0.0
 11
356.6955086433
 21
357.3315076697
 31
0.0
  0
LINE
  5
464
330
1F
100
AcDbEntity
  8
0
  6
Continuous
 62
     7
370
    25
100
AcDbLine
 10
329.7955087044
 20
442.3315085637
 30
0.0
 11
329.7955087044
 21
357.3315076697
 31
0.0
  0
LINE
  5
465
330
1F
100
AcDbEntity
  8
0
  6
Continuous
 62
     7
370
    25
100
AcDbLine
 10
329.7955087044
 20
352.8315060007
 30
0.0
 11
329.7955087044
 21
267.8315051067
 31
0.0
  0
LINE
  5
466
330
1F
100
AcDbEntity
  8
0
  6
Continuous
 62
     7
370
    25
100
AcDbLine
 10
329.8955085346
 20
444.3314977157
 30
0.0
 11
357.8955093988
 21
444.3314977157
 31
0.0
  0
LINE
  5
467
330
1F
100
AcDbEntity
  8
0
  6
Continuous
 62
     7
370
    25
100
AcDbLine
 10
345.9168815178
 20
265.8315050117
 30
0.0
 11
329.8955085346
 21
265.8315050117
 31
0.0
  0
LINE
  5
468
330
1F
100
AcDbEntity
  8
0
  6
Continuous
 62
     7
370
    25
100
AcDbLine
 10
357.8955093988
 20
265.8315050117
 30
0.0
 11
345.9168815178
 21
265.8315050117
 31
0.0
  0
ARC
  5
469
330
1F
100
AcDbEntity
  8
0
  6
Continuous
 62
     7
370
    25
100
AcDbCircle
 10
340.9264741571
 20
263.6995107299
 30
0.0
 40
0.7359069607293194
100
AcDbArc
 50
265.1098495356
 51
289.9051092057
  0
ARC
  5
46A
330
1F
100
AcDbEntity
  8
0
  6
Continuous
 62
     7
370
    25
100
AcDbCircle
 10
342.0361066485
 20
283.9282647086
 30
0.0
 40
20.9647967608612
100
AcDbArc
 50
267.4389036402
 51
270.9388614768
  0
ARC
  5
46B
330
1F
100
AcDbEntity
  8
0
  6
Continuous
 62
     7
370
    25
100
AcDbCircle
 10
345.0046776804
 20
292.3480308759
 30
0.0
 40
29.38456320997735
100
AcDbArc
 50
267.8367625694
 51
270.7930628037
  0
ARC
  5
46C
330
1F
100
AcDbEntity
  8
0
  6
Continuous
 62
     7
370
    25
100
AcDbCircle
 10
346.8645267128
 20
263.6965713236
 30
0.0
 40
0.7328293002650658
100
AcDbArc
 50
256.3604877866
 51
289.915580976
  0
ARC
  5
46D
330
1F
100
AcDbEntity
  8
0
  6
Continuous
 62
     7
370
    25
100
AcDbCircle
 10
345.7549115709
 20
283.9335249989
 30
0.0
 40
20.97005475111931
100
AcDbArc
 50
266.283581347
 51
273.716418653
  0
ARC
  5
46E
330
1F
100
AcDbEntity
  8
0
  6
Continuous
 62
     7
370
    25
100
AcDbCircle
 10
342.7863462428
 20
292.3493810778
 30
0.0
 40
29.3859130435879
100
AcDbArc
 50
266.8606198295
 51
273.1393801705
  0
LINE
  5
46F
330
1F
100
AcDbEntity
  8
0
  6
Continuous
 62
     7
370
    25
100
AcDbLine
 10
356.0358798721
 20
353.1315036285
 30
0.0
 11
356.0358798721
 21
352.8315060007
 31
0.0
  0
LINE
  5
470
330
1F
100
AcDbEntity
  8
0
  6
Continuous
 62
     7
370
    25
100
AcDbLine
 10
355.7998417535
 20
352.8315060007
 30
0.0
 11
355.7998417535
 21
353.1315036285
 31
0.0
  0
LINE
  5
471
330
1F
100
AcDbEntity
  8
0
  6
Continuous
 62
     7
370
    25
100
AcDbLine
 10
329.8955085346
 20
356.9315083492
 30
0.0
 11
357.8955093988
 21
356.9315083492
 31
0.0
  0
LINE
  5
472
330
1F
100
AcDbEntity
  8
0
  6
Continuous
 62
     7
370
    25
100
AcDbLine
 10
329.8955085346
 20
353.1315036285
 30
0.0
 11
357.8955093988
 21
353.1315036285
 31
0.0
  0
LINE
  5
473
330
1F
100
AcDbEntity
  8
0
  6
Continuous
 62
     7
370
    25
100
AcDbLine
 10
354.9429225394
 20
442.3315085637
 30
0.0
 11
329.7955087044
 21
442.3315085637
 31
0.0
  0
LINE
  5
474
330
1F
100
AcDbEntity
  8
0
  6
Continuous
 62
     7
370
    25
100
AcDbLine
 10
354.9429225394
 20
442.3315085637
 30
0.0
 11
354.9429225394
 21
357.3315076697
 31
0.0
  0
LINE
  5
475
330
1F
100
AcDbEntity
  8
0
  6
Continuous
 62
     7
370
    25
100
AcDbLine
 10
354.9429225394
 20
357.3315076697
 30
0.0
 11
329.7955087044
 21
357.3315076697
 31
0.0
  0
LINE
  5
476
330
1F
100
AcDbEntity
  8
0
  6
Continuous
 62
     7
370
    25
100
AcDbLine
 10
360.4434757152
 20
357.3315076697
 30
0.0
 11
360.4434757152
 21
442.3315085637
 31
0.0
  0
LINE
  5
477
330
1F
100
AcDbEntity
  8
0
  6
Continuous
 62
     7
370
    25
100
AcDbLine
 10
354.9429225394
 20
357.3315076697
 30
0.0
 11
360.4434757152
 21
357.3315076697
 31
0.0
  0
LINE
  5
478
330
1F
100
AcDbEntity
  8
0
  6
Continuous
 62
     7
370
    25
100
AcDbLine
 10
360.4434757152
 20
442.3315085637
 30
0.0
 11
354.9429225394
 21
442.3315085637
 31
0.0
  0
LINE
  5
479
330
1F
100
AcDbEntity
  8
0
  6
Continuous
 62
     7
370
    25
100
AcDbLine
 10
360.8955098906
 20
357.3315076697
 30
0.0
 11
360.8955098906
 21
442.3315085637
 31
0.0
  0
LINE
  5
47A
330
1F
100
AcDbEntity
  8
0
  6
Continuous
 62
     7
370
    25
100
AcDbLine
 10
360.4434757152
 20
357.3315076697
 30
0.0
 11
360.8955098906
 21
357.3315076697
 31
0.0
  0
LINE
  5
47B
330
1F
100
AcDbEntity
  8
0
  6
Continuous
 62
     7
370
    25
100
AcDbLine
 10
360.8955098906
 20
442.3315085637
 30
0.0
 11
360.4434757152
 21
442.3315085637
 31
0.0
  0
LINE
  5
47C
330
1F
100
AcDbEntity
  8
0
  6
Continuous
 62
     7
370
    25
100
AcDbLine
 10
361.0955095508
 20
357.3315076697
 30
0.0
 11
361.0955095508
 21
442.3315085637
 31
0.0
  0
LINE
  5
47D
330
1F
100
AcDbEntity
  8
0
  6
Continuous
 62
     7
370
    25
100
AcDbLine
 10
360.8955098906
 20
357.3315076697
 30
0.0
 11
361.0955095508
 21
357.3315076697
 31
0.0
  0
LINE
  5
47E
330
1F
100
AcDbEntity
  8
0
  6
Continuous
 62
     7
370
    25
100
AcDbLine
 10
361.0955095508
 20
442.3315085637
 30
0.0
 11
360.8955098906
 21
442.3315085637
 31
0.0
  0
CIRCLE
  5
47F
330
1F
100
AcDbEntity
  8
0
  6
Continuous
 62
     7
370
    25
100
AcDbCircle
 10
369.3955089667
 20
367.3315051067
 30
0.0
 40
3.199999999999989
  0
CIRCLE
  5
480
330
1F
100
AcDbEntity
  8
0
  6
Continuous
 62
     7
370
    25
100
AcDbCircle
 10
380.8955089667
 20
399.8315051067
 30
0.0
 40
3.199999999999932
  0
CIRCLE
  5
481
330
1F
100
AcDbEntity
  8
0
  6
Continuous
 62
     7
370
    25
100
AcDbCircle
 10
369.3955089667
 20
432.3315051067
 30
0.0
 40
3.199999999999989
  0
LINE
  5
482
330
1F
100
AcDbEntity
  8
0
  6
Continuous
 62
     7
370
    25
100
AcDbLine
 10
390.8955073574
 20
357.3315076697
 30
0.0
 11
390.8955073574
 21
442.3315085637
 31
0.0
  0
LINE
  5
483
330
1F
100
AcDbEntity
  8
0
  6
Continuous
 62
     7
370
    25
100
AcDbLine
 10
390.8955073574
 20
357.3315076697
 30
0.0
 11
361.0955095508
 21
357.3315076697
 31
0.0
  0
LINE
  5
484
330
1F
100
AcDbEntity
  8
0
  6
Continuous
 62
     7
370
    25
100
AcDbLine
 10
390.8955073574
 20
442.3315085637
 30
0.0
 11
361.0955095508
 21
442.3315085637
 31
0.0
  0
LINE
  5
485
330
1F
100
AcDbEntity
  8
0
  6
Continuous
 62
     7
370
    25
100
AcDbLine
 10
356.9198661142
 20
352.8315060007
 30
0.0
 11
356.9198661142
 21
267.8315051067
 31
0.0
  0
LINE
  5
486
330
1F
100
AcDbEntity
  8
0
  6
Continuous
 62
     7
370
    25
100
AcDbLine
 10
356.9198661142
 20
267.8315051067
 30
0.0
 11
329.7955087044
 21
267.8315051067
 31
0.0
  0
LINE
  5
487
330
1F
100
AcDbEntity
  8
0
  6
Continuous
 62
     7
370
    25
100
AcDbLine
 10
329.7955087044
 20
352.8315060007
 30
0.0
 11
356.9198661142
 21
352.8315060007
 31
0.0
  0
LINE
  5
488
330
1F
100
AcDbEntity
  8
0
  6
Continuous
 62
     7
370
    25
100
AcDbLine
 10
362.4621453353
 20
267.8315051067
 30
0.0
 11
362.4621453353
 21
352.8315060007
 31
0.0
  0
LINE
  5
489
330
1F
100
AcDbEntity
  8
0
  6
Continuous
 62
     7
370
    25
100
AcDbLine
 10
356.9198661142
 20
267.8315051067
 30
0.0
 11
362.4621453353
 21
267.8315051067
 31
0.0
  0
LINE
  5
48A
330
1F
100
AcDbEntity
  8
0
  6
Continuous
 62
     7
370
    25
100
AcDbLine
 10
362.4621453353
 20
352.8315060007
 30
0.0
 11
356.9198661142
 21
352.8315060007
 31
0.0
  0
LINE
  5
48B
330
1F
100
AcDbEntity
  8
0
  6
Continuous
 62
     7
370
    25
100
AcDbLine
 10
390.8955073574
 20
267.8315051067
 30
0.0
 11
390.8955073574
 21
352.8315060007
 31
0.0
  0
CIRCLE
  5
48C
330
1F
100
AcDbEntity
  8
0
  6
Continuous
 62
     7
370
    25
100
AcDbCircle
 10
369.3955089667
 20
342.8315051067
 30
0.0
 40
6.199999999999989
  0
CIRCLE
  5
48D
330
1F
100
AcDbEntity
  8
0
  6
Continuous
 62
     7
370
    25
100
AcDbCircle
 10
380.8955089667
 20
310.3315051067
 30
0.0
 40
6.199999999999989
  0
CIRCLE
  5
48E
330
1F
100
AcDbEntity
  8
0
  6
Continuous
 62
     7
370
    25
100
AcDbCircle
 10
369.3955089667
 20
277.8315051067
 30
0.0
 40
6.200000000000045
  0
LINE
  5
48F
330
1F
100
AcDbEntity
  8
0
  6
Continuous
 62
     7
370
    25
100
AcDbLine
 10
390.8955073574
 20
267.8315051067
 30
0.0
 11
362.4621453353
 21
267.8315051067
 31
0.0
  0
LINE
  5
490
330
1F
100
AcDbEntity
  8
0
  6
Continuous
 62
     7
370
    25
100
AcDbLine
 10
390.8955073574
 20
352.8315060007
 30
0.0
 11
362.4621453353
 21
352.8315060007
 31
0.0
  0
CIRCLE
  5
491
330
1F
100
AcDbEntity
  8
0
  6
Continuous
 62
     7
370
    25
100
AcDbCircle
 10
369.3955089667
 20
342.8315051067
 30
0.0
 40
3.199999999999989
  0
CIRCLE
  5
492
330
1F
100
AcDbEntity
  8
0
  6
Continuous
 62
     7
370
    25
100
AcDbCircle
 10
380.8955089667
 20
310.3315051067
 30
0.0
 40
3.199999999999989
  0
CIRCLE
  5
493
330
1F
100
AcDbEntity
  8
0
  6
Continuous
 62
     7
370
    25
100
AcDbCircle
 10
369.3955089667
 20
277.8315051067
 30
0.0
 40
3.200000000000045
  0
INSERT
  5
49F
330
1F
100
AcDbEntity
  8
0
  6
Continuous
 62
     7
370
     0
100
AcDbBlockReference
  2
SW_CENTERMARKSYMBOL_9
 10
369.3955089667
 20
432.3315051067
 30
0.0
  0
INSERT
  5
4AB
330
1F
100
AcDbEntity
  8
0
  6
Continuous
 62
     7
370
     0
100
AcDbBlockReference
  2
SW_CENTERMARKSYMBOL_10
 10
380.8955089667
 20
399.8315051067
 30
0.0
  0
INSERT
  5
4B7
330
1F
100
AcDbEntity
  8
0
  6
Continuous
 62
     7
370
     0
100
AcDbBlockReference
  2
SW_CENTERMARKSYMBOL_11
 10
369.3955089667
 20
367.3315051067
 30
0.0
  0
INSERT
  5
4C3
330
1F
100
AcDbEntity
  8
0
  6
Continuous
 62
     7
370
     0
100
AcDbBlockReference
  2
SW_CENTERMARKSYMBOL_12
 10
369.3955089667
 20
342.8315051067
 30
0.0
  0
INSERT
  5
4CF
330
1F
100
AcDbEntity
  8
0
  6
Continuous
 62
     7
370
     0
100
AcDbBlockReference
  2
SW_CENTERMARKSYMBOL_13
 10
380.8955089667
 20
310.3315051067
 30
0.0
  0
INSERT
  5
4DB
330
1F
100
AcDbEntity
  8
0
  6
Continuous
 62
     7
370
     0
100
AcDbBlockReference
  2
SW_CENTERMARKSYMBOL_14
 10
369.3955089667
 20
277.8315051067
 30
0.0
  0
LINE
  5
4DC
330
1F
100
AcDbEntity
  8
0
  6
Continuous
 62
     7
370
    25
100
AcDbLine
 10
484.1075442141
 20
351.2486356773
 30
0.0
 11
484.1075442141
 21
350.9486380495
 31
0.0
  0
LINE
  5
4DD
330
1F
100
AcDbEntity
  8
0
  6
Continuous
 62
     7
370
    25
100
AcDbLine
 10
508.9075449264
 20
350.9486380495
 30
0.0
 11
508.9075449264
 21
351.2486356773
 31
0.0
  0
LINE
  5
4DE
330
1F
100
AcDbEntity
  8
0
  6
Continuous
 62
     7
370
    25
100
AcDbLine
 10
510.6075448325
 20
355.048640398
 30
0.0
 11
510.6075448325
 21
440.0486338415
 31
0.0
  0
LINE
  5
4DF
330
1F
100
AcDbEntity
  8
0
  6
Continuous
 62
     7
370
    25
100
AcDbLine
 10
510.6075448325
 20
265.9486371555
 30
0.0
 11
510.6075448325
 21
350.9486380495
 31
0.0
  0
LINE
  5
4E0
330
1F
100
AcDbEntity
  8
0
  6
Continuous
 62
     7
370
    25
100
AcDbLine
 10
482.5075441381
 20
442.4486297645
 30
0.0
 11
482.5075441381
 21
440.4486406125
 31
0.0
  0
LINE
  5
4E1
330
1F
100
AcDbEntity
  8
0
  6
Continuous
 62
     7
370
    25
100
AcDbLine
 10
510.5075450024
 20
440.4486406125
 30
0.0
 11
510.5075450024
 21
442.4486297645
 31
0.0
  0
ARC
  5
4E2
330
1F
100
AcDbEntity
  8
0
  6
Continuous
 62
     7
370
    25
100
AcDbCircle
 10
496.5075445702
 20
411.2819704888
 30
0.0
 40
34.16666666666666
100
AcDbArc
 50
65.810485846
 51
114.189514154
  0
ARC
  5
4E3
330
1F
100
AcDbEntity
  8
0
  6
Continuous
 62
     7
370
    25
100
AcDbCircle
 10
508.3075445702
 20
440.0486371555
 30
0.0
 40
0.3999999999999773
100
AcDbArc
 50
90.0
 51
180.0
  0
ARC
  5
4E4
330
1F
100
AcDbEntity
  8
0
  6
Continuous
 62
     7
370
    25
100
AcDbCircle
 10
484.7075445702
 20
440.0486371555
 30
0.0
 40
0.3999999999999773
100
AcDbArc
 50
0.0
 51
90.0
  0
LINE
  5
4E5
330
1F
100
AcDbEntity
  8
0
  6
Continuous
 62
     7
370
    25
100
AcDbLine
 10
510.5075450024
 20
263.9486370605
 30
0.0
 11
510.5075450024
 21
265.9486371555
 31
0.0
  0
LINE
  5
4E6
330
1F
100
AcDbEntity
  8
0
  6
Continuous
 62
     7
370
    25
100
AcDbLine
 10
482.5075441381
 20
265.9486371555
 30
0.0
 11
482.5075441381
 21
263.9486370605
 31
0.0
  0
ARC
  5
4E7
330
1F
100
AcDbEntity
  8
0
  6
Continuous
 62
     7
370
    25
100
AcDbCircle
 10
496.5075445702
 20
295.1153038221
 30
0.0
 40
34.16666666666678
100
AcDbArc
 50
275.4776094312
 51
294.189514154
  0
ARC
  5
4E8
330
1F
100
AcDbEntity
  8
0
  6
Continuous
 62
     7
370
    25
100
AcDbCircle
 10
496.5075445702
 20
295.1153038221
 30
0.0
 40
34.16666666666679
100
AcDbArc
 50
245.810485846
 51
264.5223905688
  0
LINE
  5
4E9
330
1F
100
AcDbEntity
  8
0
  6
Continuous
 62
     7
370
    25
100
AcDbLine
 10
482.5075441381
 20
355.048640398
 30
0.0
 11
482.5075441381
 21
351.2486356773
 31
0.0
  0
LINE
  5
4EA
330
1F
100
AcDbEntity
  8
0
  6
Continuous
 62
     7
370
    25
100
AcDbLine
 10
510.5075450024
 20
351.2486356773
 30
0.0
 11
510.5075450024
 21
355.048640398
 31
0.0
  0
LINE
  5
4EB
330
1F
100
AcDbEntity
  8
0
  6
Continuous
 62
     7
370
    25
100
AcDbLine
 10
484.2206701046
 20
351.2486356773
 30
0.0
 11
484.2206701046
 21
350.9486380495
 31
0.0
  0
LINE
  5
4EC
330
1F
100
AcDbEntity
  8
0
  6
Continuous
 62
     7
370
    25
100
AcDbLine
 10
484.390095376
 20
350.9486380495
 30
0.0
 11
484.390095376
 21
351.2486356773
 31
0.0
  0
LINE
  5
4ED
330
1F
100
AcDbEntity
  8
0
  6
Continuous
 62
     7
370
    25
100
AcDbLine
 10
485.4692924177
 20
440.0486338415
 30
0.0
 11
485.4692924177
 21
355.048640398
 31
0.0
  0
LINE
  5
4EE
330
1F
100
AcDbEntity
  8
0
  6
Continuous
 62
     7
370
    25
100
AcDbLine
 10
485.4692924177
 20
355.048640398
 30
0.0
 11
510.6075448325
 21
355.048640398
 31
0.0
  0
LINE
  5
4EF
330
1F
100
AcDbEntity
  8
0
  6
Continuous
 62
     7
370
    25
100
AcDbLine
 10
485.4692924177
 20
440.0486338415
 30
0.0
 11
510.6075448325
 21
440.0486338415
 31
0.0
  0
LINE
  5
4F0
330
1F
100
AcDbEntity
  8
0
  6
Continuous
 62
     7
370
    25
100
AcDbLine
 10
479.9656146547
 20
355.048640398
 30
0.0
 11
479.9656146547
 21
440.0486338415
 31
0.0
  0
LINE
  5
4F1
330
1F
100
AcDbEntity
  8
0
  6
Continuous
 62
     7
370
    25
100
AcDbLine
 10
485.4692924177
 20
355.048640398
 30
0.0
 11
479.9656146547
 21
355.048640398
 31
0.0
  0
LINE
  5
4F2
330
1F
100
AcDbEntity
  8
0
  6
Continuous
 62
     7
370
    25
100
AcDbLine
 10
479.9656146547
 20
440.0486338415
 30
0.0
 11
485.4692924177
 21
440.0486338415
 31
0.0
  0
LINE
  5
4F3
330
1F
100
AcDbEntity
  8
0
  6
Continuous
 62
     7
370
    25
100
AcDbLine
 10
479.5130626639
 20
355.048640398
 30
0.0
 11
479.5130626639
 21
440.0486338415
 31
0.0
  0
LINE
  5
4F4
330
1F
100
AcDbEntity
  8
0
  6
Continuous
 62
     7
370
    25
100
AcDbLine
 10
479.9656146547
 20
355.048640398
 30
0.0
 11
479.5130626639
 21
355.048640398
 31
0.0
  0
LINE
  5
4F5
330
1F
100
AcDbEntity
  8
0
  6
Continuous
 62
     7
370
    25
100
AcDbLine
 10
479.5130626639
 20
440.0486338415
 30
0.0
 11
479.9656146547
 21
440.0486338415
 31
0.0
  0
LINE
  5
4F6
330
1F
100
AcDbEntity
  8
0
  6
Continuous
 62
     7
370
    25
100
AcDbLine
 10
479.5118370434
 20
355.048640398
 30
0.0
 11
479.5118370434
 21
440.0486338415
 31
0.0
  0
LINE
  5
4F7
330
1F
100
AcDbEntity
  8
0
  6
Continuous
 62
     7
370
    25
100
AcDbLine
 10
479.5118370434
 20
355.048640398
 30
0.0
 11
479.5130626639
 21
355.048640398
 31
0.0
  0
LINE
  5
4F8
330
1F
100
AcDbEntity
  8
0
  6
Continuous
 62
     7
370
    25
100
AcDbLine
 10
479.5118370434
 20
440.0486338415
 30
0.0
 11
479.5130626639
 21
440.0486338415
 31
0.0
  0
LINE
  5
4F9
330
1F
100
AcDbEntity
  8
0
  6
Continuous
 62
     7
370
    25
100
AcDbLine
 10
479.3097474953
 20
355.048640398
 30
0.0
 11
479.3097474953
 21
440.0486338415
 31
0.0
  0
LINE
  5
4FA
330
1F
100
AcDbEntity
  8
0
  6
Continuous
 62
     7
370
    25
100
AcDbLine
 10
479.5118370434
 20
355.048640398
 30
0.0
 11
479.3097474953
 21
355.048640398
 31
0.0
  0
LINE
  5
4FB
330
1F
100
AcDbEntity
  8
0
  6
Continuous
 62
     7
370
    25
100
AcDbLine
 10
479.3097474953
 20
440.0486338415
 30
0.0
 11
479.5118370434
 21
440.0486338415
 31
0.0
  0
LINE
  5
4FC
330
1F
100
AcDbEntity
  8
0
  6
Continuous
 62
     7
370
    25
100
AcDbLine
 10
449.5097627273
 20
355.048640398
 30
0.0
 11
449.5097627273
 21
440.0486338415
 31
0.0
  0
LINE
  5
4FD
330
1F
100
AcDbEntity
  8
0
  6
Continuous
 62
     7
370
    25
100
AcDbLine
 10
449.5057952931
 20
355.048640398
 30
0.0
 11
449.5057952931
 21
440.0486338415
 31
0.0
  0
LINE
  5
4FE
330
1F
100
AcDbEntity
  8
0
  6
Continuous
 62
     7
370
    25
100
AcDbLine
 10
449.5057952931
 20
355.048640398
 30
0.0
 11
449.5097627273
 21
355.048640398
 31
0.0
  0
LINE
  5
4FF
330
1F
100
AcDbEntity
  8
0
  6
Continuous
 62
     7
370
    25
100
AcDbLine
 10
449.5057952931
 20
440.0486338415
 30
0.0
 11
449.5097627273
 21
440.0486338415
 31
0.0
  0
CIRCLE
  5
500
330
1F
100
AcDbEntity
  8
0
  6
Continuous
 62
     7
370
    25
100
AcDbCircle
 10
471.0097516222
 20
365.0486363039
 30
0.0
 40
3.199998948734508
  0
CIRCLE
  5
501
330
1F
100
AcDbEntity
  8
0
  6
Continuous
 62
     7
370
    25
100
AcDbCircle
 10
459.5097585281
 20
397.548648008
 30
0.0
 40
3.200000402405265
  0
CIRCLE
  5
502
330
1F
100
AcDbEntity
  8
0
  6
Continuous
 62
     7
370
    25
100
AcDbCircle
 10
471.0097516222
 20
430.0486339198
 30
0.0
 40
3.199998948745469
  0
LINE
  5
503
330
1F
100
AcDbEntity
  8
0
  6
Continuous
 62
     7
370
    25
100
AcDbLine
 10
449.5097627273
 20
355.048640398
 30
0.0
 11
479.3097474953
 21
355.048640398
 31
0.0
  0
LINE
  5
504
330
1F
100
AcDbEntity
  8
0
  6
Continuous
 62
     7
370
    25
100
AcDbLine
 10
449.5097627273
 20
440.0486338415
 30
0.0
 11
479.3097474953
 21
440.0486338415
 31
0.0
  0
ARC
  5
505
330
1F
100
AcDbEntity
  8
0
  6
Continuous
 62
     7
370
    25
100
AcDbCircle
 10
459.508913378
 20
397.5486371197
 30
0.0
 40
3.200002014649855
100
AcDbArc
 50
270.0001624476
 51
89.9998375524
  0
ARC
  5
506
330
1F
100
AcDbEntity
  8
0
  6
Continuous
 62
     7
370
    25
100
AcDbCircle
 10
471.0089126134
 20
430.0486359276
 30
0.0
 40
3.200002014638737
100
AcDbArc
 50
270.0000598115
 51
89.9999401885
  0
ARC
  5
507
330
1F
100
AcDbEntity
  8
0
  6
Continuous
 62
     7
370
    25
100
AcDbCircle
 10
471.0089126134
 20
365.0486383118
 30
0.0
 40
3.200002014638737
100
AcDbArc
 50
270.0000598117
 51
89.9999401883
  0
LINE
  5
508
330
1F
100
AcDbEntity
  8
0
  6
Continuous
 62
     7
370
    25
100
AcDbLine
 10
483.4831874227
 20
265.9486371555
 30
0.0
 11
510.6075448325
 21
265.9486371555
 31
0.0
  0
LINE
  5
509
330
1F
100
AcDbEntity
  8
0
  6
Continuous
 62
     7
370
    25
100
AcDbLine
 10
483.4831874227
 20
350.9486380495
 30
0.0
 11
483.4831874227
 21
265.9486371555
 31
0.0
  0
LINE
  5
50A
330
1F
100
AcDbEntity
  8
0
  6
Continuous
 62
     7
370
    25
100
AcDbLine
 10
510.6075448325
 20
350.9486380495
 30
0.0
 11
483.4831874227
 21
350.9486380495
 31
0.0
  0
LINE
  5
50B
330
1F
100
AcDbEntity
  8
0
  6
Continuous
 62
     7
370
    25
100
AcDbLine
 10
477.9409082016
 20
265.9486371555
 30
0.0
 11
477.9409082016
 21
350.9486380495
 31
0.0
  0
LINE
  5
50C
330
1F
100
AcDbEntity
  8
0
  6
Continuous
 62
     7
370
    25
100
AcDbLine
 10
483.4831874227
 20
265.9486371555
 30
0.0
 11
477.9409082016
 21
265.9486371555
 31
0.0
  0
LINE
  5
50D
330
1F
100
AcDbEntity
  8
0
  6
Continuous
 62
     7
370
    25
100
AcDbLine
 10
477.9409082016
 20
350.9486380495
 30
0.0
 11
483.4831874227
 21
350.9486380495
 31
0.0
  0
LINE
  5
50E
330
1F
100
AcDbEntity
  8
0
  6
Continuous
 62
     7
370
    25
100
AcDbLine
 10
449.5075461796
 20
265.9486371555
 30
0.0
 11
449.5075461796
 21
350.9486380495
 31
0.0
  0
CIRCLE
  5
50F
330
1F
100
AcDbEntity
  8
0
  6
Continuous
 62
     7
370
    25
100
AcDbCircle
 10
471.0075445702
 20
340.9486371555
 30
0.0
 40
6.200000000000045
  0
CIRCLE
  5
510
330
1F
100
AcDbEntity
  8
0
  6
Continuous
 62
     7
370
    25
100
AcDbCircle
 10
459.5075445702
 20
308.4486371555
 30
0.0
 40
6.199999999999989
  0
CIRCLE
  5
511
330
1F
100
AcDbEntity
  8
0
  6
Continuous
 62
     7
370
    25
100
AcDbCircle
 10
471.0075445702
 20
275.9486371555
 30
0.0
 40
6.200000000000045
  0
LINE
  5
512
330
1F
100
AcDbEntity
  8
0
  6
Continuous
 62
     7
370
    25
100
AcDbLine
 10
449.5075461796
 20
265.9486371555
 30
0.0
 11
477.9409082016
 21
265.9486371555
 31
0.0
  0
LINE
  5
513
330
1F
100
AcDbEntity
  8
0
  6
Continuous
 62
     7
370
    25
100
AcDbLine
 10
449.5075461796
 20
350.9486380495
 30
0.0
 11
477.9409082016
 21
350.9486380495
 31
0.0
  0
CIRCLE
  5
514
330
1F
100
AcDbEntity
  8
0
  6
Continuous
 62
     7
370
    25
100
AcDbCircle
 10
471.0075445702
 20
275.9486371555
 30
0.0
 40
3.200000000000045
  0
CIRCLE
  5
515
330
1F
100
AcDbEntity
  8
0
  6
Continuous
 62
     7
370
    25
100
AcDbCircle
 10
471.0075445702
 20
340.9486371555
 30
0.0
 40
3.200000000000045
  0
CIRCLE
  5
516
330
1F
100
AcDbEntity
  8
0
  6
Continuous
 62
     7
370
    25
100
AcDbCircle
 10
459.5075445702
 20
308.4486371555
 30
0.0
 40
3.199999999999989
  0
LINE
  5
517
330
1F
100
AcDbEntity
  8
0
  6
Continuous
 62
     7
370
    25
100
AcDbLine
 10
482.5075441381
 20
442.4486297645
 30
0.0
 11
510.5075450024
 21
442.4486297645
 31
0.0
  0
LINE
  5
518
330
1F
100
AcDbEntity
  8
0
  6
Continuous
 62
     7
370
    25
100
AcDbLine
 10
482.5075441381
 20
440.4486406125
 30
0.0
 11
510.5075450024
 21
440.4486406125
 31
0.0
  0
LINE
  5
519
330
1F
100
AcDbEntity
  8
0
  6
Continuous
 62
     7
370
    25
100
AcDbLine
 10
510.5075450024
 20
263.9486370605
 30
0.0
 11
482.5075441381
 21
263.9486370605
 31
0.0
  0
ARC
  5
51A
330
1F
100
AcDbEntity
  8
0
  6
Continuous
 62
     7
370
    25
100
AcDbCircle
 10
499.2669221147
 20
266.3389600529
 30
0.0
 40
5.258326560144346
100
AcDbArc
 50
262.5770831561
 51
275.4789087556
  0
ARC
  5
51B
330
1F
100
AcDbEntity
  8
0
  6
Continuous
 62
     7
370
    25
100
AcDbCircle
 10
496.8680905054
 20
294.6241039432
 30
0.0
 40
33.54350454525103
100
AcDbArc
 50
267.0616337561
 51
272.9383662439
  0
ARC
  5
51C
330
1F
100
AcDbEntity
  8
0
  6
Continuous
 62
     7
370
    25
100
AcDbCircle
 10
494.10857252
 20
273.3682045416
 30
0.0
 40
12.28759677675989
100
AcDbArc
 50
265.1446803503
 51
274.8553196497
  0
ARC
  5
51D
330
1F
100
AcDbEntity
  8
0
  6
Continuous
 62
     7
370
    25
100
AcDbCircle
 10
493.7482739153
 20
266.3427101879
 30
0.0
 40
5.262095365341565
100
AcDbArc
 50
262.578171632
 51
271.5487996454
  0
ARC
  5
51E
330
1F
100
AcDbEntity
  8
0
  6
Continuous
 62
     7
370
    25
100
AcDbCircle
 10
496.146990512
 20
294.6234987857
 30
0.0
 40
33.54289940808528
100
AcDbArc
 50
267.8298678789
 51
270.6158866413
  0
ARC
  5
51F
330
1F
100
AcDbEntity
  8
0
  6
Continuous
 62
     7
370
    25
100
AcDbCircle
 10
498.9065373091
 20
273.3610542621
 30
0.0
 40
12.28045304548956
100
AcDbArc
 50
266.4131960515
 51
271.0173990848
  0
LINE
  5
520
330
1F
100
AcDbEntity
  8
0
  6
Continuous
 62
     7
370
    25
100
AcDbLine
 10
482.5075441381
 20
351.2486356773
 30
0.0
 11
510.5075450024
 21
351.2486356773
 31
0.0
  0
ENDSEC
  0
SECTION
  2
OBJECTS
  0
DICTIONARY
  5
C
330
0
100
AcDbDictionary
281
     1
  3
ACAD_GROUP
350
D
  3
ACAD_LAYOUT
350
1A
  3
ACAD_MLINESTYLE
350
17
  3
ACAD_PLOTSETTINGS
350
19
  3
ACAD_PLOTSTYLENAME
350
E
  3
ACAD_SCALELIST
350
47
  0
DICTIONARY
  5
D
102
{ACAD_REACTORS
330
C
102
}
330
C
100
AcDbDictionary
281
     1
  0
DICTIONARY
  5
1A
102
{ACAD_REACTORS
330
C
102
}
330
C
100
AcDbDictionary
281
     1
  3
Layout1
350
1E
  3
Layout2
350
26
  3
Model
350
22
  0
DICTIONARY
  5
17
102
{ACAD_REACTORS
330
C
102
}
330
C
100
AcDbDictionary
281
     1
  3
Standard
350
18
  0
DICTIONARY
  5
19
102
{ACAD_REACTORS
330
C
102
}
330
C
100
AcDbDictionary
281
     1
  0
ACDBDICTIONARYWDFLT
  5
E
102
{ACAD_REACTORS
330
C
102
}
330
C
100
AcDbDictionary
281
     1
  3
Normal
350
F
100
AcDbDictionaryWithDefault
340
F
  0
DICTIONARY
  5
47
102
{ACAD_REACTORS
330
C
102
}
330
C
100
AcDbDictionary
281
     1
  3
A0
350
48
  3
A1
350
49
  3
A2
350
4A
  3
A3
350
4B
  3
A4
350
4C
  3
A5
350
4D
  3
A6
350
4E
  3
A7
350
4F
  3
A8
350
50
  3
A9
350
51
  3
B0
350
52
  3
B1
350
53
  3
B2
350
54
  3
B3
350
55
  3
B4
350
56
  3
B5
350
57
  3
B6
350
58
  3
B7
350
59
  3
B8
350
5A
  3
B9
350
5B
  3
C0
350
5C
  3
C1
350
5D
  3
C2
350
5E
  3
C3
350
5F
  3
C4
350
60
  3
C5
350
61
  3
C6
350
62
  3
C7
350
63
  3
C8
350
64
  3
C9
350
65
  3
D0
350
66
  3
D1
350
67
  3
D2
350
68
  0
LAYOUT
  5
1E
102
{ACAD_REACTORS
330
1A
102
}
330
1A
100
AcDbPlotSettings
  1

  2
none_device
  4

  6

 40
0.0
 41
0.0
 42
0.0
 43
0.0
 44
0.0
 45
0.0
 46
0.0
 47
0.0
 48
0.0
 49
0.0
140
0.0
141
0.0
142
1.0
143
1.0
 70
   688
 72
     1
 73
     0
 74
     5
  7

 75
    16
147
1.0
148
0.0
149
0.0
100
AcDbLayout
  1
Layout1
 70
     1
 71
     1
 10
0.0
 20
0.0
 11
420.0
 21
297.0
 12
0.0
 22
0.0
 32
0.0
 14
1.0000000000E+20
 24
1.0000000000E+20
 34
1.0000000000E+20
 15
-1.0000000000E+20
 25
-1.0000000000E+20
 35
-1.0000000000E+20
146
0.0
 13
0.0
 23
0.0
 33
0.0
 16
1.0
 26
0.0
 36
0.0
 17
0.0
 27
1.0
 37
0.0
 76
     0
330
1B
  0
LAYOUT
  5
26
102
{ACAD_REACTORS
330
1A
102
}
330
1A
100
AcDbPlotSettings
  1

  2
none_device
  4

  6

 40
0.0
 41
0.0
 42
0.0
 43
0.0
 44
0.0
 45
0.0
 46
0.0
 47
0.0
 48
0.0
 49
0.0
140
0.0
141
0.0
142
1.0
143
1.0
 70
   688
 72
     1
 73
     0
 74
     5
  7

 75
    16
147
1.0
148
0.0
149
0.0
100
AcDbLayout
  1
Layout2
 70
     1
 71
     2
 10
0.0
 20
0.0
 11
0.0
 21
0.0
 12
0.0
 22
0.0
 32
0.0
 14
0.0
 24
0.0
 34
0.0
 15
0.0
 25
0.0
 35
0.0
146
0.0
 13
0.0
 23
0.0
 33
0.0
 16
1.0
 26
0.0
 36
0.0
 17
0.0
 27
1.0
 37
0.0
 76
     0
330
23
  0
LAYOUT
  5
22
102
{ACAD_REACTORS
330
1A
102
}
330
1A
100
AcDbPlotSettings
  1

  2
none_device
  4
Letter_(8.50_x_11.00_Inches)
  6

 40
6.35
 41
6.35
 42
6.35000508
 43
6.35000508
 44
215.9
 45
279.4
 46
0.0
 47
0.0
 48
0.0
 49
0.0
140
0.0
141
0.0
142
1.0
143
1.0
 70
  1712
 72
     1
 73
     0
 74
     0
  7

 75
     0
147
1.0
148
0.0
149
0.0
100
AcDbLayout
  1
Model
 70
     1
 71
     0
 10
0.0
 20
0.0
 11
840.0
 21
594.0
 12
0.0
 22
0.0
 32
0.0
 14
0.0
 24
0.0
 34
0.0
 15
840.0
 25
594.0
 35
0.0
146
0.0
 13
0.0
 23
0.0
 33
0.0
 16
1.0
 26
0.0
 36
0.0
 17
0.0
 27
1.0
 37
0.0
 76
     0
330
1F
331
29
  0
MLINESTYLE
  5
18
102
{ACAD_REACTORS
330
17
102
}
330
17
100
AcDbMlineStyle
  2
Standard
 70
     0
  3

 62
   256
 51
90.0
 52
90.0
 71
     2
 49
0.5
 62
   256
  6
BYLAYER
 49
-0.5
 62
   256
  6
BYLAYER
  0
ACDBPLACEHOLDER
  5
F
102
{ACAD_REACTORS
330
E
102
}
330
E
  0
SCALE
  5
48
102
{ACAD_REACTORS
330
47
102
}
330
47
100
AcDbScale
 70
     0
300
1:1
140
1.0
141
1.0
290
     1
  0
SCALE
  5
49
102
{ACAD_REACTORS
330
47
102
}
330
47
100
AcDbScale
 70
     0
300
1:2
140
1.0
141
2.0
290
     0
  0
SCALE
  5
4A
102
{ACAD_REACTORS
330
47
102
}
330
47
100
AcDbScale
 70
     0
300
1:4
140
1.0
141
4.0
290
     0
  0
SCALE
  5
4B
102
{ACAD_REACTORS
330
47
102
}
330
47
100
AcDbScale
 70
     0
300
1:5
140
1.0
141
5.0
290
     0
  0
SCALE
  5
4C
102
{ACAD_REACTORS
330
47
102
}
330
47
100
AcDbScale
 70
     0
300
1:8
140
1.0
141
8.0
290
     0
  0
SCALE
  5
4D
102
{ACAD_REACTORS
330
47
102
}
330
47
100
AcDbScale
 70
     0
300
1:10
140
1.0
141
10.0
290
     0
  0
SCALE
  5
4E
102
{ACAD_REACTORS
330
47
102
}
330
47
100
AcDbScale
 70
     0
300
1:16
140
1.0
141
16.0
290
     0
  0
SCALE
  5
4F
102
{ACAD_REACTORS
330
47
102
}
330
47
100
AcDbScale
 70
     0
300
1:20
140
1.0
141
20.0
290
     0
  0
SCALE
  5
50
102
{ACAD_REACTORS
330
47
102
}
330
47
100
AcDbScale
 70
     0
300
1:30
140
1.0
141
30.0
290
     0
  0
SCALE
  5
51
102
{ACAD_REACTORS
330
47
102
}
330
47
100
AcDbScale
 70
     0
300
1:40
140
1.0
141
40.0
290
     0
  0
SCALE
  5
52
102
{ACAD_REACTORS
330
47
102
}
330
47
100
AcDbScale
 70
     0
300
1:50
140
1.0
141
50.0
290
     0
  0
SCALE
  5
53
102
{ACAD_REACTORS
330
47
102
}
330
47
100
AcDbScale
 70
     0
300
1:100
140
1.0
141
100.0
290
     0
  0
SCALE
  5
54
102
{ACAD_REACTORS
330
47
102
}
330
47
100
AcDbScale
 70
     0
300
2:1
140
2.0
141
1.0
290
     0
  0
SCALE
  5
55
102
{ACAD_REACTORS
330
47
102
}
330
47
100
AcDbScale
 70
     0
300
4:1
140
4.0
141
1.0
290
     0
  0
SCALE
  5
56
102
{ACAD_REACTORS
330
47
102
}
330
47
100
AcDbScale
 70
     0
300
8:1
140
8.0
141
1.0
290
     0
  0
SCALE
  5
57
102
{ACAD_REACTORS
330
47
102
}
330
47
100
AcDbScale
 70
     0
300
10:1
140
10.0
141
1.0
290
     0
  0
SCALE
  5
58
102
{ACAD_REACTORS
330
47
102
}
330
47
100
AcDbScale
 70
     0
300
100:1
140
100.0
141
1.0
290
     0
  0
SCALE
  5
59
102
{ACAD_REACTORS
330
47
102
}
330
47
100
AcDbScale
 70
     0
300
1/128" = 1'-0"
140
0.0078125
141
12.0
290
     0
  0
SCALE
  5
5A
102
{ACAD_REACTORS
330
47
102
}
330
47
100
AcDbScale
 70
     0
300
1/64" = 1'-0"
140
0.015625
141
12.0
290
     0
  0
SCALE
  5
5B
102
{ACAD_REACTORS
330
47
102
}
330
47
100
AcDbScale
 70
     0
300
1/32" = 1'-0"
140
0.03125
141
12.0
290
     0
  0
SCALE
  5
5C
102
{ACAD_REACTORS
330
47
102
}
330
47
100
AcDbScale
 70
     0
300
1/16" = 1'-0"
140
0.0625
141
12.0
290
     0
  0
SCALE
  5
5D
102
{ACAD_REACTORS
330
47
102
}
330
47
100
AcDbScale
 70
     0
300
3/32" = 1'-0"
140
0.09375
141
12.0
290
     0
  0
SCALE
  5
5E
102
{ACAD_REACTORS
330
47
102
}
330
47
100
AcDbScale
 70
     0
300
1/8" = 1'-0"
140
0.125
141
12.0
290
     0
  0
SCALE
  5
5F
102
{ACAD_REACTORS
330
47
102
}
330
47
100
AcDbScale
 70
     0
300
3/16" = 1'-0"
140
0.1875
141
12.0
290
     0
  0
SCALE
  5
60
102
{ACAD_REACTORS
330
47
102
}
330
47
100
AcDbScale
 70
     0
300
1/4" = 1'-0"
140
0.25
141
12.0
290
     0
  0
SCALE
  5
61
102
{ACAD_REACTORS
330
47
102
}
330
47
100
AcDbScale
 70
     0
300
3/8" = 1'-0"
140
0.375
141
12.0
290
     0
  0
SCALE
  5
62
102
{ACAD_REACTORS
330
47
102
}
330
47
100
AcDbScale
 70
     0
300
1/2" = 1'-0"
140
0.5
141
12.0
290
     0
  0
SCALE
  5
63
102
{ACAD_REACTORS
330
47
102
}
330
47
100
AcDbScale
 70
     0
300
3/4" = 1'-0"
140
0.75
141
12.0
290
     0
  0
SCALE
  5
64
102
{ACAD_REACTORS
330
47
102
}
330
47
100
AcDbScale
 70
     0
300
1" = 1'-0"
140
1.0
141
12.0
290
     0
  0
SCALE
  5
65
102
{ACAD_REACTORS
330
47
102
}
330
47
100
AcDbScale
 70
     0
300
1-1/2" = 1'-0"
140
1.5
141
12.0
290
     0
  0
SCALE
  5
66
102
{ACAD_REACTORS
330
47
102
}
330
47
100
AcDbScale
 70
     0
300
3" = 1'-0"
140
3.0
141
12.0
290
     0
  0
SCALE
  5
67
102
{ACAD_REACTORS
330
47
102
}
330
47
100
AcDbScale
 70
     0
300
6" = 1'-0"
140
6.0
141
12.0
290
     0
  0
SCALE
  5
68
102
{ACAD_REACTORS
330
47
102
}
330
47
100
AcDbScale
 70
     0
300
1'-0" = 1'-0"
140
12.0
141
12.0
290
     0
  0
ENDSEC
  0
EOF
