  0
SECTION
  2
HEADER
  9
$ACADVER
  1
AC1015
  9
$ACADMAINTVER
 70
    20
  9
$DWGCODEPAGE
  3
ANSI_1252
  9
$INSBASE
 10
0.0
 20
0.0
 30
0.0
  9
$EXTMIN
 10
-84.14863659847652
 20
-147.3546183719818
 30
-0.0000000000000011
  9
$EXTMAX
 10
276.4586643372531
 20
153.8024661703655
 30
0.0000000000000142
  9
$LIMMIN
 10
-20.0
 20
-0.021978
  9
$LIMMAX
 10
2645.85
 20
758.35
  9
$ORTHOMODE
 70
     0
  9
$REGENMODE
 70
     1
  9
$FILLMODE
 70
     1
  9
$QTEXTMODE
 70
     0
  9
$MIRRTEXT
 70
     1
  9
$LTSCALE
 40
10.0
  9
$ATTMODE
 70
     1
  9
$TEXTSIZE
 40
0.0
  9
$TRACEWID
 40
0.05
  9
$TEXTSTYLE
  7
Standard
  9
$CLAYER
  8
0
  9
$CELTYPE
  6
Continuous
  9
$CECOLOR
 62
   256
  9
$CELTSCALE
 40
1.0
  9
$DISPSILH
 70
     0
  9
$DIMSCALE
 40
1.0
  9
$DIMASZ
 40
1.25
  9
$DIMEXO
 40
0.0
  9
$DIMDLI
 40
0.38
  9
$DIMRND
 40
0.0
  9
$DIMDLE
 40
0.0
  9
$DIMEXE
 40
0.75
  9
$DIMTP
 40
0.0
  9
$DIMTM
 40
0.0
  9
$DIMTXT
 40
2.5
  9
$DIMCEN
 40
0.09
  9
$DIMTSZ
 40
0.0
  9
$DIMTOL
 70
     0
  9
$DIMLIM
 70
     0
  9
$DIMTIH
 70
     0
  9
$DIMTOH
 70
     0
  9
$DIMSE1
 70
     0
  9
$DIMSE2
 70
     0
  9
$DIMTAD
 70
     1
  9
$DIMZIN
 70
     0
  9
$DIMBLK
  1

  9
$DIMASO
 70
     1
  9
$DIMSHO
 70
     1
  9
$DIMPOST
  1

  9
$DIMAPOST
  1

  9
$DIMALT
 70
     0
  9
$DIMALTD
 70
     2
  9
$DIMALTF
 40
25.4
  9
$DIMLFAC
 40
1.0
  9
$DIMTOFL
 70
     0
  9
$DIMTVP
 40
0.0
  9
$DIMTIX
 70
     0
  9
$DIMSOXD
 70
     0
  9
$DIMSAH
 70
     0
  9
$DIMBLK1
  1

  9
$DIMBLK2
  1

  9
$DIMSTYLE
  2
Standard
  9
$DIMCLRD
 70
     7
  9
$DIMCLRE
 70
     7
  9
$DIMCLRT
 70
     7
  9
$DIMTFAC
 40
0.8
  9
$DIMGAP
 40
1.25
  9
$DIMJUST
 70
     0
  9
$DIMSD1
 70
     0
  9
$DIMSD2
 70
     0
  9
$DIMTOLJ
 70
     1
  9
$DIMTZIN
 70
     0
  9
$DIMALTZ
 70
     0
  9
$DIMALTTZ
 70
     0
  9
$DIMUPT
 70
     0
  9
$DIMDEC
 70
     2
  9
$DIMTDEC
 70
     4
  9
$DIMALTU
 70
     2
  9
$DIMALTTD
 70
     2
  9
$DIMTXSTY
  7
Standard
  9
$DIMAUNIT
 70
     0
  9
$DIMADEC
 70
     0
  9
$DIMALTRND
 40
0.0
  9
$DIMAZIN
 70
     0
  9
$DIMDSEP
 70
     0
  9
$DIMATFIT
 70
     3
  9
$DIMFRAC
 70
     0
  9
$DIMLDRBLK
  1

  9
$DIMLUNIT
 70
     2
  9
$DIMLWD
 70
     0
  9
$DIMLWE
 70
     0
  9
$DIMTMOVE
 70
     0
  9
$LUNITS
 70
     2
  9
$LUPREC
 70
     4
  9
$SKETCHINC
 40
0.1
  9
$FILLETRAD
 40
0.0
  9
$AUNITS
 70
     0
  9
$AUPREC
 70
     0
  9
$MENU
  1
acad
  9
$ELEVATION
 40
0.0
  9
$PELEVATION
 40
0.0
  9
$THICKNESS
 40
0.0
  9
$LIMCHECK
 70
     0
  9
$CHAMFERA
 40
0.0
  9
$CHAMFERB
 40
0.0
  9
$CHAMFERC
 40
0.0
  9
$CHAMFERD
 40
0.0
  9
$SKPOLY
 70
     0
  9
$TDCREATE
 40
2455329.702198484
  9
$TDUCREATE
 40
2455329.618865150
  9
$TDUPDATE
 40
2455380.471587951
  9
$TDUUPDATE
 40
2455380.388254618
  9
$TDINDWG
 40
0.0309579977
  9
$TDUSRTIMER
 40
0.0309565509
  9
$USRTIMER
 70
     1
  9
$ANGBASE
 50
0.0
  9
$ANGDIR
 70
     0
  9
$PDMODE
 70
     0
  9
$PDSIZE
 40
0.0
  9
$PLINEWID
 40
0.0
  9
$SPLFRAME
 70
     0
  9
$SPLINETYPE
 70
     6
  9
$SPLINESEGS
 70
     8
  9
$HANDSEED
  5
7885
  9
$SURFTAB1
 70
     6
  9
$SURFTAB2
 70
     6
  9
$SURFTYPE
 70
     6
  9
$SURFU
 70
     6
  9
$SURFV
 70
     6
  9
$UCSBASE
  2

  9
$UCSNAME
  2

  9
$UCSORG
 10
0.0
 20
0.0
 30
0.0
  9
$UCSXDIR
 10
1.0
 20
0.0
 30
0.0
  9
$UCSYDIR
 10
0.0
 20
1.0
 30
0.0
  9
$UCSORTHOREF
  2

  9
$UCSORTHOVIEW
 70
     0
  9
$UCSORGTOP
 10
0.0
 20
0.0
 30
0.0
  9
$UCSORGBOTTOM
 10
0.0
 20
0.0
 30
0.0
  9
$UCSORGLEFT
 10
0.0
 20
0.0
 30
0.0
  9
$UCSORGRIGHT
 10
0.0
 20
0.0
 30
0.0
  9
$UCSORGFRONT
 10
0.0
 20
0.0
 30
0.0
  9
$UCSORGBACK
 10
0.0
 20
0.0
 30
0.0
  9
$PUCSBASE
  2

  9
$PUCSNAME
  2

  9
$PUCSORG
 10
0.0
 20
0.0
 30
0.0
  9
$PUCSXDIR
 10
1.0
 20
0.0
 30
0.0
  9
$PUCSYDIR
 10
0.0
 20
1.0
 30
0.0
  9
$PUCSORTHOREF
  2

  9
$PUCSORTHOVIEW
 70
     0
  9
$PUCSORGTOP
 10
0.0
 20
0.0
 30
0.0
  9
$PUCSORGBOTTOM
 10
0.0
 20
0.0
 30
0.0
  9
$PUCSORGLEFT
 10
0.0
 20
0.0
 30
0.0
  9
$PUCSORGRIGHT
 10
0.0
 20
0.0
 30
0.0
  9
$PUCSORGFRONT
 10
0.0
 20
0.0
 30
0.0
  9
$PUCSORGBACK
 10
0.0
 20
0.0
 30
0.0
  9
$USERI1
 70
     0
  9
$USERI2
 70
     0
  9
$USERI3
 70
     0
  9
$USERI4
 70
     0
  9
$USERI5
 70
     0
  9
$USERR1
 40
0.0
  9
$USERR2
 40
0.0
  9
$USERR3
 40
0.0
  9
$USERR4
 40
0.0
  9
$USERR5
 40
0.0
  9
$WORLDVIEW
 70
     1
  9
$SHADEDGE
 70
     3
  9
$SHADEDIF
 70
    70
  9
$TILEMODE
 70
     1
  9
$MAXACTVP
 70
    16
  9
$PINSBASE
 10
0.0
 20
0.0
 30
0.0
  9
$PLIMCHECK
 70
     0
  9
$PEXTMIN
 10
1.000000000000000E+20
 20
1.000000000000000E+20
 30
1.000000000000000E+20
  9
$PEXTMAX
 10
-1.000000000000000E+20
 20
-1.000000000000000E+20
 30
-1.000000000000000E+20
  9
$PLIMMIN
 10
0.0
 20
0.0
  9
$PLIMMAX
 10
12.0
 20
9.0
  9
$UNITMODE
 70
     0
  9
$VISRETAIN
 70
     0
  9
$PLINEGEN
 70
     1
  9
$PSLTSCALE
 70
     0
  9
$TREEDEPTH
 70
  3020
  9
$CMLSTYLE
  2
Standard
  9
$CMLJUST
 70
     0
  9
$CMLSCALE
 40
1.0
  9
$PROXYGRAPHICS
 70
     0
  9
$MEASUREMENT
 70
     1
  9
$CELWEIGHT
370
     0
  9
$ENDCAPS
280
     0
  9
$JOINSTYLE
280
     0
  9
$LWDISPLAY
290
     0
  9
$INSUNITS
 70
     0
  9
$HYPERLINKBASE
  1

  9
$STYLESHEET
  1

  9
$XEDIT
290
     1
  9
$CEPSNTYPE
380
     0
  9
$PSTYLEMODE
290
     1
  9
$FINGERPRINTGUID
  2

  9
$VERSIONGUID
  2
{85929FA9-A583-42D6-966E-6C1CED5D6ACF}
  9
$EXTNAMES
290
     1
  9
$PSVPSCALE
 40
0.0
  9
$OLESTARTUP
290
     0
  0
ENDSEC
  0
SECTION
  2
CLASSES
  0
CLASS
  1
IMAGE
  2
AcDbRasterImage
  3
ISM
 90
    34943
280
     0
281
     1
  0
CLASS
  1
DICTIONARYVAR
  2
AcDbDictionaryVar
  3
ObjectDBX Classes
 90
        0
280
     0
281
     0
  0
CLASS
  1
RASTERVARIABLES
  2
AcDbRasterVariables
  3
ISM
 90
    32768
280
     0
281
     0
  0
CLASS
  1
IMAGEDEF
  2
AcDbRasterImageDef
  3
ISM
 90
    32768
280
     0
281
     0
  0
CLASS
  1
IMAGEDEF_REACTOR
  2
AcDbRasterImageDefReactor
  3
ISM
 90
    32769
280
     0
281
     0
  0
CLASS
  1
IDBUFFER
  2
AcDbIdBuffer
  3
ObjectDBX Classes
 90
    32768
280
     0
281
     0
  0
CLASS
  1
SPATIAL_FILTER
  2
AcDbSpatialFilter
  3
ObjectDBX Classes
 90
    32768
280
     0
281
     0
  0
CLASS
  1
SORTENTSTABLE
  2
AcDbSortentsTable
  3
ObjectDBX Classes
 90
        0
280
     0
281
     0
  0
CLASS
  1
LAYER_INDEX
  2
AcDbLayerIndex
  3
ObjectDBX Classes
 90
    32768
280
     0
281
     0
  0
CLASS
  1
SPATIAL_INDEX
  2
AcDbSpatialIndex
  3
ObjectDBX Classes
 90
    32768
280
     0
281
     0
  0
CLASS
  1
OBJECT_PTR
  2
CAseDLPNTableRecord
  3
ASE-LPNTableRecord
 90
    32769
280
     0
281
     0
  0
CLASS
  1
LAYOUT
  2
AcDbLayout
  3
ObjectDBX Classes
 90
        0
280
     0
281
     0
  0
CLASS
  1
PLOTSETTINGS
  2
AcDbPlotSettings
  3
ObjectDBX Classes
 90
    32768
280
     0
281
     0
  0
CLASS
  1
ACDBDICTIONARYWDFLT
  2
AcDbDictionaryWithDefault
  3
ObjectDBX Classes
 90
        0
280
     0
281
     0
  0
CLASS
  1
ACDBPLACEHOLDER
  2
AcDbPlaceHolder
  3
ObjectDBX Classes
 90
        0
280
     0
281
     0
  0
CLASS
  1
VBA_PROJECT
  2
AcDbVbaProject
  3
acad
 90
    32768
280
     0
281
     0
  0
CLASS
  1
WIPEOUT
  2
AcDbWipeout
  3
"WipeOut|Product Desc: Object Enabler for WipeOut entity                        |Company: Autodesk, Inc.                        |WEB Address: www.autodesk.com"
 90
    34943
280
     0
281
     1
  0
CLASS
  1
WIPEOUTVARIABLES
  2
AcDbWipeoutVariables
  3
"WipeOut|Product Desc:     WipeOut Dbx Application|Company:          Autodesk, Inc.|WEB Address:      www.autodesk.com"
 90
        0
280
     0
281
     0
  0
CLASS
  1
RTEXT
  2
RText
  3
RText|AutoCAD Express Tool|expresstools@autodesk.com
 90
    35839
280
     0
281
     1
  0
CLASS
  1
ARCALIGNEDTEXT
  2
AcDbArcAlignedText
  3
ATEXT|AutoCAD Express Tool|expresstools@autodesk.com
 90
    32768
280
     0
281
     1
  0
CLASS
  1
MATERIAL
  2
AcDbMaterial
  3
ObjectDBX Classes
 90
     1153
280
     0
281
     0
  0
CLASS
  1
VISUALSTYLE
  2
AcDbVisualStyle
  3
ObjectDBX Classes
 90
     4095
280
     0
281
     0
  0
CLASS
  1
TABLESTYLE
  2
AcDbTableStyle
  3
ObjectDBX Classes
 90
     4095
280
     0
281
     0
  0
CLASS
  1
SCALE
  2
AcDbScale
  3
ObjectDBX Classes
 90
     1153
280
     0
281
     0
  0
CLASS
  1
MLEADERSTYLE
  2
AcDbMLeaderStyle
  3
ACDB_MLEADERSTYLE_CLASS
 90
     4095
280
     0
281
     0
  0
CLASS
  1
CELLSTYLEMAP
  2
AcDbCellStyleMap
  3
ObjectDBX Classes
 90
     1152
280
     0
281
     0
  0
ENDSEC
  0
SECTION
  2
TABLES
  0
TABLE
  2
VPORT
  5
7
330
0
100
AcDbSymbolTable
 70
     1
  0
VPORT
  5
15
330
7
100
AcDbSymbolTableRecord
100
AcDbViewportTableRecord
  2
*ACTIVE
 70
     0
 10
0.0
 20
0.0
 11
1.0
 21
1.0
 12
90.87045982234901
 22
7.822644374177571
 13
0.0
 23
0.0
 14
1.0
 24
1.0
 15
0.0
 25
0.0
 16
0.0
 26
0.0
 36
1.0
 17
0.0
 27
0.0
 37
0.0
 40
340.7328431611936
 41
1.611330698287219
 42
50.0
 43
0.0
 44
0.0
 50
0.0
 51
0.0
 71
     0
 72
   100
 73
     1
 74
     1
 75
     0
 76
     0
 77
     0
 78
     0
281
     0
 65
     0
110
0.0
120
0.0
130
0.0
111
1.0
121
0.0
131
0.0
112
0.0
122
1.0
132
0.0
 79
     0
146
0.0
  0
ENDTAB
  0
TABLE
  2
LTYPE
  5
4
330
0
100
AcDbSymbolTable
 70
     2
  0
LTYPE
  5
11
330
4
100
AcDbSymbolTableRecord
100
AcDbLinetypeTableRecord
  2
ByBlock
 70
     0
  3

 72
    65
 73
     0
 40
0.0
  0
LTYPE
  5
12
330
4
100
AcDbSymbolTableRecord
100
AcDbLinetypeTableRecord
  2
ByLayer
 70
     0
  3

 72
    65
 73
     0
 40
0.0
  0
LTYPE
  5
13
330
4
100
AcDbSymbolTableRecord
100
AcDbLinetypeTableRecord
  2
Continuous
 70
     0
  3
Solid line
 72
    65
 73
     0
 40
0.0
  0
LTYPE
  5
2A2
330
4
100
AcDbSymbolTableRecord
100
AcDbLinetypeTableRecord
  2
CENTER
 70
     0
  3
____ _ ____ _ ____ _ ____ _ ____ _ ____ _ ____
 72
    65
 73
     4
 40
2.0
 49
1.25
 74
     0
 49
-0.25
 74
     0
 49
0.25
 74
     0
 49
-0.25
 74
     0
  0
ENDTAB
  0
TABLE
  2
LAYER
  5
2
330
0
100
AcDbSymbolTable
 70
     2
  0
LAYER
  5
14
102
{ACAD_XDICTIONARY
360
72C9
102
}
330
2
100
AcDbSymbolTableRecord
100
AcDbLayerTableRecord
  2
0
 70
     0
 62
     7
  6
Continuous
370
    -3
390
1D
  0
LAYER
  5
7850
330
2
100
AcDbSymbolTableRecord
100
AcDbLayerTableRecord
  2
Defpoints
 70
     0
 62
     7
  6
Continuous
290
     0
370
    -3
390
1D
  0
ENDTAB
  0
TABLE
  2
STYLE
  5
3
330
0
100
AcDbSymbolTable
 70
     1
  0
STYLE
  5
17
330
3
100
AcDbSymbolTableRecord
100
AcDbTextStyleTableRecord
  2
Standard
 70
     0
 40
0.0
 41
1.0
 50
0.0
 71
     0
 42
0.0
  3
IsonormD
  4

1001
ACAD
1000
IsonormD
1071
        0
  0
ENDTAB
  0
TABLE
  2
VIEW
  5
5
330
0
100
AcDbSymbolTable
 70
     0
  0
ENDTAB
  0
TABLE
  2
UCS
  5
6
330
0
100
AcDbSymbolTable
 70
     0
  0
ENDTAB
  0
TABLE
  2
APPID
  5
8
330
0
100
AcDbSymbolTable
 70
     4
  0
APPID
  5
16
330
8
100
AcDbSymbolTableRecord
100
AcDbRegAppTableRecord
  2
ACAD
 70
     0
  0
APPID
  5
26
330
8
100
AcDbSymbolTableRecord
100
AcDbRegAppTableRecord
  2
TopSolid_Draft
 70
     0
  0
APPID
  5
39AF
330
8
100
AcDbSymbolTableRecord
100
AcDbRegAppTableRecord
  2
ACAD_MLEADERVER
 70
     0
  0
APPID
  5
72C7
330
8
100
AcDbSymbolTableRecord
100
AcDbRegAppTableRecord
  2
DCO15
 70
     0
  0
ENDTAB
  0
TABLE
  2
DIMSTYLE
  5
9
330
0
100
AcDbSymbolTable
 70
     1
100
AcDbDimStyleTable
 71
     1
340
18
  0
DIMSTYLE
105
18
330
9
100
AcDbSymbolTableRecord
100
AcDbDimStyleTableRecord
  2
Standard
 70
     0
 41
1.25
 42
0.0
 44
0.75
 73
     0
 74
     0
 77
     1
140
2.5
146
0.8
147
1.25
176
     7
177
     7
178
     7
271
     2
340
17
  0
ENDTAB
  0
TABLE
  2
BLOCK_RECORD
  5
1
330
0
100
AcDbSymbolTable
 70
     3
  0
BLOCK_RECORD
  5
A
102
{ACAD_XDICTIONARY
360
39B7
102
}
330
1
100
AcDbSymbolTableRecord
100
AcDbBlockTableRecord
  2
*MODEL_SPACE
340
20
  0
BLOCK_RECORD
  5
B
330
1
100
AcDbSymbolTableRecord
100
AcDbBlockTableRecord
  2
*PAPER_SPACE
340
21
  0
ENDTAB
  0
ENDSEC
  0
SECTION
  2
BLOCKS
  0
BLOCK
  5
D
330
A
100
AcDbEntity
  8
0
100
AcDbBlockBegin
  2
*MODEL_SPACE
 70
     0
 10
0.0
 20
0.0
 30
0.0
  3
*MODEL_SPACE
  1

  0
ENDBLK
  5
E
330
A
100
AcDbEntity
  8
0
100
AcDbBlockEnd
  0
BLOCK
  5
F
330
B
100
AcDbEntity
 67
     1
  8
0
100
AcDbBlockBegin
  2
*PAPER_SPACE
 70
     0
 10
0.0
 20
0.0
 30
0.0
  3
*PAPER_SPACE
  1

  0
ENDBLK
  5
10
330
B
100
AcDbEntity
 67
     1
  8
0
100
AcDbBlockEnd
  0
ENDSEC
  0
SECTION
  2
ENTITIES
  0
LINE
  5
96C
330
A
100
AcDbEntity
  8
0
  6
CENTER
 62
     1
100
AcDbLine
 10
16.5
 20
6.499999999999772
 30
0.0
 11
16.5
 21
11.04595499999982
 31
0.0
  0
LINE
  5
96D
330
A
100
AcDbEntity
  8
0
  6
CENTER
 62
     1
100
AcDbLine
 10
16.5
 20
71.5
 30
0.0
 11
16.5
 21
66.95404500000006
 31
0.0
  0
LINE
  5
96E
330
A
100
AcDbEntity
  8
0
  6
CENTER
 62
     1
100
AcDbLine
 10
2.782575999999949
 20
14.35000000000002
 30
0.0
 11
-2.000000000000341
 21
14.35000000000002
 31
0.0
  0
LINE
  5
96F
330
A
100
AcDbEntity
  8
0
  6
CENTER
 62
     1
100
AcDbLine
 10
2.782575999999949
 20
63.64999999999998
 30
0.0
 11
-2.000000000000341
 21
63.64999999999998
 31
0.0
  0
LINE
  5
970
330
A
100
AcDbEntity
  8
0
  6
CENTER
 62
     1
100
AcDbLine
 10
2.782575999999949
 20
14.45000000000004
 30
0.0
 11
-2.000000000000341
 21
14.45000000000004
 31
0.0
  0
LINE
  5
971
330
A
100
AcDbEntity
  8
0
  6
CENTER
 62
     1
100
AcDbLine
 10
2.782575999999949
 20
63.54999999999972
 30
0.0
 11
-2.000000000000341
 21
63.54999999999972
 31
0.0
  0
ELLIPSE
  5
675E
330
A
100
AcDbEntity
  8
0
  6
Continuous
 62
     7
100
AcDbEllipse
 10
176.3246739999999
 20
-71.48631100000017
 30
0.0
 11
-0.3199999999882186
 21
-1.567673435383665
 31
-0.0000000000000001
210
0.0
220
-0.0000000000000001
230
1.0
 40
0.4082480000000002
 41
6.283185307179449
 42
6.904760911885422
  0
ELLIPSE
  5
675F
330
A
100
AcDbEntity
  8
0
  6
Continuous
 62
     7
100
AcDbEllipse
 10
176.3246739999999
 20
-71.48631100000017
 30
0.0
 11
-0.3199999999882186
 21
-1.567673435383665
 31
0.0
210
0.0
220
0.0
230
1.0
 40
0.4082480000000002
 41
0.6215756047058402
 42
3.141592653589857
  0
ELLIPSE
  5
6760
330
A
100
AcDbEntity
  8
0
  6
Continuous
 62
     7
100
AcDbEllipse
 10
176.3246739999999
 20
-71.48631100000017
 30
0.0
 11
-0.3199999999882186
 21
-1.567673435383665
 31
0.0
210
0.0
220
0.0
230
1.0
 40
0.4082480000000002
 41
3.141592653589857
 42
6.283185307179449
  0
ELLIPSE
  5
6761
330
A
100
AcDbEntity
  8
0
  6
Continuous
 62
     7
100
AcDbEllipse
 10
175.764708
 20
-71.37200899999999
 30
0.0
 11
-0.3199999999882186
 21
-1.567673435383665
 31
0.0
210
0.0
220
0.0
230
1.0
 40
0.4082480000000002
 41
5.3339645850905
 42
6.283185307179652
  0
ELLIPSE
  5
6762
330
A
100
AcDbEntity
  8
0
  6
Continuous
 62
     7
100
AcDbEllipse
 10
175.764708
 20
-71.37200899999999
 30
0.0
 11
-0.3199999999882186
 21
-1.567673435383665
 31
-0.0000000000000001
210
0.0
220
-0.0000000000000001
230
1.0
 40
0.4082480000000002
 41
3.141592653589778
 42
5.3339645850905
  0
ELLIPSE
  5
6763
330
A
100
AcDbEntity
  8
0
  6
Continuous
 62
     7
100
AcDbEllipse
 10
176.3246739999999
 20
-107.3438809999999
 30
0.0
 11
-0.3199999999989878
 21
-1.567673435381554
 31
0.0000000000000001
210
0.0000000000000001
220
0.0
230
1.0
 40
0.4082480000000003
 41
0.0000000000000754
 42
2.034443935803873
  0
ELLIPSE
  5
6764
330
A
100
AcDbEntity
  8
0
  6
Continuous
 62
     7
100
AcDbEllipse
 10
176.3246739999999
 20
-107.3438809999999
 30
0.0
 11
-0.3199999999989878
 21
-1.567673435381554
 31
0.0
210
0.0000000000000001
220
0.0
230
1.0
 40
0.4082480000000003
 41
2.034443935803873
 42
3.141592653589621
  0
ELLIPSE
  5
6765
330
A
100
AcDbEntity
  8
0
  6
Continuous
 62
     7
100
AcDbEllipse
 10
176.3246739999999
 20
-107.3438809999999
 30
0.0
 11
-0.3199999999989878
 21
-1.567673435381554
 31
0.0
210
0.0
220
0.0
230
1.0
 40
0.4082480000000003
 41
3.141592653589621
 42
6.283185307179659
  0
ELLIPSE
  5
6766
330
A
100
AcDbEntity
  8
0
  6
Continuous
 62
     7
100
AcDbEllipse
 10
175.764708
 20
-107.229579
 30
0.0
 11
-0.3199999999989878
 21
-1.567673435381554
 31
0.0000000000000001
210
0.0
220
0.0000000000000001
230
1.0
 40
0.4082480000000003
 41
3.141592653589901
 42
6.283185307179517
  0
LINE
  5
6767
330
A
100
AcDbEntity
  8
0
  6
Continuous
 62
     9
100
AcDbLine
 10
213.509536
 20
-51.54445199999997
 30
0.0
 11
212.97288
 21
-51.98262999999997
 31
0.0
  0
ELLIPSE
  5
6768
330
A
100
AcDbEntity
  8
0
  6
Continuous
 62
     7
100
AcDbEllipse
 10
213.509536
 20
-55.56108399999994
 30
0.0
 11
-2.782804340947906
 21
3.408225344662782
 31
0.0
210
0.0
220
0.0
230
1.0
 40
0.8164970000000002
 41
3.926990816987997
 42
5.497787143782923
  0
LINE
  5
6769
330
A
100
AcDbEntity
  8
0
  6
Continuous
 62
     9
100
AcDbLine
 10
217.445016
 20
-56.36441100000002
 30
0.0
 11
216.908359
 21
-56.80258900000012
 31
0.0
  0
ELLIPSE
  5
676A
330
A
100
AcDbEntity
  8
0
  6
Continuous
 62
     7
100
AcDbEllipse
 10
212.97288
 20
-55.99926200000016
 30
0.0
 11
-2.782804340947796
 21
3.408225344662673
 31
0.0
210
0.0
220
0.0
230
1.0
 40
0.8164970000000002
 41
3.926990816988002
 42
5.497787143782923
  0
LINE
  5
676B
330
A
100
AcDbEntity
  8
0
  6
Continuous
 62
     7
100
AcDbLine
 10
170.755916
 20
-43.36512900000002
 30
0.0
 11
212.97288
 21
-51.98262999999997
 31
0.0
  0
LINE
  5
676C
330
A
100
AcDbEntity
  8
0
  6
Continuous
 62
     7
100
AcDbLine
 10
216.908359
 20
-56.80258900000012
 30
0.0
 11
216.908359
 21
-57.55617099999994
 31
0.0
  0
ELLIPSE
  5
676D
330
A
100
AcDbEntity
  8
0
  6
Continuous
 62
     7
100
AcDbEllipse
 10
212.97288
 20
-57.45985599999983
 30
0.0
 11
-2.78280434094802
 21
3.408225344662785
 31
-0.0000000000000002
210
0.0
220
0.0
230
1.0
 40
0.816497
 41
3.141592653589788
 42
3.573444890474536
  0
ELLIPSE
  5
676E
330
A
100
AcDbEntity
  8
0
  6
Continuous
 62
     7
100
AcDbEllipse
 10
212.97288
 20
-123.1865629999999
 30
0.0
 11
-2.782804340947906
 21
3.408225344662782
 31
0.0
210
0.0
220
0.0
230
1.0
 40
0.8164970000000002
 41
4.292549041878277
 42
4.518325882965464
  0
ELLIPSE
  5
676F
330
A
100
AcDbEntity
  8
0
  6
Continuous
 62
     7
100
AcDbEllipse
 10
212.97288
 20
-123.1865629999999
 30
0.0
 11
-2.782804340947796
 21
3.408225344662727
 31
0.0
210
0.0
220
0.0
230
1.0
 40
0.816497
 41
4.280536743533564
 42
4.292549041878263
  0
ELLIPSE
  5
6770
330
A
100
AcDbEntity
  8
0
  6
Continuous
 62
     7
100
AcDbEllipse
 10
212.97288
 20
-124.6471559999999
 30
0.0
 11
-2.782804340947906
 21
3.408225344662782
 31
-0.0000000000000002
210
0.0
220
0.0
230
1.0
 40
0.8164970000000002
 41
3.141592653589792
 42
3.573444890440305
  0
LINE
  5
6771
330
A
100
AcDbEntity
  8
0
  6
Continuous
 62
     7
100
AcDbLine
 10
217.445016
 20
-56.36441100000002
 30
0.0
 11
217.445016
 21
-57.09470700000043
 31
0.0
  0
LINE
  5
6772
330
A
100
AcDbEntity
  8
0
  6
Continuous
 62
     9
100
AcDbLine
 10
171.2925719999999
 20
-42.92695100000003
 30
0.0
 11
170.755916
 21
-43.36512900000002
 31
0.0
  0
LINE
  5
6773
330
A
100
AcDbEntity
  8
0
  6
Continuous
 62
     7
100
AcDbLine
 10
171.2925719999999
 20
-42.92695100000003
 30
0.0
 11
213.509536
 21
-51.54445199999997
 31
0.0
  0
ELLIPSE
  5
6774
330
A
100
AcDbEntity
  8
0
  6
Continuous
 62
     7
100
AcDbEllipse
 10
212.97288
 20
-57.45985599999983
 30
0.0
 11
-2.78280434094802
 21
3.408225344662785
 31
0.0000000000000002
210
0.0
220
-0.0000000000000001
230
1.0
 40
0.816497
 41
2.492984317121119
 42
3.141592653589788
  0
ELLIPSE
  5
6775
330
A
100
AcDbEntity
  8
0
  6
Continuous
 62
     7
100
AcDbEllipse
 10
213.509536
 20
-57.02167800000018
 30
0.0
 11
-2.782804340947796
 21
3.408225344662783
 31
0.0
210
0.0
220
0.0
230
1.0
 40
0.816497
 41
3.141592653589792
 42
3.286474456712658
  0
ELLIPSE
  5
6776
330
A
100
AcDbEntity
  8
0
  6
Continuous
 62
     7
100
AcDbEllipse
 10
171.2925719999999
 20
-46.94358299999999
 30
0.0
 11
-2.782804340947796
 21
3.408225344662783
 31
0.0
210
0.0
220
0.0
230
1.0
 40
0.816497
 41
5.497787143782943
 42
6.283185307179584
  0
ELLIPSE
  5
6777
330
A
100
AcDbEntity
  8
0
  6
Continuous
 62
     7
100
AcDbEllipse
 10
170.755916
 20
-47.38176099999998
 30
0.0
 11
-2.782804340947909
 21
3.408225344662674
 31
0.0000000000000002
210
0.0
220
0.0
230
1.0
 40
0.816497
 41
5.497787143782901
 42
6.283185307179548
  0
ELLIPSE
  5
6778
330
A
100
AcDbEntity
  8
0
  6
Continuous
 62
     7
100
AcDbEllipse
 10
213.509536
 20
-124.2089780000001
 30
0.0
 11
-2.782804340947796
 21
3.408225344662727
 31
0.0000000000000002
210
0.0
220
0.0
230
1.0
 40
0.816497
 41
3.141592653589818
 42
3.286474456692816
  0
LINE
  5
6779
330
A
100
AcDbEntity
  8
0
  6
Continuous
 62
     9
100
AcDbLine
 10
270.3951050000001
 20
-63.15616999999997
 30
0.0
 11
269.8584490000001
 21
-63.59434800000042
 31
0.0
  0
ELLIPSE
  5
677A
330
A
100
AcDbEntity
  8
0
  6
Continuous
 62
     7
100
AcDbEllipse
 10
270.3951050000001
 20
-67.17280199999994
 30
0.0
 11
-2.78280434094813
 21
3.408225344662563
 31
0.0
210
0.0000000000000001
220
0.0000000000000001
230
1.0
 40
0.816497
 41
3.926990816987185
 42
5.497787143782086
  0
LINE
  5
677B
330
A
100
AcDbEntity
  8
0
  6
Continuous
 62
     9
100
AcDbLine
 10
274.3305849999999
 20
-67.97612900000001
 30
0.0
 11
273.7939289999999
 21
-68.414307
 31
0.0
  0
ELLIPSE
  5
677C
330
A
100
AcDbEntity
  8
0
  6
Continuous
 62
     7
100
AcDbEllipse
 10
269.8584490000001
 20
-67.61097999999993
 30
0.0
 11
-2.782804340948127
 21
3.408225344662451
 31
0.0
210
0.0000000000000001
220
0.0000000000000001
230
1.0
 40
0.816497
 41
3.926990816987231
 42
5.497787143782127
  0
LINE
  5
677D
330
A
100
AcDbEntity
  8
0
  6
Continuous
 62
     7
100
AcDbLine
 10
273.7939289999999
 20
-68.414307
 30
0.0
 11
273.7939289999999
 21
-137.0622009999999
 31
0.0
  0
ELLIPSE
  5
677E
330
A
100
AcDbEntity
  8
0
  6
Continuous
 62
     7
100
AcDbEllipse
 10
269.8584490000001
 20
-136.2588740000001
 30
0.0
 11
-2.782804340948128
 21
3.408225344662508
 31
0.0
210
0.0000000000000001
220
0.0000000000000001
230
1.0
 40
0.816497
 41
3.141592653589792
 42
3.926990816987233
  0
LINE
  5
677F
330
A
100
AcDbEntity
  8
0
  6
Continuous
 62
     7
100
AcDbLine
 10
227.641486
 20
-54.97684700000002
 30
0.0
 11
269.8584490000001
 21
-63.59434800000042
 31
0.0
  0
LINE
  5
6780
330
A
100
AcDbEntity
  8
0
  6
Continuous
 62
     9
100
AcDbLine
 10
228.178142
 20
-54.53866900000014
 30
0.0
 11
227.641486
 21
-54.97684700000002
 31
0.0
  0
LINE
  5
6781
330
A
100
AcDbEntity
  8
0
  6
Continuous
 62
     7
100
AcDbLine
 10
228.178142
 20
-54.53866900000014
 30
0.0
 11
270.3951050000001
 21
-63.15616999999997
 31
0.0
  0
LINE
  5
6782
330
A
100
AcDbEntity
  8
0
  6
Continuous
 62
     9
100
AcDbLine
 10
274.3305849999999
 20
-136.6240230000001
 30
0.0
 11
273.7939289999999
 21
-137.0622009999999
 31
0.0
  0
LINE
  5
6783
330
A
100
AcDbEntity
  8
0
  6
Continuous
 62
     7
100
AcDbLine
 10
274.3305849999999
 20
-67.97612900000001
 30
0.0
 11
274.3305849999999
 21
-136.6240230000001
 31
0.0
  0
ELLIPSE
  5
6784
330
A
100
AcDbEntity
  8
0
  6
Continuous
 62
     7
100
AcDbEllipse
 10
228.178142
 20
-58.55530099999999
 30
0.0
 11
-2.78280434094813
 21
3.408225344662563
 31
0.0
210
0.0000000000000001
220
0.0000000000000001
230
1.0
 40
0.816497
 41
5.497787143782141
 42
6.2831853071796
  0
ELLIPSE
  5
6785
330
A
100
AcDbEntity
  8
0
  6
Continuous
 62
     7
100
AcDbEllipse
 10
227.641486
 20
-58.99347899999998
 30
0.0
 11
-2.78280434094835
 21
3.408225344662673
 31
0.0
210
0.0000000000000001
220
0.0000000000000001
230
1.0
 40
0.8164970000000002
 41
5.497787143782103
 42
6.2831853071796
  0
ELLIPSE
  5
6786
330
A
100
AcDbEntity
  8
0
  6
Continuous
 62
     7
100
AcDbEllipse
 10
270.3951050000001
 20
-135.8206960000001
 30
0.0
 11
-2.782804340948128
 21
3.408225344662508
 31
0.0
210
0.0000000000000001
220
0.0000000000000001
230
1.0
 40
0.816497
 41
3.141592653589792
 42
3.926990816987233
  0
ELLIPSE
  5
6787
330
A
100
AcDbEntity
  8
0
  6
Continuous
 62
     7
100
AcDbEllipse
 10
182.025699
 20
-55.70714400000031
 30
0.0
 11
4.8066620434557
 21
-5.886934686235465
 31
0.0
210
0.0
220
0.0
230
1.0
 40
0.816497
 41
2.030311532977421
 42
2.68207744740873
  0
ELLIPSE
  5
6788
330
A
100
AcDbEntity
  8
0
  6
Continuous
 62
     7
100
AcDbEllipse
 10
257.5153539999999
 20
-71.11640499999999
 30
0.0
 11
4.806662043455919
 21
-5.886934686235242
 31
0.0
210
0.0000000000000001
220
0.0000000000000001
230
1.0
 40
0.816497
 41
2.030311532977773
 42
2.68207744740688
  0
ELLIPSE
  5
6789
330
A
100
AcDbEntity
  8
0
  6
Continuous
 62
     7
100
AcDbEllipse
 10
170.398145
 20
-47.67387900000016
 30
0.0
 11
-2.782804340947908
 21
3.408225344662896
 31
0.0000000000000002
210
0.0
220
0.0
230
1.0
 40
0.816497
 41
0.0000000000000308
 42
0.5561219601830523
  0
LINE
  5
678A
330
A
100
AcDbEntity
  8
0
  6
Continuous
 62
     7
100
AcDbLine
 10
170.398145
 20
-43.65724699999998
 30
0.0
 11
212.6151089999997
 21
-52.27474900000015
 31
0.0
  0
ELLIPSE
  5
678B
330
A
100
AcDbEntity
  8
0
  6
Continuous
 62
     7
100
AcDbEllipse
 10
212.6151089999997
 20
-56.29138100000012
 30
0.0
 11
-2.782804340947796
 21
3.408225344662783
 31
0.0
210
0.0
220
0.0
230
1.0
 40
0.816497
 41
3.926990816988018
 42
5.497787143782939
  0
LINE
  5
678C
330
A
100
AcDbEntity
  8
0
  6
Continuous
 62
     7
100
AcDbLine
 10
216.5505879999999
 20
-57.09470700000043
 30
0.0
 11
216.5505879999999
 21
-58.55530099999999
 31
0.0
  0
ELLIPSE
  5
678D
330
A
100
AcDbEntity
  8
0
  6
Continuous
 62
     7
100
AcDbEllipse
 10
212.6151089999997
 20
-57.75197400000013
 30
0.0
 11
-2.782804340947909
 21
3.408225344662674
 31
-0.0000000000000002
210
0.0
220
0.0
230
1.0
 40
0.816497
 41
3.141592653589776
 42
3.926990816987984
  0
ELLIPSE
  5
678E
330
A
100
AcDbEntity
  8
0
  6
Continuous
 62
     7
100
AcDbEllipse
 10
212.6151089999997
 20
-123.4786809999998
 30
0.0
 11
-2.782804340947796
 21
3.408225344662727
 31
-0.0000000000000002
210
0.0
220
0.0000000000000001
230
1.0
 40
0.816497
 41
3.926990816988031
 42
4.518325882962797
  0
LINE
  5
678F
330
A
100
AcDbEntity
  8
0
  6
Continuous
 62
     7
100
AcDbLine
 10
216.5505879999999
 20
-124.2820080000001
 30
0.0
 11
216.5505879999999
 21
-125.742601
 31
0.0
  0
ELLIPSE
  5
6790
330
A
100
AcDbEntity
  8
0
  6
Continuous
 62
     7
100
AcDbEllipse
 10
212.6151089999997
 20
-124.939275
 30
0.0
 11
-2.782804340947906
 21
3.408225344662782
 31
-0.0000000000000002
210
0.0
220
0.0
230
1.0
 40
0.8164970000000002
 41
3.141592653589783
 42
3.926990816988037
  0
LINE
  5
6791
330
A
100
AcDbEntity
  8
0
  6
Continuous
 62
     9
100
AcDbLine
 10
213.509536
 20
-51.54445199999997
 30
0.0
 11
212.97288
 21
-51.98262999999997
 31
0.0
  0
LINE
  5
6792
330
A
100
AcDbEntity
  8
0
  6
Continuous
 62
     9
100
AcDbLine
 10
212.97288
 20
-51.98262999999997
 30
0.0
 11
212.6151089999997
 21
-52.27474900000015
 31
0.0
  0
ELLIPSE
  5
6793
330
A
100
AcDbEntity
  8
0
  6
Continuous
 62
     7
100
AcDbEllipse
 10
213.509536
 20
-55.56108399999994
 30
0.0
 11
-2.782804340947796
 21
3.408225344662783
 31
0.0
210
0.0
220
0.0
230
1.0
 40
0.816497
 41
3.926990816988018
 42
5.497787143782939
  0
LINE
  5
6794
330
A
100
AcDbEntity
  8
0
  6
Continuous
 62
     9
100
AcDbLine
 10
217.445016
 20
-56.36441100000002
 30
0.0
 11
216.908359
 21
-56.80258900000012
 31
0.0
  0
LINE
  5
6795
330
A
100
AcDbEntity
  8
0
  6
Continuous
 62
     9
100
AcDbLine
 10
216.908359
 20
-56.80258900000012
 30
0.0
 11
216.5505879999999
 21
-57.09470700000043
 31
0.0
  0
LINE
  5
6796
330
A
100
AcDbEntity
  8
0
  6
Continuous
 62
     9
100
AcDbLine
 10
216.664953
 20
-58.46192199999996
 30
0.0
 11
216.5505879999999
 21
-58.55530099999999
 31
0.0
  0
LINE
  5
6797
330
A
100
AcDbEntity
  8
0
  6
Continuous
 62
     7
100
AcDbLine
 10
217.445016
 20
-56.36441100000002
 30
0.0
 11
217.445016
 21
-57.09470700000043
 31
0.0
  0
LINE
  5
6798
330
A
100
AcDbEntity
  8
0
  6
Continuous
 62
     9
100
AcDbLine
 10
171.2925719999999
 20
-42.92695100000003
 30
0.0
 11
170.755916
 21
-43.36512900000002
 31
0.0
  0
LINE
  5
6799
330
A
100
AcDbEntity
  8
0
  6
Continuous
 62
     9
100
AcDbLine
 10
170.755916
 20
-43.36512900000002
 30
0.0
 11
170.398145
 21
-43.65724699999998
 31
0.0
  0
LINE
  5
679A
330
A
100
AcDbEntity
  8
0
  6
Continuous
 62
     7
100
AcDbLine
 10
171.2925719999999
 20
-42.92695100000003
 30
0.0
 11
213.509536
 21
-51.54445199999997
 31
0.0
  0
ELLIPSE
  5
679B
330
A
100
AcDbEntity
  8
0
  6
Continuous
 62
     7
100
AcDbEllipse
 10
212.6151089999997
 20
-57.75197400000013
 30
0.0
 11
-2.782804340947909
 21
3.408225344662674
 31
0.0000000000000002
210
0.0
220
0.0
230
1.0
 40
0.816497
 41
2.585470693406335
 42
3.141592653589756
  0
ELLIPSE
  5
679C
330
A
100
AcDbEntity
  8
0
  6
Continuous
 62
     7
100
AcDbEllipse
 10
213.509536
 20
-57.02167800000018
 30
0.0
 11
-2.782804340947796
 21
3.408225344662673
 31
0.0000000000000002
210
0.0
220
0.0
230
1.0
 40
0.8164970000000002
 41
3.141592653589794
 42
3.28647445670491
  0
ELLIPSE
  5
679D
330
A
100
AcDbEntity
  8
0
  6
Continuous
 62
     7
100
AcDbEllipse
 10
171.2925719999999
 20
-46.94358299999999
 30
0.0
 11
-2.782804340947796
 21
3.408225344662895
 31
0.0000000000000002
210
0.0
220
0.0
230
1.0
 40
0.816497
 41
5.49778714378296
 42
6.283185307179621
  0
ELLIPSE
  5
679E
330
A
100
AcDbEntity
  8
0
  6
Continuous
 62
     7
100
AcDbEllipse
 10
170.398145
 20
-47.67387900000016
 30
0.0
 11
-2.782804340947906
 21
3.408225344662782
 31
0.0000000000000002
210
0.0
220
0.0
230
1.0
 40
0.8164970000000002
 41
5.497787143782947
 42
6.283185307179565
  0
LINE
  5
679F
330
A
100
AcDbEntity
  8
0
  6
Continuous
 62
     9
100
AcDbLine
 10
216.664953
 20
-124.188629
 30
0.0
 11
216.5505879999999
 21
-124.2820080000001
 31
0.0
  0
LINE
  5
67A0
330
A
100
AcDbEntity
  8
0
  6
Continuous
 62
     9
100
AcDbLine
 10
216.664953
 20
-125.6492230000002
 30
0.0
 11
216.5505879999999
 21
-125.742601
 31
0.0
  0
ELLIPSE
  5
67A1
330
A
100
AcDbEntity
  8
0
  6
Continuous
 62
     7
100
AcDbEllipse
 10
212.6151089999997
 20
-124.939275
 30
0.0
 11
-2.782804340947908
 21
3.408225344662728
 31
0.0000000000000002
210
0.0
220
0.0
230
1.0
 40
0.8164970000000002
 41
2.585470693406383
 42
3.141592653589771
  0
ELLIPSE
  5
67A2
330
A
100
AcDbEntity
  8
0
  6
Continuous
 62
     7
100
AcDbEllipse
 10
213.509536
 20
-124.2089780000001
 30
0.0
 11
-2.782804340947906
 21
3.408225344662782
 31
0.0
210
0.0
220
0.0
230
1.0
 40
0.8164970000000002
 41
3.141592653589801
 42
3.286474456685048
  0
LINE
  5
67A3
330
A
100
AcDbEntity
  8
0
  6
Continuous
 62
     7
100
AcDbLine
 10
273.436158
 20
-68.70642599999996
 30
0.0
 11
273.436158
 21
-137.3543190000001
 31
0.0
  0
ELLIPSE
  5
67A4
330
A
100
AcDbEntity
  8
0
  6
Continuous
 62
     7
100
AcDbEllipse
 10
269.5006779999999
 20
-136.5509929999999
 30
0.0
 11
-2.782804340948352
 21
3.408225344662615
 31
0.0
210
0.0000000000000001
220
0.0000000000000001
230
1.0
 40
0.8164970000000002
 41
3.14159265358977
 42
3.926990816987214
  0
ELLIPSE
  5
67A5
330
A
100
AcDbEntity
  8
0
  6
Continuous
 62
     7
100
AcDbEllipse
 10
227.283715
 20
-59.28559800000016
 30
0.0
 11
-2.78280434094835
 21
3.408225344662673
 31
0.0
210
0.0000000000000001
220
0.0000000000000001
230
1.0
 40
0.8164970000000002
 41
0.0
 42
0.5561219601872443
  0
LINE
  5
67A6
330
A
100
AcDbEntity
  8
0
  6
Continuous
 62
     7
100
AcDbLine
 10
227.283715
 20
-55.2689650000002
 30
0.0
 11
269.5006779999999
 21
-63.88646700000004
 31
0.0
  0
ELLIPSE
  5
67A7
330
A
100
AcDbEntity
  8
0
  6
Continuous
 62
     7
100
AcDbEllipse
 10
269.5006779999999
 20
-67.903099
 30
0.0
 11
-2.78280434094835
 21
3.408225344662673
 31
0.0
210
0.0000000000000001
220
0.0000000000000001
230
1.0
 40
0.8164970000000002
 41
3.926990816987201
 42
5.497787143782103
  0
LINE
  5
67A8
330
A
100
AcDbEntity
  8
0
  6
Continuous
 62
     9
100
AcDbLine
 10
270.3951050000001
 20
-63.15616999999997
 30
0.0
 11
269.8584490000001
 21
-63.59434800000042
 31
0.0
  0
LINE
  5
67A9
330
A
100
AcDbEntity
  8
0
  6
Continuous
 62
     9
100
AcDbLine
 10
269.8584490000001
 20
-63.59434800000042
 30
0.0
 11
269.5006779999999
 21
-63.88646700000004
 31
0.0
  0
ELLIPSE
  5
67AA
330
A
100
AcDbEntity
  8
0
  6
Continuous
 62
     7
100
AcDbEllipse
 10
270.3951050000001
 20
-67.17280199999994
 30
0.0
 11
-2.78280434094813
 21
3.408225344662563
 31
0.0
210
0.0000000000000001
220
0.0000000000000001
230
1.0
 40
0.816497
 41
3.926990816987192
 42
5.497787143782086
  0
LINE
  5
67AB
330
A
100
AcDbEntity
  8
0
  6
Continuous
 62
     9
100
AcDbLine
 10
274.3305849999999
 20
-67.97612900000001
 30
0.0
 11
273.7939289999999
 21
-68.414307
 31
0.0
  0
LINE
  5
67AC
330
A
100
AcDbEntity
  8
0
  6
Continuous
 62
     9
100
AcDbLine
 10
273.7939289999999
 20
-68.414307
 30
0.0
 11
273.436158
 21
-68.70642599999996
 31
0.0
  0
LINE
  5
67AD
330
A
100
AcDbEntity
  8
0
  6
Continuous
 62
     9
100
AcDbLine
 10
228.178142
 20
-54.53866900000014
 30
0.0
 11
227.641486
 21
-54.97684700000002
 31
0.0
  0
LINE
  5
67AE
330
A
100
AcDbEntity
  8
0
  6
Continuous
 62
     9
100
AcDbLine
 10
227.641486
 20
-54.97684700000002
 30
0.0
 11
227.283715
 21
-55.2689650000002
 31
0.0
  0
LINE
  5
67AF
330
A
100
AcDbEntity
  8
0
  6
Continuous
 62
     7
100
AcDbLine
 10
228.178142
 20
-54.53866900000014
 30
0.0
 11
270.3951050000001
 21
-63.15616999999997
 31
0.0
  0
LINE
  5
67B0
330
A
100
AcDbEntity
  8
0
  6
Continuous
 62
     9
100
AcDbLine
 10
274.3305849999999
 20
-136.6240230000001
 30
0.0
 11
273.7939289999999
 21
-137.0622009999999
 31
0.0
  0
LINE
  5
67B1
330
A
100
AcDbEntity
  8
0
  6
Continuous
 62
     9
100
AcDbLine
 10
273.7939289999999
 20
-137.0622009999999
 30
0.0
 11
273.436158
 21
-137.3543190000001
 31
0.0
  0
LINE
  5
67B2
330
A
100
AcDbEntity
  8
0
  6
Continuous
 62
     7
100
AcDbLine
 10
274.3305849999999
 20
-67.97612900000001
 30
0.0
 11
274.3305849999999
 21
-136.6240230000001
 31
0.0
  0
ELLIPSE
  5
67B3
330
A
100
AcDbEntity
  8
0
  6
Continuous
 62
     7
100
AcDbEllipse
 10
228.178142
 20
-58.55530099999999
 30
0.0
 11
-2.78280434094813
 21
3.408225344662563
 31
0.0
210
0.0000000000000001
220
0.0000000000000001
230
1.0
 40
0.816497
 41
5.497787143782086
 42
6.283185307179584
  0
ELLIPSE
  5
67B4
330
A
100
AcDbEntity
  8
0
  6
Continuous
 62
     7
100
AcDbEllipse
 10
227.283715
 20
-59.28559800000016
 30
0.0
 11
-2.78280434094835
 21
3.408225344662673
 31
0.0
210
0.0000000000000001
220
0.0000000000000001
230
1.0
 40
0.8164970000000002
 41
5.497787143782103
 42
6.283185307179584
  0
ELLIPSE
  5
67B5
330
A
100
AcDbEntity
  8
0
  6
Continuous
 62
     7
100
AcDbEllipse
 10
269.5006779999999
 20
-136.5509929999999
 30
0.0
 11
-2.782804340948352
 21
3.408225344662615
 31
0.0
210
0.0000000000000001
220
0.0000000000000001
230
1.0
 40
0.8164970000000002
 41
2.585470693403141
 42
3.14159265358977
  0
ELLIPSE
  5
67B6
330
A
100
AcDbEntity
  8
0
  6
Continuous
 62
     7
100
AcDbEllipse
 10
270.3951050000001
 20
-135.8206960000001
 30
0.0
 11
-2.782804340948352
 21
3.408225344662615
 31
0.0
210
0.0000000000000001
220
0.0000000000000001
230
1.0
 40
0.8164970000000002
 41
3.141592653589754
 42
3.92699081698722
  0
ELLIPSE
  5
67B7
330
A
100
AcDbEntity
  8
0
  6
Continuous
 62
     7
100
AcDbEllipse
 10
182.025699
 20
-55.70714400000031
 30
0.0
 11
4.806662043455368
 21
-5.886934686235689
 31
0.0000000000000005
210
0.0
220
0.0000000000000001
230
1.0
 40
0.816497
 41
2.030311532973773
 42
2.682077447412154
  0
ELLIPSE
  5
67B8
330
A
100
AcDbEntity
  8
0
  6
Continuous
 62
     7
100
AcDbEllipse
 10
257.5153539999999
 20
-71.11640499999999
 30
0.0
 11
4.806662043455919
 21
-5.886934686235357
 31
0.0
210
0.0
220
0.0
230
1.0
 40
0.8164969999999998
 41
2.030311532960701
 42
2.682077447423969
  0
ELLIPSE
  5
67B9
330
A
100
AcDbEntity
  8
0
  6
Continuous
 62
     7
100
AcDbEllipse
 10
208.1429730000003
 20
-54.8307870000001
 30
0.0
 11
-5.599999999999936
 21
-0.0000000000038858
 31
0.0000000000000003
210
0.0000000000000001
220
-0.0000000000000001
230
1.0
 40
0.4082480000000002
 41
1.107148717793742
 42
2.677945044588639
  0
LINE
  5
67BA
330
A
100
AcDbEntity
  8
0
  6
Continuous
 62
     9
100
AcDbLine
 10
213.151765
 20
-55.85320300000012
 30
0.0
 11
213.151765
 21
-72.65002800000013
 31
0.0
  0
ELLIPSE
  5
67BB
330
A
100
AcDbEntity
  8
0
  6
Continuous
 62
     7
100
AcDbEllipse
 10
208.1429730000003
 20
-71.62761299999999
 30
0.0
 11
-5.599999999999936
 21
-0.0000000000038858
 31
0.0000000000000003
210
0.0000000000000001
220
-0.0000000000000001
230
1.0
 40
0.4082480000000002
 41
1.107148717793748
 42
2.677945044588619
  0
LINE
  5
67BC
330
A
100
AcDbEntity
  8
0
  6
Continuous
 62
     9
100
AcDbLine
 10
205.6385769999997
 20
-73.67244299999999
 30
0.0
 11
205.6385769999997
 21
-56.87561799999992
 31
0.0
  0
ELLIPSE
  5
67BD
330
A
100
AcDbEntity
  8
0
  6
Continuous
 62
     7
100
AcDbEllipse
 10
161.270697
 20
-46.09895700000016
 30
0.0
 11
-1.20000000000009
 21
-0.0000000000007772
 31
0.0000000000000001
210
0.0000000000000001
220
0.0
230
1.0
 40
0.4082480000000002
 41
5.906804160778187
 42
6.283185307179584
  0
LINE
  5
67BE
330
A
100
AcDbEntity
  8
0
  6
Continuous
 62
     7
100
AcDbLine
 10
160.641733
 20
-45.4158020000001
 30
0.0
 11
160.154696
 21
-45.91889100000014
 31
0.0
  0
LINE
  5
67BF
330
A
100
AcDbEntity
  8
0
  6
Continuous
 62
     7
100
AcDbLine
 10
160.641733
 20
-45.4158020000001
 30
0.0
 11
161.274988
 21
-44.89875199999994
 31
0.0
  0
LINE
  5
67C0
330
A
100
AcDbEntity
  8
0
  6
Continuous
 62
     7
100
AcDbLine
 10
161.274988
 20
-44.89875199999994
 30
0.0
 11
213.509536
 21
-55.56108399999994
 31
0.0
  0
LINE
  5
67C1
330
A
100
AcDbEntity
  8
0
  6
Continuous
 62
     7
100
AcDbLine
 10
213.151765
 20
-55.85320300000012
 30
0.0
 11
213.509536
 21
-55.56108399999994
 31
0.0
  0
LINE
  5
67C2
330
A
100
AcDbEntity
  8
0
  6
Continuous
 62
     7
100
AcDbLine
 10
165.639793
 20
-48.71090099999992
 30
0.0
 11
205.6385769999997
 21
-56.87561799999992
 31
0.0
  0
LINE
  5
67C3
330
A
100
AcDbEntity
  8
0
  6
Continuous
 62
     7
100
AcDbLine
 10
163.944852
 20
-48.19822300000009
 30
0.0
 11
165.639793
 21
-48.71090099999992
 31
0.0
  0
ELLIPSE
  5
67C4
330
A
100
AcDbEntity
  8
0
  6
Continuous
 62
     7
100
AcDbEllipse
 10
171.0886429999997
 20
-44.26193300000011
 30
0.0
 11
-12.00000000000001
 21
-0.0000000000083267
 31
-0.0000000000000003
210
0.0
220
0.0
230
1.0
 40
0.4082480000000002
 41
0.4297520659676133
 42
0.9331375846546496
  0
LINE
  5
67C5
330
A
100
AcDbEntity
  8
0
  6
Continuous
 62
     7
100
AcDbLine
 10
197.1743209999999
 20
-72.27331799999996
 30
0.0
 11
175.9435939999999
 21
-67.93961400000012
 31
0.0
  0
ELLIPSE
  5
67C6
330
A
100
AcDbEntity
  8
0
  6
Continuous
 62
     7
100
AcDbEllipse
 10
175.9435939999999
 20
-69.03505899999993
 30
0.0
 11
-0.7589466384403388
 21
0.9295160030898808
 31
0.0
210
0.0
220
0.0
230
1.0
 40
0.816497
 41
0.0000000000000585
 42
0.7853981633982669
  0
LINE
  5
67C7
330
A
100
AcDbEntity
  8
0
  6
Continuous
 62
     7
100
AcDbLine
 10
174.8702809999999
 20
-68.81596999999999
 30
0.0
 11
174.8702809999999
 21
-111.246211
 31
0.0
  0
ELLIPSE
  5
67C8
330
A
100
AcDbEntity
  8
0
  6
Continuous
 62
     7
100
AcDbEllipse
 10
175.9435939999999
 20
-111.4653000000001
 30
0.0
 11
-0.7589466384403388
 21
0.9295160030897696
 31
0.0
210
0.0
220
0.0
230
1.0
 40
0.816497
 41
0.7853981633981984
 42
2.356194490193021
  0
LINE
  5
67C9
330
A
100
AcDbEntity
  8
0
  6
Continuous
 62
     7
100
AcDbLine
 10
175.9435939999999
 20
-112.5607450000001
 30
0.0
 11
197.1743209999999
 21
-116.8944490000002
 31
0.0
  0
ELLIPSE
  5
67CA
330
A
100
AcDbEntity
  8
0
  6
Continuous
 62
     7
100
AcDbEllipse
 10
197.767617
 20
-116.102684
 30
0.0
 11
0.7589466384403388
 21
-0.9295160030898252
 31
0.0
210
0.0
220
0.0
230
1.0
 40
0.816497
 41
4.912101600325675
 42
5.497787143782825
  0
LINE
  5
67CB
330
A
100
AcDbEntity
  8
0
  6
Continuous
 62
     7
100
AcDbLine
 10
197.767617
 20
-117.198129
 30
0.0
 11
197.767617
 21
-117.3441890000001
 31
0.0
  0
LINE
  5
67CC
330
A
100
AcDbEntity
  8
0
  6
Continuous
 62
     7
100
AcDbLine
 10
197.767617
 20
-117.3441890000001
 30
0.0
 11
205.6385769999997
 21
-118.9508419999999
 31
0.0
  0
LINE
  5
67CD
330
A
100
AcDbEntity
  8
0
  6
Continuous
 62
     9
100
AcDbLine
 10
205.6385769999997
 20
-135.747667
 30
0.0
 11
205.6385769999997
 21
-118.9508419999999
 31
0.0
  0
LINE
  5
67CE
330
A
100
AcDbEntity
  8
0
  6
Continuous
 62
     7
100
AcDbLine
 10
205.6385769999997
 20
-135.747667
 30
0.0
 11
165.639793
 21
-127.5829490000001
 31
0.0
  0
LINE
  5
67CF
330
A
100
AcDbEntity
  8
0
  6
Continuous
 62
     7
100
AcDbLine
 10
165.639793
 20
-127.5829490000001
 30
0.0
 11
165.639793
 21
-48.71090099999992
 31
0.0
  0
LINE
  5
67D0
330
A
100
AcDbEntity
  8
0
  6
Continuous
 62
     7
100
AcDbLine
 10
205.6385769999997
 20
-73.67244299999999
 30
0.0
 11
197.767617
 21
-72.06579099999999
 31
0.0
  0
LINE
  5
67D1
330
A
100
AcDbEntity
  8
0
  6
Continuous
 62
     7
100
AcDbLine
 10
197.767617
 20
-72.06579099999999
 30
0.0
 11
197.767617
 21
-72.21185000000014
 31
0.0
  0
ELLIPSE
  5
67D2
330
A
100
AcDbEntity
  8
0
  6
Continuous
 62
     7
100
AcDbEllipse
 10
197.767617
 20
-73.30729500000012
 30
0.0
 11
0.7589466384403388
 21
-0.9295160030898808
 31
0.0
210
0.0
220
0.0
230
1.0
 40
0.816497
 41
2.356194490193154
 42
2.941880033650303
  0
LINE
  5
67D3
330
A
100
AcDbEntity
  8
0
  6
Continuous
 62
     7
100
AcDbLine
 10
213.509536
 20
-55.56108399999994
 30
0.0
 11
213.509536
 21
-66.15038700000013
 31
0.0
  0
LINE
  5
67D4
330
A
100
AcDbEntity
  8
0
  6
Continuous
 62
     7
100
AcDbLine
 10
213.509536
 20
-66.15038700000013
 30
0.0
 11
216.664953
 21
-63.57399900000018
 31
0.0
  0
LINE
  5
67D5
330
A
100
AcDbEntity
  8
0
  6
Continuous
 62
     7
100
AcDbLine
 10
213.151765
 20
-72.65002800000013
 30
0.0
 11
216.664953
 21
-69.781522
 31
0.0
  0
ELLIPSE
  5
67D6
330
A
100
AcDbEntity
  8
0
  6
Continuous
 62
     7
100
AcDbEllipse
 10
215.835047
 20
-67.53795100000002
 30
0.0
 11
0.5679999999981256
 21
2.782620347801965
 31
0.0
210
0.0
220
0.0
230
1.0
 40
0.4082480000000003
 41
2.034443935795475
 42
3.1415926535898
  0
LINE
  5
67D7
330
A
100
AcDbEntity
  8
0
  6
Continuous
 62
     7
100
AcDbLine
 10
214.254621
 20
-61.73812199999997
 30
0.0
 11
216.664953
 21
-62.23012900000004
 31
0.0
  0
ELLIPSE
  5
67D8
330
A
100
AcDbEntity
  8
0
  6
Continuous
 62
     7
100
AcDbEllipse
 10
215.835047
 20
-67.53795100000002
 30
0.0
 11
0.5679999999981256
 21
2.782620347801965
 31
0.0
210
0.0
220
0.0
230
1.0
 40
0.4082480000000003
 41
6.2831853071795
 42
8.317629242975062
  0
ELLIPSE
  5
67D9
330
A
100
AcDbEntity
  8
0
  6
Continuous
 62
     7
100
AcDbEllipse
 10
215.835047
 20
-67.53795100000002
 30
0.0
 11
0.5679999999981256
 21
2.782620347801965
 31
0.0
210
0.0
220
0.0
230
1.0
 40
0.4082480000000003
 41
3.1415926535898
 42
4.317340911631142
  0
ELLIPSE
  5
67DA
330
A
100
AcDbEntity
  8
0
  6
Continuous
 62
     7
100
AcDbEllipse
 10
215.835047
 20
-67.53795100000002
 30
0.0
 11
0.5679999999981256
 21
2.782620347801965
 31
0.0
210
0.0
220
0.0
230
1.0
 40
0.4082480000000003
 41
6.034732267136456
 42
6.283185307179508
  0
LINE
  5
67DB
330
A
100
AcDbEntity
  8
0
  6
Continuous
 62
     7
100
AcDbLine
 10
197.767617
 20
-72.21185000000014
 30
0.0
 11
197.9107259999999
 21
-72.09500199999997
 31
0.0
  0
LINE
  5
67DC
330
A
100
AcDbEntity
  8
0
  6
Continuous
 62
     9
100
AcDbLine
 10
163.944852
 20
-48.19822300000009
 30
0.0
 11
163.944852
 21
-127.070271
 31
0.0
  0
LINE
  5
67DD
330
A
100
AcDbEntity
  8
0
  6
Continuous
 62
     7
100
AcDbLine
 10
165.639793
 20
-127.5829490000001
 30
0.0
 11
163.944852
 21
-127.070271
 31
0.0
  0
LINE
  5
67DE
330
A
100
AcDbEntity
  8
0
  6
Continuous
 62
     9
100
AcDbLine
 10
160.1798139999999
 20
-46.30307000000016
 30
0.0
 11
160.1798139999999
 21
-125.1751190000002
 31
0.0
  0
ELLIPSE
  5
67DF
330
A
100
AcDbEntity
  8
0
  6
Continuous
 62
     7
100
AcDbEllipse
 10
171.0886429999997
 20
-123.1339809999999
 30
0.0
 11
12.00000000000001
 21
0.0000000000083267
 31
-0.0000000000000004
210
0.0
220
0.0
230
1.0
 40
0.4082480000000002
 41
3.571344719557406
 42
4.074730238244419
  0
ELLIPSE
  5
67E0
330
A
100
AcDbEntity
  8
0
  6
Continuous
 62
     7
100
AcDbEllipse
 10
175.9435939999999
 20
-69.03505899999993
 30
0.0
 11
-0.7589466384403388
 21
0.9295160030898808
 31
0.0
210
0.0
220
0.0
230
1.0
 40
0.816497
 41
5.497787143782956
 42
6.283185307179643
  0
LINE
  5
67E1
330
A
100
AcDbEntity
  8
0
  6
Continuous
 62
     9
100
AcDbLine
 10
175.9435939999999
 20
-67.93961400000012
 30
0.0
 11
174.8702809999999
 21
-68.81596999999999
 31
0.0
  0
LINE
  5
67E2
330
A
100
AcDbEntity
  8
0
  6
Continuous
 62
     9
100
AcDbLine
 10
174.8702809999999
 20
-111.246211
 30
0.0
 11
180.264398
 21
-106.841933
 31
0.0
  0
ELLIPSE
  5
67E3
330
A
100
AcDbEntity
  8
0
  6
Continuous
 62
     7
100
AcDbEllipse
 10
161.270697
 20
-46.09895700000016
 30
0.0
 11
-1.20000000000009
 21
-0.0000000000007772
 31
0.0
210
0.0
220
0.0
230
1.0
 40
0.4082480000000002
 41
6.283185307179584
 42
6.712937373147235
  0
ELLIPSE
  5
67E4
330
A
100
AcDbEntity
  8
0
  6
Continuous
 62
     7
100
AcDbEllipse
 10
161.270697
 20
-124.971005
 30
0.0
 11
1.199999999999978
 21
0.0000000000007772
 31
0.0
210
0.0
220
0.0
230
1.0
 40
0.4082480000000002
 41
3.14159265359007
 42
3.571344719557626
  0
ELLIPSE
  5
67E5
330
A
100
AcDbEntity
  8
0
  6
Continuous
 62
     7
100
AcDbEllipse
 10
208.1429730000003
 20
-116.906011
 30
0.0
 11
5.600000000000046
 21
0.0000000000038858
 31
-0.0000000000000001
210
0.0
220
0.0
230
1.0
 40
0.4082480000000002
 41
4.248741371383536
 42
5.023934744694502
  0
LINE
  5
67E6
330
A
100
AcDbEntity
  8
0
  6
Continuous
 62
     7
100
AcDbLine
 10
197.767617
 20
-117.3441890000001
 30
0.0
 11
198.483159
 21
-116.7599510000002
 31
0.0
  0
ELLIPSE
  5
67E7
330
A
100
AcDbEntity
  8
0
  6
Continuous
 62
     7
100
AcDbEllipse
 10
208.1429730000003
 20
-133.7028360000001
 30
0.0
 11
5.599999999999936
 21
0.0000000000038858
 31
0.0
210
0.0
220
0.0000000000000001
230
1.0
 40
0.4082480000000002
 41
4.248741371383513
 42
5.819537698178438
  0
LINE
  5
67E8
330
A
100
AcDbEntity
  8
0
  6
Continuous
 62
     9
100
AcDbLine
 10
213.151765
 20
-119.7541680000001
 30
0.0
 11
213.151765
 21
-134.7252509999999
 31
0.0
  0
LINE
  5
67E9
330
A
100
AcDbEntity
  8
0
  6
Continuous
 62
     7
100
AcDbLine
 10
213.509536
 20
-123.8438299999999
 30
0.0
 11
216.4934500000001
 21
-121.4074740000001
 31
0.0
  0
LINE
  5
67EA
330
A
100
AcDbEntity
  8
0
  6
Continuous
 62
     7
100
AcDbLine
 10
213.151765
 20
-134.7252509999999
 30
0.0
 11
213.509536
 21
-134.4331320000001
 31
0.0
  0
ELLIPSE
  5
67EB
330
A
100
AcDbEntity
  8
0
  6
Continuous
 62
     7
100
AcDbEllipse
 10
215.835047
 20
-118.6587230000001
 30
0.0
 11
0.5599999999981176
 21
2.743428511917443
 31
-0.0000000000000002
210
0.0
220
0.0000000000000001
230
1.0
 40
0.4082480000000002
 41
2.18338691815932
 42
3.141592653589762
  0
LINE
  5
67EC
330
A
100
AcDbEntity
  8
0
  6
Continuous
 62
     7
100
AcDbLine
 10
213.509536
 20
-123.8438299999999
 30
0.0
 11
213.509536
 21
-134.4331320000001
 31
0.0
  0
LINE
  5
67ED
330
A
100
AcDbEntity
  8
0
  6
Continuous
 62
     7
100
AcDbLine
 10
197.1743209999999
 20
-116.8944490000002
 30
0.0
 11
197.567869
 21
-116.5731190000001
 31
0.0
  0
LINE
  5
67EE
330
A
100
AcDbEntity
  8
0
  6
Continuous
 62
     7
100
AcDbLine
 10
198.340051
 20
-116.7307389999999
 30
0.0
 11
197.767617
 21
-117.198129
 31
0.0
  0
LINE
  5
67EF
330
A
100
AcDbEntity
  8
0
  6
Continuous
 62
     9
100
AcDbLine
 10
180.264398
 20
-109.0328230000002
 30
0.0
 11
175.9435939999999
 21
-112.5607450000001
 31
0.0
  0
ELLIPSE
  5
67F0
330
A
100
AcDbEntity
  8
0
  6
Continuous
 62
     7
100
AcDbEllipse
 10
215.835047
 20
-118.6587230000001
 30
0.0
 11
0.5599999999981176
 21
2.743428511917443
 31
0.0
210
0.0
220
0.0
230
1.0
 40
0.4082480000000002
 41
3.141592653589762
 42
3.912458984622965
  0
LINE
  5
67F1
330
A
100
AcDbEntity
  8
0
  6
Continuous
 62
     7
100
AcDbLine
 10
217.087245
 20
-57.38682599999993
 30
0.0
 11
218.160557
 21
-56.51047000000017
 31
0.0
  0
LINE
  5
67F2
330
A
100
AcDbEntity
  8
0
  6
Continuous
 62
     7
100
AcDbLine
 10
218.160557
 20
-56.51047000000017
 30
0.0
 11
270.3951050000001
 21
-67.17280199999994
 31
0.0
  0
LINE
  5
67F3
330
A
100
AcDbEntity
  8
0
  6
Continuous
 62
     7
100
AcDbLine
 10
269.761851
 20
-67.68985199999997
 30
0.0
 11
270.3951050000001
 21
-67.17280199999994
 31
0.0
  0
LINE
  5
67F4
330
A
100
AcDbEntity
  8
0
  6
Continuous
 62
     7
100
AcDbLine
 10
269.0682240000001
 20
-68.15077199999996
 30
0.0
 11
269.761851
 21
-67.68985199999997
 31
0.0
  0
ELLIPSE
  5
67F5
330
A
100
AcDbEntity
  8
0
  6
Continuous
 62
     7
100
AcDbEllipse
 10
268.0457679999999
 20
-67.89432699999998
 30
0.0
 11
-1.20000000000009
 21
0.0
 31
0.0
210
0.0
220
0.0
230
1.0
 40
0.4082480000000002
 41
1.784545369620135
 42
2.590678581989168
  0
ELLIPSE
  5
67F6
330
A
100
AcDbEntity
  8
0
  6
Continuous
 62
     7
100
AcDbEllipse
 10
265.754817
 20
-63.58558499999992
 30
0.0
 11
-12.00000000000001
 21
0.0
 31
-0.0000000000000002
210
0.0
220
0.0000000000000001
230
1.0
 40
0.4082480000000002
 41
1.281159850933196
 42
1.784545369620246
  0
LINE
  5
67F7
330
A
100
AcDbEntity
  8
0
  6
Continuous
 62
     7
100
AcDbLine
 10
260.305967
 20
-68.03455300000019
 30
0.0
 11
262.3275710000001
 21
-68.28051100000016
 31
0.0
  0
LINE
  5
67F8
330
A
100
AcDbEntity
  8
0
  6
Continuous
 62
     7
100
AcDbLine
 10
218.8760990000001
 20
-59.577716
 30
0.0
 11
260.305967
 21
-68.03455300000019
 31
0.0
  0
ELLIPSE
  5
67F9
330
A
100
AcDbEntity
  8
0
  6
Continuous
 62
     7
100
AcDbEllipse
 10
220.6649529999999
 20
-58.11712299999999
 30
0.0
 11
3.999999999999893
 21
0.0
 31
0.0
210
0.0
220
0.0
230
1.0
 40
0.4082480000000002
 41
3.141592653589792
 42
4.248741371383896
  0
LINE
  5
67FA
330
A
100
AcDbEntity
  8
0
  6
Continuous
 62
     9
100
AcDbLine
 10
268.300318
 20
-147.2451240000001
 30
0.0
 11
268.300318
 21
-68.37307599999997
 31
0.0
  0
ELLIPSE
  5
67FB
330
A
100
AcDbEntity
  8
0
  6
Continuous
 62
     7
100
AcDbEllipse
 10
265.754817
 20
-142.457633
 30
0.0
 11
12.00000000000001
 21
0.0
 31
0.0
210
0.0
220
0.0
230
1.0
 40
0.4082480000000002
 41
4.422752504522992
 42
4.92613802321004
  0
LINE
  5
67FC
330
A
100
AcDbEntity
  8
0
  6
Continuous
 62
     9
100
AcDbLine
 10
262.3275710000001
 20
-147.152559
 30
0.0
 11
262.3275710000001
 21
-68.28051100000016
 31
0.0
  0
LINE
  5
67FD
330
A
100
AcDbEntity
  8
0
  6
Continuous
 62
     9
100
AcDbLine
 10
269.0682240000001
 20
-147.02282
 30
0.0
 11
269.0682240000001
 21
-68.15077199999996
 31
0.0
  0
ELLIPSE
  5
67FE
330
A
100
AcDbEntity
  8
0
  6
Continuous
 62
     7
100
AcDbEllipse
 10
268.0457679999999
 20
-146.766375
 30
0.0
 11
1.20000000000009
 21
0.0
 31
0.0
210
0.0
220
0.0
230
1.0
 40
0.4082480000000002
 41
4.926138023209907
 42
5.73227123557888
  0
LINE
  5
67FF
330
A
100
AcDbEntity
  8
0
  6
Continuous
 62
     7
100
AcDbLine
 10
262.3275710000001
 20
-147.152559
 30
0.0
 11
260.305967
 21
-146.9066009999999
 31
0.0
  0
LINE
  5
6800
330
A
100
AcDbEntity
  8
0
  6
Continuous
 62
     7
100
AcDbLine
 10
260.305967
 20
-68.03455300000019
 30
0.0
 11
260.305967
 21
-146.9066009999999
 31
0.0
  0
LINE
  5
6801
330
A
100
AcDbEntity
  8
0
  6
Continuous
 62
     7
100
AcDbLine
 10
269.761851
 20
-146.5619009999999
 30
0.0
 11
269.761851
 21
-67.68985199999997
 31
0.0
  0
LINE
  5
6802
330
A
100
AcDbEntity
  8
0
  6
Continuous
 62
     7
100
AcDbLine
 10
269.761851
 20
-146.5619009999999
 30
0.0
 11
269.0682240000001
 21
-147.02282
 31
0.0
  0
LINE
  5
6803
330
A
100
AcDbEntity
  8
0
  6
Continuous
 62
     7
100
AcDbLine
 10
260.305967
 20
-146.9066009999999
 30
0.0
 11
218.8760990000001
 21
-138.449765
 31
0.0
  0
LINE
  5
6804
330
A
100
AcDbEntity
  8
0
  6
Continuous
 62
     9
100
AcDbLine
 10
218.8760990000001
 20
-124.5649860000001
 30
0.0
 11
218.8760990000001
 21
-138.449765
 31
0.0
  0
LINE
  5
6805
330
A
100
AcDbEntity
  8
0
  6
Continuous
 62
     7
100
AcDbLine
 10
215.656161
 20
-120.2653760000002
 30
0.0
 11
216.391019
 21
-120.9648309999999
 31
0.0
  0
LINE
  5
6806
330
A
100
AcDbEntity
  8
0
  6
Continuous
 62
     7
100
AcDbLine
 10
215.656161
 20
-76.44757099999998
 30
0.0
 11
215.656161
 21
-120.2653760000002
 31
0.0
  0
ARC
  5
6807
330
A
100
AcDbEntity
  8
0
  6
Continuous
 62
     7
100
AcDbCircle
 10
211.5478199999996
 20
-68.78681500000016
 30
0.0
 40
8.692849999999998
100
AcDbArc
 50
298.2039460000029
 51
327.4608030000003
  0
LINE
  5
6808
330
A
100
AcDbEntity
  8
0
  6
Continuous
 62
     9
100
AcDbLine
 10
218.8760990000001
 20
-73.46249500000016
 30
0.0
 11
218.8760990000001
 21
-59.577716
 31
0.0
  0
LINE
  5
6809
330
A
100
AcDbEntity
  8
0
  6
Continuous
 62
     7
100
AcDbLine
 10
270.3951050000001
 20
-67.17280199999994
 30
0.0
 11
270.3951050000001
 21
-146.044851
 31
0.0
  0
LINE
  5
680A
330
A
100
AcDbEntity
  8
0
  6
Continuous
 62
     7
100
AcDbLine
 10
269.761851
 20
-146.5619009999999
 30
0.0
 11
270.3951050000001
 21
-146.044851
 31
0.0
  0
ELLIPSE
  5
680B
330
A
100
AcDbEntity
  8
0
  6
Continuous
 62
     7
100
AcDbEllipse
 10
220.6649529999999
 20
-58.11712299999999
 30
0.0
 11
3.999999999999893
 21
0.0
 31
0.0
210
0.0
220
0.0
230
1.0
 40
0.4082480000000002
 41
2.677945044588983
 42
3.141592653589792
  0
LINE
  5
681B
330
A
100
AcDbEntity
  8
0
  6
Continuous
 62
     7
100
AcDbLine
 10
215.477276
 20
-76.22848200000015
 30
0.0
 11
215.656161
 21
-76.44757099999998
 31
0.0
  0
ARC
  5
681C
330
A
100
AcDbEntity
  8
0
  6
Continuous
 62
     7
100
AcDbCircle
 10
199.248235
 20
-68.77371399999993
 30
0.0
 40
17.859321
100
AcDbArc
 50
335.3284369999964
 51
347.018755999997
  0
LINE
  5
681D
330
A
100
AcDbEntity
  8
0
  6
Continuous
 62
     7
100
AcDbLine
 10
215.656161
 20
-120.2653760000002
 30
0.0
 11
215.477276
 21
-120.046287
 31
0.0
  0
LINE
  5
681E
330
A
100
AcDbEntity
  8
0
  6
Continuous
 62
     7
100
AcDbLine
 10
215.477276
 20
-120.046287
 30
0.0
 11
215.477276
 21
-76.22848200000015
 31
0.0
  0
ARC
  5
681F
330
A
100
AcDbEntity
  8
0
  6
Continuous
 62
     7
100
AcDbCircle
 10
197.3074019999997
 20
-136.7954530000002
 30
0.0
 40
24.79502
100
AcDbArc
 50
29.55527800000033
 51
39.67706099999826
  0
ARC
  5
6820
330
A
100
AcDbEntity
  8
0
  6
Continuous
 62
     9
100
AcDbCircle
 10
221.86513
 20
-119.1438060000001
 30
0.0
 40
6.190598
100
AcDbArc
 50
212.859063
 51
241.1293429999979
  0
ELLIPSE
  5
6821
330
A
100
AcDbEntity
  8
0
  6
Continuous
 62
     7
100
AcDbEllipse
 10
220.6649529999999
 20
-136.989171
 30
0.0
 11
3.999999999999893
 21
0.0
 31
0.0
210
0.0
220
0.0
230
1.0
 40
0.4082480000000002
 41
3.141592653589818
 42
4.248741371383923
  0
LINE
  5
6822
330
A
100
AcDbEntity
  8
0
  6
Continuous
 62
     7
100
AcDbLine
 10
222.990464
 20
-57.49637099999995
 30
0.0
 11
222.990464
 21
-52.566868
 31
0.0
  0
LINE
  5
6823
330
A
100
AcDbEntity
  8
0
  6
Continuous
 62
     7
100
AcDbLine
 10
222.990464
 20
-52.566868
 30
0.0
 11
275.2250119999999
 21
-63.2292000000001
 31
0.0
  0
LINE
  5
6824
330
A
100
AcDbEntity
  8
0
  6
Continuous
 62
     7
100
AcDbLine
 10
275.2250119999999
 20
-63.2292000000001
 30
0.0
 11
275.2250119999999
 21
-142.1012480000001
 31
0.0
  0
LINE
  5
6825
330
A
100
AcDbEntity
  8
0
  6
Continuous
 62
     7
100
AcDbLine
 10
275.2250119999999
 20
-142.1012480000001
 30
0.0
 11
270.3951050000001
 21
-141.1153480000001
 31
0.0
  0
ELLIPSE
  5
6826
330
A
100
AcDbEntity
  8
0
  6
Continuous
 62
     7
100
AcDbEllipse
 10
270.21622
 20
-135.966756
 30
0.0
 11
-3.035786553761576
 21
3.718064012359079
 31
0.0
210
0.0000000000000001
220
0.0000000000000001
230
1.0
 40
0.816497
 41
3.141592653589778
 42
3.926990816987246
  0
LINE
  5
6827
330
A
100
AcDbEntity
  8
0
  6
Continuous
 62
     7
100
AcDbLine
 10
274.50947
 20
-68.19521799999995
 30
0.0
 11
274.50947
 21
-136.8431120000001
 31
0.0
  0
ELLIPSE
  5
6828
330
A
100
AcDbEntity
  8
0
  6
Continuous
 62
     7
100
AcDbEllipse
 10
270.21622
 20
-67.31886199999997
 30
0.0
 11
-3.035786553761576
 21
3.718064012359079
 31
0.0
210
0.0000000000000001
220
0.0000000000000001
230
1.0
 40
0.816497
 41
3.926990816987246
 42
5.497787143782118
  0
LINE
  5
6829
330
A
100
AcDbEntity
  8
0
  6
Continuous
 62
     7
100
AcDbLine
 10
227.9992560000001
 20
-54.3195800000002
 30
0.0
 11
270.21622
 21
-62.93708099999981
 31
0.0
  0
ELLIPSE
  5
682A
330
A
100
AcDbEntity
  8
0
  6
Continuous
 62
     7
100
AcDbEllipse
 10
227.9992560000001
 20
-58.70135999999991
 30
0.0
 11
-3.035786553761576
 21
3.718064012359079
 31
0.0
210
0.0
220
0.0
230
1.0
 40
0.816497
 41
0.0
 42
0.4742520711868601
  0
ELLIPSE
  5
682B
330
A
100
AcDbEntity
  8
0
  6
Continuous
 62
     7
100
AcDbEllipse
 10
275.2293029999998
 20
-62.028995
 30
0.0
 11
-1.20000000000009
 21
0.0
 31
0.0
210
0.0
220
0.0
230
1.0
 40
0.4082480000000002
 41
2.765211507188896
 42
3.141592653589792
  0
LINE
  5
682C
330
A
100
AcDbEntity
  8
0
  6
Continuous
 62
     7
100
AcDbLine
 10
275.8582670000001
 20
-62.71214999999995
 30
0.0
 11
276.3453039999999
 21
-62.20906100000013
 31
0.0
  0
LINE
  5
682D
330
A
100
AcDbEntity
  8
0
  6
Continuous
 62
     7
100
AcDbLine
 10
275.2250119999999
 20
-63.2292000000001
 30
0.0
 11
275.8582670000001
 21
-62.71214999999995
 31
0.0
  0
LINE
  5
682E
330
A
100
AcDbEntity
  8
0
  6
Continuous
 62
     7
100
AcDbLine
 10
222.990464
 20
-52.566868
 30
0.0
 11
223.348235
 21
-52.27474900000015
 31
0.0
  0
ELLIPSE
  5
682F
330
A
100
AcDbEntity
  8
0
  6
Continuous
 62
     7
100
AcDbEllipse
 10
228.3570269999999
 20
-53.29716399999995
 30
0.0
 11
-5.600000000000159
 21
0.0
 31
0.0000000000000002
210
0.0
220
0.0
230
1.0
 40
0.4082480000000002
 41
4.2487413713839
 42
5.819537698178797
  0
LINE
  5
6830
330
A
100
AcDbEntity
  8
0
  6
Continuous
 62
     7
100
AcDbLine
 10
230.8614230000001
 20
-51.25233300000013
 30
0.0
 11
270.8602069999999
 21
-59.41705100000013
 31
0.0
  0
LINE
  5
6831
330
A
100
AcDbEntity
  8
0
  6
Continuous
 62
     7
100
AcDbLine
 10
272.5551480000001
 20
-59.92972899999995
 30
0.0
 11
270.8602069999999
 21
-59.41705100000013
 31
0.0
  0
ELLIPSE
  5
6832
330
A
100
AcDbEntity
  8
0
  6
Continuous
 62
     7
100
AcDbEllipse
 10
265.4113569999999
 20
-63.86601900000016
 30
0.0
 11
-12.00000000000001
 21
0.0
 31
0.0000000000000002
210
0.0
220
0.0
230
1.0
 40
0.4082480000000002
 41
3.571344719557728
 42
4.074730238244751
  0
LINE
  5
6833
330
A
100
AcDbEntity
  8
0
  6
Continuous
 62
     7
100
AcDbLine
 10
275.8582670000001
 20
-141.5841980000001
 30
0.0
 11
275.8582670000001
 21
-62.71214999999995
 31
0.0
  0
LINE
  5
6834
330
A
100
AcDbEntity
  8
0
  6
Continuous
 62
     7
100
AcDbLine
 10
275.2250119999999
 20
-142.1012480000001
 30
0.0
 11
275.8582670000001
 21
-141.5841980000001
 31
0.0
  0
ELLIPSE
  5
6835
330
A
100
AcDbEntity
  8
0
  6
Continuous
 62
     7
100
AcDbEllipse
 10
228.178142
 20
-58.55530099999999
 30
0.0
 11
-3.035786553761576
 21
3.718064012359079
 31
0.0000000000000002
210
0.0
220
0.0
230
1.0
 40
0.816497
 41
0.0294640682222977
 42
0.4316516604949582
  0
LINE
  5
6836
330
A
100
AcDbEntity
  8
0
  6
Continuous
 62
     9
100
AcDbLine
 10
276.3453039999999
 20
-62.20906100000013
 30
0.0
 11
276.3453039999999
 21
-141.0811089999999
 31
0.0
  0
LINE
  5
6837
330
A
100
AcDbEntity
  8
0
  6
Continuous
 62
     7
100
AcDbLine
 10
276.3453039999999
 20
-141.0811089999999
 30
0.0
 11
275.8582670000001
 21
-141.5841980000001
 31
0.0
  0
ELLIPSE
  5
6838
330
A
100
AcDbEntity
  8
0
  6
Continuous
 62
     7
100
AcDbEllipse
 10
275.2293029999998
 20
-140.9010429999999
 30
0.0
 11
1.20000000000009
 21
0.0
 31
0.0
210
0.0
220
0.0
230
1.0
 40
0.4082480000000002
 41
5.906804160778516
 42
6.283185307179584
  0
ELLIPSE
  5
6839
330
A
100
AcDbEntity
  8
0
  6
Continuous
 62
     7
100
AcDbEllipse
 10
275.2293029999998
 20
-62.028995
 30
0.0
 11
-1.20000000000009
 21
0.0
 31
0.0
210
0.0
220
0.0
230
1.0
 40
0.4082480000000002
 41
3.141592653589792
 42
3.571344719557806
  0
ELLIPSE
  5
683A
330
A
100
AcDbEntity
  8
0
  6
Continuous
 62
     7
100
AcDbEllipse
 10
227.9992560000001
 20
-58.70135999999991
 30
0.0
 11
-3.035786553761576
 21
3.718064012359079
 31
0.0
210
0.0000000000000001
220
0.0000000000000001
230
1.0
 40
0.816497
 41
5.497787143782118
 42
6.283185307179584
  0
ELLIPSE
  5
683B
330
A
100
AcDbEntity
  8
0
  6
Continuous
 62
     7
100
AcDbEllipse
 10
270.21622
 20
-135.966756
 30
0.0
 11
-3.035786553761576
 21
3.718064012359079
 31
0.0
210
0.0000000000000001
220
0.0000000000000001
230
1.0
 40
0.816497
 41
2.667340759615659
 42
3.141592653589778
  0
ELLIPSE
  5
683C
330
A
100
AcDbEntity
  8
0
  6
Continuous
 62
     7
100
AcDbEllipse
 10
270.3951050000001
 20
-135.8206960000001
 30
0.0
 11
-3.035786553761576
 21
3.71806401235919
 31
0.0
210
0.0
220
0.0
230
1.0
 40
0.8164970000000002
 41
2.709941045883589
 42
3.112125606318268
  0
LINE
  5
683D
330
A
100
AcDbEntity
  8
0
  6
Continuous
 62
     7
100
AcDbLine
 10
218.3394429999999
 20
-51.61748199999999
 30
0.0
 11
218.3394429999999
 21
-56.54698499999994
 31
0.0
  0
LINE
  5
683E
330
A
100
AcDbEntity
  8
0
  6
Continuous
 62
     7
100
AcDbLine
 10
218.3394429999999
 20
-51.61748199999999
 30
0.0
 11
218.697214
 21
-51.32536300000015
 31
0.0
  0
LINE
  5
683F
330
A
100
AcDbEntity
  8
0
  6
Continuous
 62
     9
100
AcDbLine
 10
218.697214
 20
-56.62001400000019
 30
0.0
 11
218.697214
 21
-51.32536300000015
 31
0.0
  0
LINE
  5
6840
330
A
100
AcDbEntity
  8
0
  6
Continuous
 62
     7
100
AcDbLine
 10
216.664953
 20
-130.1477259999999
 30
0.0
 11
213.509536
 21
-129.503629
 31
0.0
  0
LINE
  5
6841
330
A
100
AcDbEntity
  8
0
  6
Continuous
 62
     7
100
AcDbLine
 10
166.104895
 20
-45.88465199999996
 30
0.0
 11
166.104895
 21
-40.955149
 31
0.0
  0
LINE
  5
6842
330
A
100
AcDbEntity
  8
0
  6
Continuous
 62
     7
100
AcDbLine
 10
166.104895
 20
-40.955149
 30
0.0
 11
218.3394429999999
 21
-51.61748199999999
 31
0.0
  0
ELLIPSE
  5
6843
330
A
100
AcDbEntity
  8
0
  6
Continuous
 62
     7
100
AcDbEllipse
 10
213.33065
 20
-56.80258900000012
 30
0.0
 11
-3.035786553761355
 21
3.718064012359412
 31
0.0000000000000002
210
0.0
220
-0.0000000000000001
230
1.0
 40
0.816497
 41
3.141592653589758
 42
3.2455061957865
  0
LINE
  5
6844
330
A
100
AcDbEntity
  8
0
  6
Continuous
 62
     7
100
AcDbLine
 10
217.6239009999999
 20
-56.58349999999995
 30
0.0
 11
217.6239009999999
 21
-56.94864800000016
 31
0.0
  0
ELLIPSE
  5
6845
330
A
100
AcDbEntity
  8
0
  6
Continuous
 62
     7
100
AcDbEllipse
 10
213.33065
 20
-55.70714400000031
 30
0.0
 11
-3.035786553761355
 21
3.718064012359412
 31
0.0
210
0.0
220
0.0
230
1.0
 40
0.816497
 41
3.926990816988021
 42
5.497787143782939
  0
LINE
  5
6846
330
A
100
AcDbEntity
  8
0
  6
Continuous
 62
     7
100
AcDbLine
 10
171.113687
 20
-42.70786199999998
 30
0.0
 11
213.33065
 21
-51.32536300000015
 31
0.0
  0
ELLIPSE
  5
6847
330
A
100
AcDbEntity
  8
0
  6
Continuous
 62
     7
100
AcDbEllipse
 10
171.113687
 20
-47.08964200000013
 30
0.0
 11
-3.035786553761244
 21
3.718064012359412
 31
-0.0000000000000002
210
0.0
220
0.0
230
1.0
 40
0.816497
 41
0.0
 42
0.4742520102811158
  0
ELLIPSE
  5
6848
330
A
100
AcDbEntity
  8
0
  6
Continuous
 62
     7
100
AcDbEllipse
 10
213.33065
 20
-124.3550370000001
 30
0.0
 11
-3.035786553761355
 21
3.718064012359412
 31
0.0000000000000002
210
0.0
220
-0.0000000000000001
230
1.0
 40
0.816497
 41
3.141592653589771
 42
3.245506195769154
  0
ELLIPSE
  5
6849
330
A
100
AcDbEntity
  8
0
  6
Continuous
 62
     7
100
AcDbEllipse
 10
213.6884210000001
 20
-50.30294800000013
 30
0.0
 11
-5.599999999999936
 21
-0.0000000000038858
 31
0.0000000000000004
210
0.0000000000000001
220
-0.0000000000000001
230
1.0
 40
0.4082480000000002
 41
2.677945044588576
 42
3.141592653589751
  0
LINE
  5
684A
330
A
100
AcDbEntity
  8
0
  6
Continuous
 62
     7
100
AcDbLine
 10
166.104895
 20
-40.955149
 30
0.0
 11
166.738149
 21
-40.43809899999996
 31
0.0
  0
LINE
  5
684B
330
A
100
AcDbEntity
  8
0
  6
Continuous
 62
     7
100
AcDbLine
 10
167.431776
 20
-39.97717999999998
 30
0.0
 11
166.738149
 21
-40.43809899999996
 31
0.0
  0
ELLIPSE
  5
684C
330
A
100
AcDbEntity
  8
0
  6
Continuous
 62
     7
100
AcDbEllipse
 10
168.454232
 20
-40.23362499999996
 30
0.0
 11
-1.199999999999978
 21
-0.0000000000007772
 31
0.0
210
0.0
220
0.0
230
1.0
 40
0.4082480000000002
 41
4.926138023209624
 42
5.732271235578313
  0
ELLIPSE
  5
684D
330
A
100
AcDbEntity
  8
0
  6
Continuous
 62
     7
100
AcDbEllipse
 10
170.745183
 20
-44.54236700000001
 30
0.0
 11
-11.9999999999999
 21
-0.0000000000083267
 31
0.0000000000000007
210
0.0000000000000001
220
0.0000000000000001
230
1.0
 40
0.4082480000000002
 41
4.422752504522653
 42
4.926138023209501
  0
LINE
  5
684E
330
A
100
AcDbEntity
  8
0
  6
Continuous
 62
     7
100
AcDbLine
 10
176.194033
 20
-40.09339899999997
 30
0.0
 11
174.1724289999999
 21
-39.84744100000012
 31
0.0
  0
LINE
  5
684F
330
A
100
AcDbEntity
  8
0
  6
Continuous
 62
     7
100
AcDbLine
 10
176.194033
 20
-40.09339899999997
 30
0.0
 11
216.192817
 21
-48.25811699999997
 31
0.0
  0
ELLIPSE
  5
6850
330
A
100
AcDbEntity
  8
0
  6
Continuous
 62
     7
100
AcDbEllipse
 10
213.6884210000001
 20
-50.30294800000013
 30
0.0
 11
-5.599999999999936
 21
-0.0000000000038858
 31
0.0000000000000002
210
0.0
220
0.0
230
1.0
 40
0.4082480000000002
 41
3.141592653589792
 42
4.248741371383517
  0
ELLIPSE
  5
6851
330
A
100
AcDbEntity
  8
0
  6
Continuous
 62
     7
100
AcDbEllipse
 10
171.2925719999999
 20
-46.94358299999999
 30
0.0
 11
-3.035786553761244
 21
3.718064012359412
 31
0.0000000000000002
210
0.0
220
-0.0000000000000001
230
1.0
 40
0.816497
 41
0.0294674109984723
 42
0.4316516331474242
  0
ELLIPSE
  5
6852
330
A
100
AcDbEntity
  8
0
  6
Continuous
 62
     7
100
AcDbEllipse
 10
213.33065
 20
-56.80258900000012
 30
0.0
 11
-3.035786553761355
 21
3.718064012359412
 31
0.0000000000000003
210
0.0
220
-0.0000000000000001
230
1.0
 40
0.816497
 41
2.920198392315806
 42
3.141592653589773
  0
ELLIPSE
  5
6853
330
A
100
AcDbEntity
  8
0
  6
Continuous
 62
     7
100
AcDbEllipse
 10
213.509536
 20
-56.65652899999997
 30
0.0
 11
-3.035786553761244
 21
3.718064012359412
 31
-0.0000000000000002
210
0.0
220
0.0
230
1.0
 40
0.816497
 41
2.920198392315802
 42
3.11212560669402
  0
ELLIPSE
  5
6854
330
A
100
AcDbEntity
  8
0
  6
Continuous
 62
     7
100
AcDbEllipse
 10
171.113687
 20
-47.08964200000013
 30
0.0
 11
-3.035786553761244
 21
3.718064012359412
 31
0.0000000000000002
210
0.0
220
-0.0000000000000001
230
1.0
 40
0.816497
 41
5.497787143782912
 42
6.283185307179584
  0
ELLIPSE
  5
6855
330
A
100
AcDbEntity
  8
0
  6
Continuous
 62
     7
100
AcDbEllipse
 10
213.33065
 20
-124.3550370000001
 30
0.0
 11
-3.035786553761353
 21
3.718064012359466
 31
0.0000000000000003
210
0.0
220
-0.0000000000000001
230
1.0
 40
0.816497
 41
2.667340653683726
 42
3.141592653589773
  0
ELLIPSE
  5
6856
330
A
100
AcDbEntity
  8
0
  6
Continuous
 62
     7
100
AcDbEllipse
 10
213.509536
 20
-124.2089780000001
 30
0.0
 11
-3.035786553761244
 21
3.718064012359412
 31
0.0
210
0.0
220
0.0
230
1.0
 40
0.816497
 41
2.709941019930779
 42
3.112129013074134
  0
LINE
  5
6857
330
A
100
AcDbEntity
  8
0
  6
Continuous
 62
     7
100
AcDbLine
 10
214.940619
 20
-76.30151200000018
 30
0.0
 11
215.477276
 21
-76.22848200000015
 31
0.0
  0
LINE
  5
6858
330
A
100
AcDbEntity
  8
0
  6
Continuous
 62
     7
100
AcDbLine
 10
211.00514
 20
-75.49818499999997
 30
0.0
 11
214.940619
 21
-76.30151200000018
 31
0.0
  0
LINE
  5
6859
330
A
100
AcDbEntity
  8
0
  6
Continuous
 62
     7
100
AcDbLine
 10
210.826254
 20
-75.27909599999998
 30
0.0
 11
211.00514
 21
-75.49818499999997
 31
0.0
  0
LINE
  5
685A
330
A
100
AcDbEntity
  8
0
  6
Continuous
 62
     7
100
AcDbLine
 10
210.2895979999999
 20
-75.35212600000017
 30
0.0
 11
210.826254
 21
-75.27909599999998
 31
0.0
  0
LINE
  5
685B
330
A
100
AcDbEntity
  8
0
  6
Continuous
 62
     7
100
AcDbLine
 10
186.6767199999999
 20
-70.53216700000001
 30
0.0
 11
210.2895979999999
 21
-75.35212600000017
 31
0.0
  0
LINE
  5
685C
330
A
100
AcDbEntity
  8
0
  6
Continuous
 62
     7
100
AcDbLine
 10
215.477276
 20
-120.046287
 30
0.0
 11
214.940619
 21
-120.1193160000001
 31
0.0
  0
LINE
  5
685D
330
A
100
AcDbEntity
  8
0
  6
Continuous
 62
     7
100
AcDbLine
 10
214.940619
 20
-120.1193160000001
 30
0.0
 11
214.940619
 21
-76.30151200000018
 31
0.0
  0
LINE
  5
685E
330
A
100
AcDbEntity
  8
0
  6
Continuous
 62
     7
100
AcDbLine
 10
215.477276
 20
-76.22848200000015
 30
0.0
 11
215.477276
 21
-120.046287
 31
0.0
  0
LINE
  5
685F
330
A
100
AcDbEntity
  8
0
  6
Continuous
 62
     7
100
AcDbLine
 10
214.940619
 20
-120.1193160000001
 30
0.0
 11
211.00514
 21
-119.3159900000001
 31
0.0
  0
LINE
  5
6860
330
A
100
AcDbEntity
  8
0
  6
Continuous
 62
     7
100
AcDbLine
 10
211.00514
 20
-119.3159900000001
 30
0.0
 11
211.00514
 21
-75.49818499999997
 31
0.0
  0
LINE
  5
6861
330
A
100
AcDbEntity
  8
0
  6
Continuous
 62
     7
100
AcDbLine
 10
211.00514
 20
-119.3159900000001
 30
0.0
 11
210.826254
 21
-119.096901
 31
0.0
  0
LINE
  5
6862
330
A
100
AcDbEntity
  8
0
  6
Continuous
 62
     7
100
AcDbLine
 10
210.826254
 20
-119.096901
 30
0.0
 11
210.826254
 21
-75.27909599999998
 31
0.0
  0
LINE
  5
6863
330
A
100
AcDbEntity
  8
0
  6
Continuous
 62
     7
100
AcDbLine
 10
210.826254
 20
-119.096901
 30
0.0
 11
210.2895979999999
 21
-119.1699309999999
 31
0.0
  0
LINE
  5
6864
330
A
100
AcDbEntity
  8
0
  6
Continuous
 62
     7
100
AcDbLine
 10
210.2895979999999
 20
-119.1699309999999
 30
0.0
 11
210.2895979999999
 21
-75.35212600000017
 31
0.0
  0
LINE
  5
6865
330
A
100
AcDbEntity
  8
0
  6
Continuous
 62
     7
100
AcDbLine
 10
210.2895979999999
 20
-119.1699309999999
 30
0.0
 11
186.6767199999999
 21
-114.3499720000001
 31
0.0
  0
LINE
  5
6866
330
A
100
AcDbEntity
  8
0
  6
Continuous
 62
     9
100
AcDbLine
 10
186.6767199999999
 20
-114.3499720000001
 30
0.0
 11
186.6767199999999
 21
-70.53216700000001
 31
0.0
  0
ELLIPSE
  5
6867
330
A
100
AcDbEntity
  8
0
  6
Continuous
 62
     7
100
AcDbEllipse
 10
191.864398
 20
-66.29644599999995
 30
0.0
 11
10.79999999999992
 21
0.0
 31
-0.0000000000000007
210
0.0000000000000001
220
0.0000000000000001
230
1.0
 40
0.408248
 41
4.126949988613723
 42
4.370532754156761
  0
ELLIPSE
  5
6868
330
A
100
AcDbEntity
  8
0
  6
Continuous
 62
     7
100
AcDbEllipse
 10
191.864398
 20
-66.29644599999995
 30
0.0
 11
-11.60000000000005
 21
0.0
 31
0.0000000000000008
210
0.0000000000000001
220
0.0000000000000001
230
1.0
 40
0.4082480000000002
 41
0.7151254152959682
 42
1.107148717794081
  0
ELLIPSE
  5
6869
330
A
100
AcDbEntity
  8
0
  6
Continuous
 62
     7
100
AcDbEllipse
 10
191.864398
 20
-110.1142509999999
 30
0.0
 11
11.59999999999994
 21
0.0
 31
0.0
210
0.0
220
0.0
230
1.0
 40
0.4082480000000003
 41
3.141592653589792
 42
4.248741371383871
  0
LINE
  5
686A
330
A
100
AcDbEntity
  8
0
  6
Continuous
 62
     7
100
AcDbLine
 10
175.444708
 20
-72.93968200000001
 30
0.0
 11
176.004674
 21
-73.05398499999995
 31
0.0
  0
LINE
  5
686B
330
A
100
AcDbEntity
  8
0
  6
Continuous
 62
     7
100
AcDbLine
 10
176.644674
 20
-69.9186380000001
 30
0.0
 11
176.084708
 21
-69.80433499999993
 31
0.0
  0
LINE
  5
686C
330
A
100
AcDbEntity
  8
0
  6
Continuous
 62
     7
100
AcDbLine
 10
175.444708
 20
-108.7972519999999
 30
0.0
 11
176.004674
 21
-108.9115549999999
 31
0.0
  0
LINE
  5
686D
330
A
100
AcDbEntity
  8
0
  6
Continuous
 62
     7
100
AcDbLine
 10
176.644674
 20
-105.776208
 30
0.0
 11
176.084708
 21
-105.661905
 31
0.0
  0
LINE
  5
686E
330
A
100
AcDbEntity
  8
0
  6
Continuous
 62
     7
100
AcDbLine
 10
215.755684
 20
-60.86808099999996
 30
0.0
 11
216.2923400000001
 21
-60.4299030000002
 31
0.0
  0
LINE
  5
686F
330
A
100
AcDbEntity
  8
0
  6
Continuous
 62
     7
100
AcDbLine
 10
168.509768
 20
-43.53535699999997
 30
0.0
 11
167.973112
 21
-43.97353500000019
 31
0.0
  0
LINE
  5
6870
330
A
100
AcDbEntity
  8
0
  6
Continuous
 62
     7
100
AcDbLine
 10
215.755684
 20
-128.0553809999999
 30
0.0
 11
216.2923400000001
 21
-127.6172030000001
 31
0.0
  0
LINE
  5
6871
330
A
100
AcDbEntity
  8
0
  6
Continuous
 62
     7
100
AcDbLine
 10
225.3953369999999
 20
-55.14707499999997
 30
0.0
 11
224.858681
 21
-55.58525399999997
 31
0.0
  0
LINE
  5
6872
330
A
100
AcDbEntity
  8
0
  6
Continuous
 62
     7
100
AcDbLine
 10
272.641253
 20
-139.6671000000002
 30
0.0
 11
273.1779099999999
 21
-139.2289219999999
 31
0.0
  0
LINE
  5
6873
330
A
100
AcDbEntity
  8
0
  6
Continuous
 62
     7
100
AcDbLine
 10
215.397913
 20
-61.16020000000014
 30
0.0
 11
215.755684
 21
-60.86808099999996
 31
0.0
  0
LINE
  5
6874
330
A
100
AcDbEntity
  8
0
  6
Continuous
 62
     7
100
AcDbLine
 10
215.755684
 20
-60.86808099999996
 30
0.0
 11
216.2923400000001
 21
-60.4299030000002
 31
0.0
  0
LINE
  5
6875
330
A
100
AcDbEntity
  8
0
  6
Continuous
 62
     7
100
AcDbLine
 10
168.509768
 20
-43.53535699999997
 30
0.0
 11
167.973112
 21
-43.97353500000019
 31
0.0
  0
LINE
  5
6876
330
A
100
AcDbEntity
  8
0
  6
Continuous
 62
     7
100
AcDbLine
 10
167.973112
 20
-43.97353500000019
 30
0.0
 11
167.6153409999999
 21
-44.26565400000015
 31
0.0
  0
LINE
  5
6877
330
A
100
AcDbEntity
  8
0
  6
Continuous
 62
     7
100
AcDbLine
 10
215.397913
 20
-128.3475
 30
0.0
 11
215.755684
 21
-128.0553809999999
 31
0.0
  0
LINE
  5
6878
330
A
100
AcDbEntity
  8
0
  6
Continuous
 62
     7
100
AcDbLine
 10
215.755684
 20
-128.0553809999999
 30
0.0
 11
216.2923400000001
 21
-127.6172030000001
 31
0.0
  0
LINE
  5
6879
330
A
100
AcDbEntity
  8
0
  6
Continuous
 62
     7
100
AcDbLine
 10
225.3953369999999
 20
-55.14707499999997
 30
0.0
 11
224.858681
 21
-55.58525399999997
 31
0.0
  0
LINE
  5
687A
330
A
100
AcDbEntity
  8
0
  6
Continuous
 62
     7
100
AcDbLine
 10
224.858681
 20
-55.58525399999997
 30
0.0
 11
224.50091
 21
-55.87737199999992
 31
0.0
  0
LINE
  5
687B
330
A
100
AcDbEntity
  8
0
  6
Continuous
 62
     7
100
AcDbLine
 10
272.283482
 20
-139.9592179999999
 30
0.0
 11
272.641253
 21
-139.6671000000002
 31
0.0
  0
LINE
  5
687C
330
A
100
AcDbEntity
  8
0
  6
Continuous
 62
     7
100
AcDbLine
 10
272.641253
 20
-139.6671000000002
 30
0.0
 11
273.1779099999999
 21
-139.2289219999999
 31
0.0
  0
LINE
  5
687D
330
A
100
AcDbEntity
  8
0
  6
Continuous
 62
     7
100
AcDbLine
 10
160.070697
 20
-46.09895700000016
 30
0.0
 11
160.070697
 21
-124.971005
 31
0.0
  0
LINE
  5
687E
330
A
100
AcDbEntity
  8
0
  6
Continuous
 62
     7
100
AcDbLine
 10
216.664953
 20
-58.11712299999999
 30
0.0
 11
216.664953
 21
-72.60383600000017
 31
0.0
  0
LINE
  5
687F
330
A
100
AcDbEntity
  8
0
  6
Continuous
 62
     7
100
AcDbLine
 10
216.664954
 20
-72.60304400000013
 30
0.0
 11
216.6650140000001
 21
-72.61679100000015
 31
0.0
  0
LINE
  5
6880
330
A
100
AcDbEntity
  8
0
  6
Continuous
 62
     7
100
AcDbLine
 10
216.6650140000001
 20
-72.61679100000015
 30
0.0
 11
216.6513189999999
 21
-72.78480700000017
 31
0.0
  0
ARC
  5
6881
330
A
100
AcDbEntity
  8
0
  6
Continuous
 62
     7
100
AcDbCircle
 10
213.297231
 20
-122.4730929999999
 30
0.0
 40
3.367848999999998
100
AcDbArc
 50
359.5034669999985
 51
31.40917799999684
  0
LINE
  5
6882
330
A
100
AcDbEntity
  8
0
  6
Continuous
 62
     7
100
AcDbLine
 10
216.664953
 20
-122.502555
 30
0.0
 11
216.664953
 21
-136.989171
 31
0.0
  0
LINE
  5
6883
330
A
100
AcDbEntity
  8
0
  6
Continuous
 62
     7
100
AcDbLine
 10
276.4293029999999
 20
-140.9010429999999
 30
0.0
 11
276.4293029999999
 21
-62.028995
 31
0.0
  0
LINE
  5
6884
330
A
100
AcDbEntity
  8
0
  6
Continuous
 62
     7
100
AcDbLine
 10
219.288421
 20
-56.7406940000003
 30
0.0
 11
219.288421
 21
-50.30294800000013
 31
0.0
  0
LINE
  5
6885
330
A
100
AcDbEntity
  8
0
  6
Continuous
 62
     7
100
AcDbLine
 10
180.264398
 20
-68.821594
 30
0.0
 11
180.264398
 21
-110.1142509999999
 31
0.0
  0
LINE
  5
6886
330
A
100
AcDbEntity
  8
0
  6
Continuous
 62
     9
100
AcDbLine
 10
-62.5
 20
86.0
 30
0.0
 11
-63.5
 21
86.0
 31
0.0
  0
LINE
  5
6887
330
A
100
AcDbEntity
  8
0
  6
Continuous
 62
     9
100
AcDbLine
 10
-62.5
 20
-8.0
 30
0.0
 11
-63.5
 21
-8.0
 31
0.0
  0
LINE
  5
6888
330
A
100
AcDbEntity
  8
0
  6
Continuous
 62
     7
100
AcDbLine
 10
-63.5
 20
86.0
 30
0.0
 11
-63.5
 21
-8.0
 31
0.0
  0
LINE
  5
6889
330
A
100
AcDbEntity
  8
0
  6
Continuous
 62
     7
100
AcDbLine
 10
-62.5
 20
91.5
 30
0.0
 11
-63.5
 21
91.5
 31
0.0
  0
LINE
  5
688A
330
A
100
AcDbEntity
  8
0
  6
Continuous
 62
     7
100
AcDbLine
 10
-63.5
 20
91.5
 30
0.0
 11
-63.5
 21
86.0
 31
0.0
  0
LINE
  5
688B
330
A
100
AcDbEntity
  8
0
  6
Continuous
 62
     7
100
AcDbLine
 10
-62.5
 20
-13.5
 30
0.0
 11
-63.5
 21
-13.5
 31
0.0
  0
LINE
  5
688C
330
A
100
AcDbEntity
  8
0
  6
Continuous
 62
     7
100
AcDbLine
 10
-63.5
 20
-8.0
 30
0.0
 11
-63.5
 21
-13.5
 31
0.0
  0
LINE
  5
688D
330
A
100
AcDbEntity
  8
0
  6
Continuous
 62
     9
100
AcDbLine
 10
-76.0
 20
86.0
 30
0.0
 11
-75.5
 21
86.0
 31
0.0
  0
LINE
  5
688E
330
A
100
AcDbEntity
  8
0
  6
Continuous
 62
     7
100
AcDbLine
 10
-76.0
 20
91.5
 30
0.0
 11
-75.5
 21
91.5
 31
0.0
  0
LINE
  5
688F
330
A
100
AcDbEntity
  8
0
  6
Continuous
 62
     7
100
AcDbLine
 10
-75.5
 20
86.0
 30
0.0
 11
-75.5
 21
91.5
 31
0.0
  0
LINE
  5
6890
330
A
100
AcDbEntity
  8
0
  6
Continuous
 62
     9
100
AcDbLine
 10
-76.0
 20
-8.0
 30
0.0
 11
-75.5
 21
-8.0
 31
0.0
  0
LINE
  5
6891
330
A
100
AcDbEntity
  8
0
  6
Continuous
 62
     7
100
AcDbLine
 10
-75.5
 20
-8.0
 30
0.0
 11
-75.5
 21
86.0
 31
0.0
  0
LINE
  5
6892
330
A
100
AcDbEntity
  8
0
  6
Continuous
 62
     7
100
AcDbLine
 10
-76.0
 20
-13.5
 30
0.0
 11
-75.5
 21
-13.5
 31
0.0
  0
LINE
  5
6893
330
A
100
AcDbEntity
  8
0
  6
Continuous
 62
     7
100
AcDbLine
 10
-75.5
 20
-13.5
 30
0.0
 11
-75.5
 21
-8.0
 31
0.0
  0
LINE
  5
6894
330
A
100
AcDbEntity
  8
0
  6
Continuous
 62
     7
100
AcDbLine
 10
-65.00000000000011
 20
-0.5
 30
0.0
 11
-65.00000000000011
 21
78.5
 31
0.0
  0
LINE
  5
6895
330
A
100
AcDbEntity
  8
0
  6
Continuous
 62
     9
100
AcDbLine
 10
-74.5
 20
-0.5
 30
0.0
 11
-65.00000000000011
 21
-0.5
 31
0.0
  0
LINE
  5
6896
330
A
100
AcDbEntity
  8
0
  6
Continuous
 62
     9
100
AcDbLine
 10
-74.5
 20
78.5
 30
0.0
 11
-65.00000000000011
 21
78.5
 31
0.0
  0
LINE
  5
6897
330
A
100
AcDbEntity
  8
0
  6
Continuous
 62
     7
100
AcDbLine
 10
-65.00000000000011
 20
78.5
 30
0.0
 11
-65.00000000000011
 21
88.0
 31
0.0
  0
LINE
  5
6898
330
A
100
AcDbEntity
  8
0
  6
Continuous
 62
     7
100
AcDbLine
 10
-65.00000000000011
 20
-10.0
 30
0.0
 11
-65.00000000000011
 21
-0.5
 31
0.0
  0
LINE
  5
6899
330
A
100
AcDbEntity
  8
0
  6
Continuous
 62
     7
100
AcDbLine
 10
-62.5
 20
91.5
 30
0.0
 11
-63.5
 21
91.5
 31
0.0
  0
LINE
  5
689A
330
A
100
AcDbEntity
  8
0
  6
Continuous
 62
     7
100
AcDbLine
 10
-63.5
 20
91.5
 30
0.0
 11
-64.50000000000034
 21
91.5
 31
0.0
  0
LINE
  5
689B
330
A
100
AcDbEntity
  8
0
  6
Continuous
 62
     9
100
AcDbLine
 10
-62.5
 20
86.0
 30
0.0
 11
-63.5
 21
86.0
 31
0.0
  0
LINE
  5
689C
330
A
100
AcDbEntity
  8
0
  6
Continuous
 62
     9
100
AcDbLine
 10
-63.5
 20
86.0
 30
0.0
 11
-64.50000000000034
 21
86.0
 31
0.0
  0
LINE
  5
689D
330
A
100
AcDbEntity
  8
0
  6
Continuous
 62
     7
100
AcDbLine
 10
-64.50000000000034
 20
91.5
 30
0.0
 11
-64.50000000000034
 21
86.0
 31
0.0
  0
LINE
  5
689E
330
A
100
AcDbEntity
  8
0
  6
Continuous
 62
     9
100
AcDbLine
 10
-62.5
 20
-8.0
 30
0.0
 11
-63.5
 21
-8.0
 31
0.0
  0
LINE
  5
689F
330
A
100
AcDbEntity
  8
0
  6
Continuous
 62
     9
100
AcDbLine
 10
-63.5
 20
-8.0
 30
0.0
 11
-64.50000000000034
 21
-8.0
 31
0.0
  0
LINE
  5
68A0
330
A
100
AcDbEntity
  8
0
  6
Continuous
 62
     7
100
AcDbLine
 10
-62.5
 20
-13.5
 30
0.0
 11
-63.5
 21
-13.5
 31
0.0
  0
LINE
  5
68A1
330
A
100
AcDbEntity
  8
0
  6
Continuous
 62
     7
100
AcDbLine
 10
-63.5
 20
-13.5
 30
0.0
 11
-64.50000000000034
 21
-13.5
 31
0.0
  0
LINE
  5
68A2
330
A
100
AcDbEntity
  8
0
  6
Continuous
 62
     7
100
AcDbLine
 10
-64.50000000000034
 20
-8.0
 30
0.0
 11
-64.50000000000034
 21
-13.5
 31
0.0
  0
LINE
  5
68A3
330
A
100
AcDbEntity
  8
0
  6
Continuous
 62
     7
100
AcDbLine
 10
-64.50000000000034
 20
86.0
 30
0.0
 11
-64.50000000000034
 21
-8.0
 31
0.0
  0
LINE
  5
68A4
330
A
100
AcDbEntity
  8
0
  6
Continuous
 62
     7
100
AcDbLine
 10
-76.0
 20
-13.5
 30
0.0
 11
-75.5
 21
-13.5
 31
0.0
  0
LINE
  5
68A5
330
A
100
AcDbEntity
  8
0
  6
Continuous
 62
     7
100
AcDbLine
 10
-75.5
 20
-13.5
 30
0.0
 11
-74.5
 21
-13.5
 31
0.0
  0
LINE
  5
68A6
330
A
100
AcDbEntity
  8
0
  6
Continuous
 62
     9
100
AcDbLine
 10
-76.0
 20
-8.0
 30
0.0
 11
-75.5
 21
-8.0
 31
0.0
  0
LINE
  5
68A7
330
A
100
AcDbEntity
  8
0
  6
Continuous
 62
     9
100
AcDbLine
 10
-75.5
 20
-8.0
 30
0.0
 11
-74.5
 21
-8.0
 31
0.0
  0
LINE
  5
68A8
330
A
100
AcDbEntity
  8
0
  6
Continuous
 62
     7
100
AcDbLine
 10
-74.5
 20
-13.5
 30
0.0
 11
-74.5
 21
-8.0
 31
0.0
  0
LINE
  5
68A9
330
A
100
AcDbEntity
  8
0
  6
Continuous
 62
     9
100
AcDbLine
 10
-76.0
 20
86.0
 30
0.0
 11
-75.5
 21
86.0
 31
0.0
  0
LINE
  5
68AA
330
A
100
AcDbEntity
  8
0
  6
Continuous
 62
     9
100
AcDbLine
 10
-75.5
 20
86.0
 30
0.0
 11
-74.5
 21
86.0
 31
0.0
  0
LINE
  5
68AB
330
A
100
AcDbEntity
  8
0
  6
Continuous
 62
     7
100
AcDbLine
 10
-76.0
 20
91.5
 30
0.0
 11
-75.5
 21
91.5
 31
0.0
  0
LINE
  5
68AC
330
A
100
AcDbEntity
  8
0
  6
Continuous
 62
     7
100
AcDbLine
 10
-75.5
 20
91.5
 30
0.0
 11
-74.5
 21
91.5
 31
0.0
  0
LINE
  5
68AD
330
A
100
AcDbEntity
  8
0
  6
Continuous
 62
     7
100
AcDbLine
 10
-74.5
 20
86.0
 30
0.0
 11
-74.5
 21
91.5
 31
0.0
  0
LINE
  5
68AE
330
A
100
AcDbEntity
  8
0
  6
Continuous
 62
     7
100
AcDbLine
 10
-74.5
 20
-8.0
 30
0.0
 11
-74.5
 21
86.0
 31
0.0
  0
LINE
  5
68AF
330
A
100
AcDbEntity
  8
0
  6
Continuous
 62
     7
100
AcDbLine
 10
-65.00000000000011
 20
-0.5
 30
0.0
 11
-65.00000000000011
 21
78.5
 31
0.0
  0
LINE
  5
68B0
330
A
100
AcDbEntity
  8
0
  6
Continuous
 62
     9
100
AcDbLine
 10
-74.5
 20
-0.5
 30
0.0
 11
-65.00000000000011
 21
-0.5
 31
0.0
  0
LINE
  5
68B1
330
A
100
AcDbEntity
  8
0
  6
Continuous
 62
     9
100
AcDbLine
 10
-74.5
 20
78.5
 30
0.0
 11
-65.00000000000011
 21
78.5
 31
0.0
  0
LINE
  5
68B2
330
A
100
AcDbEntity
  8
0
  6
Continuous
 62
     7
100
AcDbLine
 10
-65.00000000000011
 20
-10.0
 30
0.0
 11
-65.00000000000011
 21
-0.5
 31
0.0
  0
LINE
  5
68B3
330
A
100
AcDbEntity
  8
0
  6
Continuous
 62
     7
100
AcDbLine
 10
-65.00000000000011
 20
78.5
 30
0.0
 11
-65.00000000000011
 21
88.0
 31
0.0
  0
LINE
  5
68B4
330
A
100
AcDbEntity
  8
0
  6
Continuous
 62
     7
100
AcDbLine
 10
-77.76999999999998
 20
93.0
 30
0.0
 11
-76.0
 21
93.0
 31
0.0
  0
LINE
  5
68B5
330
A
100
AcDbEntity
  8
0
  6
Continuous
 62
     7
100
AcDbLine
 10
-76.0
 20
93.0
 30
0.0
 11
-76.0
 21
-15.0
 31
0.0
  0
LINE
  5
68B6
330
A
100
AcDbEntity
  8
0
  6
Continuous
 62
     7
100
AcDbLine
 10
-77.76999999999998
 20
-15.0
 30
0.0
 11
-76.0
 21
-15.0
 31
0.0
  0
LINE
  5
68B7
330
A
100
AcDbEntity
  8
0
  6
Continuous
 62
     7
100
AcDbLine
 10
-77.76999999999998
 20
-15.0
 30
0.0
 11
-77.76999999999998
 21
93.0
 31
0.0
  0
LINE
  5
68B8
330
A
100
AcDbEntity
  8
0
  6
Continuous
 62
     9
100
AcDbLine
 10
-79.420029
 20
-15.0
 30
0.0
 11
-79.420029
 21
93.0
 31
0.0
  0
LINE
  5
68B9
330
A
100
AcDbEntity
  8
0
  6
Continuous
 62
     7
100
AcDbLine
 10
-77.76999999999998
 20
-15.0
 30
0.0
 11
-79.420029
 21
-15.0
 31
0.0
  0
LINE
  5
68BA
330
A
100
AcDbEntity
  8
0
  6
Continuous
 62
     7
100
AcDbLine
 10
-79.420029
 20
93.0
 30
0.0
 11
-77.76999999999998
 21
93.0
 31
0.0
  0
LINE
  5
68BB
330
A
100
AcDbEntity
  8
0
  6
Continuous
 62
     9
100
AcDbLine
 10
-80.45810599999994
 20
-15.0
 30
0.0
 11
-80.45810599999994
 21
93.0
 31
0.0
  0
LINE
  5
68BC
330
A
100
AcDbEntity
  8
0
  6
Continuous
 62
     7
100
AcDbLine
 10
-79.420029
 20
-15.0
 30
0.0
 11
-80.45810599999994
 21
-15.0
 31
0.0
  0
LINE
  5
68BD
330
A
100
AcDbEntity
  8
0
  6
Continuous
 62
     7
100
AcDbLine
 10
-80.45810599999994
 20
93.0
 30
0.0
 11
-79.420029
 21
93.0
 31
0.0
  0
LINE
  5
68BE
330
A
100
AcDbEntity
  8
0
  6
Continuous
 62
     9
100
AcDbLine
 10
-83.54347300000029
 20
-15.0
 30
0.0
 11
-83.54347300000029
 21
93.0
 31
0.0
  0
LINE
  5
68BF
330
A
100
AcDbEntity
  8
0
  6
Continuous
 62
     7
100
AcDbLine
 10
-80.45810599999994
 20
-15.0
 30
0.0
 11
-83.54347300000029
 21
-15.0
 31
0.0
  0
LINE
  5
68C0
330
A
100
AcDbEntity
  8
0
  6
Continuous
 62
     7
100
AcDbLine
 10
-83.54347300000029
 20
93.0
 30
0.0
 11
-80.45810599999994
 21
93.0
 31
0.0
  0
LINE
  5
68C1
330
A
100
AcDbEntity
  8
0
  6
Continuous
 62
     7
100
AcDbLine
 10
-84.0
 20
93.0
 30
0.0
 11
-84.0
 21
-15.0
 31
0.0
  0
LINE
  5
68C2
330
A
100
AcDbEntity
  8
0
  6
Continuous
 62
     7
100
AcDbLine
 10
-83.54347300000029
 20
-15.0
 30
0.0
 11
-84.0
 21
-15.0
 31
0.0
  0
LINE
  5
68C3
330
A
100
AcDbEntity
  8
0
  6
Continuous
 62
     7
100
AcDbLine
 10
-84.0
 20
93.0
 30
0.0
 11
-83.54347300000029
 21
93.0
 31
0.0
  0
LINE
  5
68C4
330
A
100
AcDbEntity
  8
0
  6
Continuous
 62
     9
100
AcDbLine
 10
-65.00000000000011
 20
-0.5
 30
0.0
 11
-64.50000000000034
 21
-0.5
 31
0.0
  0
LINE
  5
68C5
330
A
100
AcDbEntity
  8
0
  6
Continuous
 62
     7
100
AcDbLine
 10
-64.50000000000034
 20
-8.0
 30
0.0
 11
-65.00000000000011
 21
-8.0
 31
0.0
  0
ARC
  5
68C6
330
A
100
AcDbEntity
  8
0
  6
Continuous
 62
     7
100
AcDbCircle
 10
-69.5
 20
15.75
 30
0.0
 40
5.2
100
AcDbArc
 50
15.94236899999764
 51
30.07334800000341
  0
ARC
  5
68C7
330
A
100
AcDbEntity
  8
0
  6
Continuous
 62
     7
100
AcDbCircle
 10
-69.5
 20
15.75
 30
0.0
 40
5.2
100
AcDbArc
 50
329.9266519999966
 51
344.0576310000023
  0
LINE
  5
68C8
330
A
100
AcDbEntity
  8
0
  6
Continuous
 62
     9
100
AcDbLine
 10
-65.00000000000011
 20
78.5
 30
0.0
 11
-64.50000000000034
 21
78.5
 31
0.0
  0
ARC
  5
68C9
330
A
100
AcDbEntity
  8
0
  6
Continuous
 62
     7
100
AcDbCircle
 10
-69.5
 20
62.24999999999988
 30
0.0
 40
5.2
100
AcDbArc
 50
15.94236899999764
 51
30.07334800000341
  0
ARC
  5
68CA
330
A
100
AcDbEntity
  8
0
  6
Continuous
 62
     7
100
AcDbCircle
 10
-69.5
 20
62.24999999999988
 30
0.0
 40
5.2
100
AcDbArc
 50
329.9266519999966
 51
344.0576310000023
  0
LINE
  5
68CB
330
A
100
AcDbEntity
  8
0
  6
Continuous
 62
     7
100
AcDbLine
 10
-65.00000000000011
 20
86.0
 30
0.0
 11
-64.50000000000034
 21
86.0
 31
0.0
  0
ARC
  5
68CC
330
A
100
AcDbEntity
  8
0
  6
Continuous
 62
     7
100
AcDbCircle
 10
-69.5
 20
62.24999999999988
 30
0.0
 40
5.0
100
AcDbArc
 50
0.0
 51
25.84193300000122
  0
ARC
  5
68CD
330
A
100
AcDbEntity
  8
0
  6
Continuous
 62
     7
100
AcDbCircle
 10
-69.5
 20
62.24999999999988
 30
0.0
 40
5.0
100
AcDbArc
 50
334.1580669999988
 51
0.0
  0
ARC
  5
68CE
330
A
100
AcDbEntity
  8
0
  6
Continuous
 62
     7
100
AcDbCircle
 10
-69.5
 20
15.75
 30
0.0
 40
5.0
100
AcDbArc
 50
0.0
 51
25.84193300000122
  0
ARC
  5
68CF
330
A
100
AcDbEntity
  8
0
  6
Continuous
 62
     7
100
AcDbCircle
 10
-69.5
 20
15.75
 30
0.0
 40
5.0
100
AcDbArc
 50
334.1580669999988
 51
0.0
  0
LINE
  5
68D0
330
A
100
AcDbEntity
  8
0
  6
Continuous
 62
     9
100
AcDbLine
 10
-59.079971
 20
93.0
 30
0.0
 11
-59.079971
 21
-15.0
 31
0.0
  0
LINE
  5
68D1
330
A
100
AcDbEntity
  8
0
  6
Continuous
 62
     7
100
AcDbLine
 10
-59.079971
 20
-15.0
 30
0.0
 11
-60.73000000000013
 21
-15.0
 31
0.0
  0
LINE
  5
68D2
330
A
100
AcDbEntity
  8
0
  6
Continuous
 62
     7
100
AcDbLine
 10
-60.73000000000013
 20
-15.0
 30
0.0
 11
-60.73000000000013
 21
93.0
 31
0.0
  0
LINE
  5
68D3
330
A
100
AcDbEntity
  8
0
  6
Continuous
 62
     7
100
AcDbLine
 10
-60.73000000000013
 20
93.0
 30
0.0
 11
-59.079971
 21
93.0
 31
0.0
  0
LINE
  5
68D4
330
A
100
AcDbEntity
  8
0
  6
Continuous
 62
     7
100
AcDbLine
 10
-62.5
 20
93.0
 30
0.0
 11
-62.5
 21
-15.0
 31
0.0
  0
LINE
  5
68D5
330
A
100
AcDbEntity
  8
0
  6
Continuous
 62
     7
100
AcDbLine
 10
-62.5
 20
-15.0
 30
0.0
 11
-60.73000000000013
 21
-15.0
 31
0.0
  0
LINE
  5
68D6
330
A
100
AcDbEntity
  8
0
  6
Continuous
 62
     7
100
AcDbLine
 10
-62.5
 20
93.0
 30
0.0
 11
-60.73000000000013
 21
93.0
 31
0.0
  0
LINE
  5
68D7
330
A
100
AcDbEntity
  8
0
  6
Continuous
 62
     9
100
AcDbLine
 10
-58.0418940000003
 20
93.0
 30
0.0
 11
-58.0418940000003
 21
-15.0
 31
0.0
  0
LINE
  5
68D8
330
A
100
AcDbEntity
  8
0
  6
Continuous
 62
     7
100
AcDbLine
 10
-58.0418940000003
 20
-15.0
 30
0.0
 11
-59.079971
 21
-15.0
 31
0.0
  0
LINE
  5
68D9
330
A
100
AcDbEntity
  8
0
  6
Continuous
 62
     7
100
AcDbLine
 10
-59.079971
 20
93.0
 30
0.0
 11
-58.0418940000003
 21
93.0
 31
0.0
  0
LINE
  5
68DA
330
A
100
AcDbEntity
  8
0
  6
Continuous
 62
     9
100
AcDbLine
 10
-54.95652699999993
 20
93.0
 30
0.0
 11
-54.95652699999993
 21
-15.0
 31
0.0
  0
LINE
  5
68DB
330
A
100
AcDbEntity
  8
0
  6
Continuous
 62
     7
100
AcDbLine
 10
-54.95652699999993
 20
-15.0
 30
0.0
 11
-58.0418940000003
 21
-15.0
 31
0.0
  0
LINE
  5
68DC
330
A
100
AcDbEntity
  8
0
  6
Continuous
 62
     7
100
AcDbLine
 10
-58.0418940000003
 20
93.0
 30
0.0
 11
-54.95652699999993
 21
93.0
 31
0.0
  0
LINE
  5
68DD
330
A
100
AcDbEntity
  8
0
  6
Continuous
 62
     7
100
AcDbLine
 10
-54.5
 20
93.0
 30
0.0
 11
-54.5
 21
-15.0
 31
0.0
  0
LINE
  5
68DE
330
A
100
AcDbEntity
  8
0
  6
Continuous
 62
     7
100
AcDbLine
 10
-54.5
 20
-15.0
 30
0.0
 11
-54.95652699999993
 21
-15.0
 31
0.0
  0
LINE
  5
68DF
330
A
100
AcDbEntity
  8
0
  6
Continuous
 62
     7
100
AcDbLine
 10
-54.95652699999993
 20
93.0
 30
0.0
 11
-54.5
 21
93.0
 31
0.0
  0
LINE
  5
68E0
330
A
100
AcDbEntity
  8
0
  6
Continuous
 62
     7
100
AcDbLine
 10
-65.00000000000011
 20
88.0
 30
0.0
 11
-74.5
 21
88.0
 31
0.0
  0
LINE
  5
68E1
330
A
100
AcDbEntity
  8
0
  6
Continuous
 62
     7
100
AcDbLine
 10
-74.5
 20
-10.0
 30
0.0
 11
-65.00000000000011
 21
-10.0
 31
0.0
  0
LINE
  5
68E2
330
A
100
AcDbEntity
  8
0
  6
Continuous
 62
     7
100
AcDbLine
 10
-74.5
 20
-10.0
 30
0.0
 11
-65.00000000000011
 21
-10.0
 31
0.0
  0
LINE
  5
68E3
330
A
100
AcDbEntity
  8
0
  6
Continuous
 62
     7
100
AcDbLine
 10
-65.00000000000011
 20
88.0
 30
0.0
 11
-74.5
 21
88.0
 31
0.0
  0
LINE
  5
68E4
330
A
100
AcDbEntity
  8
0
  6
Continuous
 62
     9
100
AcDbLine
 10
169.0
 20
86.0
 30
0.0
 11
170.0
 21
86.0
 31
0.0
  0
LINE
  5
68E5
330
A
100
AcDbEntity
  8
0
  6
Continuous
 62
     7
100
AcDbLine
 10
169.0
 20
91.5
 30
0.0
 11
170.0
 21
91.5
 31
0.0
  0
LINE
  5
68E6
330
A
100
AcDbEntity
  8
0
  6
Continuous
 62
     7
100
AcDbLine
 10
170.0
 20
86.0
 30
0.0
 11
170.0
 21
91.5
 31
0.0
  0
LINE
  5
68E7
330
A
100
AcDbEntity
  8
0
  6
Continuous
 62
     9
100
AcDbLine
 10
169.0
 20
-8.0
 30
0.0
 11
170.0
 21
-8.0
 31
0.0
  0
LINE
  5
68E8
330
A
100
AcDbEntity
  8
0
  6
Continuous
 62
     7
100
AcDbLine
 10
170.0
 20
-8.0
 30
0.0
 11
170.0
 21
86.0
 31
0.0
  0
LINE
  5
68E9
330
A
100
AcDbEntity
  8
0
  6
Continuous
 62
     7
100
AcDbLine
 10
169.0
 20
-13.5
 30
0.0
 11
170.0
 21
-13.5
 31
0.0
  0
LINE
  5
68EA
330
A
100
AcDbEntity
  8
0
  6
Continuous
 62
     7
100
AcDbLine
 10
170.0
 20
-13.5
 30
0.0
 11
170.0
 21
-8.0
 31
0.0
  0
LINE
  5
68EB
330
A
100
AcDbEntity
  8
0
  6
Continuous
 62
     7
100
AcDbLine
 10
182.5
 20
91.5
 30
0.0
 11
182.0
 21
91.5
 31
0.0
  0
LINE
  5
68EC
330
A
100
AcDbEntity
  8
0
  6
Continuous
 62
     9
100
AcDbLine
 10
182.5
 20
86.0
 30
0.0
 11
182.0
 21
86.0
 31
0.0
  0
LINE
  5
68ED
330
A
100
AcDbEntity
  8
0
  6
Continuous
 62
     7
100
AcDbLine
 10
182.0
 20
91.5
 30
0.0
 11
182.0
 21
86.0
 31
0.0
  0
LINE
  5
68EE
330
A
100
AcDbEntity
  8
0
  6
Continuous
 62
     9
100
AcDbLine
 10
182.5
 20
-8.0
 30
0.0
 11
182.0
 21
-8.0
 31
0.0
  0
LINE
  5
68EF
330
A
100
AcDbEntity
  8
0
  6
Continuous
 62
     7
100
AcDbLine
 10
182.0
 20
86.0
 30
0.0
 11
182.0
 21
-8.0
 31
0.0
  0
LINE
  5
68F0
330
A
100
AcDbEntity
  8
0
  6
Continuous
 62
     7
100
AcDbLine
 10
182.5
 20
-13.5
 30
0.0
 11
182.0
 21
-13.5
 31
0.0
  0
LINE
  5
68F1
330
A
100
AcDbEntity
  8
0
  6
Continuous
 62
     7
100
AcDbLine
 10
182.0
 20
-8.0
 30
0.0
 11
182.0
 21
-13.5
 31
0.0
  0
LINE
  5
68F2
330
A
100
AcDbEntity
  8
0
  6
Continuous
 62
     7
100
AcDbLine
 10
171.5
 20
88.0
 30
0.0
 11
171.5
 21
78.5
 31
0.0
  0
LINE
  5
68F3
330
A
100
AcDbEntity
  8
0
  6
Continuous
 62
     9
100
AcDbLine
 10
181.0
 20
78.5
 30
0.0
 11
171.5
 21
78.5
 31
0.0
  0
LINE
  5
68F4
330
A
100
AcDbEntity
  8
0
  6
Continuous
 62
     9
100
AcDbLine
 10
181.0
 20
-0.5
 30
0.0
 11
171.5
 21
-0.5
 31
0.0
  0
LINE
  5
68F5
330
A
100
AcDbEntity
  8
0
  6
Continuous
 62
     7
100
AcDbLine
 10
171.5
 20
78.5
 30
0.0
 11
171.5
 21
-0.5
 31
0.0
  0
LINE
  5
68F6
330
A
100
AcDbEntity
  8
0
  6
Continuous
 62
     7
100
AcDbLine
 10
171.5
 20
-0.5
 30
0.0
 11
171.5
 21
-10.0
 31
0.0
  0
LINE
  5
68F7
330
A
100
AcDbEntity
  8
0
  6
Continuous
 62
     9
100
AcDbLine
 10
169.0
 20
86.0
 30
0.0
 11
170.0
 21
86.0
 31
0.0
  0
LINE
  5
68F8
330
A
100
AcDbEntity
  8
0
  6
Continuous
 62
     9
100
AcDbLine
 10
170.0
 20
86.0
 30
0.0
 11
171.0
 21
86.0
 31
0.0
  0
LINE
  5
68F9
330
A
100
AcDbEntity
  8
0
  6
Continuous
 62
     7
100
AcDbLine
 10
169.0
 20
91.5
 30
0.0
 11
170.0
 21
91.5
 31
0.0
  0
LINE
  5
68FA
330
A
100
AcDbEntity
  8
0
  6
Continuous
 62
     7
100
AcDbLine
 10
170.0
 20
91.5
 30
0.0
 11
171.0
 21
91.5
 31
0.0
  0
LINE
  5
68FB
330
A
100
AcDbEntity
  8
0
  6
Continuous
 62
     7
100
AcDbLine
 10
171.0
 20
86.0
 30
0.0
 11
171.0
 21
91.5
 31
0.0
  0
LINE
  5
68FC
330
A
100
AcDbEntity
  8
0
  6
Continuous
 62
     9
100
AcDbLine
 10
169.0
 20
-8.0
 30
0.0
 11
170.0
 21
-8.0
 31
0.0
  0
LINE
  5
68FD
330
A
100
AcDbEntity
  8
0
  6
Continuous
 62
     9
100
AcDbLine
 10
170.0
 20
-8.0
 30
0.0
 11
171.0
 21
-8.0
 31
0.0
  0
LINE
  5
68FE
330
A
100
AcDbEntity
  8
0
  6
Continuous
 62
     7
100
AcDbLine
 10
171.0
 20
-8.0
 30
0.0
 11
171.0
 21
86.0
 31
0.0
  0
LINE
  5
68FF
330
A
100
AcDbEntity
  8
0
  6
Continuous
 62
     7
100
AcDbLine
 10
169.0
 20
-13.5
 30
0.0
 11
170.0
 21
-13.5
 31
0.0
  0
LINE
  5
6900
330
A
100
AcDbEntity
  8
0
  6
Continuous
 62
     7
100
AcDbLine
 10
170.0
 20
-13.5
 30
0.0
 11
171.0
 21
-13.5
 31
0.0
  0
LINE
  5
6901
330
A
100
AcDbEntity
  8
0
  6
Continuous
 62
     7
100
AcDbLine
 10
171.0
 20
-13.5
 30
0.0
 11
171.0
 21
-8.0
 31
0.0
  0
LINE
  5
6902
330
A
100
AcDbEntity
  8
0
  6
Continuous
 62
     7
100
AcDbLine
 10
182.5
 20
91.5
 30
0.0
 11
182.0
 21
91.5
 31
0.0
  0
LINE
  5
6903
330
A
100
AcDbEntity
  8
0
  6
Continuous
 62
     7
100
AcDbLine
 10
182.0
 20
91.5
 30
0.0
 11
181.0
 21
91.5
 31
0.0
  0
LINE
  5
6904
330
A
100
AcDbEntity
  8
0
  6
Continuous
 62
     9
100
AcDbLine
 10
182.5
 20
86.0
 30
0.0
 11
182.0
 21
86.0
 31
0.0
  0
LINE
  5
6905
330
A
100
AcDbEntity
  8
0
  6
Continuous
 62
     9
100
AcDbLine
 10
182.0
 20
86.0
 30
0.0
 11
181.0
 21
86.0
 31
0.0
  0
LINE
  5
6906
330
A
100
AcDbEntity
  8
0
  6
Continuous
 62
     7
100
AcDbLine
 10
181.0
 20
91.5
 30
0.0
 11
181.0
 21
86.0
 31
0.0
  0
LINE
  5
6907
330
A
100
AcDbEntity
  8
0
  6
Continuous
 62
     9
100
AcDbLine
 10
182.5
 20
-8.0
 30
0.0
 11
182.0
 21
-8.0
 31
0.0
  0
LINE
  5
6908
330
A
100
AcDbEntity
  8
0
  6
Continuous
 62
     9
100
AcDbLine
 10
182.0
 20
-8.0
 30
0.0
 11
181.0
 21
-8.0
 31
0.0
  0
LINE
  5
6909
330
A
100
AcDbEntity
  8
0
  6
Continuous
 62
     7
100
AcDbLine
 10
181.0
 20
86.0
 30
0.0
 11
181.0
 21
-8.0
 31
0.0
  0
LINE
  5
690A
330
A
100
AcDbEntity
  8
0
  6
Continuous
 62
     7
100
AcDbLine
 10
182.5
 20
-13.5
 30
0.0
 11
182.0
 21
-13.5
 31
0.0
  0
LINE
  5
690B
330
A
100
AcDbEntity
  8
0
  6
Continuous
 62
     7
100
AcDbLine
 10
182.0
 20
-13.5
 30
0.0
 11
181.0
 21
-13.5
 31
0.0
  0
LINE
  5
690C
330
A
100
AcDbEntity
  8
0
  6
Continuous
 62
     7
100
AcDbLine
 10
181.0
 20
-8.0
 30
0.0
 11
181.0
 21
-13.5
 31
0.0
  0
LINE
  5
690D
330
A
100
AcDbEntity
  8
0
  6
Continuous
 62
     7
100
AcDbLine
 10
171.5
 20
88.0
 30
0.0
 11
171.5
 21
78.5
 31
0.0
  0
LINE
  5
690E
330
A
100
AcDbEntity
  8
0
  6
Continuous
 62
     9
100
AcDbLine
 10
181.0
 20
78.5
 30
0.0
 11
171.5
 21
78.5
 31
0.0
  0
LINE
  5
690F
330
A
100
AcDbEntity
  8
0
  6
Continuous
 62
     9
100
AcDbLine
 10
181.0
 20
-0.5
 30
0.0
 11
171.5
 21
-0.5
 31
0.0
  0
LINE
  5
6910
330
A
100
AcDbEntity
  8
0
  6
Continuous
 62
     7
100
AcDbLine
 10
171.5
 20
78.5
 30
0.0
 11
171.5
 21
-0.5
 31
0.0
  0
LINE
  5
6911
330
A
100
AcDbEntity
  8
0
  6
Continuous
 62
     7
100
AcDbLine
 10
171.5
 20
-0.5
 30
0.0
 11
171.5
 21
-10.0
 31
0.0
  0
LINE
  5
6912
330
A
100
AcDbEntity
  8
0
  6
Continuous
 62
     7
100
AcDbLine
 10
184.2699999999999
 20
93.0
 30
0.0
 11
184.2699999999999
 21
-15.0
 31
0.0
  0
LINE
  5
6913
330
A
100
AcDbEntity
  8
0
  6
Continuous
 62
     9
100
AcDbLine
 10
185.9200289999996
 20
93.0
 30
0.0
 11
185.9200289999996
 21
-15.0
 31
0.0
  0
LINE
  5
6914
330
A
100
AcDbEntity
  8
0
  6
Continuous
 62
     7
100
AcDbLine
 10
185.9200289999996
 20
-15.0
 30
0.0
 11
184.2699999999999
 21
-15.0
 31
0.0
  0
LINE
  5
6915
330
A
100
AcDbEntity
  8
0
  6
Continuous
 62
     7
100
AcDbLine
 10
184.2699999999999
 20
93.0
 30
0.0
 11
185.9200289999996
 21
93.0
 31
0.0
  0
LINE
  5
6916
330
A
100
AcDbEntity
  8
0
  6
Continuous
 62
     7
100
AcDbLine
 10
184.2699999999999
 20
-15.0
 30
0.0
 11
182.5
 21
-15.0
 31
0.0
  0
LINE
  5
6917
330
A
100
AcDbEntity
  8
0
  6
Continuous
 62
     7
100
AcDbLine
 10
182.5
 20
-15.0
 30
0.0
 11
182.5
 21
93.0
 31
0.0
  0
LINE
  5
6918
330
A
100
AcDbEntity
  8
0
  6
Continuous
 62
     7
100
AcDbLine
 10
184.2699999999999
 20
93.0
 30
0.0
 11
182.5
 21
93.0
 31
0.0
  0
LINE
  5
6919
330
A
100
AcDbEntity
  8
0
  6
Continuous
 62
     9
100
AcDbLine
 10
186.958106
 20
93.0
 30
0.0
 11
186.958106
 21
-15.0
 31
0.0
  0
LINE
  5
691A
330
A
100
AcDbEntity
  8
0
  6
Continuous
 62
     7
100
AcDbLine
 10
186.958106
 20
-15.0
 30
0.0
 11
185.9200289999996
 21
-15.0
 31
0.0
  0
LINE
  5
691B
330
A
100
AcDbEntity
  8
0
  6
Continuous
 62
     7
100
AcDbLine
 10
185.9200289999996
 20
93.0
 30
0.0
 11
186.958106
 21
93.0
 31
0.0
  0
LINE
  5
691C
330
A
100
AcDbEntity
  8
0
  6
Continuous
 62
     9
100
AcDbLine
 10
190.043473
 20
93.0
 30
0.0
 11
190.043473
 21
-15.0
 31
0.0
  0
LINE
  5
691D
330
A
100
AcDbEntity
  8
0
  6
Continuous
 62
     7
100
AcDbLine
 10
190.043473
 20
-15.0
 30
0.0
 11
186.958106
 21
-15.0
 31
0.0
  0
LINE
  5
691E
330
A
100
AcDbEntity
  8
0
  6
Continuous
 62
     7
100
AcDbLine
 10
186.958106
 20
93.0
 30
0.0
 11
190.043473
 21
93.0
 31
0.0
  0
LINE
  5
691F
330
A
100
AcDbEntity
  8
0
  6
Continuous
 62
     7
100
AcDbLine
 10
190.5
 20
-15.0
 30
0.0
 11
190.5
 21
93.0
 31
0.0
  0
LINE
  5
6920
330
A
100
AcDbEntity
  8
0
  6
Continuous
 62
     7
100
AcDbLine
 10
190.5
 20
-15.0
 30
0.0
 11
190.043473
 21
-15.0
 31
0.0
  0
LINE
  5
6921
330
A
100
AcDbEntity
  8
0
  6
Continuous
 62
     7
100
AcDbLine
 10
190.043473
 20
93.0
 30
0.0
 11
190.5
 21
93.0
 31
0.0
  0
LINE
  5
6922
330
A
100
AcDbEntity
  8
0
  6
Continuous
 62
     9
100
AcDbLine
 10
171.5
 20
78.5
 30
0.0
 11
171.0
 21
78.5
 31
0.0
  0
LINE
  5
6923
330
A
100
AcDbEntity
  8
0
  6
Continuous
 62
     7
100
AcDbLine
 10
171.0
 20
86.0
 30
0.0
 11
171.5
 21
86.0
 31
0.0
  0
LINE
  5
6924
330
A
100
AcDbEntity
  8
0
  6
Continuous
 62
     9
100
AcDbLine
 10
171.5
 20
-0.5
 30
0.0
 11
171.0
 21
-0.5
 31
0.0
  0
LINE
  5
6925
330
A
100
AcDbEntity
  8
0
  6
Continuous
 62
     7
100
AcDbLine
 10
171.5
 20
-8.0
 30
0.0
 11
171.0
 21
-8.0
 31
0.0
  0
LINE
  5
6926
330
A
100
AcDbEntity
  8
0
  6
Continuous
 62
     7
100
AcDbLine
 10
169.0
 20
-15.0
 30
0.0
 11
167.23
 21
-15.0
 31
0.0
  0
LINE
  5
6927
330
A
100
AcDbEntity
  8
0
  6
Continuous
 62
     7
100
AcDbLine
 10
167.23
 20
93.0
 30
0.0
 11
167.23
 21
-15.0
 31
0.0
  0
LINE
  5
6928
330
A
100
AcDbEntity
  8
0
  6
Continuous
 62
     7
100
AcDbLine
 10
169.0
 20
-15.0
 30
0.0
 11
169.0
 21
93.0
 31
0.0
  0
LINE
  5
6929
330
A
100
AcDbEntity
  8
0
  6
Continuous
 62
     7
100
AcDbLine
 10
169.0
 20
93.0
 30
0.0
 11
167.23
 21
93.0
 31
0.0
  0
LINE
  5
692A
330
A
100
AcDbEntity
  8
0
  6
Continuous
 62
     9
100
AcDbLine
 10
165.5799710000003
 20
-15.0
 30
0.0
 11
165.5799710000003
 21
93.0
 31
0.0
  0
LINE
  5
692B
330
A
100
AcDbEntity
  8
0
  6
Continuous
 62
     7
100
AcDbLine
 10
167.23
 20
-15.0
 30
0.0
 11
165.5799710000003
 21
-15.0
 31
0.0
  0
LINE
  5
692C
330
A
100
AcDbEntity
  8
0
  6
Continuous
 62
     7
100
AcDbLine
 10
165.5799710000003
 20
93.0
 30
0.0
 11
167.23
 21
93.0
 31
0.0
  0
LINE
  5
692D
330
A
100
AcDbEntity
  8
0
  6
Continuous
 62
     9
100
AcDbLine
 10
164.5418939999999
 20
-15.0
 30
0.0
 11
164.5418939999999
 21
93.0
 31
0.0
  0
LINE
  5
692E
330
A
100
AcDbEntity
  8
0
  6
Continuous
 62
     7
100
AcDbLine
 10
165.5799710000003
 20
-15.0
 30
0.0
 11
164.5418939999999
 21
-15.0
 31
0.0
  0
LINE
  5
692F
330
A
100
AcDbEntity
  8
0
  6
Continuous
 62
     7
100
AcDbLine
 10
164.5418939999999
 20
93.0
 30
0.0
 11
165.5799710000003
 21
93.0
 31
0.0
  0
LINE
  5
6930
330
A
100
AcDbEntity
  8
0
  6
Continuous
 62
     9
100
AcDbLine
 10
161.4565269999999
 20
-15.0
 30
0.0
 11
161.4565269999999
 21
93.0
 31
0.0
  0
LINE
  5
6931
330
A
100
AcDbEntity
  8
0
  6
Continuous
 62
     7
100
AcDbLine
 10
164.5418939999999
 20
-15.0
 30
0.0
 11
161.4565269999999
 21
-15.0
 31
0.0
  0
LINE
  5
6932
330
A
100
AcDbEntity
  8
0
  6
Continuous
 62
     7
100
AcDbLine
 10
161.4565269999999
 20
93.0
 30
0.0
 11
164.5418939999999
 21
93.0
 31
0.0
  0
LINE
  5
6933
330
A
100
AcDbEntity
  8
0
  6
Continuous
 62
     7
100
AcDbLine
 10
161.0
 20
-15.0
 30
0.0
 11
161.0
 21
93.0
 31
0.0
  0
LINE
  5
6934
330
A
100
AcDbEntity
  8
0
  6
Continuous
 62
     7
100
AcDbLine
 10
161.4565269999999
 20
-15.0
 30
0.0
 11
161.0
 21
-15.0
 31
0.0
  0
LINE
  5
6935
330
A
100
AcDbEntity
  8
0
  6
Continuous
 62
     7
100
AcDbLine
 10
161.0
 20
93.0
 30
0.0
 11
161.4565269999999
 21
93.0
 31
0.0
  0
LINE
  5
6936
330
A
100
AcDbEntity
  8
0
  6
Continuous
 62
     7
100
AcDbLine
 10
181.0
 20
88.0
 30
0.0
 11
171.5
 21
88.0
 31
0.0
  0
LINE
  5
6937
330
A
100
AcDbEntity
  8
0
  6
Continuous
 62
     7
100
AcDbLine
 10
171.5
 20
-10.0
 30
0.0
 11
181.0
 21
-10.0
 31
0.0
  0
LINE
  5
6938
330
A
100
AcDbEntity
  8
0
  6
Continuous
 62
     7
100
AcDbLine
 10
181.0
 20
88.0
 30
0.0
 11
171.5
 21
88.0
 31
0.0
  0
LINE
  5
6939
330
A
100
AcDbEntity
  8
0
  6
Continuous
 62
     7
100
AcDbLine
 10
171.5
 20
-10.0
 30
0.0
 11
181.0
 21
-10.0
 31
0.0
  0
LINE
  5
693A
330
A
100
AcDbEntity
  8
0
  6
Continuous
 62
     9
100
AcDbLine
 10
43.0
 20
-54.25000000000011
 30
0.0
 11
43.0
 21
-55.25
 31
0.0
  0
LINE
  5
693B
330
A
100
AcDbEntity
  8
0
  6
Continuous
 62
     7
100
AcDbLine
 10
48.49999999999988
 20
-54.25000000000011
 30
0.0
 11
48.49999999999988
 21
-55.25
 31
0.0
  0
LINE
  5
693C
330
A
100
AcDbEntity
  8
0
  6
Continuous
 62
     7
100
AcDbLine
 10
43.0
 20
-55.25
 30
0.0
 11
48.49999999999988
 21
-55.25
 31
0.0
  0
LINE
  5
693D
330
A
100
AcDbEntity
  8
0
  6
Continuous
 62
     9
100
AcDbLine
 10
-16.0
 20
-54.25000000000011
 30
0.0
 11
-16.0
 21
-55.25
 31
0.0
  0
LINE
  5
693E
330
A
100
AcDbEntity
  8
0
  6
Continuous
 62
     7
100
AcDbLine
 10
-16.0
 20
-55.25
 30
0.0
 11
43.0
 21
-55.25
 31
0.0
  0
LINE
  5
693F
330
A
100
AcDbEntity
  8
0
  6
Continuous
 62
     7
100
AcDbLine
 10
-21.5
 20
-54.25000000000011
 30
0.0
 11
-21.5
 21
-55.25
 31
0.0
  0
LINE
  5
6940
330
A
100
AcDbEntity
  8
0
  6
Continuous
 62
     7
100
AcDbLine
 10
-21.5
 20
-55.25
 30
0.0
 11
-16.0
 21
-55.25
 31
0.0
  0
LINE
  5
6941
330
A
100
AcDbEntity
  8
0
  6
Continuous
 62
     7
100
AcDbLine
 10
58.0
 20
-54.25000000000011
 30
0.0
 11
58.0
 21
-55.25
 31
0.0
  0
LINE
  5
6942
330
A
100
AcDbEntity
  8
0
  6
Continuous
 62
     9
100
AcDbLine
 10
63.5
 20
-54.25000000000011
 30
0.0
 11
63.5
 21
-55.25
 31
0.0
  0
LINE
  5
6943
330
A
100
AcDbEntity
  8
0
  6
Continuous
 62
     7
100
AcDbLine
 10
58.0
 20
-55.25
 30
0.0
 11
63.5
 21
-55.25
 31
0.0
  0
LINE
  5
6944
330
A
100
AcDbEntity
  8
0
  6
Continuous
 62
     9
100
AcDbLine
 10
122.4999999999999
 20
-54.25000000000011
 30
0.0
 11
122.4999999999999
 21
-55.25
 31
0.0
  0
LINE
  5
6945
330
A
100
AcDbEntity
  8
0
  6
Continuous
 62
     7
100
AcDbLine
 10
128.0
 20
-54.25000000000011
 30
0.0
 11
128.0
 21
-55.25
 31
0.0
  0
LINE
  5
6946
330
A
100
AcDbEntity
  8
0
  6
Continuous
 62
     7
100
AcDbLine
 10
122.4999999999999
 20
-55.25
 30
0.0
 11
128.0
 21
-55.25
 31
0.0
  0
LINE
  5
6947
330
A
100
AcDbEntity
  8
0
  6
Continuous
 62
     7
100
AcDbLine
 10
63.5
 20
-55.25
 30
0.0
 11
122.4999999999999
 21
-55.25
 31
0.0
  0
LINE
  5
6948
330
A
100
AcDbEntity
  8
0
  6
Continuous
 62
     7
100
AcDbLine
 10
48.49999999999988
 20
-67.75
 30
0.0
 11
48.49999999999988
 21
-67.25000000000012
 31
0.0
  0
LINE
  5
6949
330
A
100
AcDbEntity
  8
0
  6
Continuous
 62
     9
100
AcDbLine
 10
43.0
 20
-67.75
 30
0.0
 11
43.0
 21
-67.25000000000012
 31
0.0
  0
LINE
  5
694A
330
A
100
AcDbEntity
  8
0
  6
Continuous
 62
     7
100
AcDbLine
 10
48.49999999999988
 20
-67.25000000000012
 30
0.0
 11
43.0
 21
-67.25000000000012
 31
0.0
  0
LINE
  5
694B
330
A
100
AcDbEntity
  8
0
  6
Continuous
 62
     9
100
AcDbLine
 10
-16.0
 20
-67.75
 30
0.0
 11
-16.0
 21
-67.25000000000012
 31
0.0
  0
LINE
  5
694C
330
A
100
AcDbEntity
  8
0
  6
Continuous
 62
     7
100
AcDbLine
 10
43.0
 20
-67.25000000000012
 30
0.0
 11
-16.0
 21
-67.25000000000012
 31
0.0
  0
LINE
  5
694D
330
A
100
AcDbEntity
  8
0
  6
Continuous
 62
     7
100
AcDbLine
 10
-21.5
 20
-67.75
 30
0.0
 11
-21.5
 21
-67.25000000000012
 31
0.0
  0
LINE
  5
694E
330
A
100
AcDbEntity
  8
0
  6
Continuous
 62
     7
100
AcDbLine
 10
-16.0
 20
-67.25000000000012
 30
0.0
 11
-21.5
 21
-67.25000000000012
 31
0.0
  0
LINE
  5
694F
330
A
100
AcDbEntity
  8
0
  6
Continuous
 62
     9
100
AcDbLine
 10
9.083324999999717
 20
-66.25000000000011
 30
0.0
 11
9.083324999999717
 21
-56.75
 31
0.0
  0
LINE
  5
6950
330
A
100
AcDbEntity
  8
0
  6
Continuous
 62
     7
100
AcDbLine
 10
-9.0
 20
-66.25000000000011
 30
0.0
 11
-9.0
 21
-56.75
 31
0.0
  0
LINE
  5
6951
330
A
100
AcDbEntity
  8
0
  6
Continuous
 62
     7
100
AcDbLine
 10
9.083324999999717
 20
-56.75
 30
0.0
 11
-9.0
 21
-56.75
 31
0.0
  0
LINE
  5
6952
330
A
100
AcDbEntity
  8
0
  6
Continuous
 62
     9
100
AcDbLine
 10
13.14911100000006
 20
-66.25000000000011
 30
0.0
 11
13.14911100000006
 21
-56.75
 31
0.0
  0
LINE
  5
6953
330
A
100
AcDbEntity
  8
0
  6
Continuous
 62
     7
100
AcDbLine
 10
9.083324999999717
 20
-56.75
 30
0.0
 11
13.14911100000006
 21
-56.75
 31
0.0
  0
LINE
  5
6954
330
A
100
AcDbEntity
  8
0
  6
Continuous
 62
     7
100
AcDbLine
 10
43.0
 20
-66.25000000000011
 30
0.0
 11
43.0
 21
-56.75
 31
0.0
  0
LINE
  5
6955
330
A
100
AcDbEntity
  8
0
  6
Continuous
 62
     7
100
AcDbLine
 10
43.0
 20
-56.75
 30
0.0
 11
13.14911100000006
 21
-56.75
 31
0.0
  0
LINE
  5
6956
330
A
100
AcDbEntity
  8
0
  6
Continuous
 62
     9
100
AcDbLine
 10
122.4999999999999
 20
-67.75
 30
0.0
 11
122.4999999999999
 21
-67.25000000000012
 31
0.0
  0
LINE
  5
6957
330
A
100
AcDbEntity
  8
0
  6
Continuous
 62
     9
100
AcDbLine
 10
63.5
 20
-67.75
 30
0.0
 11
63.5
 21
-67.25000000000012
 31
0.0
  0
LINE
  5
6958
330
A
100
AcDbEntity
  8
0
  6
Continuous
 62
     7
100
AcDbLine
 10
122.4999999999999
 20
-67.25000000000012
 30
0.0
 11
63.5
 21
-67.25000000000012
 31
0.0
  0
LINE
  5
6959
330
A
100
AcDbEntity
  8
0
  6
Continuous
 62
     7
100
AcDbLine
 10
58.0
 20
-67.75
 30
0.0
 11
58.0
 21
-67.25000000000012
 31
0.0
  0
LINE
  5
695A
330
A
100
AcDbEntity
  8
0
  6
Continuous
 62
     7
100
AcDbLine
 10
63.5
 20
-67.25000000000012
 30
0.0
 11
58.0
 21
-67.25000000000012
 31
0.0
  0
LINE
  5
695B
330
A
100
AcDbEntity
  8
0
  6
Continuous
 62
     7
100
AcDbLine
 10
128.0
 20
-67.75
 30
0.0
 11
128.0
 21
-67.25000000000012
 31
0.0
  0
LINE
  5
695C
330
A
100
AcDbEntity
  8
0
  6
Continuous
 62
     7
100
AcDbLine
 10
128.0
 20
-67.25000000000012
 30
0.0
 11
122.4999999999999
 21
-67.25000000000012
 31
0.0
  0
LINE
  5
695D
330
A
100
AcDbEntity
  8
0
  6
Continuous
 62
     7
100
AcDbLine
 10
115.4999999999999
 20
-56.75
 30
0.0
 11
97.41667500000005
 21
-56.75
 31
0.0
  0
LINE
  5
695E
330
A
100
AcDbEntity
  8
0
  6
Continuous
 62
     7
100
AcDbLine
 10
115.4999999999999
 20
-66.25000000000011
 30
0.0
 11
115.4999999999999
 21
-56.75
 31
0.0
  0
LINE
  5
695F
330
A
100
AcDbEntity
  8
0
  6
Continuous
 62
     9
100
AcDbLine
 10
97.41667500000005
 20
-66.25000000000011
 30
0.0
 11
97.41667500000005
 21
-56.75
 31
0.0
  0
LINE
  5
6960
330
A
100
AcDbEntity
  8
0
  6
Continuous
 62
     9
100
AcDbLine
 10
93.35088900000005
 20
-66.25000000000011
 30
0.0
 11
93.35088900000005
 21
-56.75
 31
0.0
  0
LINE
  5
6961
330
A
100
AcDbEntity
  8
0
  6
Continuous
 62
     7
100
AcDbLine
 10
93.35088900000005
 20
-56.75
 30
0.0
 11
97.41667500000005
 21
-56.75
 31
0.0
  0
LINE
  5
6962
330
A
100
AcDbEntity
  8
0
  6
Continuous
 62
     7
100
AcDbLine
 10
63.5
 20
-66.25000000000011
 30
0.0
 11
63.5
 21
-56.75
 31
0.0
  0
LINE
  5
6963
330
A
100
AcDbEntity
  8
0
  6
Continuous
 62
     7
100
AcDbLine
 10
93.35088900000005
 20
-56.75
 30
0.0
 11
63.5
 21
-56.75
 31
0.0
  0
LINE
  5
6964
330
A
100
AcDbEntity
  8
0
  6
Continuous
 62
     9
100
AcDbLine
 10
43.0
 20
-54.25000000000011
 30
0.0
 11
43.0
 21
-55.25
 31
0.0
  0
LINE
  5
6965
330
A
100
AcDbEntity
  8
0
  6
Continuous
 62
     9
100
AcDbLine
 10
43.0
 20
-55.25
 30
0.0
 11
43.0
 21
-56.25
 31
0.0
  0
LINE
  5
6966
330
A
100
AcDbEntity
  8
0
  6
Continuous
 62
     7
100
AcDbLine
 10
48.49999999999988
 20
-54.25000000000011
 30
0.0
 11
48.49999999999988
 21
-55.25
 31
0.0
  0
LINE
  5
6967
330
A
100
AcDbEntity
  8
0
  6
Continuous
 62
     7
100
AcDbLine
 10
48.49999999999988
 20
-55.25
 30
0.0
 11
48.49999999999988
 21
-56.25
 31
0.0
  0
LINE
  5
6968
330
A
100
AcDbEntity
  8
0
  6
Continuous
 62
     7
100
AcDbLine
 10
43.0
 20
-56.25
 30
0.0
 11
48.49999999999988
 21
-56.25
 31
0.0
  0
LINE
  5
6969
330
A
100
AcDbEntity
  8
0
  6
Continuous
 62
     9
100
AcDbLine
 10
-16.0
 20
-54.25000000000011
 30
0.0
 11
-16.0
 21
-55.25
 31
0.0
  0
LINE
  5
696A
330
A
100
AcDbEntity
  8
0
  6
Continuous
 62
     9
100
AcDbLine
 10
-16.0
 20
-55.25
 30
0.0
 11
-16.0
 21
-56.25
 31
0.0
  0
LINE
  5
696B
330
A
100
AcDbEntity
  8
0
  6
Continuous
 62
     7
100
AcDbLine
 10
-16.0
 20
-56.25
 30
0.0
 11
43.0
 21
-56.25
 31
0.0
  0
LINE
  5
696C
330
A
100
AcDbEntity
  8
0
  6
Continuous
 62
     7
100
AcDbLine
 10
-21.5
 20
-54.25000000000011
 30
0.0
 11
-21.5
 21
-55.25
 31
0.0
  0
LINE
  5
696D
330
A
100
AcDbEntity
  8
0
  6
Continuous
 62
     7
100
AcDbLine
 10
-21.5
 20
-55.25
 30
0.0
 11
-21.5
 21
-56.25
 31
0.0
  0
LINE
  5
696E
330
A
100
AcDbEntity
  8
0
  6
Continuous
 62
     7
100
AcDbLine
 10
-21.5
 20
-56.25
 30
0.0
 11
-16.0
 21
-56.25
 31
0.0
  0
LINE
  5
696F
330
A
100
AcDbEntity
  8
0
  6
Continuous
 62
     7
100
AcDbLine
 10
58.0
 20
-54.25000000000011
 30
0.0
 11
58.0
 21
-55.25
 31
0.0
  0
LINE
  5
6970
330
A
100
AcDbEntity
  8
0
  6
Continuous
 62
     7
100
AcDbLine
 10
58.0
 20
-55.25
 30
0.0
 11
58.0
 21
-56.25
 31
0.0
  0
LINE
  5
6971
330
A
100
AcDbEntity
  8
0
  6
Continuous
 62
     9
100
AcDbLine
 10
63.5
 20
-54.25000000000011
 30
0.0
 11
63.5
 21
-55.25
 31
0.0
  0
LINE
  5
6972
330
A
100
AcDbEntity
  8
0
  6
Continuous
 62
     9
100
AcDbLine
 10
63.5
 20
-55.25
 30
0.0
 11
63.5
 21
-56.25
 31
0.0
  0
LINE
  5
6973
330
A
100
AcDbEntity
  8
0
  6
Continuous
 62
     7
100
AcDbLine
 10
58.0
 20
-56.25
 30
0.0
 11
63.5
 21
-56.25
 31
0.0
  0
LINE
  5
6974
330
A
100
AcDbEntity
  8
0
  6
Continuous
 62
     9
100
AcDbLine
 10
122.4999999999999
 20
-54.25000000000011
 30
0.0
 11
122.4999999999999
 21
-55.25
 31
0.0
  0
LINE
  5
6975
330
A
100
AcDbEntity
  8
0
  6
Continuous
 62
     9
100
AcDbLine
 10
122.4999999999999
 20
-55.25
 30
0.0
 11
122.4999999999999
 21
-56.25
 31
0.0
  0
LINE
  5
6976
330
A
100
AcDbEntity
  8
0
  6
Continuous
 62
     7
100
AcDbLine
 10
128.0
 20
-54.25000000000011
 30
0.0
 11
128.0
 21
-55.25
 31
0.0
  0
LINE
  5
6977
330
A
100
AcDbEntity
  8
0
  6
Continuous
 62
     7
100
AcDbLine
 10
128.0
 20
-55.25
 30
0.0
 11
128.0
 21
-56.25
 31
0.0
  0
LINE
  5
6978
330
A
100
AcDbEntity
  8
0
  6
Continuous
 62
     7
100
AcDbLine
 10
122.4999999999999
 20
-56.25
 30
0.0
 11
128.0
 21
-56.25
 31
0.0
  0
LINE
  5
6979
330
A
100
AcDbEntity
  8
0
  6
Continuous
 62
     7
100
AcDbLine
 10
63.5
 20
-56.25
 30
0.0
 11
122.4999999999999
 21
-56.25
 31
0.0
  0
LINE
  5
697A
330
A
100
AcDbEntity
  8
0
  6
Continuous
 62
     7
100
AcDbLine
 10
48.49999999999988
 20
-67.75
 30
0.0
 11
48.49999999999988
 21
-67.25000000000012
 31
0.0
  0
LINE
  5
697B
330
A
100
AcDbEntity
  8
0
  6
Continuous
 62
     7
100
AcDbLine
 10
48.49999999999988
 20
-67.25000000000012
 30
0.0
 11
48.49999999999988
 21
-66.25000000000011
 31
0.0
  0
LINE
  5
697C
330
A
100
AcDbEntity
  8
0
  6
Continuous
 62
     9
100
AcDbLine
 10
43.0
 20
-67.75
 30
0.0
 11
43.0
 21
-67.25000000000012
 31
0.0
  0
LINE
  5
697D
330
A
100
AcDbEntity
  8
0
  6
Continuous
 62
     9
100
AcDbLine
 10
43.0
 20
-67.25000000000012
 30
0.0
 11
43.0
 21
-66.25000000000011
 31
0.0
  0
LINE
  5
697E
330
A
100
AcDbEntity
  8
0
  6
Continuous
 62
     7
100
AcDbLine
 10
48.49999999999988
 20
-66.25000000000011
 30
0.0
 11
43.0
 21
-66.25000000000011
 31
0.0
  0
LINE
  5
697F
330
A
100
AcDbEntity
  8
0
  6
Continuous
 62
     9
100
AcDbLine
 10
-16.0
 20
-67.75
 30
0.0
 11
-16.0
 21
-67.25000000000012
 31
0.0
  0
LINE
  5
6980
330
A
100
AcDbEntity
  8
0
  6
Continuous
 62
     9
100
AcDbLine
 10
-16.0
 20
-67.25000000000012
 30
0.0
 11
-16.0
 21
-66.25000000000011
 31
0.0
  0
LINE
  5
6981
330
A
100
AcDbEntity
  8
0
  6
Continuous
 62
     7
100
AcDbLine
 10
43.0
 20
-66.25000000000011
 30
0.0
 11
-16.0
 21
-66.25000000000011
 31
0.0
  0
LINE
  5
6982
330
A
100
AcDbEntity
  8
0
  6
Continuous
 62
     7
100
AcDbLine
 10
-21.5
 20
-67.75
 30
0.0
 11
-21.5
 21
-67.25000000000012
 31
0.0
  0
LINE
  5
6983
330
A
100
AcDbEntity
  8
0
  6
Continuous
 62
     7
100
AcDbLine
 10
-21.5
 20
-67.25000000000012
 30
0.0
 11
-21.5
 21
-66.25000000000011
 31
0.0
  0
LINE
  5
6984
330
A
100
AcDbEntity
  8
0
  6
Continuous
 62
     7
100
AcDbLine
 10
-16.0
 20
-66.25000000000011
 30
0.0
 11
-21.5
 21
-66.25000000000011
 31
0.0
  0
LINE
  5
6985
330
A
100
AcDbEntity
  8
0
  6
Continuous
 62
     9
100
AcDbLine
 10
9.083324999999717
 20
-66.25000000000011
 30
0.0
 11
9.083324999999717
 21
-56.75
 31
0.0
  0
LINE
  5
6986
330
A
100
AcDbEntity
  8
0
  6
Continuous
 62
     7
100
AcDbLine
 10
-9.0
 20
-66.25000000000011
 30
0.0
 11
-9.0
 21
-56.75
 31
0.0
  0
LINE
  5
6987
330
A
100
AcDbEntity
  8
0
  6
Continuous
 62
     7
100
AcDbLine
 10
9.083324999999717
 20
-56.75
 30
0.0
 11
-9.0
 21
-56.75
 31
0.0
  0
LINE
  5
6988
330
A
100
AcDbEntity
  8
0
  6
Continuous
 62
     9
100
AcDbLine
 10
13.14911100000006
 20
-66.25000000000011
 30
0.0
 11
13.14911100000006
 21
-56.75
 31
0.0
  0
LINE
  5
6989
330
A
100
AcDbEntity
  8
0
  6
Continuous
 62
     7
100
AcDbLine
 10
9.083324999999717
 20
-56.75
 30
0.0
 11
13.14911100000006
 21
-56.75
 31
0.0
  0
LINE
  5
698A
330
A
100
AcDbEntity
  8
0
  6
Continuous
 62
     7
100
AcDbLine
 10
43.0
 20
-66.25000000000011
 30
0.0
 11
43.0
 21
-56.75
 31
0.0
  0
LINE
  5
698B
330
A
100
AcDbEntity
  8
0
  6
Continuous
 62
     7
100
AcDbLine
 10
43.0
 20
-56.75
 30
0.0
 11
13.14911100000006
 21
-56.75
 31
0.0
  0
LINE
  5
698C
330
A
100
AcDbEntity
  8
0
  6
Continuous
 62
     7
100
AcDbLine
 10
128.0
 20
-67.75
 30
0.0
 11
128.0
 21
-67.25000000000012
 31
0.0
  0
LINE
  5
698D
330
A
100
AcDbEntity
  8
0
  6
Continuous
 62
     7
100
AcDbLine
 10
128.0
 20
-67.25000000000012
 30
0.0
 11
128.0
 21
-66.25000000000011
 31
0.0
  0
LINE
  5
698E
330
A
100
AcDbEntity
  8
0
  6
Continuous
 62
     9
100
AcDbLine
 10
122.4999999999999
 20
-67.75
 30
0.0
 11
122.4999999999999
 21
-67.25000000000012
 31
0.0
  0
LINE
  5
698F
330
A
100
AcDbEntity
  8
0
  6
Continuous
 62
     9
100
AcDbLine
 10
122.4999999999999
 20
-67.25000000000012
 30
0.0
 11
122.4999999999999
 21
-66.25000000000011
 31
0.0
  0
LINE
  5
6990
330
A
100
AcDbEntity
  8
0
  6
Continuous
 62
     7
100
AcDbLine
 10
128.0
 20
-66.25000000000011
 30
0.0
 11
122.4999999999999
 21
-66.25000000000011
 31
0.0
  0
LINE
  5
6991
330
A
100
AcDbEntity
  8
0
  6
Continuous
 62
     9
100
AcDbLine
 10
63.5
 20
-67.75
 30
0.0
 11
63.5
 21
-67.25000000000012
 31
0.0
  0
LINE
  5
6992
330
A
100
AcDbEntity
  8
0
  6
Continuous
 62
     9
100
AcDbLine
 10
63.5
 20
-67.25000000000012
 30
0.0
 11
63.5
 21
-66.25000000000011
 31
0.0
  0
LINE
  5
6993
330
A
100
AcDbEntity
  8
0
  6
Continuous
 62
     7
100
AcDbLine
 10
122.4999999999999
 20
-66.25000000000011
 30
0.0
 11
63.5
 21
-66.25000000000011
 31
0.0
  0
LINE
  5
6994
330
A
100
AcDbEntity
  8
0
  6
Continuous
 62
     7
100
AcDbLine
 10
58.0
 20
-67.75
 30
0.0
 11
58.0
 21
-67.25000000000012
 31
0.0
  0
LINE
  5
6995
330
A
100
AcDbEntity
  8
0
  6
Continuous
 62
     7
100
AcDbLine
 10
58.0
 20
-67.25000000000012
 30
0.0
 11
58.0
 21
-66.25000000000011
 31
0.0
  0
LINE
  5
6996
330
A
100
AcDbEntity
  8
0
  6
Continuous
 62
     7
100
AcDbLine
 10
63.5
 20
-66.25000000000011
 30
0.0
 11
58.0
 21
-66.25000000000011
 31
0.0
  0
LINE
  5
6997
330
A
100
AcDbEntity
  8
0
  6
Continuous
 62
     7
100
AcDbLine
 10
115.4999999999999
 20
-66.25000000000011
 30
0.0
 11
115.4999999999999
 21
-56.75
 31
0.0
  0
LINE
  5
6998
330
A
100
AcDbEntity
  8
0
  6
Continuous
 62
     9
100
AcDbLine
 10
97.41667500000005
 20
-66.25000000000011
 30
0.0
 11
97.41667500000005
 21
-56.75
 31
0.0
  0
LINE
  5
6999
330
A
100
AcDbEntity
  8
0
  6
Continuous
 62
     7
100
AcDbLine
 10
115.4999999999999
 20
-56.75
 30
0.0
 11
97.41667500000005
 21
-56.75
 31
0.0
  0
LINE
  5
699A
330
A
100
AcDbEntity
  8
0
  6
Continuous
 62
     9
100
AcDbLine
 10
93.35088900000005
 20
-66.25000000000011
 30
0.0
 11
93.35088900000005
 21
-56.75
 31
0.0
  0
LINE
  5
699B
330
A
100
AcDbEntity
  8
0
  6
Continuous
 62
     7
100
AcDbLine
 10
93.35088900000005
 20
-56.75
 30
0.0
 11
97.41667500000005
 21
-56.75
 31
0.0
  0
LINE
  5
699C
330
A
100
AcDbEntity
  8
0
  6
Continuous
 62
     7
100
AcDbLine
 10
63.5
 20
-66.25000000000011
 30
0.0
 11
63.5
 21
-56.75
 31
0.0
  0
LINE
  5
699D
330
A
100
AcDbEntity
  8
0
  6
Continuous
 62
     7
100
AcDbLine
 10
93.35088900000005
 20
-56.75
 30
0.0
 11
63.5
 21
-56.75
 31
0.0
  0
ARC
  5
699E
330
A
100
AcDbEntity
  8
0
  6
Continuous
 62
     7
100
AcDbCircle
 10
16.5
 20
-61.25
 30
0.0
 40
6.025
100
AcDbArc
 50
123.9140469999961
 51
131.5980229999981
  0
ARC
  5
699F
330
A
100
AcDbEntity
  8
0
  6
Continuous
 62
     7
100
AcDbCircle
 10
16.5
 20
-61.25
 30
0.0
 40
6.025
100
AcDbArc
 50
48.40197700000187
 51
56.08595300000387
  0
ARC
  5
69A0
330
A
100
AcDbEntity
  8
0
  6
Continuous
 62
     7
100
AcDbCircle
 10
-21.36134900000002
 20
-71.03929500000004
 30
0.0
 40
1.5
100
AcDbArc
 50
185.0
 51
231.1880309999975
  0
LINE
  5
69A1
330
A
100
AcDbEntity
  8
0
  6
Continuous
 62
     7
100
AcDbLine
 10
-23.00000000000034
 20
-69.51999999999998
 30
0.0
 11
-22.8556410000001
 21
-71.17002900000017
 31
0.0
  0
LINE
  5
69A2
330
A
100
AcDbEntity
  8
0
  6
Continuous
 62
     7
100
AcDbLine
 10
-23.00000000000034
 20
-69.51999999999998
 30
0.0
 11
-23.00000000000034
 21
-67.75
 31
0.0
  0
LINE
  5
69A3
330
A
100
AcDbEntity
  8
0
  6
Continuous
 62
     7
100
AcDbLine
 10
50.0
 20
-68.75
 30
0.0
 11
50.0
 21
-67.75
 31
0.0
  0
LINE
  5
69A4
330
A
100
AcDbEntity
  8
0
  6
Continuous
 62
     7
100
AcDbLine
 10
-12.89999999999998
 20
-75.75
 30
0.0
 11
43.0
 21
-75.75
 31
0.0
  0
LINE
  5
69A5
330
A
100
AcDbEntity
  8
0
  6
Continuous
 62
     7
100
AcDbLine
 10
-15.49701399999992
 20
-75.29347300000018
 30
0.0
 11
-12.89999999999998
 21
-75.75
 31
0.0
  0
ARC
  5
69A6
330
A
100
AcDbEntity
  8
0
  6
Continuous
 62
     7
100
AcDbCircle
 10
-12.89999999999998
 20
-60.51999999999998
 30
0.0
 40
15.0
100
AcDbArc
 50
231.1880309999975
 51
260.0298959999986
  0
ARC
  5
69A7
330
A
100
AcDbEntity
  8
0
  6
Continuous
 62
     7
100
AcDbCircle
 10
43.0
 20
-68.75
 30
0.0
 40
7.0
100
AcDbArc
 50
270.0
 51
0.0
  0
LINE
  5
69A8
330
A
100
AcDbEntity
  8
0
  6
Continuous
 62
     7
100
AcDbLine
 10
-23.00000000000034
 20
-67.75
 30
0.0
 11
50.0
 21
-67.75
 31
0.0
  0
LINE
  5
69A9
330
A
100
AcDbEntity
  8
0
  6
Continuous
 62
     9
100
AcDbLine
 10
7.72806300000002
 20
-56.75
 30
0.0
 11
7.72806300000002
 21
-56.25
 31
0.0
  0
LINE
  5
69AA
330
A
100
AcDbEntity
  8
0
  6
Continuous
 62
     7
100
AcDbLine
 10
3.283882000000062
 20
-56.75
 30
0.0
 11
3.283882000000062
 21
-56.25
 31
0.0
  0
LINE
  5
69AB
330
A
100
AcDbEntity
  8
0
  6
Continuous
 62
     7
100
AcDbLine
 10
-2.283882000000289
 20
-56.25
 30
0.0
 11
-2.283882000000289
 21
-56.75
 31
0.0
  0
LINE
  5
69AC
330
A
100
AcDbEntity
  8
0
  6
Continuous
 62
     7
100
AcDbLine
 10
-7.5
 20
-56.75
 30
0.0
 11
-7.5
 21
-56.25
 31
0.0
  0
LINE
  5
69AD
330
A
100
AcDbEntity
  8
0
  6
Continuous
 62
     7
100
AcDbLine
 10
12.5
 20
-56.25
 30
0.0
 11
12.5
 21
-56.75
 31
0.0
  0
LINE
  5
69AE
330
A
100
AcDbEntity
  8
0
  6
Continuous
 62
     7
100
AcDbLine
 10
20.5
 20
-56.75
 30
0.0
 11
20.5
 21
-56.25
 31
0.0
  0
LINE
  5
69AF
330
A
100
AcDbEntity
  8
0
  6
Continuous
 62
     7
100
AcDbLine
 10
48.49999999999988
 20
-55.25
 30
0.0
 11
50.0
 21
-55.25
 31
0.0
  0
LINE
  5
69B0
330
A
100
AcDbEntity
  8
0
  6
Continuous
 62
     7
100
AcDbLine
 10
50.0
 20
-67.75
 30
0.0
 11
50.0
 21
-55.25
 31
0.0
  0
LINE
  5
69B1
330
A
100
AcDbEntity
  8
0
  6
Continuous
 62
     7
100
AcDbLine
 10
56.49999999999988
 20
-70.75000000000017
 30
0.0
 11
56.49999999999988
 21
-67.75
 31
0.0
  0
LINE
  5
69B2
330
A
100
AcDbEntity
  8
0
  6
Continuous
 62
     7
100
AcDbLine
 10
129.355641
 20
-71.17002900000017
 30
0.0
 11
129.5
 21
-69.51999999999998
 31
0.0
  0
ARC
  5
69B3
330
A
100
AcDbEntity
  8
0
  6
Continuous
 62
     7
100
AcDbCircle
 10
127.861349
 20
-71.03929500000004
 30
0.0
 40
1.5
100
AcDbArc
 50
308.8119690000024
 51
354.9999999999999
  0
ARC
  5
69B4
330
A
100
AcDbEntity
  8
0
  6
Continuous
 62
     7
100
AcDbCircle
 10
119.3999999999998
 20
-60.51999999999998
 30
0.0
 40
15.0
100
AcDbArc
 50
279.9701040000015
 51
308.8119690000024
  0
LINE
  5
69B5
330
A
100
AcDbEntity
  8
0
  6
Continuous
 62
     7
100
AcDbLine
 10
119.3999999999998
 20
-75.75
 30
0.0
 11
121.9970140000001
 21
-75.29347300000018
 31
0.0
  0
LINE
  5
69B6
330
A
100
AcDbEntity
  8
0
  6
Continuous
 62
     7
100
AcDbLine
 10
61.5
 20
-75.75
 30
0.0
 11
119.3999999999998
 21
-75.75
 31
0.0
  0
ARC
  5
69B7
330
A
100
AcDbEntity
  8
0
  6
Continuous
 62
     7
100
AcDbCircle
 10
61.5
 20
-70.75000000000017
 30
0.0
 40
5.0
100
AcDbArc
 50
180.0
 51
270.0
  0
LINE
  5
69B8
330
A
100
AcDbEntity
  8
0
  6
Continuous
 62
     7
100
AcDbLine
 10
56.49999999999988
 20
-67.75
 30
0.0
 11
129.5
 21
-67.75
 31
0.0
  0
LINE
  5
69B9
330
A
100
AcDbEntity
  8
0
  6
Continuous
 62
     7
100
AcDbLine
 10
129.5
 20
-69.51999999999998
 30
0.0
 11
129.5
 21
-67.75
 31
0.0
  0
LINE
  5
69BA
330
A
100
AcDbEntity
  8
0
  6
Continuous
 62
     9
100
AcDbLine
 10
98.77193699999986
 20
-56.75
 30
0.0
 11
98.77193699999986
 21
-56.25
 31
0.0
  0
LINE
  5
69BB
330
A
100
AcDbEntity
  8
0
  6
Continuous
 62
     7
100
AcDbLine
 10
103.2161179999997
 20
-56.25
 30
0.0
 11
103.2161179999997
 21
-56.75
 31
0.0
  0
LINE
  5
69BC
330
A
100
AcDbEntity
  8
0
  6
Continuous
 62
     7
100
AcDbLine
 10
114.0
 20
-56.75
 30
0.0
 11
114.0
 21
-56.25
 31
0.0
  0
LINE
  5
69BD
330
A
100
AcDbEntity
  8
0
  6
Continuous
 62
     7
100
AcDbLine
 10
108.783882
 20
-56.75
 30
0.0
 11
108.783882
 21
-56.25
 31
0.0
  0
LINE
  5
69BE
330
A
100
AcDbEntity
  8
0
  6
Continuous
 62
     9
100
AcDbLine
 10
93.35088900000005
 20
-56.75
 30
0.0
 11
93.35088900000005
 21
-56.25
 31
0.0
  0
LINE
  5
69BF
330
A
100
AcDbEntity
  8
0
  6
Continuous
 62
     7
100
AcDbLine
 10
56.49999999999988
 20
-55.25
 30
0.0
 11
58.0
 21
-55.25
 31
0.0
  0
LINE
  5
69C0
330
A
100
AcDbEntity
  8
0
  6
Continuous
 62
     7
100
AcDbLine
 10
56.49999999999988
 20
-67.75
 30
0.0
 11
56.49999999999988
 21
-55.25
 31
0.0
  0
LINE
  5
69C1
330
A
100
AcDbEntity
  8
0
  6
Continuous
 62
     7
100
AcDbLine
 10
56.49999999999988
 20
-75.25000000000017
 30
0.0
 11
57.0
 21
-75.75
 31
0.0
  0
LINE
  5
69C2
330
A
100
AcDbEntity
  8
0
  6
Continuous
 62
     7
100
AcDbLine
 10
61.5
 20
-75.75
 30
0.0
 11
57.0
 21
-75.75
 31
0.0
  0
LINE
  5
69C3
330
A
100
AcDbEntity
  8
0
  6
Continuous
 62
     7
100
AcDbLine
 10
56.49999999999988
 20
-75.25000000000017
 30
0.0
 11
56.49999999999988
 21
-70.75000000000017
 31
0.0
  0
LINE
  5
69C4
330
A
100
AcDbEntity
  8
0
  6
Continuous
 62
     7
100
AcDbLine
 10
57.0
 20
-46.74999999999999
 30
0.0
 11
56.49999999999988
 21
-47.25
 31
0.0
  0
LINE
  5
69C5
330
A
100
AcDbEntity
  8
0
  6
Continuous
 62
     7
100
AcDbLine
 10
60.90192400000001
 20
-46.74999999999999
 30
0.0
 11
57.0
 21
-46.74999999999999
 31
0.0
  0
LINE
  5
69C6
330
A
100
AcDbEntity
  8
0
  6
Continuous
 62
     7
100
AcDbLine
 10
56.49999999999988
 20
-47.25
 30
0.0
 11
56.49999999999988
 21
-53.25
 31
0.0
  0
LINE
  5
69C7
330
A
100
AcDbEntity
  8
0
  6
Continuous
 62
     7
100
AcDbLine
 10
56.49999999999988
 20
-54.25000000000011
 30
0.0
 11
56.49999999999988
 21
-55.25
 31
0.0
  0
ARC
  5
69C8
330
A
100
AcDbEntity
  8
0
  6
Continuous
 62
     7
100
AcDbCircle
 10
127.861349
 20
-50.96070499999996
 30
0.0
 40
1.5
100
AcDbArc
 50
5.000000000000026
 51
51.18803099999756
  0
LINE
  5
69C9
330
A
100
AcDbEntity
  8
0
  6
Continuous
 62
     7
100
AcDbLine
 10
129.5
 20
-52.48000000000001
 30
0.0
 11
129.355641
 21
-50.829971
 31
0.0
  0
LINE
  5
69CA
330
A
100
AcDbEntity
  8
0
  6
Continuous
 62
     7
100
AcDbLine
 10
129.5
 20
-54.25000000000011
 30
0.0
 11
129.5
 21
-52.48000000000001
 31
0.0
  0
ARC
  5
69CB
330
A
100
AcDbEntity
  8
0
  6
Continuous
 62
     7
100
AcDbCircle
 10
119.3999999999998
 20
-61.48000000000013
 30
0.0
 40
15.0
100
AcDbArc
 50
51.18803099999756
 51
80.02989599999855
  0
LINE
  5
69CC
330
A
100
AcDbEntity
  8
0
  6
Continuous
 62
     7
100
AcDbLine
 10
63.5
 20
-46.25000000000011
 30
0.0
 11
119.3999999999998
 21
-46.25000000000011
 31
0.0
  0
ARC
  5
69CD
330
A
100
AcDbEntity
  8
0
  6
Continuous
 62
     7
100
AcDbCircle
 10
63.5
 20
-53.25
 30
0.0
 40
7.0
100
AcDbArc
 50
90.0
 51
180.0
  0
LINE
  5
69CE
330
A
100
AcDbEntity
  8
0
  6
Continuous
 62
     7
100
AcDbLine
 10
56.49999999999988
 20
-54.25000000000011
 30
0.0
 11
56.49999999999988
 21
-53.25
 31
0.0
  0
LINE
  5
69CF
330
A
100
AcDbEntity
  8
0
  6
Continuous
 62
     7
100
AcDbLine
 10
121.9970140000001
 20
-46.70652699999993
 30
0.0
 11
119.3999999999998
 21
-46.25000000000011
 31
0.0
  0
LINE
  5
69D0
330
A
100
AcDbEntity
  8
0
  6
Continuous
 62
     7
100
AcDbLine
 10
56.49999999999988
 20
-54.25000000000011
 30
0.0
 11
129.5
 21
-54.25000000000011
 31
0.0
  0
LINE
  5
69D1
330
A
100
AcDbEntity
  8
0
  6
Continuous
 62
     7
100
AcDbLine
 10
-23.00000000000034
 20
-54.25000000000011
 30
0.0
 11
-23.00000000000034
 21
-52.48000000000001
 31
0.0
  0
LINE
  5
69D2
330
A
100
AcDbEntity
  8
0
  6
Continuous
 62
     7
100
AcDbLine
 10
-22.8556410000001
 20
-50.829971
 30
0.0
 11
-23.00000000000034
 21
-52.48000000000001
 31
0.0
  0
ARC
  5
69D3
330
A
100
AcDbEntity
  8
0
  6
Continuous
 62
     7
100
AcDbCircle
 10
-21.36134900000002
 20
-50.96070499999996
 30
0.0
 40
1.5
100
AcDbArc
 50
128.8119690000024
 51
175.0
  0
ARC
  5
69D4
330
A
100
AcDbEntity
  8
0
  6
Continuous
 62
     7
100
AcDbCircle
 10
-12.89999999999998
 20
-61.48000000000013
 30
0.0
 40
15.0
100
AcDbArc
 50
99.97010400000142
 51
128.8119690000024
  0
LINE
  5
69D5
330
A
100
AcDbEntity
  8
0
  6
Continuous
 62
     7
100
AcDbLine
 10
-12.89999999999998
 20
-46.25000000000011
 30
0.0
 11
-15.49701399999992
 21
-46.70652699999993
 31
0.0
  0
LINE
  5
69D6
330
A
100
AcDbEntity
  8
0
  6
Continuous
 62
     7
100
AcDbLine
 10
-12.89999999999998
 20
-46.25000000000011
 30
0.0
 11
43.0
 21
-46.25000000000011
 31
0.0
  0
LINE
  5
69D7
330
A
100
AcDbEntity
  8
0
  6
Continuous
 62
     7
100
AcDbLine
 10
-23.00000000000034
 20
-54.25000000000011
 30
0.0
 11
50.0
 21
-54.25000000000011
 31
0.0
  0
LINE
  5
69D8
330
A
100
AcDbEntity
  8
0
  6
Continuous
 62
     7
100
AcDbLine
 10
50.0
 20
-54.25000000000011
 30
0.0
 11
50.0
 21
-53.25
 31
0.0
  0
ARC
  5
69D9
330
A
100
AcDbEntity
  8
0
  6
Continuous
 62
     7
100
AcDbCircle
 10
43.0
 20
-53.25
 30
0.0
 40
7.0
100
AcDbArc
 50
0.0
 51
90.0
  0
ARC
  5
69DA
330
A
100
AcDbEntity
  8
0
  6
Continuous
 62
     7
100
AcDbCircle
 10
16.5
 20
-61.25
 30
0.0
 40
5.75
100
AcDbArc
 50
119.5918459999981
 51
128.4999500000014
  0
ARC
  5
69DB
330
A
100
AcDbEntity
  8
0
  6
Continuous
 62
     7
100
AcDbCircle
 10
16.5
 20
-61.25
 30
0.0
 40
5.75
100
AcDbArc
 50
51.50004999999863
 51
60.40815400000191
  0
ARC
  5
69DC
330
A
100
AcDbEntity
  8
0
  6
Continuous
 62
     7
100
AcDbCircle
 10
16.5
 20
-61.25
 30
0.0
 40
5.25
100
AcDbArc
 50
58.99728099999999
 51
72.24720999999873
  0
ARC
  5
69DD
330
A
100
AcDbEntity
  8
0
  6
Continuous
 62
     7
100
AcDbCircle
 10
16.5
 20
-61.25
 30
0.0
 40
5.25
100
AcDbArc
 50
107.7527900000012
 51
121.002719
  0
ARC
  5
69DE
330
A
100
AcDbEntity
  8
0
  6
Continuous
 62
     9
100
AcDbCircle
 10
16.5
 20
-61.25
 30
0.0
 40
5.799999999999998
100
AcDbArc
 50
50.88325599999954
 51
59.54968600000039
  0
ARC
  5
69DF
330
A
100
AcDbEntity
  8
0
  6
Continuous
 62
     9
100
AcDbCircle
 10
16.5
 20
-61.25
 30
0.0
 40
5.799999999999998
100
AcDbArc
 50
120.4503139999996
 51
129.1167440000004
  0
ARC
  5
69E0
330
A
100
AcDbEntity
  8
0
  6
Continuous
 62
     7
100
AcDbCircle
 10
16.5
 20
-61.25
 30
0.0
 40
6.0
100
AcDbArc
 50
123.5573100000013
 51
131.8103149999983
  0
ARC
  5
69E1
330
A
100
AcDbEntity
  8
0
  6
Continuous
 62
     7
100
AcDbCircle
 10
16.5
 20
-61.25
 30
0.0
 40
6.0
100
AcDbArc
 50
48.18968500000163
 51
56.44268999999862
  0
LINE
  5
69E2
330
A
100
AcDbEntity
  8
0
  6
Continuous
 62
     7
100
AcDbLine
 10
56.49999999999988
 20
-75.25000000000017
 30
0.0
 11
56.49999999999988
 21
-70.75000000000017
 31
0.0
  0
LINE
  5
69E3
330
A
100
AcDbEntity
  8
0
  6
Continuous
 62
     7
100
AcDbLine
 10
56.49999999999988
 20
-55.25
 30
0.0
 11
56.49999999999988
 21
-54.25000000000011
 31
0.0
  0
LINE
  5
69E4
330
A
100
AcDbEntity
  8
0
  6
Continuous
 62
     7
100
AcDbLine
 10
56.49999999999988
 20
-53.25
 30
0.0
 11
56.49999999999988
 21
-47.25
 31
0.0
  0
LINE
  5
69E5
330
A
100
AcDbEntity
  8
0
  6
Continuous
 62
     7
100
AcDbLine
 10
56.0
 20
-75.75
 30
0.0
 11
56.49999999999988
 21
-75.25000000000017
 31
0.0
  0
LINE
  5
69E6
330
A
100
AcDbEntity
  8
0
  6
Continuous
 62
     7
100
AcDbLine
 10
50.0
 20
-75.25000000000017
 30
0.0
 11
50.49999999999989
 21
-75.75
 31
0.0
  0
LINE
  5
69E7
330
A
100
AcDbEntity
  8
0
  6
Continuous
 62
     7
100
AcDbLine
 10
49.49999999999988
 20
-75.75
 30
0.0
 11
50.0
 21
-75.25000000000017
 31
0.0
  0
LINE
  5
69E8
330
A
100
AcDbEntity
  8
0
  6
Continuous
 62
     7
100
AcDbLine
 10
56.0
 20
-46.74999999999999
 30
0.0
 11
50.49999999999989
 21
-46.74999999999999
 31
0.0
  0
LINE
  5
69E9
330
A
100
AcDbEntity
  8
0
  6
Continuous
 62
     7
100
AcDbLine
 10
50.0
 20
-47.25
 30
0.0
 11
49.49999999999988
 21
-46.74999999999999
 31
0.0
  0
LINE
  5
69EA
330
A
100
AcDbEntity
  8
0
  6
Continuous
 62
     7
100
AcDbLine
 10
50.49999999999989
 20
-46.74999999999999
 30
0.0
 11
50.0
 21
-47.25
 31
0.0
  0
LINE
  5
69EB
330
A
100
AcDbEntity
  8
0
  6
Continuous
 62
     7
100
AcDbLine
 10
43.0
 20
-75.75
 30
0.0
 11
49.49999999999988
 21
-75.75
 31
0.0
  0
LINE
  5
69EC
330
A
100
AcDbEntity
  8
0
  6
Continuous
 62
     7
100
AcDbLine
 10
56.49999999999988
 20
-47.25
 30
0.0
 11
56.0
 21
-46.74999999999999
 31
0.0
  0
LINE
  5
69ED
330
A
100
AcDbEntity
  8
0
  6
Continuous
 62
     7
100
AcDbLine
 10
49.49999999999988
 20
-46.74999999999999
 30
0.0
 11
45.59807599999987
 21
-46.74999999999999
 31
0.0
  0
LINE
  5
69EE
330
A
100
AcDbEntity
  8
0
  6
Continuous
 62
     7
100
AcDbLine
 10
50.49999999999989
 20
-75.75
 30
0.0
 11
56.0
 21
-75.75
 31
0.0
  0
LINE
  5
69EF
330
A
100
AcDbEntity
  8
0
  6
Continuous
 62
     9
100
AcDbLine
 10
-16.0
 20
132.25
 30
0.0
 11
-16.0
 21
133.2499999999996
 31
0.0
  0
LINE
  5
69F0
330
A
100
AcDbEntity
  8
0
  6
Continuous
 62
     7
100
AcDbLine
 10
-21.5
 20
132.25
 30
0.0
 11
-21.5
 21
133.2499999999996
 31
0.0
  0
LINE
  5
69F1
330
A
100
AcDbEntity
  8
0
  6
Continuous
 62
     7
100
AcDbLine
 10
-16.0
 20
133.2499999999996
 30
0.0
 11
-21.5
 21
133.2499999999996
 31
0.0
  0
LINE
  5
69F2
330
A
100
AcDbEntity
  8
0
  6
Continuous
 62
     9
100
AcDbLine
 10
43.0
 20
132.25
 30
0.0
 11
43.0
 21
133.2499999999996
 31
0.0
  0
LINE
  5
69F3
330
A
100
AcDbEntity
  8
0
  6
Continuous
 62
     7
100
AcDbLine
 10
43.0
 20
133.2499999999996
 30
0.0
 11
-16.0
 21
133.2499999999996
 31
0.0
  0
LINE
  5
69F4
330
A
100
AcDbEntity
  8
0
  6
Continuous
 62
     7
100
AcDbLine
 10
48.49999999999988
 20
132.25
 30
0.0
 11
48.49999999999988
 21
133.2499999999996
 31
0.0
  0
LINE
  5
69F5
330
A
100
AcDbEntity
  8
0
  6
Continuous
 62
     7
100
AcDbLine
 10
48.49999999999988
 20
133.2499999999996
 30
0.0
 11
43.0
 21
133.2499999999996
 31
0.0
  0
LINE
  5
69F6
330
A
100
AcDbEntity
  8
0
  6
Continuous
 62
     9
100
AcDbLine
 10
122.4999999999999
 20
132.25
 30
0.0
 11
122.4999999999999
 21
133.2499999999996
 31
0.0
  0
LINE
  5
69F7
330
A
100
AcDbEntity
  8
0
  6
Continuous
 62
     9
100
AcDbLine
 10
63.5
 20
132.25
 30
0.0
 11
63.5
 21
133.2499999999996
 31
0.0
  0
LINE
  5
69F8
330
A
100
AcDbEntity
  8
0
  6
Continuous
 62
     7
100
AcDbLine
 10
122.4999999999999
 20
133.2499999999996
 30
0.0
 11
63.5
 21
133.2499999999996
 31
0.0
  0
LINE
  5
69F9
330
A
100
AcDbEntity
  8
0
  6
Continuous
 62
     7
100
AcDbLine
 10
128.0
 20
132.25
 30
0.0
 11
128.0
 21
133.2499999999996
 31
0.0
  0
LINE
  5
69FA
330
A
100
AcDbEntity
  8
0
  6
Continuous
 62
     7
100
AcDbLine
 10
128.0
 20
133.2499999999996
 30
0.0
 11
122.4999999999999
 21
133.2499999999996
 31
0.0
  0
LINE
  5
69FB
330
A
100
AcDbEntity
  8
0
  6
Continuous
 62
     7
100
AcDbLine
 10
58.0
 20
132.25
 30
0.0
 11
58.0
 21
133.2499999999996
 31
0.0
  0
LINE
  5
69FC
330
A
100
AcDbEntity
  8
0
  6
Continuous
 62
     7
100
AcDbLine
 10
63.5
 20
133.2499999999996
 30
0.0
 11
58.0
 21
133.2499999999996
 31
0.0
  0
LINE
  5
69FD
330
A
100
AcDbEntity
  8
0
  6
Continuous
 62
     7
100
AcDbLine
 10
-21.5
 20
145.7499999999996
 30
0.0
 11
-21.5
 21
145.2499999999998
 31
0.0
  0
LINE
  5
69FE
330
A
100
AcDbEntity
  8
0
  6
Continuous
 62
     9
100
AcDbLine
 10
-16.0
 20
145.7499999999996
 30
0.0
 11
-16.0
 21
145.2499999999998
 31
0.0
  0
LINE
  5
69FF
330
A
100
AcDbEntity
  8
0
  6
Continuous
 62
     7
100
AcDbLine
 10
-21.5
 20
145.2499999999998
 30
0.0
 11
-16.0
 21
145.2499999999998
 31
0.0
  0
LINE
  5
6A00
330
A
100
AcDbEntity
  8
0
  6
Continuous
 62
     9
100
AcDbLine
 10
43.0
 20
145.7499999999996
 30
0.0
 11
43.0
 21
145.2499999999998
 31
0.0
  0
LINE
  5
6A01
330
A
100
AcDbEntity
  8
0
  6
Continuous
 62
     7
100
AcDbLine
 10
-16.0
 20
145.2499999999998
 30
0.0
 11
43.0
 21
145.2499999999998
 31
0.0
  0
LINE
  5
6A02
330
A
100
AcDbEntity
  8
0
  6
Continuous
 62
     7
100
AcDbLine
 10
48.49999999999988
 20
145.7499999999996
 30
0.0
 11
48.49999999999988
 21
145.2499999999998
 31
0.0
  0
LINE
  5
6A03
330
A
100
AcDbEntity
  8
0
  6
Continuous
 62
     7
100
AcDbLine
 10
43.0
 20
145.2499999999998
 30
0.0
 11
48.49999999999988
 21
145.2499999999998
 31
0.0
  0
LINE
  5
6A04
330
A
100
AcDbEntity
  8
0
  6
Continuous
 62
     7
100
AcDbLine
 10
-9.0
 20
144.25
 30
0.0
 11
-9.0
 21
134.75
 31
0.0
  0
LINE
  5
6A05
330
A
100
AcDbEntity
  8
0
  6
Continuous
 62
     9
100
AcDbLine
 10
9.083324999999717
 20
144.25
 30
0.0
 11
9.083324999999717
 21
134.75
 31
0.0
  0
LINE
  5
6A06
330
A
100
AcDbEntity
  8
0
  6
Continuous
 62
     7
100
AcDbLine
 10
-9.0
 20
134.75
 30
0.0
 11
9.083324999999717
 21
134.75
 31
0.0
  0
LINE
  5
6A07
330
A
100
AcDbEntity
  8
0
  6
Continuous
 62
     9
100
AcDbLine
 10
13.14911100000006
 20
144.25
 30
0.0
 11
13.14911100000006
 21
134.75
 31
0.0
  0
LINE
  5
6A08
330
A
100
AcDbEntity
  8
0
  6
Continuous
 62
     7
100
AcDbLine
 10
13.14911100000006
 20
134.75
 30
0.0
 11
9.083324999999717
 21
134.75
 31
0.0
  0
LINE
  5
6A09
330
A
100
AcDbEntity
  8
0
  6
Continuous
 62
     7
100
AcDbLine
 10
43.0
 20
144.25
 30
0.0
 11
43.0
 21
134.75
 31
0.0
  0
LINE
  5
6A0A
330
A
100
AcDbEntity
  8
0
  6
Continuous
 62
     7
100
AcDbLine
 10
13.14911100000006
 20
134.75
 30
0.0
 11
43.0
 21
134.75
 31
0.0
  0
LINE
  5
6A0B
330
A
100
AcDbEntity
  8
0
  6
Continuous
 62
     9
100
AcDbLine
 10
63.5
 20
145.7499999999996
 30
0.0
 11
63.5
 21
145.2499999999998
 31
0.0
  0
LINE
  5
6A0C
330
A
100
AcDbEntity
  8
0
  6
Continuous
 62
     9
100
AcDbLine
 10
122.4999999999999
 20
145.7499999999996
 30
0.0
 11
122.4999999999999
 21
145.2499999999998
 31
0.0
  0
LINE
  5
6A0D
330
A
100
AcDbEntity
  8
0
  6
Continuous
 62
     7
100
AcDbLine
 10
63.5
 20
145.2499999999998
 30
0.0
 11
122.4999999999999
 21
145.2499999999998
 31
0.0
  0
LINE
  5
6A0E
330
A
100
AcDbEntity
  8
0
  6
Continuous
 62
     7
100
AcDbLine
 10
128.0
 20
145.7499999999996
 30
0.0
 11
128.0
 21
145.2499999999998
 31
0.0
  0
LINE
  5
6A0F
330
A
100
AcDbEntity
  8
0
  6
Continuous
 62
     7
100
AcDbLine
 10
122.4999999999999
 20
145.2499999999998
 30
0.0
 11
128.0
 21
145.2499999999998
 31
0.0
  0
LINE
  5
6A10
330
A
100
AcDbEntity
  8
0
  6
Continuous
 62
     7
100
AcDbLine
 10
58.0
 20
145.7499999999996
 30
0.0
 11
58.0
 21
145.2499999999998
 31
0.0
  0
LINE
  5
6A11
330
A
100
AcDbEntity
  8
0
  6
Continuous
 62
     7
100
AcDbLine
 10
58.0
 20
145.2499999999998
 30
0.0
 11
63.5
 21
145.2499999999998
 31
0.0
  0
LINE
  5
6A12
330
A
100
AcDbEntity
  8
0
  6
Continuous
 62
     9
100
AcDbLine
 10
97.41667500000005
 20
144.25
 30
0.0
 11
97.41667500000005
 21
134.75
 31
0.0
  0
LINE
  5
6A13
330
A
100
AcDbEntity
  8
0
  6
Continuous
 62
     7
100
AcDbLine
 10
115.4999999999999
 20
144.25
 30
0.0
 11
115.4999999999999
 21
134.75
 31
0.0
  0
LINE
  5
6A14
330
A
100
AcDbEntity
  8
0
  6
Continuous
 62
     7
100
AcDbLine
 10
97.41667500000005
 20
134.75
 30
0.0
 11
115.4999999999999
 21
134.75
 31
0.0
  0
LINE
  5
6A15
330
A
100
AcDbEntity
  8
0
  6
Continuous
 62
     9
100
AcDbLine
 10
93.35088900000005
 20
144.25
 30
0.0
 11
93.35088900000005
 21
134.75
 31
0.0
  0
LINE
  5
6A16
330
A
100
AcDbEntity
  8
0
  6
Continuous
 62
     7
100
AcDbLine
 10
97.41667500000005
 20
134.75
 30
0.0
 11
93.35088900000005
 21
134.75
 31
0.0
  0
LINE
  5
6A17
330
A
100
AcDbEntity
  8
0
  6
Continuous
 62
     7
100
AcDbLine
 10
63.5
 20
144.25
 30
0.0
 11
63.5
 21
134.75
 31
0.0
  0
LINE
  5
6A18
330
A
100
AcDbEntity
  8
0
  6
Continuous
 62
     7
100
AcDbLine
 10
63.5
 20
134.75
 30
0.0
 11
93.35088900000005
 21
134.75
 31
0.0
  0
LINE
  5
6A19
330
A
100
AcDbEntity
  8
0
  6
Continuous
 62
     9
100
AcDbLine
 10
-16.0
 20
132.25
 30
0.0
 11
-16.0
 21
133.2499999999996
 31
0.0
  0
LINE
  5
6A1A
330
A
100
AcDbEntity
  8
0
  6
Continuous
 62
     9
100
AcDbLine
 10
-16.0
 20
133.2499999999996
 30
0.0
 11
-16.0
 21
134.25
 31
0.0
  0
LINE
  5
6A1B
330
A
100
AcDbEntity
  8
0
  6
Continuous
 62
     7
100
AcDbLine
 10
-21.5
 20
132.25
 30
0.0
 11
-21.5
 21
133.2499999999996
 31
0.0
  0
LINE
  5
6A1C
330
A
100
AcDbEntity
  8
0
  6
Continuous
 62
     7
100
AcDbLine
 10
-21.5
 20
133.2499999999996
 30
0.0
 11
-21.5
 21
134.25
 31
0.0
  0
LINE
  5
6A1D
330
A
100
AcDbEntity
  8
0
  6
Continuous
 62
     7
100
AcDbLine
 10
-16.0
 20
134.25
 30
0.0
 11
-21.5
 21
134.25
 31
0.0
  0
LINE
  5
6A1E
330
A
100
AcDbEntity
  8
0
  6
Continuous
 62
     9
100
AcDbLine
 10
43.0
 20
132.25
 30
0.0
 11
43.0
 21
133.2499999999996
 31
0.0
  0
LINE
  5
6A1F
330
A
100
AcDbEntity
  8
0
  6
Continuous
 62
     9
100
AcDbLine
 10
43.0
 20
133.2499999999996
 30
0.0
 11
43.0
 21
134.25
 31
0.0
  0
LINE
  5
6A20
330
A
100
AcDbEntity
  8
0
  6
Continuous
 62
     7
100
AcDbLine
 10
43.0
 20
134.25
 30
0.0
 11
-16.0
 21
134.25
 31
0.0
  0
LINE
  5
6A21
330
A
100
AcDbEntity
  8
0
  6
Continuous
 62
     7
100
AcDbLine
 10
48.49999999999988
 20
132.25
 30
0.0
 11
48.49999999999988
 21
133.2499999999996
 31
0.0
  0
LINE
  5
6A22
330
A
100
AcDbEntity
  8
0
  6
Continuous
 62
     7
100
AcDbLine
 10
48.49999999999988
 20
133.2499999999996
 30
0.0
 11
48.49999999999988
 21
134.25
 31
0.0
  0
LINE
  5
6A23
330
A
100
AcDbEntity
  8
0
  6
Continuous
 62
     7
100
AcDbLine
 10
48.49999999999988
 20
134.25
 30
0.0
 11
43.0
 21
134.25
 31
0.0
  0
LINE
  5
6A24
330
A
100
AcDbEntity
  8
0
  6
Continuous
 62
     9
100
AcDbLine
 10
122.4999999999999
 20
132.25
 30
0.0
 11
122.4999999999999
 21
133.2499999999996
 31
0.0
  0
LINE
  5
6A25
330
A
100
AcDbEntity
  8
0
  6
Continuous
 62
     9
100
AcDbLine
 10
122.4999999999999
 20
133.2499999999996
 30
0.0
 11
122.4999999999999
 21
134.25
 31
0.0
  0
LINE
  5
6A26
330
A
100
AcDbEntity
  8
0
  6
Continuous
 62
     9
100
AcDbLine
 10
63.5
 20
132.25
 30
0.0
 11
63.5
 21
133.2499999999996
 31
0.0
  0
LINE
  5
6A27
330
A
100
AcDbEntity
  8
0
  6
Continuous
 62
     9
100
AcDbLine
 10
63.5
 20
133.2499999999996
 30
0.0
 11
63.5
 21
134.25
 31
0.0
  0
LINE
  5
6A28
330
A
100
AcDbEntity
  8
0
  6
Continuous
 62
     7
100
AcDbLine
 10
122.4999999999999
 20
134.25
 30
0.0
 11
63.5
 21
134.25
 31
0.0
  0
LINE
  5
6A29
330
A
100
AcDbEntity
  8
0
  6
Continuous
 62
     7
100
AcDbLine
 10
128.0
 20
132.25
 30
0.0
 11
128.0
 21
133.2499999999996
 31
0.0
  0
LINE
  5
6A2A
330
A
100
AcDbEntity
  8
0
  6
Continuous
 62
     7
100
AcDbLine
 10
128.0
 20
133.2499999999996
 30
0.0
 11
128.0
 21
134.25
 31
0.0
  0
LINE
  5
6A2B
330
A
100
AcDbEntity
  8
0
  6
Continuous
 62
     7
100
AcDbLine
 10
128.0
 20
134.25
 30
0.0
 11
122.4999999999999
 21
134.25
 31
0.0
  0
LINE
  5
6A2C
330
A
100
AcDbEntity
  8
0
  6
Continuous
 62
     7
100
AcDbLine
 10
58.0
 20
132.25
 30
0.0
 11
58.0
 21
133.2499999999996
 31
0.0
  0
LINE
  5
6A2D
330
A
100
AcDbEntity
  8
0
  6
Continuous
 62
     7
100
AcDbLine
 10
58.0
 20
133.2499999999996
 30
0.0
 11
58.0
 21
134.25
 31
0.0
  0
LINE
  5
6A2E
330
A
100
AcDbEntity
  8
0
  6
Continuous
 62
     7
100
AcDbLine
 10
63.5
 20
134.25
 30
0.0
 11
58.0
 21
134.25
 31
0.0
  0
LINE
  5
6A2F
330
A
100
AcDbEntity
  8
0
  6
Continuous
 62
     7
100
AcDbLine
 10
-21.5
 20
145.7499999999996
 30
0.0
 11
-21.5
 21
145.2499999999998
 31
0.0
  0
LINE
  5
6A30
330
A
100
AcDbEntity
  8
0
  6
Continuous
 62
     7
100
AcDbLine
 10
-21.5
 20
145.2499999999998
 30
0.0
 11
-21.5
 21
144.25
 31
0.0
  0
LINE
  5
6A31
330
A
100
AcDbEntity
  8
0
  6
Continuous
 62
     9
100
AcDbLine
 10
-16.0
 20
145.7499999999996
 30
0.0
 11
-16.0
 21
145.2499999999998
 31
0.0
  0
LINE
  5
6A32
330
A
100
AcDbEntity
  8
0
  6
Continuous
 62
     9
100
AcDbLine
 10
-16.0
 20
145.2499999999998
 30
0.0
 11
-16.0
 21
144.25
 31
0.0
  0
LINE
  5
6A33
330
A
100
AcDbEntity
  8
0
  6
Continuous
 62
     7
100
AcDbLine
 10
-21.5
 20
144.25
 30
0.0
 11
-16.0
 21
144.25
 31
0.0
  0
LINE
  5
6A34
330
A
100
AcDbEntity
  8
0
  6
Continuous
 62
     9
100
AcDbLine
 10
43.0
 20
145.7499999999996
 30
0.0
 11
43.0
 21
145.2499999999998
 31
0.0
  0
LINE
  5
6A35
330
A
100
AcDbEntity
  8
0
  6
Continuous
 62
     9
100
AcDbLine
 10
43.0
 20
145.2499999999998
 30
0.0
 11
43.0
 21
144.25
 31
0.0
  0
LINE
  5
6A36
330
A
100
AcDbEntity
  8
0
  6
Continuous
 62
     7
100
AcDbLine
 10
-16.0
 20
144.25
 30
0.0
 11
43.0
 21
144.25
 31
0.0
  0
LINE
  5
6A37
330
A
100
AcDbEntity
  8
0
  6
Continuous
 62
     7
100
AcDbLine
 10
48.49999999999988
 20
145.7499999999996
 30
0.0
 11
48.49999999999988
 21
145.2499999999998
 31
0.0
  0
LINE
  5
6A38
330
A
100
AcDbEntity
  8
0
  6
Continuous
 62
     7
100
AcDbLine
 10
48.49999999999988
 20
145.2499999999998
 30
0.0
 11
48.49999999999988
 21
144.25
 31
0.0
  0
LINE
  5
6A39
330
A
100
AcDbEntity
  8
0
  6
Continuous
 62
     7
100
AcDbLine
 10
43.0
 20
144.25
 30
0.0
 11
48.49999999999988
 21
144.25
 31
0.0
  0
LINE
  5
6A3A
330
A
100
AcDbEntity
  8
0
  6
Continuous
 62
     7
100
AcDbLine
 10
-9.0
 20
144.25
 30
0.0
 11
-9.0
 21
134.75
 31
0.0
  0
LINE
  5
6A3B
330
A
100
AcDbEntity
  8
0
  6
Continuous
 62
     9
100
AcDbLine
 10
9.083324999999717
 20
144.25
 30
0.0
 11
9.083324999999717
 21
134.75
 31
0.0
  0
LINE
  5
6A3C
330
A
100
AcDbEntity
  8
0
  6
Continuous
 62
     7
100
AcDbLine
 10
-9.0
 20
134.75
 30
0.0
 11
9.083324999999717
 21
134.75
 31
0.0
  0
LINE
  5
6A3D
330
A
100
AcDbEntity
  8
0
  6
Continuous
 62
     9
100
AcDbLine
 10
13.14911100000006
 20
144.25
 30
0.0
 11
13.14911100000006
 21
134.75
 31
0.0
  0
LINE
  5
6A3E
330
A
100
AcDbEntity
  8
0
  6
Continuous
 62
     7
100
AcDbLine
 10
13.14911100000006
 20
134.75
 30
0.0
 11
9.083324999999717
 21
134.75
 31
0.0
  0
LINE
  5
6A3F
330
A
100
AcDbEntity
  8
0
  6
Continuous
 62
     7
100
AcDbLine
 10
43.0
 20
144.25
 30
0.0
 11
43.0
 21
134.75
 31
0.0
  0
LINE
  5
6A40
330
A
100
AcDbEntity
  8
0
  6
Continuous
 62
     7
100
AcDbLine
 10
13.14911100000006
 20
134.75
 30
0.0
 11
43.0
 21
134.75
 31
0.0
  0
LINE
  5
6A41
330
A
100
AcDbEntity
  8
0
  6
Continuous
 62
     7
100
AcDbLine
 10
58.0
 20
145.7499999999996
 30
0.0
 11
58.0
 21
145.2499999999998
 31
0.0
  0
LINE
  5
6A42
330
A
100
AcDbEntity
  8
0
  6
Continuous
 62
     7
100
AcDbLine
 10
58.0
 20
145.2499999999998
 30
0.0
 11
58.0
 21
144.25
 31
0.0
  0
LINE
  5
6A43
330
A
100
AcDbEntity
  8
0
  6
Continuous
 62
     9
100
AcDbLine
 10
63.5
 20
145.7499999999996
 30
0.0
 11
63.5
 21
145.2499999999998
 31
0.0
  0
LINE
  5
6A44
330
A
100
AcDbEntity
  8
0
  6
Continuous
 62
     9
100
AcDbLine
 10
63.5
 20
145.2499999999998
 30
0.0
 11
63.5
 21
144.25
 31
0.0
  0
LINE
  5
6A45
330
A
100
AcDbEntity
  8
0
  6
Continuous
 62
     7
100
AcDbLine
 10
58.0
 20
144.25
 30
0.0
 11
63.5
 21
144.25
 31
0.0
  0
LINE
  5
6A46
330
A
100
AcDbEntity
  8
0
  6
Continuous
 62
     9
100
AcDbLine
 10
122.4999999999999
 20
145.7499999999996
 30
0.0
 11
122.4999999999999
 21
145.2499999999998
 31
0.0
  0
LINE
  5
6A47
330
A
100
AcDbEntity
  8
0
  6
Continuous
 62
     9
100
AcDbLine
 10
122.4999999999999
 20
145.2499999999998
 30
0.0
 11
122.4999999999999
 21
144.25
 31
0.0
  0
LINE
  5
6A48
330
A
100
AcDbEntity
  8
0
  6
Continuous
 62
     7
100
AcDbLine
 10
63.5
 20
144.25
 30
0.0
 11
122.4999999999999
 21
144.25
 31
0.0
  0
LINE
  5
6A49
330
A
100
AcDbEntity
  8
0
  6
Continuous
 62
     7
100
AcDbLine
 10
128.0
 20
145.7499999999996
 30
0.0
 11
128.0
 21
145.2499999999998
 31
0.0
  0
LINE
  5
6A4A
330
A
100
AcDbEntity
  8
0
  6
Continuous
 62
     7
100
AcDbLine
 10
128.0
 20
145.2499999999998
 30
0.0
 11
128.0
 21
144.25
 31
0.0
  0
LINE
  5
6A4B
330
A
100
AcDbEntity
  8
0
  6
Continuous
 62
     7
100
AcDbLine
 10
122.4999999999999
 20
144.25
 30
0.0
 11
128.0
 21
144.25
 31
0.0
  0
LINE
  5
6A4C
330
A
100
AcDbEntity
  8
0
  6
Continuous
 62
     9
100
AcDbLine
 10
97.41667500000005
 20
144.25
 30
0.0
 11
97.41667500000005
 21
134.75
 31
0.0
  0
LINE
  5
6A4D
330
A
100
AcDbEntity
  8
0
  6
Continuous
 62
     7
100
AcDbLine
 10
115.4999999999999
 20
144.25
 30
0.0
 11
115.4999999999999
 21
134.75
 31
0.0
  0
LINE
  5
6A4E
330
A
100
AcDbEntity
  8
0
  6
Continuous
 62
     7
100
AcDbLine
 10
97.41667500000005
 20
134.75
 30
0.0
 11
115.4999999999999
 21
134.75
 31
0.0
  0
LINE
  5
6A4F
330
A
100
AcDbEntity
  8
0
  6
Continuous
 62
     9
100
AcDbLine
 10
93.35088900000005
 20
144.25
 30
0.0
 11
93.35088900000005
 21
134.75
 31
0.0
  0
LINE
  5
6A50
330
A
100
AcDbEntity
  8
0
  6
Continuous
 62
     7
100
AcDbLine
 10
97.41667500000005
 20
134.75
 30
0.0
 11
93.35088900000005
 21
134.75
 31
0.0
  0
LINE
  5
6A51
330
A
100
AcDbEntity
  8
0
  6
Continuous
 62
     7
100
AcDbLine
 10
63.5
 20
144.25
 30
0.0
 11
63.5
 21
134.75
 31
0.0
  0
LINE
  5
6A52
330
A
100
AcDbEntity
  8
0
  6
Continuous
 62
     7
100
AcDbLine
 10
63.5
 20
134.75
 30
0.0
 11
93.35088900000005
 21
134.75
 31
0.0
  0
ARC
  5
6A53
330
A
100
AcDbEntity
  8
0
  6
Continuous
 62
     7
100
AcDbCircle
 10
16.5
 20
139.25
 30
0.0
 40
6.025
100
AcDbArc
 50
303.9140469999962
 51
311.5980229999981
  0
ARC
  5
6A54
330
A
100
AcDbEntity
  8
0
  6
Continuous
 62
     7
100
AcDbCircle
 10
16.5
 20
139.25
 30
0.0
 40
6.025
100
AcDbArc
 50
228.4019770000019
 51
236.0859530000002
  0
ARC
  5
6A55
330
A
100
AcDbEntity
  8
0
  6
Continuous
 62
     7
100
AcDbCircle
 10
43.0
 20
146.75
 30
0.0
 40
7.0
100
AcDbArc
 50
0.0
 51
90.0
  0
LINE
  5
6A56
330
A
100
AcDbEntity
  8
0
  6
Continuous
 62
     7
100
AcDbLine
 10
50.0
 20
146.75
 30
0.0
 11
50.0
 21
145.7499999999996
 31
0.0
  0
LINE
  5
6A57
330
A
100
AcDbEntity
  8
0
  6
Continuous
 62
     7
100
AcDbLine
 10
50.0
 20
145.7499999999996
 30
0.0
 11
-23.00000000000034
 21
145.7499999999996
 31
0.0
  0
LINE
  5
6A58
330
A
100
AcDbEntity
  8
0
  6
Continuous
 62
     7
100
AcDbLine
 10
-23.00000000000034
 20
147.52
 30
0.0
 11
-23.00000000000034
 21
145.7499999999996
 31
0.0
  0
LINE
  5
6A59
330
A
100
AcDbEntity
  8
0
  6
Continuous
 62
     7
100
AcDbLine
 10
-22.8556410000001
 20
149.170029
 30
0.0
 11
-23.00000000000034
 21
147.52
 31
0.0
  0
ARC
  5
6A5A
330
A
100
AcDbEntity
  8
0
  6
Continuous
 62
     7
100
AcDbCircle
 10
-21.36134900000002
 20
149.039295
 30
0.0
 40
1.5
100
AcDbArc
 50
128.8119690000024
 51
175.0
  0
ARC
  5
6A5B
330
A
100
AcDbEntity
  8
0
  6
Continuous
 62
     7
100
AcDbCircle
 10
-12.89999999999998
 20
138.5199999999996
 30
0.0
 40
15.0
100
AcDbArc
 50
99.97010400000142
 51
128.8119690000024
  0
LINE
  5
6A5C
330
A
100
AcDbEntity
  8
0
  6
Continuous
 62
     7
100
AcDbLine
 10
-12.89999999999998
 20
153.7499999999999
 30
0.0
 11
-15.49701399999992
 21
153.2934730000003
 31
0.0
  0
LINE
  5
6A5D
330
A
100
AcDbEntity
  8
0
  6
Continuous
 62
     7
100
AcDbLine
 10
43.0
 20
153.7499999999999
 30
0.0
 11
-12.89999999999998
 21
153.7499999999999
 31
0.0
  0
LINE
  5
6A5E
330
A
100
AcDbEntity
  8
0
  6
Continuous
 62
     7
100
AcDbLine
 10
-7.5
 20
134.75
 30
0.0
 11
-7.5
 21
134.25
 31
0.0
  0
LINE
  5
6A5F
330
A
100
AcDbEntity
  8
0
  6
Continuous
 62
     7
100
AcDbLine
 10
-2.283882000000289
 20
134.75
 30
0.0
 11
-2.283882000000289
 21
134.25
 31
0.0
  0
LINE
  5
6A60
330
A
100
AcDbEntity
  8
0
  6
Continuous
 62
     7
100
AcDbLine
 10
3.283882000000062
 20
134.25
 30
0.0
 11
3.283882000000062
 21
134.75
 31
0.0
  0
LINE
  5
6A61
330
A
100
AcDbEntity
  8
0
  6
Continuous
 62
     9
100
AcDbLine
 10
7.72806300000002
 20
134.75
 30
0.0
 11
7.72806300000002
 21
134.25
 31
0.0
  0
LINE
  5
6A62
330
A
100
AcDbEntity
  8
0
  6
Continuous
 62
     7
100
AcDbLine
 10
12.5
 20
134.75
 30
0.0
 11
12.5
 21
134.25
 31
0.0
  0
LINE
  5
6A63
330
A
100
AcDbEntity
  8
0
  6
Continuous
 62
     7
100
AcDbLine
 10
50.0
 20
133.2499999999996
 30
0.0
 11
48.49999999999988
 21
133.2499999999996
 31
0.0
  0
LINE
  5
6A64
330
A
100
AcDbEntity
  8
0
  6
Continuous
 62
     7
100
AcDbLine
 10
20.5
 20
134.25
 30
0.0
 11
20.5
 21
134.75
 31
0.0
  0
LINE
  5
6A65
330
A
100
AcDbEntity
  8
0
  6
Continuous
 62
     7
100
AcDbLine
 10
50.0
 20
145.7499999999996
 30
0.0
 11
50.0
 21
133.2499999999996
 31
0.0
  0
LINE
  5
6A66
330
A
100
AcDbEntity
  8
0
  6
Continuous
 62
     7
100
AcDbLine
 10
121.9970140000001
 20
153.2934730000003
 30
0.0
 11
119.3999999999998
 21
153.7499999999999
 31
0.0
  0
LINE
  5
6A67
330
A
100
AcDbEntity
  8
0
  6
Continuous
 62
     7
100
AcDbLine
 10
129.5
 20
147.52
 30
0.0
 11
129.355641
 21
149.170029
 31
0.0
  0
ARC
  5
6A68
330
A
100
AcDbEntity
  8
0
  6
Continuous
 62
     7
100
AcDbCircle
 10
61.5
 20
148.75
 30
0.0
 40
5.0
100
AcDbArc
 50
90.0
 51
180.0
  0
LINE
  5
6A69
330
A
100
AcDbEntity
  8
0
  6
Continuous
 62
     7
100
AcDbLine
 10
119.3999999999998
 20
153.7499999999999
 30
0.0
 11
61.5
 21
153.7499999999999
 31
0.0
  0
ARC
  5
6A6A
330
A
100
AcDbEntity
  8
0
  6
Continuous
 62
     7
100
AcDbCircle
 10
127.861349
 20
149.039295
 30
0.0
 40
1.5
100
AcDbArc
 50
5.000000000000026
 51
51.18803099999756
  0
LINE
  5
6A6B
330
A
100
AcDbEntity
  8
0
  6
Continuous
 62
     7
100
AcDbLine
 10
129.5
 20
147.52
 30
0.0
 11
129.5
 21
145.7499999999996
 31
0.0
  0
LINE
  5
6A6C
330
A
100
AcDbEntity
  8
0
  6
Continuous
 62
     7
100
AcDbLine
 10
129.5
 20
145.7499999999996
 30
0.0
 11
56.49999999999988
 21
145.7499999999996
 31
0.0
  0
LINE
  5
6A6D
330
A
100
AcDbEntity
  8
0
  6
Continuous
 62
     7
100
AcDbLine
 10
56.49999999999988
 20
148.75
 30
0.0
 11
56.49999999999988
 21
145.7499999999996
 31
0.0
  0
ARC
  5
6A6E
330
A
100
AcDbEntity
  8
0
  6
Continuous
 62
     7
100
AcDbCircle
 10
119.3999999999998
 20
138.5199999999996
 30
0.0
 40
15.0
100
AcDbArc
 50
51.18803099999756
 51
80.02989599999855
  0
LINE
  5
6A6F
330
A
100
AcDbEntity
  8
0
  6
Continuous
 62
     7
100
AcDbLine
 10
114.0
 20
134.75
 30
0.0
 11
114.0
 21
134.25
 31
0.0
  0
LINE
  5
6A70
330
A
100
AcDbEntity
  8
0
  6
Continuous
 62
     7
100
AcDbLine
 10
108.783882
 20
134.25
 30
0.0
 11
108.783882
 21
134.75
 31
0.0
  0
LINE
  5
6A71
330
A
100
AcDbEntity
  8
0
  6
Continuous
 62
     9
100
AcDbLine
 10
98.77193699999986
 20
134.75
 30
0.0
 11
98.77193699999986
 21
134.25
 31
0.0
  0
LINE
  5
6A72
330
A
100
AcDbEntity
  8
0
  6
Continuous
 62
     7
100
AcDbLine
 10
103.2161179999997
 20
134.75
 30
0.0
 11
103.2161179999997
 21
134.25
 31
0.0
  0
LINE
  5
6A73
330
A
100
AcDbEntity
  8
0
  6
Continuous
 62
     9
100
AcDbLine
 10
93.35088900000005
 20
134.75
 30
0.0
 11
93.35088900000005
 21
134.25
 31
0.0
  0
LINE
  5
6A74
330
A
100
AcDbEntity
  8
0
  6
Continuous
 62
     7
100
AcDbLine
 10
58.0
 20
133.2499999999996
 30
0.0
 11
56.49999999999988
 21
133.2499999999996
 31
0.0
  0
LINE
  5
6A75
330
A
100
AcDbEntity
  8
0
  6
Continuous
 62
     7
100
AcDbLine
 10
56.49999999999988
 20
145.7499999999996
 30
0.0
 11
56.49999999999988
 21
133.2499999999996
 31
0.0
  0
LINE
  5
6A76
330
A
100
AcDbEntity
  8
0
  6
Continuous
 62
     7
100
AcDbLine
 10
57.0
 20
153.7499999999999
 30
0.0
 11
56.49999999999988
 21
153.25
 31
0.0
  0
LINE
  5
6A77
330
A
100
AcDbEntity
  8
0
  6
Continuous
 62
     7
100
AcDbLine
 10
57.0
 20
153.7499999999999
 30
0.0
 11
61.5
 21
153.7499999999999
 31
0.0
  0
LINE
  5
6A78
330
A
100
AcDbEntity
  8
0
  6
Continuous
 62
     7
100
AcDbLine
 10
56.49999999999988
 20
148.75
 30
0.0
 11
56.49999999999988
 21
153.25
 31
0.0
  0
LINE
  5
6A79
330
A
100
AcDbEntity
  8
0
  6
Continuous
 62
     7
100
AcDbLine
 10
56.49999999999988
 20
125.2499999999996
 30
0.0
 11
57.0
 21
124.7499999999999
 31
0.0
  0
LINE
  5
6A7A
330
A
100
AcDbEntity
  8
0
  6
Continuous
 62
     7
100
AcDbLine
 10
57.0
 20
124.7499999999999
 30
0.0
 11
60.90192400000001
 21
124.7499999999999
 31
0.0
  0
LINE
  5
6A7B
330
A
100
AcDbEntity
  8
0
  6
Continuous
 62
     7
100
AcDbLine
 10
56.49999999999988
 20
133.2499999999996
 30
0.0
 11
56.49999999999988
 21
132.25
 31
0.0
  0
LINE
  5
6A7C
330
A
100
AcDbEntity
  8
0
  6
Continuous
 62
     7
100
AcDbLine
 10
56.49999999999988
 20
131.25
 30
0.0
 11
56.49999999999988
 21
125.2499999999996
 31
0.0
  0
ARC
  5
6A7D
330
A
100
AcDbEntity
  8
0
  6
Continuous
 62
     7
100
AcDbCircle
 10
63.5
 20
131.25
 30
0.0
 40
7.0
100
AcDbArc
 50
180.0
 51
270.0
  0
LINE
  5
6A7E
330
A
100
AcDbEntity
  8
0
  6
Continuous
 62
     7
100
AcDbLine
 10
56.49999999999988
 20
132.25
 30
0.0
 11
56.49999999999988
 21
131.25
 31
0.0
  0
LINE
  5
6A7F
330
A
100
AcDbEntity
  8
0
  6
Continuous
 62
     7
100
AcDbLine
 10
129.5
 20
132.25
 30
0.0
 11
56.49999999999988
 21
132.25
 31
0.0
  0
LINE
  5
6A80
330
A
100
AcDbEntity
  8
0
  6
Continuous
 62
     7
100
AcDbLine
 10
129.5
 20
132.25
 30
0.0
 11
129.5
 21
130.48
 31
0.0
  0
LINE
  5
6A81
330
A
100
AcDbEntity
  8
0
  6
Continuous
 62
     7
100
AcDbLine
 10
119.3999999999998
 20
124.25
 30
0.0
 11
63.5
 21
124.25
 31
0.0
  0
LINE
  5
6A82
330
A
100
AcDbEntity
  8
0
  6
Continuous
 62
     7
100
AcDbLine
 10
119.3999999999998
 20
124.25
 30
0.0
 11
121.9970140000001
 21
124.7065269999997
 31
0.0
  0
LINE
  5
6A83
330
A
100
AcDbEntity
  8
0
  6
Continuous
 62
     7
100
AcDbLine
 10
129.355641
 20
128.8299709999996
 30
0.0
 11
129.5
 21
130.48
 31
0.0
  0
ARC
  5
6A84
330
A
100
AcDbEntity
  8
0
  6
Continuous
 62
     7
100
AcDbCircle
 10
127.861349
 20
128.9607049999999
 30
0.0
 40
1.5
100
AcDbArc
 50
308.8119690000024
 51
354.9999999999999
  0
ARC
  5
6A85
330
A
100
AcDbEntity
  8
0
  6
Continuous
 62
     7
100
AcDbCircle
 10
119.3999999999998
 20
139.48
 30
0.0
 40
15.0
100
AcDbArc
 50
279.9701040000015
 51
308.8119690000024
  0
ARC
  5
6A86
330
A
100
AcDbEntity
  8
0
  6
Continuous
 62
   250
100
AcDbCircle
 10
47.74999999999988
 20
131.25
 30
0.0
 40
3.995
100
AcDbArc
 50
0.0
 51
55.72233299999869
  0
ARC
  5
6A87
330
A
100
AcDbEntity
  8
0
  6
Continuous
 62
   250
100
AcDbCircle
 10
47.74999999999988
 20
131.25
 30
0.0
 40
3.995
100
AcDbArc
 50
286.0256769999995
 51
0.0
  0
ARC
  5
6A88
330
A
100
AcDbEntity
  8
0
  6
Continuous
 62
     7
100
AcDbCircle
 10
-21.36134900000002
 20
128.9607049999999
 30
0.0
 40
1.5
100
AcDbArc
 50
185.0
 51
231.1880309999975
  0
LINE
  5
6A89
330
A
100
AcDbEntity
  8
0
  6
Continuous
 62
     7
100
AcDbLine
 10
50.0
 20
132.25
 30
0.0
 11
50.0
 21
131.25
 31
0.0
  0
ARC
  5
6A8A
330
A
100
AcDbEntity
  8
0
  6
Continuous
 62
     7
100
AcDbCircle
 10
43.0
 20
131.25
 30
0.0
 40
7.0
100
AcDbArc
 50
270.0
 51
0.0
  0
LINE
  5
6A8B
330
A
100
AcDbEntity
  8
0
  6
Continuous
 62
     7
100
AcDbLine
 10
43.0
 20
124.25
 30
0.0
 11
-12.89999999999998
 21
124.25
 31
0.0
  0
LINE
  5
6A8C
330
A
100
AcDbEntity
  8
0
  6
Continuous
 62
     7
100
AcDbLine
 10
-15.49701399999992
 20
124.7065269999997
 30
0.0
 11
-12.89999999999998
 21
124.25
 31
0.0
  0
ARC
  5
6A8D
330
A
100
AcDbEntity
  8
0
  6
Continuous
 62
     7
100
AcDbCircle
 10
-12.89999999999998
 20
139.48
 30
0.0
 40
15.0
100
AcDbArc
 50
231.1880309999975
 51
260.0298959999986
  0
LINE
  5
6A8E
330
A
100
AcDbEntity
  8
0
  6
Continuous
 62
     7
100
AcDbLine
 10
50.0
 20
132.25
 30
0.0
 11
-23.00000000000034
 21
132.25
 31
0.0
  0
LINE
  5
6A8F
330
A
100
AcDbEntity
  8
0
  6
Continuous
 62
     7
100
AcDbLine
 10
-23.00000000000034
 20
130.48
 30
0.0
 11
-22.8556410000001
 21
128.8299709999996
 31
0.0
  0
LINE
  5
6A90
330
A
100
AcDbEntity
  8
0
  6
Continuous
 62
     7
100
AcDbLine
 10
-23.00000000000034
 20
132.25
 30
0.0
 11
-23.00000000000034
 21
130.48
 31
0.0
  0
ARC
  5
6A91
330
A
100
AcDbEntity
  8
0
  6
Continuous
 62
     7
100
AcDbCircle
 10
47.74999999999988
 20
131.25
 30
0.0
 40
3.9
100
AcDbArc
 50
287.6400699999978
 51
54.76558200000048
  0
ARC
  5
6A92
330
A
100
AcDbEntity
  8
0
  6
Continuous
 62
     7
100
AcDbCircle
 10
47.74999999999988
 20
131.25
 30
0.0
 40
3.6
100
AcDbArc
 50
293.2085430000005
 51
51.3178129999976
  0
LINE
  5
6A93
330
A
100
AcDbEntity
  8
0
  6
Continuous
 62
     7
100
AcDbLine
 10
48.94101
 20
132.25
 30
0.0
 11
48.49999999999988
 21
132.555113
 31
0.0
  0
ARC
  5
6A94
330
A
100
AcDbEntity
  8
0
  6
Continuous
 62
     7
100
AcDbCircle
 10
47.74999999999988
 20
131.25
 30
0.0
 40
1.5
100
AcDbArc
 50
55.32254299999642
 51
59.99999999999946
  0
ARC
  5
6A95
330
A
100
AcDbEntity
  8
0
  6
Continuous
 62
     7
100
AcDbCircle
 10
47.74999999999988
 20
131.25
 30
0.0
 40
1.5
100
AcDbArc
 50
41.81031499999837
 51
55.32254299999642
  0
ARC
  5
6A96
330
A
100
AcDbEntity
  8
0
  6
Continuous
 62
     7
100
AcDbCircle
 10
16.5
 20
139.25
 30
0.0
 40
5.25
100
AcDbArc
 50
238.997281
 51
252.2472099999987
  0
ARC
  5
6A97
330
A
100
AcDbEntity
  8
0
  6
Continuous
 62
     7
100
AcDbCircle
 10
16.5
 20
139.25
 30
0.0
 40
5.25
100
AcDbArc
 50
287.7527900000012
 51
301.002719
  0
ARC
  5
6A98
330
A
100
AcDbEntity
  8
0
  6
Continuous
 62
     7
100
AcDbCircle
 10
16.5
 20
139.25
 30
0.0
 40
5.75
100
AcDbArc
 50
299.5918459999981
 51
308.4999500000014
  0
ARC
  5
6A99
330
A
100
AcDbEntity
  8
0
  6
Continuous
 62
     7
100
AcDbCircle
 10
16.5
 20
139.25
 30
0.0
 40
5.75
100
AcDbArc
 50
231.5000499999986
 51
240.4081540000019
  0
ARC
  5
6A9A
330
A
100
AcDbEntity
  8
0
  6
Continuous
 62
     9
100
AcDbCircle
 10
16.5
 20
139.25
 30
0.0
 40
5.799999999999998
100
AcDbArc
 50
230.8832559999995
 51
239.5496860000004
  0
ARC
  5
6A9B
330
A
100
AcDbEntity
  8
0
  6
Continuous
 62
     9
100
AcDbCircle
 10
16.5
 20
139.25
 30
0.0
 40
5.799999999999998
100
AcDbArc
 50
300.4503139999996
 51
309.1167440000005
  0
ARC
  5
6A9C
330
A
100
AcDbEntity
  8
0
  6
Continuous
 62
     7
100
AcDbCircle
 10
16.5
 20
139.25
 30
0.0
 40
6.0
100
AcDbArc
 50
303.5573100000014
 51
311.8103149999984
  0
ARC
  5
6A9D
330
A
100
AcDbEntity
  8
0
  6
Continuous
 62
     7
100
AcDbCircle
 10
16.5
 20
139.25
 30
0.0
 40
6.0
100
AcDbArc
 50
228.1896850000016
 51
236.4426899999986
  0
LINE
  5
6A9E
330
A
100
AcDbEntity
  8
0
  6
Continuous
 62
     7
100
AcDbLine
 10
49.49999999999988
 20
153.7499999999999
 30
0.0
 11
43.0
 21
153.7499999999999
 31
0.0
  0
LINE
  5
6A9F
330
A
100
AcDbEntity
  8
0
  6
Continuous
 62
     7
100
AcDbLine
 10
50.49999999999989
 20
153.7499999999999
 30
0.0
 11
50.0
 21
153.25
 31
0.0
  0
LINE
  5
6AA0
330
A
100
AcDbEntity
  8
0
  6
Continuous
 62
     7
100
AcDbLine
 10
56.49999999999988
 20
153.25
 30
0.0
 11
56.0
 21
153.7499999999999
 31
0.0
  0
LINE
  5
6AA1
330
A
100
AcDbEntity
  8
0
  6
Continuous
 62
     7
100
AcDbLine
 10
56.49999999999988
 20
125.2499999999996
 30
0.0
 11
56.49999999999988
 21
131.25
 31
0.0
  0
LINE
  5
6AA2
330
A
100
AcDbEntity
  8
0
  6
Continuous
 62
     7
100
AcDbLine
 10
56.49999999999988
 20
132.25
 30
0.0
 11
56.49999999999988
 21
133.2499999999996
 31
0.0
  0
LINE
  5
6AA3
330
A
100
AcDbEntity
  8
0
  6
Continuous
 62
     7
100
AcDbLine
 10
56.49999999999988
 20
148.75
 30
0.0
 11
56.49999999999988
 21
153.25
 31
0.0
  0
ARC
  5
6AA4
330
A
100
AcDbEntity
  8
0
  6
Continuous
 62
     7
100
AcDbCircle
 10
47.74999999999988
 20
131.25
 30
0.0
 40
4.5
100
AcDbArc
 50
278.3220409999988
 51
59.99999999999946
  0
LINE
  5
6AA5
330
A
100
AcDbEntity
  8
0
  6
Continuous
 62
     7
100
AcDbLine
 10
56.0
 20
124.7499999999999
 30
0.0
 11
56.49999999999988
 21
125.2499999999996
 31
0.0
  0
LINE
  5
6AA6
330
A
100
AcDbEntity
  8
0
  6
Continuous
 62
     7
100
AcDbLine
 10
50.49999999999989
 20
124.7499999999999
 30
0.0
 11
56.0
 21
124.7499999999999
 31
0.0
  0
LINE
  5
6AA7
330
A
100
AcDbEntity
  8
0
  6
Continuous
 62
     7
100
AcDbLine
 10
56.0
 20
153.7499999999999
 30
0.0
 11
50.49999999999989
 21
153.7499999999999
 31
0.0
  0
LINE
  5
6AA8
330
A
100
AcDbEntity
  8
0
  6
Continuous
 62
     7
100
AcDbLine
 10
50.0
 20
125.2499999999996
 30
0.0
 11
50.49999999999989
 21
124.7499999999999
 31
0.0
  0
LINE
  5
6AA9
330
A
100
AcDbEntity
  8
0
  6
Continuous
 62
     7
100
AcDbLine
 10
45.59807599999987
 20
124.7499999999999
 30
0.0
 11
49.49999999999988
 21
124.7499999999999
 31
0.0
  0
LINE
  5
6AAA
330
A
100
AcDbEntity
  8
0
  6
Continuous
 62
     7
100
AcDbLine
 10
50.0
 20
153.25
 30
0.0
 11
49.49999999999988
 21
153.7499999999999
 31
0.0
  0
LINE
  5
6AAB
330
A
100
AcDbEntity
  8
0
  6
Continuous
 62
     7
100
AcDbLine
 10
49.49999999999988
 20
124.7499999999999
 30
0.0
 11
50.0
 21
125.2499999999996
 31
0.0
  0
ARC
  5
6AAC
330
A
100
AcDbEntity
  8
0
  6
Continuous
 62
     7
100
AcDbCircle
 10
47.74999999999988
 20
131.25
 30
0.0
 40
4.0
100
AcDbArc
 50
285.9424120000014
 51
55.77113399999697
  0
LINE
  5
6AAD
330
A
100
AcDbEntity
  8
0
  6
Continuous
 62
     7
100
AcDbLine
 10
0.7825759999997218
 20
61.54999999999972
 30
0.0
 11
0.7825759999997218
 21
65.54999999999973
 31
0.0
  0
LINE
  5
6AAE
330
A
100
AcDbEntity
  8
0
  6
Continuous
 62
     7
100
AcDbLine
 10
0.7825759999997218
 20
12.45000000000004
 30
0.0
 11
0.7825759999997218
 21
16.45000000000004
 31
0.0
  0
LINE
  5
6AAF
330
A
100
AcDbEntity
  8
0
  6
Continuous
 62
     7
100
AcDbLine
 10
0.7825759999997218
 20
65.54999999999973
 30
0.0
 11
0.7825759999997218
 21
65.64999999999975
 31
0.0
  0
LINE
  5
6AB0
330
A
100
AcDbEntity
  8
0
  6
Continuous
 62
     7
100
AcDbLine
 10
0.7825759999997218
 20
12.35000000000002
 30
0.0
 11
0.7825759999997218
 21
12.45000000000004
 31
0.0
  0
LINE
  5
6AB1
330
A
100
AcDbEntity
  8
0
  6
Continuous
 62
     7
100
AcDbLine
 10
7.0
 20
69.5
 30
0.0
 11
26.0
 21
69.5
 31
0.0
  0
LINE
  5
6AB2
330
A
100
AcDbEntity
  8
0
  6
Continuous
 62
     7
100
AcDbLine
 10
26.0
 20
8.5
 30
0.0
 11
7.0
 21
8.5
 31
0.0
  0
LINE
  5
6AB3
330
A
100
AcDbEntity
  8
0
  6
Continuous
 62
     7
100
AcDbLine
 10
50.0
 20
-15.0
 30
0.0
 11
43.0
 21
-15.0
 31
0.0
  0
LINE
  5
6AB4
330
A
100
AcDbEntity
  8
0
  6
Continuous
 62
     9
100
AcDbLine
 10
43.0
 20
-15.0
 30
0.0
 11
43.0
 21
8.0
 31
0.0
  0
LINE
  5
6AB5
330
A
100
AcDbEntity
  8
0
  6
Continuous
 62
     7
100
AcDbLine
 10
50.0
 20
8.0
 30
0.0
 11
43.0
 21
8.0
 31
0.0
  0
LINE
  5
6AB6
330
A
100
AcDbEntity
  8
0
  6
Continuous
 62
     7
100
AcDbLine
 10
50.0
 20
8.0
 30
0.0
 11
50.0
 21
-15.0
 31
0.0
  0
LINE
  5
6AB7
330
A
100
AcDbEntity
  8
0
  6
Continuous
 62
     7
100
AcDbLine
 10
43.0
 20
93.0
 30
0.0
 11
50.0
 21
93.0
 31
0.0
  0
LINE
  5
6AB8
330
A
100
AcDbEntity
  8
0
  6
Continuous
 62
     7
100
AcDbLine
 10
50.0
 20
93.0
 30
0.0
 11
50.0
 21
70.0
 31
0.0
  0
LINE
  5
6AB9
330
A
100
AcDbEntity
  8
0
  6
Continuous
 62
     7
100
AcDbLine
 10
43.0
 20
70.0
 30
0.0
 11
50.0
 21
70.0
 31
0.0
  0
LINE
  5
6ABA
330
A
100
AcDbEntity
  8
0
  6
Continuous
 62
     9
100
AcDbLine
 10
43.0
 20
70.0
 30
0.0
 11
43.0
 21
93.0
 31
0.0
  0
LINE
  5
6ABB
330
A
100
AcDbEntity
  8
0
  6
Continuous
 62
     7
100
AcDbLine
 10
31.17084399999999
 20
69.54999999999973
 30
0.0
 11
1.499999999999886
 21
69.54999999999973
 31
0.0
  0
ARC
  5
6ABC
330
A
100
AcDbEntity
  8
0
  6
Continuous
 62
     7
100
AcDbCircle
 10
1.499999999999886
 20
68.04999999999973
 30
0.0
 40
1.5
100
AcDbArc
 50
90.0
 51
180.0
  0
LINE
  5
6ABD
330
A
100
AcDbEntity
  8
0
  6
Continuous
 62
     7
100
AcDbLine
 10
0.0
 20
68.04999999999973
 30
0.0
 11
0.0
 21
9.950000000000045
 31
0.0
  0
ARC
  5
6ABE
330
A
100
AcDbEntity
  8
0
  6
Continuous
 62
     7
100
AcDbCircle
 10
1.499999999999886
 20
9.950000000000045
 30
0.0
 40
1.5
100
AcDbArc
 50
180.0
 51
270.0
  0
LINE
  5
6ABF
330
A
100
AcDbEntity
  8
0
  6
Continuous
 62
     7
100
AcDbLine
 10
1.499999999999886
 20
8.450000000000045
 30
0.0
 11
31.17084399999999
 21
8.450000000000045
 31
0.0
  0
ARC
  5
6AC0
330
A
100
AcDbEntity
  8
0
  6
Continuous
 62
     7
100
AcDbCircle
 10
32.0
 20
9.700000000000045
 30
0.0
 40
1.5
100
AcDbArc
 50
236.4426899999986
 51
270.0
  0
LINE
  5
6AC1
330
A
100
AcDbEntity
  8
0
  6
Continuous
 62
     7
100
AcDbLine
 10
32.0
 20
8.200000000000045
 30
0.0
 11
32.0
 21
8.0
 31
0.0
  0
LINE
  5
6AC2
330
A
100
AcDbEntity
  8
0
  6
Continuous
 62
     7
100
AcDbLine
 10
-12.89999999999998
 20
-15.0
 30
0.0
 11
-12.89999999999998
 21
93.0
 31
0.0
  0
LINE
  5
6AC3
330
A
100
AcDbEntity
  8
0
  6
Continuous
 62
     7
100
AcDbLine
 10
32.0
 20
70.0
 30
0.0
 11
32.0
 21
69.79999999999972
 31
0.0
  0
ARC
  5
6AC4
330
A
100
AcDbEntity
  8
0
  6
Continuous
 62
     7
100
AcDbCircle
 10
32.0
 20
68.29999999999995
 30
0.0
 40
1.5
100
AcDbArc
 50
90.0
 51
123.5573100000013
  0
LINE
  5
6AC5
330
A
100
AcDbEntity
  8
0
  6
Continuous
 62
     7
100
AcDbLine
 10
43.0
 20
70.0
 30
0.0
 11
32.0
 21
70.0
 31
0.0
  0
LINE
  5
6AC6
330
A
100
AcDbEntity
  8
0
  6
Continuous
 62
     7
100
AcDbLine
 10
32.0
 20
8.0
 30
0.0
 11
43.0
 21
8.0
 31
0.0
  0
LINE
  5
6AC7
330
A
100
AcDbEntity
  8
0
  6
Continuous
 62
     7
100
AcDbLine
 10
-12.89999999999998
 20
93.0
 30
0.0
 11
43.0
 21
93.0
 31
0.0
  0
LINE
  5
6AC8
330
A
100
AcDbEntity
  8
0
  6
Continuous
 62
     7
100
AcDbLine
 10
43.0
 20
-15.0
 30
0.0
 11
-12.89999999999998
 21
-15.0
 31
0.0
  0
LINE
  5
6AC9
330
A
100
AcDbEntity
  8
0
  6
Continuous
 62
     9
100
AcDbLine
 10
-15.49701399999992
 20
93.0
 30
0.0
 11
-15.49701399999992
 21
-15.0
 31
0.0
  0
LINE
  5
6ACA
330
A
100
AcDbEntity
  8
0
  6
Continuous
 62
     7
100
AcDbLine
 10
-15.49701399999992
 20
93.0
 30
0.0
 11
-12.89999999999998
 21
93.0
 31
0.0
  0
LINE
  5
6ACB
330
A
100
AcDbEntity
  8
0
  6
Continuous
 62
     7
100
AcDbLine
 10
-12.89999999999998
 20
-15.0
 30
0.0
 11
-15.49701399999992
 21
-15.0
 31
0.0
  0
LINE
  5
6ACC
330
A
100
AcDbEntity
  8
0
  6
Continuous
 62
     9
100
AcDbLine
 10
-22.30149900000004
 20
93.0
 30
0.0
 11
-22.30149900000004
 21
-15.0
 31
0.0
  0
LINE
  5
6ACD
330
A
100
AcDbEntity
  8
0
  6
Continuous
 62
     7
100
AcDbLine
 10
-22.30149900000004
 20
93.0
 30
0.0
 11
-15.49701399999992
 21
93.0
 31
0.0
  0
LINE
  5
6ACE
330
A
100
AcDbEntity
  8
0
  6
Continuous
 62
     7
100
AcDbLine
 10
-15.49701399999992
 20
-15.0
 30
0.0
 11
-22.30149900000004
 21
-15.0
 31
0.0
  0
LINE
  5
6ACF
330
A
100
AcDbEntity
  8
0
  6
Continuous
 62
     9
100
AcDbLine
 10
-22.8556410000001
 20
93.0
 30
0.0
 11
-22.8556410000001
 21
-15.0
 31
0.0
  0
LINE
  5
6AD0
330
A
100
AcDbEntity
  8
0
  6
Continuous
 62
     7
100
AcDbLine
 10
-22.8556410000001
 20
93.0
 30
0.0
 11
-22.30149900000004
 21
93.0
 31
0.0
  0
LINE
  5
6AD1
330
A
100
AcDbEntity
  8
0
  6
Continuous
 62
     7
100
AcDbLine
 10
-22.30149900000004
 20
-15.0
 30
0.0
 11
-22.8556410000001
 21
-15.0
 31
0.0
  0
LINE
  5
6AD2
330
A
100
AcDbEntity
  8
0
  6
Continuous
 62
     7
100
AcDbLine
 10
-23.00000000000034
 20
93.0
 30
0.0
 11
-23.00000000000034
 21
-15.0
 31
0.0
  0
LINE
  5
6AD3
330
A
100
AcDbEntity
  8
0
  6
Continuous
 62
     7
100
AcDbLine
 10
-23.00000000000034
 20
93.0
 30
0.0
 11
-22.8556410000001
 21
93.0
 31
0.0
  0
LINE
  5
6AD4
330
A
100
AcDbEntity
  8
0
  6
Continuous
 62
     7
100
AcDbLine
 10
-22.8556410000001
 20
-15.0
 30
0.0
 11
-23.00000000000034
 21
-15.0
 31
0.0
  0
LINE
  5
6AD5
330
A
100
AcDbEntity
  8
0
  6
Continuous
 62
     7
100
AcDbLine
 10
56.49999999999988
 20
69.0
 30
0.0
 11
57.0
 21
69.0
 31
0.0
  0
LINE
  5
6AD6
330
A
100
AcDbEntity
  8
0
  6
Continuous
 62
     7
100
AcDbLine
 10
56.49999999999988
 20
69.0
 30
0.0
 11
56.49999999999988
 21
73.98748399999988
 31
0.0
  0
LINE
  5
6AE6
330
A
100
AcDbEntity
  8
0
  6
Continuous
 62
     7
100
AcDbLine
 10
57.0
 20
9.0
 30
0.0
 11
56.49999999999988
 21
9.0
 31
0.0
  0
LINE
  5
6AF9
330
A
100
AcDbEntity
  8
0
  6
Continuous
 62
     7
100
AcDbLine
 10
56.49999999999988
 20
4.012515999999891
 30
0.0
 11
56.49999999999988
 21
9.0
 31
0.0
  0
LINE
  5
6AFA
330
A
100
AcDbEntity
  8
0
  6
Continuous
 62
     7
100
AcDbLine
 10
61.5
 20
-15.0
 30
0.0
 11
56.49999999999988
 21
-15.0
 31
0.0
  0
LINE
  5
6AFB
330
A
100
AcDbEntity
  8
0
  6
Continuous
 62
     7
100
AcDbLine
 10
56.49999999999988
 20
4.012515999999891
 30
0.0
 11
56.49999999999988
 21
-15.0
 31
0.0
  0
LINE
  5
6AFC
330
A
100
AcDbEntity
  8
0
  6
Continuous
 62
     9
100
AcDbLine
 10
61.5
 20
4.012515999999891
 30
0.0
 11
61.5
 21
-15.0
 31
0.0
  0
LINE
  5
6AFD
330
A
100
AcDbEntity
  8
0
  6
Continuous
 62
     9
100
AcDbLine
 10
121.9970140000001
 20
-15.0
 30
0.0
 11
121.9970140000001
 21
93.0
 31
0.0
  0
LINE
  5
6AFE
330
A
100
AcDbEntity
  8
0
  6
Continuous
 62
     7
100
AcDbLine
 10
121.9970140000001
 20
-15.0
 30
0.0
 11
119.3999999999998
 21
-15.0
 31
0.0
  0
LINE
  5
6AFF
330
A
100
AcDbEntity
  8
0
  6
Continuous
 62
     7
100
AcDbLine
 10
119.3999999999998
 20
93.0
 30
0.0
 11
119.3999999999998
 21
-15.0
 31
0.0
  0
LINE
  5
6B00
330
A
100
AcDbEntity
  8
0
  6
Continuous
 62
     7
100
AcDbLine
 10
119.3999999999998
 20
93.0
 30
0.0
 11
121.9970140000001
 21
93.0
 31
0.0
  0
LINE
  5
6B01
330
A
100
AcDbEntity
  8
0
  6
Continuous
 62
     7
100
AcDbLine
 10
57.0
 20
69.0
 30
0.0
 11
57.0
 21
9.0
 31
0.0
  0
LINE
  5
6B02
330
A
100
AcDbEntity
  8
0
  6
Continuous
 62
     7
100
AcDbLine
 10
56.49999999999988
 20
9.0
 30
0.0
 11
56.49999999999988
 21
69.0
 31
0.0
  0
LINE
  5
6B03
330
A
100
AcDbEntity
  8
0
  6
Continuous
 62
     7
100
AcDbLine
 10
61.5
 20
93.0
 30
0.0
 11
119.3999999999998
 21
93.0
 31
0.0
  0
LINE
  5
6B04
330
A
100
AcDbEntity
  8
0
  6
Continuous
 62
     7
100
AcDbLine
 10
119.3999999999998
 20
-15.0
 30
0.0
 11
61.5
 21
-15.0
 31
0.0
  0
LINE
  5
6B05
330
A
100
AcDbEntity
  8
0
  6
Continuous
 62
     9
100
AcDbLine
 10
61.5
 20
73.98748399999988
 30
0.0
 11
61.5
 21
93.0
 31
0.0
  0
LINE
  5
6B06
330
A
100
AcDbEntity
  8
0
  6
Continuous
 62
     7
100
AcDbLine
 10
61.5
 20
93.0
 30
0.0
 11
56.49999999999988
 21
93.0
 31
0.0
  0
LINE
  5
6B07
330
A
100
AcDbEntity
  8
0
  6
Continuous
 62
     7
100
AcDbLine
 10
56.49999999999988
 20
73.98748399999988
 30
0.0
 11
56.49999999999988
 21
93.0
 31
0.0
  0
LINE
  5
6B08
330
A
100
AcDbEntity
  8
0
  6
Continuous
 62
     9
100
AcDbLine
 10
128.801499
 20
-15.0
 30
0.0
 11
128.801499
 21
93.0
 31
0.0
  0
LINE
  5
6B09
330
A
100
AcDbEntity
  8
0
  6
Continuous
 62
     7
100
AcDbLine
 10
121.9970140000001
 20
93.0
 30
0.0
 11
128.801499
 21
93.0
 31
0.0
  0
LINE
  5
6B0A
330
A
100
AcDbEntity
  8
0
  6
Continuous
 62
     7
100
AcDbLine
 10
128.801499
 20
-15.0
 30
0.0
 11
121.9970140000001
 21
-15.0
 31
0.0
  0
LINE
  5
6B0B
330
A
100
AcDbEntity
  8
0
  6
Continuous
 62
     9
100
AcDbLine
 10
129.355641
 20
-15.0
 30
0.0
 11
129.355641
 21
93.0
 31
0.0
  0
LINE
  5
6B0C
330
A
100
AcDbEntity
  8
0
  6
Continuous
 62
     7
100
AcDbLine
 10
128.801499
 20
93.0
 30
0.0
 11
129.355641
 21
93.0
 31
0.0
  0
LINE
  5
6B0D
330
A
100
AcDbEntity
  8
0
  6
Continuous
 62
     7
100
AcDbLine
 10
129.355641
 20
-15.0
 30
0.0
 11
128.801499
 21
-15.0
 31
0.0
  0
LINE
  5
6B0E
330
A
100
AcDbEntity
  8
0
  6
Continuous
 62
     7
100
AcDbLine
 10
129.5
 20
-15.0
 30
0.0
 11
129.5
 21
93.0
 31
0.0
  0
LINE
  5
6B0F
330
A
100
AcDbEntity
  8
0
  6
Continuous
 62
     7
100
AcDbLine
 10
129.355641
 20
93.0
 30
0.0
 11
129.5
 21
93.0
 31
0.0
  0
LINE
  5
6B10
330
A
100
AcDbEntity
  8
0
  6
Continuous
 62
     7
100
AcDbLine
 10
129.5
 20
-15.0
 30
0.0
 11
129.355641
 21
-15.0
 31
0.0
  0
LINE
  5
6B11
330
A
100
AcDbEntity
  8
0
  6
Continuous
 62
     7
100
AcDbLine
 10
20.5
 20
8.5
 30
0.0
 11
20.5
 21
8.450000000000045
 31
0.0
  0
LINE
  5
6B12
330
A
100
AcDbEntity
  8
0
  6
Continuous
 62
     7
100
AcDbLine
 10
12.5
 20
8.5
 30
0.0
 11
12.5
 21
8.450000000000045
 31
0.0
  0
LINE
  5
6B13
330
A
100
AcDbEntity
  8
0
  6
Continuous
 62
     7
100
AcDbLine
 10
20.5
 20
69.5
 30
0.0
 11
20.5
 21
69.54999999999973
 31
0.0
  0
LINE
  5
6B14
330
A
100
AcDbEntity
  8
0
  6
Continuous
 62
     7
100
AcDbLine
 10
12.5
 20
69.5
 30
0.0
 11
12.5
 21
69.54999999999973
 31
0.0
  0
LINE
  5
6B15
330
A
100
AcDbEntity
  8
0
  6
Continuous
 62
     7
100
AcDbLine
 10
56.49999999999988
 20
9.0
 30
0.0
 11
56.0
 21
9.0
 31
0.0
  0
LINE
  5
6B16
330
A
100
AcDbEntity
  8
0
  6
Continuous
 62
     7
100
AcDbLine
 10
56.0
 20
9.0
 30
0.0
 11
56.0
 21
69.0
 31
0.0
  0
LINE
  5
6B17
330
A
100
AcDbEntity
  8
0
  6
Continuous
 62
     7
100
AcDbLine
 10
56.0
 20
69.0
 30
0.0
 11
56.49999999999988
 21
69.0
 31
0.0
  0
LINE
  5
6B18
330
A
100
AcDbEntity
  8
0
  6
Continuous
 62
     7
100
AcDbLine
 10
56.49999999999988
 20
69.0
 30
0.0
 11
56.49999999999988
 21
9.0
 31
0.0
  0
LINE
  5
6B19
330
A
100
AcDbEntity
  8
0
  6
Continuous
 62
     7
100
AcDbLine
 10
1.999999999999658
 20
69.0
 30
0.0
 11
16.5
 21
69.0
 31
0.0
  0
LINE
  5
6B1A
330
A
100
AcDbEntity
  8
0
  6
Continuous
 62
     9
100
AcDbLine
 10
16.5
 20
9.0
 30
0.0
 11
16.5
 21
69.0
 31
0.0
  0
LINE
  5
6B1B
330
A
100
AcDbEntity
  8
0
  6
Continuous
 62
     7
100
AcDbLine
 10
16.5
 20
9.0
 30
0.0
 11
1.999999999999658
 21
9.0
 31
0.0
  0
LINE
  5
6B1C
330
A
100
AcDbEntity
  8
0
  6
Continuous
 62
     7
100
AcDbLine
 10
50.49999999999989
 20
9.0
 30
0.0
 11
50.49999999999989
 21
69.0
 31
0.0
  0
LINE
  5
6B1D
330
A
100
AcDbEntity
  8
0
  6
Continuous
 62
     7
100
AcDbLine
 10
56.0
 20
9.0
 30
0.0
 11
50.49999999999989
 21
9.0
 31
0.0
  0
LINE
  5
6B1E
330
A
100
AcDbEntity
  8
0
  6
Continuous
 62
     7
100
AcDbLine
 10
50.49999999999989
 20
69.0
 30
0.0
 11
56.0
 21
69.0
 31
0.0
  0
LINE
  5
6B1F
330
A
100
AcDbEntity
  8
0
  6
Continuous
 62
     7
100
AcDbLine
 10
50.0
 20
9.0
 30
0.0
 11
50.0
 21
69.0
 31
0.0
  0
LINE
  5
6B20
330
A
100
AcDbEntity
  8
0
  6
Continuous
 62
     7
100
AcDbLine
 10
50.49999999999989
 20
9.0
 30
0.0
 11
50.0
 21
9.0
 31
0.0
  0
LINE
  5
6B21
330
A
100
AcDbEntity
  8
0
  6
Continuous
 62
     7
100
AcDbLine
 10
50.0
 20
69.0
 30
0.0
 11
50.49999999999989
 21
69.0
 31
0.0
  0
LINE
  5
6B22
330
A
100
AcDbEntity
  8
0
  6
Continuous
 62
     7
100
AcDbLine
 10
49.49999999999988
 20
9.0
 30
0.0
 11
49.49999999999988
 21
69.0
 31
0.0
  0
LINE
  5
6B23
330
A
100
AcDbEntity
  8
0
  6
Continuous
 62
     7
100
AcDbLine
 10
50.0
 20
9.0
 30
0.0
 11
49.49999999999988
 21
9.0
 31
0.0
  0
LINE
  5
6B24
330
A
100
AcDbEntity
  8
0
  6
Continuous
 62
     7
100
AcDbLine
 10
49.49999999999988
 20
69.0
 30
0.0
 11
50.0
 21
69.0
 31
0.0
  0
LINE
  5
6B25
330
A
100
AcDbEntity
  8
0
  6
Continuous
 62
     7
100
AcDbLine
 10
49.49999999999988
 20
9.0
 30
0.0
 11
16.5
 21
9.0
 31
0.0
  0
LINE
  5
6B26
330
A
100
AcDbEntity
  8
0
  6
Continuous
 62
     7
100
AcDbLine
 10
16.5
 20
69.0
 30
0.0
 11
49.49999999999988
 21
69.0
 31
0.0
  0
ARC
  5
6B27
330
A
100
AcDbEntity
  8
0
  6
Continuous
 62
     7
100
AcDbCircle
 10
-3.799999999999954
 20
63.54999999999972
 30
0.0
 40
5.0
100
AcDbArc
 50
0.0
 51
23.57817799999804
  0
ARC
  5
6B28
330
A
100
AcDbEntity
  8
0
  6
Continuous
 62
     7
100
AcDbCircle
 10
-3.799999999999954
 20
63.54999999999972
 30
0.0
 40
5.0
100
AcDbArc
 50
336.421822000002
 51
0.0
  0
LINE
  5
6B29
330
A
100
AcDbEntity
  8
0
  6
Continuous
 62
     7
100
AcDbLine
 10
0.0
 20
61.54999999999972
 30
0.0
 11
0.7825759999997218
 21
61.54999999999972
 31
0.0
  0
LINE
  5
6B2A
330
A
100
AcDbEntity
  8
0
  6
Continuous
 62
     7
100
AcDbLine
 10
0.7825759999997218
 20
65.54999999999973
 30
0.0
 11
0.0
 21
65.54999999999973
 31
0.0
  0
LINE
  5
6B2B
330
A
100
AcDbEntity
  8
0
  6
Continuous
 62
     7
100
AcDbLine
 10
0.0
 20
12.45000000000004
 30
0.0
 11
0.7825759999997218
 21
12.45000000000004
 31
0.0
  0
LINE
  5
6B2C
330
A
100
AcDbEntity
  8
0
  6
Continuous
 62
     7
100
AcDbLine
 10
0.7825759999997218
 20
16.45000000000004
 30
0.0
 11
0.0
 21
16.45000000000004
 31
0.0
  0
ARC
  5
6B2D
330
A
100
AcDbEntity
  8
0
  6
Continuous
 62
     7
100
AcDbCircle
 10
-3.799999999999954
 20
14.45000000000004
 30
0.0
 40
5.0
100
AcDbArc
 50
0.0
 51
23.57817799999804
  0
ARC
  5
6B2E
330
A
100
AcDbEntity
  8
0
  6
Continuous
 62
     7
100
AcDbCircle
 10
-3.799999999999954
 20
14.45000000000004
 30
0.0
 40
5.0
100
AcDbArc
 50
336.421822000002
 51
0.0
  0
ARC
  5
6B2F
330
A
100
AcDbEntity
  8
0
  6
Continuous
 62
     7
100
AcDbCircle
 10
-3.799999999999954
 20
63.64999999999998
 30
0.0
 40
5.0
100
AcDbArc
 50
0.0
 51
23.57817799999804
  0
ARC
  5
6B30
330
A
100
AcDbEntity
  8
0
  6
Continuous
 62
     7
100
AcDbCircle
 10
-3.799999999999954
 20
63.64999999999998
 30
0.0
 40
5.0
100
AcDbArc
 50
359.427033
 51
0.0
  0
LINE
  5
6B31
330
A
100
AcDbEntity
  8
0
  6
Continuous
 62
     7
100
AcDbLine
 10
0.7825759999997218
 20
65.64999999999975
 30
0.0
 11
0.0
 21
65.64999999999975
 31
0.0
  0
ARC
  5
6B32
330
A
100
AcDbEntity
  8
0
  6
Continuous
 62
     7
100
AcDbCircle
 10
-3.799999999999954
 20
14.35000000000002
 30
0.0
 40
5.0
100
AcDbArc
 50
0.0
 51
0.5729670000000647
  0
ARC
  5
6B33
330
A
100
AcDbEntity
  8
0
  6
Continuous
 62
     7
100
AcDbCircle
 10
-3.799999999999954
 20
14.35000000000002
 30
0.0
 40
5.0
100
AcDbArc
 50
336.421822000002
 51
0.0
  0
LINE
  5
6B34
330
A
100
AcDbEntity
  8
0
  6
Continuous
 62
     7
100
AcDbLine
 10
0.0
 20
12.35000000000002
 30
0.0
 11
0.7825759999997218
 21
12.35000000000002
 31
0.0
  0
LINE
  5
6B35
330
A
100
AcDbEntity
  8
0
  6
Continuous
 62
     7
100
AcDbLine
 10
27.37373899999989
 20
69.0
 30
0.0
 11
26.0
 21
69.5
 31
0.0
  0
LINE
  5
6B36
330
A
100
AcDbEntity
  8
0
  6
Continuous
 62
     7
100
AcDbLine
 10
7.0
 20
69.5
 30
0.0
 11
5.626260999999999
 21
69.0
 31
0.0
  0
LINE
  5
6B37
330
A
100
AcDbEntity
  8
0
  6
Continuous
 62
     7
100
AcDbLine
 10
5.626260999999999
 20
9.0
 30
0.0
 11
7.0
 21
8.5
 31
0.0
  0
LINE
  5
6B38
330
A
100
AcDbEntity
  8
0
  6
Continuous
 62
     7
100
AcDbLine
 10
26.0
 20
8.5
 30
0.0
 11
27.37373899999989
 21
9.0
 31
0.0
  0
LINE
  5
6B39
330
A
100
AcDbEntity
  8
0
  6
Continuous
 62
     7
100
AcDbLine
 10
1.999999999999658
 20
69.0
 30
0.0
 11
1.999999999999658
 21
9.0
 31
0.0
  0
TEXT
  5
72A1
330
A
100
AcDbEntity
  8
0
  6
Continuous
 62
     7
370
     0
100
AcDbText
 10
142.2157911361639
 20
134.0073206442166
 30
0.0
 40
10.0
  1
8015
100
AcDbText
  0
LINE
  5
72A3
330
A
100
AcDbEntity
  8
0
  6
Continuous
 62
     9
100
AcDbLine
 10
216.664953
 20
-72.60394800000018
 30
0.0
 11
216.6694949999997
 21
-72.75227100000029
 31
0.0
  0
LINE
  5
72A4
330
A
100
AcDbEntity
  8
0
  6
Continuous
 62
     9
100
AcDbLine
 10
216.6694949999997
 20
-72.75227100000029
 30
0.0
 11
216.680894
 21
-72.87614999999999
 31
0.0
  0
LINE
  5
72A5
330
A
100
AcDbEntity
  8
0
  6
Continuous
 62
     9
100
AcDbLine
 10
216.680894
 20
-72.87614999999999
 30
0.0
 11
216.6960140000001
 21
-72.97604600000017
 31
0.0
  0
LINE
  5
72A6
330
A
100
AcDbEntity
  8
0
  6
Continuous
 62
     9
100
AcDbLine
 10
216.6960140000001
 20
-72.97604600000017
 30
0.0
 11
216.7370369999996
 21
-73.14472000000001
 31
0.0
  0
LINE
  5
72A7
330
A
100
AcDbEntity
  8
0
  6
Continuous
 62
     9
100
AcDbLine
 10
216.7370369999996
 20
-73.14472000000001
 30
0.0
 11
216.7750569999999
 21
-73.24676200000016
 31
0.0
  0
LINE
  5
72A8
330
A
100
AcDbEntity
  8
0
  6
Continuous
 62
     9
100
AcDbLine
 10
216.7750569999999
 20
-73.24676200000016
 30
0.0
 11
216.8219749999997
 21
-73.33764200000001
 31
0.0
  0
LINE
  5
72A9
330
A
100
AcDbEntity
  8
0
  6
Continuous
 62
     9
100
AcDbLine
 10
216.8219749999997
 20
-73.33764200000001
 30
0.0
 11
216.893409
 21
-73.43278800000013
 31
0.0
  0
LINE
  5
72AA
330
A
100
AcDbEntity
  8
0
  6
Continuous
 62
     9
100
AcDbLine
 10
216.893409
 20
-73.43278800000013
 30
0.0
 11
216.993687
 21
-73.51460400000002
 31
0.0
  0
LINE
  5
72AB
330
A
100
AcDbEntity
  8
0
  6
Continuous
 62
     9
100
AcDbLine
 10
216.993687
 20
-73.51460400000002
 30
0.0
 11
217.105996
 21
-73.56391300000002
 31
0.0
  0
LINE
  5
72AC
330
A
100
AcDbEntity
  8
0
  6
Continuous
 62
     9
100
AcDbLine
 10
217.105996
 20
-73.56391300000002
 30
0.0
 11
217.2129
 21
-73.58551500000015
 31
0.0
  0
LINE
  5
72AD
330
A
100
AcDbEntity
  8
0
  6
Continuous
 62
     9
100
AcDbLine
 10
217.2129
 20
-73.58551500000015
 30
0.0
 11
217.348578
 21
-73.59107200000017
 31
0.0
  0
ARC
  5
72AE
330
A
100
AcDbEntity
  8
0
  6
Continuous
 62
     9
100
AcDbCircle
 10
218.8224990511012
 20
-81.96363577668563
 30
0.0
 40
8.501309749653195
100
AcDbArc
 50
89.63875316963735
 51
99.98415130316242
  0
ARC
  5
72AF
330
A
100
AcDbEntity
  8
0
  6
Continuous
 62
     9
100
AcDbCircle
 10
67.27243567486619
 20
25.05266871271488
 30
0.0
 40
21.8176313974464
100
AcDbArc
 50
245.4332950833687
 51
254.6582016152912
  0
LINE
  5
72B0
330
A
100
AcDbEntity
  8
0
  6
Continuous
 62
     9
100
AcDbLine
 10
58.20170399999994
 20
5.210015999999995
 30
0.0
 11
58.0400860000002
 21
5.226408999999762
 31
0.0
  0
LINE
  5
72B1
330
A
100
AcDbEntity
  8
0
  6
Continuous
 62
     9
100
AcDbLine
 10
58.0400860000002
 20
5.226408999999762
 30
0.0
 11
57.87896599999999
 21
5.225699999999733
 31
0.0
  0
LINE
  5
72B2
330
A
100
AcDbEntity
  8
0
  6
Continuous
 62
     9
100
AcDbLine
 10
57.87896599999999
 20
5.225699999999733
 30
0.0
 11
57.70415500000002
 21
5.202959999999734
 31
0.0
  0
LINE
  5
72B3
330
A
100
AcDbEntity
  8
0
  6
Continuous
 62
     9
100
AcDbLine
 10
57.70415500000002
 20
5.202959999999734
 30
0.0
 11
57.53857000000005
 21
5.157441000000062
 31
0.0
  0
LINE
  5
72B4
330
A
100
AcDbEntity
  8
0
  6
Continuous
 62
     9
100
AcDbLine
 10
57.53857000000005
 20
5.157441000000062
 30
0.0
 11
57.38334999999972
 21
5.090928999999732
 31
0.0
  0
LINE
  5
72B5
330
A
100
AcDbEntity
  8
0
  6
Continuous
 62
     9
100
AcDbLine
 10
57.38334999999972
 20
5.090928999999732
 30
0.0
 11
57.22582499999987
 21
4.997195999999803
 31
0.0
  0
ARC
  5
72B6
330
A
100
AcDbEntity
  8
0
  6
Continuous
 62
     9
100
AcDbCircle
 10
58.43867678590687
 20
3.326600575658517
 30
0.0
 40
2.06443661234931
100
AcDbArc
 50
125.9796385852685
 51
159.0289968364594
  0
LINE
  5
72B7
330
A
100
AcDbEntity
  8
0
  6
Continuous
 62
     9
100
AcDbLine
 10
56.510985
 20
4.065453000000047
 30
0.0
 11
56.49999999999988
 21
4.012515999999891
 31
0.0
  0
ARC
  5
72B8
330
A
100
AcDbEntity
  8
0
  6
Continuous
 62
     7
100
AcDbCircle
 10
49.57293285058915
 20
-1.83995767467104
 30
0.0
 40
13.14024386495604
100
AcDbArc
 50
28.97040610175283
 51
55.58275510604607
  0
LINE
  5
72B9
330
A
100
AcDbEntity
  8
0
  6
Continuous
 62
     7
100
AcDbLine
 10
61.068938
 20
4.524622000000022
 30
0.0
 11
61.49048599999969
 21
4.023026999999729
 31
0.0
  0
LINE
  5
72BA
330
A
100
AcDbEntity
  8
0
  6
Continuous
 62
     7
100
AcDbLine
 10
61.49048599999969
 20
4.023026999999729
 30
0.0
 11
61.5
 21
4.012515999999891
 31
0.0
  0
ARC
  5
72BB
330
A
100
AcDbEntity
  8
0
  6
Continuous
 62
     7
100
AcDbCircle
 10
44.37395493715917
 20
84.731970841539
 30
0.0
 40
20.21745327637642
100
AcDbArc
 50
309.940451528723
 51
327.8967853690016
  0
LINE
  5
72BC
330
A
100
AcDbEntity
  8
0
  6
Continuous
 62
     7
100
AcDbLine
 10
57.35338000000002
 20
69.23100499999987
 30
0.0
 11
57.0
 21
69.0
 31
0.0
  0
LINE
  5
72BD
330
A
100
AcDbEntity
  8
0
  6
Continuous
 62
     9
100
AcDbLine
 10
56.49999999999988
 20
73.98748399999988
 30
0.0
 11
56.53370400000017
 21
73.87168099999986
 31
0.0
  0
ARC
  5
72BE
330
A
100
AcDbEntity
  8
0
  6
Continuous
 62
     9
100
AcDbCircle
 10
58.34982038811904
 20
74.62515597607967
 30
0.0
 40
1.966215470077731
100
AcDbArc
 50
202.5327085091218
 51
242.5098183367149
  0
LINE
  5
72BF
330
A
100
AcDbEntity
  8
0
  6
Continuous
 62
     9
100
AcDbLine
 10
57.44222200000002
 20
72.88094599999999
 30
0.0
 11
57.5866299999999
 21
72.8268519999998
 31
0.0
  0
LINE
  5
72C0
330
A
100
AcDbEntity
  8
0
  6
Continuous
 62
     9
100
AcDbLine
 10
57.5866299999999
 20
72.8268519999998
 30
0.0
 11
57.74219699999969
 21
72.789984
 31
0.0
  0
LINE
  5
72C1
330
A
100
AcDbEntity
  8
0
  6
Continuous
 62
     9
100
AcDbLine
 10
57.74219699999969
 20
72.789984
 30
0.0
 11
57.8904299999997
 21
72.77359100000001
 31
0.0
  0
LINE
  5
72C2
330
A
100
AcDbEntity
  8
0
  6
Continuous
 62
     9
100
AcDbLine
 10
57.8904299999997
 20
72.77359100000001
 30
0.0
 11
58.05210999999997
 21
72.77430000000004
 31
0.0
  0
ARC
  5
72C3
330
A
100
AcDbEntity
  8
0
  6
Continuous
 62
     9
100
AcDbCircle
 10
145.7188781226492
 20
-170.8701040701462
 30
0.0
 40
258.9363973406733
100
AcDbArc
 50
108.9806785310381
 51
109.7894623971643
  0
LINE
  5
782D
330
A
100
AcDbEntity
  8
0
  6
CENTER
 62
     1
100
AcDbLine
 10
50.0
 20
-3.0
 30
0.0
 11
13.85640646055094
 21
-3.0
 31
0.0
  0
LINE
  5
782E
330
A
100
AcDbEntity
  8
0
  6
CENTER
 62
     1
100
AcDbLine
 10
50.0
 20
81.0
 30
0.0
 11
13.85640646055094
 21
81.0
 31
0.0
  0
ARC
  5
782F
330
A
100
AcDbEntity
  8
0
  6
CENTER
 62
     1
100
AcDbCircle
 10
0.0
 20
78.0
 30
0.0
 40
11.0
100
AcDbArc
 50
30.00000000000055
 51
180.0
  0
ARC
  5
7830
330
A
100
AcDbEntity
  8
0
  6
CENTER
 62
     1
100
AcDbCircle
 10
13.85640646055094
 20
86.0
 30
0.0
 40
5.0
100
AcDbArc
 50
210.0000000000005
 51
270.0
  0
ARC
  5
7831
330
A
100
AcDbEntity
  8
0
  6
CENTER
 62
     1
100
AcDbCircle
 10
0.0
 20
0.0
 30
0.0
 40
11.0
100
AcDbArc
 50
180.0
 51
329.9999999999995
  0
ARC
  5
7832
330
A
100
AcDbEntity
  8
0
  6
CENTER
 62
     1
100
AcDbCircle
 10
13.85640646055094
 20
-8.0
 30
0.0
 40
5.0
100
AcDbArc
 50
90.0
 51
149.9999999999994
  0
LINE
  5
7833
330
A
100
AcDbEntity
  8
0
  6
CENTER
 62
     1
100
AcDbLine
 10
-11.0
 20
0.0
 30
0.0
 11
-11.0
 21
78.0
 31
0.0
  0
LINE
  5
7834
330
A
100
AcDbEntity
  8
0
  6
CENTER
 62
     1
100
AcDbLine
 10
-15.0
 20
78.0
 30
0.0
 11
15.0
 21
78.0
 31
0.0
  0
LINE
  5
7835
330
A
100
AcDbEntity
  8
0
  6
CENTER
 62
     1
100
AcDbLine
 10
0.0
 20
63.0
 30
0.0
 11
0.0
 21
93.0
 31
0.0
  0
LINE
  5
7836
330
A
100
AcDbEntity
  8
0
  6
CENTER
 62
     1
100
AcDbLine
 10
-15.0
 20
0.0
 30
0.0
 11
15.0
 21
0.0
 31
0.0
  0
LINE
  5
7837
330
A
100
AcDbEntity
  8
0
  6
CENTER
 62
     1
100
AcDbLine
 10
0.0
 20
-15.0
 30
0.0
 11
0.0
 21
15.0
 31
0.0
  0
LINE
  5
785E
330
A
100
AcDbEntity
  8
0
  6
CENTER
 62
     1
100
AcDbLine
 10
56.5
 20
-3.0
 30
0.0
 11
92.64359353944906
 21
-3.0
 31
0.0
  0
LINE
  5
785F
330
A
100
AcDbEntity
  8
0
  6
CENTER
 62
     1
100
AcDbLine
 10
56.5
 20
81.0
 30
0.0
 11
92.64359353944906
 21
81.0
 31
0.0
  0
ARC
  5
7860
330
A
100
AcDbEntity
  8
0
  6
CENTER
 62
     1
100
AcDbCircle
 10
106.5
 20
78.0
 30
0.0
 40
11.0
100
AcDbArc
 50
0.0
 51
150.0000000000083
  0
ARC
  5
7861
330
A
100
AcDbEntity
  8
0
  6
CENTER
 62
     1
100
AcDbCircle
 10
92.64359353944906
 20
86.0
 30
0.0
 40
5.0
100
AcDbArc
 50
270.0
 51
330.0000000000084
  0
ARC
  5
7862
330
A
100
AcDbEntity
  8
0
  6
CENTER
 62
     1
100
AcDbCircle
 10
106.5
 20
0.0
 30
0.0
 40
11.0
100
AcDbArc
 50
209.9999999999917
 51
0.0
  0
ARC
  5
7863
330
A
100
AcDbEntity
  8
0
  6
CENTER
 62
     1
100
AcDbCircle
 10
92.64359353944906
 20
-8.0
 30
0.0
 40
5.0
100
AcDbArc
 50
29.99999999999165
 51
90.0
  0
LINE
  5
7864
330
A
100
AcDbEntity
  8
0
  6
CENTER
 62
     1
100
AcDbLine
 10
117.5
 20
0.0
 30
0.0
 11
117.5
 21
78.0
 31
0.0
  0
LINE
  5
7865
330
A
100
AcDbEntity
  8
0
  6
CENTER
 62
     1
100
AcDbLine
 10
121.5
 20
78.0
 30
0.0
 11
91.5
 21
78.0
 31
0.0
  0
LINE
  5
7866
330
A
100
AcDbEntity
  8
0
  6
CENTER
 62
     1
100
AcDbLine
 10
106.5
 20
63.0
 30
0.0
 11
106.5
 21
93.0
 31
0.0
  0
LINE
  5
7867
330
A
100
AcDbEntity
  8
0
  6
CENTER
 62
     1
100
AcDbLine
 10
121.5
 20
0.0
 30
0.0
 11
91.5
 21
0.0
 31
0.0
  0
LINE
  5
7868
330
A
100
AcDbEntity
  8
0
  6
CENTER
 62
     1
100
AcDbLine
 10
106.5
 20
-15.0
 30
0.0
 11
106.5
 21
15.0
 31
0.0
  0
ENDSEC
  0
SECTION
  2
OBJECTS
  0
DICTIONARY
  5
19
330
0
100
AcDbDictionary
281
     1
  3
ACAD_COLOR
350
3988
  3
ACAD_GROUP
350
1A
  3
ACAD_LAYOUT
350
1E
  3
ACAD_MATERIAL
350
395E
  3
ACAD_MLEADERSTYLE
350
39AD
  3
ACAD_MLINESTYLE
350
1B
  3
ACAD_PLOTSETTINGS
350
22
  3
ACAD_PLOTSTYLENAME
350
1F
  3
ACAD_SCALELIST
350
398B
  3
ACAD_TABLESTYLE
350
3989
  3
ACAD_VISUALSTYLE
350
3977
  3
ACAD_WIPEOUT_VARS
350
23
  3
ACDB_RECOMPOSE_DATA
350
72EC
  3
AcDbVariableDictionary
350
72CB
  3
ASE_INDEX_DICTIONARY
350
72C6
  3
DWGPROPS
350
787F
  0
DICTIONARY
  5
72C9
330
14
100
AcDbDictionary
280
     1
281
     1
  3
ADSK_XREC_LAYER_RECONCILED
360
72CA
  0
DICTIONARY
  5
39B7
330
A
100
AcDbDictionary
280
     1
281
     1
  3
ACAD_SORTENTS
360
39B8
  0
DICTIONARY
  5
3988
102
{ACAD_REACTORS
330
19
102
}
330
19
100
AcDbDictionary
281
     1
  0
DICTIONARY
  5
1A
102
{ACAD_REACTORS
330
19
102
}
330
19
100
AcDbDictionary
281
     1
  0
DICTIONARY
  5
1E
102
{ACAD_REACTORS
330
19
102
}
330
19
100
AcDbDictionary
281
     1
  3
Layout1
350
21
  3
Model
350
20
  0
DICTIONARY
  5
395E
102
{ACAD_REACTORS
330
19
102
}
330
19
100
AcDbDictionary
281
     1
  3
ByBlock
350
3967
  3
ByLayer
350
395F
  3
Global
350
396F
  0
DICTIONARY
  5
39AD
102
{ACAD_REACTORS
330
19
102
}
330
19
100
AcDbDictionary
281
     1
  3
Standard
350
39AE
  0
DICTIONARY
  5
1B
102
{ACAD_REACTORS
330
19
102
}
330
19
100
AcDbDictionary
281
     1
  3
Standard
350
1C
  0
DICTIONARY
  5
22
102
{ACAD_REACTORS
330
19
102
}
330
19
100
AcDbDictionary
281
     1
  0
ACDBDICTIONARYWDFLT
  5
1F
102
{ACAD_REACTORS
330
19
102
}
330
19
100
AcDbDictionary
281
     1
  3
Normal
350
1D
100
AcDbDictionaryWithDefault
340
1D
  0
DICTIONARY
  5
398B
102
{ACAD_REACTORS
330
19
102
}
330
19
100
AcDbDictionary
281
     1
  3
A0
350
398C
  3
A1
350
398D
  3
A2
350
398E
  3
A3
350
398F
  3
A4
350
3990
  3
A5
350
3991
  3
A6
350
3992
  3
A7
350
3993
  3
A8
350
3994
  3
A9
350
3995
  3
B0
350
3996
  3
B1
350
3997
  3
B2
350
3998
  3
B3
350
3999
  3
B4
350
399A
  3
B5
350
399B
  3
B6
350
399C
  3
B7
350
399D
  3
B8
350
399E
  3
B9
350
399F
  3
C0
350
39A0
  3
C1
350
39A1
  3
C2
350
39A2
  3
C3
350
39A3
  3
C4
350
39A4
  3
C5
350
39A5
  3
C6
350
39A6
  3
C7
350
39A7
  3
C8
350
39A8
  3
C9
350
39A9
  3
D0
350
39AA
  3
D1
350
39AB
  3
D2
350
39AC
  0
DICTIONARY
  5
3989
102
{ACAD_REACTORS
330
19
102
}
330
19
100
AcDbDictionary
281
     1
  3
Standard
350
398A
  0
DICTIONARY
  5
3977
102
{ACAD_REACTORS
330
19
102
}
330
19
100
AcDbDictionary
281
     1
  3
2dWireframe
350
397D
  3
3D Hidden
350
397F
  3
3dWireframe
350
397E
  3
Basic
350
397C
  3
Brighten
350
3983
  3
ColorChange
350
3987
  3
Conceptual
350
3980
  3
Dim
350
3982
  3
Facepattern
350
3986
  3
Flat
350
3978
  3
FlatWithEdges
350
3979
  3
Gouraud
350
397A
  3
GouraudWithEdges
350
397B
  3
Linepattern
350
3985
  3
Realistic
350
3981
  3
Thicken
350
3984
  0
WIPEOUTVARIABLES
  5
23
330
19
100
AcDbWipeoutVariables
 70
     1
  0
XRECORD
  5
72EC
102
{ACAD_REACTORS
330
19
102
}
330
19
100
AcDbXrecord
280
     1
 90
        1
330
398A
  0
DICTIONARY
  5
72CB
102
{ACAD_REACTORS
330
19
102
}
330
19
100
AcDbDictionary
281
     1
  3
CANNOSCALE
350
72CE
  3
CMLEADERSTYLE
350
72CD
  3
CTABLESTYLE
350
72CC
  3
DIMASSOC
350
72D1
  3
INDEXCTL
350
72D0
  3
SORTENTS
350
72CF
  0
DICTIONARY
  5
72C6
102
{ACAD_REACTORS
330
19
102
}
330
19
100
AcDbDictionary
281
     1
  3
ASEBlockHierarchyIndexRecord
350
72C8
1001
DCO15
1040
1687090590.691
  0
XRECORD
  5
787F
102
{ACAD_REACTORS
330
19
102
}
330
19
100
AcDbXrecord
280
     1
  1
DWGPROPS COOKIE
  2

  3

  4

  6

  7

  8
renzo.ceresoli
  9

300
=
301
=
302
=
303
=
304
=
305
=
306
=
307
=
308
=
309
=
 40
0.0309579976851852
 41
2455329.702198484
 42
2455380.471587951
  1

 90
        0
  0
XRECORD
  5
72CA
102
{ACAD_REACTORS
330
72C9
102
}
330
72C9
100
AcDbXrecord
280
     1
290
     1
  0
SORTENTSTABLE
  5
39B8
102
{ACAD_REACTORS
330
39B7
102
}
330
39B7
100
AcDbSortentsTable
330
A
331
693C
  5
3EE4
331
6967
  5
3F0F
331
699A
  5
3F42
331
682B
  5
410A
331
685E
  5
413D
331
6890
  5
3FF7
331
6777
  5
4064
331
6A9F
  5
3ED4
331
6ACA
  5
3DD1
331
69E5
  5
3F8D
331
6A18
  5
3E4D
331
690E
  5
3FC1
331
6941
  5
3EE9
331
67CA
  5
40B7
331
67F5
  5
40E2
331
6830
  5
410F
331
6B35
  5
3E1F
331
6A71
  5
3EA6
331
698C
  5
3F34
331
69BF
  5
3F67
331
6882
  5
4161
331
68B5
  5
401C
331
68E0
  5
4047
331
679C
  5
4089
331
6B07
  5
3DF1
331
6A0A
  5
3E3F
331
6A3D
  5
3E72
331
6933
  5
3FE6
331
695E
  5
3F06
331
6822
  5
4101
331
6855
  5
4134
331
6A63
  5
3E98
331
6A96
  5
3ECB
331
6AC1
  5
3DC8
331
69B1
  5
3F59
331
69DC
  5
3F84
331
68A7
  5
400E
331
68DA
  5
4041
331
6905
  5
3FB8
331
678E
  5
407B
331
67C1
  5
40AE
331
67EC
  5
40D9
331
6B2C
  5
3E16
331
6A2F
  5
3E64
331
6A68
  5
3E9D
331
6983
  5
3F2B
331
6847
  5
4126
331
6879
  5
4158
331
68AC
  5
4013
331
6768
  5
4055
331
6793
  5
4080
331
6ABB
  5
3DC2
331
6AFE
  5
3DE8
331
6A01
  5
3E36
331
6A34
  5
3E69
331
68F7
  5
3FAA
331
692A
  5
3FDD
331
67E6
  5
40D3
331
6A5A
  5
3E8F
331
6A8D
  5
3EC2
331
6975
  5
3F1D
331
69A8
  5
3F50
331
69D3
  5
3F7B
331
689E
  5
4005
331
68D1
  5
4038
331
6785
  5
4072
331
67B8
  5
40A5
331
6B23
  5
3E0D
331
6A26
  5
3E5B
331
691C
  5
3FCF
331
694F
  5
3EF7
331
697A
  5
3F22
331
6803
  5
40F0
331
683E
  5
411D
331
6870
  5
414F
331
675F
  5
404C
331
6A7F
  5
3EB4
331
6AB2
  5
3DB9
331
69CD
  5
3F75
331
69F8
  5
3E2D
331
68C3
  5
402A
331
68EE
  5
3FA1
331
6921
  5
3FD4
331
67AA
  5
4097
331
67DD
  5
40CA
331
6808
  5
40F5
331
6B15
  5
3DFF
331
6A51
  5
3E86
331
696C
  5
3F14
331
699F
  5
3F47
331
6863
  5
4142
331
96F
  5
416E
331
6895
  5
3FFC
331
68C8
  5
402F
331
677C
  5
4069
331
6AA4
  5
3ED9
331
6ACF
  5
3DD6
331
6B1A
  5
3E04
331
69EA
  5
3F92
331
6A1D
  5
3E52
331
6913
  5
3FC6
331
6946
  5
3EEE
331
67CF
  5
40BC
331
67FA
  5
40E7
331
6835
  5
4114
331
6A76
  5
3EAB
331
6AA9
  5
3EDE
331
6991
  5
3F39
331
69C4
  5
3F6C
331
6887
  5
3FEE
331
68BA
  5
4021
331
68E5
  5
3F98
331
67A1
  5
408E
331
67D4
  5
40C1
331
6B0C
  5
3DF6
331
6A0F
  5
3E44
331
6A42
  5
3E77
331
6A48
  5
3E7D
331
6938
  5
3FEB
331
6963
  5
3F0B
331
6827
  5
4106
331
685A
  5
4139
331
688C
  5
3FF3
331
6773
  5
4060
331
6A9B
  5
3ED0
331
6AC6
  5
3DCD
331
69B6
  5
3F5E
331
69E1
  5
3F89
331
6A14
  5
3E49
331
68DF
  5
4046
331
690A
  5
3FBD
331
67C6
  5
40B3
331
67F1
  5
40DE
331
6B31
  5
3E1B
331
6A6D
  5
3EA2
331
6988
  5
3F30
331
69BB
  5
3F63
331
684C
  5
412B
331
687E
  5
415D
331
68B1
  5
4018
331
676D
  5
405A
331
6798
  5
4085
331
6B03
  5
3DED
331
6A06
  5
3E3B
331
6A39
  5
3E6E
331
68FC
  5
3FAF
331
692F
  5
3FE2
331
695A
  5
3F02
331
681E
  5
40FD
331
6851
  5
4130
331
6A5F
  5
3E94
331
6A92
  5
3EC7
331
69AD
  5
3F55
331
69D8
  5
3F80
331
68A3
  5
400A
331
68D6
  5
403D
331
6901
  5
3FB4
331
678A
  5
4077
331
67BD
  5
40AA
331
67E8
  5
40D5
331
6B28
  5
3E12
331
6A2B
  5
3E60
331
6954
  5
3EFC
331
697F
  5
3F27
331
6843
  5
4122
331
6875
  5
4154
331
68A8
  5
400F
331
6764
  5
4051
331
6AB7
  5
3DBE
331
6A84
  5
3EB9
331
6AFA
  5
3DE4
331
69FD
  5
3E32
331
6A30
  5
3E65
331
68F3
  5
3FA6
331
6926
  5
3FD9
331
67AF
  5
409C
331
67E2
  5
40CF
331
6A56
  5
3E8B
331
6A89
  5
3EBE
331
6971
  5
3F19
331
69A4
  5
3F4C
331
689A
  5
4001
331
68CD
  5
4034
331
6781
  5
406E
331
67B4
  5
40A1
331
6AD4
  5
3DDB
331
6B1F
  5
3E09
331
69EF
  5
3E24
331
6A22
  5
3E57
331
6918
  5
3FCB
331
694B
  5
3EF3
331
67FF
  5
40EC
331
683A
  5
4119
331
686C
  5
414B
331
6A7B
  5
3EB0
331
6AAE
  5
3DB5
331
6996
  5
3F3E
331
69C9
  5
3F71
331
69F4
  5
3E29
331
68BF
  5
4026
331
68EA
  5
3F9D
331
67A6
  5
4093
331
67D9
  5
40C6
331
6B11
  5
3DFB
331
6A47
  5
3E7C
331
6A4D
  5
3E82
331
693D
  5
3EE5
331
6968
  5
3F10
331
699B
  5
3F43
331
682C
  5
410B
331
685F
  5
413E
331
6891
  5
3FF8
331
6778
  5
4065
331
6AA0
  5
3ED5
331
6ACB
  5
3DD2
331
69E6
  5
3F8E
331
6A19
  5
3E4E
331
690F
  5
3FC2
331
6942
  5
3EEA
331
67CB
  5
40B8
331
67F6
  5
40E3
331
6831
  5
4110
331
6B36
  5
3E20
331
6A72
  5
3EA7
331
698D
  5
3F35
331
69C0
  5
3F68
331
6883
  5
4162
331
68B6
  5
401D
331
68E1
  5
4048
331
679D
  5
408A
331
67D0
  5
40BD
331
6B08
  5
3DF2
331
6A0B
  5
3E40
331
6A3E
  5
3E73
331
6934
  5
3FE7
331
695F
  5
3F07
331
6823
  5
4102
331
6856
  5
4135
331
6888
  5
3FEF
331
6A64
  5
3E99
331
6A97
  5
3ECC
331
6AC2
  5
3DC9
331
69B2
  5
3F5A
331
69DD
  5
3F85
331
6A10
  5
3E45
331
68DB
  5
4042
331
6906
  5
3FB9
331
678F
  5
407C
331
67C2
  5
40AF
331
67ED
  5
40DA
331
6B2D
  5
3E17
331
6A69
  5
3E9E
331
6984
  5
3F2C
331
6848
  5
4127
331
687A
  5
4159
331
68AD
  5
4014
331
6769
  5
4056
331
6794
  5
4081
331
6ABC
  5
3DC3
331
6AFF
  5
3DE9
331
6A02
  5
3E37
331
6A35
  5
3E6A
331
68F8
  5
3FAB
331
692B
  5
3FDE
331
67E7
  5
40D4
331
6A5B
  5
3E90
331
6A8E
  5
3EC3
331
6976
  5
3F1E
331
69A9
  5
3F51
331
69D4
  5
3F7C
331
689F
  5
4006
331
68D2
  5
4039
331
6786
  5
4073
331
67B9
  5
40A6
331
6B24
  5
3E0E
331
6A27
  5
3E5C
331
691D
  5
3FD0
331
6950
  5
3EF8
331
697B
  5
3F23
331
6804
  5
40F1
331
683F
  5
411E
331
6871
  5
4150
331
6760
  5
404D
331
6A80
  5
3EB5
331
6AB3
  5
3DBA
331
69CE
  5
3F76
331
69F9
  5
3E2E
331
68C4
  5
402B
331
68EF
  5
3FA2
331
6922
  5
3FD5
331
67AB
  5
4098
331
67DE
  5
40CB
331
6809
  5
40F6
331
6B16
  5
3E00
331
6A52
  5
3E87
331
696D
  5
3F15
331
69A0
  5
3F48
331
6864
  5
4143
331
970
  5
416F
331
6896
  5
3FFD
331
68C9
  5
4030
331
677D
  5
406A
331
67B0
  5
409D
331
6AA5
  5
3EDA
331
6AD0
  5
3DD7
331
6B1B
  5
3E05
331
69EB
  5
3F93
331
6A1E
  5
3E53
331
6914
  5
3FC7
331
6947
  5
3EEF
331
67FB
  5
40E8
331
6836
  5
4115
331
6868
  5
4147
331
6A77
  5
3EAC
331
6AAA
  5
3EDF
331
6992
  5
3F3A
331
69C5
  5
3F6D
331
69F0
  5
3E25
331
68BB
  5
4022
331
68E6
  5
3F99
331
67A2
  5
408F
331
67D5
  5
40C2
331
6B0D
  5
3DF7
331
6A43
  5
3E78
331
6A49
  5
3E7E
331
6939
  5
3FEC
331
6964
  5
3F0C
331
6828
  5
4107
331
685B
  5
413A
331
688D
  5
3FF4
331
6774
  5
4061
331
6A9C
  5
3ED1
331
6AC7
  5
3DCE
331
69B7
  5
3F5F
331
69E2
  5
3F8A
331
6A15
  5
3E4A
331
690B
  5
3FBE
331
67C7
  5
40B4
331
67F2
  5
40DF
331
6B32
  5
3E1C
331
6A6E
  5
3EA3
331
6989
  5
3F31
331
69BC
  5
3F64
331
684D
  5
412C
331
687F
  5
415E
331
68B2
  5
4019
331
676E
  5
405B
331
6799
  5
4086
331
6B04
  5
3DEE
331
6A07
  5
3E3C
331
6A3A
  5
3E6F
331
68FD
  5
3FB0
331
6930
  5
3FE3
331
695B
  5
3F03
331
681F
  5
40FE
331
6852
  5
4131
331
6A60
  5
3E95
331
6A93
  5
3EC8
331
69AE
  5
3F56
331
69D9
  5
3F81
331
68A4
  5
400B
331
68D7
  5
403E
331
6902
  5
3FB5
331
678B
  5
4078
331
67BE
  5
40AB
331
67E9
  5
40D6
331
6AE6
  5
3DE0
331
6B29
  5
3E13
331
6A2C
  5
3E61
331
6955
  5
3EFD
331
6980
  5
3F28
331
6844
  5
4123
331
6876
  5
4155
331
68A9
  5
4010
331
6790
  5
407D
331
6765
  5
4052
331
6A85
  5
3EBA
331
6AB8
  5
3DBF
331
6AFB
  5
3DE5
331
69FE
  5
3E33
331
6A31
  5
3E66
331
68F4
  5
3FA7
331
6927
  5
3FDA
331
67E3
  5
40D0
331
6A57
  5
3E8C
331
6A8A
  5
3EBF
331
6972
  5
3F1A
331
69A5
  5
3F4D
331
69D0
  5
3F78
331
689B
  5
4002
331
68CE
  5
4035
331
6782
  5
406F
331
67B5
  5
40A2
331
6AD5
  5
3DDC
331
6B20
  5
3E0A
331
6A23
  5
3E58
331
6919
  5
3FCC
331
694C
  5
3EF4
331
6800
  5
40ED
331
683B
  5
411A
331
686D
  5
414C
331
6A7C
  5
3EB1
331
6AAF
  5
3DB6
331
6997
  5
3F3F
331
69CA
  5
3F72
331
69F5
  5
3E2A
331
68C0
  5
4027
331
68EB
  5
3F9E
331
67A7
  5
4094
331
67DA
  5
40C7
331
6B12
  5
3DFC
331
6A4E
  5
3E83
331
693E
  5
3EE6
331
6969
  5
3F11
331
699C
  5
3F44
331
682D
  5
410C
331
6860
  5
413F
331
96C
  5
416B
331
6892
  5
3FF9
331
6779
  5
4066
331
6AA1
  5
3ED6
331
6ACC
  5
3DD3
331
69E7
  5
3F8F
331
6A1A
  5
3E4F
331
6910
  5
3FC3
331
6943
  5
3EEB
331
67CC
  5
40B9
331
67F7
  5
40E4
331
6832
  5
4111
331
6B37
  5
3E21
331
6A73
  5
3EA8
331
698E
  5
3F36
331
69C1
  5
3F69
331
6884
  5
4163
331
68B7
  5
401E
331
68E2
  5
4049
331
679E
  5
408B
331
67D1
  5
40BE
331
6B09
  5
3DF3
331
6A0C
  5
3E41
331
6A3F
  5
3E74
331
6935
  5
3FE8
331
6960
  5
3F08
331
6824
  5
4103
331
6857
  5
4136
331
6889
  5
3FF0
331
6770
  5
405D
331
6A65
  5
3E9A
331
6A98
  5
3ECD
331
6AC3
  5
3DCA
331
69B3
  5
3F5B
331
69DE
  5
3F86
331
6A11
  5
3E46
331
68DC
  5
4043
331
6907
  5
3FBA
331
67C3
  5
40B0
331
67EE
  5
40DB
331
6B2E
  5
3E18
331
6A6A
  5
3E9F
331
6985
  5
3F2D
331
69B8
  5
3F60
331
6849
  5
4128
331
687B
  5
415A
331
68AE
  5
4015
331
676A
  5
4057
331
6795
  5
4082
331
6ABD
  5
3DC4
331
6B00
  5
3DEA
331
6A03
  5
3E38
331
6A36
  5
3E6B
331
68F9
  5
3FAC
331
692C
  5
3FDF
331
681B
  5
40FA
331
6A5C
  5
3E91
331
6A8F
  5
3EC4
331
6977
  5
3F1F
331
69AA
  5
3F52
331
69D5
  5
3F7D
331
68A0
  5
4007
331
68D3
  5
403A
331
6787
  5
4074
331
67BA
  5
40A7
331
6B25
  5
3E0F
331
6A28
  5
3E5D
331
691E
  5
3FD1
331
6951
  5
3EF9
331
697C
  5
3F24
331
6805
  5
40F2
331
6840
  5
411F
331
6872
  5
4151
331
6761
  5
404E
331
6A81
  5
3EB6
331
6AB4
  5
3DBB
331
69CF
  5
3F77
331
69FA
  5
3E2F
331
68C5
  5
402C
331
68F0
  5
3FA3
331
6923
  5
3FD6
331
67AC
  5
4099
331
67DF
  5
40CC
331
680A
  5
40F7
331
6B17
  5
3E01
331
6A53
  5
3E88
331
696E
  5
3F16
331
69A1
  5
3F49
331
6865
  5
4144
331
971
  5
4170
331
6897
  5
3FFE
331
68CA
  5
4031
331
677E
  5
406B
331
67B1
  5
409E
331
6AA6
  5
3EDB
331
6AD1
  5
3DD8
331
6B1C
  5
3E06
331
69EC
  5
3F94
331
6A1F
  5
3E54
331
6915
  5
3FC8
331
6948
  5
3EF0
331
67FC
  5
40E9
331
6837
  5
4116
331
6869
  5
4148
331
6A78
  5
3EAD
331
6AAB
  5
3EE0
331
6993
  5
3F3B
331
69C6
  5
3F6E
331
69F1
  5
3E26
331
68BC
  5
4023
331
68E7
  5
3F9A
331
67A3
  5
4090
331
67D6
  5
40C3
331
6B0E
  5
3DF8
331
6A44
  5
3E79
331
6A4A
  5
3E7F
331
693A
  5
3EE2
331
6965
  5
3F0D
331
6998
  5
3F40
331
6829
  5
4108
331
685C
  5
413B
331
688E
  5
3FF5
331
6775
  5
4062
331
6A9D
  5
3ED2
331
6AC8
  5
3DCF
331
69E3
  5
3F8B
331
6A16
  5
3E4B
331
690C
  5
3FBF
331
67C8
  5
40B5
331
67F3
  5
40E0
331
6B33
  5
3E1D
331
6A6F
  5
3EA4
331
698A
  5
3F32
331
69BD
  5
3F65
331
684E
  5
412D
331
6880
  5
415F
331
68B3
  5
401A
331
676F
  5
405C
331
679A
  5
4087
331
6B05
  5
3DEF
331
6B38
  5
3E22
331
6A08
  5
3E3D
331
6A3B
  5
3E70
331
68FE
  5
3FB1
331
6931
  5
3FE4
331
695C
  5
3F04
331
6820
  5
40FF
331
6853
  5
4132
331
6A61
  5
3E96
331
6A94
  5
3EC9
331
69AF
  5
3F57
331
69DA
  5
3F82
331
68A5
  5
400C
331
68D8
  5
403F
331
6903
  5
3FB6
331
678C
  5
4079
331
67BF
  5
40AC
331
67EA
  5
40D7
331
6B2A
  5
3E14
331
6A2D
  5
3E62
331
6956
  5
3EFE
331
6981
  5
3F29
331
6845
  5
4124
331
6877
  5
4156
331
68AA
  5
4011
331
6766
  5
4053
331
6791
  5
407E
331
6A86
  5
3EBB
331
6AB9
  5
3DC0
331
6AFC
  5
3DE6
331
69FF
  5
3E34
331
6A32
  5
3E67
331
68F5
  5
3FA8
331
6928
  5
3FDB
331
67E4
  5
40D1
331
6A58
  5
3E8D
331
6A8B
  5
3EC0
331
6973
  5
3F1B
331
69A6
  5
3F4E
331
69D1
  5
3F79
331
689C
  5
4003
331
68CF
  5
4036
331
6783
  5
4070
331
67B6
  5
40A3
331
6AD6
  5
3DDD
331
6B21
  5
3E0B
331
6A24
  5
3E59
331
691A
  5
3FCD
331
694D
  5
3EF5
331
6978
  5
3F20
331
6801
  5
40EE
331
683C
  5
411B
331
686E
  5
414D
331
6A7D
  5
3EB2
331
6AB0
  5
3DB7
331
69CB
  5
3F73
331
69F6
  5
3E2B
331
68C1
  5
4028
331
68EC
  5
3F9F
331
67A8
  5
4095
331
67DB
  5
40C8
331
6B13
  5
3DFD
331
6A4F
  5
3E84
331
693F
  5
3EE7
331
696A
  5
3F12
331
699D
  5
3F45
331
682E
  5
410D
331
6861
  5
4140
331
96D
  5
416C
331
6893
  5
3FFA
331
677A
  5
4067
331
6AA2
  5
3ED7
331
6ACD
  5
3DD4
331
6B18
  5
3E02
331
69E8
  5
3F90
331
6A1B
  5
3E50
331
6911
  5
3FC4
331
6944
  5
3EEC
331
67CD
  5
40BA
331
67F8
  5
40E5
331
6833
  5
4112
331
6A74
  5
3EA9
331
698F
  5
3F37
331
69C2
  5
3F6A
331
6885
  5
4164
331
68B8
  5
401F
331
68E3
  5
404A
331
679F
  5
408C
331
67D2
  5
40BF
331
6B0A
  5
3DF4
331
6A0D
  5
3E42
331
6A40
  5
3E75
331
6936
  5
3FE9
331
6961
  5
3F09
331
6825
  5
4104
331
6858
  5
4137
331
688A
  5
3FF1
331
6771
  5
405E
331
6A66
  5
3E9B
331
6A99
  5
3ECE
331
6AC4
  5
3DCB
331
69B4
  5
3F5C
331
69DF
  5
3F87
331
6A12
  5
3E47
331
68DD
  5
4044
331
6908
  5
3FBB
331
67C4
  5
40B1
331
67EF
  5
40DC
331
6B2F
  5
3E19
331
6A6B
  5
3EA0
331
6986
  5
3F2E
331
69B9
  5
3F61
331
684A
  5
4129
331
687C
  5
415B
331
68AF
  5
4016
331
676B
  5
4058
331
6796
  5
4083
331
6ABE
  5
3DC5
331
6B01
  5
3DEB
331
6A04
  5
3E39
331
6A37
  5
3E6C
331
68FA
  5
3FAD
331
692D
  5
3FE0
331
6958
  5
3F00
331
681C
  5
40FB
331
6A5D
  5
3E92
331
6A90
  5
3EC5
331
69AB
  5
3F53
331
69D6
  5
3F7E
331
68A1
  5
4008
331
68D4
  5
403B
331
6788
  5
4075
331
67BB
  5
40A8
331
6B26
  5
3E10
331
6A29
  5
3E5E
331
691F
  5
3FD2
331
6952
  5
3EFA
331
697D
  5
3F25
331
6806
  5
40F3
331
6841
  5
4120
331
6873
  5
4152
331
6762
  5
404F
331
6A82
  5
3EB7
331
6AB5
  5
3DBC
331
69FB
  5
3E30
331
68C6
  5
402D
331
68F1
  5
3FA4
331
6924
  5
3FD7
331
67AD
  5
409A
331
67E0
  5
40CD
331
680B
  5
40F8
331
6A54
  5
3E89
331
696F
  5
3F17
331
69A2
  5
3F4A
331
6866
  5
4145
331
6898
  5
3FFF
331
68CB
  5
4032
331
677F
  5
406C
331
67B2
  5
409F
331
6AA7
  5
3EDC
331
6AD2
  5
3DD9
331
6B1D
  5
3E07
331
69ED
  5
3F95
331
6A20
  5
3E55
331
6916
  5
3FC9
331
6949
  5
3EF1
331
67FD
  5
40EA
331
6838
  5
4117
331
686A
  5
4149
331
6A79
  5
3EAE
331
6AAC
  5
3EE1
331
6994
  5
3F3C
331
69C7
  5
3F6F
331
69F2
  5
3E27
331
68BD
  5
4024
331
68E8
  5
3F9B
331
67A4
  5
4091
331
67D7
  5
40C4
331
6B0F
  5
3DF9
331
6A45
  5
3E7A
331
6A4B
  5
3E80
331
693B
  5
3EE3
331
6966
  5
3F0E
331
6999
  5
3F41
331
682A
  5
4109
331
685D
  5
413C
331
688F
  5
3FF6
331
6776
  5
4063
331
6A9E
  5
3ED3
331
6AC9
  5
3DD0
331
69E4
  5
3F8C
331
6A17
  5
3E4C
331
690D
  5
3FC0
331
6940
  5
3EE8
331
67C9
  5
40B6
331
67F4
  5
40E1
331
6B34
  5
3E1E
331
6A70
  5
3EA5
331
698B
  5
3F33
331
69BE
  5
3F66
331
684F
  5
412E
331
6881
  5
4160
331
68B4
  5
401B
331
679B
  5
4088
331
6B06
  5
3DF0
331
6B39
  5
3E23
331
6A09
  5
3E3E
331
6A3C
  5
3E71
331
68FF
  5
3FB2
331
6932
  5
3FE5
331
695D
  5
3F05
331
6821
  5
4100
331
6854
  5
4133
331
6A62
  5
3E97
331
6A95
  5
3ECA
331
6AC0
  5
3DC7
331
69B0
  5
3F58
331
69DB
  5
3F83
331
68A6
  5
400D
331
68D9
  5
4040
331
6904
  5
3FB7
331
678D
  5
407A
331
67C0
  5
40AD
331
67EB
  5
40D8
331
6B2B
  5
3E15
331
6A2E
  5
3E63
331
6957
  5
3EFF
331
6982
  5
3F2A
331
6846
  5
4125
331
6878
  5
4157
331
68AB
  5
4012
331
6767
  5
4054
331
6792
  5
407F
331
6A87
  5
3EBC
331
6ABA
  5
3DC1
331
6AFD
  5
3DE7
331
6A00
  5
3E35
331
6A33
  5
3E68
331
68F6
  5
3FA9
331
6929
  5
3FDC
331
67E5
  5
40D2
331
6A59
  5
3E8E
331
6A8C
  5
3EC1
331
6974
  5
3F1C
331
69A7
  5
3F4F
331
69D2
  5
3F7A
331
689D
  5
4004
331
68D0
  5
4037
331
6784
  5
4071
331
67B7
  5
40A4
331
6B22
  5
3E0C
331
6A25
  5
3E5A
331
691B
  5
3FCE
331
694E
  5
3EF6
331
6979
  5
3F21
331
6802
  5
40EF
331
683D
  5
411C
331
686F
  5
414E
331
675E
  5
404B
331
6A7E
  5
3EB3
331
6AB1
  5
3DB8
331
69CC
  5
3F74
331
69F7
  5
3E2C
331
68C2
  5
4029
331
68ED
  5
3FA0
331
6920
  5
3FD3
331
67A9
  5
4096
331
67DC
  5
40C9
331
6B14
  5
3DFE
331
6A50
  5
3E85
331
696B
  5
3F13
331
699E
  5
3F46
331
682F
  5
410E
331
6862
  5
4141
331
96E
  5
416D
331
6894
  5
3FFB
331
677B
  5
4068
331
6AA3
  5
3ED8
331
6ACE
  5
3DD5
331
6B19
  5
3E03
331
69E9
  5
3F91
331
6A1C
  5
3E51
331
6912
  5
3FC5
331
6945
  5
3EED
331
67CE
  5
40BB
331
67F9
  5
40E6
331
6834
  5
4113
331
6A75
  5
3EAA
331
6AA8
  5
3EDD
331
6990
  5
3F38
331
69C3
  5
3F6B
331
6886
  5
3FED
331
68B9
  5
4020
331
68E4
  5
3F97
331
67A0
  5
408D
331
67D3
  5
40C0
331
6B0B
  5
3DF5
331
6A0E
  5
3E43
331
6A41
  5
3E76
331
6937
  5
3FEA
331
6962
  5
3F0A
331
6826
  5
4105
331
6859
  5
4138
331
688B
  5
3FF2
331
6772
  5
405F
331
6A67
  5
3E9C
331
6A9A
  5
3ECF
331
6AC5
  5
3DCC
331
69B5
  5
3F5D
331
69E0
  5
3F88
331
6A13
  5
3E48
331
68DE
  5
4045
331
6909
  5
3FBC
331
67C5
  5
40B2
331
67F0
  5
40DD
331
6B30
  5
3E1A
331
6A6C
  5
3EA1
331
6987
  5
3F2F
331
69BA
  5
3F62
331
684B
  5
412A
331
687D
  5
415C
331
68B0
  5
4017
331
676C
  5
4059
331
6797
  5
4084
331
6ABF
  5
3DC6
331
6B02
  5
3DEC
331
6A05
  5
3E3A
331
6A38
  5
3E6D
331
68FB
  5
3FAE
331
692E
  5
3FE1
331
6959
  5
3F01
331
681D
  5
40FC
331
6850
  5
412F
331
6A5E
  5
3E93
331
6A91
  5
3EC6
331
69AC
  5
3F54
331
69D7
  5
3F7F
331
6900
  5
3FB3
331
68D5
  5
403C
331
68A2
  5
4009
331
6789
  5
4076
331
67BC
  5
40A9
331
6B27
  5
3E11
331
6A2A
  5
3E5F
331
697E
  5
3F26
331
6953
  5
3EFB
331
6807
  5
40F4
331
6842
  5
4121
331
6874
  5
4153
331
6763
  5
4050
331
6A83
  5
3EB8
331
6AB6
  5
3DBD
331
6AF9
  5
3DE3
331
69FC
  5
3E31
331
68C7
  5
402E
331
68F2
  5
3FA5
331
6925
  5
3FD8
331
67AE
  5
409B
331
67E1
  5
40CE
331
6A55
  5
3E8A
331
6A88
  5
3EBD
331
6970
  5
3F18
331
69A3
  5
3F4B
331
6867
  5
4146
331
6899
  5
4000
331
68CC
  5
4033
331
6780
  5
406D
331
67B3
  5
40A0
331
6AD3
  5
3DDA
331
6B1E
  5
3E08
331
69EE
  5
3F96
331
6A21
  5
3E56
331
6917
  5
3FCA
331
694A
  5
3EF2
331
67FE
  5
40EB
331
6839
  5
4118
331
686B
  5
414A
331
6A7A
  5
3EAF
331
6AAD
  5
3DB4
331
6995
  5
3F3D
331
69C8
  5
3F70
331
69F3
  5
3E28
331
68BE
  5
4025
331
68E9
  5
3F9C
331
67A5
  5
4092
331
67D8
  5
40C5
331
6B10
  5
3DFA
331
6A46
  5
3E7B
331
6A4C
  5
3E81
  0
LAYOUT
  5
21
102
{ACAD_XDICTIONARY
360
7882
102
}
102
{ACAD_REACTORS
330
1E
102
}
330
1E
100
AcDbPlotSettings
  1

  2

  4

  6

 40
0.0
 41
0.0
 42
0.0
 43
0.0
 44
0.0
 45
0.0
 46
0.0
 47
0.0
 48
0.0
 49
0.0
140
0.0
141
0.0
142
1.0
143
1.0
 70
     0
 72
     0
 73
     0
 74
     0
  7

 75
     0
147
1.0
148
0.0
149
0.0
100
AcDbLayout
  1
Layout1
 70
     0
 71
     1
 10
0.0
 20
0.0
 11
12.0
 21
9.0
 12
0.0
 22
0.0
 32
0.0
 14
1.000000000000000E+20
 24
1.000000000000000E+20
 34
1.000000000000000E+20
 15
-1.000000000000000E+20
 25
-1.000000000000000E+20
 35
-1.000000000000000E+20
146
0.0
 13
0.0
 23
0.0
 33
0.0
 16
1.0
 26
0.0
 36
0.0
 17
0.0
 27
1.0
 37
0.0
 76
     0
330
B
  0
LAYOUT
  5
20
102
{ACAD_XDICTIONARY
360
7880
102
}
102
{ACAD_REACTORS
330
1E
102
}
330
1E
100
AcDbPlotSettings
  1

  2

  4

  6

 40
0.0
 41
0.0
 42
0.0
 43
0.0
 44
0.0
 45
0.0
 46
0.0
 47
0.0
 48
0.0
 49
0.0
140
0.0
141
0.0
142
1.0
143
1.0
 70
  1024
 72
     0
 73
     0
 74
     0
  7

 75
     0
147
1.0
148
0.0
149
0.0
100
AcDbLayout
  1
Model
 70
     0
 71
     0
 10
0.0
 20
0.0
 11
0.0
 21
0.0
 12
0.0
 22
0.0
 32
0.0
 14
0.0
 24
0.0
 34
0.0
 15
0.0
 25
0.0
 35
0.0
146
0.0
 13
0.0
 23
0.0
 33
0.0
 16
0.0
 26
0.0
 36
0.0
 17
0.0
 27
0.0
 37
0.0
 76
     0
330
A
331
15
  0
MATERIAL
  5
3967
102
{ACAD_XDICTIONARY
360
3968
102
}
102
{ACAD_REACTORS
330
395E
102
}
330
395E
100
AcDbMaterial
  1
ByBlock
 72
     0
 43
0.0208333333333333
 43
0.0
 43
0.0
 43
0.0
 43
0.0
 43
0.0208333333333333
 43
0.0
 43
0.0
 43
0.0
 43
0.0
 43
1.0
 43
0.0
 43
0.0
 43
0.0
 43
0.0
 43
1.0
 77
     0
 47
0.0208333333333333
 47
0.0
 47
0.0
 47
0.0
 47
0.0
 47
0.0208333333333333
 47
0.0
 47
0.0
 47
0.0
 47
0.0
 47
1.0
 47
0.0
 47
0.0
 47
0.0
 47
0.0
 47
1.0
171
     0
 49
0.0208333333333333
 49
0.0
 49
0.0
 49
0.0
 49
0.0
 49
0.0208333333333333
 49
0.0
 49
0.0
 49
0.0
 49
0.0
 49
1.0
 49
0.0
 49
0.0
 49
0.0
 49
0.0
 49
1.0
175
     0
142
0.0208333333333333
142
0.0
142
0.0
142
0.0
142
0.0
142
0.0208333333333333
142
0.0
142
0.0
142
0.0
142
0.0
142
1.0
142
0.0
142
0.0
142
0.0
142
0.0
142
1.0
179
     0
144
0.0208333333333333
144
0.0
144
0.0
144
0.0
144
0.0
144
0.0208333333333333
144
0.0
144
0.0
144
0.0
144
0.0
144
1.0
144
0.0
144
0.0
144
0.0
144
0.0
144
1.0
147
0.0208333333333333
147
0.0
147
0.0
147
0.0
147
0.0
147
0.0208333333333333
147
0.0
147
0.0
147
0.0
147
0.0
147
1.0
147
0.0
147
0.0
147
0.0
147
0.0
147
1.0
  0
MATERIAL
  5
395F
102
{ACAD_XDICTIONARY
360
3960
102
}
102
{ACAD_REACTORS
330
395E
102
}
330
395E
100
AcDbMaterial
  1
ByLayer
 72
     0
 43
0.0208333333333333
 43
0.0
 43
0.0
 43
0.0
 43
0.0
 43
0.0208333333333333
 43
0.0
 43
0.0
 43
0.0
 43
0.0
 43
1.0
 43
0.0
 43
0.0
 43
0.0
 43
0.0
 43
1.0
 77
     0
 47
0.0208333333333333
 47
0.0
 47
0.0
 47
0.0
 47
0.0
 47
0.0208333333333333
 47
0.0
 47
0.0
 47
0.0
 47
0.0
 47
1.0
 47
0.0
 47
0.0
 47
0.0
 47
0.0
 47
1.0
171
     0
 49
0.0208333333333333
 49
0.0
 49
0.0
 49
0.0
 49
0.0
 49
0.0208333333333333
 49
0.0
 49
0.0
 49
0.0
 49
0.0
 49
1.0
 49
0.0
 49
0.0
 49
0.0
 49
0.0
 49
1.0
175
     0
142
0.0208333333333333
142
0.0
142
0.0
142
0.0
142
0.0
142
0.0208333333333333
142
0.0
142
0.0
142
0.0
142
0.0
142
1.0
142
0.0
142
0.0
142
0.0
142
0.0
142
1.0
179
     0
144
0.0208333333333333
144
0.0
144
0.0
144
0.0
144
0.0
144
0.0208333333333333
144
0.0
144
0.0
144
0.0
144
0.0
144
1.0
144
0.0
144
0.0
144
0.0
144
0.0
144
1.0
147
0.0208333333333333
147
0.0
147
0.0
147
0.0
147
0.0
147
0.0208333333333333
147
0.0
147
0.0
147
0.0
147
0.0
147
1.0
147
0.0
147
0.0
147
0.0
147
0.0
147
1.0
  0
MATERIAL
  5
396F
102
{ACAD_XDICTIONARY
360
3970
102
}
102
{ACAD_REACTORS
330
395E
102
}
330
395E
100
AcDbMaterial
  1
Global
 72
     0
 43
0.0208333333333333
 43
0.0
 43
0.0
 43
0.0
 43
0.0
 43
0.0208333333333333
 43
0.0
 43
0.0
 43
0.0
 43
0.0
 43
1.0
 43
0.0
 43
0.0
 43
0.0
 43
0.0
 43
1.0
 77
     0
 47
0.0208333333333333
 47
0.0
 47
0.0
 47
0.0
 47
0.0
 47
0.0208333333333333
 47
0.0
 47
0.0
 47
0.0
 47
0.0
 47
1.0
 47
0.0
 47
0.0
 47
0.0
 47
0.0
 47
1.0
171
     0
 49
0.0208333333333333
 49
0.0
 49
0.0
 49
0.0
 49
0.0
 49
0.0208333333333333
 49
0.0
 49
0.0
 49
0.0
 49
0.0
 49
1.0
 49
0.0
 49
0.0
 49
0.0
 49
0.0
 49
1.0
175
     0
142
0.0208333333333333
142
0.0
142
0.0
142
0.0
142
0.0
142
0.0208333333333333
142
0.0
142
0.0
142
0.0
142
0.0
142
1.0
142
0.0
142
0.0
142
0.0
142
0.0
142
1.0
179
     0
144
0.0208333333333333
144
0.0
144
0.0
144
0.0
144
0.0
144
0.0208333333333333
144
0.0
144
0.0
144
0.0
144
0.0
144
1.0
144
0.0
144
0.0
144
0.0
144
0.0
144
1.0
147
0.0208333333333333
147
0.0
147
0.0
147
0.0
147
0.0
147
0.0208333333333333
147
0.0
147
0.0
147
0.0
147
0.0
147
1.0
147
0.0
147
0.0
147
0.0
147
0.0
147
1.0
  0
MLEADERSTYLE
  5
39AE
102
{ACAD_REACTORS
330
39AD
102
}
330
39AD
100
AcDbMLeaderStyle
170
     2
171
     1
172
     0
 90
        2
 40
0.0
 41
0.0
173
     1
 91
-1056964608
340
11
 92
       -2
290
     1
 42
2.0
291
     1
 43
0.36
  3
Standard
 44
4.0
300

342
17
174
     1
178
     6
175
     1
176
     0
 93
-1056964608
 45
4.0
292
     0
297
     0
 46
4.0
 94
-1056964608
 47
1.0
 49
1.0
140
1.0
293
     1
141
0.0
294
     1
177
     0
142
1.0
295
     0
296
     0
143
0.125
1001
ACAD_MLEADERVER
1070
     2
  0
MLINESTYLE
  5
1C
102
{ACAD_REACTORS
330
1B
102
}
330
1B
100
AcDbMlineStyle
  2
STANDARD
 70
     0
  3

 62
     0
 51
90.0
 52
90.0
 71
     2
 49
0.5
 62
   256
  6
BYLAYER
 49
-0.5
 62
   256
  6
BYLAYER
  0
ACDBPLACEHOLDER
  5
1D
102
{ACAD_REACTORS
330
1F
102
}
330
1F
  0
SCALE
  5
398C
102
{ACAD_REACTORS
330
398B
102
}
330
398B
100
AcDbScale
 70
     0
300
1:1
140
1.0
141
1.0
290
     1
  0
SCALE
  5
398D
102
{ACAD_REACTORS
330
398B
102
}
330
398B
100
AcDbScale
 70
     0
300
1:2
140
1.0
141
2.0
290
     0
  0
SCALE
  5
398E
102
{ACAD_REACTORS
330
398B
102
}
330
398B
100
AcDbScale
 70
     0
300
1:4
140
1.0
141
4.0
290
     0
  0
SCALE
  5
398F
102
{ACAD_REACTORS
330
398B
102
}
330
398B
100
AcDbScale
 70
     0
300
1:5
140
1.0
141
5.0
290
     0
  0
SCALE
  5
3990
102
{ACAD_REACTORS
330
398B
102
}
330
398B
100
AcDbScale
 70
     0
300
1:8
140
1.0
141
8.0
290
     0
  0
SCALE
  5
3991
102
{ACAD_REACTORS
330
398B
102
}
330
398B
100
AcDbScale
 70
     0
300
1:10
140
1.0
141
10.0
290
     0
  0
SCALE
  5
3992
102
{ACAD_REACTORS
330
398B
102
}
330
398B
100
AcDbScale
 70
     0
300
1:16
140
1.0
141
16.0
290
     0
  0
SCALE
  5
3993
102
{ACAD_REACTORS
330
398B
102
}
330
398B
100
AcDbScale
 70
     0
300
1:20
140
1.0
141
20.0
290
     0
  0
SCALE
  5
3994
102
{ACAD_REACTORS
330
398B
102
}
330
398B
100
AcDbScale
 70
     0
300
1:30
140
1.0
141
30.0
290
     0
  0
SCALE
  5
3995
102
{ACAD_REACTORS
330
398B
102
}
330
398B
100
AcDbScale
 70
     0
300
1:40
140
1.0
141
40.0
290
     0
  0
SCALE
  5
3996
102
{ACAD_REACTORS
330
398B
102
}
330
398B
100
AcDbScale
 70
     0
300
1:50
140
1.0
141
50.0
290
     0
  0
SCALE
  5
3997
102
{ACAD_REACTORS
330
398B
102
}
330
398B
100
AcDbScale
 70
     0
300
1:100
140
1.0
141
100.0
290
     0
  0
SCALE
  5
3998
102
{ACAD_REACTORS
330
398B
102
}
330
398B
100
AcDbScale
 70
     0
300
2:1
140
2.0
141
1.0
290
     0
  0
SCALE
  5
3999
102
{ACAD_REACTORS
330
398B
102
}
330
398B
100
AcDbScale
 70
     0
300
4:1
140
4.0
141
1.0
290
     0
  0
SCALE
  5
399A
102
{ACAD_REACTORS
330
398B
102
}
330
398B
100
AcDbScale
 70
     0
300
8:1
140
8.0
141
1.0
290
     0
  0
SCALE
  5
399B
102
{ACAD_REACTORS
330
398B
102
}
330
398B
100
AcDbScale
 70
     0
300
10:1
140
10.0
141
1.0
290
     0
  0
SCALE
  5
399C
102
{ACAD_REACTORS
330
398B
102
}
330
398B
100
AcDbScale
 70
     0
300
100:1
140
100.0
141
1.0
290
     0
  0
SCALE
  5
399D
102
{ACAD_REACTORS
330
398B
102
}
330
398B
100
AcDbScale
 70
     0
300
1/128" = 1'-0"
140
0.0078125
141
12.0
290
     0
  0
SCALE
  5
399E
102
{ACAD_REACTORS
330
398B
102
}
330
398B
100
AcDbScale
 70
     0
300
1/64" = 1'-0"
140
0.015625
141
12.0
290
     0
  0
SCALE
  5
399F
102
{ACAD_REACTORS
330
398B
102
}
330
398B
100
AcDbScale
 70
     0
300
1/32" = 1'-0"
140
0.03125
141
12.0
290
     0
  0
SCALE
  5
39A0
102
{ACAD_REACTORS
330
398B
102
}
330
398B
100
AcDbScale
 70
     0
300
1/16" = 1'-0"
140
0.0625
141
12.0
290
     0
  0
SCALE
  5
39A1
102
{ACAD_REACTORS
330
398B
102
}
330
398B
100
AcDbScale
 70
     0
300
3/32" = 1'-0"
140
0.09375
141
12.0
290
     0
  0
SCALE
  5
39A2
102
{ACAD_REACTORS
330
398B
102
}
330
398B
100
AcDbScale
 70
     0
300
1/8" = 1'-0"
140
0.125
141
12.0
290
     0
  0
SCALE
  5
39A3
102
{ACAD_REACTORS
330
398B
102
}
330
398B
100
AcDbScale
 70
     0
300
3/16" = 1'-0"
140
0.1875
141
12.0
290
     0
  0
SCALE
  5
39A4
102
{ACAD_REACTORS
330
398B
102
}
330
398B
100
AcDbScale
 70
     0
300
1/4" = 1'-0"
140
0.25
141
12.0
290
     0
  0
SCALE
  5
39A5
102
{ACAD_REACTORS
330
398B
102
}
330
398B
100
AcDbScale
 70
     0
300
3/8" = 1'-0"
140
0.375
141
12.0
290
     0
  0
SCALE
  5
39A6
102
{ACAD_REACTORS
330
398B
102
}
330
398B
100
AcDbScale
 70
     0
300
1/2" = 1'-0"
140
0.5
141
12.0
290
     0
  0
SCALE
  5
39A7
102
{ACAD_REACTORS
330
398B
102
}
330
398B
100
AcDbScale
 70
     0
300
3/4" = 1'-0"
140
0.75
141
12.0
290
     0
  0
SCALE
  5
39A8
102
{ACAD_REACTORS
330
398B
102
}
330
398B
100
AcDbScale
 70
     0
300
1" = 1'-0"
140
1.0
141
12.0
290
     0
  0
SCALE
  5
39A9
102
{ACAD_REACTORS
330
398B
102
}
330
398B
100
AcDbScale
 70
     0
300
1-1/2" = 1'-0"
140
1.5
141
12.0
290
     0
  0
SCALE
  5
39AA
102
{ACAD_REACTORS
330
398B
102
}
330
398B
100
AcDbScale
 70
     0
300
3" = 1'-0"
140
3.0
141
12.0
290
     0
  0
SCALE
  5
39AB
102
{ACAD_REACTORS
330
398B
102
}
330
398B
100
AcDbScale
 70
     0
300
6" = 1'-0"
140
6.0
141
12.0
290
     0
  0
SCALE
  5
39AC
102
{ACAD_REACTORS
330
398B
102
}
330
398B
100
AcDbScale
 70
     0
300
1'-0" = 1'-0"
140
12.0
141
12.0
290
     0
  0
TABLESTYLE
  5
398A
102
{ACAD_XDICTIONARY
360
72EA
102
}
102
{ACAD_REACTORS
330
3989
102
}
330
3989
100
AcDbTableStyle
  3
Standard
 70
     0
 71
     0
 40
1.5
 41
1.5
280
     0
281
     0
  7
Standard
140
4.5
170
     2
 62
     0
 63
     7
283
     0
274
    -2
284
     1
 64
     0
275
    -2
285
     1
 65
     0
276
    -2
286
     1
 66
     0
277
    -2
287
     1
 67
     0
278
    -2
288
     1
 68
     0
279
    -2
289
     1
 69
     0
  7
Standard
140
6.0
170
     5
 62
     0
 63
     7
283
     0
274
    -2
284
     1
 64
     0
275
    -2
285
     1
 65
     0
276
    -2
286
     1
 66
     0
277
    -2
287
     1
 67
     0
278
    -2
288
     1
 68
     0
279
    -2
289
     1
 69
     0
  7
Standard
140
4.5
170
     5
 62
     0
 63
     7
283
     0
274
    -2
284
     1
 64
     0
275
    -2
285
     1
 65
     0
276
    -2
286
     1
 66
     0
277
    -2
287
     1
 67
     0
278
    -2
288
     1
 68
     0
279
    -2
289
     1
 69
     0
  0
VISUALSTYLE
  5
397D
102
{ACAD_REACTORS
330
3977
102
}
330
3977
100
AcDbVisualStyle
  2
2dWireframe
 70
     4
 71
     0
 72
     2
 73
     0
 90
        0
 40
-0.6
 41
-30.0
 62
     5
 63
     7
 74
     1
 91
        4
 64
     7
 65
   257
 75
     1
175
     1
 42
1.0
 92
        0
 66
   257
 43
1.0
 76
     1
 77
     6
 78
     2
 67
     7
 79
     5
170
     0
171
     0
290
     0
174
     0
 93
        1
 44
0.0
173
     0
291
     0
 45
0.0
1001
ACAD
1000
AcDbSavedByObjectVersion
1070
     0
1000
AcDbSavedByObjectVersion
1070
     0
1000
AcDbSavedByObjectVersion
1070
     0
1000
AcDbSavedByObjectVersion
1070
     0
  0
VISUALSTYLE
  5
397F
102
{ACAD_REACTORS
330
3977
102
}
330
3977
100
AcDbVisualStyle
  2
3D Hidden
 70
     6
 71
     1
 72
     2
 73
     2
 90
        0
 40
-0.6
 41
-30.0
 62
     5
 63
     7
 74
     2
 91
        2
 64
     7
 65
   257
 75
     2
175
     1
 42
40.0
 92
        0
 66
   257
 43
1.0
 76
     1
 77
     6
 78
     2
 67
     7
 79
     3
170
     0
171
     0
290
     0
174
     0
 93
        1
 44
0.0
173
     0
291
     0
 45
0.0
1001
ACAD
1000
AcDbSavedByObjectVersion
1070
     0
1000
AcDbSavedByObjectVersion
1070
     0
1000
AcDbSavedByObjectVersion
1070
     0
1000
AcDbSavedByObjectVersion
1070
     0
  0
VISUALSTYLE
  5
397E
102
{ACAD_REACTORS
330
3977
102
}
330
3977
100
AcDbVisualStyle
  2
3dWireframe
 70
     5
 71
     0
 72
     2
 73
     0
 90
        0
 40
-0.6
 41
-30.0
 62
     5
 63
     7
 74
     1
 91
        4
 64
     7
 65
   257
 75
     1
175
     1
 42
1.0
 92
        0
 66
   257
 43
1.0
 76
     1
 77
     6
 78
     2
 67
     7
 79
     5
170
     0
171
     0
290
     0
174
     0
 93
        1
 44
0.0
173
     0
291
     0
 45
0.0
1001
ACAD
1000
AcDbSavedByObjectVersion
1070
     0
1000
AcDbSavedByObjectVersion
1070
     0
1000
AcDbSavedByObjectVersion
1070
     0
1000
AcDbSavedByObjectVersion
1070
     0
  0
VISUALSTYLE
  5
397C
102
{ACAD_REACTORS
330
3977
102
}
330
3977
100
AcDbVisualStyle
  2
Basic
 70
     7
 71
     1
 72
     0
 73
     1
 90
        0
 40
-0.6
 41
-30.0
 62
     5
 63
     7
 74
     0
 91
        4
 64
     7
 65
   257
 75
     1
175
     1
 42
1.0
 92
        8
 66
     7
 43
1.0
 76
     1
 77
     6
 78
     2
 67
     7
 79
     5
170
     0
171
     0
290
     0
174
     0
 93
        1
 44
0.0
173
     0
291
     1
 45
0.0
1001
ACAD
1000
AcDbSavedByObjectVersion
1070
     0
1000
AcDbSavedByObjectVersion
1070
     0
1000
AcDbSavedByObjectVersion
1070
     0
1000
AcDbSavedByObjectVersion
1070
     0
  0
VISUALSTYLE
  5
3983
102
{ACAD_REACTORS
330
3977
102
}
330
3977
100
AcDbVisualStyle
  2
Brighten
 70
    12
 71
     2
 72
     2
 73
     0
 90
        0
 40
-0.6
 41
-30.0
 62
     5
 63
     7
 74
     1
 91
        4
 64
     7
 65
   257
 75
     1
175
     1
 42
1.0
 92
        8
 66
     7
 43
1.0
 76
     1
 77
     6
 78
     2
 67
     7
 79
     5
170
     0
171
     0
290
     0
174
     0
 93
        1
 44
50.0
173
     0
291
     1
 45
0.0
1001
ACAD
1000
AcDbSavedByObjectVersion
1070
     0
1000
AcDbSavedByObjectVersion
1070
     0
1000
AcDbSavedByObjectVersion
1070
     0
1000
AcDbSavedByObjectVersion
1070
     0
  0
VISUALSTYLE
  5
3987
102
{ACAD_REACTORS
330
3977
102
}
330
3977
100
AcDbVisualStyle
  2
ColorChange
 70
    16
 71
     2
 72
     2
 73
     3
 90
        0
 40
-0.6
 41
-30.0
 62
     5
 63
     8
 74
     1
 91
        4
 64
     7
 65
   257
 75
     1
175
     1
 42
1.0
 92
        8
 66
     8
 43
1.0
 76
     1
 77
     6
 78
     2
 67
     7
 79
     5
170
     0
171
     0
290
     0
174
     0
 93
        1
 44
0.0
173
     0
291
     1
 45
0.0
1001
ACAD
1000
AcDbSavedByObjectVersion
1070
     0
1000
AcDbSavedByObjectVersion
1070
     0
1000
AcDbSavedByObjectVersion
1070
     0
1000
AcDbSavedByObjectVersion
1070
     0
  0
VISUALSTYLE
  5
3980
102
{ACAD_REACTORS
330
3977
102
}
330
3977
100
AcDbVisualStyle
  2
Conceptual
 70
     9
 71
     3
 72
     2
 73
     0
 90
        0
 40
-0.6
 41
-30.0
 62
     5
 63
     7
 74
     2
 91
        2
 64
     7
 65
   257
 75
     1
175
     1
 42
40.0
 92
        8
 66
     7
 43
1.0
 76
     1
 77
     6
 78
     2
 67
     7
 79
     3
170
     0
171
     0
290
     0
174
     0
 93
        1
 44
0.0
173
     0
291
     0
 45
0.0
1001
ACAD
1000
AcDbSavedByObjectVersion
1070
     0
1000
AcDbSavedByObjectVersion
1070
     0
1000
AcDbSavedByObjectVersion
1070
     0
1000
AcDbSavedByObjectVersion
1070
     0
  0
VISUALSTYLE
  5
3982
102
{ACAD_REACTORS
330
3977
102
}
330
3977
100
AcDbVisualStyle
  2
Dim
 70
    11
 71
     2
 72
     2
 73
     0
 90
        0
 40
-0.6
 41
-30.0
 62
     5
 63
     7
 74
     1
 91
        4
 64
     7
 65
   257
 75
     1
175
     1
 42
1.0
 92
        8
 66
     7
 43
1.0
 76
     1
 77
     6
 78
     2
 67
     7
 79
     5
170
     0
171
     0
290
     0
174
     0
 93
        1
 44
-50.0
173
     0
291
     1
 45
0.0
1001
ACAD
1000
AcDbSavedByObjectVersion
1070
     0
1000
AcDbSavedByObjectVersion
1070
     0
1000
AcDbSavedByObjectVersion
1070
     0
1000
AcDbSavedByObjectVersion
1070
     0
  0
VISUALSTYLE
  5
3986
102
{ACAD_REACTORS
330
3977
102
}
330
3977
100
AcDbVisualStyle
  2
Facepattern
 70
    15
 71
     2
 72
     2
 73
     0
 90
        0
 40
-0.6
 41
-30.0
 62
     5
 63
     7
 74
     1
 91
        4
 64
     7
 65
   257
 75
     1
175
     1
 42
1.0
 92
        8
 66
     7
 43
1.0
 76
     1
 77
     6
 78
     2
 67
     7
 79
     5
170
     0
171
     0
290
     0
174
     0
 93
        1
 44
0.0
173
     0
291
     1
 45
0.0
1001
ACAD
1000
AcDbSavedByObjectVersion
1070
     0
1000
AcDbSavedByObjectVersion
1070
     0
1000
AcDbSavedByObjectVersion
1070
     0
1000
AcDbSavedByObjectVersion
1070
     0
  0
VISUALSTYLE
  5
3978
102
{ACAD_REACTORS
330
3977
102
}
330
3977
100
AcDbVisualStyle
  2
Flat
 70
     0
 71
     2
 72
     1
 73
     1
 90
        2
 40
-0.6
 41
30.0
 62
     5
 63
     7
 74
     0
 91
        4
 64
     7
 65
   257
 75
     1
175
     1
 42
1.0
 92
        8
 66
     7
 43
1.0
 76
     1
 77
     6
 78
     2
 67
     7
 79
     5
170
     0
171
     0
290
     0
174
     0
 93
       13
 44
0.0
173
     0
291
     1
 45
0.0
1001
ACAD
1000
AcDbSavedByObjectVersion
1070
     0
1000
AcDbSavedByObjectVersion
1070
     0
1000
AcDbSavedByObjectVersion
1070
     0
1000
AcDbSavedByObjectVersion
1070
     0
  0
VISUALSTYLE
  5
3979
102
{ACAD_REACTORS
330
3977
102
}
330
3977
100
AcDbVisualStyle
  2
FlatWithEdges
 70
     1
 71
     2
 72
     1
 73
     1
 90
        2
 40
-0.6
 41
30.0
 62
     5
 63
     7
 74
     1
 91
        4
 64
     7
 65
   257
 75
     1
175
     1
 42
1.0
 92
        0
 66
   257
 43
1.0
 76
     1
 77
     6
 78
     2
 67
     7
 79
     5
170
     0
171
     0
290
     0
174
     0
 93
       13
 44
0.0
173
     0
291
     1
 45
0.0
1001
ACAD
1000
AcDbSavedByObjectVersion
1070
     0
1000
AcDbSavedByObjectVersion
1070
     0
1000
AcDbSavedByObjectVersion
1070
     0
1000
AcDbSavedByObjectVersion
1070
     0
  0
VISUALSTYLE
  5
397A
102
{ACAD_REACTORS
330
3977
102
}
330
3977
100
AcDbVisualStyle
  2
Gouraud
 70
     2
 71
     2
 72
     2
 73
     1
 90
        2
 40
-0.6
 41
30.0
 62
     5
 63
     7
 74
     0
 91
        4
 64
     7
 65
   257
 75
     1
175
     1
 42
1.0
 92
        0
 66
     7
 43
1.0
 76
     1
 77
     6
 78
     2
 67
     7
 79
     5
170
     0
171
     0
290
     0
174
     0
 93
       13
 44
0.0
173
     0
291
     1
 45
0.0
1001
ACAD
1000
AcDbSavedByObjectVersion
1070
     0
1000
AcDbSavedByObjectVersion
1070
     0
1000
AcDbSavedByObjectVersion
1070
     0
1000
AcDbSavedByObjectVersion
1070
     0
  0
VISUALSTYLE
  5
397B
102
{ACAD_REACTORS
330
3977
102
}
330
3977
100
AcDbVisualStyle
  2
GouraudWithEdges
 70
     3
 71
     2
 72
     2
 73
     1
 90
        2
 40
-0.6
 41
30.0
 62
     5
 63
     7
 74
     1
 91
        4
 64
     7
 65
   257
 75
     1
175
     1
 42
1.0
 92
        0
 66
   257
 43
1.0
 76
     1
 77
     6
 78
     2
 67
     7
 79
     5
170
     0
171
     0
290
     0
174
     0
 93
       13
 44
0.0
173
     0
291
     1
 45
0.0
1001
ACAD
1000
AcDbSavedByObjectVersion
1070
     0
1000
AcDbSavedByObjectVersion
1070
     0
1000
AcDbSavedByObjectVersion
1070
     0
1000
AcDbSavedByObjectVersion
1070
     0
  0
VISUALSTYLE
  5
3985
102
{ACAD_REACTORS
330
3977
102
}
330
3977
100
AcDbVisualStyle
  2
Linepattern
 70
    14
 71
     2
 72
     2
 73
     0
 90
        0
 40
-0.6
 41
-30.0
 62
     5
 63
     7
 74
     1
 91
        4
 64
     7
 65
   257
 75
     7
175
     7
 42
1.0
 92
        8
 66
     7
 43
1.0
 76
     1
 77
     6
 78
     2
 67
     7
 79
     5
170
     0
171
     0
290
     0
174
     0
 93
        1
 44
0.0
173
     0
291
     1
 45
0.0
1001
ACAD
1000
AcDbSavedByObjectVersion
1070
     0
1000
AcDbSavedByObjectVersion
1070
     0
1000
AcDbSavedByObjectVersion
1070
     0
1000
AcDbSavedByObjectVersion
1070
     0
  0
VISUALSTYLE
  5
3981
102
{ACAD_REACTORS
330
3977
102
}
330
3977
100
AcDbVisualStyle
  2
Realistic
 70
     8
 71
     2
 72
     2
 73
     0
 90
        0
 40
-0.6
 41
-30.0
 62
     5
 63
     7
 74
     1
 91
        0
 64
     7
 65
   257
 75
     1
175
     1
 42
1.0
 92
        8
 66
     8
 43
1.0
 76
     1
 77
     6
 78
     2
 67
     7
 79
     5
170
     0
171
     0
290
     0
174
     0
 93
       13
 44
0.0
173
     0
291
     0
 45
0.0
1001
ACAD
1000
AcDbSavedByObjectVersion
1070
     0
1000
AcDbSavedByObjectVersion
1070
     0
1000
AcDbSavedByObjectVersion
1070
     0
1000
AcDbSavedByObjectVersion
1070
     0
  0
VISUALSTYLE
  5
3984
102
{ACAD_REACTORS
330
3977
102
}
330
3977
100
AcDbVisualStyle
  2
Thicken
 70
    13
 71
     2
 72
     2
 73
     0
 90
        0
 40
-0.6
 41
-30.0
 62
     5
 63
     7
 74
     1
 91
        4
 64
     7
 65
   257
 75
     1
175
     1
 42
1.0
 92
       12
 66
     7
 43
1.0
 76
     1
 77
     6
 78
     2
 67
     7
 79
     5
170
     0
171
     0
290
     0
174
     0
 93
        1
 44
0.0
173
     0
291
     1
 45
0.0
1001
ACAD
1000
AcDbSavedByObjectVersion
1070
     0
1000
AcDbSavedByObjectVersion
1070
     0
1000
AcDbSavedByObjectVersion
1070
     0
1000
AcDbSavedByObjectVersion
1070
     0
  0
DICTIONARYVAR
  5
72CE
102
{ACAD_REACTORS
330
72CB
102
}
330
72CB
100
DictionaryVariables
280
     0
  1
1:1
  0
DICTIONARYVAR
  5
72CD
102
{ACAD_REACTORS
330
72CB
102
}
330
72CB
100
DictionaryVariables
280
     0
  1
STANDARD
  0
DICTIONARYVAR
  5
72CC
102
{ACAD_REACTORS
330
72CB
102
}
330
72CB
100
DictionaryVariables
280
     0
  1
STANDARD
  0
DICTIONARYVAR
  5
72D1
102
{ACAD_REACTORS
330
72CB
102
}
330
72CB
100
DictionaryVariables
280
     0
  1
1
  0
DICTIONARYVAR
  5
72D0
102
{ACAD_REACTORS
330
72CB
102
}
330
72CB
100
DictionaryVariables
280
     0
  1
0
  0
DICTIONARYVAR
  5
72CF
102
{ACAD_REACTORS
330
72CB
102
}
330
72CB
100
DictionaryVariables
280
     0
  1
127
  0
XRECORD
  5
72C8
102
{ACAD_REACTORS
330
72C6
102
}
330
72C6
100
AcDbXrecord
280
     1
  0
DICTIONARY
  5
7882
330
21
100
AcDbDictionary
280
     1
281
     1
  3
ACAD_XREC_ROUNDTRIP
360
7883
  0
DICTIONARY
  5
7880
330
20
100
AcDbDictionary
280
     1
281
     1
  3
ACAD_XREC_ROUNDTRIP
360
7881
  0
DICTIONARY
  5
3968
330
3967
100
AcDbDictionary
280
     1
281
     1
  3
ACAD_XREC_ROUNDTRIP
360
72F3
  3
BUMPTILE
360
396A
  3
DIFFUSETILE
360
3969
  3
OPACITYTILE
360
396D
  3
REFLECTIONTILE
360
396C
  3
REFRACTIONTILE
360
396E
  3
SPECULARTILE
360
396B
  0
DICTIONARY
  5
3960
330
395F
100
AcDbDictionary
280
     1
281
     1
  3
ACAD_XREC_ROUNDTRIP
360
72F2
  3
BUMPTILE
360
3962
  3
DIFFUSETILE
360
3961
  3
OPACITYTILE
360
3965
  3
REFLECTIONTILE
360
3964
  3
REFRACTIONTILE
360
3966
  3
SPECULARTILE
360
3963
  0
DICTIONARY
  5
3970
330
396F
100
AcDbDictionary
280
     1
281
     1
  3
ACAD_XREC_ROUNDTRIP
360
72F4
  3
BUMPTILE
360
3972
  3
DIFFUSETILE
360
3971
  3
OPACITYTILE
360
3975
  3
REFLECTIONTILE
360
3974
  3
REFRACTIONTILE
360
3976
  3
SPECULARTILE
360
3973
  0
DICTIONARY
  5
72EA
330
398A
100
AcDbDictionary
280
     1
281
     1
  3
ACAD_ROUNDTRIP_2008_TABLESTYLE_CELLSTYLEMAP
360
787E
  3
ACAD_XREC_ROUNDTRIP
360
7884
  0
XRECORD
  5
7883
102
{ACAD_REACTORS
330
7882
102
}
330
7882
100
AcDbXrecord
280
     1
102
SHADEPLOT
 70
     0
102
SHADEPLOTRESLEVEL
 70
     2
102
SHADEPLOTCUSTOMDPI
 70
   300
  0
XRECORD
  5
7881
102
{ACAD_REACTORS
330
7880
102
}
330
7880
100
AcDbXrecord
280
     1
102
SHADEPLOT
 70
     0
102
SHADEPLOTRESLEVEL
 70
     2
102
SHADEPLOTCUSTOMDPI
 70
   300
  0
XRECORD
  5
72F3
102
{ACAD_REACTORS
330
3968
102
}
330
3968
100
AcDbXrecord
280
     1
102
MATERIAL
148
0.0
149
0.0
149
0.0
 93
        0
 94
      127
282
     0
 72
     0
 77
     0
171
     0
175
     0
179
     0
273
     0
  0
XRECORD
  5
396A
102
{ACAD_REACTORS
330
3968
102
}
330
3968
100
AcDbXrecord
280
     1
270
     1
271
     1
  0
XRECORD
  5
3969
102
{ACAD_REACTORS
330
3968
102
}
330
3968
100
AcDbXrecord
280
     1
270
     1
271
     1
  0
XRECORD
  5
396D
102
{ACAD_REACTORS
330
3968
102
}
330
3968
100
AcDbXrecord
280
     1
270
     1
271
     1
  0
XRECORD
  5
396C
102
{ACAD_REACTORS
330
3968
102
}
330
3968
100
AcDbXrecord
280
     1
270
     1
271
     1
  0
XRECORD
  5
396E
102
{ACAD_REACTORS
330
3968
102
}
330
3968
100
AcDbXrecord
280
     1
270
     1
271
     1
  0
XRECORD
  5
396B
102
{ACAD_REACTORS
330
3968
102
}
330
3968
100
AcDbXrecord
280
     1
270
     1
271
     1
  0
XRECORD
  5
72F2
102
{ACAD_REACTORS
330
3960
102
}
330
3960
100
AcDbXrecord
280
     1
102
MATERIAL
148
0.0
149
0.0
149
0.0
 93
        0
 94
      127
282
     0
 72
     0
 77
     0
171
     0
175
     0
179
     0
273
     0
  0
XRECORD
  5
3962
102
{ACAD_REACTORS
330
3960
102
}
330
3960
100
AcDbXrecord
280
     1
270
     1
271
     1
  0
XRECORD
  5
3961
102
{ACAD_REACTORS
330
3960
102
}
330
3960
100
AcDbXrecord
280
     1
270
     1
271
     1
  0
XRECORD
  5
3965
102
{ACAD_REACTORS
330
3960
102
}
330
3960
100
AcDbXrecord
280
     1
270
     1
271
     1
  0
XRECORD
  5
3964
102
{ACAD_REACTORS
330
3960
102
}
330
3960
100
AcDbXrecord
280
     1
270
     1
271
     1
  0
XRECORD
  5
3966
102
{ACAD_REACTORS
330
3960
102
}
330
3960
100
AcDbXrecord
280
     1
270
     1
271
     1
  0
XRECORD
  5
3963
102
{ACAD_REACTORS
330
3960
102
}
330
3960
100
AcDbXrecord
280
     1
270
     1
271
     1
  0
XRECORD
  5
72F4
102
{ACAD_REACTORS
330
3970
102
}
330
3970
100
AcDbXrecord
280
     1
102
MATERIAL
148
0.0
149
0.0
149
0.0
 93
        0
 94
      127
282
     0
 72
     0
 77
     0
171
     0
175
     0
179
     0
273
     0
  0
XRECORD
  5
3972
102
{ACAD_REACTORS
330
3970
102
}
330
3970
100
AcDbXrecord
280
     1
270
     1
271
     1
  0
XRECORD
  5
3971
102
{ACAD_REACTORS
330
3970
102
}
330
3970
100
AcDbXrecord
280
     1
270
     1
271
     1
  0
XRECORD
  5
3975
102
{ACAD_REACTORS
330
3970
102
}
330
3970
100
AcDbXrecord
280
     1
270
     1
271
     1
  0
XRECORD
  5
3974
102
{ACAD_REACTORS
330
3970
102
}
330
3970
100
AcDbXrecord
280
     1
270
     1
271
     1
  0
XRECORD
  5
3976
102
{ACAD_REACTORS
330
3970
102
}
330
3970
100
AcDbXrecord
280
     1
270
     1
271
     1
  0
XRECORD
  5
3973
102
{ACAD_REACTORS
330
3970
102
}
330
3970
100
AcDbXrecord
280
     1
270
     1
271
     1
  0
CELLSTYLEMAP
  5
787E
102
{ACAD_REACTORS
330
72EA
102
}
330
72EA
100
AcDbCellStyleMap
 90
        3
300
CELLSTYLE
  1
TABLEFORMAT_BEGIN
 90
        5
170
     1
 91
        0
 92
    32768
 62
   257
 93
        1
300
CONTENTFORMAT
  1
CONTENTFORMAT_BEGIN
 90
        0
 91
        0
 92
      512
 93
        0
300

 40
0.0
140
1.0
 94
        5
 62
     0
340
17
144
6.0
309
CONTENTFORMAT_END
171
     1
301
MARGIN
  1
CELLMARGIN_BEGIN
 40
1.5
 40
1.5
 40
1.5
 40
1.5
 40
0.18
 40
0.18
309
CELLMARGIN_END
 94
        6
 95
        1
302
GRIDFORMAT
  1
GRIDFORMAT_BEGIN
 90
        0
 91
        1
 62
     0
 92
       -2
340
0
 93
        0
 40
1.125
309
GRIDFORMAT_END
 95
        2
302
GRIDFORMAT
  1
GRIDFORMAT_BEGIN
 90
        0
 91
        1
 62
     0
 92
       -2
340
0
 93
        0
 40
1.125
309
GRIDFORMAT_END
 95
        4
302
GRIDFORMAT
  1
GRIDFORMAT_BEGIN
 90
        0
 91
        1
 62
     0
 92
       -2
340
0
 93
        0
 40
1.125
309
GRIDFORMAT_END
 95
        8
302
GRIDFORMAT
  1
GRIDFORMAT_BEGIN
 90
        0
 91
        1
 62
     0
 92
       -2
340
0
 93
        0
 40
1.125
309
GRIDFORMAT_END
 95
       16
302
GRIDFORMAT
  1
GRIDFORMAT_BEGIN
 90
        0
 91
        1
 62
     0
 92
       -2
340
0
 93
        0
 40
1.125
309
GRIDFORMAT_END
 95
       32
302
GRIDFORMAT
  1
GRIDFORMAT_BEGIN
 90
        0
 91
        1
 62
     0
 92
       -2
340
0
 93
        0
 40
1.125
309
GRIDFORMAT_END
309
TABLEFORMAT_END
  1
CELLSTYLE_BEGIN
 90
        1
 91
        1
300
_TITLE
309
CELLSTYLE_END
300
CELLSTYLE
  1
TABLEFORMAT_BEGIN
 90
        5
170
     1
 91
        0
 92
        0
 62
   257
 93
        1
300
CONTENTFORMAT
  1
CONTENTFORMAT_BEGIN
 90
        0
 91
        0
 92
      512
 93
        0
300

 40
0.0
140
1.0
 94
        5
 62
     0
340
17
144
4.5
309
CONTENTFORMAT_END
171
     1
301
MARGIN
  1
CELLMARGIN_BEGIN
 40
1.5
 40
1.5
 40
1.5
 40
1.5
 40
0.18
 40
0.18
309
CELLMARGIN_END
 94
        6
 95
        1
302
GRIDFORMAT
  1
GRIDFORMAT_BEGIN
 90
        0
 91
        1
 62
     0
 92
       -2
340
0
 93
        0
 40
1.125
309
GRIDFORMAT_END
 95
        2
302
GRIDFORMAT
  1
GRIDFORMAT_BEGIN
 90
        0
 91
        1
 62
     0
 92
       -2
340
0
 93
        0
 40
1.125
309
GRIDFORMAT_END
 95
        4
302
GRIDFORMAT
  1
GRIDFORMAT_BEGIN
 90
        0
 91
        1
 62
     0
 92
       -2
340
0
 93
        0
 40
1.125
309
GRIDFORMAT_END
 95
        8
302
GRIDFORMAT
  1
GRIDFORMAT_BEGIN
 90
        0
 91
        1
 62
     0
 92
       -2
340
0
 93
        0
 40
1.125
309
GRIDFORMAT_END
 95
       16
302
GRIDFORMAT
  1
GRIDFORMAT_BEGIN
 90
        0
 91
        1
 62
     0
 92
       -2
340
0
 93
        0
 40
1.125
309
GRIDFORMAT_END
 95
       32
302
GRIDFORMAT
  1
GRIDFORMAT_BEGIN
 90
        0
 91
        1
 62
     0
 92
       -2
340
0
 93
        0
 40
1.125
309
GRIDFORMAT_END
309
TABLEFORMAT_END
  1
CELLSTYLE_BEGIN
 90
        2
 91
        1
300
_HEADER
309
CELLSTYLE_END
300
CELLSTYLE
  1
TABLEFORMAT_BEGIN
 90
        5
170
     1
 91
        0
 92
        0
 62
   257
 93
        1
300
CONTENTFORMAT
  1
CONTENTFORMAT_BEGIN
 90
        0
 91
        0
 92
      512
 93
        0
300

 40
0.0
140
1.0
 94
        2
 62
     0
340
17
144
4.5
309
CONTENTFORMAT_END
171
     1
301
MARGIN
  1
CELLMARGIN_BEGIN
 40
1.5
 40
1.5
 40
1.5
 40
1.5
 40
0.18
 40
0.18
309
CELLMARGIN_END
 94
        6
 95
        1
302
GRIDFORMAT
  1
GRIDFORMAT_BEGIN
 90
        0
 91
        1
 62
     0
 92
       -2
340
0
 93
        0
 40
1.125
309
GRIDFORMAT_END
 95
        2
302
GRIDFORMAT
  1
GRIDFORMAT_BEGIN
 90
        0
 91
        1
 62
     0
 92
       -2
340
0
 93
        0
 40
1.125
309
GRIDFORMAT_END
 95
        4
302
GRIDFORMAT
  1
GRIDFORMAT_BEGIN
 90
        0
 91
        1
 62
     0
 92
       -2
340
0
 93
        0
 40
1.125
309
GRIDFORMAT_END
 95
        8
302
GRIDFORMAT
  1
GRIDFORMAT_BEGIN
 90
        0
 91
        1
 62
     0
 92
       -2
340
0
 93
        0
 40
1.125
309
GRIDFORMAT_END
 95
       16
302
GRIDFORMAT
  1
GRIDFORMAT_BEGIN
 90
        0
 91
        1
 62
     0
 92
       -2
340
0
 93
        0
 40
1.125
309
GRIDFORMAT_END
 95
       32
302
GRIDFORMAT
  1
GRIDFORMAT_BEGIN
 90
        0
 91
        1
 62
     0
 92
       -2
340
0
 93
        0
 40
1.125
309
GRIDFORMAT_END
309
TABLEFORMAT_END
  1
CELLSTYLE_BEGIN
 90
        3
 91
        2
300
_DATA
309
CELLSTYLE_END
  0
XRECORD
  5
7884
102
{ACAD_REACTORS
330
72EA
102
}
330
72EA
100
AcDbXrecord
280
     1
102
ACAD_ROUNDTRIP_PRE2007_TABLESTYLE
 90
      512
 91
        0
  1

 92
      512
 93
        0
  2

 94
      512
 95
        0
  3

  0
ENDSEC
  0
EOF
