  0
SECTION
  2
HEADER
  9
$ACADVER
  1
AC1015
  9
$ACADMAINTVER
 70
    20
  9
$DWGCODEPAGE
  3
ANSI_1252
  9
$INSBASE
 10
6727.640433873766
 20
487.8402391909076
 30
440.5690770603018
  9
$EXTMIN
 10
6727.488551800918
 20
487.8020680551344
 30
-0.0000148796102728
  9
$EXTMAX
 10
6820.639666104911
 20
580.8636194044295
 30
0.0000006204176331
  9
$LIMMIN
 10
0.0
 20
0.0
  9
$LIMMAX
 10
420.0
 20
297.0
  9
$ORTHOMODE
 70
     1
  9
$REGENMODE
 70
     1
  9
$FILLMODE
 70
     1
  9
$QTEXTMODE
 70
     0
  9
$MIRRTEXT
 70
     0
  9
$LTSCALE
 40
16.0
  9
$ATTMODE
 70
     1
  9
$TEXTSIZE
 40
2.5
  9
$TRACEWID
 40
1.0
  9
$TEXTSTYLE
  7
ISOCP
  9
$CLAYER
  8
0
  9
$CELTYPE
  6
ByLayer
  9
$CECOLOR
 62
   256
  9
$CELTSCALE
 40
1.0
  9
$DISPSILH
 70
     1
  9
$DIMSCALE
 40
3.0
  9
$DIMASZ
 40
3.0
  9
$DIMEXO
 40
1.0
  9
$DIMDLI
 40
7.0
  9
$DIMRND
 40
0.0
  9
$DIMDLE
 40
0.0
  9
$DIMEXE
 40
2.0
  9
$DIMTP
 40
0.0
  9
$DIMTM
 40
0.0
  9
$DIMTXT
 40
2.0
  9
$DIMCEN
 40
2.5
  9
$DIMTSZ
 40
0.0
  9
$DIMTOL
 70
     0
  9
$DIMLIM
 70
     0
  9
$DIMTIH
 70
     0
  9
$DIMTOH
 70
     0
  9
$DIMSE1
 70
     0
  9
$DIMSE2
 70
     0
  9
$DIMTAD
 70
     1
  9
$DIMZIN
 70
     8
  9
$DIMBLK
  1

  9
$DIMASO
 70
     1
  9
$DIMSHO
 70
     1
  9
$DIMPOST
  1

  9
$DIMAPOST
  1

  9
$DIMALT
 70
     0
  9
$DIMALTD
 70
     3
  9
$DIMALTF
 40
0.03937007874016
  9
$DIMLFAC
 40
1.0
  9
$DIMTOFL
 70
     1
  9
$DIMTVP
 40
0.0
  9
$DIMTIX
 70
     0
  9
$DIMSOXD
 70
     0
  9
$DIMSAH
 70
     0
  9
$DIMBLK1
  1

  9
$DIMBLK2
  1

  9
$DIMSTYLE
  2
sadev_1-3
  9
$DIMCLRD
 70
   256
  9
$DIMCLRE
 70
   256
  9
$DIMCLRT
 70
    10
  9
$DIMTFAC
 40
1.0
  9
$DIMGAP
 40
0.5
  9
$DIMJUST
 70
     0
  9
$DIMSD1
 70
     0
  9
$DIMSD2
 70
     0
  9
$DIMTOLJ
 70
     0
  9
$DIMTZIN
 70
     8
  9
$DIMALTZ
 70
     0
  9
$DIMALTTZ
 70
     0
  9
$DIMUPT
 70
     0
  9
$DIMDEC
 70
     2
  9
$DIMTDEC
 70
     2
  9
$DIMALTU
 70
     2
  9
$DIMALTTD
 70
     3
  9
$DIMTXSTY
  7
cotation
  9
$DIMAUNIT
 70
     0
  9
$DIMADEC
 70
     0
  9
$DIMALTRND
 40
0.0
  9
$DIMAZIN
 70
     0
  9
$DIMDSEP
 70
    44
  9
$DIMATFIT
 70
     3
  9
$DIMFRAC
 70
     0
  9
$DIMLDRBLK
  1

  9
$DIMLUNIT
 70
     2
  9
$DIMLWD
 70
    -1
  9
$DIMLWE
 70
    -1
  9
$DIMTMOVE
 70
     0
  9
$LUNITS
 70
     2
  9
$LUPREC
 70
     4
  9
$SKETCHINC
 40
1.0
  9
$FILLETRAD
 40
0.0
  9
$AUNITS
 70
     0
  9
$AUPREC
 70
     0
  9
$MENU
  1
.
  9
$ELEVATION
 40
0.0
  9
$PELEVATION
 40
0.0
  9
$THICKNESS
 40
0.0
  9
$LIMCHECK
 70
     0
  9
$CHAMFERA
 40
10.0
  9
$CHAMFERB
 40
10.0
  9
$CHAMFERC
 40
20.0
  9
$CHAMFERD
 40
0.0
  9
$SKPOLY
 70
     0
  9
$TDCREATE
 40
2452122.660360973
  9
$TDUCREATE
 40
2452122.577027639
  9
$TDUPDATE
 40
2454608.431433981
  9
$TDUUPDATE
 40
2454608.348100648
  9
$TDINDWG
 40
4.7311858912
  9
$TDUSRTIMER
 40
4.7311856597
  9
$USRTIMER
 70
     1
  9
$ANGBASE
 50
0.0
  9
$ANGDIR
 70
     0
  9
$PDMODE
 70
     0
  9
$PDSIZE
 40
0.0
  9
$PLINEWID
 40
0.0
  9
$SPLFRAME
 70
     0
  9
$SPLINETYPE
 70
     6
  9
$SPLINESEGS
 70
     8
  9
$HANDSEED
  5
10E
  9
$SURFTAB1
 70
     6
  9
$SURFTAB2
 70
     6
  9
$SURFTYPE
 70
     6
  9
$SURFU
 70
     6
  9
$SURFV
 70
     6
  9
$UCSBASE
  2

  9
$UCSNAME
  2

  9
$UCSORG
 10
0.0
 20
0.0
 30
0.0
  9
$UCSXDIR
 10
1.0
 20
0.0
 30
0.0
  9
$UCSYDIR
 10
0.0
 20
1.0
 30
0.0
  9
$UCSORTHOREF
  2

  9
$UCSORTHOVIEW
 70
     1
  9
$UCSORGTOP
 10
0.0
 20
0.0
 30
0.0
  9
$UCSORGBOTTOM
 10
0.0
 20
0.0
 30
0.0
  9
$UCSORGLEFT
 10
0.0
 20
0.0
 30
0.0
  9
$UCSORGRIGHT
 10
0.0
 20
0.0
 30
0.0
  9
$UCSORGFRONT
 10
0.0
 20
0.0
 30
0.0
  9
$UCSORGBACK
 10
0.0
 20
0.0
 30
0.0
  9
$PUCSBASE
  2

  9
$PUCSNAME
  2

  9
$PUCSORG
 10
0.0
 20
0.0
 30
0.0
  9
$PUCSXDIR
 10
1.0
 20
0.0
 30
0.0
  9
$PUCSYDIR
 10
0.0
 20
1.0
 30
0.0
  9
$PUCSORTHOREF
  2

  9
$PUCSORTHOVIEW
 70
     0
  9
$PUCSORGTOP
 10
0.0
 20
0.0
 30
0.0
  9
$PUCSORGBOTTOM
 10
0.0
 20
0.0
 30
0.0
  9
$PUCSORGLEFT
 10
0.0
 20
0.0
 30
0.0
  9
$PUCSORGRIGHT
 10
0.0
 20
0.0
 30
0.0
  9
$PUCSORGFRONT
 10
0.0
 20
0.0
 30
0.0
  9
$PUCSORGBACK
 10
0.0
 20
0.0
 30
0.0
  9
$USERI1
 70
     0
  9
$USERI2
 70
     0
  9
$USERI3
 70
     0
  9
$USERI4
 70
     0
  9
$USERI5
 70
     0
  9
$USERR1
 40
0.0
  9
$USERR2
 40
0.0
  9
$USERR3
 40
0.0
  9
$USERR4
 40
0.0
  9
$USERR5
 40
0.0
  9
$WORLDVIEW
 70
     1
  9
$SHADEDGE
 70
     3
  9
$SHADEDIF
 70
    70
  9
$TILEMODE
 70
     1
  9
$MAXACTVP
 70
    64
  9
$PINSBASE
 10
0.0
 20
0.0
 30
0.0
  9
$PLIMCHECK
 70
     0
  9
$PEXTMIN
 10
0.0
 20
0.0
 30
0.0
  9
$PEXTMAX
 10
210.0
 20
297.0
 30
0.0
  9
$PLIMMIN
 10
-43.75519322498697
 20
-62.76085533836834
  9
$PLIMMAX
 10
253.244806775013
 20
357.2391446616316
  9
$UNITMODE
 70
     0
  9
$VISRETAIN
 70
     1
  9
$PLINEGEN
 70
     0
  9
$PSLTSCALE
 70
     1
  9
$TREEDEPTH
 70
  3020
  9
$CMLSTYLE
  2
Standard
  9
$CMLJUST
 70
     0
  9
$CMLSCALE
 40
20.0
  9
$PROXYGRAPHICS
 70
     1
  9
$MEASUREMENT
 70
     1
  9
$CELWEIGHT
370
    -1
  9
$ENDCAPS
280
     0
  9
$JOINSTYLE
280
     0
  9
$LWDISPLAY
290
     0
  9
$INSUNITS
 70
     4
  9
$HYPERLINKBASE
  1

  9
$STYLESHEET
  1

  9
$XEDIT
290
     1
  9
$CEPSNTYPE
380
     0
  9
$PSTYLEMODE
290
     1
  9
$FINGERPRINTGUID
  2
{1879244C-45D4-11D4-9E62-525400E9D91E}
  9
$VERSIONGUID
  2
{BF9A18C7-B953-4268-AE43-16A4E1A237C9}
  9
$EXTNAMES
290
     1
  9
$PSVPSCALE
 40
0.0
  9
$OLESTARTUP
290
     0
  0
ENDSEC
  0
SECTION
  2
CLASSES
  0
CLASS
  1
ACDBDICTIONARYWDFLT
  2
AcDbDictionaryWithDefault
  3
ObjectDBX Classes
 90
        0
280
     0
281
     0
  0
CLASS
  1
ACDBPLACEHOLDER
  2
AcDbPlaceHolder
  3
ObjectDBX Classes
 90
        0
280
     0
281
     0
  0
CLASS
  1
LAYOUT
  2
AcDbLayout
  3
ObjectDBX Classes
 90
        0
280
     0
281
     0
  0
CLASS
  1
DICTIONARYVAR
  2
AcDbDictionaryVar
  3
ObjectDBX Classes
 90
        0
280
     0
281
     0
  0
CLASS
  1
MATERIAL
  2
AcDbMaterial
  3
ObjectDBX Classes
 90
     1024
280
     0
281
     0
  0
CLASS
  1
VISUALSTYLE
  2
AcDbVisualStyle
  3
ObjectDBX Classes
 90
     4095
280
     0
281
     0
  0
CLASS
  1
TABLESTYLE
  2
AcDbTableStyle
  3
ObjectDBX Classes
 90
     4095
280
     0
281
     0
  0
ENDSEC
  0
SECTION
  2
TABLES
  0
TABLE
  2
VPORT
  5
19
330
0
100
AcDbSymbolTable
 70
     1
  0
VPORT
  5
B9
330
19
100
AcDbSymbolTableRecord
100
AcDbViewportTableRecord
  2
*Active
 70
     0
 10
0.0
 20
0.0
 11
1.0
 21
1.0
 12
6774.064108952915
 22
534.3328437297819
 13
0.0
 23
0.0
 14
10.0
 24
10.0
 15
10.0
 25
10.0
 16
0.0
 26
0.0
 36
1.0
 17
0.0
 27
0.0
 37
0.0
 40
93.82959716510772
 41
1.575757575757575
 42
50.0
 43
0.0
 44
0.0
 50
0.0
 51
0.0
 71
     0
 72
   100
 73
     1
 74
     3
 75
     0
 76
     0
 77
     0
 78
     0
281
     0
 65
     1
110
0.0
120
0.0
130
0.0
111
1.0
121
0.0
131
0.0
112
0.0
122
1.0
132
0.0
 79
     0
146
0.0
  0
ENDTAB
  0
TABLE
  2
LTYPE
  5
14
330
0
100
AcDbSymbolTable
 70
     1
  0
LTYPE
  5
15
330
14
100
AcDbSymbolTableRecord
100
AcDbLinetypeTableRecord
  2
ByBlock
 70
     0
  3

 72
    65
 73
     0
 40
0.0
  0
LTYPE
  5
16
330
14
100
AcDbSymbolTableRecord
100
AcDbLinetypeTableRecord
  2
ByLayer
 70
     0
  3

 72
    65
 73
     0
 40
0.0
  0
LTYPE
  5
8
330
14
100
AcDbSymbolTableRecord
100
AcDbLinetypeTableRecord
  2
Continuous
 70
     0
  3
Solid line
 72
    65
 73
     0
 40
0.0
  0
ENDTAB
  0
TABLE
  2
LAYER
  5
10
330
0
100
AcDbSymbolTable
 70
     2
  0
LAYER
  5
4
330
10
100
AcDbSymbolTableRecord
100
AcDbLayerTableRecord
  2
0
 70
     0
 62
     7
  6
Continuous
370
    -3
390
5
  0
LAYER
  5
B8
330
10
100
AcDbSymbolTableRecord
100
AcDbLayerTableRecord
  2
renvoi
 70
     0
 62
     7
  6
Continuous
370
    -3
390
5
  0
ENDTAB
  0
TABLE
  2
STYLE
  5
11
330
0
100
AcDbSymbolTable
 70
     3
  0
STYLE
  5
12
330
11
100
AcDbSymbolTableRecord
100
AcDbTextStyleTableRecord
  2
Standard
 70
     0
 40
0.0
 41
1.0
 50
0.0
 71
     0
 42
2.5
  3
txt
  4

  0
STYLE
  5
26
330
11
100
AcDbSymbolTableRecord
100
AcDbTextStyleTableRecord
  2
ISOCP
 70
     0
 40
0.0
 41
1.0
 50
0.0
 71
     0
 42
2.5
  3
isocp
  4

  0
STYLE
  5
1F
330
11
100
AcDbSymbolTableRecord
100
AcDbTextStyleTableRecord
  2
cotation
 70
     0
 40
0.0
 41
1.0
 50
10.0
 71
     0
 42
2.5
  3
romans.shx
  4

  0
ENDTAB
  0
TABLE
  2
VIEW
  5
17
330
0
100
AcDbSymbolTable
 70
     0
  0
ENDTAB
  0
TABLE
  2
UCS
  5
18
330
0
100
AcDbSymbolTable
 70
     0
  0
ENDTAB
  0
TABLE
  2
APPID
  5
1B
330
0
100
AcDbSymbolTable
 70
     1
  0
APPID
  5
1C
330
1B
100
AcDbSymbolTableRecord
100
AcDbRegAppTableRecord
  2
ACAD
 70
     0
  0
ENDTAB
  0
TABLE
  2
DIMSTYLE
  5
1D
330
0
100
AcDbSymbolTable
 70
     1
100
AcDbDimStyleTable
 71
     1
340
1E
  0
DIMSTYLE
105
1E
330
1D
100
AcDbSymbolTableRecord
100
AcDbDimStyleTableRecord
  2
sadev_1-3
 70
     0
 40
3.0
 41
3.0
 42
1.0
 43
7.0
 44
2.0
 73
     0
 74
     0
 77
     1
 78
     8
140
2.0
141
2.5
143
0.03937007874016
147
0.5
171
     3
172
     1
176
   256
177
   256
178
    10
271
     2
272
     2
274
     3
278
    44
283
     0
284
     8
340
1F
371
    -1
372
    -1
  0
ENDTAB
  0
TABLE
  2
BLOCK_RECORD
  5
1
330
0
100
AcDbSymbolTable
 70
     0
  0
BLOCK_RECORD
  5
2
330
1
100
AcDbSymbolTableRecord
100
AcDbBlockTableRecord
  2
*Model_Space
340
A
  0
BLOCK_RECORD
  5
C
330
1
100
AcDbSymbolTableRecord
100
AcDbBlockTableRecord
  2
*Paper_Space
340
F
  0
ENDTAB
  0
ENDSEC
  0
SECTION
  2
BLOCKS
  0
BLOCK
  5
3
330
2
100
AcDbEntity
  8
0
100
AcDbBlockBegin
  2
*Model_Space
 70
     0
 10
0.0
 20
0.0
 30
0.0
  3
*Model_Space
  1

  0
ENDBLK
  5
9
330
2
100
AcDbEntity
  8
0
100
AcDbBlockEnd
  0
BLOCK
  5
D
330
C
100
AcDbEntity
 67
     1
  8
0
100
AcDbBlockBegin
  2
*Paper_Space
 70
     0
 10
0.0
 20
0.0
 30
0.0
  3
*Paper_Space
  1

  0
ENDBLK
  5
E
330
C
100
AcDbEntity
 67
     1
  8
0
100
AcDbBlockEnd
  0
ENDSEC
  0
SECTION
  2
ENTITIES
  0
LINE
  5
75
330
2
100
AcDbEntity
  8
renvoi
100
AcDbLine
 10
6783.640433873772
 20
504.8402391909072
 30
0.0
 11
6813.640433873771
 21
504.8402391909072
 31
0.0
  0
LINE
  5
76
330
2
100
AcDbEntity
  8
renvoi
100
AcDbLine
 10
6785.640433873772
 20
506.8402391909073
 30
0.0
 11
6811.640433873773
 21
506.8402391909073
 31
0.0
  0
LINE
  5
77
330
2
100
AcDbEntity
  8
renvoi
100
AcDbLine
 10
6727.640433873772
 20
538.8402391909083
 30
0.0
 11
6727.640433873772
 21
578.8402391909073
 31
0.0
  0
LINE
  5
78
330
2
100
AcDbEntity
  8
renvoi
100
AcDbLine
 10
6728.640433873772
 20
538.8402391909083
 30
0.0
 11
6728.640433873772
 21
578.8402391909073
 31
0.0
  0
LINE
  5
79
330
2
100
AcDbEntity
  8
renvoi
100
AcDbLine
 10
6728.640433873772
 20
578.8402391909069
 30
0.0
 11
6728.640433873772
 21
538.8402391909068
 31
0.0
  0
LINE
  5
7A
330
2
100
AcDbEntity
  8
renvoi
100
AcDbLine
 10
6744.640433873772
 20
543.8402391909082
 30
0.0
 11
6744.640433873772
 21
573.8402391909073
 31
0.0
  0
LINE
  5
7B
330
2
100
AcDbEntity
  8
renvoi
100
AcDbLine
 10
6746.640433873771
 20
545.8402391909082
 30
0.0
 11
6746.640433873771
 21
571.8402391909073
 31
0.0
  0
CIRCLE
  5
7C
330
2
100
AcDbEntity
  8
renvoi
100
AcDbCircle
 10
6739.640433873772
 20
499.8402391909072
 30
0.0
 40
4.25
  0
LINE
  5
7D
330
2
100
AcDbEntity
  8
renvoi
100
AcDbLine
 10
6740.506459277556
 20
498.3402391909071
 30
0.0
 11
6741.372484681341
 21
499.840239190907
 31
0.0
  0
LINE
  5
7E
330
2
100
AcDbEntity
  8
renvoi
100
AcDbLine
 10
6741.372484681341
 20
499.8402391909075
 30
0.0
 11
6740.506459277556
 21
501.3402391909074
 31
0.0
  0
LINE
  5
7F
330
2
100
AcDbEntity
  8
renvoi
100
AcDbLine
 10
6740.506459277556
 20
501.3402391909072
 30
0.0
 11
6738.774408469987
 21
501.3402391909072
 31
0.0
  0
LINE
  5
80
330
2
100
AcDbEntity
  8
renvoi
100
AcDbLine
 10
6738.774408469987
 20
501.3402391909073
 30
0.0
 11
6737.908383066202
 21
499.8402391909074
 31
0.0
  0
LINE
  5
81
330
2
100
AcDbEntity
  8
renvoi
100
AcDbLine
 10
6737.908383066202
 20
499.8402391909073
 30
0.0
 11
6738.774408469987
 21
498.3402391909074
 31
0.0
  0
LINE
  5
82
330
2
100
AcDbEntity
  8
renvoi
100
AcDbLine
 10
6738.774408469987
 20
498.3402391909073
 30
0.0
 11
6740.506459277556
 21
498.3402391909073
 31
0.0
  0
LINE
  5
83
330
2
100
AcDbEntity
  8
renvoi
100
AcDbLine
 10
6742.640433873773
 20
559.8283327421309
 30
0.0
 11
6742.640433873773
 21
505.3402391909072
 31
0.0
  0
LINE
  5
84
330
2
100
AcDbEntity
  8
renvoi
100
AcDbLine
 10
6742.640433873773
 20
580.8283327421301
 30
0.0
 11
6742.640433873773
 21
559.8283327421309
 31
0.0
  0
LINE
  5
85
330
2
100
AcDbEntity
  8
renvoi
100
AcDbLine
 10
6735.640433873773
 20
579.8283327421302
 30
0.0
 11
6735.640433873773
 21
559.8283327421309
 31
0.0
  0
LINE
  5
86
330
2
100
AcDbEntity
  8
renvoi
100
AcDbLine
 10
6736.640433873773
 20
559.8283327421309
 30
0.0
 11
6736.640433873773
 21
580.8283327421301
 31
0.0
  0
LINE
  5
87
330
2
100
AcDbEntity
  8
renvoi
100
AcDbLine
 10
6743.640433873773
 20
504.3402391909072
 30
0.0
 11
6743.640433873773
 21
559.8283327421309
 31
0.0
  0
LINE
  5
88
330
2
100
AcDbEntity
  8
renvoi
100
AcDbLine
 10
6743.640433873773
 20
559.8283327421309
 30
0.0
 11
6743.640433873773
 21
579.8283327421302
 31
0.0
  0
LINE
  5
89
330
2
100
AcDbEntity
  8
renvoi
100
AcDbLine
 10
6735.640433873773
 20
501.2763798525443
 30
0.0
 11
6735.640433873773
 21
504.3402391909072
 31
0.0
  0
LINE
  5
8A
330
2
100
AcDbEntity
  8
renvoi
100
AcDbLine
 10
6743.640433873773
 20
503.8402391909072
 30
0.0
 11
6743.640433873773
 21
504.3402391909072
 31
0.0
  0
LINE
  5
8B
330
2
100
AcDbEntity
  8
renvoi
100
AcDbLine
 10
6735.640433873773
 20
559.8283327421309
 30
0.0
 11
6735.640433873773
 21
504.3402391909072
 31
0.0
  0
LINE
  5
8C
330
2
100
AcDbEntity
  8
renvoi
100
AcDbLine
 10
6736.640433873773
 20
505.3402391909072
 30
0.0
 11
6736.640433873773
 21
559.8283327421309
 31
0.0
  0
LINE
  5
8D
330
2
100
AcDbEntity
  8
renvoi
100
AcDbLine
 10
6735.640433873773
 20
504.3402391909072
 30
0.0
 11
6743.640433873773
 21
504.3402391909072
 31
0.0
  0
LINE
  5
8E
330
2
100
AcDbEntity
  8
renvoi
100
AcDbLine
 10
6736.640433873773
 20
505.3402391909069
 30
0.0
 11
6735.640433873773
 21
504.340239190907
 31
0.0
  0
LINE
  5
8F
330
2
100
AcDbEntity
  8
renvoi
100
AcDbLine
 10
6742.640433873773
 20
505.3402391909072
 30
0.0
 11
6736.640433873773
 21
505.3402391909072
 31
0.0
  0
LINE
  5
90
330
2
100
AcDbEntity
  8
renvoi
100
AcDbLine
 10
6743.640433873773
 20
504.3402391909066
 30
0.0
 11
6742.640433873773
 21
505.3402391909066
 31
0.0
  0
LINE
  5
91
330
2
100
AcDbEntity
  8
renvoi
100
AcDbLine
 10
6778.640433873772
 20
487.8402391909076
 30
0.0
 11
6818.640433873771
 21
487.8402391909076
 31
0.0
  0
LINE
  5
92
330
2
100
AcDbEntity
  8
renvoi
100
AcDbLine
 10
6778.640433873772
 20
488.8402391909075
 30
0.0
 11
6818.640433873771
 21
488.8402391909075
 31
0.0
  0
LINE
  5
93
330
2
100
AcDbEntity
  8
renvoi
100
AcDbLine
 10
6818.640433873771
 20
488.8402391909076
 30
0.0
 11
6778.640433873771
 21
488.8402391909076
 31
0.0
  0
LINE
  5
94
330
2
100
AcDbEntity
  8
renvoi
100
AcDbLine
 10
6820.628527425404
 20
496.8402391909072
 30
0.0
 11
6799.628527425382
 21
496.8402391909072
 31
0.0
  0
LINE
  5
95
330
2
100
AcDbEntity
  8
renvoi
100
AcDbLine
 10
6799.628527425382
 20
502.8402391909073
 30
0.0
 11
6820.628527425404
 21
502.8402391909073
 31
0.0
  0
LINE
  5
96
330
2
100
AcDbEntity
  8
renvoi
100
AcDbLine
 10
6799.628527425383
 20
495.8402391909072
 30
0.0
 11
6819.628527425404
 21
495.8402391909072
 31
0.0
  0
LINE
  5
97
330
2
100
AcDbEntity
  8
renvoi
100
AcDbLine
 10
6741.076574535407
 20
495.8402391909072
 30
0.0
 11
6744.140433873773
 21
495.8402391909072
 31
0.0
  0
LINE
  5
98
330
2
100
AcDbEntity
  8
renvoi
100
AcDbLine
 10
6819.628527425404
 20
503.8402391909072
 30
0.0
 11
6799.628527425382
 21
503.8402391909072
 31
0.0
  0
LINE
  5
99
330
2
100
AcDbEntity
  8
renvoi
100
AcDbLine
 10
6799.628527425382
 20
503.8402391909072
 30
0.0
 11
6744.140433873773
 21
503.8402391909072
 31
0.0
  0
LINE
  5
9A
330
2
100
AcDbEntity
  8
renvoi
100
AcDbLine
 10
6744.140433873773
 20
503.8402391909072
 30
0.0
 11
6741.076574535407
 21
503.8402391909072
 31
0.0
  0
LINE
  5
9B
330
2
100
AcDbEntity
  8
renvoi
100
AcDbLine
 10
6744.140433873773
 20
495.8402391909072
 30
0.0
 11
6799.628527425383
 21
495.8402391909072
 31
0.0
  0
LINE
  5
9C
330
2
100
AcDbEntity
  8
renvoi
100
AcDbLine
 10
6745.140433873771
 20
502.8402391909073
 30
0.0
 11
6799.628527425382
 21
502.8402391909073
 31
0.0
  0
LINE
  5
9D
330
2
100
AcDbEntity
  8
renvoi
100
AcDbLine
 10
6799.628527425382
 20
496.8402391909072
 30
0.0
 11
6745.140433873771
 21
496.8402391909072
 31
0.0
  0
LINE
  5
9E
330
2
100
AcDbEntity
  8
renvoi
100
AcDbLine
 10
6744.140433873773
 20
503.8402391909072
 30
0.0
 11
6744.140433873773
 21
495.8402391909072
 31
0.0
  0
LINE
  5
9F
330
2
100
AcDbEntity
  8
renvoi
100
AcDbLine
 10
6745.140433873771
 20
502.8402391909073
 30
0.0
 11
6744.140433873773
 21
503.8402391909072
 31
0.0
  0
LINE
  5
A0
330
2
100
AcDbEntity
  8
renvoi
100
AcDbLine
 10
6745.140433873771
 20
496.8402391909072
 30
0.0
 11
6745.140433873771
 21
502.8402391909073
 31
0.0
  0
LINE
  5
A1
330
2
100
AcDbEntity
  8
renvoi
100
AcDbLine
 10
6744.140433873771
 20
495.8402391909081
 30
0.0
 11
6745.140433873771
 21
496.8402391909081
 31
0.0
  0
LINE
  5
A2
330
2
100
AcDbEntity
  8
renvoi
100
AcDbLine
 10
6819.628527425404
 20
503.8402391909072
 30
0.0
 11
6820.628527425404
 21
502.8402391909073
 31
0.0
  0
LINE
  5
A3
330
2
100
AcDbEntity
  8
renvoi
100
AcDbLine
 10
6819.628527425404
 20
495.8402391909072
 30
0.0
 11
6820.628527425404
 21
496.8402391909072
 31
0.0
  0
LINE
  5
A4
330
2
100
AcDbEntity
  8
renvoi
100
AcDbLine
 10
6820.628527425404
 20
502.8402391909073
 30
0.0
 11
6820.628527425404
 21
496.8402391909072
 31
0.0
  0
LINE
  5
A5
330
2
100
AcDbEntity
  8
renvoi
100
AcDbLine
 10
6778.640433873771
 20
495.8402391909074
 30
0.0
 11
6778.640433873771
 21
488.8402391909076
 31
0.0
  0
LINE
  5
A6
330
2
100
AcDbEntity
  8
renvoi
100
AcDbLine
 10
6818.640433873771
 20
495.8402391909074
 30
0.0
 11
6818.640433873771
 21
488.8402391909076
 31
0.0
  0
LINE
  5
A7
330
2
100
AcDbEntity
  8
renvoi
100
AcDbLine
 10
6818.640433873771
 20
487.8402391909076
 30
0.0
 11
6818.640433873771
 21
488.8402391909075
 31
0.0
  0
LINE
  5
A8
330
2
100
AcDbEntity
  8
renvoi
100
AcDbLine
 10
6778.640433873772
 20
487.8402391909076
 30
0.0
 11
6778.640433873772
 21
488.8402391909075
 31
0.0
  0
LINE
  5
A9
330
2
100
AcDbEntity
  8
renvoi
100
AcDbLine
 10
6735.640433873773
 20
579.8283327421302
 30
0.0
 11
6736.640433873773
 21
580.8283327421301
 31
0.0
  0
LINE
  5
AA
330
2
100
AcDbEntity
  8
renvoi
100
AcDbLine
 10
6736.640433873773
 20
580.8283327421301
 30
0.0
 11
6742.640433873773
 21
580.8283327421301
 31
0.0
  0
LINE
  5
AB
330
2
100
AcDbEntity
  8
renvoi
100
AcDbLine
 10
6743.640433873773
 20
579.8283327421302
 30
0.0
 11
6742.640433873773
 21
580.8283327421301
 31
0.0
  0
LINE
  5
AC
330
2
100
AcDbEntity
  8
renvoi
100
AcDbLine
 10
6746.640433873771
 20
571.8402391909073
 30
0.0
 11
6744.640433873772
 21
573.8402391909073
 31
0.0
  0
LINE
  5
AD
330
2
100
AcDbEntity
  8
renvoi
100
AcDbLine
 10
6746.640433873771
 20
545.8402391909082
 30
0.0
 11
6744.640433873772
 21
543.8402391909082
 31
0.0
  0
LINE
  5
AE
330
2
100
AcDbEntity
  8
renvoi
100
AcDbLine
 10
6744.640433873772
 20
573.8402391909073
 30
0.0
 11
6743.640433873771
 21
573.8402391909073
 31
0.0
  0
LINE
  5
AF
330
2
100
AcDbEntity
  8
renvoi
100
AcDbLine
 10
6744.640433873772
 20
543.8402391909082
 30
0.0
 11
6743.640433873771
 21
543.8402391909082
 31
0.0
  0
LINE
  5
B0
330
2
100
AcDbEntity
  8
renvoi
100
AcDbLine
 10
6728.640433873772
 20
538.8402391909068
 30
0.0
 11
6735.640433873772
 21
538.8402391909068
 31
0.0
  0
LINE
  5
B1
330
2
100
AcDbEntity
  8
renvoi
100
AcDbLine
 10
6728.640433873772
 20
578.8402391909069
 30
0.0
 11
6735.640433873772
 21
578.8402391909069
 31
0.0
  0
LINE
  5
B2
330
2
100
AcDbEntity
  8
renvoi
100
AcDbLine
 10
6728.640433873772
 20
578.8402391909073
 30
0.0
 11
6727.640433873772
 21
578.8402391909073
 31
0.0
  0
LINE
  5
B3
330
2
100
AcDbEntity
  8
renvoi
100
AcDbLine
 10
6728.640433873772
 20
538.8402391909083
 30
0.0
 11
6727.640433873772
 21
538.8402391909083
 31
0.0
  0
LINE
  5
B4
330
2
100
AcDbEntity
  8
renvoi
100
AcDbLine
 10
6785.640433873772
 20
506.8402391909073
 30
0.0
 11
6783.640433873772
 21
504.8402391909072
 31
0.0
  0
LINE
  5
B5
330
2
100
AcDbEntity
  8
renvoi
100
AcDbLine
 10
6811.640433873773
 20
506.8402391909073
 30
0.0
 11
6813.640433873771
 21
504.8402391909072
 31
0.0
  0
LINE
  5
B6
330
2
100
AcDbEntity
  8
renvoi
100
AcDbLine
 10
6813.640433873771
 20
503.8402391909072
 30
0.0
 11
6813.640433873771
 21
504.8402391909072
 31
0.0
  0
LINE
  5
B7
330
2
100
AcDbEntity
  8
renvoi
100
AcDbLine
 10
6783.640433873772
 20
503.8402391909072
 30
0.0
 11
6783.640433873772
 21
504.8402391909072
 31
0.0
  0
ENDSEC
  0
SECTION
  2
OBJECTS
  0
DICTIONARY
  5
7
330
0
100
AcDbDictionary
281
     1
  3
ACAD_COLOR
350
D0
  3
ACAD_GROUP
350
23
  3
ACAD_LAYOUT
350
B
  3
ACAD_MATERIAL
350
BB
  3
ACAD_MLINESTYLE
350
24
  3
ACAD_PLOTSETTINGS
350
25
  3
ACAD_PLOTSTYLENAME
350
6
  3
ACAD_TABLESTYLE
350
D1
  3
ACAD_VISUALSTYLE
350
BF
  3
AcDbVariableDictionary
350
EF
  3
DWGPROPS
350
101
  0
DICTIONARY
  5
D0
102
{ACAD_REACTORS
330
7
102
}
330
7
100
AcDbDictionary
281
     1
  0
DICTIONARY
  5
23
102
{ACAD_REACTORS
330
7
102
}
330
7
100
AcDbDictionary
281
     1
  0
DICTIONARY
  5
B
102
{ACAD_REACTORS
330
7
102
}
330
7
100
AcDbDictionary
281
     1
  3
02 26 20
350
F
  3
Model
350
A
  0
DICTIONARY
  5
BB
102
{ACAD_REACTORS
330
7
102
}
330
7
100
AcDbDictionary
281
     1
  3
ByBlock
350
BD
  3
ByLayer
350
BC
  3
Global
350
BE
  0
DICTIONARY
  5
24
102
{ACAD_REACTORS
330
7
102
}
330
7
100
AcDbDictionary
281
     1
  3
Standard
350
27
  0
DICTIONARY
  5
25
102
{ACAD_REACTORS
330
7
102
}
330
7
100
AcDbDictionary
281
     1
  0
ACDBDICTIONARYWDFLT
  5
6
102
{ACAD_REACTORS
330
7
102
}
330
7
100
AcDbDictionary
281
     1
  3
Normal
350
5
100
AcDbDictionaryWithDefault
340
5
  0
DICTIONARY
  5
D1
102
{ACAD_REACTORS
330
7
102
}
330
7
100
AcDbDictionary
281
     1
  3
Standard
350
D2
  0
DICTIONARY
  5
BF
102
{ACAD_REACTORS
330
7
102
}
330
7
100
AcDbDictionary
281
     1
  3
2dWireframe
350
C5
  3
3D Hidden
350
C7
  3
3dWireframe
350
C6
  3
Basic
350
C4
  3
Brighten
350
CB
  3
ColorChange
350
CF
  3
Conceptual
350
C8
  3
Dim
350
CA
  3
Facepattern
350
CE
  3
Flat
350
C0
  3
FlatWithEdges
350
C1
  3
Gouraud
350
C2
  3
GouraudWithEdges
350
C3
  3
Linepattern
350
CD
  3
Realistic
350
C9
  3
Thicken
350
CC
  0
DICTIONARY
  5
EF
102
{ACAD_REACTORS
330
7
102
}
330
7
100
AcDbDictionary
281
     1
  3
CTABLESTYLE
350
F0
  3
DIMASSOC
350
F3
  3
INDEXCTL
350
F2
  3
SORTENTS
350
F1
  0
XRECORD
  5
101
102
{ACAD_REACTORS
330
7
102
}
330
7
100
AcDbXrecord
280
     1
  1
DWGPROPS COOKIE
  2

  3

  4

  6

  7

  8
cyril.dagand
  9

300
=
301
=
302
=
303
=
304
=
305
=
306
=
307
=
308
=
309
=
 40
4.731185891203703
 41
2452122.660360973
 42
2454608.431433981
  1

 90
        0
  0
LAYOUT
  5
F
102
{ACAD_XDICTIONARY
360
104
102
}
102
{ACAD_REACTORS
330
B
102
}
330
B
100
AcDbPlotSettings
  1

  2
PostScript Niveau 2.pc3
  4
ISO_A3_(297.00_x_420.00_MM)
  6

 40
5.793749809265136
 41
17.79375076293945
 42
5.79376220703125
 43
17.79376220703125
 44
297.0
 45
420.0
 46
44.46
 47
49.43999999999999
 48
6.498556584278162
 49
4.472895424571106
140
203.0
141
290.0
142
1.0
143
1.0
 70
   692
 72
     1
 73
     0
 74
     4
  7
monochrome.ctb
 75
    16
147
1.0
148
-6.498556584278162
149
-4.472895424571106
100
AcDbLayout
  1
02 26 20
 70
     1
 71
     1
 10
-43.75519322498697
 20
-62.76085533836834
 11
253.244806775013
 21
357.2391446616316
 12
0.0
 22
0.0
 32
0.0
 14
0.0
 24
0.0
 34
0.0
 15
210.0
 25
297.0
 35
0.0
146
0.0
 13
0.0
 23
0.0
 33
0.0
 16
1.0
 26
0.0
 36
0.0
 17
0.0
 27
1.0
 37
0.0
 76
     0
330
C
  0
LAYOUT
  5
A
102
{ACAD_XDICTIONARY
360
102
102
}
102
{ACAD_REACTORS
330
B
102
}
330
B
100
AcDbPlotSettings
  1

  2
PostScript Niveau 2.pc3
  4
ISO_A4_(210.00_x_297.00_MM)
  6

 40
5.793749809265136
 41
17.79375076293945
 42
5.793746948242187
 43
17.79376220703125
 44
210.0
 45
297.0
 46
0.0
 47
41.29999999999999
 48
6671.060747958759
 49
595.2157770871999
140
6906.378178184358
141
932.6808487982562
142
1.0
143
1.956210127136572
 70
 11964
 72
     1
 73
     0
 74
     0
  7
monochrome.ctb
 75
     0
147
0.5111925279027988
148
-685.7269454829292
149
-2744.975824041896
100
AcDbLayout
  1
Model
 70
     1
 71
     0
 10
0.0
 20
0.0
 11
12.0
 21
9.0
 12
0.0
 22
0.0
 32
0.0
 14
0.0
 24
0.0
 34
0.0
 15
0.0
 25
0.0
 35
0.0
146
0.0
 13
0.0
 23
0.0
 33
0.0
 16
1.0
 26
0.0
 36
0.0
 17
0.0
 27
1.0
 37
0.0
 76
     0
330
2
331
B9
  0
MATERIAL
  5
BD
102
{ACAD_XDICTIONARY
360
108
102
}
102
{ACAD_REACTORS
330
BB
102
}
330
BB
100
AcDbMaterial
  1
ByBlock
  0
MATERIAL
  5
BC
102
{ACAD_XDICTIONARY
360
106
102
}
102
{ACAD_REACTORS
330
BB
102
}
330
BB
100
AcDbMaterial
  1
ByLayer
  0
MATERIAL
  5
BE
102
{ACAD_XDICTIONARY
360
10A
102
}
102
{ACAD_REACTORS
330
BB
102
}
330
BB
100
AcDbMaterial
  1
Global
  0
MLINESTYLE
  5
27
102
{ACAD_REACTORS
330
24
102
}
330
24
100
AcDbMlineStyle
  2
STANDARD
 70
     0
  3

 62
   256
 51
90.0
 52
90.0
 71
     2
 49
0.5
 62
   256
  6
BYLAYER
 49
-0.5
 62
   256
  6
BYLAYER
  0
ACDBPLACEHOLDER
  5
5
102
{ACAD_REACTORS
330
6
102
}
330
6
  0
TABLESTYLE
  5
D2
102
{ACAD_XDICTIONARY
360
10C
102
}
102
{ACAD_REACTORS
330
D1
102
}
330
D1
100
AcDbTableStyle
  3
Standard
 70
     0
 71
     0
 40
1.5
 41
1.5
280
     0
281
     0
  7
Standard
140
4.5
170
     2
 62
     0
 63
     7
283
     0
274
    -2
284
     1
 64
     0
275
    -2
285
     1
 65
     0
276
    -2
286
     1
 66
     0
277
    -2
287
     1
 67
     0
278
    -2
288
     1
 68
     0
279
    -2
289
     1
 69
     0
  7
Standard
140
6.0
170
     5
 62
     0
 63
     7
283
     0
274
    -2
284
     1
 64
     0
275
    -2
285
     1
 65
     0
276
    -2
286
     1
 66
     0
277
    -2
287
     1
 67
     0
278
    -2
288
     1
 68
     0
279
    -2
289
     1
 69
     0
  7
Standard
140
4.5
170
     5
 62
     0
 63
     7
283
     0
274
    -2
284
     1
 64
     0
275
    -2
285
     1
 65
     0
276
    -2
286
     1
 66
     0
277
    -2
287
     1
 67
     0
278
    -2
288
     1
 68
     0
279
    -2
289
     1
 69
     0
  0
VISUALSTYLE
  5
C5
102
{ACAD_REACTORS
330
BF
102
}
330
BF
100
AcDbVisualStyle
  2
2dWireframe
 70
     4
 71
     0
 72
     2
 73
     0
 90
        0
 40
-0.6
 41
-30.0
 62
     5
 63
     7
 74
     1
 91
        4
 64
     7
 65
   257
 75
     1
175
     1
 42
1.0
 92
        0
 66
   257
 43
1.0
 76
     1
 77
     6
 78
     2
 67
     7
 79
     5
170
     0
171
     0
290
     0
174
     0
 93
        1
 44
0.0
173
     0
291
     0
 45
0.0
1001
ACAD
1000
AcDbSavedByObjectVersion
1070
     0
  0
VISUALSTYLE
  5
C7
102
{ACAD_REACTORS
330
BF
102
}
330
BF
100
AcDbVisualStyle
  2
3D Hidden
 70
     6
 71
     1
 72
     2
 73
     2
 90
        0
 40
-0.6
 41
-30.0
 62
     5
 63
     7
 74
     2
 91
        2
 64
     7
 65
   257
 75
     2
175
     1
 42
40.0
 92
        0
 66
   257
 43
1.0
 76
     1
 77
     6
 78
     2
 67
     7
 79
     3
170
     0
171
     0
290
     0
174
     0
 93
        1
 44
0.0
173
     0
291
     0
 45
0.0
1001
ACAD
1000
AcDbSavedByObjectVersion
1070
     0
  0
VISUALSTYLE
  5
C6
102
{ACAD_REACTORS
330
BF
102
}
330
BF
100
AcDbVisualStyle
  2
3dWireframe
 70
     5
 71
     0
 72
     2
 73
     0
 90
        0
 40
-0.6
 41
-30.0
 62
     5
 63
     7
 74
     1
 91
        4
 64
     7
 65
   257
 75
     1
175
     1
 42
1.0
 92
        0
 66
   257
 43
1.0
 76
     1
 77
     6
 78
     2
 67
     7
 79
     5
170
     0
171
     0
290
     0
174
     0
 93
        1
 44
0.0
173
     0
291
     0
 45
0.0
1001
ACAD
1000
AcDbSavedByObjectVersion
1070
     0
  0
VISUALSTYLE
  5
C4
102
{ACAD_REACTORS
330
BF
102
}
330
BF
100
AcDbVisualStyle
  2
Basic
 70
     7
 71
     1
 72
     0
 73
     1
 90
        0
 40
-0.6
 41
-30.0
 62
     5
 63
     7
 74
     0
 91
        4
 64
     7
 65
   257
 75
     1
175
     1
 42
1.0
 92
        8
 66
     7
 43
1.0
 76
     1
 77
     6
 78
     2
 67
     7
 79
     5
170
     0
171
     0
290
     0
174
     0
 93
        1
 44
0.0
173
     0
291
     1
 45
0.0
1001
ACAD
1000
AcDbSavedByObjectVersion
1070
     0
  0
VISUALSTYLE
  5
CB
102
{ACAD_REACTORS
330
BF
102
}
330
BF
100
AcDbVisualStyle
  2
Brighten
 70
    12
 71
     2
 72
     2
 73
     0
 90
        0
 40
-0.6
 41
-30.0
 62
     5
 63
     7
 74
     1
 91
        4
 64
     7
 65
   257
 75
     1
175
     1
 42
1.0
 92
        8
 66
     7
 43
1.0
 76
     1
 77
     6
 78
     2
 67
     7
 79
     5
170
     0
171
     0
290
     0
174
     0
 93
        1
 44
50.0
173
     0
291
     1
 45
0.0
1001
ACAD
1000
AcDbSavedByObjectVersion
1070
     0
  0
VISUALSTYLE
  5
CF
102
{ACAD_REACTORS
330
BF
102
}
330
BF
100
AcDbVisualStyle
  2
ColorChange
 70
    16
 71
     2
 72
     2
 73
     3
 90
        0
 40
-0.6
 41
-30.0
 62
     5
 63
     8
 74
     1
 91
        4
 64
     7
 65
   257
 75
     1
175
     1
 42
1.0
 92
        8
 66
     8
 43
1.0
 76
     1
 77
     6
 78
     2
 67
     7
 79
     5
170
     0
171
     0
290
     0
174
     0
 93
        1
 44
0.0
173
     0
291
     1
 45
0.0
1001
ACAD
1000
AcDbSavedByObjectVersion
1070
     0
  0
VISUALSTYLE
  5
C8
102
{ACAD_REACTORS
330
BF
102
}
330
BF
100
AcDbVisualStyle
  2
Conceptual
 70
     9
 71
     3
 72
     2
 73
     0
 90
        0
 40
-0.6
 41
-30.0
 62
     5
 63
     7
 74
     2
 91
        2
 64
     7
 65
   257
 75
     1
175
     1
 42
40.0
 92
        8
 66
     7
 43
1.0
 76
     1
 77
     6
 78
     2
 67
     7
 79
     3
170
     0
171
     0
290
     0
174
     0
 93
        1
 44
0.0
173
     0
291
     0
 45
0.0
1001
ACAD
1000
AcDbSavedByObjectVersion
1070
     0
  0
VISUALSTYLE
  5
CA
102
{ACAD_REACTORS
330
BF
102
}
330
BF
100
AcDbVisualStyle
  2
Dim
 70
    11
 71
     2
 72
     2
 73
     0
 90
        0
 40
-0.6
 41
-30.0
 62
     5
 63
     7
 74
     1
 91
        4
 64
     7
 65
   257
 75
     1
175
     1
 42
1.0
 92
        8
 66
     7
 43
1.0
 76
     1
 77
     6
 78
     2
 67
     7
 79
     5
170
     0
171
     0
290
     0
174
     0
 93
        1
 44
-50.0
173
     0
291
     1
 45
0.0
1001
ACAD
1000
AcDbSavedByObjectVersion
1070
     0
  0
VISUALSTYLE
  5
CE
102
{ACAD_REACTORS
330
BF
102
}
330
BF
100
AcDbVisualStyle
  2
Facepattern
 70
    15
 71
     2
 72
     2
 73
     0
 90
        0
 40
-0.6
 41
-30.0
 62
     5
 63
     7
 74
     1
 91
        4
 64
     7
 65
   257
 75
     1
175
     1
 42
1.0
 92
        8
 66
     7
 43
1.0
 76
     1
 77
     6
 78
     2
 67
     7
 79
     5
170
     0
171
     0
290
     0
174
     0
 93
        1
 44
0.0
173
     0
291
     1
 45
0.0
1001
ACAD
1000
AcDbSavedByObjectVersion
1070
     0
  0
VISUALSTYLE
  5
C0
102
{ACAD_REACTORS
330
BF
102
}
330
BF
100
AcDbVisualStyle
  2
Flat
 70
     0
 71
     2
 72
     1
 73
     1
 90
        2
 40
-0.6
 41
30.0
 62
     5
 63
     7
 74
     0
 91
        4
 64
     7
 65
   257
 75
     1
175
     1
 42
1.0
 92
        8
 66
     7
 43
1.0
 76
     1
 77
     6
 78
     2
 67
     7
 79
     5
170
     0
171
     0
290
     0
174
     0
 93
       13
 44
0.0
173
     0
291
     1
 45
0.0
1001
ACAD
1000
AcDbSavedByObjectVersion
1070
     0
  0
VISUALSTYLE
  5
C1
102
{ACAD_REACTORS
330
BF
102
}
330
BF
100
AcDbVisualStyle
  2
FlatWithEdges
 70
     1
 71
     2
 72
     1
 73
     1
 90
        2
 40
-0.6
 41
30.0
 62
     5
 63
     7
 74
     1
 91
        4
 64
     7
 65
   257
 75
     1
175
     1
 42
1.0
 92
        0
 66
   257
 43
1.0
 76
     1
 77
     6
 78
     2
 67
     7
 79
     5
170
     0
171
     0
290
     0
174
     0
 93
       13
 44
0.0
173
     0
291
     1
 45
0.0
1001
ACAD
1000
AcDbSavedByObjectVersion
1070
     0
  0
VISUALSTYLE
  5
C2
102
{ACAD_REACTORS
330
BF
102
}
330
BF
100
AcDbVisualStyle
  2
Gouraud
 70
     2
 71
     2
 72
     2
 73
     1
 90
        2
 40
-0.6
 41
30.0
 62
     5
 63
     7
 74
     0
 91
        4
 64
     7
 65
   257
 75
     1
175
     1
 42
1.0
 92
        0
 66
     7
 43
1.0
 76
     1
 77
     6
 78
     2
 67
     7
 79
     5
170
     0
171
     0
290
     0
174
     0
 93
       13
 44
0.0
173
     0
291
     1
 45
0.0
1001
ACAD
1000
AcDbSavedByObjectVersion
1070
     0
  0
VISUALSTYLE
  5
C3
102
{ACAD_REACTORS
330
BF
102
}
330
BF
100
AcDbVisualStyle
  2
GouraudWithEdges
 70
     3
 71
     2
 72
     2
 73
     1
 90
        2
 40
-0.6
 41
30.0
 62
     5
 63
     7
 74
     1
 91
        4
 64
     7
 65
   257
 75
     1
175
     1
 42
1.0
 92
        0
 66
   257
 43
1.0
 76
     1
 77
     6
 78
     2
 67
     7
 79
     5
170
     0
171
     0
290
     0
174
     0
 93
       13
 44
0.0
173
     0
291
     1
 45
0.0
1001
ACAD
1000
AcDbSavedByObjectVersion
1070
     0
  0
VISUALSTYLE
  5
CD
102
{ACAD_REACTORS
330
BF
102
}
330
BF
100
AcDbVisualStyle
  2
Linepattern
 70
    14
 71
     2
 72
     2
 73
     0
 90
        0
 40
-0.6
 41
-30.0
 62
     5
 63
     7
 74
     1
 91
        4
 64
     7
 65
   257
 75
     7
175
     7
 42
1.0
 92
        8
 66
     7
 43
1.0
 76
     1
 77
     6
 78
     2
 67
     7
 79
     5
170
     0
171
     0
290
     0
174
     0
 93
        1
 44
0.0
173
     0
291
     1
 45
0.0
1001
ACAD
1000
AcDbSavedByObjectVersion
1070
     0
  0
VISUALSTYLE
  5
C9
102
{ACAD_REACTORS
330
BF
102
}
330
BF
100
AcDbVisualStyle
  2
Realistic
 70
     8
 71
     2
 72
     2
 73
     0
 90
        0
 40
-0.6
 41
-30.0
 62
     5
 63
     7
 74
     1
 91
        0
 64
     7
 65
   257
 75
     1
175
     1
 42
1.0
 92
        8
 66
     8
 43
1.0
 76
     1
 77
     6
 78
     2
 67
     7
 79
     5
170
     0
171
     0
290
     0
174
     0
 93
       13
 44
0.0
173
     0
291
     0
 45
0.0
1001
ACAD
1000
AcDbSavedByObjectVersion
1070
     0
  0
VISUALSTYLE
  5
CC
102
{ACAD_REACTORS
330
BF
102
}
330
BF
100
AcDbVisualStyle
  2
Thicken
 70
    13
 71
     2
 72
     2
 73
     0
 90
        0
 40
-0.6
 41
-30.0
 62
     5
 63
     7
 74
     1
 91
        4
 64
     7
 65
   257
 75
     1
175
     1
 42
1.0
 92
       12
 66
     7
 43
1.0
 76
     1
 77
     6
 78
     2
 67
     7
 79
     5
170
     0
171
     0
290
     0
174
     0
 93
        1
 44
0.0
173
     0
291
     1
 45
0.0
1001
ACAD
1000
AcDbSavedByObjectVersion
1070
     0
  0
DICTIONARYVAR
  5
F0
102
{ACAD_REACTORS
330
EF
102
}
330
EF
100
DictionaryVariables
280
     0
  1
STANDARD
  0
DICTIONARYVAR
  5
F3
102
{ACAD_REACTORS
330
EF
102
}
330
EF
100
DictionaryVariables
280
     0
  1
1
  0
DICTIONARYVAR
  5
F2
102
{ACAD_REACTORS
330
EF
102
}
330
EF
100
DictionaryVariables
280
     0
  1
0
  0
DICTIONARYVAR
  5
F1
102
{ACAD_REACTORS
330
EF
102
}
330
EF
100
DictionaryVariables
280
     0
  1
127
  0
DICTIONARY
  5
104
330
F
100
AcDbDictionary
280
     1
281
     1
  3
ACAD_XREC_ROUNDTRIP
360
105
  0
DICTIONARY
  5
102
330
A
100
AcDbDictionary
280
     1
281
     1
  3
ACAD_XREC_ROUNDTRIP
360
103
  0
DICTIONARY
  5
108
330
BD
100
AcDbDictionary
280
     1
281
     1
  3
ACAD_XREC_ROUNDTRIP
360
109
  0
DICTIONARY
  5
106
330
BC
100
AcDbDictionary
280
     1
281
     1
  3
ACAD_XREC_ROUNDTRIP
360
107
  0
DICTIONARY
  5
10A
330
BE
100
AcDbDictionary
280
     1
281
     1
  3
ACAD_XREC_ROUNDTRIP
360
10B
  0
DICTIONARY
  5
10C
330
D2
100
AcDbDictionary
280
     1
281
     1
  3
ACAD_XREC_ROUNDTRIP
360
10D
  0
XRECORD
  5
105
102
{ACAD_REACTORS
330
104
102
}
330
104
100
AcDbXrecord
280
     1
102
SHADEPLOT
 70
     0
102
SHADEPLOTRESLEVEL
 70
     2
102
SHADEPLOTCUSTOMDPI
 70
   300
  0
XRECORD
  5
103
102
{ACAD_REACTORS
330
102
102
}
330
102
100
AcDbXrecord
280
     1
102
SHADEPLOT
 70
     2
102
SHADEPLOTRESLEVEL
 70
     2
102
SHADEPLOTCUSTOMDPI
 70
   300
  0
XRECORD
  5
109
102
{ACAD_REACTORS
330
108
102
}
330
108
100
AcDbXrecord
280
     1
102
MATERIAL
148
0.0
149
0.0
149
0.0
 93
        0
 94
       63
282
     0
 72
     1
 77
     1
171
     1
175
     1
179
     1
273
     0
  0
XRECORD
  5
107
102
{ACAD_REACTORS
330
106
102
}
330
106
100
AcDbXrecord
280
     1
102
MATERIAL
148
0.0
149
0.0
149
0.0
 93
        0
 94
       63
282
     0
 72
     1
 77
     1
171
     1
175
     1
179
     1
273
     0
  0
XRECORD
  5
10B
102
{ACAD_REACTORS
330
10A
102
}
330
10A
100
AcDbXrecord
280
     1
102
MATERIAL
148
0.0
149
0.0
149
0.0
 93
        0
 94
       63
282
     0
 72
     1
 77
     1
171
     1
175
     1
179
     1
273
     0
  0
XRECORD
  5
10D
102
{ACAD_REACTORS
330
10C
102
}
330
10C
100
AcDbXrecord
280
     1
102
ACAD_ROUNDTRIP_PRE2007_TABLESTYLE
 90
      512
 91
        0
  1

 92
      512
 93
        0
  2

 94
      512
 95
        0
  3

  0
ENDSEC
  0
EOF
