  0
SECTION
  2
HEADER
  9
$ACADVER
  1
AC1015
  9
$ACADMAINTVER
 70
     6
  9
$DWGCODEPAGE
  3
ANSI_1252
  9
$INSBASE
 10
0.0
 20
0.0
 30
0.0
  9
$EXTMIN
 10
60.2907537057
 20
179.3108737350958
 30
0.0
  9
$EXTMAX
 10
295.9984461681
 20
549.8550705797002
 30
0.0
  9
$LIMMIN
 10
0.0
 20
0.0
  9
$LIMMAX
 10
840.0
 20
594.0
  9
$ORTHOMODE
 70
     1
  9
$REGENMODE
 70
     1
  9
$FILLMODE
 70
     1
  9
$QTEXTMODE
 70
     0
  9
$MIRRTEXT
 70
     1
  9
$LTSCALE
 40
1.0
  9
$ATTMODE
 70
     1
  9
$TEXTSIZE
 40
2.8
  9
$TRACEWID
 40
1.0
  9
$TEXTSTYLE
  7
Standard
  9
$CLAYER
  8
0
  9
$CELTYPE
  6
ByLayer
  9
$CECOLOR
 62
   256
  9
$CELTSCALE
 40
1.0
  9
$DISPSILH
 70
     0
  9
$DIMSCALE
 40
1.0
  9
$DIMASZ
 40
3.2
  9
$DIMEXO
 40
0.1
  9
$DIMDLI
 40
3.75
  9
$DIMRND
 40
0.0
  9
$DIMDLE
 40
0.0
  9
$DIMEXE
 40
1.0
  9
$DIMTP
 40
0.0
  9
$DIMTM
 40
0.0
  9
$DIMTXT
 40
3.2
  9
$DIMCEN
 40
2.5
  9
$DIMTSZ
 40
0.0
  9
$DIMTOL
 70
     0
  9
$DIMLIM
 70
     0
  9
$DIMTIH
 70
     1
  9
$DIMTOH
 70
     1
  9
$DIMSE1
 70
     0
  9
$DIMSE2
 70
     0
  9
$DIMTAD
 70
     1
  9
$DIMZIN
 70
     0
  9
$DIMBLK
  1

  9
$DIMASO
 70
     1
  9
$DIMSHO
 70
     1
  9
$DIMPOST
  1

  9
$DIMAPOST
  1

  9
$DIMALT
 70
     0
  9
$DIMALTD
 70
     3
  9
$DIMALTF
 40
0.0393700787
  9
$DIMLFAC
 40
1.0
  9
$DIMTOFL
 70
     1
  9
$DIMTVP
 40
0.0
  9
$DIMTIX
 70
     0
  9
$DIMSOXD
 70
     0
  9
$DIMSAH
 70
     0
  9
$DIMBLK1
  1

  9
$DIMBLK2
  1

  9
$DIMSTYLE
  2
ISO-25
  9
$DIMCLRD
 70
     0
  9
$DIMCLRE
 70
     0
  9
$DIMCLRT
 70
     0
  9
$DIMTFAC
 40
1.0
  9
$DIMGAP
 40
2.0
  9
$DIMJUST
 70
     0
  9
$DIMSD1
 70
     0
  9
$DIMSD2
 70
     0
  9
$DIMTOLJ
 70
     0
  9
$DIMTZIN
 70
     0
  9
$DIMALTZ
 70
     0
  9
$DIMALTTZ
 70
     0
  9
$DIMUPT
 70
     0
  9
$DIMDEC
 70
     2
  9
$DIMTDEC
 70
     2
  9
$DIMALTU
 70
     2
  9
$DIMALTTD
 70
     3
  9
$DIMTXSTY
  7
Standard
  9
$DIMAUNIT
 70
     0
  9
$DIMADEC
 70
     2
  9
$DIMALTRND
 40
0.0
  9
$DIMAZIN
 70
     0
  9
$DIMDSEP
 70
    44
  9
$DIMATFIT
 70
     3
  9
$DIMFRAC
 70
     0
  9
$DIMLDRBLK
  1

  9
$DIMLUNIT
 70
     2
  9
$DIMLWD
 70
    -2
  9
$DIMLWE
 70
    -2
  9
$DIMTMOVE
 70
     0
  9
$LUNITS
 70
     2
  9
$LUPREC
 70
     2
  9
$SKETCHINC
 40
1.0
  9
$FILLETRAD
 40
10.0
  9
$AUNITS
 70
     0
  9
$AUPREC
 70
     2
  9
$MENU
  1
.
  9
$ELEVATION
 40
0.0
  9
$PELEVATION
 40
0.0
  9
$THICKNESS
 40
0.0
  9
$LIMCHECK
 70
     0
  9
$CHAMFERA
 40
0.0
  9
$CHAMFERB
 40
0.0
  9
$CHAMFERC
 40
0.0
  9
$CHAMFERD
 40
0.0
  9
$SKPOLY
 70
     0
  9
$TDCREATE
 40
2458179.695160775
  9
$TDUCREATE
 40
2458179.653494109
  9
$TDUPDATE
 40
2458872.595424965
  9
$TDUUPDATE
 40
2458872.553758299
  9
$TDINDWG
 40
0.0028367708
  9
$TDUSRTIMER
 40
0.0000737153
  9
$USRTIMER
 70
     1
  9
$ANGBASE
 50
0.0
  9
$ANGDIR
 70
     0
  9
$PDMODE
 70
     0
  9
$PDSIZE
 40
-1.0
  9
$PLINEWID
 40
0.0
  9
$SPLFRAME
 70
     0
  9
$SPLINETYPE
 70
     6
  9
$SPLINESEGS
 70
     8
  9
$HANDSEED
  5
C54
  9
$SURFTAB1
 70
     6
  9
$SURFTAB2
 70
     6
  9
$SURFTYPE
 70
     6
  9
$SURFU
 70
     6
  9
$SURFV
 70
     6
  9
$UCSBASE
  2

  9
$UCSNAME
  2

  9
$UCSORG
 10
0.0
 20
0.0
 30
0.0
  9
$UCSXDIR
 10
1.0
 20
0.0
 30
0.0
  9
$UCSYDIR
 10
0.0
 20
1.0
 30
0.0
  9
$UCSORTHOREF
  2

  9
$UCSORTHOVIEW
 70
     0
  9
$UCSORGTOP
 10
0.0
 20
0.0
 30
0.0
  9
$UCSORGBOTTOM
 10
0.0
 20
0.0
 30
0.0
  9
$UCSORGLEFT
 10
0.0
 20
0.0
 30
0.0
  9
$UCSORGRIGHT
 10
0.0
 20
0.0
 30
0.0
  9
$UCSORGFRONT
 10
0.0
 20
0.0
 30
0.0
  9
$UCSORGBACK
 10
0.0
 20
0.0
 30
0.0
  9
$PUCSBASE
  2

  9
$PUCSNAME
  2

  9
$PUCSORG
 10
0.0
 20
0.0
 30
0.0
  9
$PUCSXDIR
 10
1.0
 20
0.0
 30
0.0
  9
$PUCSYDIR
 10
0.0
 20
1.0
 30
0.0
  9
$PUCSORTHOREF
  2

  9
$PUCSORTHOVIEW
 70
     0
  9
$PUCSORGTOP
 10
0.0
 20
0.0
 30
0.0
  9
$PUCSORGBOTTOM
 10
0.0
 20
0.0
 30
0.0
  9
$PUCSORGLEFT
 10
0.0
 20
0.0
 30
0.0
  9
$PUCSORGRIGHT
 10
0.0
 20
0.0
 30
0.0
  9
$PUCSORGFRONT
 10
0.0
 20
0.0
 30
0.0
  9
$PUCSORGBACK
 10
0.0
 20
0.0
 30
0.0
  9
$USERI1
 70
     0
  9
$USERI2
 70
     0
  9
$USERI3
 70
     0
  9
$USERI4
 70
     0
  9
$USERI5
 70
     0
  9
$USERR1
 40
0.0
  9
$USERR2
 40
0.0
  9
$USERR3
 40
0.0
  9
$USERR4
 40
0.0
  9
$USERR5
 40
0.0
  9
$WORLDVIEW
 70
     1
  9
$SHADEDGE
 70
     3
  9
$SHADEDIF
 70
    70
  9
$TILEMODE
 70
     1
  9
$MAXACTVP
 70
    64
  9
$PINSBASE
 10
0.0
 20
0.0
 30
0.0
  9
$PLIMCHECK
 70
     0
  9
$PEXTMIN
 10
1.000000000000000E+20
 20
1.000000000000000E+20
 30
1.000000000000000E+20
  9
$PEXTMAX
 10
-1.000000000000000E+20
 20
-1.000000000000000E+20
 30
-1.000000000000000E+20
  9
$PLIMMIN
 10
0.0
 20
0.0
  9
$PLIMMAX
 10
0.0
 20
0.0
  9
$UNITMODE
 70
     0
  9
$VISRETAIN
 70
     1
  9
$PLINEGEN
 70
     0
  9
$PSLTSCALE
 70
     1
  9
$TREEDEPTH
 70
  3020
  9
$CMLSTYLE
  2
Standard
  9
$CMLJUST
 70
     0
  9
$CMLSCALE
 40
20.0
  9
$PROXYGRAPHICS
 70
     1
  9
$MEASUREMENT
 70
     1
  9
$CELWEIGHT
370
    -1
  9
$ENDCAPS
280
     0
  9
$JOINSTYLE
280
     0
  9
$LWDISPLAY
290
     1
  9
$INSUNITS
 70
     4
  9
$HYPERLINKBASE
  1

  9
$STYLESHEET
  1

  9
$XEDIT
290
     1
  9
$CEPSNTYPE
380
     0
  9
$PSTYLEMODE
290
     1
  9
$FINGERPRINTGUID
  2
{A98096EC-436D-4B4F-9449-3C24082314FE}
  9
$VERSIONGUID
  2
{FAEB1C32-E019-11D5-929B-00C0DF256EC4}
  9
$EXTNAMES
290
     1
  9
$PSVPSCALE
 40
0.0
  9
$OLESTARTUP
290
     0
  0
ENDSEC
  0
SECTION
  2
CLASSES
  0
CLASS
  1
ACDBDICTIONARYWDFLT
  2
AcDbDictionaryWithDefault
  3
ObjectDBX Classes
 90
        0
280
     0
281
     0
  0
CLASS
  1
VISUALSTYLE
  2
AcDbVisualStyle
  3
ObjectDBX Classes
 90
     4095
280
     0
281
     0
  0
CLASS
  1
MATERIAL
  2
AcDbMaterial
  3
ObjectDBX Classes
 90
     1153
280
     0
281
     0
  0
CLASS
  1
SCALE
  2
AcDbScale
  3
ObjectDBX Classes
 90
     1153
280
     0
281
     0
  0
CLASS
  1
TABLESTYLE
  2
AcDbTableStyle
  3
ObjectDBX Classes
 90
     4095
280
     0
281
     0
  0
CLASS
  1
MLEADERSTYLE
  2
AcDbMLeaderStyle
  3
ACDB_MLEADERSTYLE_CLASS
 90
     4095
280
     0
281
     0
  0
CLASS
  1
SUN
  2
AcDbSun
  3
SCENEOE
 90
     1153
280
     0
281
     0
  0
CLASS
  1
ACDBPLACEHOLDER
  2
AcDbPlaceHolder
  3
ObjectDBX Classes
 90
        0
280
     0
281
     0
  0
CLASS
  1
LAYOUT
  2
AcDbLayout
  3
ObjectDBX Classes
 90
        0
280
     0
281
     0
  0
CLASS
  1
RASTERVARIABLES
  2
AcDbRasterVariables
  3
ISM
 90
        0
280
     0
281
     0
  0
CLASS
  1
DIMASSOC
  2
AcDbDimAssoc
  3
"AcDbDimAssoc|Product Desc:     AcDim ARX App For Dimension|Company:          Autodesk, Inc.|WEB Address:      www.autodesk.com"
 90
        0
280
     0
281
     0
  0
ENDSEC
  0
SECTION
  2
TABLES
  0
TABLE
  2
VPORT
  5
8
330
0
100
AcDbSymbolTable
 70
     1
  0
VPORT
  5
29
330
8
100
AcDbSymbolTableRecord
100
AcDbViewportTableRecord
  2
*Active
 70
     0
 10
0.0
 20
0.0
 11
1.0
 21
1.0
 12
178.1445999369
 22
364.582972157398
 13
0.0
 23
0.0
 14
10.0
 24
10.0
 15
10.0
 25
10.0
 16
0.0
 26
0.0
 36
1.0
 17
0.0
 27
0.0
 37
0.0
 40
377.9550807814965
 41
2.421794871794872
 42
50.0
 43
0.0
 44
0.0
 50
0.0
 51
0.0
 71
    16
 72
  2000
 73
     1
 74
     3
 75
     0
 76
     0
 77
     0
 78
     0
281
     0
 65
     1
110
0.0
120
0.0
130
0.0
111
1.0
121
0.0
131
0.0
112
0.0
122
1.0
132
0.0
 79
     0
146
0.0
  0
ENDTAB
  0
TABLE
  2
LTYPE
  5
5
330
0
100
AcDbSymbolTable
 70
     6
  0
LTYPE
  5
14
330
5
100
AcDbSymbolTableRecord
100
AcDbLinetypeTableRecord
  2
ByBlock
 70
     0
  3

 72
    65
 73
     0
 40
0.0
  0
LTYPE
  5
15
330
5
100
AcDbSymbolTableRecord
100
AcDbLinetypeTableRecord
  2
ByLayer
 70
     0
  3

 72
    65
 73
     0
 40
0.0
  0
LTYPE
  5
16
330
5
100
AcDbSymbolTableRecord
100
AcDbLinetypeTableRecord
  2
Continuous
 70
     0
  3
Solid line
 72
    65
 73
     0
 40
0.0
  0
LTYPE
  5
6E
330
5
100
AcDbSymbolTableRecord
100
AcDbLinetypeTableRecord
  2
HIDDEN
 70
     0
  3
Hidden __ __ __ __ __ __ __ __ __ __ __ __ __ __
 72
    65
 73
     2
 40
1.905
 49
1.27
 74
     0
 49
-0.635
 74
     0
  0
LTYPE
  5
6F
330
5
100
AcDbSymbolTableRecord
100
AcDbLinetypeTableRecord
  2
PHANTOM
 70
     0
  3
Phantom ______  __  __  ______  __  __  ______
 72
    65
 73
     6
 40
12.7
 49
6.35
 74
     0
 49
-1.27
 74
     0
 49
1.27
 74
     0
 49
-1.27
 74
     0
 49
1.27
 74
     0
 49
-1.27
 74
     0
  0
LTYPE
  5
70
330
5
100
AcDbSymbolTableRecord
100
AcDbLinetypeTableRecord
  2
CENTER
 70
     0
  3
Center ____ _ ____ _ ____ _ ____ _ ____ _ ____
 72
    65
 73
     4
 40
10.16
 49
6.35
 74
     0
 49
-1.27
 74
     0
 49
1.27
 74
     0
 49
-1.27
 74
     0
  0
LTYPE
  5
71
330
5
100
AcDbSymbolTableRecord
100
AcDbLinetypeTableRecord
  2
CENTERX2
 70
     0
  3
Center (2x) ________  __  ________  __  _____
 72
    65
 73
     4
 40
20.32
 49
12.7
 74
     0
 49
-2.54
 74
     0
 49
2.54
 74
     0
 49
-2.54
 74
     0
  0
LTYPE
  5
72
330
5
100
AcDbSymbolTableRecord
100
AcDbLinetypeTableRecord
  2
DOT2
 70
     0
  3
Dot (.5x) ........................................
 72
    65
 73
     2
 40
0.635
 49
0.0
 74
     0
 49
-0.635
 74
     0
  0
ENDTAB
  0
TABLE
  2
LAYER
  5
2
330
0
100
AcDbSymbolTable
 70
     3
  0
LAYER
  5
10
330
2
100
AcDbSymbolTableRecord
100
AcDbLayerTableRecord
  2
0
 70
     0
 62
     7
  6
Continuous
370
    -3
390
F
  0
LAYER
  5
73
330
2
100
AcDbSymbolTableRecord
100
AcDbLayerTableRecord
  2
FORMAT
 70
     0
 62
     7
  6
Continuous
370
    -3
390
F
  0
LAYER
  5
65E
330
2
100
AcDbSymbolTableRecord
100
AcDbLayerTableRecord
  2
Defpoints
 70
     0
 62
     7
  6
Continuous
290
     0
370
    -3
390
F
  0
ENDTAB
  0
TABLE
  2
STYLE
  5
3
330
0
100
AcDbSymbolTable
 70
     2
  0
STYLE
  5
11
330
3
100
AcDbSymbolTableRecord
100
AcDbTextStyleTableRecord
  2
Standard
 70
     0
 40
0.0
 41
1.0
 50
0.0
 71
     0
 42
2.8
  3
txt
  4

  0
STYLE
  5
75
330
3
100
AcDbSymbolTableRecord
100
AcDbTextStyleTableRecord
  2
SLDTEXTSTYLE0
 70
     0
 40
0.0
 41
0.75
 50
0.0
 71
     0
 42
2.8
  3
TXT
  4

  0
ENDTAB
  0
TABLE
  2
VIEW
  5
6
330
0
100
AcDbSymbolTable
 70
     0
  0
ENDTAB
  0
TABLE
  2
UCS
  5
7
330
0
100
AcDbSymbolTable
 70
     0
  0
ENDTAB
  0
TABLE
  2
APPID
  5
9
330
0
100
AcDbSymbolTable
 70
     2
  0
APPID
  5
12
330
9
100
AcDbSymbolTableRecord
100
AcDbRegAppTableRecord
  2
ACAD
 70
     0
  0
APPID
  5
67F
330
9
100
AcDbSymbolTableRecord
100
AcDbRegAppTableRecord
  2
ACAD_DSTYLE_DIMRADIAL_EXTENSION
 70
     0
  0
ENDTAB
  0
TABLE
  2
DIMSTYLE
  5
A
330
0
100
AcDbSymbolTable
 70
     1
100
AcDbDimStyleTable
  0
DIMSTYLE
105
27
330
A
100
AcDbSymbolTableRecord
100
AcDbDimStyleTableRecord
  2
ISO-25
 70
     0
 41
2.5
 42
0.625
 43
3.75
 44
1.25
 73
     0
 74
     0
 77
     1
 78
     8
140
2.5
141
2.5
143
0.0393700787
147
0.625
171
     3
172
     1
178
     0
271
     2
272
     2
274
     3
278
    44
283
     0
284
     8
340
11
  0
ENDTAB
  0
TABLE
  2
BLOCK_RECORD
  5
1
330
0
100
AcDbSymbolTable
 70
    15
  0
BLOCK_RECORD
  5
1F
330
1
100
AcDbSymbolTableRecord
100
AcDbBlockTableRecord
  2
*Model_Space
340
22
  0
BLOCK_RECORD
  5
1B
330
1
100
AcDbSymbolTableRecord
100
AcDbBlockTableRecord
  2
*Paper_Space
340
1E
  0
BLOCK_RECORD
  5
23
330
1
100
AcDbSymbolTableRecord
100
AcDbBlockTableRecord
  2
*Paper_Space0
340
26
  0
BLOCK_RECORD
  5
5F2
330
1
100
AcDbSymbolTableRecord
100
AcDbBlockTableRecord
  2
SW_CENTERMARKSYMBOL_0
340
0
  0
BLOCK_RECORD
  5
5FE
330
1
100
AcDbSymbolTableRecord
100
AcDbBlockTableRecord
  2
SW_CENTERMARKSYMBOL_1
340
0
  0
BLOCK_RECORD
  5
662
330
1
100
AcDbSymbolTableRecord
100
AcDbBlockTableRecord
  2
*D3
340
0
  0
BLOCK_RECORD
  5
672
330
1
100
AcDbSymbolTableRecord
100
AcDbBlockTableRecord
  2
*D4
340
0
  0
BLOCK_RECORD
  5
683
330
1
100
AcDbSymbolTableRecord
100
AcDbBlockTableRecord
  2
*D5
340
0
  0
BLOCK_RECORD
  5
6DF
330
1
100
AcDbSymbolTableRecord
100
AcDbBlockTableRecord
  2
A$C4336
340
0
102
{BLKREFS
331
0
102
}
  0
BLOCK_RECORD
  5
70E
330
1
100
AcDbSymbolTableRecord
100
AcDbBlockTableRecord
  2
A$C2503
340
0
102
{BLKREFS
331
0
102
}
  0
BLOCK_RECORD
  5
755
330
1
100
AcDbSymbolTableRecord
100
AcDbBlockTableRecord
  2
A$C711
340
0
102
{BLKREFS
331
0
102
}
  0
BLOCK_RECORD
  5
782
330
1
100
AcDbSymbolTableRecord
100
AcDbBlockTableRecord
  2
A$C23571
340
0
102
{BLKREFS
331
0
102
}
  0
BLOCK_RECORD
  5
7DF
330
1
100
AcDbSymbolTableRecord
100
AcDbBlockTableRecord
  2
A$C3876
340
0
102
{BLKREFS
331
0
102
}
  0
BLOCK_RECORD
  5
83B
330
1
100
AcDbSymbolTableRecord
100
AcDbBlockTableRecord
  2
A$C9637
340
0
102
{BLKREFS
331
0
102
}
  0
BLOCK_RECORD
  5
8E1
330
1
100
AcDbSymbolTableRecord
100
AcDbBlockTableRecord
  2
A$C10763
340
0
102
{BLKREFS
331
0
102
}
  0
BLOCK_RECORD
  5
93F
330
1
100
AcDbSymbolTableRecord
100
AcDbBlockTableRecord
  2
A$C29110
340
0
102
{BLKREFS
331
0
102
}
  0
ENDTAB
  0
ENDSEC
  0
SECTION
  2
BLOCKS
  0
BLOCK
  5
20
330
1F
100
AcDbEntity
  8
0
100
AcDbBlockBegin
  2
*Model_Space
 70
     0
 10
0.0
 20
0.0
 30
0.0
  3
*Model_Space
  1

  0
ENDBLK
  5
21
330
1F
100
AcDbEntity
  8
0
100
AcDbBlockEnd
  0
BLOCK
  5
1C
330
1B
100
AcDbEntity
 67
     1
  8
0
100
AcDbBlockBegin
  2
*Paper_Space
 70
     0
 10
0.0
 20
0.0
 30
0.0
  3
*Paper_Space
  1

  0
ENDBLK
  5
1D
330
1B
100
AcDbEntity
 67
     1
  8
0
100
AcDbBlockEnd
  0
BLOCK
  5
24
330
23
100
AcDbEntity
  8
0
100
AcDbBlockBegin
  2
*Paper_Space0
 70
     0
 10
0.0
 20
0.0
 30
0.0
  3
*Paper_Space0
  1

  0
ENDBLK
  5
25
330
23
100
AcDbEntity
  8
0
100
AcDbBlockEnd
  0
BLOCK
  5
5F3
330
5F2
100
AcDbEntity
  8
0
100
AcDbBlockBegin
  2
SW_CENTERMARKSYMBOL_0
 70
     0
 10
0.0
 20
0.0
 30
0.0
  3
SW_CENTERMARKSYMBOL_0
  1

  0
LINE
  5
5F5
330
5F2
100
AcDbEntity
  8
0
  6
Continuous
 62
     0
370
     0
100
AcDbLine
 10
0.0
 20
0.0
 30
0.0
 11
0.0
 21
2.5
 31
0.0
  0
LINE
  5
5F6
330
5F2
100
AcDbEntity
  8
0
  6
Continuous
 62
     0
370
     0
100
AcDbLine
 10
0.0
 20
0.0
 30
0.0
 11
-2.5
 21
0.0
 31
0.0
  0
LINE
  5
5F7
330
5F2
100
AcDbEntity
  8
0
  6
Continuous
 62
     0
370
     0
100
AcDbLine
 10
0.0
 20
0.0
 30
0.0
 11
0.0
 21
-2.5
 31
0.0
  0
LINE
  5
5F8
330
5F2
100
AcDbEntity
  8
0
  6
Continuous
 62
     0
370
     0
100
AcDbLine
 10
0.0
 20
0.0
 30
0.0
 11
2.5
 21
0.0
 31
0.0
  0
LINE
  5
5F9
330
5F2
100
AcDbEntity
  8
0
  6
Continuous
 62
     0
370
     0
100
AcDbLine
 10
0.0
 20
5.0
 30
0.0
 11
0.0
 21
6.7
 31
0.0
  0
LINE
  5
5FA
330
5F2
100
AcDbEntity
  8
0
  6
Continuous
 62
     0
370
     0
100
AcDbLine
 10
-5.0
 20
0.0
 30
0.0
 11
-6.7
 21
0.0
 31
0.0
  0
LINE
  5
5FB
330
5F2
100
AcDbEntity
  8
0
  6
Continuous
 62
     0
370
     0
100
AcDbLine
 10
0.0
 20
-5.0
 30
0.0
 11
0.0
 21
-6.7
 31
0.0
  0
LINE
  5
5FC
330
5F2
100
AcDbEntity
  8
0
  6
Continuous
 62
     0
370
     0
100
AcDbLine
 10
5.0
 20
0.0
 30
0.0
 11
6.7
 21
0.0
 31
0.0
  0
ENDBLK
  5
5F4
330
5F2
100
AcDbEntity
  8
0
100
AcDbBlockEnd
  0
BLOCK
  5
5FF
330
5FE
100
AcDbEntity
  8
0
100
AcDbBlockBegin
  2
SW_CENTERMARKSYMBOL_1
 70
     0
 10
0.0
 20
0.0
 30
0.0
  3
SW_CENTERMARKSYMBOL_1
  1

  0
LINE
  5
601
330
5FE
100
AcDbEntity
  8
0
  6
Continuous
 62
     0
370
     0
100
AcDbLine
 10
0.0
 20
0.0
 30
0.0
 11
0.0
 21
2.5
 31
0.0
  0
LINE
  5
602
330
5FE
100
AcDbEntity
  8
0
  6
Continuous
 62
     0
370
     0
100
AcDbLine
 10
0.0
 20
0.0
 30
0.0
 11
-2.5
 21
0.0
 31
0.0
  0
LINE
  5
603
330
5FE
100
AcDbEntity
  8
0
  6
Continuous
 62
     0
370
     0
100
AcDbLine
 10
0.0
 20
0.0
 30
0.0
 11
0.0
 21
-2.5
 31
0.0
  0
LINE
  5
604
330
5FE
100
AcDbEntity
  8
0
  6
Continuous
 62
     0
370
     0
100
AcDbLine
 10
0.0
 20
0.0
 30
0.0
 11
2.5
 21
0.0
 31
0.0
  0
LINE
  5
605
330
5FE
100
AcDbEntity
  8
0
  6
Continuous
 62
     0
370
     0
100
AcDbLine
 10
0.0
 20
5.0
 30
0.0
 11
0.0
 21
6.7
 31
0.0
  0
LINE
  5
606
330
5FE
100
AcDbEntity
  8
0
  6
Continuous
 62
     0
370
     0
100
AcDbLine
 10
-5.0
 20
0.0
 30
0.0
 11
-6.7
 21
0.0
 31
0.0
  0
LINE
  5
607
330
5FE
100
AcDbEntity
  8
0
  6
Continuous
 62
     0
370
     0
100
AcDbLine
 10
0.0
 20
-5.0
 30
0.0
 11
0.0
 21
-6.7
 31
0.0
  0
LINE
  5
608
330
5FE
100
AcDbEntity
  8
0
  6
Continuous
 62
     0
370
     0
100
AcDbLine
 10
5.0
 20
0.0
 30
0.0
 11
6.7
 21
0.0
 31
0.0
  0
ENDBLK
  5
600
330
5FE
100
AcDbEntity
  8
0
100
AcDbBlockEnd
  0
BLOCK
  5
663
330
662
100
AcDbEntity
  8
0
100
AcDbBlockBegin
  2
*D3
 70
     1
 10
0.0
 20
0.0
 30
0.0
  3
*D3
  1

  0
LINE
  5
665
330
662
100
AcDbEntity
  8
0
 62
     0
370
    -2
100
AcDbLine
 10
182.0485576832
 20
391.804755164
 30
0.0
 11
182.0485576832
 21
402.6648032587277
 31
0.0
  0
LINE
  5
666
330
662
100
AcDbEntity
  8
0
 62
     0
370
    -2
100
AcDbLine
 10
232.0485576832
 20
374.30475471695
 30
0.0
 11
232.0485576832
 21
402.6648032587277
 31
0.0
  0
LINE
  5
667
330
662
100
AcDbEntity
  8
0
 62
     0
370
    -2
100
AcDbLine
 10
185.2485576832
 20
401.6648032587277
 30
0.0
 11
228.8485576832
 21
401.6648032587277
 31
0.0
  0
LINE
  5
668
330
662
100
AcDbEntity
  8
0
 62
     0
370
    -2
100
AcDbLine
 10
228.8485576832
 20
401.6648032587277
 30
0.0
 11
185.2485576832
 21
401.6648032587277
 31
0.0
  0
SOLID
  5
669
330
662
100
AcDbEntity
  8
0
 62
     0
100
AcDbTrace
 10
185.2485576832
 20
402.198136592061
 30
0.0
 11
185.2485576832
 21
401.1314699253943
 31
0.0
 12
182.0485576832
 22
401.6648032587277
 32
0.0
 13
182.0485576832
 23
401.6648032587277
 33
0.0
  0
SOLID
  5
66A
330
662
100
AcDbEntity
  8
0
 62
     0
100
AcDbTrace
 10
228.8485576832
 20
401.1314699253943
 30
0.0
 11
228.8485576832
 21
402.198136592061
 31
0.0
 12
232.0485576832
 22
401.6648032587277
 32
0.0
 13
232.0485576832
 23
401.6648032587277
 33
0.0
  0
MTEXT
  5
66B
330
662
100
AcDbEntity
  8
0
 62
     0
100
AcDbMText
 10
207.0485576832
 20
405.5314699253943
 30
0.0
 40
3.2
 41
0.0
 71
     5
 72
     1
  1
50,00
 73
     1
 44
1.0
  0
POINT
  5
66C
330
662
100
AcDbEntity
  8
Defpoints
 62
     0
100
AcDbPoint
 10
182.0485576832
 20
391.704755164
 30
0.0
  0
POINT
  5
66D
330
662
100
AcDbEntity
  8
Defpoints
 62
     0
100
AcDbPoint
 10
232.0485576832
 20
374.20475471695
 30
0.0
  0
POINT
  5
66E
330
662
100
AcDbEntity
  8
Defpoints
 62
     0
100
AcDbPoint
 10
232.0485576832
 20
401.6648032587277
 30
0.0
  0
ENDBLK
  5
664
330
662
100
AcDbEntity
  8
0
100
AcDbBlockEnd
  0
BLOCK
  5
673
330
672
100
AcDbEntity
  8
0
100
AcDbBlockBegin
  2
*D4
 70
     1
 10
0.0
 20
0.0
 30
0.0
  3
*D4
  1

  0
LINE
  5
675
330
672
100
AcDbEntity
  8
0
 62
     0
370
    -2
100
AcDbLine
 10
223.1485576832
 20
383.20475471695
 30
0.0
 11
255.3378288101524
 21
383.20475471695
 31
0.0
  0
LINE
  5
676
330
672
100
AcDbEntity
  8
0
 62
     0
370
    -2
100
AcDbLine
 10
223.1485576832
 20
315.20475471705
 30
0.0
 11
255.3378288101524
 21
315.20475471705
 31
0.0
  0
LINE
  5
677
330
672
100
AcDbEntity
  8
0
 62
     0
370
    -2
100
AcDbLine
 10
254.3378288101524
 20
380.00475471695
 30
0.0
 11
254.3378288101524
 21
353.0714213836667
 31
0.0
  0
LINE
  5
678
330
672
100
AcDbEntity
  8
0
 62
     0
370
    -2
100
AcDbLine
 10
254.3378288101524
 20
318.40475471705
 30
0.0
 11
254.3378288101524
 21
345.3380880503333
 31
0.0
  0
SOLID
  5
679
330
672
100
AcDbEntity
  8
0
 62
     0
100
AcDbTrace
 10
254.8711621434857
 20
380.00475471695
 30
0.0
 11
253.8044954768191
 21
380.00475471695
 31
0.0
 12
254.3378288101524
 22
383.20475471695
 32
0.0
 13
254.3378288101524
 23
383.20475471695
 33
0.0
  0
SOLID
  5
67A
330
672
100
AcDbEntity
  8
0
 62
     0
100
AcDbTrace
 10
253.8044954768191
 20
318.40475471705
 30
0.0
 11
254.8711621434857
 21
318.40475471705
 31
0.0
 12
254.3378288101524
 22
315.20475471705
 32
0.0
 13
254.3378288101524
 23
315.20475471705
 33
0.0
  0
MTEXT
  5
67B
330
672
100
AcDbEntity
  8
0
 62
     0
100
AcDbMText
 10
254.3378288101524
 20
349.204754717
 30
0.0
 40
3.2
 41
0.0
 71
     5
 72
     1
  1
68,00
 73
     1
 44
1.0
  0
POINT
  5
67C
330
672
100
AcDbEntity
  8
Defpoints
 62
     0
100
AcDbPoint
 10
223.0485576832
 20
383.20475471695
 30
0.0
  0
POINT
  5
67D
330
672
100
AcDbEntity
  8
Defpoints
 62
     0
100
AcDbPoint
 10
223.0485576832
 20
315.20475471705
 30
0.0
  0
POINT
  5
67E
330
672
100
AcDbEntity
  8
Defpoints
 62
     0
100
AcDbPoint
 10
254.3378288101524
 20
315.20475471705
 30
0.0
  0
ENDBLK
  5
674
330
672
100
AcDbEntity
  8
0
100
AcDbBlockEnd
  0
BLOCK
  5
684
330
683
100
AcDbEntity
  8
0
100
AcDbBlockBegin
  2
*D5
 70
     1
 10
0.0
 20
0.0
 30
0.0
  3
*D5
  1

  0
LINE
  5
686
330
683
100
AcDbEntity
  8
0
 62
     0
370
    -2
100
AcDbLine
 10
262.8786421833261
 20
393.8122044562233
 30
0.0
 11
248.6119755166594
 21
393.8122044562233
 31
0.0
  0
LINE
  5
687
330
683
100
AcDbEntity
  8
0
 62
     0
370
    -2
100
AcDbLine
 10
248.6119755166594
 20
393.8122044562233
 30
0.0
 11
232.7289406227868
 21
381.6297251642284
 31
0.0
  0
MTEXT
  5
688
330
683
100
AcDbEntity
  8
0
 62
     0
100
AcDbMText
 10
256.7453088499927
 20
397.67887112289
 30
0.0
 40
3.2
 41
0.0
 71
     5
 72
     1
  1
R9,00
 73
     1
 44
1.0
  0
LINE
  5
689
330
683
100
AcDbEntity
  8
0
 62
     0
370
    -2
100
AcDbLine
 10
223.0485576832
 20
374.20475471695
 30
0.0
 11
230.1898237861738
 21
379.6821919321554
 31
0.0
  0
SOLID
  5
68A
330
683
100
AcDbEntity
  8
0
 62
     0
100
AcDbTrace
 10
232.4043517507746
 20
382.0529113036638
 30
0.0
 11
233.0535294947989
 21
381.2065390247929
 31
0.0
 12
230.1898237861738
 22
379.6821919321554
 32
0.0
 13
230.1898237861738
 23
379.6821919321554
 33
0.0
  0
POINT
  5
68B
330
683
100
AcDbEntity
  8
Defpoints
 62
     0
100
AcDbPoint
 10
230.1898237861738
 20
379.6821919321554
 30
0.0
  0
POINT
  5
68C
330
683
100
AcDbEntity
  8
Defpoints
 62
     0
100
AcDbPoint
 10
223.0485576832
 20
374.20475471695
 30
0.0
  0
ENDBLK
  5
685
330
683
100
AcDbEntity
  8
0
100
AcDbBlockEnd
  0
BLOCK
  5
70B
330
6DF
100
AcDbEntity
  8
0
100
AcDbBlockBegin
  2
A$C4336
 70
     0
 10
0.0
 20
0.0
 30
0.0
  3
A$C4336
  1

  0
LINE
  5
701
330
6DF
100
AcDbEntity
  8
0
  6
Continuous
 62
     7
370
    25
100
AcDbLine
 10
50.0
 20
75.0
 30
0.0
 11
50.0
 21
25.00000000000011
 31
0.0
  0
ARC
  5
702
330
6DF
100
AcDbEntity
  8
0
  6
Continuous
 62
     7
370
    25
100
AcDbCircle
 10
41.0
 20
25.00000000000011
 30
0.0
 40
9.0
100
AcDbArc
 50
270.0000000000014
 51
0.0
  0
LINE
  5
703
330
6DF
100
AcDbEntity
  8
0
  6
Continuous
 62
     7
370
    25
100
AcDbLine
 10
41.0
 20
16.00000000000011
 30
0.0
 11
0.0
 21
16.00000000000011
 31
0.0
  0
LINE
  5
704
330
6DF
100
AcDbEntity
  8
0
  6
Continuous
 62
     7
370
    25
100
AcDbLine
 10
0.0
 20
0.0
 30
0.0
 11
0.0
 21
16.00000000000011
 31
0.0
  0
LINE
  5
705
330
6DF
100
AcDbEntity
  8
0
  6
Continuous
 62
     7
370
    25
100
AcDbLine
 10
0.0
 20
0.0
 30
0.0
 11
80.00000000000023
 21
0.0
 31
0.0
  0
LINE
  5
706
330
6DF
100
AcDbEntity
  8
0
  6
Continuous
 62
     7
370
    25
100
AcDbLine
 10
80.00000000000023
 20
0.0
 30
0.0
 11
80.00000000000023
 21
100.0000000000001
 31
0.0
  0
LINE
  5
707
330
6DF
100
AcDbEntity
  8
0
  6
Continuous
 62
     7
370
    25
100
AcDbLine
 10
0.0
 20
100.0000000000001
 30
0.0
 11
80.00000000000023
 21
100.0000000000001
 31
0.0
  0
LINE
  5
708
330
6DF
100
AcDbEntity
  8
0
  6
Continuous
 62
     7
370
    25
100
AcDbLine
 10
0.0
 20
84.00000000000011
 30
0.0
 11
0.0
 21
100.0000000000001
 31
0.0
  0
LINE
  5
709
330
6DF
100
AcDbEntity
  8
0
  6
Continuous
 62
     7
370
    25
100
AcDbLine
 10
41.0
 20
84.00000000000011
 30
0.0
 11
0.0
 21
84.00000000000011
 31
0.0
  0
ARC
  5
70A
330
6DF
100
AcDbEntity
  8
0
  6
Continuous
 62
     7
370
    25
100
AcDbCircle
 10
41.0
 20
75.00000000000011
 30
0.0
 40
9.0
100
AcDbArc
 50
0.0
 51
90.0
  0
ENDBLK
  5
70C
330
6DF
100
AcDbEntity
  8
0
100
AcDbBlockEnd
  0
BLOCK
  5
752
330
70E
100
AcDbEntity
  8
0
100
AcDbBlockBegin
  2
A$C2503
 70
     0
 10
0.0
 20
0.0
 30
0.0
  3
A$C2503
  1

  0
CIRCLE
  5
730
330
70E
100
AcDbEntity
  8
0
  6
Continuous
 62
     7
370
    25
100
AcDbCircle
 10
7.5
 20
72.50000000000011
 30
0.0
 40
5.25
  0
CIRCLE
  5
731
330
70E
100
AcDbEntity
  8
0
  6
Continuous
 62
     7
370
    25
100
AcDbCircle
 10
7.5
 20
12.50000000000011
 30
0.0
 40
5.250000000000126
  0
LINE
  5
732
330
70E
100
AcDbEntity
  8
0
  6
Continuous
 62
     7
370
    25
100
AcDbLine
 10
37.79422863406012
 20
0.0
 30
0.0
 11
37.79422863406012
 21
85.00000000000011
 31
0.0
  0
LINE
  5
733
330
70E
100
AcDbEntity
  8
0
  6
Continuous
 62
     7
370
    25
100
AcDbLine
 10
37.79422863406012
 20
0.0
 30
0.0
 11
30.0
 21
0.0
 31
0.0
  0
LINE
  5
734
330
70E
100
AcDbEntity
  8
0
  6
Continuous
 62
     7
370
    25
100
AcDbLine
 10
30.0
 20
0.0
 30
0.0
 11
30.0
 21
85.00000000000011
 31
0.0
  0
LINE
  5
735
330
70E
100
AcDbEntity
  8
0
  6
Continuous
 62
     7
370
    25
100
AcDbLine
 10
37.79422863406012
 20
85.00000000000011
 30
0.0
 11
30.0
 21
85.00000000000011
 31
0.0
  0
ARC
  5
736
330
70E
100
AcDbEntity
  8
0
  6
Continuous
 62
     7
370
    25
100
AcDbCircle
 10
71.00000000000023
 20
4.0
 30
0.0
 40
4.0
100
AcDbArc
 50
270.0
 51
0.0
  0
LINE
  5
737
330
70E
100
AcDbEntity
  8
0
  6
Continuous
 62
     7
370
    25
100
AcDbLine
 10
37.79422863406012
 20
0.0
 30
0.0
 11
71.00000000000023
 21
0.0
 31
0.0
  0
ARC
  5
738
330
70E
100
AcDbEntity
  8
0
  6
Continuous
 62
     7
370
    25
100
AcDbCircle
 10
71.00000000000023
 20
81.00000000000011
 30
0.0
 40
4.0
100
AcDbArc
 50
0.0
 51
90.0
  0
LINE
  5
739
330
70E
100
AcDbEntity
  8
0
  6
Continuous
 62
     7
370
    25
100
AcDbLine
 10
71.00000000000023
 20
85.00000000000011
 30
0.0
 11
37.79422863406012
 21
85.00000000000011
 31
0.0
  0
LINE
  5
73A
330
70E
100
AcDbEntity
  8
0
  6
Continuous
 62
     7
370
    25
100
AcDbLine
 10
75.0
 20
4.0
 30
0.0
 11
75.0
 21
81.00000000000011
 31
0.0
  0
LINE
  5
73B
330
70E
100
AcDbEntity
  8
0
  6
Continuous
 62
     7
370
    25
100
AcDbLine
 10
15.0
 20
0.0
 30
0.0
 11
15.0
 21
9.850000000000023
 31
0.0
  0
LINE
  5
73C
330
70E
100
AcDbEntity
  8
0
  6
Continuous
 62
     7
370
    25
100
AcDbLine
 10
15.0
 20
9.850000000000023
 30
0.0
 11
18.00000000000023
 21
9.850000000000023
 31
0.0
  0
LINE
  5
73D
330
70E
100
AcDbEntity
  8
0
  6
Continuous
 62
     7
370
    25
100
AcDbLine
 10
18.00000000000023
 20
9.850000000000023
 30
0.0
 11
18.00000000000023
 21
75.15000000000009
 31
0.0
  0
LINE
  5
73E
330
70E
100
AcDbEntity
  8
0
  6
Continuous
 62
     7
370
    25
100
AcDbLine
 10
15.0
 20
75.15000000000009
 30
0.0
 11
15.0
 21
85.00000000000011
 31
0.0
  0
LINE
  5
73F
330
70E
100
AcDbEntity
  8
0
  6
Continuous
 62
     7
370
    25
100
AcDbLine
 10
18.00000000000023
 20
75.15000000000009
 30
0.0
 11
15.0
 21
75.15000000000009
 31
0.0
  0
LINE
  5
740
330
70E
100
AcDbEntity
  8
0
  6
Continuous
 62
     7
370
    25
100
AcDbLine
 10
30.0
 20
0.0
 30
0.0
 11
15.0
 21
0.0
 31
0.0
  0
LINE
  5
741
330
70E
100
AcDbEntity
  8
0
  6
Continuous
 62
     7
370
    25
100
AcDbLine
 10
30.0
 20
85.00000000000011
 30
0.0
 11
15.0
 21
85.00000000000011
 31
0.0
  0
LINE
  5
742
330
70E
100
AcDbEntity
  8
0
  6
Continuous
 62
     7
370
    25
100
AcDbLine
 10
18.00000000000023
 20
10.25
 30
0.0
 11
15.0
 21
10.25
 31
0.0
  0
LINE
  5
743
330
70E
100
AcDbEntity
  8
0
  6
Continuous
 62
     7
370
    25
100
AcDbLine
 10
18.00000000000023
 20
74.75000000000011
 30
0.0
 11
15.0
 21
74.75000000000011
 31
0.0
  0
LINE
  5
744
330
70E
100
AcDbEntity
  8
0
  6
Continuous
 62
     7
370
    25
100
AcDbLine
 10
15.0
 20
10.25
 30
0.0
 11
15.0
 21
74.75000000000011
 31
0.0
  0
LINE
  5
745
330
70E
100
AcDbEntity
  8
0
  6
Continuous
 62
     7
370
    25
100
AcDbLine
 10
15.0
 20
9.850000000000023
 30
0.0
 11
15.0
 21
10.00000000000011
 31
0.0
  0
LINE
  5
746
330
70E
100
AcDbEntity
  8
0
  6
Continuous
 62
     7
370
    25
100
AcDbLine
 10
18.00000000000023
 20
10.00000000000011
 30
0.0
 11
15.0
 21
10.00000000000011
 31
0.0
  0
LINE
  5
747
330
70E
100
AcDbEntity
  8
0
  6
Continuous
 62
     7
370
    25
100
AcDbLine
 10
15.0
 20
75.00000000000011
 30
0.0
 11
18.00000000000023
 21
75.00000000000011
 31
0.0
  0
LINE
  5
748
330
70E
100
AcDbEntity
  8
0
  6
Continuous
 62
     7
370
    25
100
AcDbLine
 10
15.0
 20
75.15000000000009
 30
0.0
 11
15.0
 21
75.00000000000011
 31
0.0
  0
LINE
  5
749
330
70E
100
AcDbEntity
  8
0
  6
Continuous
 62
     7
370
    25
100
AcDbLine
 10
15.0
 20
10.00000000000011
 30
0.0
 11
15.0
 21
10.25
 31
0.0
  0
LINE
  5
74A
330
70E
100
AcDbEntity
  8
0
  6
Continuous
 62
     7
370
    25
100
AcDbLine
 10
15.0
 20
74.75000000000011
 30
0.0
 11
15.0
 21
75.00000000000011
 31
0.0
  0
ARC
  5
74B
330
70E
100
AcDbEntity
  8
0
  6
Continuous
 62
     7
370
    25
100
AcDbCircle
 10
4.0
 20
4.0
 30
0.0
 40
4.0
100
AcDbArc
 50
180.0
 51
270.0
  0
LINE
  5
74C
330
70E
100
AcDbEntity
  8
0
  6
Continuous
 62
     7
370
    25
100
AcDbLine
 10
0.0
 20
4.0
 30
0.0
 11
0.0
 21
81.00000000000011
 31
0.0
  0
ARC
  5
74D
330
70E
100
AcDbEntity
  8
0
  6
Continuous
 62
     7
370
    25
100
AcDbCircle
 10
4.0
 20
81.00000000000011
 30
0.0
 40
4.0
100
AcDbArc
 50
90.0
 51
180.0
  0
CIRCLE
  5
74E
330
70E
100
AcDbEntity
  8
0
  6
Continuous
 62
     7
370
    25
100
AcDbCircle
 10
7.5
 20
12.50000000000011
 30
0.0
 40
5.5
  0
CIRCLE
  5
74F
330
70E
100
AcDbEntity
  8
0
  6
Continuous
 62
     7
370
    25
100
AcDbCircle
 10
7.5
 20
72.50000000000011
 30
0.0
 40
5.500000000000114
  0
LINE
  5
750
330
70E
100
AcDbEntity
  8
0
  6
Continuous
 62
     7
370
    25
100
AcDbLine
 10
4.0
 20
0.0
 30
0.0
 11
15.0
 21
0.0
 31
0.0
  0
LINE
  5
751
330
70E
100
AcDbEntity
  8
0
  6
Continuous
 62
     7
370
    25
100
AcDbLine
 10
4.0
 20
85.00000000000011
 30
0.0
 11
15.0
 21
85.00000000000011
 31
0.0
  0
ENDBLK
  5
753
330
70E
100
AcDbEntity
  8
0
100
AcDbBlockEnd
  0
BLOCK
  5
77F
330
755
100
AcDbEntity
  8
0
100
AcDbBlockBegin
  2
A$C711
 70
     0
 10
0.0
 20
0.0
 30
0.0
  3
A$C711
  1

  0
ARC
  5
777
330
755
100
AcDbEntity
  8
0
  6
Continuous
 62
     7
370
    25
100
AcDbCircle
 10
4.000000000000227
 20
81.0
 30
0.0
 40
4.000000000000114
100
AcDbArc
 50
90.0
 51
180.0
  0
LINE
  5
778
330
755
100
AcDbEntity
  8
0
  6
Continuous
 62
     7
370
    25
100
AcDbLine
 10
4.000000000000227
 20
85.00000000000011
 30
0.0
 11
71.00000000000045
 21
85.00000000000011
 31
0.0
  0
ARC
  5
779
330
755
100
AcDbEntity
  8
0
  6
Continuous
 62
     7
370
    25
100
AcDbCircle
 10
71.00000000000045
 20
81.0
 30
0.0
 40
4.000000000000114
100
AcDbArc
 50
0.0
 51
90.0
  0
LINE
  5
77A
330
755
100
AcDbEntity
  8
0
  6
Continuous
 62
     7
370
    25
100
AcDbLine
 10
75.00000000000045
 20
81.0
 30
0.0
 11
75.00000000000045
 21
4.0
 31
0.0
  0
ARC
  5
77B
330
755
100
AcDbEntity
  8
0
  6
Continuous
 62
     7
370
    25
100
AcDbCircle
 10
71.00000000000045
 20
4.0
 30
0.0
 40
4.0
100
AcDbArc
 50
270.0
 51
0.0
  0
LINE
  5
77C
330
755
100
AcDbEntity
  8
0
  6
Continuous
 62
     7
370
    25
100
AcDbLine
 10
71.00000000000045
 20
0.0
 30
0.0
 11
4.000000000000227
 21
0.0
 31
0.0
  0
ARC
  5
77D
330
755
100
AcDbEntity
  8
0
  6
Continuous
 62
     7
370
    25
100
AcDbCircle
 10
4.000000000000227
 20
4.0
 30
0.0
 40
4.0
100
AcDbArc
 50
180.0
 51
270.0
  0
LINE
  5
77E
330
755
100
AcDbEntity
  8
0
  6
Continuous
 62
     7
370
    25
100
AcDbLine
 10
0.0000000000002274
 20
4.0
 30
0.0
 11
0.0000000000002274
 21
81.0
 31
0.0
  0
ENDBLK
  5
780
330
755
100
AcDbEntity
  8
0
100
AcDbBlockEnd
  0
BLOCK
  5
7DC
330
782
100
AcDbEntity
  8
0
100
AcDbBlockBegin
  2
A$C23571
 70
     0
 10
0.0
 20
0.0
 30
0.0
  3
A$C23571
  1

  0
LINE
  5
7A4
330
782
100
AcDbEntity
  8
0
  6
Continuous
 62
     7
370
    25
100
AcDbLine
 10
2.25
 20
4.900000000000091
 30
0.0
 11
2.25
 21
4.500000000000114
 31
0.0
  0
LINE
  5
7A5
330
782
100
AcDbEntity
  8
0
  6
Continuous
 62
     7
370
    25
100
AcDbLine
 10
12.75000000000023
 20
4.500000000000114
 30
0.0
 11
12.75000000000023
 21
4.900000000000091
 31
0.0
  0
LINE
  5
7A6
330
782
100
AcDbEntity
  8
0
  6
Continuous
 62
     7
370
    25
100
AcDbLine
 10
53.0
 20
20.40000000000009
 30
0.0
 11
53.0
 21
19.99999999999989
 31
0.0
  0
LINE
  5
7A7
330
782
100
AcDbEntity
  8
0
  6
Continuous
 62
     7
370
    25
100
AcDbLine
 10
59.0
 20
19.99999999999989
 30
0.0
 11
59.0
 21
20.40000000000009
 31
0.0
  0
LINE
  5
7A8
330
782
100
AcDbEntity
  8
0
  6
Continuous
 62
     7
370
    25
100
AcDbLine
 10
74.0
 20
10.39999999999998
 30
0.0
 11
74.0
 21
10.0
 31
0.0
  0
LINE
  5
7A9
330
782
100
AcDbEntity
  8
0
  6
Continuous
 62
     7
370
    25
100
AcDbLine
 10
69.5
 20
10.0
 30
0.0
 11
69.5
 21
10.39999999999998
 31
0.0
  0
LINE
  5
7AA
330
782
100
AcDbEntity
  8
0
  6
Continuous
 62
     7
370
    25
100
AcDbLine
 10
69.5
 20
10.39999999999998
 30
0.0
 11
74.0
 21
10.39999999999998
 31
0.0
  0
LINE
  5
7AB
330
782
100
AcDbEntity
  8
0
  6
Continuous
 62
     7
370
    25
100
AcDbLine
 10
17.00000000000023
 20
10.39999999999998
 30
0.0
 11
17.00000000000023
 21
10.0
 31
0.0
  0
LINE
  5
7AC
330
782
100
AcDbEntity
  8
0
  6
Continuous
 62
     7
370
    25
100
AcDbLine
 10
69.5
 20
10.39999999999998
 30
0.0
 11
17.00000000000023
 21
10.39999999999998
 31
0.0
  0
LINE
  5
7AD
330
782
100
AcDbEntity
  8
0
  6
Continuous
 62
     7
370
    25
100
AcDbLine
 10
15.0
 20
10.0
 30
0.0
 11
15.0
 21
10.39999999999998
 31
0.0
  0
LINE
  5
7AE
330
782
100
AcDbEntity
  8
0
  6
Continuous
 62
     7
370
    25
100
AcDbLine
 10
15.0
 20
10.39999999999998
 30
0.0
 11
17.00000000000023
 21
10.39999999999998
 31
0.0
  0
LINE
  5
7AF
330
782
100
AcDbEntity
  8
0
  6
Continuous
 62
     7
370
    25
100
AcDbLine
 10
2.25
 20
4.900000000000091
 30
0.0
 11
12.75000000000023
 21
4.900000000000091
 31
0.0
  0
LINE
  5
7B0
330
782
100
AcDbEntity
  8
0
  6
Continuous
 62
     7
370
    25
100
AcDbLine
 10
67.0
 20
20.40000000000009
 30
0.0
 11
67.0
 21
20.80000000000007
 31
0.0
  0
LINE
  5
7B1
330
782
100
AcDbEntity
  8
0
  6
Continuous
 62
     7
370
    25
100
AcDbLine
 10
72.50000000000023
 20
20.80000000000007
 30
0.0
 11
72.50000000000023
 21
20.40000000000009
 31
0.0
  0
LINE
  5
7B2
330
782
100
AcDbEntity
  8
0
  6
Continuous
 62
     7
370
    25
100
AcDbLine
 10
72.50000000000023
 20
20.40000000000009
 30
0.0
 11
67.0
 21
20.40000000000009
 31
0.0
  0
LINE
  5
7B3
330
782
100
AcDbEntity
  8
0
  6
Continuous
 62
     7
370
    25
100
AcDbLine
 10
39.0
 20
20.40000000000009
 30
0.0
 11
67.0
 21
20.40000000000009
 31
0.0
  0
LINE
  5
7B4
330
782
100
AcDbEntity
  8
0
  6
Continuous
 62
     7
370
    25
100
AcDbLine
 10
39.0
 20
20.80000000000007
 30
0.0
 11
39.0
 21
20.40000000000009
 31
0.0
  0
LINE
  5
7B5
330
782
100
AcDbEntity
  8
0
  6
Continuous
 62
     7
370
    25
100
AcDbLine
 10
33.5
 20
20.40000000000009
 30
0.0
 11
33.5
 21
20.80000000000007
 31
0.0
  0
LINE
  5
7B6
330
782
100
AcDbEntity
  8
0
  6
Continuous
 62
     7
370
    25
100
AcDbLine
 10
39.0
 20
20.40000000000009
 30
0.0
 11
33.5
 21
20.40000000000009
 31
0.0
  0
CIRCLE
  5
7B7
330
782
100
AcDbEntity
  8
0
  6
Continuous
 62
     7
370
    25
100
AcDbCircle
 10
53.0
 20
23.30000000000007
 30
0.0
 40
1.000000000033197
  0
LINE
  5
7B8
330
782
100
AcDbEntity
  8
0
  6
Continuous
 62
     7
370
    25
100
AcDbLine
 10
52.56698729798222
 20
24.04999999992731
 30
0.0
 11
52.13397459621569
 21
23.29999999985489
 31
0.0
  0
LINE
  5
7B9
330
782
100
AcDbEntity
  8
0
  6
Continuous
 62
     7
370
    25
100
AcDbLine
 10
52.13397459621569
 20
23.29999999985489
 30
0.0
 11
52.56698729823347
 21
22.54999999992742
 31
0.0
  0
LINE
  5
7BA
330
782
100
AcDbEntity
  8
0
  6
Continuous
 62
     7
370
    25
100
AcDbLine
 10
52.56698729823347
 20
22.54999999992742
 30
0.0
 11
53.433012702018
 21
22.55000000007237
 31
0.0
  0
LINE
  5
7BB
330
782
100
AcDbEntity
  8
0
  6
Continuous
 62
     7
370
    25
100
AcDbLine
 10
53.433012702018
 20
22.55000000007237
 30
0.0
 11
53.86602540378499
 21
23.30000000014502
 31
0.0
  0
LINE
  5
7BC
330
782
100
AcDbEntity
  8
0
  6
Continuous
 62
     7
370
    25
100
AcDbLine
 10
53.43301270176676
 20
24.05000000007249
 30
0.0
 11
53.86602540378499
 21
23.30000000014502
 31
0.0
  0
LINE
  5
7BD
330
782
100
AcDbEntity
  8
0
  6
Continuous
 62
     7
370
    25
100
AcDbLine
 10
53.43301270176676
 20
24.05000000007249
 30
0.0
 11
52.56698729798222
 21
24.04999999992731
 31
0.0
  0
LINE
  5
7BE
330
782
100
AcDbEntity
  8
0
  6
Continuous
 62
     7
370
    25
100
AcDbLine
 10
71.0
 20
20.80000000000007
 30
0.0
 11
71.0
 21
30.80000000000007
 31
0.0
  0
LINE
  5
7BF
330
782
100
AcDbEntity
  8
0
  6
Continuous
 62
     7
370
    25
100
AcDbLine
 10
71.0
 20
30.80000000000007
 30
0.0
 11
75.00000000000023
 21
30.80000000000007
 31
0.0
  0
LINE
  5
7C0
330
782
100
AcDbEntity
  8
0
  6
Continuous
 62
     7
370
    25
100
AcDbLine
 10
75.00000000000023
 20
30.80000000000007
 30
0.0
 11
75.00000000000023
 21
20.80000000000007
 31
0.0
  0
LINE
  5
7C1
330
782
100
AcDbEntity
  8
0
  6
Continuous
 62
     7
370
    25
100
AcDbLine
 10
75.00000000000023
 20
20.80000000000007
 30
0.0
 11
71.0
 21
20.80000000000007
 31
0.0
  0
LINE
  5
7C2
330
782
100
AcDbEntity
  8
0
  6
Continuous
 62
     7
370
    25
100
AcDbLine
 10
30.0
 20
26.29999999999995
 30
0.0
 11
15.0
 21
26.29999999999995
 31
0.0
  0
LINE
  5
7C3
330
782
100
AcDbEntity
  8
0
  6
Continuous
 62
     7
370
    25
100
AcDbLine
 10
37.79422863406012
 20
30.80000000000007
 30
0.0
 11
30.0
 21
26.29999999999995
 31
0.0
  0
LINE
  5
7C4
330
782
100
AcDbEntity
  8
0
  6
Continuous
 62
     7
370
    25
100
AcDbLine
 10
37.79422863406012
 20
30.80000000000007
 30
0.0
 11
71.0
 21
30.80000000000007
 31
0.0
  0
CIRCLE
  5
7C5
330
782
100
AcDbEntity
  8
0
  6
Continuous
 62
     7
370
    25
100
AcDbCircle
 10
53.0
 20
23.30000000000007
 30
0.0
 40
1.25
  0
LINE
  5
7C6
330
782
100
AcDbEntity
  8
0
  6
Continuous
 62
     7
370
    25
100
AcDbLine
 10
15.0
 20
20.80000000000007
 30
0.0
 11
15.0
 21
26.29999999999995
 31
0.0
  0
LINE
  5
7C7
330
782
100
AcDbEntity
  8
0
  6
Continuous
 62
     7
370
    25
100
AcDbLine
 10
15.0
 20
20.80000000000007
 30
0.0
 11
71.0
 21
20.80000000000007
 31
0.0
  0
LINE
  5
7C8
330
782
100
AcDbEntity
  8
0
  6
Continuous
 62
     7
370
    25
100
AcDbLine
 10
18.00000000000023
 20
10.39999999999998
 30
0.0
 11
18.00000000000023
 21
20.79999999999973
 31
0.0
  0
LINE
  5
7C9
330
782
100
AcDbEntity
  8
0
  6
Continuous
 62
     7
370
    25
100
AcDbLine
 10
15.0
 20
10.39999999999998
 30
0.0
 11
15.0
 21
20.79999999999973
 31
0.0
  0
LINE
  5
7CA
330
782
100
AcDbEntity
  8
0
  6
Continuous
 62
     7
370
    25
100
AcDbLine
 10
4.0
 20
4.5
 30
0.0
 11
4.0
 21
0.0
 31
0.0
  0
LINE
  5
7CB
330
782
100
AcDbEntity
  8
0
  6
Continuous
 62
     7
370
    25
100
AcDbLine
 10
4.0
 20
4.5
 30
0.0
 11
15.0
 21
4.5
 31
0.0
  0
LINE
  5
7CC
330
782
100
AcDbEntity
  8
0
  6
Continuous
 62
     7
370
    25
100
AcDbLine
 10
15.0
 20
10.0
 30
0.0
 11
15.0
 21
4.5
 31
0.0
  0
LINE
  5
7CD
330
782
100
AcDbEntity
  8
0
  6
Continuous
 62
     7
370
    25
100
AcDbLine
 10
71.00000000000023
 20
10.0
 30
0.0
 11
15.0
 21
10.0
 31
0.0
  0
LINE
  5
7CE
330
782
100
AcDbEntity
  8
0
  6
Continuous
 62
     7
370
    25
100
AcDbLine
 10
71.00000000000023
 20
0.0
 30
0.0
 11
71.00000000000023
 21
10.0
 31
0.0
  0
LINE
  5
7CF
330
782
100
AcDbEntity
  8
0
  6
Continuous
 62
     7
370
    25
100
AcDbLine
 10
4.0
 20
0.0
 30
0.0
 11
71.00000000000023
 21
0.0
 31
0.0
  0
LINE
  5
7D0
330
782
100
AcDbEntity
  8
0
  6
Continuous
 62
     7
370
    25
100
AcDbLine
 10
0.0
 20
0.0
 30
0.0
 11
0.0
 21
4.500000000000114
 31
0.0
  0
LINE
  5
7D1
330
782
100
AcDbEntity
  8
0
  6
Continuous
 62
     7
370
    25
100
AcDbLine
 10
4.0
 20
0.0
 30
0.0
 11
0.0
 21
0.0
 31
0.0
  0
LINE
  5
7D2
330
782
100
AcDbEntity
  8
0
  6
Continuous
 62
     7
370
    25
100
AcDbLine
 10
0.0
 20
4.500000000000114
 30
0.0
 11
4.0
 21
4.5
 31
0.0
  0
LINE
  5
7D3
330
782
100
AcDbEntity
  8
0
  6
Continuous
 62
     7
370
    25
100
AcDbLine
 10
71.00000000000023
 20
10.0
 30
0.0
 11
75.00000000000023
 21
10.0
 31
0.0
  0
LINE
  5
7D4
330
782
100
AcDbEntity
  8
0
  6
Continuous
 62
     7
370
    25
100
AcDbLine
 10
75.00000000000023
 20
10.0
 30
0.0
 11
75.00000000000023
 21
0.0
 31
0.0
  0
LINE
  5
7D5
330
782
100
AcDbEntity
  8
0
  6
Continuous
 62
     7
370
    25
100
AcDbLine
 10
75.00000000000023
 20
0.0
 30
0.0
 11
71.00000000000023
 21
0.0
 31
0.0
  0
LINE
  5
7D6
330
782
100
AcDbEntity
  8
0
  6
Continuous
 62
     7
370
    25
100
AcDbLine
 10
18.00000000000023
 20
20.0
 30
0.0
 11
21.0
 21
20.0
 31
0.0
  0
LINE
  5
7D7
330
782
100
AcDbEntity
  8
0
  6
Continuous
 62
     7
370
    25
100
AcDbLine
 10
58.0
 20
20.0
 30
0.0
 11
62.0
 21
20.0
 31
0.0
  0
LINE
  5
7D8
330
782
100
AcDbEntity
  8
0
  6
Continuous
 62
     7
370
    25
100
AcDbLine
 10
62.0
 20
20.0
 30
0.0
 11
62.0
 21
10.39999999999986
 31
0.0
  0
LINE
  5
7D9
330
782
100
AcDbEntity
  8
0
  6
Continuous
 62
     7
370
    25
100
AcDbLine
 10
21.0
 20
10.39999999999975
 30
0.0
 11
21.0
 21
20.0
 31
0.0
  0
LINE
  5
7DA
330
782
100
AcDbEntity
  8
0
  6
Continuous
 62
     7
370
    25
100
AcDbLine
 10
21.0
 20
20.0
 30
0.0
 11
58.0
 21
20.0
 31
0.0
  0
LINE
  5
7DB
330
782
100
AcDbEntity
  8
0
  6
Continuous
 62
     8
370
    25
100
AcDbLine
 10
58.0
 20
10.39999999999998
 30
0.0
 11
58.0
 21
20.0
 31
0.0
  0
ENDBLK
  5
7DD
330
782
100
AcDbEntity
  8
0
100
AcDbBlockEnd
  0
BLOCK
  5
838
330
7DF
100
AcDbEntity
  8
0
100
AcDbBlockBegin
  2
A$C3876
 70
     0
 10
0.0
 20
0.0
 30
0.0
  3
A$C3876
  1

  0
LINE
  5
801
330
7DF
100
AcDbEntity
  8
0
  6
Continuous
 62
     7
370
    25
100
AcDbLine
 10
10.40000000000009
 20
67.0
 30
0.0
 11
10.80000000000007
 21
67.0
 31
0.0
  0
LINE
  5
802
330
7DF
100
AcDbEntity
  8
0
  6
Continuous
 62
     7
370
    25
100
AcDbLine
 10
10.79999999999984
 20
73.00000000000011
 30
0.0
 11
10.40000000000009
 21
73.00000000000011
 31
0.0
  0
LINE
  5
803
330
7DF
100
AcDbEntity
  8
0
  6
Continuous
 62
     7
370
    25
100
AcDbLine
 10
10.40000000000009
 20
12.00000000000011
 30
0.0
 11
10.79999999999984
 21
12.00000000000011
 31
0.0
  0
LINE
  5
804
330
7DF
100
AcDbEntity
  8
0
  6
Continuous
 62
     7
370
    25
100
AcDbLine
 10
10.80000000000007
 20
18.00000000000011
 30
0.0
 11
10.40000000000009
 21
18.00000000000011
 31
0.0
  0
LINE
  5
805
330
7DF
100
AcDbEntity
  8
0
  6
Continuous
 62
     7
370
    25
100
AcDbLine
 10
20.40000000000009
 20
5.000000000000114
 30
0.0
 11
20.80000000000007
 21
5.000000000000114
 31
0.0
  0
LINE
  5
806
330
7DF
100
AcDbEntity
  8
0
  6
Continuous
 62
     7
370
    25
100
AcDbLine
 10
20.40000000000009
 20
80.00000000000011
 30
0.0
 11
20.40000000000009
 21
5.000000000000114
 31
0.0
  0
LINE
  5
807
330
7DF
100
AcDbEntity
  8
0
  6
Continuous
 62
     7
370
    25
100
AcDbLine
 10
20.80000000000007
 20
80.00000000000011
 30
0.0
 11
20.40000000000009
 21
80.00000000000011
 31
0.0
  0
LINE
  5
808
330
7DF
100
AcDbEntity
  8
0
  6
Continuous
 62
     7
370
    25
100
AcDbLine
 10
20.40000000000009
 20
84.5
 30
0.0
 11
20.80000000000007
 21
84.5
 31
0.0
  0
LINE
  5
809
330
7DF
100
AcDbEntity
  8
0
  6
Continuous
 62
     7
370
    25
100
AcDbLine
 10
20.40000000000009
 20
80.00000000000011
 30
0.0
 11
20.40000000000009
 21
84.5
 31
0.0
  0
LINE
  5
80A
330
7DF
100
AcDbEntity
  8
0
  6
Continuous
 62
     7
370
    25
100
AcDbLine
 10
20.80000000000007
 20
0.5000000000001137
 30
0.0
 11
20.40000000000009
 21
0.5000000000001137
 31
0.0
  0
LINE
  5
80B
330
7DF
100
AcDbEntity
  8
0
  6
Continuous
 62
     7
370
    25
100
AcDbLine
 10
20.40000000000009
 20
0.5000000000001137
 30
0.0
 11
20.40000000000009
 21
5.000000000000114
 31
0.0
  0
LINE
  5
80C
330
7DF
100
AcDbEntity
  8
0
  6
Continuous
 62
     7
370
    25
100
AcDbLine
 10
10.40000000000009
 20
76.00000000000011
 30
0.0
 11
10.00000000000011
 21
76.00000000000011
 31
0.0
  0
LINE
  5
80D
330
7DF
100
AcDbEntity
  8
0
  6
Continuous
 62
     7
370
    25
100
AcDbLine
 10
10.40000000000009
 20
9.0
 30
0.0
 11
10.40000000000009
 21
76.00000000000011
 31
0.0
  0
LINE
  5
80E
330
7DF
100
AcDbEntity
  8
0
  6
Continuous
 62
     7
370
    25
100
AcDbLine
 10
10.00000000000011
 20
9.0
 30
0.0
 11
10.40000000000009
 21
9.0
 31
0.0
  0
LINE
  5
80F
330
7DF
100
AcDbEntity
  8
0
  6
Continuous
 62
     7
370
    25
100
AcDbLine
 10
10.00000000000011
 20
81.50000000000023
 30
0.0
 11
10.40000000000009
 21
81.50000000000023
 31
0.0
  0
LINE
  5
810
330
7DF
100
AcDbEntity
  8
0
  6
Continuous
 62
     7
370
    25
100
AcDbLine
 10
10.40000000000009
 20
81.50000000000023
 30
0.0
 11
10.40000000000009
 21
76.00000000000011
 31
0.0
  0
LINE
  5
811
330
7DF
100
AcDbEntity
  8
0
  6
Continuous
 62
     7
370
    25
100
AcDbLine
 10
10.40000000000009
 20
3.500000000000114
 30
0.0
 11
10.00000000000011
 21
3.500000000000114
 31
0.0
  0
LINE
  5
812
330
7DF
100
AcDbEntity
  8
0
  6
Continuous
 62
     7
370
    25
100
AcDbLine
 10
10.40000000000009
 20
9.0
 30
0.0
 11
10.40000000000009
 21
3.500000000000114
 31
0.0
  0
LINE
  5
813
330
7DF
100
AcDbEntity
  8
0
  6
Continuous
 62
     7
370
    25
100
AcDbLine
 10
10.00000000000011
 20
81.00000000000011
 30
0.0
 11
0.0
 21
81.00000000000011
 31
0.0
  0
LINE
  5
814
330
7DF
100
AcDbEntity
  8
0
  6
Continuous
 62
     7
370
    25
100
AcDbLine
 10
0.0
 20
81.00000000000011
 30
0.0
 11
0.0
 21
85.00000000000011
 31
0.0
  0
LINE
  5
815
330
7DF
100
AcDbEntity
  8
0
  6
Continuous
 62
     7
370
    25
100
AcDbLine
 10
0.0
 20
85.00000000000011
 30
0.0
 11
10.00000000000011
 21
85.00000000000011
 31
0.0
  0
LINE
  5
816
330
7DF
100
AcDbEntity
  8
0
  6
Continuous
 62
     7
370
    25
100
AcDbLine
 10
10.00000000000011
 20
85.00000000000011
 30
0.0
 11
10.00000000000011
 21
81.00000000000011
 31
0.0
  0
LINE
  5
817
330
7DF
100
AcDbEntity
  8
0
  6
Continuous
 62
     7
370
    25
100
AcDbLine
 10
0.0
 20
4.0
 30
0.0
 11
10.00000000000011
 21
4.0
 31
0.0
  0
LINE
  5
818
330
7DF
100
AcDbEntity
  8
0
  6
Continuous
 62
     7
370
    25
100
AcDbLine
 10
0.0
 20
4.0
 30
0.0
 11
0.0
 21
81.00000000000011
 31
0.0
  0
LINE
  5
819
330
7DF
100
AcDbEntity
  8
0
  6
Continuous
 62
     7
370
    25
100
AcDbLine
 10
10.00000000000011
 20
4.0
 30
0.0
 11
10.00000000000011
 21
81.00000000000011
 31
0.0
  0
LINE
  5
81A
330
7DF
100
AcDbEntity
  8
0
  6
Continuous
 62
     7
370
    25
100
AcDbLine
 10
10.00000000000011
 20
0.0
 30
0.0
 11
0.0
 21
0.0
 31
0.0
  0
LINE
  5
81B
330
7DF
100
AcDbEntity
  8
0
  6
Continuous
 62
     7
370
    25
100
AcDbLine
 10
0.0
 20
0.0
 30
0.0
 11
0.0
 21
4.0
 31
0.0
  0
LINE
  5
81C
330
7DF
100
AcDbEntity
  8
0
  6
Continuous
 62
     7
370
    25
100
AcDbLine
 10
10.00000000000011
 20
4.0
 30
0.0
 11
10.00000000000011
 21
0.0
 31
0.0
  0
LINE
  5
81D
330
7DF
100
AcDbEntity
  8
0
  6
Continuous
 62
     7
370
    25
100
AcDbLine
 10
10.79999999999984
 20
10.25
 30
0.0
 11
10.39999999999986
 21
10.25
 31
0.0
  0
LINE
  5
81E
330
7DF
100
AcDbEntity
  8
0
  6
Continuous
 62
     7
370
    25
100
AcDbLine
 10
10.39999999999986
 20
74.75000000000011
 30
0.0
 11
10.79999999999984
 21
74.75000000000011
 31
0.0
  0
LINE
  5
81F
330
7DF
100
AcDbEntity
  8
0
  6
Continuous
 62
     7
370
    25
100
AcDbLine
 10
20.39999999999986
 20
57.50000000000011
 30
0.0
 11
12.50000000000011
 21
57.50000000000011
 31
0.0
  0
ARC
  5
820
330
7DF
100
AcDbEntity
  8
0
  6
Continuous
 62
     7
370
    25
100
AcDbCircle
 10
12.50000000000011
 20
55.5
 30
0.0
 40
2.000000000000114
100
AcDbArc
 50
90.0
 51
180.0
  0
LINE
  5
821
330
7DF
100
AcDbEntity
  8
0
  6
Continuous
 62
     7
370
    25
100
AcDbLine
 10
10.5
 20
55.5
 30
0.0
 11
10.5
 21
29.50000000000011
 31
0.0
  0
ARC
  5
822
330
7DF
100
AcDbEntity
  8
0
  6
Continuous
 62
     7
370
    25
100
AcDbCircle
 10
12.50000000000011
 20
29.50000000000011
 30
0.0
 40
2.000000000000114
100
AcDbArc
 50
180.0
 51
270.0
  0
LINE
  5
823
330
7DF
100
AcDbEntity
  8
0
  6
Continuous
 62
     7
370
    25
100
AcDbLine
 10
12.50000000000011
 20
27.50000000000011
 30
0.0
 11
20.39999999999986
 21
27.50000000000011
 31
0.0
  0
LINE
  5
824
330
7DF
100
AcDbEntity
  8
0
  6
Continuous
 62
     7
370
    25
100
AcDbLine
 10
20.80000000000007
 20
85.00000000000011
 30
0.0
 11
30.80000000000007
 21
85.00000000000011
 31
0.0
  0
LINE
  5
825
330
7DF
100
AcDbEntity
  8
0
  6
Continuous
 62
     7
370
    25
100
AcDbLine
 10
30.80000000000007
 20
85.00000000000011
 30
0.0
 11
30.80000000000007
 21
81.00000000000011
 31
0.0
  0
LINE
  5
826
330
7DF
100
AcDbEntity
  8
0
  6
Continuous
 62
     7
370
    25
100
AcDbLine
 10
30.80000000000007
 20
81.00000000000011
 30
0.0
 11
20.80000000000007
 21
81.00000000000011
 31
0.0
  0
LINE
  5
827
330
7DF
100
AcDbEntity
  8
0
  6
Continuous
 62
     7
370
    25
100
AcDbLine
 10
20.80000000000007
 20
81.00000000000011
 30
0.0
 11
20.80000000000007
 21
85.00000000000011
 31
0.0
  0
LINE
  5
828
330
7DF
100
AcDbEntity
  8
0
  6
Continuous
 62
     7
370
    25
100
AcDbLine
 10
30.80000000000007
 20
0.0
 30
0.0
 11
20.80000000000007
 21
0.0
 31
0.0
  0
LINE
  5
829
330
7DF
100
AcDbEntity
  8
0
  6
Continuous
 62
     7
370
    25
100
AcDbLine
 10
20.80000000000007
 20
0.0
 30
0.0
 11
20.80000000000007
 21
4.0
 31
0.0
  0
LINE
  5
82A
330
7DF
100
AcDbEntity
  8
0
  6
Continuous
 62
     7
370
    25
100
AcDbLine
 10
20.80000000000007
 20
4.0
 30
0.0
 11
30.80000000000007
 21
4.0
 31
0.0
  0
LINE
  5
82B
330
7DF
100
AcDbEntity
  8
0
  6
Continuous
 62
     7
370
    25
100
AcDbLine
 10
30.80000000000007
 20
4.0
 30
0.0
 11
30.80000000000007
 21
0.0
 31
0.0
  0
LINE
  5
82C
330
7DF
100
AcDbEntity
  8
0
  6
Continuous
 62
     7
370
    25
100
AcDbLine
 10
20.80000000000007
 20
81.00000000000011
 30
0.0
 11
20.80000000000007
 21
4.0
 31
0.0
  0
LINE
  5
82D
330
7DF
100
AcDbEntity
  8
0
  6
Continuous
 62
     7
370
    25
100
AcDbLine
 10
30.80000000000007
 20
4.0
 30
0.0
 11
30.80000000000007
 21
81.00000000000011
 31
0.0
  0
LINE
  5
82E
330
7DF
100
AcDbEntity
  8
0
  6
Continuous
 62
     7
370
    25
100
AcDbLine
 10
10.80000000000007
 20
60.00000000000011
 30
0.0
 11
10.80000000000007
 21
71.00000000000011
 31
0.0
  0
LINE
  5
82F
330
7DF
100
AcDbEntity
  8
0
  6
Continuous
 62
     7
370
    25
100
AcDbLine
 10
20.40000000000009
 20
60.00000000000011
 30
0.0
 11
10.80000000000007
 21
60.00000000000011
 31
0.0
  0
LINE
  5
830
330
7DF
100
AcDbEntity
  8
0
  6
Continuous
 62
     7
370
    25
100
AcDbLine
 10
10.80000000000007
 20
14.0
 30
0.0
 11
10.80000000000007
 21
25.00000000000011
 31
0.0
  0
LINE
  5
831
330
7DF
100
AcDbEntity
  8
0
  6
Continuous
 62
     7
370
    25
100
AcDbLine
 10
10.80000000000007
 20
25.00000000000011
 30
0.0
 11
20.40000000000009
 21
25.00000000000011
 31
0.0
  0
LINE
  5
832
330
7DF
100
AcDbEntity
  8
0
  6
Continuous
 62
     7
370
    25
100
AcDbLine
 10
10.80000000000007
 20
71.00000000000011
 30
0.0
 11
10.80000000000007
 21
75.00000000000011
 31
0.0
  0
LINE
  5
833
330
7DF
100
AcDbEntity
  8
0
  6
Continuous
 62
     7
370
    25
100
AcDbLine
 10
10.80000000000007
 20
75.00000000000011
 30
0.0
 11
20.40000000000009
 21
75.00000000000011
 31
0.0
  0
LINE
  5
834
330
7DF
100
AcDbEntity
  8
0
  6
Continuous
 62
     7
370
    25
100
AcDbLine
 10
20.40000000000009
 20
10.00000000000011
 30
0.0
 11
10.80000000000007
 21
10.00000000000011
 31
0.0
  0
LINE
  5
835
330
7DF
100
AcDbEntity
  8
0
  6
Continuous
 62
     7
370
    25
100
AcDbLine
 10
10.80000000000007
 20
10.00000000000011
 30
0.0
 11
10.80000000000007
 21
14.0
 31
0.0
  0
LINE
  5
836
330
7DF
100
AcDbEntity
  8
0
  6
Continuous
 62
     8
370
    25
100
AcDbLine
 10
20.40000000000009
 20
71.00000000000011
 30
0.0
 11
10.80000000000007
 21
71.00000000000011
 31
0.0
  0
LINE
  5
837
330
7DF
100
AcDbEntity
  8
0
  6
Continuous
 62
     8
370
    25
100
AcDbLine
 10
10.80000000000007
 20
14.0
 30
0.0
 11
20.40000000000009
 21
14.0
 31
0.0
  0
ENDBLK
  5
839
330
7DF
100
AcDbEntity
  8
0
100
AcDbBlockEnd
  0
BLOCK
  5
8DE
330
83B
100
AcDbEntity
  8
0
100
AcDbBlockBegin
  2
A$C9637
 70
     0
 10
0.0
 20
0.0
 30
0.0
  3
A$C9637
  1

  0
LINE
  5
85D
330
83B
100
AcDbEntity
  8
0
  6
Continuous
 62
     7
370
    25
100
AcDbLine
 10
4.900000000000091
 20
77.75000000000011
 30
0.0
 11
4.5
 21
77.75000000000011
 31
0.0
  0
LINE
  5
85E
330
83B
100
AcDbEntity
  8
0
  6
Continuous
 62
     7
370
    25
100
AcDbLine
 10
4.5
 20
67.25000000000011
 30
0.0
 11
4.900000000000091
 21
67.25000000000011
 31
0.0
  0
LINE
  5
85F
330
83B
100
AcDbEntity
  8
0
  6
Continuous
 62
     7
370
    25
100
AcDbLine
 10
10.40000000000009
 20
82.50000000000011
 30
0.0
 11
10.0
 21
82.50000000000011
 31
0.0
  0
LINE
  5
860
330
83B
100
AcDbEntity
  8
0
  6
Continuous
 62
     7
370
    25
100
AcDbLine
 10
10.0
 20
77.50000000000011
 30
0.0
 11
10.40000000000009
 21
77.50000000000011
 31
0.0
  0
LINE
  5
861
330
83B
100
AcDbEntity
  8
0
  6
Continuous
 62
     7
370
    25
100
AcDbLine
 10
10.0
 20
77.50000000000011
 30
0.0
 11
10.0
 21
82.50000000000011
 31
0.0
  0
LINE
  5
862
330
83B
100
AcDbEntity
  8
0
  6
Continuous
 62
     7
370
    25
100
AcDbLine
 10
10.40000000000009
 20
77.50000000000011
 30
0.0
 11
10.40000000000009
 21
82.50000000000011
 31
0.0
  0
LINE
  5
863
330
83B
100
AcDbEntity
  8
0
  6
Continuous
 62
     7
370
    25
100
AcDbLine
 10
10.0
 20
84.5
 30
0.0
 11
10.40000000000009
 21
84.5
 31
0.0
  0
LINE
  5
864
330
83B
100
AcDbEntity
  8
0
  6
Continuous
 62
     7
370
    25
100
AcDbLine
 10
10.40000000000009
 20
84.5
 30
0.0
 11
10.40000000000009
 21
82.50000000000011
 31
0.0
  0
LINE
  5
865
330
83B
100
AcDbEntity
  8
0
  6
Continuous
 62
     7
370
    25
100
AcDbLine
 10
10.40000000000009
 20
75.50000000000011
 30
0.0
 11
10.0
 21
75.50000000000011
 31
0.0
  0
LINE
  5
866
330
83B
100
AcDbEntity
  8
0
  6
Continuous
 62
     7
370
    25
100
AcDbLine
 10
10.40000000000009
 20
77.50000000000011
 30
0.0
 11
10.40000000000009
 21
75.50000000000011
 31
0.0
  0
LINE
  5
867
330
83B
100
AcDbEntity
  8
0
  6
Continuous
 62
     7
370
    25
100
AcDbLine
 10
10.40000000000009
 20
75.50000000000011
 30
0.0
 11
10.40000000000009
 21
75.00000000000011
 31
0.0
  0
LINE
  5
868
330
83B
100
AcDbEntity
  8
0
  6
Continuous
 62
     7
370
    25
100
AcDbLine
 10
10.40000000000009
 20
27.50000000000011
 30
0.0
 11
10.40000000000009
 21
57.50000000000011
 31
0.0
  0
CIRCLE
  5
869
330
83B
100
AcDbEntity
  8
0
  6
Continuous
 62
     7
370
    25
100
AcDbCircle
 10
15.79999999999995
 20
65.00000000000011
 30
0.0
 40
4.0
  0
LINE
  5
86A
330
83B
100
AcDbEntity
  8
0
  6
Continuous
 62
     7
370
    25
100
AcDbLine
 10
15.39999999999532
 20
64.6000000000048
 30
0.0
 11
15.39999999997349
 21
62.78584101745651
 31
0.0
  0
ARC
  5
86B
330
83B
100
AcDbEntity
  8
0
  6
Continuous
 62
     7
370
    25
100
AcDbCircle
 10
15.79999999999995
 20
65.00000000000011
 30
0.0
 40
2.250000000000141
100
AcDbArc
 50
259.7596516781297
 51
280.2403483204995
  0
LINE
  5
86C
330
83B
100
AcDbEntity
  8
0
  6
Continuous
 62
     7
370
    25
100
AcDbLine
 10
16.19999999997344
 20
62.78584101744673
 30
0.0
 11
16.19999999999527
 21
64.59999999999525
 31
0.0
  0
LINE
  5
86D
330
83B
100
AcDbEntity
  8
0
  6
Continuous
 62
     7
370
    25
100
AcDbLine
 10
16.19999999999527
 20
64.59999999999525
 30
0.0
 11
18.01415898254368
 21
64.59999999997365
 31
0.0
  0
ARC
  5
86E
330
83B
100
AcDbEntity
  8
0
  6
Continuous
 62
     7
370
    25
100
AcDbCircle
 10
15.79999999999995
 20
65.00000000000011
 30
0.0
 40
2.25000000000005
100
AcDbArc
 50
349.7596516781291
 51
10.24034832050005
  0
LINE
  5
86F
330
83B
100
AcDbEntity
  8
0
  6
Continuous
 62
     7
370
    25
100
AcDbLine
 10
18.01415898255323
 20
65.3999999999736
 30
0.0
 11
16.20000000000482
 21
65.3999999999952
 31
0.0
  0
LINE
  5
870
330
83B
100
AcDbEntity
  8
0
  6
Continuous
 62
     7
370
    25
100
AcDbLine
 10
16.20000000000482
 20
65.3999999999952
 30
0.0
 11
16.20000000002642
 21
67.21415898254372
 31
0.0
  0
ARC
  5
871
330
83B
100
AcDbEntity
  8
0
  6
Continuous
 62
     7
370
    25
100
AcDbCircle
 10
15.79999999999995
 20
65.00000000000011
 30
0.0
 40
2.249999999999938
100
AcDbArc
 50
79.75965167812862
 51
100.2403483205006
  0
LINE
  5
872
330
83B
100
AcDbEntity
  8
0
  6
Continuous
 62
     7
370
    25
100
AcDbLine
 10
15.40000000002647
 20
67.21415898255327
 30
0.0
 11
15.40000000000464
 21
65.40000000000487
 31
0.0
  0
LINE
  5
873
330
83B
100
AcDbEntity
  8
0
  6
Continuous
 62
     7
370
    25
100
AcDbLine
 10
15.40000000000464
 20
65.40000000000487
 30
0.0
 11
13.58584101745646
 21
65.40000000002658
 31
0.0
  0
ARC
  5
874
330
83B
100
AcDbEntity
  8
0
  6
Continuous
 62
     7
370
    25
100
AcDbCircle
 10
15.79999999999995
 20
65.00000000000011
 30
0.0
 40
2.249999999999826
100
AcDbArc
 50
169.7596516781281
 51
190.2403483205011
  0
LINE
  5
875
330
83B
100
AcDbEntity
  8
0
  6
Continuous
 62
     7
370
    25
100
AcDbLine
 10
13.58584101744691
 20
64.60000000002663
 30
0.0
 11
15.39999999999532
 21
64.6000000000048
 31
0.0
  0
ARC
  5
876
330
83B
100
AcDbEntity
  8
0
  6
Continuous
 62
     7
370
    25
100
AcDbCircle
 10
15.79999999999995
 20
65.00000000000011
 30
0.0
 40
1.704044648600641
100
AcDbArc
 50
166.4239602114288
 51
193.576039787199
  0
ARC
  5
877
330
83B
100
AcDbEntity
  8
0
  6
Continuous
 62
     7
370
    25
100
AcDbCircle
 10
15.79999999999995
 20
65.00000000000011
 30
0.0
 40
1.704044648600752
100
AcDbArc
 50
256.4239602114297
 51
283.5760397871944
  0
ARC
  5
878
330
83B
100
AcDbEntity
  8
0
  6
Continuous
 62
     7
370
    25
100
AcDbCircle
 10
15.79999999999995
 20
65.00000000000011
 30
0.0
 40
1.704044648600752
100
AcDbArc
 50
76.42396021142973
 51
103.5760397871944
  0
ARC
  5
879
330
83B
100
AcDbEntity
  8
0
  6
Continuous
 62
     7
370
    25
100
AcDbCircle
 10
15.79999999999995
 20
65.00000000000011
 30
0.0
 40
1.704044648600862
100
AcDbArc
 50
346.4239602114307
 51
13.5760397871935
  0
LINE
  5
87A
330
83B
100
AcDbEntity
  8
0
  6
Continuous
 62
     7
370
    25
100
AcDbLine
 10
4.900000000000091
 20
77.75000000000011
 30
0.0
 11
4.900000000000091
 21
67.25000000000011
 31
0.0
  0
LINE
  5
87B
330
83B
100
AcDbEntity
  8
0
  6
Continuous
 62
     7
370
    25
100
AcDbLine
 10
20.40000000000009
 20
81.50000000000023
 30
0.0
 11
20.79999999999995
 21
81.50000000000023
 31
0.0
  0
LINE
  5
87C
330
83B
100
AcDbEntity
  8
0
  6
Continuous
 62
     7
370
    25
100
AcDbLine
 10
20.79999999999995
 20
76.00000000000011
 30
0.0
 11
20.40000000000009
 21
76.00000000000011
 31
0.0
  0
LINE
  5
87D
330
83B
100
AcDbEntity
  8
0
  6
Continuous
 62
     7
370
    25
100
AcDbLine
 10
20.40000000000009
 20
76.00000000000011
 30
0.0
 11
20.40000000000009
 21
81.50000000000023
 31
0.0
  0
LINE
  5
87E
330
83B
100
AcDbEntity
  8
0
  6
Continuous
 62
     7
370
    25
100
AcDbLine
 10
20.40000000000009
 20
76.00000000000011
 30
0.0
 11
20.40000000000009
 21
74.75000000000011
 31
0.0
  0
LINE
  5
87F
330
83B
100
AcDbEntity
  8
0
  6
Continuous
 62
     7
370
    25
100
AcDbLine
 10
26.29999999999995
 20
75.15000000000009
 30
0.0
 11
26.29999999999995
 21
85.00000000000011
 31
0.0
  0
LINE
  5
880
330
83B
100
AcDbEntity
  8
0
  6
Continuous
 62
     7
370
    25
100
AcDbLine
 10
20.79999999999995
 20
75.15000000000009
 30
0.0
 11
26.29999999999995
 21
75.15000000000009
 31
0.0
  0
LINE
  5
881
330
83B
100
AcDbEntity
  8
0
  6
Continuous
 62
     7
370
    25
100
AcDbLine
 10
20.79999999999995
 20
85.00000000000011
 30
0.0
 11
26.29999999999995
 21
85.00000000000011
 31
0.0
  0
LINE
  5
882
330
83B
100
AcDbEntity
  8
0
  6
Continuous
 62
     7
370
    25
100
AcDbLine
 10
20.79999999999995
 20
85.00000000000011
 30
0.0
 11
20.79999999999995
 21
75.15000000000009
 31
0.0
  0
LINE
  5
883
330
83B
100
AcDbEntity
  8
0
  6
Continuous
 62
     7
370
    25
100
AcDbLine
 10
26.29999999999995
 20
9.850000000000023
 30
0.0
 11
26.29999999999995
 21
75.15000000000009
 31
0.0
  0
LINE
  5
884
330
83B
100
AcDbEntity
  8
0
  6
Continuous
 62
     7
370
    25
100
AcDbLine
 10
20.79999999999995
 20
74.75000000000011
 30
0.0
 11
20.79999999999995
 21
75.15000000000009
 31
0.0
  0
LINE
  5
885
330
83B
100
AcDbEntity
  8
0
  6
Continuous
 62
     7
370
    25
100
AcDbLine
 10
30.79999999999995
 20
0.0
 30
0.0
 11
30.79999999999995
 21
85.00000000000011
 31
0.0
  0
LINE
  5
886
330
83B
100
AcDbEntity
  8
0
  6
Continuous
 62
     7
370
    25
100
AcDbLine
 10
30.79999999999995
 20
85.00000000000011
 30
0.0
 11
26.29999999999995
 21
85.00000000000011
 31
0.0
  0
LINE
  5
887
330
83B
100
AcDbEntity
  8
0
  6
Continuous
 62
     7
370
    25
100
AcDbLine
 10
25.79999999999995
 20
74.75000000000011
 30
0.0
 11
5.799999999999955
 21
74.75000000000011
 31
0.0
  0
LINE
  5
888
330
83B
100
AcDbEntity
  8
0
  6
Continuous
 62
     7
370
    25
100
AcDbLine
 10
25.79999999999995
 20
10.25
 30
0.0
 11
25.79999999999995
 21
74.75000000000011
 31
0.0
  0
LINE
  5
889
330
83B
100
AcDbEntity
  8
0
  6
Continuous
 62
     7
370
    25
100
AcDbLine
 10
5.799999999999955
 20
74.75000000000011
 30
0.0
 11
5.799999999999955
 21
10.25
 31
0.0
  0
ARC
  5
88A
330
83B
100
AcDbEntity
  8
0
  6
Continuous
 62
     7
370
    25
100
AcDbCircle
 10
10.29999999999995
 20
55.5
 30
0.0
 40
2.000000000000114
100
AcDbArc
 50
90.0
 51
180.0
  0
LINE
  5
88B
330
83B
100
AcDbEntity
  8
0
  6
Continuous
 62
     7
370
    25
100
AcDbLine
 10
8.299999999999955
 20
29.50000000000011
 30
0.0
 11
8.299999999999955
 21
55.5
 31
0.0
  0
LINE
  5
88C
330
83B
100
AcDbEntity
  8
0
  6
Continuous
 62
     7
370
    25
100
AcDbLine
 10
20.29999999999995
 20
55.5
 30
0.0
 11
20.29999999999995
 21
29.50000000000011
 31
0.0
  0
ARC
  5
88D
330
83B
100
AcDbEntity
  8
0
  6
Continuous
 62
     7
370
    25
100
AcDbCircle
 10
18.29999999999995
 20
55.5
 30
0.0
 40
2.000000000000114
100
AcDbArc
 50
0.0
 51
90.0
  0
LINE
  5
88E
330
83B
100
AcDbEntity
  8
0
  6
Continuous
 62
     7
370
    25
100
AcDbLine
 10
10.29999999999995
 20
57.50000000000011
 30
0.0
 11
18.29999999999995
 21
57.50000000000011
 31
0.0
  0
CIRCLE
  5
88F
330
83B
100
AcDbEntity
  8
0
  6
Continuous
 62
     7
370
    25
100
AcDbCircle
 10
15.79999999999995
 20
65.00000000000011
 30
0.0
 40
4.149999999999864
  0
LINE
  5
890
330
83B
100
AcDbEntity
  8
0
  6
Continuous
 62
     7
370
    25
100
AcDbLine
 10
4.5
 20
81.00000000000011
 30
0.0
 11
0.0
 21
81.00000000000011
 31
0.0
  0
LINE
  5
891
330
83B
100
AcDbEntity
  8
0
  6
Continuous
 62
     7
370
    25
100
AcDbLine
 10
4.5
 20
4.0
 30
0.0
 11
4.5
 21
81.00000000000011
 31
0.0
  0
LINE
  5
892
330
83B
100
AcDbEntity
  8
0
  6
Continuous
 62
     7
370
    25
100
AcDbLine
 10
0.0
 20
81.00000000000011
 30
0.0
 11
0.0
 21
4.0
 31
0.0
  0
LINE
  5
893
330
83B
100
AcDbEntity
  8
0
  6
Continuous
 62
     7
370
    25
100
AcDbLine
 10
0.0
 20
85.00000000000011
 30
0.0
 11
4.5
 21
85.00000000000011
 31
0.0
  0
LINE
  5
894
330
83B
100
AcDbEntity
  8
0
  6
Continuous
 62
     7
370
    25
100
AcDbLine
 10
4.5
 20
85.00000000000011
 30
0.0
 11
4.5
 21
81.00000000000011
 31
0.0
  0
LINE
  5
895
330
83B
100
AcDbEntity
  8
0
  6
Continuous
 62
     7
370
    25
100
AcDbLine
 10
0.0
 20
81.00000000000011
 30
0.0
 11
0.0
 21
85.00000000000011
 31
0.0
  0
LINE
  5
896
330
83B
100
AcDbEntity
  8
0
  6
Continuous
 62
     7
370
    25
100
AcDbLine
 10
10.0
 20
85.00000000000011
 30
0.0
 11
10.0
 21
75.00000000000011
 31
0.0
  0
LINE
  5
897
330
83B
100
AcDbEntity
  8
0
  6
Continuous
 62
     7
370
    25
100
AcDbLine
 10
5.5
 20
75.00000000000011
 30
0.0
 11
10.0
 21
75.00000000000011
 31
0.0
  0
LINE
  5
898
330
83B
100
AcDbEntity
  8
0
  6
Continuous
 62
     7
370
    25
100
AcDbLine
 10
5.5
 20
10.00000000000011
 30
0.0
 11
5.5
 21
75.00000000000011
 31
0.0
  0
LINE
  5
899
330
83B
100
AcDbEntity
  8
0
  6
Continuous
 62
     7
370
    25
100
AcDbLine
 10
4.5
 20
85.00000000000011
 30
0.0
 11
10.0
 21
85.00000000000011
 31
0.0
  0
LINE
  5
89A
330
83B
100
AcDbEntity
  8
0
  6
Continuous
 62
     7
370
    25
100
AcDbLine
 10
5.5
 20
69.00000000000011
 30
0.0
 11
5.799999999999955
 21
69.00000000000011
 31
0.0
  0
LINE
  5
89B
330
83B
100
AcDbEntity
  8
0
  6
Continuous
 62
     7
370
    25
100
AcDbLine
 10
5.799999999999955
 20
60.00000000000011
 30
0.0
 11
5.5
 21
60.00000000000011
 31
0.0
  0
LINE
  5
89C
330
83B
100
AcDbEntity
  8
0
  6
Continuous
 62
     7
370
    25
100
AcDbLine
 10
10.0
 20
75.00000000000011
 30
0.0
 11
10.0
 21
74.75000000000011
 31
0.0
  0
LINE
  5
89D
330
83B
100
AcDbEntity
  8
0
  6
Continuous
 62
     7
370
    25
100
AcDbLine
 10
10.0
 20
75.00000000000011
 30
0.0
 11
20.0
 21
75.00000000000011
 31
0.0
  0
LINE
  5
89E
330
83B
100
AcDbEntity
  8
0
  6
Continuous
 62
     7
370
    25
100
AcDbLine
 10
20.0
 20
74.75000000000011
 30
0.0
 11
20.0
 21
75.00000000000011
 31
0.0
  0
LINE
  5
89F
330
83B
100
AcDbEntity
  8
0
  6
Continuous
 62
     7
370
    25
100
AcDbLine
 10
10.0
 20
57.47737199332869
 30
0.0
 11
10.0
 21
50.00000000000011
 31
0.0
  0
LINE
  5
8A0
330
83B
100
AcDbEntity
  8
0
  6
Continuous
 62
     7
370
    25
100
AcDbLine
 10
10.0
 20
35.00000000000011
 30
0.0
 11
10.0
 21
50.00000000000011
 31
0.0
  0
LINE
  5
8A1
330
83B
100
AcDbEntity
  8
0
  6
Continuous
 62
     8
370
    25
100
AcDbLine
 10
10.0
 20
50.00000000000011
 30
0.0
 11
8.300000000000182
 21
50.00000000000011
 31
0.0
  0
LINE
  5
8A2
330
83B
100
AcDbEntity
  8
0
  6
Continuous
 62
     8
370
    25
100
AcDbLine
 10
5.800000000000182
 20
50.00000000000011
 30
0.0
 11
5.5
 21
50.00000000000011
 31
0.0
  0
LINE
  5
8A3
330
83B
100
AcDbEntity
  8
0
  6
Continuous
 62
     7
370
    25
100
AcDbLine
 10
4.900000000000091
 20
17.75
 30
0.0
 11
4.5
 21
17.75
 31
0.0
  0
LINE
  5
8A4
330
83B
100
AcDbEntity
  8
0
  6
Continuous
 62
     7
370
    25
100
AcDbLine
 10
4.5
 20
7.250000000000114
 30
0.0
 11
4.900000000000091
 21
7.250000000000114
 31
0.0
  0
LINE
  5
8A5
330
83B
100
AcDbEntity
  8
0
  6
Continuous
 62
     7
370
    25
100
AcDbLine
 10
10.0
 20
2.5
 30
0.0
 11
10.40000000000009
 21
2.5
 31
0.0
  0
LINE
  5
8A6
330
83B
100
AcDbEntity
  8
0
  6
Continuous
 62
     7
370
    25
100
AcDbLine
 10
10.0
 20
2.5
 30
0.0
 11
10.0
 21
7.500000000000114
 31
0.0
  0
LINE
  5
8A7
330
83B
100
AcDbEntity
  8
0
  6
Continuous
 62
     7
370
    25
100
AcDbLine
 10
10.40000000000009
 20
7.500000000000114
 30
0.0
 11
10.0
 21
7.500000000000114
 31
0.0
  0
LINE
  5
8A8
330
83B
100
AcDbEntity
  8
0
  6
Continuous
 62
     7
370
    25
100
AcDbLine
 10
10.40000000000009
 20
2.5
 30
0.0
 11
10.40000000000009
 21
7.500000000000114
 31
0.0
  0
LINE
  5
8A9
330
83B
100
AcDbEntity
  8
0
  6
Continuous
 62
     7
370
    25
100
AcDbLine
 10
10.0
 20
9.500000000000114
 30
0.0
 11
10.40000000000009
 21
9.500000000000114
 31
0.0
  0
LINE
  5
8AA
330
83B
100
AcDbEntity
  8
0
  6
Continuous
 62
     7
370
    25
100
AcDbLine
 10
10.40000000000009
 20
9.500000000000114
 30
0.0
 11
10.40000000000009
 21
7.500000000000114
 31
0.0
  0
LINE
  5
8AB
330
83B
100
AcDbEntity
  8
0
  6
Continuous
 62
     7
370
    25
100
AcDbLine
 10
10.40000000000009
 20
0.5000000000001137
 30
0.0
 11
10.0
 21
0.5000000000001137
 31
0.0
  0
LINE
  5
8AC
330
83B
100
AcDbEntity
  8
0
  6
Continuous
 62
     7
370
    25
100
AcDbLine
 10
10.40000000000009
 20
2.5
 30
0.0
 11
10.40000000000009
 21
0.5000000000001137
 31
0.0
  0
LINE
  5
8AD
330
83B
100
AcDbEntity
  8
0
  6
Continuous
 62
     7
370
    25
100
AcDbLine
 10
10.40000000000009
 20
10.00000000000011
 30
0.0
 11
10.40000000000009
 21
9.500000000000114
 31
0.0
  0
CIRCLE
  5
8AE
330
83B
100
AcDbEntity
  8
0
  6
Continuous
 62
     7
370
    25
100
AcDbCircle
 10
15.79999999999995
 20
20.00000000000011
 30
0.0
 40
4.0
  0
LINE
  5
8AF
330
83B
100
AcDbEntity
  8
0
  6
Continuous
 62
     7
370
    25
100
AcDbLine
 10
15.39999999999532
 20
19.60000000000491
 30
0.0
 11
15.39999999997349
 21
17.78584101745639
 31
0.0
  0
ARC
  5
8B0
330
83B
100
AcDbEntity
  8
0
  6
Continuous
 62
     7
370
    25
100
AcDbCircle
 10
15.79999999999995
 20
20.00000000000011
 30
0.0
 40
2.25000000000005
100
AcDbArc
 50
259.7596516781292
 51
280.2403483205001
  0
LINE
  5
8B1
330
83B
100
AcDbEntity
  8
0
  6
Continuous
 62
     7
370
    25
100
AcDbLine
 10
16.19999999997344
 20
17.78584101744684
 30
0.0
 11
16.19999999999527
 21
19.59999999999525
 31
0.0
  0
LINE
  5
8B2
330
83B
100
AcDbEntity
  8
0
  6
Continuous
 62
     7
370
    25
100
AcDbLine
 10
16.19999999999527
 20
19.59999999999525
 30
0.0
 11
18.01415898254368
 21
19.59999999997353
 31
0.0
  0
ARC
  5
8B3
330
83B
100
AcDbEntity
  8
0
  6
Continuous
 62
     7
370
    25
100
AcDbCircle
 10
15.79999999999995
 20
20.00000000000011
 30
0.0
 40
2.25000000000007
100
AcDbArc
 50
349.7596516781263
 51
10.24034832050005
  0
LINE
  5
8B4
330
83B
100
AcDbEntity
  8
0
  6
Continuous
 62
     7
370
    25
100
AcDbLine
 10
18.01415898255323
 20
20.3999999999736
 30
0.0
 11
16.20000000000482
 21
20.39999999999532
 31
0.0
  0
LINE
  5
8B5
330
83B
100
AcDbEntity
  8
0
  6
Continuous
 62
     7
370
    25
100
AcDbLine
 10
16.20000000000482
 20
20.39999999999532
 30
0.0
 11
16.20000000002642
 21
22.21415898254372
 31
0.0
  0
ARC
  5
8B6
330
83B
100
AcDbEntity
  8
0
  6
Continuous
 62
     7
370
    25
100
AcDbCircle
 10
15.79999999999995
 20
20.00000000000011
 30
0.0
 40
2.249999999999938
100
AcDbArc
 50
79.75965167812862
 51
100.2403483205006
  0
LINE
  5
8B7
330
83B
100
AcDbEntity
  8
0
  6
Continuous
 62
     7
370
    25
100
AcDbLine
 10
15.40000000002647
 20
22.21415898255327
 30
0.0
 11
15.40000000000464
 21
20.40000000000487
 31
0.0
  0
LINE
  5
8B8
330
83B
100
AcDbEntity
  8
0
  6
Continuous
 62
     7
370
    25
100
AcDbLine
 10
15.40000000000464
 20
20.40000000000487
 30
0.0
 11
13.58584101745646
 21
20.40000000002658
 31
0.0
  0
ARC
  5
8B9
330
83B
100
AcDbEntity
  8
0
  6
Continuous
 62
     7
370
    25
100
AcDbCircle
 10
15.79999999999995
 20
20.00000000000011
 30
0.0
 40
2.249999999999826
100
AcDbArc
 50
169.7596516781281
 51
190.2403483205011
  0
LINE
  5
8BA
330
83B
100
AcDbEntity
  8
0
  6
Continuous
 62
     7
370
    25
100
AcDbLine
 10
13.58584101744691
 20
19.60000000002663
 30
0.0
 11
15.39999999999532
 21
19.60000000000491
 31
0.0
  0
ARC
  5
8BB
330
83B
100
AcDbEntity
  8
0
  6
Continuous
 62
     7
370
    25
100
AcDbCircle
 10
15.79999999999995
 20
20.00000000000011
 30
0.0
 40
1.704044648600615
100
AcDbArc
 50
166.4239602114326
 51
193.576039787199
  0
ARC
  5
8BC
330
83B
100
AcDbEntity
  8
0
  6
Continuous
 62
     7
370
    25
100
AcDbCircle
 10
15.79999999999995
 20
20.00000000000011
 30
0.0
 40
1.704044648600752
100
AcDbArc
 50
256.4239602114297
 51
283.5760397871944
  0
ARC
  5
8BD
330
83B
100
AcDbEntity
  8
0
  6
Continuous
 62
     7
370
    25
100
AcDbCircle
 10
15.79999999999995
 20
20.00000000000011
 30
0.0
 40
1.704044648600695
100
AcDbArc
 50
76.42396021142885
 51
103.5760397871944
  0
ARC
  5
8BE
330
83B
100
AcDbEntity
  8
0
  6
Continuous
 62
     7
370
    25
100
AcDbCircle
 10
15.79999999999995
 20
20.00000000000011
 30
0.0
 40
1.704044648600862
100
AcDbArc
 50
346.4239602114307
 51
13.5760397871935
  0
LINE
  5
8BF
330
83B
100
AcDbEntity
  8
0
  6
Continuous
 62
     7
370
    25
100
AcDbLine
 10
4.900000000000091
 20
17.75
 30
0.0
 11
4.900000000000091
 21
7.250000000000114
 31
0.0
  0
LINE
  5
8C0
330
83B
100
AcDbEntity
  8
0
  6
Continuous
 62
     7
370
    25
100
AcDbLine
 10
20.40000000000009
 20
9.0
 30
0.0
 11
20.79999999999995
 21
9.0
 31
0.0
  0
LINE
  5
8C1
330
83B
100
AcDbEntity
  8
0
  6
Continuous
 62
     7
370
    25
100
AcDbLine
 10
20.79999999999995
 20
3.500000000000114
 30
0.0
 11
20.40000000000009
 21
3.500000000000114
 31
0.0
  0
LINE
  5
8C2
330
83B
100
AcDbEntity
  8
0
  6
Continuous
 62
     7
370
    25
100
AcDbLine
 10
20.40000000000009
 20
3.500000000000114
 30
0.0
 11
20.40000000000009
 21
9.0
 31
0.0
  0
LINE
  5
8C3
330
83B
100
AcDbEntity
  8
0
  6
Continuous
 62
     7
370
    25
100
AcDbLine
 10
20.40000000000009
 20
10.25
 30
0.0
 11
20.40000000000009
 21
9.0
 31
0.0
  0
LINE
  5
8C4
330
83B
100
AcDbEntity
  8
0
  6
Continuous
 62
     7
370
    25
100
AcDbLine
 10
26.29999999999995
 20
0.0
 30
0.0
 11
26.29999999999995
 21
9.850000000000023
 31
0.0
  0
LINE
  5
8C5
330
83B
100
AcDbEntity
  8
0
  6
Continuous
 62
     7
370
    25
100
AcDbLine
 10
20.79999999999995
 20
9.850000000000023
 30
0.0
 11
20.79999999999995
 21
0.0
 31
0.0
  0
LINE
  5
8C6
330
83B
100
AcDbEntity
  8
0
  6
Continuous
 62
     7
370
    25
100
AcDbLine
 10
20.79999999999995
 20
9.850000000000023
 30
0.0
 11
26.29999999999995
 21
9.850000000000023
 31
0.0
  0
LINE
  5
8C7
330
83B
100
AcDbEntity
  8
0
  6
Continuous
 62
     7
370
    25
100
AcDbLine
 10
20.79999999999995
 20
0.0
 30
0.0
 11
26.29999999999995
 21
0.0
 31
0.0
  0
LINE
  5
8C8
330
83B
100
AcDbEntity
  8
0
  6
Continuous
 62
     7
370
    25
100
AcDbLine
 10
20.79999999999995
 20
9.850000000000023
 30
0.0
 11
20.79999999999995
 21
10.25
 31
0.0
  0
LINE
  5
8C9
330
83B
100
AcDbEntity
  8
0
  6
Continuous
 62
     7
370
    25
100
AcDbLine
 10
30.79999999999995
 20
0.0
 30
0.0
 11
26.29999999999995
 21
0.0
 31
0.0
  0
LINE
  5
8CA
330
83B
100
AcDbEntity
  8
0
  6
Continuous
 62
     7
370
    25
100
AcDbLine
 10
5.799999999999955
 20
10.25
 30
0.0
 11
25.79999999999995
 21
10.25
 31
0.0
  0
ARC
  5
8CB
330
83B
100
AcDbEntity
  8
0
  6
Continuous
 62
     7
370
    25
100
AcDbCircle
 10
10.29999999999995
 20
29.50000000000011
 30
0.0
 40
2.0
100
AcDbArc
 50
180.0
 51
270.0
  0
LINE
  5
8CC
330
83B
100
AcDbEntity
  8
0
  6
Continuous
 62
     7
370
    25
100
AcDbLine
 10
18.29999999999995
 20
27.50000000000011
 30
0.0
 11
10.29999999999995
 21
27.50000000000011
 31
0.0
  0
ARC
  5
8CD
330
83B
100
AcDbEntity
  8
0
  6
Continuous
 62
     7
370
    25
100
AcDbCircle
 10
18.29999999999995
 20
29.50000000000011
 30
0.0
 40
2.0
100
AcDbArc
 50
270.0
 51
0.0
  0
CIRCLE
  5
8CE
330
83B
100
AcDbEntity
  8
0
  6
Continuous
 62
     7
370
    25
100
AcDbCircle
 10
15.79999999999995
 20
20.00000000000011
 30
0.0
 40
4.149999999999864
  0
LINE
  5
8CF
330
83B
100
AcDbEntity
  8
0
  6
Continuous
 62
     7
370
    25
100
AcDbLine
 10
0.0
 20
4.0
 30
0.0
 11
4.5
 21
4.0
 31
0.0
  0
LINE
  5
8D0
330
83B
100
AcDbEntity
  8
0
  6
Continuous
 62
     7
370
    25
100
AcDbLine
 10
4.5
 20
4.0
 30
0.0
 11
4.5
 21
0.0
 31
0.0
  0
LINE
  5
8D1
330
83B
100
AcDbEntity
  8
0
  6
Continuous
 62
     7
370
    25
100
AcDbLine
 10
4.5
 20
0.0
 30
0.0
 11
0.0
 21
0.0
 31
0.0
  0
LINE
  5
8D2
330
83B
100
AcDbEntity
  8
0
  6
Continuous
 62
     7
370
    25
100
AcDbLine
 10
0.0
 20
0.0
 30
0.0
 11
0.0
 21
4.0
 31
0.0
  0
LINE
  5
8D3
330
83B
100
AcDbEntity
  8
0
  6
Continuous
 62
     7
370
    25
100
AcDbLine
 10
10.0
 20
10.00000000000011
 30
0.0
 11
5.5
 21
10.00000000000011
 31
0.0
  0
LINE
  5
8D4
330
83B
100
AcDbEntity
  8
0
  6
Continuous
 62
     7
370
    25
100
AcDbLine
 10
10.0
 20
0.0
 30
0.0
 11
10.0
 21
10.00000000000011
 31
0.0
  0
LINE
  5
8D5
330
83B
100
AcDbEntity
  8
0
  6
Continuous
 62
     7
370
    25
100
AcDbLine
 10
10.0
 20
0.0
 30
0.0
 11
4.5
 21
0.0
 31
0.0
  0
LINE
  5
8D6
330
83B
100
AcDbEntity
  8
0
  6
Continuous
 62
     7
370
    25
100
AcDbLine
 10
5.5
 20
16.00000000000011
 30
0.0
 11
5.799999999999955
 21
16.00000000000011
 31
0.0
  0
LINE
  5
8D7
330
83B
100
AcDbEntity
  8
0
  6
Continuous
 62
     7
370
    25
100
AcDbLine
 10
10.0
 20
10.25
 30
0.0
 11
10.0
 21
10.00000000000011
 31
0.0
  0
LINE
  5
8D8
330
83B
100
AcDbEntity
  8
0
  6
Continuous
 62
     7
370
    25
100
AcDbLine
 10
5.5
 20
25.00000000000011
 30
0.0
 11
5.799999999999955
 21
25.00000000000011
 31
0.0
  0
LINE
  5
8D9
330
83B
100
AcDbEntity
  8
0
  6
Continuous
 62
     7
370
    25
100
AcDbLine
 10
10.0
 20
10.00000000000011
 30
0.0
 11
20.0
 21
10.00000000000011
 31
0.0
  0
LINE
  5
8DA
330
83B
100
AcDbEntity
  8
0
  6
Continuous
 62
     7
370
    25
100
AcDbLine
 10
20.0
 20
10.25
 30
0.0
 11
20.0
 21
10.00000000000011
 31
0.0
  0
LINE
  5
8DB
330
83B
100
AcDbEntity
  8
0
  6
Continuous
 62
     7
370
    25
100
AcDbLine
 10
10.0
 20
35.00000000000011
 30
0.0
 11
10.0
 21
27.52262800667154
 31
0.0
  0
LINE
  5
8DC
330
83B
100
AcDbEntity
  8
0
  6
Continuous
 62
     8
370
    25
100
AcDbLine
 10
5.5
 20
35.00000000000011
 30
0.0
 11
5.800000000000182
 21
35.00000000000011
 31
0.0
  0
LINE
  5
8DD
330
83B
100
AcDbEntity
  8
0
  6
Continuous
 62
     8
370
    25
100
AcDbLine
 10
8.300000000000182
 20
35.00000000000011
 30
0.0
 11
10.0
 21
35.00000000000011
 31
0.0
  0
ENDBLK
  5
8DF
330
83B
100
AcDbEntity
  8
0
100
AcDbBlockEnd
  0
BLOCK
  5
93C
330
8E1
100
AcDbEntity
  8
0
100
AcDbBlockBegin
  2
A$C10763
 70
     0
 10
0.0
 20
0.0
 30
0.0
  3
A$C10763
  1

  0
LINE
  5
903
330
8E1
100
AcDbEntity
  8
0
  6
Continuous
 62
     7
370
    25
100
AcDbLine
 10
12.75
 20
25.89999999999998
 30
0.0
 11
12.75
 21
26.29999999999995
 31
0.0
  0
LINE
  5
904
330
8E1
100
AcDbEntity
  8
0
  6
Continuous
 62
     7
370
    25
100
AcDbLine
 10
2.25
 20
26.29999999999995
 30
0.0
 11
2.25
 21
25.89999999999998
 31
0.0
  0
LINE
  5
905
330
8E1
100
AcDbEntity
  8
0
  6
Continuous
 62
     7
370
    25
100
AcDbLine
 10
59.0
 20
10.39999999999998
 30
0.0
 11
59.0
 21
10.80000000000018
 31
0.0
  0
LINE
  5
906
330
8E1
100
AcDbEntity
  8
0
  6
Continuous
 62
     7
370
    25
100
AcDbLine
 10
53.0
 20
10.80000000000018
 30
0.0
 11
53.0
 21
10.39999999999998
 31
0.0
  0
LINE
  5
907
330
8E1
100
AcDbEntity
  8
0
  6
Continuous
 62
     7
370
    25
100
AcDbLine
 10
69.5
 20
20.39999999999998
 30
0.0
 11
69.5
 21
20.79999999999995
 31
0.0
  0
LINE
  5
908
330
8E1
100
AcDbEntity
  8
0
  6
Continuous
 62
     7
370
    25
100
AcDbLine
 10
17.00000000000023
 20
20.39999999999998
 30
0.0
 11
69.5
 21
20.39999999999998
 31
0.0
  0
LINE
  5
909
330
8E1
100
AcDbEntity
  8
0
  6
Continuous
 62
     7
370
    25
100
AcDbLine
 10
17.00000000000023
 20
20.79999999999995
 30
0.0
 11
17.00000000000023
 21
20.39999999999998
 31
0.0
  0
LINE
  5
90A
330
8E1
100
AcDbEntity
  8
0
  6
Continuous
 62
     7
370
    25
100
AcDbLine
 10
74.0
 20
20.79999999999995
 30
0.0
 11
74.0
 21
20.39999999999998
 31
0.0
  0
LINE
  5
90B
330
8E1
100
AcDbEntity
  8
0
  6
Continuous
 62
     7
370
    25
100
AcDbLine
 10
74.0
 20
20.39999999999998
 30
0.0
 11
69.5
 21
20.39999999999998
 31
0.0
  0
LINE
  5
90C
330
8E1
100
AcDbEntity
  8
0
  6
Continuous
 62
     7
370
    25
100
AcDbLine
 10
15.0
 20
20.39999999999998
 30
0.0
 11
15.0
 21
20.79999999999995
 31
0.0
  0
LINE
  5
90D
330
8E1
100
AcDbEntity
  8
0
  6
Continuous
 62
     7
370
    25
100
AcDbLine
 10
17.00000000000023
 20
20.39999999999998
 30
0.0
 11
15.0
 21
20.39999999999998
 31
0.0
  0
LINE
  5
90E
330
8E1
100
AcDbEntity
  8
0
  6
Continuous
 62
     7
370
    25
100
AcDbLine
 10
7.5
 20
25.89999999999998
 30
0.0
 11
2.25
 21
25.89999999999998
 31
0.0
  0
LINE
  5
90F
330
8E1
100
AcDbEntity
  8
0
  6
Continuous
 62
     7
370
    25
100
AcDbLine
 10
12.75
 20
25.89999999999998
 30
0.0
 11
7.5
 21
25.89999999999998
 31
0.0
  0
LINE
  5
910
330
8E1
100
AcDbEntity
  8
0
  6
Continuous
 62
     7
370
    25
100
AcDbLine
 10
72.50000000000023
 20
10.39999999999998
 30
0.0
 11
72.50000000000023
 21
10.0
 31
0.0
  0
LINE
  5
911
330
8E1
100
AcDbEntity
  8
0
  6
Continuous
 62
     7
370
    25
100
AcDbLine
 10
67.0
 20
10.0
 30
0.0
 11
67.0
 21
10.39999999999998
 31
0.0
  0
LINE
  5
912
330
8E1
100
AcDbEntity
  8
0
  6
Continuous
 62
     7
370
    25
100
AcDbLine
 10
67.0
 20
10.39999999999998
 30
0.0
 11
72.50000000000023
 21
10.39999999999998
 31
0.0
  0
LINE
  5
913
330
8E1
100
AcDbEntity
  8
0
  6
Continuous
 62
     7
370
    25
100
AcDbLine
 10
39.0
 20
10.39999999999998
 30
0.0
 11
39.0
 21
10.0
 31
0.0
  0
LINE
  5
914
330
8E1
100
AcDbEntity
  8
0
  6
Continuous
 62
     7
370
    25
100
AcDbLine
 10
33.5
 20
10.0
 30
0.0
 11
33.5
 21
10.39999999999998
 31
0.0
  0
LINE
  5
915
330
8E1
100
AcDbEntity
  8
0
  6
Continuous
 62
     7
370
    25
100
AcDbLine
 10
33.5
 20
10.39999999999998
 30
0.0
 11
39.0
 21
10.39999999999998
 31
0.0
  0
LINE
  5
916
330
8E1
100
AcDbEntity
  8
0
  6
Continuous
 62
     7
370
    25
100
AcDbLine
 10
67.0
 20
10.39999999999998
 30
0.0
 11
39.0
 21
10.39999999999998
 31
0.0
  0
CIRCLE
  5
917
330
8E1
100
AcDbEntity
  8
0
  6
Continuous
 62
     7
370
    25
100
AcDbCircle
 10
53.0
 20
7.5
 30
0.0
 40
1.000000000033197
  0
LINE
  5
918
330
8E1
100
AcDbEntity
  8
0
  6
Continuous
 62
     7
370
    25
100
AcDbLine
 10
52.56698729813456
 20
8.250000000015234
 30
0.0
 11
52.13397459621569
 21
7.500000000030582
 31
0.0
  0
LINE
  5
919
330
8E1
100
AcDbEntity
  8
0
  6
Continuous
 62
     7
370
    25
100
AcDbLine
 10
52.13397459621569
 20
7.500000000030582
 30
0.0
 11
52.56698729808136
 21
6.750000000015348
 31
0.0
  0
LINE
  5
91A
330
8E1
100
AcDbEntity
  8
0
  6
Continuous
 62
     7
370
    25
100
AcDbLine
 10
52.56698729808136
 20
6.750000000015348
 30
0.0
 11
53.43301270186566
 21
6.749999999984539
 31
0.0
  0
LINE
  5
91B
330
8E1
100
AcDbEntity
  8
0
  6
Continuous
 62
     7
370
    25
100
AcDbLine
 10
53.43301270186566
 20
6.749999999984539
 30
0.0
 11
53.86602540378499
 21
7.499999999969191
 31
0.0
  0
LINE
  5
91C
330
8E1
100
AcDbEntity
  8
0
  6
Continuous
 62
     7
370
    25
100
AcDbLine
 10
53.43301270191887
 20
8.249999999984652
 30
0.0
 11
53.86602540378499
 21
7.499999999969191
 31
0.0
  0
LINE
  5
91D
330
8E1
100
AcDbEntity
  8
0
  6
Continuous
 62
     7
370
    25
100
AcDbLine
 10
53.43301270191887
 20
8.249999999984652
 30
0.0
 11
52.56698729813456
 21
8.250000000015234
 31
0.0
  0
LINE
  5
91E
330
8E1
100
AcDbEntity
  8
0
  6
Continuous
 62
     7
370
    25
100
AcDbLine
 10
75.00000000000023
 20
10.0
 30
0.0
 11
75.00000000000023
 21
0.0
 31
0.0
  0
LINE
  5
91F
330
8E1
100
AcDbEntity
  8
0
  6
Continuous
 62
     7
370
    25
100
AcDbLine
 10
75.00000000000023
 20
0.0
 30
0.0
 11
71.00000000000023
 21
0.0
 31
0.0
  0
LINE
  5
920
330
8E1
100
AcDbEntity
  8
0
  6
Continuous
 62
     7
370
    25
100
AcDbLine
 10
71.00000000000023
 20
0.0
 30
0.0
 11
71.00000000000023
 21
10.0
 31
0.0
  0
LINE
  5
921
330
8E1
100
AcDbEntity
  8
0
  6
Continuous
 62
     7
370
    25
100
AcDbLine
 10
71.00000000000023
 20
10.0
 30
0.0
 11
75.00000000000023
 21
10.0
 31
0.0
  0
LINE
  5
922
330
8E1
100
AcDbEntity
  8
0
  6
Continuous
 62
     7
370
    25
100
AcDbLine
 10
37.79422863406012
 20
0.0
 30
0.0
 11
30.0
 21
4.5
 31
0.0
  0
LINE
  5
923
330
8E1
100
AcDbEntity
  8
0
  6
Continuous
 62
     7
370
    25
100
AcDbLine
 10
30.0
 20
4.5
 30
0.0
 11
15.0
 21
4.5
 31
0.0
  0
LINE
  5
924
330
8E1
100
AcDbEntity
  8
0
  6
Continuous
 62
     7
370
    25
100
AcDbLine
 10
15.0
 20
10.0
 30
0.0
 11
15.0
 21
4.5
 31
0.0
  0
LINE
  5
925
330
8E1
100
AcDbEntity
  8
0
  6
Continuous
 62
     7
370
    25
100
AcDbLine
 10
71.00000000000023
 20
0.0
 30
0.0
 11
37.79422863406012
 21
0.0
 31
0.0
  0
CIRCLE
  5
926
330
8E1
100
AcDbEntity
  8
0
  6
Continuous
 62
     7
370
    25
100
AcDbCircle
 10
53.0
 20
7.5
 30
0.0
 40
1.25
  0
LINE
  5
927
330
8E1
100
AcDbEntity
  8
0
  6
Continuous
 62
     7
370
    25
100
AcDbLine
 10
71.00000000000023
 20
10.0
 30
0.0
 11
15.0
 21
10.0
 31
0.0
  0
LINE
  5
928
330
8E1
100
AcDbEntity
  8
0
  6
Continuous
 62
     7
370
    25
100
AcDbLine
 10
15.0
 20
10.00000000000023
 30
0.0
 11
15.0
 21
20.4000000000002
 31
0.0
  0
LINE
  5
929
330
8E1
100
AcDbEntity
  8
0
  6
Continuous
 62
     7
370
    25
100
AcDbLine
 10
18.00000000000023
 20
10.00000000000023
 30
0.0
 11
18.00000000000023
 21
20.4000000000002
 31
0.0
  0
LINE
  5
92A
330
8E1
100
AcDbEntity
  8
0
  6
Continuous
 62
     7
370
    25
100
AcDbLine
 10
71.00000000000023
 20
20.79999999999995
 30
0.0
 11
71.00000000000023
 21
30.79999999999995
 31
0.0
  0
LINE
  5
92B
330
8E1
100
AcDbEntity
  8
0
  6
Continuous
 62
     7
370
    25
100
AcDbLine
 10
15.0
 20
20.79999999999995
 30
0.0
 11
71.00000000000023
 21
20.79999999999995
 31
0.0
  0
LINE
  5
92C
330
8E1
100
AcDbEntity
  8
0
  6
Continuous
 62
     7
370
    25
100
AcDbLine
 10
15.0
 20
26.30000000000007
 30
0.0
 11
15.0
 21
20.79999999999995
 31
0.0
  0
LINE
  5
92D
330
8E1
100
AcDbEntity
  8
0
  6
Continuous
 62
     7
370
    25
100
AcDbLine
 10
4.0
 20
26.30000000000007
 30
0.0
 11
15.0
 21
26.30000000000007
 31
0.0
  0
LINE
  5
92E
330
8E1
100
AcDbEntity
  8
0
  6
Continuous
 62
     7
370
    25
100
AcDbLine
 10
4.0
 20
30.79999999999995
 30
0.0
 11
4.0
 21
26.30000000000007
 31
0.0
  0
LINE
  5
92F
330
8E1
100
AcDbEntity
  8
0
  6
Continuous
 62
     7
370
    25
100
AcDbLine
 10
71.00000000000023
 20
30.79999999999995
 30
0.0
 11
4.0
 21
30.79999999999995
 31
0.0
  0
LINE
  5
930
330
8E1
100
AcDbEntity
  8
0
  6
Continuous
 62
     7
370
    25
100
AcDbLine
 10
0.0
 20
26.30000000000007
 30
0.0
 11
0.0
 21
30.79999999999995
 31
0.0
  0
LINE
  5
931
330
8E1
100
AcDbEntity
  8
0
  6
Continuous
 62
     7
370
    25
100
AcDbLine
 10
0.0
 20
30.79999999999995
 30
0.0
 11
4.0
 21
30.79999999999995
 31
0.0
  0
LINE
  5
932
330
8E1
100
AcDbEntity
  8
0
  6
Continuous
 62
     7
370
    25
100
AcDbLine
 10
4.0
 20
26.30000000000007
 30
0.0
 11
0.0
 21
26.30000000000007
 31
0.0
  0
LINE
  5
933
330
8E1
100
AcDbEntity
  8
0
  6
Continuous
 62
     7
370
    25
100
AcDbLine
 10
71.00000000000023
 20
30.79999999999995
 30
0.0
 11
75.00000000000023
 21
30.79999999999995
 31
0.0
  0
LINE
  5
934
330
8E1
100
AcDbEntity
  8
0
  6
Continuous
 62
     7
370
    25
100
AcDbLine
 10
75.00000000000023
 20
30.79999999999995
 30
0.0
 11
75.00000000000023
 21
20.79999999999995
 31
0.0
  0
LINE
  5
935
330
8E1
100
AcDbEntity
  8
0
  6
Continuous
 62
     7
370
    25
100
AcDbLine
 10
75.00000000000023
 20
20.79999999999995
 30
0.0
 11
71.00000000000023
 21
20.79999999999995
 31
0.0
  0
LINE
  5
936
330
8E1
100
AcDbEntity
  8
0
  6
Continuous
 62
     7
370
    25
100
AcDbLine
 10
21.0
 20
10.79999999999995
 30
0.0
 11
18.00000000000023
 21
10.79999999999995
 31
0.0
  0
LINE
  5
937
330
8E1
100
AcDbEntity
  8
0
  6
Continuous
 62
     7
370
    25
100
AcDbLine
 10
62.00000000000023
 20
20.4000000000002
 30
0.0
 11
62.00000000000023
 21
10.79999999999995
 31
0.0
  0
LINE
  5
938
330
8E1
100
AcDbEntity
  8
0
  6
Continuous
 62
     7
370
    25
100
AcDbLine
 10
62.00000000000023
 20
10.79999999999995
 30
0.0
 11
58.0
 21
10.79999999999995
 31
0.0
  0
LINE
  5
939
330
8E1
100
AcDbEntity
  8
0
  6
Continuous
 62
     7
370
    25
100
AcDbLine
 10
58.0
 20
10.79999999999995
 30
0.0
 11
21.0
 21
10.79999999999995
 31
0.0
  0
LINE
  5
93A
330
8E1
100
AcDbEntity
  8
0
  6
Continuous
 62
     7
370
    25
100
AcDbLine
 10
21.0
 20
20.4000000000002
 30
0.0
 11
21.0
 21
10.79999999999995
 31
0.0
  0
LINE
  5
93B
330
8E1
100
AcDbEntity
  8
0
  6
Continuous
 62
     8
370
    25
100
AcDbLine
 10
58.0
 20
10.79999999999995
 30
0.0
 11
58.0
 21
20.39999999999998
 31
0.0
  0
ENDBLK
  5
93D
330
8E1
100
AcDbEntity
  8
0
100
AcDbBlockEnd
  0
BLOCK
  5
A2F
330
93F
100
AcDbEntity
  8
0
100
AcDbBlockBegin
  2
A$C29110
 70
     0
 10
0.0
 20
0.0
 30
0.0
  3
A$C29110
  1

  0
LINE
  5
961
330
93F
100
AcDbEntity
  8
0
  6
Continuous
 62
     7
370
    25
100
AcDbLine
 10
18.10177079028392
 20
69.01994941956207
 30
0.0
 11
18.38461350275861
 21
68.85666779719759
 31
0.0
  0
LINE
  5
962
330
93F
100
AcDbEntity
  8
0
  6
Continuous
 62
     7
370
    25
100
AcDbLine
 10
58.75745539611944
 20
97.95805036773243
 30
0.0
 11
58.47461268364475
 21
98.12133199009702
 31
0.0
  0
LINE
  5
963
330
93F
100
AcDbEntity
  8
0
  6
Continuous
 62
     7
370
    25
100
AcDbLine
 10
18.10177079028392
 20
7.77938852813088
 30
0.0
 11
18.38461350275861
 21
7.616106905766287
 31
0.0
  0
LINE
  5
964
330
93F
100
AcDbEntity
  8
0
  6
Continuous
 62
     7
370
    25
100
AcDbLine
 10
23.89459877387344
 20
17.21399398364497
 30
0.0
 11
24.24815216447189
 21
17.41809601160378
 31
0.0
  0
LINE
  5
965
330
93F
100
AcDbEntity
  8
0
  6
Continuous
 62
     7
370
    25
100
AcDbLine
 10
20.2484772339277
 20
24.34648691064922
 30
0.0
 11
19.89492384332902
 21
24.14238488269052
 31
0.0
  0
LINE
  5
966
330
93F
100
AcDbEntity
  8
0
  6
Continuous
 62
     7
370
    25
100
AcDbLine
 10
23.89459877387344
 20
53.95833051850377
 30
0.0
 11
24.24815216447189
 21
54.16243254646247
 31
0.0
  0
LINE
  5
967
330
93F
100
AcDbEntity
  8
0
  6
Continuous
 62
     7
370
    25
100
AcDbLine
 10
20.2484772339277
 20
61.09082344550791
 30
0.0
 11
19.89492384332902
 21
60.88672141754921
 31
0.0
  0
LINE
  5
968
330
93F
100
AcDbEntity
  8
0
  6
Continuous
 62
     7
370
    25
100
AcDbLine
 10
11.402717190766
 20
69.42000176638328
 30
0.0
 11
10.55418905334227
 21
69.90984663347695
 31
0.0
  0
LINE
  5
969
330
93F
100
AcDbEntity
  8
0
  6
Continuous
 62
     7
370
    25
100
AcDbLine
 10
5.304615707002881
 20
60.81633357847977
 30
0.0
 11
6.153143844426722
 21
60.32648871138622
 31
0.0
  0
LINE
  5
96A
330
93F
100
AcDbEntity
  8
0
  6
Continuous
 62
     7
370
    25
100
AcDbLine
 10
11.402717190766
 20
20.42755305323828
 30
0.0
 11
10.55418905334227
 21
20.91739792033195
 31
0.0
  0
LINE
  5
96B
330
93F
100
AcDbEntity
  8
0
  6
Continuous
 62
     7
370
    25
100
AcDbLine
 10
5.304615707002881
 20
11.82388486533478
 30
0.0
 11
6.153143844426722
 21
11.33403999824111
 31
0.0
  0
LINE
  5
96C
330
93F
100
AcDbEntity
  8
0
  6
Continuous
 62
     7
370
    25
100
AcDbLine
 10
73.99311422094581
 20
90.62651009170338
 30
0.0
 11
66.9220464090804
 21
94.70855065081685
 31
0.0
  0
LINE
  5
96D
330
93F
100
AcDbEntity
  8
0
  6
Continuous
 62
     7
370
    25
100
AcDbLine
 10
59.2852931722656
 20
99.1171544546595
 30
0.0
 11
52.21422536040006
 21
103.199195013773
 31
0.0
  0
LINE
  5
96E
330
93F
100
AcDbEntity
  8
0
  6
Continuous
 62
     7
370
    25
100
AcDbLine
 10
0.8383960903572643
 20
6.047489853463958
 30
0.0
 11
4.020376605696697
 21
4.210571601862966
 31
0.0
  0
LINE
  5
96F
330
93F
100
AcDbEntity
  8
0
  6
Continuous
 62
     7
370
    25
100
AcDbLine
 10
17.97031867302155
 20
73.85506146956493
 30
0.0
 11
17.68747596054686
 21
74.01834309192952
 31
0.0
  0
ARC
  5
970
330
93F
100
AcDbEntity
  8
0
  6
Continuous
 62
     7
370
    25
100
AcDbCircle
 10
20.75790816328231
 20
73.8786213874082
 30
0.0
 40
3.073609615144576
100
AcDbArc
 50
122.60547834003
 51
177.3945215143432
  0
LINE
  5
971
330
93F
100
AcDbEntity
  8
0
  6
Continuous
 62
     7
370
    25
100
AcDbLine
 10
19.10168952291997
 20
76.4678328275237
 30
0.0
 11
19.38453223539454
 21
76.3045512051591
 31
0.0
  0
ARC
  5
972
330
93F
100
AcDbEntity
  8
0
  6
Continuous
 62
     7
370
    25
100
AcDbCircle
 10
21.04075087575654
 20
73.71533976504395
 30
0.0
 40
3.073609615144012
100
AcDbArc
 50
122.6054783400292
 51
177.3945215143491
  0
ARC
  5
973
330
93F
100
AcDbEntity
  8
0
  6
Continuous
 62
     7
370
    25
100
AcDbCircle
 10
49.40702901718817
 20
83.43661352351012
 30
0.0
 40
2.474932473253315
100
AcDbArc
 50
77.80220199858387
 51
124.0197579764075
  0
LINE
  5
974
330
93F
100
AcDbEntity
  8
0
  6
Continuous
 62
     7
370
    25
100
AcDbLine
 10
48.02235687344978
 20
85.48794816259726
 30
0.0
 11
19.38453223539454
 21
68.95568389818743
 31
0.0
  0
ARC
  5
975
330
93F
100
AcDbEntity
  8
0
  6
Continuous
 62
     7
370
    25
100
AcDbCircle
 10
18.83246740787479
 20
69.6325030163348
 30
0.0
 40
0.8734183948569022
100
AcDbArc
 50
170.7859630095319
 51
309.2032852357088
  0
LINE
  5
976
330
93F
100
AcDbEntity
  8
0
  6
Continuous
 62
     7
370
    25
100
AcDbLine
 10
17.97031867302155
 20
69.77235741013624
 30
0.0
 11
17.97031867302155
 21
73.85506146956493
 31
0.0
  0
LINE
  5
977
330
93F
100
AcDbEntity
  8
0
  6
Continuous
 62
     7
370
    25
100
AcDbLine
 10
19.38453223539454
 20
76.3045512051591
 30
0.0
 11
56.50763824768819
 21
97.73526414050525
 31
0.0
  0
ARC
  5
978
330
93F
100
AcDbEntity
  8
0
  6
Continuous
 62
     7
370
    25
100
AcDbCircle
 10
57.74004939836084
 20
96.19556376310834
 30
0.0
 40
1.972185208457479
100
AcDbArc
 50
351.3146750032956
 51
128.6745732419585
  0
LINE
  5
979
330
93F
100
AcDbEntity
  8
0
  6
Continuous
 62
     7
370
    25
100
AcDbLine
 10
59.68961876302774
 20
95.89774873862052
 30
0.0
 11
59.68961876302774
 21
91.4898084350931
 31
0.0
  0
LINE
  5
97A
330
93F
100
AcDbEntity
  8
0
  6
Continuous
 62
     7
370
    25
100
AcDbLine
 10
24.86573039686073
 20
10.87935135287648
 30
0.0
 11
19.38453223539454
 21
7.71512300675613
 31
0.0
  0
ARC
  5
97B
330
93F
100
AcDbEntity
  8
0
  6
Continuous
 62
     7
370
    25
100
AcDbCircle
 10
18.83246740787479
 20
8.39194212490338
 30
0.0
 40
0.8734183948569204
100
AcDbArc
 50
170.7859630095245
 51
309.2032852357136
  0
LINE
  5
97C
330
93F
100
AcDbEntity
  8
0
  6
Continuous
 62
     7
370
    25
100
AcDbLine
 10
17.97031867302155
 20
8.531796518704937
 30
0.0
 11
17.97031867302155
 21
12.61450057813363
 31
0.0
  0
ARC
  5
97D
330
93F
100
AcDbEntity
  8
0
  6
Continuous
 62
     7
370
    25
100
AcDbCircle
 10
21.04358068246597
 20
12.47088930258406
 30
0.0
 40
3.076615604387275
100
AcDbArc
 50
140.0344328148685
 51
177.3245565778041
  0
LINE
  5
97E
330
93F
100
AcDbEntity
  8
0
  6
Continuous
 62
     7
370
    25
100
AcDbLine
 10
17.68747596054686
 20
69.93563903250072
 30
0.0
 11
17.97031867302155
 21
69.77235741013624
 31
0.0
  0
LINE
  5
97F
330
93F
100
AcDbEntity
  8
0
  6
Continuous
 62
     7
370
    25
100
AcDbLine
 10
17.68747596054686
 20
69.93563903250072
 30
0.0
 11
17.68747596054686
 21
74.01834309192952
 31
0.0
  0
LINE
  5
980
330
93F
100
AcDbEntity
  8
0
  6
Continuous
 62
     7
370
    25
100
AcDbLine
 10
56.50763824768819
 20
97.73526414050525
 30
0.0
 11
56.22479553521362
 21
97.89854576286984
 31
0.0
  0
LINE
  5
981
330
93F
100
AcDbEntity
  8
0
  6
Continuous
 62
     7
370
    25
100
AcDbLine
 10
19.10168952291997
 20
76.4678328275237
 30
0.0
 11
56.22479553521362
 21
97.89854576286984
 31
0.0
  0
ARC
  5
982
330
93F
100
AcDbEntity
  8
0
  6
Continuous
 62
     7
370
    25
100
AcDbCircle
 10
18.66747976562567
 20
69.82746555796427
 30
0.0
 40
0.9859558603518874
100
AcDbArc
 50
173.7011524935431
 51
234.9866671130935
  0
ARC
  5
983
330
93F
100
AcDbEntity
  8
0
  6
Continuous
 62
     7
370
    25
100
AcDbCircle
 10
57.53601775316849
 20
96.12844182036679
 30
0.0
 40
2.202855345256191
100
AcDbArc
 50
64.78089010125647
 51
126.5295683278364
  0
LINE
  5
984
330
93F
100
AcDbEntity
  8
0
  6
Continuous
 62
     7
370
    25
100
AcDbLine
 10
17.97031867302155
 20
12.61450057813363
 30
0.0
 11
17.68747596054686
 21
12.77778220049822
 31
0.0
  0
ARC
  5
985
330
93F
100
AcDbEntity
  8
0
  6
Continuous
 62
     7
370
    25
100
AcDbCircle
 10
20.76073796999367
 20
12.63417092494763
 30
0.0
 40
3.076615604389716
100
AcDbArc
 50
140.0344328148811
 51
177.3245565777871
  0
LINE
  5
986
330
93F
100
AcDbEntity
  8
0
  6
Continuous
 62
     7
370
    25
100
AcDbLine
 10
17.68747596054686
 20
8.69507814106953
 30
0.0
 11
17.97031867302155
 21
8.531796518704937
 31
0.0
  0
LINE
  5
987
330
93F
100
AcDbEntity
  8
0
  6
Continuous
 62
     7
370
    25
100
AcDbLine
 10
17.68747596054686
 20
8.69507814106953
 30
0.0
 11
17.68747596054686
 21
12.77778220049822
 31
0.0
  0
ARC
  5
988
330
93F
100
AcDbEntity
  8
0
  6
Continuous
 62
     7
370
    25
100
AcDbCircle
 10
18.66747976515455
 20
8.586904666319924
 30
0.0
 40
0.9859558599070003
100
AcDbArc
 50
173.7011524782269
 51
234.9866671284088
  0
ARC
  5
989
330
93F
100
AcDbEntity
  8
0
  6
Continuous
 62
     7
370
    25
100
AcDbCircle
 10
22.99055593403375
 20
18.77053585644308
 30
0.0
 40
1.745369412719005
100
AcDbArc
 50
231.1098228255195
 51
7.057717590674292
  0
LWPOLYLINE
  5
98A
330
93F
100
AcDbEntity
  8
0
  6
Continuous
 62
     7
370
    25
100
AcDbPolyline
 90
       19
 70
   128
 43
0.0
 10
21.84268459106602
 20
23.97386227139498
 10
21.40361009275864
 20
24.17826788364016
 10
20.92738225804112
 20
24.30583497399664
 10
20.48054774625746
 20
24.3231778902724
 10
20.07668339793895
 20
24.22976967673196
 10
19.72806042694413
 20
24.02844849467738
 10
19.44527156583501
 20
23.72533138635163
 10
19.23690921105811
 20
23.32962841170649
 10
19.109304347327
 20
22.85336280539138
 10
19.06633418385513
 20
22.31100565685222
 10
19.10930434731529
 20
21.71903621360116
 10
19.23690921103491
 20
21.09544116762049
 10
19.44527156580114
 20
20.45916813882809
 10
19.7280604269007
 20
19.82954996123408
 10
20.07668339788711
 20
19.22571726456238
 10
20.48054774619891
 20
18.66601719974756
 10
20.92738225797746
 20
18.16745597003683
 10
21.40361009269202
 20
17.74518210611086
 10
21.89476130856735
 20
17.41202618564421
  0
LINE
  5
98B
330
93F
100
AcDbEntity
  8
0
  6
Continuous
 62
     7
370
    25
100
AcDbLine
 10
24.24815216447189
 20
17.41809601160367
 30
0.0
 11
24.34823369308572
 21
17.48196662693806
 31
0.0
  0
LINE
  5
98C
330
93F
100
AcDbEntity
  8
0
  6
Continuous
 62
     7
370
    25
100
AcDbLine
 10
20.35383670965155
 20
24.40121486268356
 30
0.0
 11
20.2484772339277
 21
24.34648691064911
 31
0.0
  0
LINE
  5
98D
330
93F
100
AcDbEntity
  8
0
  6
Continuous
 62
     7
370
    25
100
AcDbLine
 10
21.61191859612313
 20
20.51485473078378
 30
0.0
 11
21.6119185961079
 21
19.03351988229281
 31
0.0
  0
ARC
  5
98E
330
93F
100
AcDbEntity
  8
0
  6
Continuous
 62
     7
370
    25
100
AcDbCircle
 10
22.93829855718616
 20
20.67789365727936
 30
0.0
 40
2.112640270612472
100
AcDbArc
 50
231.1097597485895
 51
248.8956167828976
  0
LINE
  5
98F
330
93F
100
AcDbEntity
  8
0
  6
Continuous
 62
     7
370
    25
100
AcDbLine
 10
22.17760402105705
 20
18.70695663755578
 30
0.0
 11
22.17760402107251
 21
20.18829148604686
 31
0.0
  0
LINE
  5
990
330
93F
100
AcDbEntity
  8
0
  6
Continuous
 62
     7
370
    25
100
AcDbLine
 10
22.17760402107251
 20
20.18829148604686
 30
0.0
 11
23.46040813978288
 21
19.44774443128495
 31
0.0
  0
ARC
  5
991
330
93F
100
AcDbEntity
  8
0
  6
Continuous
 62
     7
370
    25
100
AcDbCircle
 10
21.3726505684042
 20
19.77436075605908
 30
0.0
 40
2.113151651079023
100
AcDbArc
 50
351.1085126792358
 51
8.891487319566187
  0
LINE
  5
992
330
93F
100
AcDbEntity
  8
0
  6
Continuous
 62
     7
370
    25
100
AcDbLine
 10
23.46040813978971
 20
20.10097708078956
 30
0.0
 11
22.17760402107933
 21
20.84152413555159
 31
0.0
  0
LINE
  5
993
330
93F
100
AcDbEntity
  8
0
  6
Continuous
 62
     7
370
    25
100
AcDbLine
 10
22.17760402107933
 20
20.84152413555159
 30
0.0
 11
22.17760402109457
 21
22.32285898404268
 31
0.0
  0
ARC
  5
994
330
93F
100
AcDbEntity
  8
0
  6
Continuous
 62
     7
370
    25
100
AcDbCircle
 10
20.8512240600121
 20
20.67848520904818
 30
0.0
 40
2.112640270621346
100
AcDbArc
 50
51.10975974863619
 51
68.8956167828649
  0
LINE
  5
995
330
93F
100
AcDbEntity
  8
0
  6
Continuous
 62
     7
370
    25
100
AcDbLine
 10
21.61191859614541
 20
22.6494222287796
 30
0.0
 11
21.61191859612995
 21
21.16808738028851
 31
0.0
  0
LINE
  5
996
330
93F
100
AcDbEntity
  8
0
  6
Continuous
 62
     7
370
    25
100
AcDbLine
 10
21.61191859612995
 20
21.16808738028851
 30
0.0
 11
20.32911447741947
 21
21.90863443505054
 31
0.0
  0
ARC
  5
997
330
93F
100
AcDbEntity
  8
0
  6
Continuous
 62
     7
370
    25
100
AcDbCircle
 10
22.4168720488052
 20
21.58201811027675
 30
0.0
 40
2.113151651085935
100
AcDbArc
 50
171.1085126792744
 51
188.8914873195493
  0
LINE
  5
998
330
93F
100
AcDbEntity
  8
0
  6
Continuous
 62
     7
370
    25
100
AcDbLine
 10
20.32911447741276
 20
21.25540178554581
 30
0.0
 11
21.61191859612313
 21
20.51485473078378
 31
0.0
  0
LINE
  5
999
330
93F
100
AcDbEntity
  8
0
  6
Continuous
 62
     7
370
    25
100
AcDbLine
 10
22.67257876789722
 20
20.55578129641412
 30
0.0
 11
22.67257876789631
 21
20.47403432518092
 31
0.0
  0
LINE
  5
99A
330
93F
100
AcDbEntity
  8
0
  6
Continuous
 62
     7
370
    25
100
AcDbLine
 10
22.10680139570411
 20
21.45377713940513
 30
0.0
 11
22.17760402108513
 21
21.41290365378836
 31
0.0
  0
LINE
  5
99B
330
93F
100
AcDbEntity
  8
0
  6
Continuous
 62
     7
370
    25
100
AcDbLine
 10
22.74338139327813
 20
20.51490781079724
 30
0.0
 11
22.17760402107251
 21
20.18829148604686
 31
0.0
  0
LINE
  5
99C
330
93F
100
AcDbEntity
  8
0
  6
Continuous
 62
     7
370
    25
100
AcDbLine
 10
22.17760402108593
 20
21.49465062502145
 30
0.0
 11
21.61191859612995
 21
21.16808738028851
 31
0.0
  0
LINE
  5
99D
330
93F
100
AcDbEntity
  8
0
  6
Continuous
 62
     7
370
    25
100
AcDbLine
 10
21.10525791809505
 20
21.46057636392209
 30
0.0
 11
20.32911447741276
 21
21.25540178554581
 31
0.0
  0
LINE
  5
99E
330
93F
100
AcDbEntity
  8
0
  6
Continuous
 62
     7
370
    25
100
AcDbLine
 10
22.17769596832886
 20
20.84147105553416
 30
0.0
 11
21.61191859612313
 21
20.51485473078378
 31
0.0
  0
LINE
  5
99F
330
93F
100
AcDbEntity
  8
0
  6
Continuous
 62
     7
370
    25
100
AcDbLine
 10
22.17760402106637
 20
19.6029666197727
 30
0.0
 11
21.6119185961079
 21
19.03351988229281
 31
0.0
  0
ARC
  5
9A0
330
93F
100
AcDbEntity
  8
0
  6
Continuous
 62
     7
370
    25
100
AcDbCircle
 10
22.99055593416961
 20
55.51487238742186
 30
0.0
 40
1.74536940978438
100
AcDbArc
 50
231.1098227420836
 51
7.057716951165219
  0
LWPOLYLINE
  5
9A1
330
93F
100
AcDbEntity
  8
0
  6
Continuous
 62
     7
370
    25
100
AcDbPolyline
 90
       19
 70
   128
 43
0.0
 10
21.84268457963594
 20
60.7181988126091
 10
21.40361009275864
 20
60.92260441849885
 10
20.92738225804112
 20
61.05017150885544
 10
20.48054774625746
 20
61.06751442513109
 10
20.07668339793895
 20
60.97410621159088
 10
19.72806042694413
 20
60.77278502953607
 10
19.44527156583501
 20
60.46966792121032
 10
19.23690921105811
 20
60.0739649465653
 10
19.109304347327
 20
59.59769934025019
 10
19.06633418385513
 20
59.05534219171091
 10
19.10930434731529
 20
58.46337274845985
 10
19.23690921103491
 20
57.8397777024793
 10
19.44527156580114
 20
57.20350467368678
 10
19.7280604269007
 20
56.57388649609277
 10
20.07668339788711
 20
55.97005379942118
 10
20.48054774619891
 20
55.41035373460625
 10
20.92738225797746
 20
54.91179250489552
 10
21.40361009269202
 20
54.48951864096955
 10
21.89476130856735
 20
54.15636272050301
  0
LINE
  5
9A2
330
93F
100
AcDbEntity
  8
0
  6
Continuous
 62
     7
370
    25
100
AcDbLine
 10
21.61191859612313
 20
57.25919126564258
 30
0.0
 11
21.6119185961079
 21
55.7778564171515
 31
0.0
  0
ARC
  5
9A3
330
93F
100
AcDbEntity
  8
0
  6
Continuous
 62
     7
370
    25
100
AcDbCircle
 10
22.93829855718627
 20
57.42223019213907
 30
0.0
 40
2.112640270613362
100
AcDbArc
 50
231.1097597486045
 51
248.8956167829036
  0
LINE
  5
9A4
330
93F
100
AcDbEntity
  8
0
  6
Continuous
 62
     7
370
    25
100
AcDbLine
 10
22.17760402105705
 20
55.45129317241458
 30
0.0
 11
22.17760402107251
 21
56.93262802090555
 31
0.0
  0
LINE
  5
9A5
330
93F
100
AcDbEntity
  8
0
  6
Continuous
 62
     7
370
    25
100
AcDbLine
 10
22.17760402107251
 20
56.93262802090555
 30
0.0
 11
23.46040813978288
 21
56.19208096614364
 31
0.0
  0
ARC
  5
9A6
330
93F
100
AcDbEntity
  8
0
  6
Continuous
 62
     7
370
    25
100
AcDbCircle
 10
21.37265056840374
 20
56.51869729091766
 30
0.0
 40
2.113151651079482
100
AcDbArc
 50
351.1085126792408
 51
8.891487319567327
  0
LINE
  5
9A7
330
93F
100
AcDbEntity
  8
0
  6
Continuous
 62
     7
370
    25
100
AcDbLine
 10
23.46040813978971
 20
56.84531361564825
 30
0.0
 11
22.17760402107933
 21
57.58586067041028
 31
0.0
  0
LINE
  5
9A8
330
93F
100
AcDbEntity
  8
0
  6
Continuous
 62
     7
370
    25
100
AcDbLine
 10
22.17760402107933
 20
57.58586067041028
 30
0.0
 11
22.17760402109457
 21
59.06719551890137
 31
0.0
  0
ARC
  5
9A9
330
93F
100
AcDbEntity
  8
0
  6
Continuous
 62
     7
370
    25
100
AcDbCircle
 10
20.85122406001028
 20
57.42282174390471
 30
0.0
 40
2.112640270624123
100
AcDbArc
 50
51.10975974863458
 51
68.89561678284109
  0
LINE
  5
9AA
330
93F
100
AcDbEntity
  8
0
  6
Continuous
 62
     7
370
    25
100
AcDbLine
 10
21.61191859614541
 20
59.3937587636384
 30
0.0
 11
21.61191859612995
 21
57.91242391514731
 31
0.0
  0
LINE
  5
9AB
330
93F
100
AcDbEntity
  8
0
  6
Continuous
 62
     7
370
    25
100
AcDbLine
 10
21.61191859612995
 20
57.91242391514731
 30
0.0
 11
20.32911447741947
 21
58.65297096990923
 31
0.0
  0
ARC
  5
9AC
330
93F
100
AcDbEntity
  8
0
  6
Continuous
 62
     7
370
    25
100
AcDbCircle
 10
22.41687204880463
 20
58.32635464513544
 30
0.0
 40
2.113151651085373
100
AcDbArc
 50
171.1085126792721
 51
188.8914873195486
  0
LINE
  5
9AD
330
93F
100
AcDbEntity
  8
0
  6
Continuous
 62
     7
370
    25
100
AcDbLine
 10
20.32911447741276
 20
57.99973832040462
 30
0.0
 11
21.61191859612313
 21
57.25919126564258
 31
0.0
  0
LINE
  5
9AE
330
93F
100
AcDbEntity
  8
0
  6
Continuous
 62
     7
370
    25
100
AcDbLine
 10
24.24815216447189
 20
54.16243254646247
 30
0.0
 11
24.36674285833624
 21
54.23954045413473
 31
0.0
  0
LINE
  5
9AF
330
93F
100
AcDbEntity
  8
0
  6
Continuous
 62
     7
370
    25
100
AcDbLine
 10
20.35383670957219
 20
61.14555139750553
 30
0.0
 11
20.2484772339277
 21
61.09082344550791
 31
0.0
  0
LINE
  5
9B0
330
93F
100
AcDbEntity
  8
0
  6
Continuous
 62
     7
370
    25
100
AcDbLine
 10
22.67257876789722
 20
57.30011783127293
 30
0.0
 11
22.67257876789631
 21
57.21837086003961
 31
0.0
  0
LINE
  5
9B1
330
93F
100
AcDbEntity
  8
0
  6
Continuous
 62
     7
370
    25
100
AcDbLine
 10
22.10680139570411
 20
58.19811367426394
 30
0.0
 11
22.17760402108513
 21
58.15724018864705
 31
0.0
  0
LINE
  5
9B2
330
93F
100
AcDbEntity
  8
0
  6
Continuous
 62
     7
370
    25
100
AcDbLine
 10
22.74338139327813
 20
57.25924434565604
 30
0.0
 11
22.17760402107251
 21
56.93262802090555
 31
0.0
  0
LINE
  5
9B3
330
93F
100
AcDbEntity
  8
0
  6
Continuous
 62
     7
370
    25
100
AcDbLine
 10
22.17760402108593
 20
58.23898715988025
 30
0.0
 11
21.61191859612995
 21
57.91242391514731
 31
0.0
  0
LINE
  5
9B4
330
93F
100
AcDbEntity
  8
0
  6
Continuous
 62
     7
370
    25
100
AcDbLine
 10
22.17769596832886
 20
57.58580759039296
 30
0.0
 11
21.61191859612313
 21
57.25919126564258
 31
0.0
  0
LINE
  5
9B5
330
93F
100
AcDbEntity
  8
0
  6
Continuous
 62
     7
370
    25
100
AcDbLine
 10
22.17760402106637
 20
56.34730315463139
 30
0.0
 11
21.6119185961079
 21
55.7778564171515
 31
0.0
  0
LINE
  5
9B6
330
93F
100
AcDbEntity
  8
0
  6
Continuous
 62
     7
370
    25
100
AcDbLine
 10
21.10525791809505
 20
58.20491289878078
 30
0.0
 11
20.32911447741276
 21
57.99973832040462
 31
0.0
  0
LWPOLYLINE
  5
9B7
330
93F
100
AcDbEntity
  8
0
  6
Continuous
 62
     7
370
    25
100
AcDbPolyline
 90
       42
 70
   128
 43
0.0
 10
8.77793051759636
 20
69.16008450128493
 10
8.211248961520596
 20
68.78270626281972
 10
7.657849940822189
 20
68.313693571459
 10
7.130704659507046
 20
67.76403968717159
 10
6.642168956181649
 20
67.14662803114004
 10
6.203693693668356
 20
66.47593020928798
 10
5.825556360485848
 20
65.76766681010247
 10
5.516620175229718
 20
65.03843892736404
 10
5.284126340240277
 20
64.30533904457945
 10
5.133524313957082
 20
63.58555040165436
 10
5.068344080231554
 20
62.89594423431436
 10
5.090113408498041
 20
62.25268432663904
 10
5.198322044153315
 20
61.67084814566226
 10
5.390433668490346
 20
61.16407343832464
 10
5.66194534786132
 20
60.74423857424392
 10
6.006493078624317
 20
60.42118412679861
 10
6.416000953995422
 20
60.2024822184286
 10
6.880870456458638
 20
60.09325903650301
 10
7.390205438881367
 20
60.09607467983278
 10
7.932067520968076
 20
60.2108631521246
 10
8.493755914775306
 20
60.43493390887841
 10
9.062105120417641
 20
60.76303492146917
 10
9.623793514224872
 20
61.1874757802475
 10
10.16565559631147
 20
61.698307951223
 10
10.67499057873408
 20
62.28355796126914
 10
11.13986008119741
 20
62.92950804618556
 10
11.5493679565684
 20
63.62101768346349
 10
11.8939156873314
 20
64.34187847330168
 10
12.16542736670249
 20
65.0751940497596
 10
12.35753899103963
 20
65.8037761172543
 10
12.46574762669468
 20
66.51054732964155
 10
12.48751695496139
 20
67.17894156873444
 10
12.42233672123587
 20
67.79329224007313
 10
12.27173469495244
 20
68.33919948462108
 10
12.039240859963
 20
68.80386769925553
 10
11.73030467470687
 20
69.17640545486006
 10
11.35216734152436
 20
69.44808078219148
 10
10.91369207901107
 20
69.61252584183876
 10
10.42515637568556
 20
69.66588618098069
 10
9.898011094370531
 20
69.60691107849391
 10
9.344612073672124
 20
69.43698286079587
 10
8.77793051759636
 20
69.16008450128493
  0
LWPOLYLINE
  5
9B8
330
93F
100
AcDbEntity
  8
0
  6
Continuous
 62
     7
370
    25
100
AcDbPolyline
 90
        3
 70
   128
 43
0.0
 10
5.01199981125535
 20
61.02797672613576
 10
5.157964941200476
 20
60.91102899389227
 10
5.304615707002881
 20
60.81633357847977
  0
LWPOLYLINE
  5
9B9
330
93F
100
AcDbEntity
  8
0
  6
Continuous
 62
     7
370
    25
100
AcDbPolyline
 90
        3
 70
   128
 43
0.0
 10
10.55418905334227
 20
69.90984663347695
 10
10.50363920410052
 20
69.93792564928515
 10
10.22457891477143
 20
70.05740692956124
  0
LWPOLYLINE
  5
9BA
330
93F
100
AcDbEntity
  8
0
  6
Continuous
 62
     7
370
    25
100
AcDbPolyline
 90
       42
 70
   128
 43
0.0
 10
11.39282191401617
 20
20.43322257237264
 10
10.95993497226993
 20
20.60859771630373
 10
10.47590369548755
 20
20.67315720742647
 10
9.952073366550508
 20
20.62538782598688
 10
9.400722124391336
 20
20.46640924579867
 10
8.834773174822658
 20
20.19994779003753
 10
8.26749188154622
 20
19.83224908938394
 10
7.71217483727105
 20
19.37193168973442
 10
7.181838202850031
 20
18.82978504078994
 10
6.68891261950148
 20
18.21851660049936
 10
6.244951845114883
 20
17.55245398301611
 10
5.860361943958196
 20
16.84720913156536
 10
5.544157377350984
 20
16.11931238772752
 10
5.303749712332205
 20
15.38582503424141
 10
5.144773900809696
 20
14.66393939299746
 10
5.070956201063836
 20
13.97057585158484
 10
5.084026837411784
 20
13.32198626374634
 10
5.183679445215716
 20
12.73337301970196
 10
5.367578251810301
 20
12.21853271500675
 10
5.631412825034431
 20
11.78953277004416
 10
5.96899910610739
 20
11.45642857992073
 10
6.37242435872588
 20
11.227027824527
 10
6.83223263689581
 20
11.10670746313815
 10
7.337646424292188
 20
11.09828770304648
 10
7.876819250107474
 20
11.20196589629222
 10
8.437113360286276
 20
11.41531191389925
 10
9.005395935769116
 20
11.73332510603871
 10
9.56834691464087
 20
12.14855151302197
 10
10.11277120309171
 20
12.65125857979922
 10
10.62590795723293
 20
13.22966327879999
 10
11.09572968646216
 20
13.87020829411256
 10
11.51122416764872
 20
14.55787979347895
 10
11.86265256231025
 20
15.27655933979736
 10
12.14177768673301
 20
16.0094016936265
 10
12.34205708457569
 20
16.73922965132101
 10
12.45879637650205
 20
17.44893666412622
 10
12.48925929245286
 20
18.1218878011814
 10
12.43273180749748
 20
18.74230965820129
 10
12.29053887797272
 20
19.29566007270228
 10
12.0660133856295
 20
19.76896897996664
 10
11.76441801770954
 20
20.151142420366
 10
11.39282191401617
 20
20.43322257237264
  0
LINE
  5
9BB
330
93F
100
AcDbEntity
  8
0
  6
Continuous
 62
     7
370
    25
100
AcDbLine
 10
10.54429377659233
 20
20.92306743946631
 30
0.0
 11
10.22457891480417
 21
21.06495821640544
 31
0.0
  0
LWPOLYLINE
  5
9BC
330
93F
100
AcDbEntity
  8
0
  6
Continuous
 62
     7
370
    25
100
AcDbPolyline
 90
        3
 70
   128
 43
0.0
 10
5.011999811216583
 20
12.0355280130251
 10
5.120470968683662
 20
11.94627344701439
 10
5.304615707002881
 20
11.82388486533478
  0
LWPOLYLINE
  5
9BD
330
93F
100
AcDbEntity
  8
0
  6
Continuous
 62
     7
370
    25
100
AcDbPolyline
 90
       19
 70
   128
 43
0.0
 10
53.25494705423182
 20
86.55053935860929
 10
53.53943557369416
 20
86.66553565151958
 10
53.87489809270164
 20
86.71742626074388
 10
54.22087288056207
 20
86.69995241298591
 10
54.53563027181588
 20
86.61522171217166
 10
54.7812058797532
 20
86.47345393131138
 10
54.92797966174703
 20
86.29174835704646
 10
54.95824853353849
 20
86.09202136332192
 10
54.86836162246846
 20
85.89836297323745
 10
54.66916061660163
 20
85.7341312467305
 10
54.38467209713929
 20
85.61913495382021
 10
54.04920957813192
 20
85.5672443445959
 10
53.70323479027127
 20
85.58471819235399
 10
53.38847739901757
 20
85.66944889316812
 10
53.14290179108013
 20
85.8112166740284
 10
52.99612800908642
 20
85.99292224829333
 10
52.96585913729496
 20
86.19264924201786
 10
53.05574604836511
 20
86.38630763210244
 10
53.25494705423182
 20
86.55053935860929
  0
LINE
  5
9BE
330
93F
100
AcDbEntity
  8
0
  6
Continuous
 62
     7
370
    25
100
AcDbLine
 10
53.12553753168709
 20
86.27173080343141
 30
0.0
 11
53.34968139969931
 21
85.78882022031974
 31
0.0
  0
LINE
  5
9BF
330
93F
100
AcDbEntity
  8
0
  6
Continuous
 62
     7
370
    25
100
AcDbLine
 10
53.34968139969931
 20
85.78882022031974
 30
0.0
 11
54.18619770342912
 21
85.65942471954259
 31
0.0
  0
LINE
  5
9C0
330
93F
100
AcDbEntity
  8
0
  6
Continuous
 62
     7
370
    25
100
AcDbLine
 10
54.18619770342912
 20
85.65942471954259
 30
0.0
 11
54.79857013914659
 21
86.01293980187722
 31
0.0
  0
LINE
  5
9C1
330
93F
100
AcDbEntity
  8
0
  6
Continuous
 62
     7
370
    25
100
AcDbLine
 10
54.79857013914659
 20
86.01293980187722
 30
0.0
 11
54.5744262711346
 21
86.49585038498901
 31
0.0
  0
LINE
  5
9C2
330
93F
100
AcDbEntity
  8
0
  6
Continuous
 62
     7
370
    25
100
AcDbLine
 10
53.73790996740445
 20
86.62524588576593
 30
0.0
 11
54.5744262711346
 21
86.49585038498901
 31
0.0
  0
LINE
  5
9C3
330
93F
100
AcDbEntity
  8
0
  6
Continuous
 62
     7
370
    25
100
AcDbLine
 10
53.73790996740445
 20
86.62524588576593
 30
0.0
 11
53.12553753168709
 21
86.27173080343141
 31
0.0
  0
LINE
  5
9C4
330
93F
100
AcDbEntity
  8
0
  6
Continuous
 62
     7
370
    25
100
AcDbLine
 10
54.5744262711346
 20
85.88354430114373
 30
0.0
 11
54.5744262711346
 21
86.49585038498901
 31
0.0
  0
LINE
  5
9C5
330
93F
100
AcDbEntity
  8
0
  6
Continuous
 62
     7
370
    25
100
AcDbLine
 10
53.73790996740445
 20
86.62524588576593
 30
0.0
 11
53.73790996740468
 21
85.728767559409
 31
0.0
  0
LINE
  5
9C6
330
93F
100
AcDbEntity
  8
0
  6
Continuous
 62
     7
370
    25
100
AcDbLine
 10
48.51325064828757
 20
76.87374733848173
 30
0.0
 11
39.81991821168583
 21
75.52902984895911
 31
0.0
  0
LINE
  5
9C7
330
93F
100
AcDbEntity
  8
0
  6
Continuous
 62
     7
370
    25
100
AcDbLine
 10
39.81991821168583
 20
75.52902984895911
 30
0.0
 11
29.21331649388765
 21
69.4059690102888
 31
0.0
  0
LINE
  5
9C8
330
93F
100
AcDbEntity
  8
0
  6
Continuous
 62
     7
370
    25
100
AcDbLine
 10
25.32422919736166
 20
71.65109131780116
 30
0.0
 11
29.21331649388765
 21
69.4059690102888
 31
0.0
  0
LINE
  5
9C9
330
93F
100
AcDbEntity
  8
0
  6
Continuous
 62
     7
370
    25
100
AcDbLine
 10
64.9222089438083
 20
94.51051844883705
 30
0.0
 11
25.32422919736166
 21
71.65109131780116
 31
0.0
  0
LINE
  5
9CA
330
93F
100
AcDbEntity
  8
0
  6
Continuous
 62
     7
370
    25
100
AcDbLine
 10
71.99327675567372
 20
90.42847788972358
 30
0.0
 11
64.9222089438083
 21
94.51051844883705
 31
0.0
  0
LINE
  5
9CB
330
93F
100
AcDbEntity
  8
0
  6
Continuous
 62
     7
370
    25
100
AcDbLine
 10
71.99327675567372
 20
90.42847788972358
 30
0.0
 11
48.51325064828757
 21
76.87374733848173
 31
0.0
  0
LWPOLYLINE
  5
9CC
330
93F
100
AcDbEntity
  8
0
  6
Continuous
 62
     7
370
    25
100
AcDbPolyline
 90
       21
 70
   128
 43
0.0
 10
53.07817035893368
 20
86.6525903725435
 10
53.39456571074231
 20
86.78529419990684
 10
53.76651075411644
 20
86.85506073064903
 10
54.15759691671713
 20
86.85506073064903
 10
54.52954196009125
 20
86.78529419990684
 10
54.84593731189989
 20
86.6525903725435
 10
55.07581199065214
 20
86.4699392237834
 10
55.19666426116066
 20
86.25521992067229
 10
55.19666426116066
 20
86.02945068463634
 10
55.07581199065214
 20
85.81473138152535
 10
54.84593731189989
 20
85.63208023276513
 10
54.52954196009125
 20
85.4993764054019
 10
54.15759691671713
 20
85.42960987465972
 10
53.76651075411644
 20
85.42960987465972
 10
53.39456571074231
 20
85.4993764054019
 10
53.07817035893368
 20
85.63208023276513
 10
52.84829568018131
 20
85.81473138152535
 10
52.7274434096729
 20
86.02945068463634
 10
52.7274434096729
 20
86.25521992067229
 10
52.84829568018131
 20
86.4699392237834
 10
53.07817035893368
 20
86.6525903725435
  0
LINE
  5
9CD
330
93F
100
AcDbEntity
  8
0
  6
Continuous
 62
     7
370
    25
100
AcDbLine
 10
39.81991821168583
 20
6.123060838670312
 30
0.0
 11
39.81991821168583
 21
75.52902984895911
 31
0.0
  0
LINE
  5
9CE
330
93F
100
AcDbEntity
  8
0
  6
Continuous
 62
     7
370
    25
100
AcDbLine
 10
39.81991821168583
 20
6.123060838670312
 30
0.0
 11
29.21331649388765
 21
0.0
 31
0.0
  0
LINE
  5
9CF
330
93F
100
AcDbEntity
  8
0
  6
Continuous
 62
     7
370
    25
100
AcDbLine
 10
29.21331649388765
 20
0.0
 30
0.0
 11
29.21331649388765
 21
8.042926997074687
 31
0.0
  0
LINE
  5
9D0
330
93F
100
AcDbEntity
  8
0
  6
Continuous
 62
     7
370
    25
100
AcDbLine
 10
29.21331649388765
 20
8.042926997074687
 30
0.0
 11
31.33463683744731
 21
9.267539164808795
 31
0.0
  0
LINE
  5
9D1
330
93F
100
AcDbEntity
  8
0
  6
Continuous
 62
     7
370
    25
100
AcDbLine
 10
31.33463683744731
 20
9.267539164808795
 30
0.0
 11
31.33463683744731
 21
62.58765418094822
 31
0.0
  0
LINE
  5
9D2
330
93F
100
AcDbEntity
  8
0
  6
Continuous
 62
     7
370
    25
100
AcDbLine
 10
31.33463683744731
 20
62.58765418094822
 30
0.0
 11
29.21331649388765
 21
61.36304201321411
 31
0.0
  0
LINE
  5
9D3
330
93F
100
AcDbEntity
  8
0
  6
Continuous
 62
     7
370
    25
100
AcDbLine
 10
29.21331649388765
 20
61.36304201321411
 30
0.0
 11
29.21331649388765
 21
69.4059690102888
 31
0.0
  0
LINE
  5
9D4
330
93F
100
AcDbEntity
  8
0
  6
Continuous
 62
     7
370
    25
100
AcDbLine
 10
25.32422919736166
 20
71.65109131780116
 30
0.0
 11
25.32422919736166
 21
63.60816432072659
 31
0.0
  0
LINE
  5
9D5
330
93F
100
AcDbEntity
  8
0
  6
Continuous
 62
     7
370
    25
100
AcDbLine
 10
25.32422919736166
 20
63.60816432072659
 30
0.0
 11
29.21331649388765
 21
61.36304201321411
 31
0.0
  0
LINE
  5
9D6
330
93F
100
AcDbEntity
  8
0
  6
Continuous
 62
     7
370
    25
100
AcDbLine
 10
48.51325064828757
 20
7.467778328193049
 30
0.0
 11
48.51325064828757
 21
76.87374733848173
 31
0.0
  0
LINE
  5
9D7
330
93F
100
AcDbEntity
  8
0
  6
Continuous
 62
     7
370
    25
100
AcDbLine
 10
48.51325064828757
 20
7.467778328193049
 30
0.0
 11
39.81991821168583
 21
6.123060838670312
 31
0.0
  0
LINE
  5
9D8
330
93F
100
AcDbEntity
  8
0
  6
Continuous
 62
     7
370
    25
100
AcDbLine
 10
30.69819476074781
 20
9.634949355141543
 30
0.0
 11
31.33463683744731
 21
9.267539164808795
 31
0.0
  0
ARC
  5
9D9
330
93F
100
AcDbEntity
  8
0
  6
Continuous
 62
     7
370
    25
100
AcDbCircle
 10
68.70679308084004
 20
26.18594743827418
 30
0.0
 40
6.120626822136646
100
AcDbArc
 50
302.4763978921782
 51
357.523601962199
  0
LINE
  5
9DA
330
93F
100
AcDbEntity
  8
0
  6
Continuous
 62
     7
370
    25
100
AcDbLine
 10
48.51325064828757
 20
7.467778328193049
 30
0.0
 11
71.99327675567372
 21
21.02250887943478
 31
0.0
  0
ARC
  5
9DB
330
93F
100
AcDbEntity
  8
0
  6
Continuous
 62
     7
370
    25
100
AcDbCircle
 10
73.08875333404922
 20
89.05985533203727
 30
0.0
 40
1.753053518628974
100
AcDbArc
 50
351.3146750032992
 51
128.6745732419509
  0
LINE
  5
9DC
330
93F
100
AcDbEntity
  8
0
  6
Continuous
 62
     7
370
    25
100
AcDbLine
 10
74.82170388041982
 20
25.92148835062324
 30
0.0
 11
74.82170388041993
 21
88.79513086582597
 31
0.0
  0
ARC
  5
9DD
330
93F
100
AcDbEntity
  8
0
  6
Continuous
 62
     7
370
    25
100
AcDbCircle
 10
66.08773980421267
 20
92.93709272216802
 30
0.0
 40
1.958093640227429
100
AcDbArc
 50
64.78089010125768
 51
126.5295683278433
  0
LINE
  5
9DE
330
93F
100
AcDbEntity
  8
0
  6
Continuous
 62
     7
370
    25
100
AcDbLine
 10
25.32422919736166
 20
10.28804930458716
 30
0.0
 11
29.21331649388765
 21
8.042926997074687
 31
0.0
  0
LINE
  5
9DF
330
93F
100
AcDbEntity
  8
0
  6
Continuous
 62
     7
370
    25
100
AcDbLine
 10
25.32422919736166
 20
10.28804930458716
 30
0.0
 11
25.60711788346782
 21
10.45135746696428
 31
0.0
  0
LINE
  5
9E0
330
93F
100
AcDbEntity
  8
0
  6
Continuous
 62
     7
370
    25
100
AcDbLine
 10
25.32422919736166
 20
2.245122307512474
 30
0.0
 11
29.21331649388765
 21
0.0
 31
0.0
  0
LINE
  5
9E1
330
93F
100
AcDbEntity
  8
0
  6
Continuous
 62
     7
370
    25
100
AcDbLine
 10
25.32422919736166
 20
10.28804930458716
 30
0.0
 11
25.32422919736166
 21
2.245122307512474
 31
0.0
  0
LINE
  5
9E2
330
93F
100
AcDbEntity
  8
0
  6
Continuous
 62
     7
370
    25
100
AcDbLine
 10
28.85976310329443
 20
61.2405277164155
 30
0.0
 11
14.71762747956336
 21
69.40460883464254
 31
0.0
  0
LINE
  5
9E3
330
93F
100
AcDbEntity
  8
0
  6
Continuous
 62
     7
370
    25
100
AcDbLine
 10
28.85976310329443
 20
8.57364534978467
 30
0.0
 11
28.85976310329443
 21
61.2405277164155
 31
0.0
  0
LINE
  5
9E4
330
93F
100
AcDbEntity
  8
0
  6
Continuous
 62
     7
370
    25
100
AcDbLine
 10
14.71762747956336
 20
16.73772646801172
 30
0.0
 11
28.85976310329443
 21
8.57364534978467
 31
0.0
  0
LINE
  5
9E5
330
93F
100
AcDbEntity
  8
0
  6
Continuous
 62
     7
370
    25
100
AcDbLine
 10
14.71762747956336
 20
69.40460883464254
 30
0.0
 11
14.71762747956336
 21
16.73772646801172
 31
0.0
  0
ARC
  5
9E6
330
93F
100
AcDbEntity
  8
0
  6
Continuous
 62
     7
370
    25
100
AcDbCircle
 10
17.34754316738292
 20
52.80554245986491
 30
0.0
 40
0.873418394856884
100
AcDbArc
 50
50.79671476428645
 51
189.2140369904608
  0
LINE
  5
9E7
330
93F
100
AcDbEntity
  8
0
  6
Continuous
 62
     7
370
    25
100
AcDbLine
 10
16.4853944325298
 20
31.43562695703406
 30
0.0
 11
16.4853944325298
 21
52.66568806606358
 31
0.0
  0
ARC
  5
9E8
330
93F
100
AcDbEntity
  8
0
  6
Continuous
 62
     7
370
    25
100
AcDbCircle
 10
19.55582663526502
 20
31.57534866155527
 30
0.0
 40
3.073609615144421
100
AcDbArc
 50
182.6054784856547
 51
237.3945216599707
  0
LINE
  5
9E9
330
93F
100
AcDbEntity
  8
0
  6
Continuous
 62
     7
370
    25
100
AcDbLine
 10
23.55646224439522
 20
25.72050477414905
 30
0.0
 11
17.89960799490279
 21
28.98613722143978
 31
0.0
  0
ARC
  5
9EA
330
93F
100
AcDbEntity
  8
0
  6
Continuous
 62
     7
370
    25
100
AcDbCircle
 10
24.10852707191532
 20
26.3973238922963
 30
0.0
 40
0.8734183948569204
100
AcDbArc
 50
230.7967147642702
 51
9.214036990475497
  0
LINE
  5
9EB
330
93F
100
AcDbEntity
  8
0
  6
Continuous
 62
     7
370
    25
100
AcDbLine
 10
24.97067580676833
 20
47.76723939512726
 30
0.0
 11
24.97067580676833
 21
26.53717828609786
 31
0.0
  0
ARC
  5
9EC
330
93F
100
AcDbEntity
  8
0
  6
Continuous
 62
     7
370
    25
100
AcDbCircle
 10
21.90024360403368
 20
47.62751769060628
 30
0.0
 40
3.073609615143879
100
AcDbArc
 50
2.605478485650979
 51
57.39452165997729
  0
LINE
  5
9ED
330
93F
100
AcDbEntity
  8
0
  6
Continuous
 62
     7
370
    25
100
AcDbLine
 10
17.89960799490279
 20
53.48236157801227
 30
0.0
 11
23.55646224439522
 21
50.21672913072143
 31
0.0
  0
LWPOLYLINE
  5
9EE
330
93F
100
AcDbEntity
  8
0
  6
Continuous
 62
     7
370
    25
100
AcDbPolyline
 90
       38
 70
   128
 43
0.0
 10
24.7231884333529
 20
55.66724852761092
 10
24.68097842091538
 20
56.26429952731314
 10
24.55556268880923
 20
56.89290909981617
 10
24.35054921930328
 20
57.53499329222575
 10
24.07183587664792
 20
58.17208051136583
 10
23.72744073625961
 20
58.78584291788377
 10
23.32727141928831
 20
59.35862368481833
 10
22.88284006839706
 20
59.87394495236401
 10
22.40693216437683
 20
60.31698186589676
 10
21.91323871114298
 20
60.67498906004948
 10
21.41596237047941
 20
60.93766731966855
 10
20.92940887731856
 20
61.09745986948155
 10
20.46757548979292
 20
61.14976976876414
 10
20.04374831360349
 20
61.09309215695441
 10
19.67012008494896
 20
60.92905754575122
 10
19.35743940770487
 20
60.66238491226193
 10
19.11470153565904
 20
60.3007459426226
 10
18.94888959543857
 20
59.85454433155496
 10
18.86477369467048
 20
59.33661648701252
 10
18.86477369467048
 20
58.76186225009371
 10
18.94888959543857
 20
58.14681625374237
 10
19.11470153565904
 20
57.50917225146213
 10
19.35743940770487
 20
56.86727410024298
 10
19.67012008494919
 20
56.23958804119457
 10
20.04374831360349
 20
55.64417145941047
 10
20.46757548979292
 20
55.09815340587647
 10
20.92940887731879
 20
54.61724182586022
 10
21.41596237047963
 20
54.21527166992519
 10
21.91323871114298
 20
53.90380688759228
 10
22.40693216437683
 20
53.69180775356699
 10
22.88284006839729
 20
53.5853730969493
 10
23.32727141928831
 20
53.58756484902483
 10
23.72744073625961
 20
53.69831995707705
 10
24.07183587664792
 20
53.91445219829848
 10
24.35054921930328
 20
54.22974384162046
 10
24.55556268880923
 20
54.63512452051418
 10
24.68097842091538
 20
55.11893217092313
 10
24.7231884333529
 20
55.66724852761092
  0
LWPOLYLINE
  5
9EF
330
93F
100
AcDbEntity
  8
0
  6
Continuous
 62
     7
370
    25
100
AcDbPolyline
 90
       38
 70
   128
 43
0.0
 10
24.7231884333529
 20
18.92291199275223
 10
24.68097842091538
 20
19.51996299245445
 10
24.55556268880923
 20
20.14857256495748
 10
24.35054921930328
 20
20.79065675736695
 10
24.07183587664792
 20
21.42774397650714
 10
23.72744073625961
 20
22.04150638302497
 10
23.32727141928831
 20
22.61428714995952
 10
22.88284006839706
 20
23.12960841750532
 10
22.40693216437683
 20
23.57264533103807
 10
21.91323871114298
 20
23.93065252519079
 10
21.41596237047941
 20
24.19333078480975
 10
20.92940887731856
 20
24.35312333462286
 10
20.46757548979292
 20
24.40543323390546
 10
20.04374831360349
 20
24.34875562209561
 10
19.67012008494896
 20
24.18472101089242
 10
19.35743940770487
 20
23.91804837740324
 10
19.11470153565904
 20
23.55640940776379
 10
18.94888959543857
 20
23.11020779669616
 10
18.86477369467048
 20
22.59227995215372
 10
18.86477369467048
 20
22.01752571523502
 10
18.94888959543857
 20
21.40247971888357
 10
19.11470153565904
 20
20.76483571660333
 10
19.35743940770487
 20
20.12293756538418
 10
19.67012008494919
 20
19.49525150633576
 10
20.04374831360349
 20
18.89983492455178
 10
20.46757548979292
 20
18.35381687101767
 10
20.92940887731879
 20
17.87290529100142
 10
21.41596237047963
 20
17.47093513506638
 10
21.91323871114298
 20
17.15947035273359
 10
22.40693216437683
 20
16.9474712187083
 10
22.88284006839729
 20
16.84103656209049
 10
23.32727141928831
 20
16.84322831416603
 10
23.72744073625961
 20
16.95398342221836
 10
24.07183587664792
 20
17.17011566343979
 10
24.35054921930328
 20
17.48540730676166
 10
24.55556268880923
 20
17.89078798565549
 10
24.68097842091538
 20
18.37459563606433
 10
24.7231884333529
 20
18.92291199275223
  0
LINE
  5
9F0
330
93F
100
AcDbEntity
  8
0
  6
Continuous
 62
     7
370
    25
100
AcDbLine
 10
14.89443290837983
 20
69.50667643612837
 30
0.0
 11
14.71762747956336
 21
69.40460883464254
 31
0.0
  0
LINE
  5
9F1
330
93F
100
AcDbEntity
  8
0
  6
Continuous
 62
     7
370
    25
100
AcDbLine
 10
25.32422919736166
 20
65.73077233144033
 30
0.0
 11
19.63199087529006
 21
69.01683156903471
 31
0.0
  0
LINE
  5
9F2
330
93F
100
AcDbEntity
  8
0
  6
Continuous
 62
     7
370
    25
100
AcDbLine
 10
29.14265178940059
 20
61.40383587879273
 30
0.0
 11
28.85976310329443
 21
61.2405277164155
 31
0.0
  0
LINE
  5
9F3
330
93F
100
AcDbEntity
  8
0
  6
Continuous
 62
     7
370
    25
100
AcDbLine
 10
30.98108344685409
 20
9.798257517518664
 30
0.0
 11
30.98108344685409
 21
62.38355215299259
 31
0.0
  0
LINE
  5
9F4
330
93F
100
AcDbEntity
  8
0
  6
Continuous
 62
     7
370
    25
100
AcDbLine
 10
30.98108344685409
 20
9.798257517518664
 30
0.0
 11
28.85976310329443
 21
8.57364534978467
 31
0.0
  0
ARC
  5
9F5
330
93F
100
AcDbEntity
  8
0
  6
Continuous
 62
     7
370
    25
100
AcDbCircle
 10
20.93969514761022
 20
59.7731385758949
 30
0.0
 40
1.643415613782593
100
AcDbArc
 50
129.3272408925754
 51
153.967059274818
  0
LWPOLYLINE
  5
9F6
330
93F
100
AcDbEntity
  8
0
  6
Continuous
 62
     7
370
    25
100
AcDbPolyline
 90
        3
 70
   128
 43
0.0
 10
23.33888038425823
 20
53.78049460315196
 10
23.68082480988141
 20
53.79166687698034
 10
24.03276136443378
 20
53.88230812452036
  0
LINE
  5
9F7
330
93F
100
AcDbEntity
  8
0
  6
Continuous
 62
     7
370
    25
100
AcDbLine
 10
16.4853944325298
 20
31.43562695703406
 30
0.0
 11
18.60671477608946
 21
32.66023912476817
 31
0.0
  0
LINE
  5
9F8
330
93F
100
AcDbEntity
  8
0
  6
Continuous
 62
     7
370
    25
100
AcDbLine
 10
18.60671477608946
 20
32.66023912476817
 30
0.0
 11
18.60671477608946
 21
53.07415752210102
 31
0.0
  0
LINE
  5
9F9
330
93F
100
AcDbEntity
  8
0
  6
Continuous
 62
     7
370
    25
100
AcDbLine
 10
20.02092833846257
 20
30.21074938917388
 30
0.0
 11
17.89960799490279
 21
28.98613722143978
 31
0.0
  0
LINE
  5
9FA
330
93F
100
AcDbEntity
  8
0
  6
Continuous
 62
     7
370
    25
100
AcDbLine
 10
24.97067580676833
 20
27.35332099779441
 30
0.0
 11
20.02092833846257
 21
30.21074938917388
 31
0.0
  0
ARC
  5
9FB
330
93F
100
AcDbEntity
  8
0
  6
Continuous
 62
     7
370
    25
100
AcDbCircle
 10
20.939695147419
 20
23.02880204119617
 30
0.0
 40
1.643415613534351
100
AcDbArc
 50
129.3272408838325
 51
153.9670592489718
  0
LWPOLYLINE
  5
9FC
330
93F
100
AcDbEntity
  8
0
  6
Continuous
 62
     7
370
    25
100
AcDbPolyline
 90
        3
 70
   128
 43
0.0
 10
23.33888038536691
 20
17.03615806822506
 10
23.68082480988141
 20
17.04733034212165
 10
24.03276136473983
 20
17.13797158978264
  0
ARC
  5
9FD
330
93F
100
AcDbEntity
  8
0
  6
Continuous
 62
     7
370
    25
100
AcDbCircle
 10
21.67714697882434
 20
32.79996082928915
 30
0.0
 40
3.073609615143993
100
AcDbArc
 50
182.6054784856508
 51
237.3945216599784
  0
LINE
  5
9FE
330
93F
100
AcDbEntity
  8
0
  6
Continuous
 62
     7
370
    25
100
AcDbLine
 10
57.2854557069935
 20
98.91912225267981
 30
0.0
 11
50.21438789512808
 21
103.0011628117933
 31
0.0
  0
LINE
  5
9FF
330
93F
100
AcDbEntity
  8
0
  6
Continuous
 62
     7
370
    25
100
AcDbLine
 10
17.68747596054686
 20
76.05969512164393
 30
0.0
 11
57.2854557069935
 21
98.91912225267981
 31
0.0
  0
LINE
  5
A00
330
93F
100
AcDbEntity
  8
0
  6
Continuous
 62
     7
370
    25
100
AcDbLine
 10
13.79838866402076
 20
78.30481742915629
 30
0.0
 11
17.68747596054686
 21
76.05969512164393
 31
0.0
  0
LINE
  5
A01
330
93F
100
AcDbEntity
  8
0
  6
Continuous
 62
     7
370
    25
100
AcDbLine
 10
6.020214070968905
 20
73.81457281413134
 30
0.0
 11
13.79838866402076
 21
78.30481742915629
 31
0.0
  0
LINE
  5
A02
330
93F
100
AcDbEntity
  8
0
  6
Continuous
 62
     7
370
    25
100
AcDbLine
 10
2.838233555629358
 20
75.65149106573244
 30
0.0
 11
6.020214070968905
 21
73.81457281413134
 31
0.0
  0
LINE
  5
A03
330
93F
100
AcDbEntity
  8
0
  6
Continuous
 62
     7
370
    25
100
AcDbLine
 10
50.21438789512808
 20
103.0011628117933
 30
0.0
 11
2.838233555629358
 21
75.65149106573244
 31
0.0
  0
LINE
  5
A04
330
93F
100
AcDbEntity
  8
0
  6
Continuous
 62
     7
370
    25
100
AcDbLine
 10
13.79838866402076
 20
8.898848418867487
 30
0.0
 11
13.79838866402076
 21
78.30481742915629
 31
0.0
  0
LINE
  5
A05
330
93F
100
AcDbEntity
  8
0
  6
Continuous
 62
     7
370
    25
100
AcDbLine
 10
6.020214070968905
 20
4.408603803842652
 30
0.0
 11
13.79838866402076
 21
8.898848418867601
 31
0.0
  0
ARC
  5
A06
330
93F
100
AcDbEntity
  8
0
  6
Continuous
 62
     7
370
    25
100
AcDbCircle
 10
4.924737492593408
 20
5.777226361528847
 30
0.0
 40
1.753053518628878
100
AcDbArc
 50
171.3146750032949
 51
308.6745732419555
  0
LINE
  5
A07
330
93F
100
AcDbEntity
  8
0
  6
Continuous
 62
     7
370
    25
100
AcDbLine
 10
3.191786946222692
 20
6.041950827740266
 30
0.0
 11
3.191786946222692
 21
68.915593342943
 31
0.0
  0
ARC
  5
A08
330
93F
100
AcDbEntity
  8
0
  6
Continuous
 62
     7
370
    25
100
AcDbCircle
 10
9.306697745802012
 20
68.65113425529216
 30
0.0
 40
6.120626822136088
100
AcDbArc
 50
122.476397892174
 51
177.5236019621988
  0
LWPOLYLINE
  5
A09
330
93F
100
AcDbEntity
  8
0
  6
Continuous
 62
     7
370
    25
100
AcDbPolyline
 90
       30
 70
   128
 43
0.0
 10
12.23164297587743
 20
19.44655388943897
 10
12.11533707564342
 20
19.77474077824536
 10
11.86313620144858
 20
20.23389833369902
 10
11.5356986916122
 20
20.59946222967596
 10
11.14033895902992
 20
20.86326637281616
 10
10.68588868681525
 20
21.01941781448522
 10
10.18249954309306
 20
21.06442838950852
 10
9.641416409508452
 20
20.99729263601796
 10
9.074726189153012
 20
20.81951025580793
 10
8.495087805121784
 20
20.53505261347584
 10
7.915449421090443
 20
20.15027402269936
 10
7.348759200735003
 20
19.67376980136873
 10
6.80767606715051
 20
19.11618426638904
 10
6.304286923428208
 20
18.4899729572295
 10
5.849836651213536
 20
17.8091243997535
 10
5.454476918631258
 20
17.08884762566697
 10
5.127039408794872
 20
16.34523242788111
 10
4.87483853460003
 20
15.59488994112758
 10
4.703508046826755
 20
14.85458157665676
 10
4.616875185456934
 20
14.14084460000811
 10
4.616875185456934
 20
13.46962271582515
 10
4.703508046826869
 20
12.85590991183983
 10
4.87483853460003
 20
12.31341551796322
 10
5.127039408794872
 20
11.85425796250956
 10
5.454476918631258
 20
11.48869406653262
 10
5.849836651213536
 20
11.22488992339231
 10
6.304286923428208
 20
11.06873848172336
 10
6.80767606715051
 20
11.02372790670006
 10
7.348759200735117
 20
11.09086366019062
 10
7.41719826406586
 20
11.10678740787364
  0
LWPOLYLINE
  5
A0A
330
93F
100
AcDbEntity
  8
0
  6
Continuous
 62
     7
370
    25
100
AcDbPolyline
 90
       30
 70
   128
 43
0.0
 10
12.23164297588539
 20
68.43900260255668
 10
12.11533707564342
 20
68.76718949139035
 10
11.86313620144858
 20
69.22634704684401
 10
11.5356986916122
 20
69.59191094282096
 10
11.14033895902992
 20
69.85571508596126
 10
10.68588868681525
 20
70.01186652763022
 10
10.18249954309306
 20
70.05687710265352
 10
9.641416409508452
 20
69.98974134916295
 10
9.074726189153012
 20
69.81195896895304
 10
8.495087805121784
 20
69.52750132662084
 10
7.915449421090443
 20
69.14272273584425
 10
7.348759200735003
 20
68.66621851451362
 10
6.80767606715051
 20
68.10863297953404
 10
6.304286923428208
 20
67.48242167037449
 10
5.849836651213536
 20
66.80157311289861
 10
5.454476918631258
 20
66.08129633881185
 10
5.127039408794872
 20
65.33768114102611
 10
4.87483853460003
 20
64.58733865427257
 10
4.703508046826755
 20
63.84703028980175
 10
4.616875185456934
 20
63.1332933131531
 10
4.616875185456934
 20
62.46207142897015
 10
4.703508046826869
 20
61.84835862498483
 10
4.87483853460003
 20
61.30586423110822
 10
5.127039408794872
 20
60.84670667565456
 10
5.454476918631258
 20
60.48114277967761
 10
5.849836651213536
 20
60.21733863653731
 10
6.304286923428208
 20
60.06118719486835
 10
6.80767606715051
 20
60.01617661984494
 10
7.348759200735117
 20
60.08331237333562
 10
7.417198264816079
 20
60.09923612120178
  0
LINE
  5
A0B
330
93F
100
AcDbEntity
  8
0
  6
Continuous
 62
     7
370
    25
100
AcDbLine
 10
3.191786946222692
 20
68.915593342943
 30
0.0
 11
0.0098064308831454
 21
70.7525115945441
 31
0.0
  0
ARC
  5
A0C
330
93F
100
AcDbEntity
  8
0
  6
Continuous
 62
     7
370
    25
100
AcDbCircle
 10
6.124698345497222
 20
70.48806341013301
 30
0.0
 40
6.120607483710333
100
AcDbArc
 50
122.4763035593677
 51
177.5236962950044
  0
LINE
  5
A0D
330
93F
100
AcDbEntity
  8
0
  6
Continuous
 62
     7
370
    25
100
AcDbLine
 10
0.0098064308831454
 20
7.878869079341257
 30
0.0
 11
3.191786946222692
 21
6.041950827740266
 31
0.0
  0
LINE
  5
A0E
330
93F
100
AcDbEntity
  8
0
  6
Continuous
 62
     7
370
    25
100
AcDbLine
 10
0.0098064308831454
 20
70.7525115945441
 30
0.0
 11
0.0098064308831454
 21
7.878869079341257
 31
0.0
  0
ARC
  5
A0F
330
93F
100
AcDbEntity
  8
0
  6
Continuous
 62
     7
370
    25
100
AcDbCircle
 10
9.610468445844504
 20
68.3680725726366
 30
0.0
 40
2.061941649954305
100
AcDbArc
 50
31.21309458970687
 51
49.57857141937592
  0
LWPOLYLINE
  5
A10
330
93F
100
AcDbEntity
  8
0
  6
Continuous
 62
     7
370
    25
100
AcDbPolyline
 90
        3
 70
   128
 43
0.0
 10
5.47704914329745
 20
60.461796757245
 10
5.738601498479056
 20
60.38775043959743
 10
6.124362130345389
 20
60.34310404125802
  0
LINE
  5
A11
330
93F
100
AcDbEntity
  8
0
  6
Continuous
 62
     7
370
    25
100
AcDbLine
 10
17.68747596054686
 20
76.05969512164393
 30
0.0
 11
17.68747596054686
 21
67.89428700278631
 31
0.0
  0
LINE
  5
A12
330
93F
100
AcDbEntity
  8
0
  6
Continuous
 62
     7
370
    25
100
AcDbLine
 10
14.50549544520743
 20
69.73120525438742
 30
0.0
 11
17.68747596054686
 21
67.89428700278631
 31
0.0
  0
LINE
  5
A13
330
93F
100
AcDbEntity
  8
0
  6
Continuous
 62
     7
370
    25
100
AcDbLine
 10
14.50549544520743
 20
16.65605248181373
 30
0.0
 11
14.50549544520743
 21
69.73120525438742
 31
0.0
  0
LINE
  5
A14
330
93F
100
AcDbEntity
  8
0
  6
Continuous
 62
     7
370
    25
100
AcDbLine
 10
17.68747596054686
 20
14.81913423021263
 30
0.0
 11
14.50549544520743
 21
16.65605248181373
 31
0.0
  0
LINE
  5
A15
330
93F
100
AcDbEntity
  8
0
  6
Continuous
 62
     7
370
    25
100
AcDbLine
 10
17.68747596054686
 20
6.653726111355127
 30
0.0
 11
17.68747596054686
 21
14.81913423021263
 31
0.0
  0
LINE
  5
A16
330
93F
100
AcDbEntity
  8
0
  6
Continuous
 62
     7
370
    25
100
AcDbLine
 10
17.68747596054686
 20
6.653726111355127
 30
0.0
 11
13.79838866402076
 21
8.898848418867601
 31
0.0
  0
LINE
  5
A17
330
93F
100
AcDbEntity
  8
0
  6
Continuous
 62
     7
370
    25
100
AcDbLine
 10
24.93649854201908
 20
10.83849777226953
 30
0.0
 11
17.68747596054686
 21
6.653726111355127
 31
0.0
  0
LINE
  5
A18
330
93F
100
AcDbEntity
  8
0
  6
Continuous
 62
     7
370
    25
100
AcDbLine
 10
17.86428138936321
 20
14.92120183169834
 30
0.0
 11
17.68747596054686
 21
14.81913423021263
 31
0.0
  0
LINE
  5
A19
330
93F
100
AcDbEntity
  8
0
  6
Continuous
 62
     7
370
    25
100
AcDbLine
 10
23.34433021003929
 20
30.33287885578966
 30
0.0
 11
24.97067580676833
 21
31.27174818438584
 31
0.0
  0
ARC
  5
A1A
330
93F
100
AcDbEntity
  8
0
  6
Continuous
 62
     7
370
    25
100
AcDbCircle
 10
17.61503566121849
 20
40.10204975362558
 30
0.0
 40
11.32526008788645
100
AcDbArc
 50
300.3902082951494
 51
310.5031409351554
  0
ARC
  5
A1B
330
93F
100
AcDbEntity
  8
0
  6
Continuous
 62
     7
370
    25
100
AcDbCircle
 10
49.32393113527155
 20
83.62353735058355
 30
0.0
 40
2.200060259611848
100
AcDbArc
 50
77.8104082024779
 51
124.0190228744714
  0
LINE
  5
A1C
330
93F
100
AcDbEntity
  8
0
  6
Continuous
 62
     7
370
    25
100
AcDbLine
 10
21.93011664766618
 20
70.34351133825453
 30
0.0
 11
48.09306755156842
 21
85.44706140697463
 31
0.0
  0
LINE
  5
A1D
330
93F
100
AcDbEntity
  8
0
  6
Continuous
 62
     7
370
    25
100
AcDbLine
 10
21.93011664766618
 20
67.89388890259727
 30
0.0
 11
21.93011664766618
 21
70.34351133825453
 31
0.0
  0
ARC
  5
A1E
330
93F
100
AcDbEntity
  8
0
  6
Continuous
 62
     7
370
    25
100
AcDbCircle
 10
20.63689354538644
 20
68.1036704932992
 30
0.0
 40
1.310127592285482
100
AcDbArc
 50
350.7859630095429
 51
129.2032852357127
  0
LINE
  5
A1F
330
93F
100
AcDbEntity
  8
0
  6
Continuous
 62
     7
370
    25
100
AcDbLine
 10
17.68747596054686
 20
67.89428700278631
 30
0.0
 11
19.80879630410652
 21
69.11889917052042
 31
0.0
  0
ARC
  5
A20
330
93F
100
AcDbEntity
  8
0
  6
Continuous
 62
     7
370
    25
100
AcDbCircle
 10
58.380932285369
 20
97.55049969499362
 30
0.0
 40
1.75305351862888
100
AcDbArc
 50
351.3146750032949
 51
128.6745732419503
  0
LINE
  5
A21
330
93F
100
AcDbEntity
  8
0
  6
Continuous
 62
     7
370
    25
100
AcDbLine
 10
60.1138828317396
 20
97.2857752287822
 30
0.0
 11
60.1138828317396
 21
91.73473086863987
 31
0.0
  0
LINE
  5
A22
330
93F
100
AcDbEntity
  8
0
  6
Continuous
 62
     7
370
    25
100
AcDbLine
 10
21.93011664766618
 20
70.34351133825453
 30
0.0
 11
25.32422919736166
 21
68.38413186987998
 31
0.0
  0
ARC
  5
A23
330
93F
100
AcDbEntity
  8
0
  6
Continuous
 62
     7
370
    25
100
AcDbCircle
 10
12.45476870492507
 20
44.4608770286635
 30
0.0
 40
14.50784099530508
100
AcDbArc
 50
302.0913052518053
 51
329.62104676667
  0
LINE
  5
A24
330
93F
100
AcDbEntity
  8
0
  6
Continuous
 62
     7
370
    25
100
AcDbLine
 10
20.16234969469986
 20
32.16979710739076
 30
0.0
 11
18.92066975954083
 21
31.45299053848032
 31
0.0
  0
LINE
  5
A25
330
93F
100
AcDbEntity
  8
0
  6
Continuous
 62
     7
370
    25
100
AcDbLine
 10
14.50549544520743
 20
16.65605248181373
 30
0.0
 11
14.71762747956336
 21
16.77851369858706
 31
0.0
  0
LINE
  5
A26
330
93F
100
AcDbEntity
  8
0
  6
Continuous
 62
     7
370
    25
100
AcDbLine
 10
23.34433021003929
 20
30.33287885578966
 30
0.0
 11
20.16234969469986
 21
32.16979710739076
 31
0.0
  0
ARC
  5
A27
330
93F
100
AcDbEntity
  8
0
  6
Continuous
 62
     7
370
    25
100
AcDbCircle
 10
51.37991875553223
 20
101.4277370851249
 30
0.0
 40
1.958093640226654
100
AcDbArc
 50
64.78089010124334
 51
126.5295683278491
  0
ARC
  5
A28
330
93F
100
AcDbEntity
  8
0
  6
Continuous
 62
     7
370
    25
100
AcDbCircle
 10
9.61046844583882
 20
19.37562385948706
 30
0.0
 40
2.061941649961426
100
AcDbArc
 50
31.21309458973472
 51
49.57857141932424
  0
LWPOLYLINE
  5
A29
330
93F
100
AcDbEntity
  8
0
  6
Continuous
 62
     7
370
    25
100
AcDbPolyline
 90
        3
 70
   128
 43
0.0
 10
5.477049143298814
 20
11.46934804409955
 10
5.738601498479056
 20
11.39530172645243
 10
6.124362130345389
 20
11.35065532811302
  0
ARC
  5
A2A
330
93F
100
AcDbEntity
  8
0
  6
Continuous
 62
     7
370
    25
100
AcDbCircle
 10
2.00971737811517
 20
7.680576005736157
 30
0.0
 40
2.009717378115204
100
AcDbArc
 50
174.3375761359744
 51
234.350243470651
  0
LINE
  5
A2B
330
93F
100
AcDbEntity
  8
0
  6
Continuous
 62
     8
370
    25
100
AcDbLine
 10
17.89983786306095
 20
53.4822288779493
 30
0.0
 11
16.4853944325298
 21
52.66568806606358
 31
0.0
  0
LINE
  5
A2C
330
93F
100
AcDbEntity
  8
0
  6
Continuous
 62
     8
370
    25
100
AcDbLine
 10
23.55646224439522
 20
25.72050477414905
 30
0.0
 11
24.97067578808992
 21
26.53691287518882
 31
0.0
  0
LINE
  5
A2D
330
93F
100
AcDbEntity
  8
0
  6
Continuous
 62
     8
370
    25
100
AcDbLine
 10
21.93011664766618
 20
67.89388890259727
 30
0.0
 11
25.32422919736166
 21
65.93450943422272
 31
0.0
  0
LINE
  5
A2E
330
93F
100
AcDbEntity
  8
0
  6
Continuous
 62
     8
370
    25
100
AcDbLine
 10
48.65760363572736
 20
85.12116166256078
 30
0.0
 11
48.09306755156842
 21
85.44706140697463
 31
0.0
  0
ENDBLK
  5
A30
330
93F
100
AcDbEntity
  8
0
100
AcDbBlockEnd
  0
ENDSEC
  0
SECTION
  2
ENTITIES
  0
MTEXT
  5
76
330
1F
100
AcDbEntity
  8
0
  6
Continuous
 62
     7
370
     0
100
AcDbMText
 10
60.2907537057
 20
475.2414259156
 30
0.0
 40
19.05
 41
0.0
 71
     1
 72
     1
  1
{6852N}
  7
SLDTEXTSTYLE0
 73
     1
 44
1.0
1001
ACAD
1000
ACAD_MTEXT_DEFINED_HEIGHT_BEGIN
1070
    46
1040
19.05
1000
ACAD_MTEXT_DEFINED_HEIGHT_END
  0
LINE
  5
657
102
{ACAD_REACTORS
102
}
330
1F
100
AcDbEntity
  8
0
  6
CENTER
 62
     1
100
AcDbLine
 10
223.0485576832
 20
383.20475471695
 30
0.0
 11
182.0485576832
 21
383.20475471695
 31
0.0
  0
LINE
  5
658
102
{ACAD_REACTORS
102
}
330
1F
100
AcDbEntity
  8
0
  6
CENTER
 62
     1
100
AcDbLine
 10
232.0485576832
 20
374.20475471695
 30
0.0
 11
232.0485576832
 21
324.20475471705
 31
0.0
  0
LINE
  5
659
330
1F
100
AcDbEntity
  8
0
  6
CENTER
 62
     1
100
AcDbLine
 10
223.0485576832
 20
315.20475471695
 30
0.0
 11
182.0485576832
 21
315.20475471695
 31
0.0
  0
ARC
  5
65C
102
{ACAD_REACTORS
102
}
330
1F
100
AcDbEntity
  8
0
  6
CENTER
 62
     1
100
AcDbCircle
 10
223.0485576832
 20
374.20475471695
 30
0.0
 40
9.0
100
AcDbArc
 50
0.0
 51
90.0
  0
ARC
  5
65D
102
{ACAD_REACTORS
102
}
330
1F
100
AcDbEntity
  8
0
  6
CENTER
 62
     1
100
AcDbCircle
 10
223.0485576832
 20
324.20475471705
 30
0.0
 40
9.0
100
AcDbArc
 50
270.0
 51
0.0
  0
LINE
  5
A32
330
1F
100
AcDbEntity
  8
0
  6
Continuous
 62
     7
370
    25
100
AcDbLine
 10
270.0984461681001
 20
384.454755164
 30
0.0
 11
269.6984461681
 21
384.454755164
 31
0.0
  0
LINE
  5
A33
330
1F
100
AcDbEntity
  8
0
  6
Continuous
 62
     7
370
    25
100
AcDbLine
 10
269.6984461681
 20
373.954755164
 30
0.0
 11
270.0984461681001
 21
373.954755164
 31
0.0
  0
LINE
  5
A34
330
1F
100
AcDbEntity
  8
0
  6
Continuous
 62
     7
370
    25
100
AcDbLine
 10
275.5984461681001
 20
389.204755164
 30
0.0
 11
275.1984461681
 21
389.204755164
 31
0.0
  0
LINE
  5
A35
330
1F
100
AcDbEntity
  8
0
  6
Continuous
 62
     7
370
    25
100
AcDbLine
 10
275.1984461681
 20
384.204755164
 30
0.0
 11
275.5984461681001
 21
384.204755164
 31
0.0
  0
LINE
  5
A36
330
1F
100
AcDbEntity
  8
0
  6
Continuous
 62
     7
370
    25
100
AcDbLine
 10
275.1984461681
 20
384.204755164
 30
0.0
 11
275.1984461681
 21
389.204755164
 31
0.0
  0
LINE
  5
A37
330
1F
100
AcDbEntity
  8
0
  6
Continuous
 62
     7
370
    25
100
AcDbLine
 10
275.5984461681001
 20
384.204755164
 30
0.0
 11
275.5984461681001
 21
389.204755164
 31
0.0
  0
LINE
  5
A38
330
1F
100
AcDbEntity
  8
0
  6
Continuous
 62
     7
370
    25
100
AcDbLine
 10
275.1984461681
 20
391.2047551639999
 30
0.0
 11
275.5984461681001
 21
391.2047551639999
 31
0.0
  0
LINE
  5
A39
330
1F
100
AcDbEntity
  8
0
  6
Continuous
 62
     7
370
    25
100
AcDbLine
 10
275.5984461681001
 20
391.2047551639999
 30
0.0
 11
275.5984461681001
 21
389.204755164
 31
0.0
  0
LINE
  5
A3A
330
1F
100
AcDbEntity
  8
0
  6
Continuous
 62
     7
370
    25
100
AcDbLine
 10
275.5984461681001
 20
382.204755164
 30
0.0
 11
275.1984461681
 21
382.204755164
 31
0.0
  0
LINE
  5
A3B
330
1F
100
AcDbEntity
  8
0
  6
Continuous
 62
     7
370
    25
100
AcDbLine
 10
275.5984461681001
 20
384.204755164
 30
0.0
 11
275.5984461681001
 21
382.204755164
 31
0.0
  0
LINE
  5
A3C
330
1F
100
AcDbEntity
  8
0
  6
Continuous
 62
     7
370
    25
100
AcDbLine
 10
275.5984461681001
 20
382.204755164
 30
0.0
 11
275.5984461681001
 21
381.704755164
 31
0.0
  0
LINE
  5
A3D
330
1F
100
AcDbEntity
  8
0
  6
Continuous
 62
     7
370
    25
100
AcDbLine
 10
275.5984461681001
 20
334.204755164
 30
0.0
 11
275.5984461681001
 21
364.204755164
 31
0.0
  0
CIRCLE
  5
A3E
330
1F
100
AcDbEntity
  8
0
  6
Continuous
 62
     7
370
    25
100
AcDbCircle
 10
280.9984461681
 20
371.704755164
 30
0.0
 40
4.0
  0
LINE
  5
A3F
330
1F
100
AcDbEntity
  8
0
  6
Continuous
 62
     7
370
    25
100
AcDbLine
 10
280.5984461680953
 20
371.3047551640047
 30
0.0
 11
280.5984461680735
 21
369.4905961814564
 31
0.0
  0
ARC
  5
A40
330
1F
100
AcDbEntity
  8
0
  6
Continuous
 62
     7
370
    25
100
AcDbCircle
 10
280.9984461681
 20
371.704755164
 30
0.0
 40
2.250000000000141
100
AcDbArc
 50
259.7596516781297
 51
280.2403483204995
  0
LINE
  5
A41
330
1F
100
AcDbEntity
  8
0
  6
Continuous
 62
     7
370
    25
100
AcDbLine
 10
281.3984461680735
 20
369.4905961814466
 30
0.0
 11
281.3984461680953
 21
371.3047551639951
 31
0.0
  0
LINE
  5
A42
330
1F
100
AcDbEntity
  8
0
  6
Continuous
 62
     7
370
    25
100
AcDbLine
 10
281.3984461680953
 20
371.3047551639951
 30
0.0
 11
283.2126051506437
 21
371.3047551639735
 31
0.0
  0
ARC
  5
A43
330
1F
100
AcDbEntity
  8
0
  6
Continuous
 62
     7
370
    25
100
AcDbCircle
 10
280.9984461681
 20
371.704755164
 30
0.0
 40
2.25000000000005
100
AcDbArc
 50
349.7596516781291
 51
10.24034832050005
  0
LINE
  5
A44
330
1F
100
AcDbEntity
  8
0
  6
Continuous
 62
     7
370
    25
100
AcDbLine
 10
283.2126051506532
 20
372.1047551639735
 30
0.0
 11
281.3984461681048
 21
372.1047551639951
 31
0.0
  0
LINE
  5
A45
330
1F
100
AcDbEntity
  8
0
  6
Continuous
 62
     7
370
    25
100
AcDbLine
 10
281.3984461681048
 20
372.1047551639951
 30
0.0
 11
281.3984461681264
 21
373.9189141465436
 31
0.0
  0
ARC
  5
A46
330
1F
100
AcDbEntity
  8
0
  6
Continuous
 62
     7
370
    25
100
AcDbCircle
 10
280.9984461681
 20
371.704755164
 30
0.0
 40
2.249999999999938
100
AcDbArc
 50
79.75965167812862
 51
100.2403483205006
  0
LINE
  5
A47
330
1F
100
AcDbEntity
  8
0
  6
Continuous
 62
     7
370
    25
100
AcDbLine
 10
280.5984461681265
 20
373.9189141465532
 30
0.0
 11
280.5984461681047
 21
372.1047551640048
 31
0.0
  0
LINE
  5
A48
330
1F
100
AcDbEntity
  8
0
  6
Continuous
 62
     7
370
    25
100
AcDbLine
 10
280.5984461681047
 20
372.1047551640048
 30
0.0
 11
278.7842871855565
 21
372.1047551640265
 31
0.0
  0
ARC
  5
A49
330
1F
100
AcDbEntity
  8
0
  6
Continuous
 62
     7
370
    25
100
AcDbCircle
 10
280.9984461681
 20
371.704755164
 30
0.0
 40
2.249999999999826
100
AcDbArc
 50
169.7596516781281
 51
190.2403483205011
  0
LINE
  5
A4A
330
1F
100
AcDbEntity
  8
0
  6
Continuous
 62
     7
370
    25
100
AcDbLine
 10
278.7842871855469
 20
371.3047551640265
 30
0.0
 11
280.5984461680953
 21
371.3047551640047
 31
0.0
  0
ARC
  5
A4B
330
1F
100
AcDbEntity
  8
0
  6
Continuous
 62
     7
370
    25
100
AcDbCircle
 10
280.9984461681
 20
371.704755164
 30
0.0
 40
1.704044648600641
100
AcDbArc
 50
166.4239602114288
 51
193.5760397871985
  0
ARC
  5
A4C
330
1F
100
AcDbEntity
  8
0
  6
Continuous
 62
     7
370
    25
100
AcDbCircle
 10
280.9984461681
 20
371.704755164
 30
0.0
 40
1.704044648600752
100
AcDbArc
 50
256.4239602114297
 51
283.576039787194
  0
ARC
  5
A4D
330
1F
100
AcDbEntity
  8
0
  6
Continuous
 62
     7
370
    25
100
AcDbCircle
 10
280.9984461681
 20
371.704755164
 30
0.0
 40
1.704044648600752
100
AcDbArc
 50
76.42396021142973
 51
103.5760397871939
  0
ARC
  5
A4E
330
1F
100
AcDbEntity
  8
0
  6
Continuous
 62
     7
370
    25
100
AcDbCircle
 10
280.9984461681
 20
371.704755164
 30
0.0
 40
1.704044648600862
100
AcDbArc
 50
346.4239602114307
 51
13.57603978719305
  0
LINE
  5
A4F
330
1F
100
AcDbEntity
  8
0
  6
Continuous
 62
     7
370
    25
100
AcDbLine
 10
270.0984461681001
 20
384.454755164
 30
0.0
 11
270.0984461681001
 21
373.954755164
 31
0.0
  0
LINE
  5
A50
330
1F
100
AcDbEntity
  8
0
  6
Continuous
 62
     7
370
    25
100
AcDbLine
 10
285.5984461681001
 20
388.2047551640001
 30
0.0
 11
285.9984461681
 21
388.2047551640001
 31
0.0
  0
LINE
  5
A51
330
1F
100
AcDbEntity
  8
0
  6
Continuous
 62
     7
370
    25
100
AcDbLine
 10
285.9984461681
 20
382.704755164
 30
0.0
 11
285.5984461681001
 21
382.704755164
 31
0.0
  0
LINE
  5
A52
330
1F
100
AcDbEntity
  8
0
  6
Continuous
 62
     7
370
    25
100
AcDbLine
 10
285.5984461681001
 20
382.704755164
 30
0.0
 11
285.5984461681001
 21
388.2047551640001
 31
0.0
  0
LINE
  5
A53
330
1F
100
AcDbEntity
  8
0
  6
Continuous
 62
     7
370
    25
100
AcDbLine
 10
285.5984461681001
 20
382.704755164
 30
0.0
 11
285.5984461681001
 21
381.454755164
 31
0.0
  0
LINE
  5
A54
330
1F
100
AcDbEntity
  8
0
  6
Continuous
 62
     7
370
    25
100
AcDbLine
 10
291.4984461681
 20
381.854755164
 30
0.0
 11
291.4984461681
 21
391.704755164
 31
0.0
  0
LINE
  5
A55
330
1F
100
AcDbEntity
  8
0
  6
Continuous
 62
     7
370
    25
100
AcDbLine
 10
285.9984461681
 20
381.854755164
 30
0.0
 11
291.4984461681
 21
381.854755164
 31
0.0
  0
LINE
  5
A56
330
1F
100
AcDbEntity
  8
0
  6
Continuous
 62
     7
370
    25
100
AcDbLine
 10
285.9984461681
 20
391.704755164
 30
0.0
 11
291.4984461681
 21
391.704755164
 31
0.0
  0
LINE
  5
A57
330
1F
100
AcDbEntity
  8
0
  6
Continuous
 62
     7
370
    25
100
AcDbLine
 10
285.9984461681
 20
391.704755164
 30
0.0
 11
285.9984461681
 21
381.854755164
 31
0.0
  0
LINE
  5
A58
330
1F
100
AcDbEntity
  8
0
  6
Continuous
 62
     7
370
    25
100
AcDbLine
 10
291.4984461681
 20
316.5547551639999
 30
0.0
 11
291.4984461681
 21
381.854755164
 31
0.0
  0
LINE
  5
A59
330
1F
100
AcDbEntity
  8
0
  6
Continuous
 62
     7
370
    25
100
AcDbLine
 10
285.9984461681
 20
381.454755164
 30
0.0
 11
285.9984461681
 21
381.854755164
 31
0.0
  0
LINE
  5
A5A
330
1F
100
AcDbEntity
  8
0
  6
Continuous
 62
     7
370
    25
100
AcDbLine
 10
295.9984461681
 20
306.7047551639999
 30
0.0
 11
295.9984461681
 21
391.704755164
 31
0.0
  0
LINE
  5
A5B
330
1F
100
AcDbEntity
  8
0
  6
Continuous
 62
     7
370
    25
100
AcDbLine
 10
295.9984461681
 20
391.704755164
 30
0.0
 11
291.4984461681
 21
391.704755164
 31
0.0
  0
LINE
  5
A5C
330
1F
100
AcDbEntity
  8
0
  6
Continuous
 62
     7
370
    25
100
AcDbLine
 10
290.9984461681
 20
381.454755164
 30
0.0
 11
270.9984461681
 21
381.454755164
 31
0.0
  0
LINE
  5
A5D
330
1F
100
AcDbEntity
  8
0
  6
Continuous
 62
     7
370
    25
100
AcDbLine
 10
290.9984461681
 20
316.9547551639999
 30
0.0
 11
290.9984461681
 21
381.454755164
 31
0.0
  0
LINE
  5
A5E
330
1F
100
AcDbEntity
  8
0
  6
Continuous
 62
     7
370
    25
100
AcDbLine
 10
270.9984461681
 20
381.454755164
 30
0.0
 11
270.9984461681
 21
316.9547551639999
 31
0.0
  0
ARC
  5
A5F
330
1F
100
AcDbEntity
  8
0
  6
Continuous
 62
     7
370
    25
100
AcDbCircle
 10
275.4984461681
 20
362.2047551639999
 30
0.0
 40
2.000000000000114
100
AcDbArc
 50
90.0
 51
180.0
  0
LINE
  5
A60
330
1F
100
AcDbEntity
  8
0
  6
Continuous
 62
     7
370
    25
100
AcDbLine
 10
273.4984461681
 20
336.204755164
 30
0.0
 11
273.4984461681
 21
362.2047551639999
 31
0.0
  0
LINE
  5
A61
330
1F
100
AcDbEntity
  8
0
  6
Continuous
 62
     7
370
    25
100
AcDbLine
 10
285.4984461681
 20
362.2047551639999
 30
0.0
 11
285.4984461681
 21
336.204755164
 31
0.0
  0
ARC
  5
A62
330
1F
100
AcDbEntity
  8
0
  6
Continuous
 62
     7
370
    25
100
AcDbCircle
 10
283.4984461681
 20
362.2047551639999
 30
0.0
 40
2.000000000000114
100
AcDbArc
 50
0.0
 51
90.0
  0
LINE
  5
A63
330
1F
100
AcDbEntity
  8
0
  6
Continuous
 62
     7
370
    25
100
AcDbLine
 10
275.4984461681
 20
364.204755164
 30
0.0
 11
283.4984461681
 21
364.204755164
 31
0.0
  0
CIRCLE
  5
A64
330
1F
100
AcDbEntity
  8
0
  6
Continuous
 62
     7
370
    25
100
AcDbCircle
 10
280.9984461681
 20
371.704755164
 30
0.0
 40
4.149999999999864
  0
LINE
  5
A65
330
1F
100
AcDbEntity
  8
0
  6
Continuous
 62
     7
370
    25
100
AcDbLine
 10
269.6984461681
 20
387.704755164
 30
0.0
 11
265.1984461681
 21
387.704755164
 31
0.0
  0
LINE
  5
A66
330
1F
100
AcDbEntity
  8
0
  6
Continuous
 62
     7
370
    25
100
AcDbLine
 10
269.6984461681
 20
310.7047551639999
 30
0.0
 11
269.6984461681
 21
387.704755164
 31
0.0
  0
LINE
  5
A67
330
1F
100
AcDbEntity
  8
0
  6
Continuous
 62
     7
370
    25
100
AcDbLine
 10
265.1984461681
 20
387.704755164
 30
0.0
 11
265.1984461681
 21
310.7047551639999
 31
0.0
  0
LINE
  5
A68
330
1F
100
AcDbEntity
  8
0
  6
Continuous
 62
     7
370
    25
100
AcDbLine
 10
265.1984461681
 20
391.704755164
 30
0.0
 11
269.6984461681
 21
391.704755164
 31
0.0
  0
LINE
  5
A69
330
1F
100
AcDbEntity
  8
0
  6
Continuous
 62
     7
370
    25
100
AcDbLine
 10
269.6984461681
 20
391.704755164
 30
0.0
 11
269.6984461681
 21
387.704755164
 31
0.0
  0
LINE
  5
A6A
330
1F
100
AcDbEntity
  8
0
  6
Continuous
 62
     7
370
    25
100
AcDbLine
 10
265.1984461681
 20
387.704755164
 30
0.0
 11
265.1984461681
 21
391.704755164
 31
0.0
  0
LINE
  5
A6B
330
1F
100
AcDbEntity
  8
0
  6
Continuous
 62
     7
370
    25
100
AcDbLine
 10
275.1984461681
 20
391.704755164
 30
0.0
 11
275.1984461681
 21
381.704755164
 31
0.0
  0
LINE
  5
A6C
330
1F
100
AcDbEntity
  8
0
  6
Continuous
 62
     7
370
    25
100
AcDbLine
 10
270.6984461681
 20
381.704755164
 30
0.0
 11
275.1984461681
 21
381.704755164
 31
0.0
  0
LINE
  5
A6D
330
1F
100
AcDbEntity
  8
0
  6
Continuous
 62
     7
370
    25
100
AcDbLine
 10
270.6984461681
 20
316.704755164
 30
0.0
 11
270.6984461681
 21
381.704755164
 31
0.0
  0
LINE
  5
A6E
330
1F
100
AcDbEntity
  8
0
  6
Continuous
 62
     7
370
    25
100
AcDbLine
 10
269.6984461681
 20
391.704755164
 30
0.0
 11
275.1984461681
 21
391.704755164
 31
0.0
  0
LINE
  5
A6F
330
1F
100
AcDbEntity
  8
0
  6
Continuous
 62
     7
370
    25
100
AcDbLine
 10
270.6984461681
 20
375.704755164
 30
0.0
 11
270.9984461681
 21
375.704755164
 31
0.0
  0
LINE
  5
A70
330
1F
100
AcDbEntity
  8
0
  6
Continuous
 62
     7
370
    25
100
AcDbLine
 10
270.9984461681
 20
366.704755164
 30
0.0
 11
270.6984461681
 21
366.704755164
 31
0.0
  0
LINE
  5
A71
330
1F
100
AcDbEntity
  8
0
  6
Continuous
 62
     7
370
    25
100
AcDbLine
 10
275.1984461681
 20
381.704755164
 30
0.0
 11
275.1984461681
 21
381.454755164
 31
0.0
  0
LINE
  5
A72
330
1F
100
AcDbEntity
  8
0
  6
Continuous
 62
     7
370
    25
100
AcDbLine
 10
275.1984461681
 20
381.704755164
 30
0.0
 11
285.1984461681
 21
381.704755164
 31
0.0
  0
LINE
  5
A73
330
1F
100
AcDbEntity
  8
0
  6
Continuous
 62
     7
370
    25
100
AcDbLine
 10
285.1984461681
 20
381.454755164
 30
0.0
 11
285.1984461681
 21
381.704755164
 31
0.0
  0
LINE
  5
A74
330
1F
100
AcDbEntity
  8
0
  6
Continuous
 62
     7
370
    25
100
AcDbLine
 10
275.1984461681
 20
364.1821271573286
 30
0.0
 11
275.1984461681
 21
356.704755164
 31
0.0
  0
LINE
  5
A75
330
1F
100
AcDbEntity
  8
0
  6
Continuous
 62
     7
370
    25
100
AcDbLine
 10
275.1984461681
 20
341.704755164
 30
0.0
 11
275.1984461681
 21
356.704755164
 31
0.0
  0
LINE
  5
A76
330
1F
100
AcDbEntity
  8
0
  6
Continuous
 62
     8
370
    25
100
AcDbLine
 10
275.1984461681
 20
356.704755164
 30
0.0
 11
273.4984461681002
 21
356.704755164
 31
0.0
  0
LINE
  5
A77
330
1F
100
AcDbEntity
  8
0
  6
Continuous
 62
     8
370
    25
100
AcDbLine
 10
270.9984461681002
 20
356.704755164
 30
0.0
 11
270.6984461681
 21
356.704755164
 31
0.0
  0
LINE
  5
A78
330
1F
100
AcDbEntity
  8
0
  6
Continuous
 62
     7
370
    25
100
AcDbLine
 10
270.0984461681001
 20
324.4547551639999
 30
0.0
 11
269.6984461681
 21
324.4547551639999
 31
0.0
  0
LINE
  5
A79
330
1F
100
AcDbEntity
  8
0
  6
Continuous
 62
     7
370
    25
100
AcDbLine
 10
269.6984461681
 20
313.954755164
 30
0.0
 11
270.0984461681001
 21
313.954755164
 31
0.0
  0
LINE
  5
A7A
330
1F
100
AcDbEntity
  8
0
  6
Continuous
 62
     7
370
    25
100
AcDbLine
 10
275.1984461681
 20
309.2047551639999
 30
0.0
 11
275.5984461681001
 21
309.2047551639999
 31
0.0
  0
LINE
  5
A7B
330
1F
100
AcDbEntity
  8
0
  6
Continuous
 62
     7
370
    25
100
AcDbLine
 10
275.1984461681
 20
309.2047551639999
 30
0.0
 11
275.1984461681
 21
314.204755164
 31
0.0
  0
LINE
  5
A7C
330
1F
100
AcDbEntity
  8
0
  6
Continuous
 62
     7
370
    25
100
AcDbLine
 10
275.5984461681001
 20
314.204755164
 30
0.0
 11
275.1984461681
 21
314.204755164
 31
0.0
  0
LINE
  5
A7D
330
1F
100
AcDbEntity
  8
0
  6
Continuous
 62
     7
370
    25
100
AcDbLine
 10
275.5984461681001
 20
309.2047551639999
 30
0.0
 11
275.5984461681001
 21
314.204755164
 31
0.0
  0
LINE
  5
A7E
330
1F
100
AcDbEntity
  8
0
  6
Continuous
 62
     7
370
    25
100
AcDbLine
 10
275.1984461681
 20
316.204755164
 30
0.0
 11
275.5984461681001
 21
316.204755164
 31
0.0
  0
LINE
  5
A7F
330
1F
100
AcDbEntity
  8
0
  6
Continuous
 62
     7
370
    25
100
AcDbLine
 10
275.5984461681001
 20
316.204755164
 30
0.0
 11
275.5984461681001
 21
314.204755164
 31
0.0
  0
LINE
  5
A80
330
1F
100
AcDbEntity
  8
0
  6
Continuous
 62
     7
370
    25
100
AcDbLine
 10
275.5984461681001
 20
307.204755164
 30
0.0
 11
275.1984461681
 21
307.204755164
 31
0.0
  0
LINE
  5
A81
330
1F
100
AcDbEntity
  8
0
  6
Continuous
 62
     7
370
    25
100
AcDbLine
 10
275.5984461681001
 20
309.2047551639999
 30
0.0
 11
275.5984461681001
 21
307.204755164
 31
0.0
  0
LINE
  5
A82
330
1F
100
AcDbEntity
  8
0
  6
Continuous
 62
     7
370
    25
100
AcDbLine
 10
275.5984461681001
 20
316.704755164
 30
0.0
 11
275.5984461681001
 21
316.204755164
 31
0.0
  0
CIRCLE
  5
A83
330
1F
100
AcDbEntity
  8
0
  6
Continuous
 62
     7
370
    25
100
AcDbCircle
 10
280.9984461681
 20
326.704755164
 30
0.0
 40
4.0
  0
LINE
  5
A84
330
1F
100
AcDbEntity
  8
0
  6
Continuous
 62
     7
370
    25
100
AcDbLine
 10
280.5984461680953
 20
326.3047551640048
 30
0.0
 11
280.5984461680735
 21
324.4905961814563
 31
0.0
  0
ARC
  5
A85
330
1F
100
AcDbEntity
  8
0
  6
Continuous
 62
     7
370
    25
100
AcDbCircle
 10
280.9984461681
 20
326.704755164
 30
0.0
 40
2.25000000000005
100
AcDbArc
 50
259.7596516781292
 51
280.2403483205001
  0
LINE
  5
A86
330
1F
100
AcDbEntity
  8
0
  6
Continuous
 62
     7
370
    25
100
AcDbLine
 10
281.3984461680735
 20
324.4905961814467
 30
0.0
 11
281.3984461680953
 21
326.3047551639951
 31
0.0
  0
LINE
  5
A87
330
1F
100
AcDbEntity
  8
0
  6
Continuous
 62
     7
370
    25
100
AcDbLine
 10
281.3984461680953
 20
326.3047551639951
 30
0.0
 11
283.2126051506437
 21
326.3047551639734
 31
0.0
  0
ARC
  5
A88
330
1F
100
AcDbEntity
  8
0
  6
Continuous
 62
     7
370
    25
100
AcDbCircle
 10
280.9984461681
 20
326.704755164
 30
0.0
 40
2.25000000000007
100
AcDbArc
 50
349.7596516781263
 51
10.24034832049979
  0
LINE
  5
A89
330
1F
100
AcDbEntity
  8
0
  6
Continuous
 62
     7
370
    25
100
AcDbLine
 10
283.2126051506532
 20
327.1047551639735
 30
0.0
 11
281.3984461681048
 21
327.1047551639952
 31
0.0
  0
LINE
  5
A8A
330
1F
100
AcDbEntity
  8
0
  6
Continuous
 62
     7
370
    25
100
AcDbLine
 10
281.3984461681048
 20
327.1047551639952
 30
0.0
 11
281.3984461681264
 21
328.9189141465436
 31
0.0
  0
ARC
  5
A8B
330
1F
100
AcDbEntity
  8
0
  6
Continuous
 62
     7
370
    25
100
AcDbCircle
 10
280.9984461681
 20
326.704755164
 30
0.0
 40
2.249999999999938
100
AcDbArc
 50
79.75965167812862
 51
100.2403483205006
  0
LINE
  5
A8C
330
1F
100
AcDbEntity
  8
0
  6
Continuous
 62
     7
370
    25
100
AcDbLine
 10
280.5984461681265
 20
328.9189141465532
 30
0.0
 11
280.5984461681047
 21
327.1047551640048
 31
0.0
  0
LINE
  5
A8D
330
1F
100
AcDbEntity
  8
0
  6
Continuous
 62
     7
370
    25
100
AcDbLine
 10
280.5984461681047
 20
327.1047551640048
 30
0.0
 11
278.7842871855565
 21
327.1047551640265
 31
0.0
  0
ARC
  5
A8E
330
1F
100
AcDbEntity
  8
0
  6
Continuous
 62
     7
370
    25
100
AcDbCircle
 10
280.9984461681
 20
326.704755164
 30
0.0
 40
2.249999999999826
100
AcDbArc
 50
169.7596516781281
 51
190.2403483205011
  0
LINE
  5
A8F
330
1F
100
AcDbEntity
  8
0
  6
Continuous
 62
     7
370
    25
100
AcDbLine
 10
278.7842871855469
 20
326.3047551640265
 30
0.0
 11
280.5984461680953
 21
326.3047551640048
 31
0.0
  0
ARC
  5
A90
330
1F
100
AcDbEntity
  8
0
  6
Continuous
 62
     7
370
    25
100
AcDbCircle
 10
280.9984461681
 20
326.704755164
 30
0.0
 40
1.704044648600615
100
AcDbArc
 50
166.4239602114326
 51
193.576039787199
  0
ARC
  5
A91
330
1F
100
AcDbEntity
  8
0
  6
Continuous
 62
     7
370
    25
100
AcDbCircle
 10
280.9984461681
 20
326.704755164
 30
0.0
 40
1.704044648600752
100
AcDbArc
 50
256.4239602114297
 51
283.576039787194
  0
ARC
  5
A92
330
1F
100
AcDbEntity
  8
0
  6
Continuous
 62
     7
370
    25
100
AcDbCircle
 10
280.9984461681
 20
326.704755164
 30
0.0
 40
1.704044648600695
100
AcDbArc
 50
76.42396021142928
 51
103.5760397871944
  0
ARC
  5
A93
330
1F
100
AcDbEntity
  8
0
  6
Continuous
 62
     7
370
    25
100
AcDbCircle
 10
280.9984461681
 20
326.704755164
 30
0.0
 40
1.704044648600862
100
AcDbArc
 50
346.4239602114307
 51
13.57603978719305
  0
LINE
  5
A94
330
1F
100
AcDbEntity
  8
0
  6
Continuous
 62
     7
370
    25
100
AcDbLine
 10
270.0984461681001
 20
324.4547551639999
 30
0.0
 11
270.0984461681001
 21
313.954755164
 31
0.0
  0
LINE
  5
A95
330
1F
100
AcDbEntity
  8
0
  6
Continuous
 62
     7
370
    25
100
AcDbLine
 10
285.5984461681001
 20
315.7047551639999
 30
0.0
 11
285.9984461681
 21
315.7047551639999
 31
0.0
  0
LINE
  5
A96
330
1F
100
AcDbEntity
  8
0
  6
Continuous
 62
     7
370
    25
100
AcDbLine
 10
285.9984461681
 20
310.204755164
 30
0.0
 11
285.5984461681001
 21
310.204755164
 31
0.0
  0
LINE
  5
A97
330
1F
100
AcDbEntity
  8
0
  6
Continuous
 62
     7
370
    25
100
AcDbLine
 10
285.5984461681001
 20
310.204755164
 30
0.0
 11
285.5984461681001
 21
315.7047551639999
 31
0.0
  0
LINE
  5
A98
330
1F
100
AcDbEntity
  8
0
  6
Continuous
 62
     7
370
    25
100
AcDbLine
 10
285.5984461681001
 20
316.9547551639999
 30
0.0
 11
285.5984461681001
 21
315.7047551639999
 31
0.0
  0
LINE
  5
A99
330
1F
100
AcDbEntity
  8
0
  6
Continuous
 62
     7
370
    25
100
AcDbLine
 10
291.4984461681
 20
306.7047551639999
 30
0.0
 11
291.4984461681
 21
316.5547551639999
 31
0.0
  0
LINE
  5
A9A
330
1F
100
AcDbEntity
  8
0
  6
Continuous
 62
     7
370
    25
100
AcDbLine
 10
285.9984461681
 20
316.5547551639999
 30
0.0
 11
285.9984461681
 21
306.7047551639999
 31
0.0
  0
LINE
  5
A9B
330
1F
100
AcDbEntity
  8
0
  6
Continuous
 62
     7
370
    25
100
AcDbLine
 10
285.9984461681
 20
316.5547551639999
 30
0.0
 11
291.4984461681
 21
316.5547551639999
 31
0.0
  0
LINE
  5
A9C
330
1F
100
AcDbEntity
  8
0
  6
Continuous
 62
     7
370
    25
100
AcDbLine
 10
285.9984461681
 20
306.7047551639999
 30
0.0
 11
291.4984461681
 21
306.7047551639999
 31
0.0
  0
LINE
  5
A9D
330
1F
100
AcDbEntity
  8
0
  6
Continuous
 62
     7
370
    25
100
AcDbLine
 10
285.9984461681
 20
316.5547551639999
 30
0.0
 11
285.9984461681
 21
316.9547551639999
 31
0.0
  0
LINE
  5
A9E
330
1F
100
AcDbEntity
  8
0
  6
Continuous
 62
     7
370
    25
100
AcDbLine
 10
295.9984461681
 20
306.7047551639999
 30
0.0
 11
291.4984461681
 21
306.7047551639999
 31
0.0
  0
LINE
  5
A9F
330
1F
100
AcDbEntity
  8
0
  6
Continuous
 62
     7
370
    25
100
AcDbLine
 10
270.9984461681
 20
316.9547551639999
 30
0.0
 11
290.9984461681
 21
316.9547551639999
 31
0.0
  0
ARC
  5
AA0
330
1F
100
AcDbEntity
  8
0
  6
Continuous
 62
     7
370
    25
100
AcDbCircle
 10
275.4984461681
 20
336.204755164
 30
0.0
 40
2.0
100
AcDbArc
 50
180.0
 51
270.0
  0
LINE
  5
AA1
330
1F
100
AcDbEntity
  8
0
  6
Continuous
 62
     7
370
    25
100
AcDbLine
 10
283.4984461681
 20
334.204755164
 30
0.0
 11
275.4984461681
 21
334.204755164
 31
0.0
  0
ARC
  5
AA2
330
1F
100
AcDbEntity
  8
0
  6
Continuous
 62
     7
370
    25
100
AcDbCircle
 10
283.4984461681
 20
336.204755164
 30
0.0
 40
2.0
100
AcDbArc
 50
270.0
 51
0.0
  0
CIRCLE
  5
AA3
330
1F
100
AcDbEntity
  8
0
  6
Continuous
 62
     7
370
    25
100
AcDbCircle
 10
280.9984461681
 20
326.704755164
 30
0.0
 40
4.149999999999864
  0
LINE
  5
AA4
330
1F
100
AcDbEntity
  8
0
  6
Continuous
 62
     7
370
    25
100
AcDbLine
 10
265.1984461681
 20
310.7047551639999
 30
0.0
 11
269.6984461681
 21
310.7047551639999
 31
0.0
  0
LINE
  5
AA5
330
1F
100
AcDbEntity
  8
0
  6
Continuous
 62
     7
370
    25
100
AcDbLine
 10
269.6984461681
 20
310.7047551639999
 30
0.0
 11
269.6984461681
 21
306.7047551639999
 31
0.0
  0
LINE
  5
AA6
330
1F
100
AcDbEntity
  8
0
  6
Continuous
 62
     7
370
    25
100
AcDbLine
 10
269.6984461681
 20
306.7047551639999
 30
0.0
 11
265.1984461681
 21
306.7047551639999
 31
0.0
  0
LINE
  5
AA7
330
1F
100
AcDbEntity
  8
0
  6
Continuous
 62
     7
370
    25
100
AcDbLine
 10
265.1984461681
 20
306.7047551639999
 30
0.0
 11
265.1984461681
 21
310.7047551639999
 31
0.0
  0
LINE
  5
AA8
330
1F
100
AcDbEntity
  8
0
  6
Continuous
 62
     7
370
    25
100
AcDbLine
 10
275.1984461681
 20
316.704755164
 30
0.0
 11
270.6984461681
 21
316.704755164
 31
0.0
  0
LINE
  5
AA9
330
1F
100
AcDbEntity
  8
0
  6
Continuous
 62
     7
370
    25
100
AcDbLine
 10
275.1984461681
 20
306.7047551639999
 30
0.0
 11
275.1984461681
 21
316.704755164
 31
0.0
  0
LINE
  5
AAA
330
1F
100
AcDbEntity
  8
0
  6
Continuous
 62
     7
370
    25
100
AcDbLine
 10
275.1984461681
 20
306.7047551639999
 30
0.0
 11
269.6984461681
 21
306.7047551639999
 31
0.0
  0
LINE
  5
AAB
330
1F
100
AcDbEntity
  8
0
  6
Continuous
 62
     7
370
    25
100
AcDbLine
 10
270.6984461681
 20
322.704755164
 30
0.0
 11
270.9984461681
 21
322.704755164
 31
0.0
  0
LINE
  5
AAC
330
1F
100
AcDbEntity
  8
0
  6
Continuous
 62
     7
370
    25
100
AcDbLine
 10
275.1984461681
 20
316.9547551639999
 30
0.0
 11
275.1984461681
 21
316.704755164
 31
0.0
  0
LINE
  5
AAD
330
1F
100
AcDbEntity
  8
0
  6
Continuous
 62
     7
370
    25
100
AcDbLine
 10
270.6984461681
 20
331.704755164
 30
0.0
 11
270.9984461681
 21
331.704755164
 31
0.0
  0
LINE
  5
AAE
330
1F
100
AcDbEntity
  8
0
  6
Continuous
 62
     7
370
    25
100
AcDbLine
 10
275.1984461681
 20
316.704755164
 30
0.0
 11
285.1984461681
 21
316.704755164
 31
0.0
  0
LINE
  5
AAF
330
1F
100
AcDbEntity
  8
0
  6
Continuous
 62
     7
370
    25
100
AcDbLine
 10
285.1984461681
 20
316.9547551639999
 30
0.0
 11
285.1984461681
 21
316.704755164
 31
0.0
  0
LINE
  5
AB0
330
1F
100
AcDbEntity
  8
0
  6
Continuous
 62
     7
370
    25
100
AcDbLine
 10
275.1984461681
 20
341.704755164
 30
0.0
 11
275.1984461681
 21
334.2273831706714
 31
0.0
  0
LINE
  5
AB1
330
1F
100
AcDbEntity
  8
0
  6
Continuous
 62
     8
370
    25
100
AcDbLine
 10
270.6984461681
 20
341.704755164
 30
0.0
 11
270.9984461681002
 21
341.704755164
 31
0.0
  0
LINE
  5
AB2
330
1F
100
AcDbEntity
  8
0
  6
Continuous
 62
     8
370
    25
100
AcDbLine
 10
273.4984461681002
 20
341.704755164
 30
0.0
 11
275.1984461681
 21
341.704755164
 31
0.0
  0
ARC
  5
AB3
330
1F
100
AcDbEntity
  8
0
  6
Continuous
 62
     7
370
    25
100
AcDbCircle
 10
171.0485585772499
 20
545.8550705796999
 30
0.0
 40
4.000000000000114
100
AcDbArc
 50
90.0
 51
180.0
  0
LINE
  5
AB4
330
1F
100
AcDbEntity
  8
0
  6
Continuous
 62
     7
370
    25
100
AcDbLine
 10
171.0485585772499
 20
549.8550705797002
 30
0.0
 11
238.0485585772501
 21
549.8550705797002
 31
0.0
  0
ARC
  5
AB5
330
1F
100
AcDbEntity
  8
0
  6
Continuous
 62
     7
370
    25
100
AcDbCircle
 10
238.0485585772501
 20
545.8550705796999
 30
0.0
 40
4.000000000000114
100
AcDbArc
 50
0.0
 51
90.0
  0
LINE
  5
AB6
330
1F
100
AcDbEntity
  8
0
  6
Continuous
 62
     7
370
    25
100
AcDbLine
 10
242.0485585772501
 20
545.8550705796999
 30
0.0
 11
242.0485585772501
 21
468.8550705797
 31
0.0
  0
ARC
  5
AB7
330
1F
100
AcDbEntity
  8
0
  6
Continuous
 62
     7
370
    25
100
AcDbCircle
 10
238.0485585772501
 20
468.8550705797
 30
0.0
 40
4.0
100
AcDbArc
 50
270.0
 51
0.0
  0
LINE
  5
AB8
330
1F
100
AcDbEntity
  8
0
  6
Continuous
 62
     7
370
    25
100
AcDbLine
 10
238.0485585772501
 20
464.8550705797
 30
0.0
 11
171.0485585772499
 21
464.8550705797
 31
0.0
  0
ARC
  5
AB9
330
1F
100
AcDbEntity
  8
0
  6
Continuous
 62
     7
370
    25
100
AcDbCircle
 10
171.0485585772499
 20
468.8550705797
 30
0.0
 40
4.0
100
AcDbArc
 50
180.0
 51
270.0
  0
LINE
  5
ABA
330
1F
100
AcDbEntity
  8
0
  6
Continuous
 62
     7
370
    25
100
AcDbLine
 10
167.0485585772499
 20
468.8550705797
 30
0.0
 11
167.0485585772499
 21
545.8550705796999
 31
0.0
  0
LINE
  5
ABB
330
1F
100
AcDbEntity
  8
0
  6
Continuous
 62
     7
370
    25
100
AcDbLine
 10
169.2985585773
 20
417.8006980674001
 30
0.0
 11
169.2985585773
 21
417.4006980674001
 31
0.0
  0
LINE
  5
ABC
330
1F
100
AcDbEntity
  8
0
  6
Continuous
 62
     7
370
    25
100
AcDbLine
 10
179.7985585773002
 20
417.4006980674001
 30
0.0
 11
179.7985585773002
 21
417.8006980674001
 31
0.0
  0
LINE
  5
ABD
330
1F
100
AcDbEntity
  8
0
  6
Continuous
 62
     7
370
    25
100
AcDbLine
 10
220.0485585773
 20
433.3006980674001
 30
0.0
 11
220.0485585773
 21
432.9006980673999
 31
0.0
  0
LINE
  5
ABE
330
1F
100
AcDbEntity
  8
0
  6
Continuous
 62
     7
370
    25
100
AcDbLine
 10
226.0485585773
 20
432.9006980673999
 30
0.0
 11
226.0485585773
 21
433.3006980674001
 31
0.0
  0
LINE
  5
ABF
330
1F
100
AcDbEntity
  8
0
  6
Continuous
 62
     7
370
    25
100
AcDbLine
 10
241.0485585773
 20
423.3006980674
 30
0.0
 11
241.0485585773
 21
422.9006980674
 31
0.0
  0
LINE
  5
AC0
330
1F
100
AcDbEntity
  8
0
  6
Continuous
 62
     7
370
    25
100
AcDbLine
 10
236.5485585773
 20
422.9006980674
 30
0.0
 11
236.5485585773
 21
423.3006980674
 31
0.0
  0
LINE
  5
AC1
330
1F
100
AcDbEntity
  8
0
  6
Continuous
 62
     7
370
    25
100
AcDbLine
 10
236.5485585773
 20
423.3006980674
 30
0.0
 11
241.0485585773
 21
423.3006980674
 31
0.0
  0
LINE
  5
AC2
330
1F
100
AcDbEntity
  8
0
  6
Continuous
 62
     7
370
    25
100
AcDbLine
 10
184.0485585773002
 20
423.3006980674
 30
0.0
 11
184.0485585773002
 21
422.9006980674
 31
0.0
  0
LINE
  5
AC3
330
1F
100
AcDbEntity
  8
0
  6
Continuous
 62
     7
370
    25
100
AcDbLine
 10
236.5485585773
 20
423.3006980674
 30
0.0
 11
184.0485585773002
 21
423.3006980674
 31
0.0
  0
LINE
  5
AC4
330
1F
100
AcDbEntity
  8
0
  6
Continuous
 62
     7
370
    25
100
AcDbLine
 10
182.0485585773
 20
422.9006980674
 30
0.0
 11
182.0485585773
 21
423.3006980674
 31
0.0
  0
LINE
  5
AC5
330
1F
100
AcDbEntity
  8
0
  6
Continuous
 62
     7
370
    25
100
AcDbLine
 10
182.0485585773
 20
423.3006980674
 30
0.0
 11
184.0485585773002
 21
423.3006980674
 31
0.0
  0
LINE
  5
AC6
330
1F
100
AcDbEntity
  8
0
  6
Continuous
 62
     7
370
    25
100
AcDbLine
 10
169.2985585773
 20
417.8006980674001
 30
0.0
 11
179.7985585773002
 21
417.8006980674001
 31
0.0
  0
LINE
  5
AC7
330
1F
100
AcDbEntity
  8
0
  6
Continuous
 62
     7
370
    25
100
AcDbLine
 10
234.0485585773
 20
433.3006980674001
 30
0.0
 11
234.0485585773
 21
433.7006980674001
 31
0.0
  0
LINE
  5
AC8
330
1F
100
AcDbEntity
  8
0
  6
Continuous
 62
     7
370
    25
100
AcDbLine
 10
239.5485585773002
 20
433.7006980674001
 30
0.0
 11
239.5485585773002
 21
433.3006980674001
 31
0.0
  0
LINE
  5
AC9
330
1F
100
AcDbEntity
  8
0
  6
Continuous
 62
     7
370
    25
100
AcDbLine
 10
239.5485585773002
 20
433.3006980674001
 30
0.0
 11
234.0485585773
 21
433.3006980674001
 31
0.0
  0
LINE
  5
ACA
330
1F
100
AcDbEntity
  8
0
  6
Continuous
 62
     7
370
    25
100
AcDbLine
 10
206.0485585773
 20
433.3006980674001
 30
0.0
 11
234.0485585773
 21
433.3006980674001
 31
0.0
  0
LINE
  5
ACB
330
1F
100
AcDbEntity
  8
0
  6
Continuous
 62
     7
370
    25
100
AcDbLine
 10
206.0485585773
 20
433.7006980674001
 30
0.0
 11
206.0485585773
 21
433.3006980674001
 31
0.0
  0
LINE
  5
ACC
330
1F
100
AcDbEntity
  8
0
  6
Continuous
 62
     7
370
    25
100
AcDbLine
 10
200.5485585773
 20
433.3006980674001
 30
0.0
 11
200.5485585773
 21
433.7006980674001
 31
0.0
  0
LINE
  5
ACD
330
1F
100
AcDbEntity
  8
0
  6
Continuous
 62
     7
370
    25
100
AcDbLine
 10
206.0485585773
 20
433.3006980674001
 30
0.0
 11
200.5485585773
 21
433.3006980674001
 31
0.0
  0
CIRCLE
  5
ACE
330
1F
100
AcDbEntity
  8
0
  6
Continuous
 62
     7
370
    25
100
AcDbCircle
 10
220.0485585773
 20
436.2006980674001
 30
0.0
 40
1.000000000033197
  0
LINE
  5
ACF
330
1F
100
AcDbEntity
  8
0
  6
Continuous
 62
     7
370
    25
100
AcDbLine
 10
219.6155458752822
 20
436.9506980673273
 30
0.0
 11
219.1825331735157
 21
436.2006980672549
 31
0.0
  0
LINE
  5
AD0
330
1F
100
AcDbEntity
  8
0
  6
Continuous
 62
     7
370
    25
100
AcDbLine
 10
219.1825331735157
 20
436.2006980672549
 30
0.0
 11
219.6155458755335
 21
435.4506980673274
 31
0.0
  0
LINE
  5
AD1
330
1F
100
AcDbEntity
  8
0
  6
Continuous
 62
     7
370
    25
100
AcDbLine
 10
219.6155458755335
 20
435.4506980673274
 30
0.0
 11
220.481571279318
 21
435.4506980674724
 31
0.0
  0
LINE
  5
AD2
330
1F
100
AcDbEntity
  8
0
  6
Continuous
 62
     7
370
    25
100
AcDbLine
 10
220.481571279318
 20
435.4506980674724
 30
0.0
 11
220.914583981085
 21
436.200698067545
 31
0.0
  0
LINE
  5
AD3
330
1F
100
AcDbEntity
  8
0
  6
Continuous
 62
     7
370
    25
100
AcDbLine
 10
220.4815712790668
 20
436.9506980674725
 30
0.0
 11
220.914583981085
 21
436.200698067545
 31
0.0
  0
LINE
  5
AD4
330
1F
100
AcDbEntity
  8
0
  6
Continuous
 62
     7
370
    25
100
AcDbLine
 10
220.4815712790668
 20
436.9506980674725
 30
0.0
 11
219.6155458752822
 21
436.9506980673273
 31
0.0
  0
LINE
  5
AD5
330
1F
100
AcDbEntity
  8
0
  6
Continuous
 62
     7
370
    25
100
AcDbLine
 10
238.0485585773
 20
433.7006980674001
 30
0.0
 11
238.0485585773
 21
443.7006980674001
 31
0.0
  0
LINE
  5
AD6
330
1F
100
AcDbEntity
  8
0
  6
Continuous
 62
     7
370
    25
100
AcDbLine
 10
238.0485585773
 20
443.7006980674001
 30
0.0
 11
242.0485585773002
 21
443.7006980674001
 31
0.0
  0
LINE
  5
AD7
330
1F
100
AcDbEntity
  8
0
  6
Continuous
 62
     7
370
    25
100
AcDbLine
 10
242.0485585773002
 20
443.7006980674001
 30
0.0
 11
242.0485585773002
 21
433.7006980674001
 31
0.0
  0
LINE
  5
AD8
330
1F
100
AcDbEntity
  8
0
  6
Continuous
 62
     7
370
    25
100
AcDbLine
 10
242.0485585773002
 20
433.7006980674001
 30
0.0
 11
238.0485585773
 21
433.7006980674001
 31
0.0
  0
LINE
  5
AD9
330
1F
100
AcDbEntity
  8
0
  6
Continuous
 62
     7
370
    25
100
AcDbLine
 10
197.0485585773
 20
439.2006980674
 30
0.0
 11
182.0485585773
 21
439.2006980674
 31
0.0
  0
LINE
  5
ADA
330
1F
100
AcDbEntity
  8
0
  6
Continuous
 62
     7
370
    25
100
AcDbLine
 10
204.8427872113601
 20
443.7006980674001
 30
0.0
 11
197.0485585773
 21
439.2006980674
 31
0.0
  0
LINE
  5
ADB
330
1F
100
AcDbEntity
  8
0
  6
Continuous
 62
     7
370
    25
100
AcDbLine
 10
204.8427872113601
 20
443.7006980674001
 30
0.0
 11
238.0485585773
 21
443.7006980674001
 31
0.0
  0
CIRCLE
  5
ADC
330
1F
100
AcDbEntity
  8
0
  6
Continuous
 62
     7
370
    25
100
AcDbCircle
 10
220.0485585773
 20
436.2006980674001
 30
0.0
 40
1.25
  0
LINE
  5
ADD
330
1F
100
AcDbEntity
  8
0
  6
Continuous
 62
     7
370
    25
100
AcDbLine
 10
182.0485585773
 20
433.7006980674001
 30
0.0
 11
182.0485585773
 21
439.2006980674
 31
0.0
  0
LINE
  5
ADE
330
1F
100
AcDbEntity
  8
0
  6
Continuous
 62
     7
370
    25
100
AcDbLine
 10
182.0485585773
 20
433.7006980674001
 30
0.0
 11
238.0485585773
 21
433.7006980674001
 31
0.0
  0
LINE
  5
ADF
330
1F
100
AcDbEntity
  8
0
  6
Continuous
 62
     7
370
    25
100
AcDbLine
 10
185.0485585773002
 20
423.3006980674
 30
0.0
 11
185.0485585773002
 21
433.7006980673997
 31
0.0
  0
LINE
  5
AE0
330
1F
100
AcDbEntity
  8
0
  6
Continuous
 62
     7
370
    25
100
AcDbLine
 10
182.0485585773
 20
423.3006980674
 30
0.0
 11
182.0485585773
 21
433.7006980673997
 31
0.0
  0
LINE
  5
AE1
330
1F
100
AcDbEntity
  8
0
  6
Continuous
 62
     7
370
    25
100
AcDbLine
 10
171.0485585773
 20
417.4006980674
 30
0.0
 11
171.0485585773
 21
412.9006980674
 31
0.0
  0
LINE
  5
AE2
330
1F
100
AcDbEntity
  8
0
  6
Continuous
 62
     7
370
    25
100
AcDbLine
 10
171.0485585773
 20
417.4006980674
 30
0.0
 11
182.0485585773
 21
417.4006980674
 31
0.0
  0
LINE
  5
AE3
330
1F
100
AcDbEntity
  8
0
  6
Continuous
 62
     7
370
    25
100
AcDbLine
 10
182.0485585773
 20
422.9006980674
 30
0.0
 11
182.0485585773
 21
417.4006980674
 31
0.0
  0
LINE
  5
AE4
330
1F
100
AcDbEntity
  8
0
  6
Continuous
 62
     7
370
    25
100
AcDbLine
 10
238.0485585773002
 20
422.9006980674
 30
0.0
 11
182.0485585773
 21
422.9006980674
 31
0.0
  0
LINE
  5
AE5
330
1F
100
AcDbEntity
  8
0
  6
Continuous
 62
     7
370
    25
100
AcDbLine
 10
238.0485585773002
 20
412.9006980674
 30
0.0
 11
238.0485585773002
 21
422.9006980674
 31
0.0
  0
LINE
  5
AE6
330
1F
100
AcDbEntity
  8
0
  6
Continuous
 62
     7
370
    25
100
AcDbLine
 10
171.0485585773
 20
412.9006980674
 30
0.0
 11
238.0485585773002
 21
412.9006980674
 31
0.0
  0
LINE
  5
AE7
330
1F
100
AcDbEntity
  8
0
  6
Continuous
 62
     7
370
    25
100
AcDbLine
 10
167.0485585773
 20
412.9006980674
 30
0.0
 11
167.0485585773
 21
417.4006980674001
 31
0.0
  0
LINE
  5
AE8
330
1F
100
AcDbEntity
  8
0
  6
Continuous
 62
     7
370
    25
100
AcDbLine
 10
171.0485585773
 20
412.9006980674
 30
0.0
 11
167.0485585773
 21
412.9006980674
 31
0.0
  0
LINE
  5
AE9
330
1F
100
AcDbEntity
  8
0
  6
Continuous
 62
     7
370
    25
100
AcDbLine
 10
167.0485585773
 20
417.4006980674001
 30
0.0
 11
171.0485585773
 21
417.4006980674
 31
0.0
  0
LINE
  5
AEA
330
1F
100
AcDbEntity
  8
0
  6
Continuous
 62
     7
370
    25
100
AcDbLine
 10
238.0485585773002
 20
422.9006980674
 30
0.0
 11
242.0485585773002
 21
422.9006980674
 31
0.0
  0
LINE
  5
AEB
330
1F
100
AcDbEntity
  8
0
  6
Continuous
 62
     7
370
    25
100
AcDbLine
 10
242.0485585773002
 20
422.9006980674
 30
0.0
 11
242.0485585773002
 21
412.9006980674
 31
0.0
  0
LINE
  5
AEC
330
1F
100
AcDbEntity
  8
0
  6
Continuous
 62
     7
370
    25
100
AcDbLine
 10
242.0485585773002
 20
412.9006980674
 30
0.0
 11
238.0485585773002
 21
412.9006980674
 31
0.0
  0
LINE
  5
AED
330
1F
100
AcDbEntity
  8
0
  6
Continuous
 62
     7
370
    25
100
AcDbLine
 10
185.0485585773002
 20
432.9006980674
 30
0.0
 11
188.0485585773
 21
432.9006980674
 31
0.0
  0
LINE
  5
AEE
330
1F
100
AcDbEntity
  8
0
  6
Continuous
 62
     7
370
    25
100
AcDbLine
 10
225.0485585773
 20
432.9006980674
 30
0.0
 11
229.0485585773
 21
432.9006980674
 31
0.0
  0
LINE
  5
AEF
330
1F
100
AcDbEntity
  8
0
  6
Continuous
 62
     7
370
    25
100
AcDbLine
 10
229.0485585773
 20
432.9006980674
 30
0.0
 11
229.0485585773
 21
423.3006980673999
 31
0.0
  0
LINE
  5
AF0
330
1F
100
AcDbEntity
  8
0
  6
Continuous
 62
     7
370
    25
100
AcDbLine
 10
188.0485585773
 20
423.3006980673998
 30
0.0
 11
188.0485585773
 21
432.9006980674
 31
0.0
  0
LINE
  5
AF1
330
1F
100
AcDbEntity
  8
0
  6
Continuous
 62
     7
370
    25
100
AcDbLine
 10
188.0485585773
 20
432.9006980674
 30
0.0
 11
225.0485585773
 21
432.9006980674
 31
0.0
  0
LINE
  5
AF2
330
1F
100
AcDbEntity
  8
0
  6
Continuous
 62
     8
370
    25
100
AcDbLine
 10
225.0485585773
 20
423.3006980674
 30
0.0
 11
225.0485585773
 21
432.9006980674
 31
0.0
  0
CIRCLE
  5
AF3
330
1F
100
AcDbEntity
  8
0
  6
Continuous
 62
     7
370
    25
100
AcDbCircle
 10
174.5485600674
 20
379.2047547170001
 30
0.0
 40
5.25
  0
CIRCLE
  5
AF4
330
1F
100
AcDbEntity
  8
0
  6
Continuous
 62
     7
370
    25
100
AcDbCircle
 10
174.5485600674
 20
319.2047547170001
 30
0.0
 40
5.250000000000126
  0
LINE
  5
AF5
330
1F
100
AcDbEntity
  8
0
  6
Continuous
 62
     7
370
    25
100
AcDbLine
 10
204.8427887014601
 20
306.704754717
 30
0.0
 11
204.8427887014601
 21
391.7047547170001
 31
0.0
  0
LINE
  5
AF6
330
1F
100
AcDbEntity
  8
0
  6
Continuous
 62
     7
370
    25
100
AcDbLine
 10
204.8427887014601
 20
306.704754717
 30
0.0
 11
197.0485600674
 21
306.704754717
 31
0.0
  0
LINE
  5
AF7
330
1F
100
AcDbEntity
  8
0
  6
Continuous
 62
     7
370
    25
100
AcDbLine
 10
197.0485600674
 20
306.704754717
 30
0.0
 11
197.0485600674
 21
391.7047547170001
 31
0.0
  0
LINE
  5
AF8
330
1F
100
AcDbEntity
  8
0
  6
Continuous
 62
     7
370
    25
100
AcDbLine
 10
204.8427887014601
 20
391.7047547170001
 30
0.0
 11
197.0485600674
 21
391.7047547170001
 31
0.0
  0
ARC
  5
AF9
330
1F
100
AcDbEntity
  8
0
  6
Continuous
 62
     7
370
    25
100
AcDbCircle
 10
238.0485600674002
 20
310.704754717
 30
0.0
 40
4.0
100
AcDbArc
 50
270.0
 51
0.0
  0
LINE
  5
AFA
330
1F
100
AcDbEntity
  8
0
  6
Continuous
 62
     7
370
    25
100
AcDbLine
 10
204.8427887014601
 20
306.704754717
 30
0.0
 11
238.0485600674002
 21
306.704754717
 31
0.0
  0
ARC
  5
AFB
330
1F
100
AcDbEntity
  8
0
  6
Continuous
 62
     7
370
    25
100
AcDbCircle
 10
238.0485600674002
 20
387.7047547170001
 30
0.0
 40
4.0
100
AcDbArc
 50
0.0
 51
90.0
  0
LINE
  5
AFC
330
1F
100
AcDbEntity
  8
0
  6
Continuous
 62
     7
370
    25
100
AcDbLine
 10
238.0485600674002
 20
391.7047547170001
 30
0.0
 11
204.8427887014601
 21
391.7047547170001
 31
0.0
  0
LINE
  5
AFD
330
1F
100
AcDbEntity
  8
0
  6
Continuous
 62
     7
370
    25
100
AcDbLine
 10
242.0485600674
 20
310.704754717
 30
0.0
 11
242.0485600674
 21
387.7047547170001
 31
0.0
  0
LINE
  5
AFE
330
1F
100
AcDbEntity
  8
0
  6
Continuous
 62
     7
370
    25
100
AcDbLine
 10
182.0485600674
 20
306.704754717
 30
0.0
 11
182.0485600674
 21
316.554754717
 31
0.0
  0
LINE
  5
AFF
330
1F
100
AcDbEntity
  8
0
  6
Continuous
 62
     7
370
    25
100
AcDbLine
 10
182.0485600674
 20
316.554754717
 30
0.0
 11
185.0485600674002
 21
316.554754717
 31
0.0
  0
LINE
  5
B00
330
1F
100
AcDbEntity
  8
0
  6
Continuous
 62
     7
370
    25
100
AcDbLine
 10
185.0485600674002
 20
316.554754717
 30
0.0
 11
185.0485600674002
 21
381.854754717
 31
0.0
  0
LINE
  5
B01
330
1F
100
AcDbEntity
  8
0
  6
Continuous
 62
     7
370
    25
100
AcDbLine
 10
182.0485600674
 20
381.854754717
 30
0.0
 11
182.0485600674
 21
391.7047547170001
 31
0.0
  0
LINE
  5
B02
330
1F
100
AcDbEntity
  8
0
  6
Continuous
 62
     7
370
    25
100
AcDbLine
 10
185.0485600674002
 20
381.854754717
 30
0.0
 11
182.0485600674
 21
381.854754717
 31
0.0
  0
LINE
  5
B03
330
1F
100
AcDbEntity
  8
0
  6
Continuous
 62
     7
370
    25
100
AcDbLine
 10
197.0485600674
 20
306.704754717
 30
0.0
 11
182.0485600674
 21
306.704754717
 31
0.0
  0
LINE
  5
B04
330
1F
100
AcDbEntity
  8
0
  6
Continuous
 62
     7
370
    25
100
AcDbLine
 10
197.0485600674
 20
391.7047547170001
 30
0.0
 11
182.0485600674
 21
391.7047547170001
 31
0.0
  0
LINE
  5
B05
330
1F
100
AcDbEntity
  8
0
  6
Continuous
 62
     7
370
    25
100
AcDbLine
 10
185.0485600674002
 20
316.954754717
 30
0.0
 11
182.0485600674
 21
316.954754717
 31
0.0
  0
LINE
  5
B06
330
1F
100
AcDbEntity
  8
0
  6
Continuous
 62
     7
370
    25
100
AcDbLine
 10
185.0485600674002
 20
381.4547547170001
 30
0.0
 11
182.0485600674
 21
381.4547547170001
 31
0.0
  0
LINE
  5
B07
330
1F
100
AcDbEntity
  8
0
  6
Continuous
 62
     7
370
    25
100
AcDbLine
 10
182.0485600674
 20
316.954754717
 30
0.0
 11
182.0485600674
 21
381.4547547170001
 31
0.0
  0
LINE
  5
B08
330
1F
100
AcDbEntity
  8
0
  6
Continuous
 62
     7
370
    25
100
AcDbLine
 10
182.0485600674
 20
316.554754717
 30
0.0
 11
182.0485600674
 21
316.7047547170001
 31
0.0
  0
LINE
  5
B09
330
1F
100
AcDbEntity
  8
0
  6
Continuous
 62
     7
370
    25
100
AcDbLine
 10
185.0485600674002
 20
316.7047547170001
 30
0.0
 11
182.0485600674
 21
316.7047547170001
 31
0.0
  0
LINE
  5
B0A
330
1F
100
AcDbEntity
  8
0
  6
Continuous
 62
     7
370
    25
100
AcDbLine
 10
182.0485600674
 20
381.7047547170001
 30
0.0
 11
185.0485600674002
 21
381.7047547170001
 31
0.0
  0
LINE
  5
B0B
330
1F
100
AcDbEntity
  8
0
  6
Continuous
 62
     7
370
    25
100
AcDbLine
 10
182.0485600674
 20
381.854754717
 30
0.0
 11
182.0485600674
 21
381.7047547170001
 31
0.0
  0
LINE
  5
B0C
330
1F
100
AcDbEntity
  8
0
  6
Continuous
 62
     7
370
    25
100
AcDbLine
 10
182.0485600674
 20
316.7047547170001
 30
0.0
 11
182.0485600674
 21
316.954754717
 31
0.0
  0
LINE
  5
B0D
330
1F
100
AcDbEntity
  8
0
  6
Continuous
 62
     7
370
    25
100
AcDbLine
 10
182.0485600674
 20
381.4547547170001
 30
0.0
 11
182.0485600674
 21
381.7047547170001
 31
0.0
  0
ARC
  5
B0E
330
1F
100
AcDbEntity
  8
0
  6
Continuous
 62
     7
370
    25
100
AcDbCircle
 10
171.0485600674
 20
310.704754717
 30
0.0
 40
4.0
100
AcDbArc
 50
180.0
 51
270.0
  0
LINE
  5
B0F
330
1F
100
AcDbEntity
  8
0
  6
Continuous
 62
     7
370
    25
100
AcDbLine
 10
167.0485600674
 20
310.704754717
 30
0.0
 11
167.0485600674
 21
387.7047547170001
 31
0.0
  0
ARC
  5
B10
330
1F
100
AcDbEntity
  8
0
  6
Continuous
 62
     7
370
    25
100
AcDbCircle
 10
171.0485600674
 20
387.7047547170001
 30
0.0
 40
4.0
100
AcDbArc
 50
90.0
 51
180.0
  0
CIRCLE
  5
B11
330
1F
100
AcDbEntity
  8
0
  6
Continuous
 62
     7
370
    25
100
AcDbCircle
 10
174.5485600674
 20
319.2047547170001
 30
0.0
 40
5.5
  0
CIRCLE
  5
B12
330
1F
100
AcDbEntity
  8
0
  6
Continuous
 62
     7
370
    25
100
AcDbCircle
 10
174.5485600674
 20
379.2047547170001
 30
0.0
 40
5.500000000000114
  0
LINE
  5
B13
330
1F
100
AcDbEntity
  8
0
  6
Continuous
 62
     7
370
    25
100
AcDbLine
 10
171.0485600674
 20
306.704754717
 30
0.0
 11
182.0485600674
 21
306.704754717
 31
0.0
  0
LINE
  5
B14
330
1F
100
AcDbEntity
  8
0
  6
Continuous
 62
     7
370
    25
100
AcDbLine
 10
171.0485600674
 20
391.7047547170001
 30
0.0
 11
182.0485600674
 21
391.7047547170001
 31
0.0
  0
LINE
  5
B15
330
1F
100
AcDbEntity
  8
0
  6
Continuous
 62
     7
370
    25
100
AcDbLine
 10
179.7985570871
 20
273.173522174
 30
0.0
 11
179.7985570871
 21
273.573522174
 31
0.0
  0
LINE
  5
B16
330
1F
100
AcDbEntity
  8
0
  6
Continuous
 62
     7
370
    25
100
AcDbLine
 10
169.2985570871
 20
273.573522174
 30
0.0
 11
169.2985570871
 21
273.173522174
 31
0.0
  0
LINE
  5
B17
330
1F
100
AcDbEntity
  8
0
  6
Continuous
 62
     7
370
    25
100
AcDbLine
 10
226.0485570871
 20
257.673522174
 30
0.0
 11
226.0485570871
 21
258.0735221740002
 31
0.0
  0
LINE
  5
B18
330
1F
100
AcDbEntity
  8
0
  6
Continuous
 62
     7
370
    25
100
AcDbLine
 10
220.0485570871
 20
258.0735221740002
 30
0.0
 11
220.0485570871
 21
257.673522174
 31
0.0
  0
LINE
  5
B19
330
1F
100
AcDbEntity
  8
0
  6
Continuous
 62
     7
370
    25
100
AcDbLine
 10
236.5485570871
 20
267.673522174
 30
0.0
 11
236.5485570871
 21
268.073522174
 31
0.0
  0
LINE
  5
B1A
330
1F
100
AcDbEntity
  8
0
  6
Continuous
 62
     7
370
    25
100
AcDbLine
 10
184.0485570871002
 20
267.673522174
 30
0.0
 11
236.5485570871
 21
267.673522174
 31
0.0
  0
LINE
  5
B1B
330
1F
100
AcDbEntity
  8
0
  6
Continuous
 62
     7
370
    25
100
AcDbLine
 10
184.0485570871002
 20
268.073522174
 30
0.0
 11
184.0485570871002
 21
267.673522174
 31
0.0
  0
LINE
  5
B1C
330
1F
100
AcDbEntity
  8
0
  6
Continuous
 62
     7
370
    25
100
AcDbLine
 10
241.0485570871
 20
268.073522174
 30
0.0
 11
241.0485570871
 21
267.673522174
 31
0.0
  0
LINE
  5
B1D
330
1F
100
AcDbEntity
  8
0
  6
Continuous
 62
     7
370
    25
100
AcDbLine
 10
241.0485570871
 20
267.673522174
 30
0.0
 11
236.5485570871
 21
267.673522174
 31
0.0
  0
LINE
  5
B1E
330
1F
100
AcDbEntity
  8
0
  6
Continuous
 62
     7
370
    25
100
AcDbLine
 10
182.0485570871
 20
267.673522174
 30
0.0
 11
182.0485570871
 21
268.073522174
 31
0.0
  0
LINE
  5
B1F
330
1F
100
AcDbEntity
  8
0
  6
Continuous
 62
     7
370
    25
100
AcDbLine
 10
184.0485570871002
 20
267.673522174
 30
0.0
 11
182.0485570871
 21
267.673522174
 31
0.0
  0
LINE
  5
B20
330
1F
100
AcDbEntity
  8
0
  6
Continuous
 62
     7
370
    25
100
AcDbLine
 10
174.5485570871
 20
273.173522174
 30
0.0
 11
169.2985570871
 21
273.173522174
 31
0.0
  0
LINE
  5
B21
330
1F
100
AcDbEntity
  8
0
  6
Continuous
 62
     7
370
    25
100
AcDbLine
 10
179.7985570871
 20
273.173522174
 30
0.0
 11
174.5485570871
 21
273.173522174
 31
0.0
  0
LINE
  5
B22
330
1F
100
AcDbEntity
  8
0
  6
Continuous
 62
     7
370
    25
100
AcDbLine
 10
239.5485570871002
 20
257.673522174
 30
0.0
 11
239.5485570871002
 21
257.273522174
 31
0.0
  0
LINE
  5
B23
330
1F
100
AcDbEntity
  8
0
  6
Continuous
 62
     7
370
    25
100
AcDbLine
 10
234.0485570871
 20
257.273522174
 30
0.0
 11
234.0485570871
 21
257.673522174
 31
0.0
  0
LINE
  5
B24
330
1F
100
AcDbEntity
  8
0
  6
Continuous
 62
     7
370
    25
100
AcDbLine
 10
234.0485570871
 20
257.673522174
 30
0.0
 11
239.5485570871002
 21
257.673522174
 31
0.0
  0
LINE
  5
B25
330
1F
100
AcDbEntity
  8
0
  6
Continuous
 62
     7
370
    25
100
AcDbLine
 10
206.0485570871
 20
257.673522174
 30
0.0
 11
206.0485570871
 21
257.273522174
 31
0.0
  0
LINE
  5
B26
330
1F
100
AcDbEntity
  8
0
  6
Continuous
 62
     7
370
    25
100
AcDbLine
 10
200.5485570871
 20
257.273522174
 30
0.0
 11
200.5485570871
 21
257.673522174
 31
0.0
  0
LINE
  5
B27
330
1F
100
AcDbEntity
  8
0
  6
Continuous
 62
     7
370
    25
100
AcDbLine
 10
200.5485570871
 20
257.673522174
 30
0.0
 11
206.0485570871
 21
257.673522174
 31
0.0
  0
LINE
  5
B28
330
1F
100
AcDbEntity
  8
0
  6
Continuous
 62
     7
370
    25
100
AcDbLine
 10
234.0485570871
 20
257.673522174
 30
0.0
 11
206.0485570871
 21
257.673522174
 31
0.0
  0
CIRCLE
  5
B29
330
1F
100
AcDbEntity
  8
0
  6
Continuous
 62
     7
370
    25
100
AcDbCircle
 10
220.0485570871
 20
254.773522174
 30
0.0
 40
1.000000000033197
  0
LINE
  5
B2A
330
1F
100
AcDbEntity
  8
0
  6
Continuous
 62
     7
370
    25
100
AcDbLine
 10
219.6155443852346
 20
255.5235221740153
 30
0.0
 11
219.1825316833157
 21
254.7735221740306
 31
0.0
  0
LINE
  5
B2B
330
1F
100
AcDbEntity
  8
0
  6
Continuous
 62
     7
370
    25
100
AcDbLine
 10
219.1825316833157
 20
254.7735221740306
 30
0.0
 11
219.6155443851814
 21
254.0235221740154
 31
0.0
  0
LINE
  5
B2C
330
1F
100
AcDbEntity
  8
0
  6
Continuous
 62
     7
370
    25
100
AcDbLine
 10
219.6155443851814
 20
254.0235221740154
 30
0.0
 11
220.4815697889657
 21
254.0235221739846
 31
0.0
  0
LINE
  5
B2D
330
1F
100
AcDbEntity
  8
0
  6
Continuous
 62
     7
370
    25
100
AcDbLine
 10
220.4815697889657
 20
254.0235221739846
 30
0.0
 11
220.914582490885
 21
254.7735221739692
 31
0.0
  0
LINE
  5
B2E
330
1F
100
AcDbEntity
  8
0
  6
Continuous
 62
     7
370
    25
100
AcDbLine
 10
220.4815697890189
 20
255.5235221739847
 30
0.0
 11
220.914582490885
 21
254.7735221739692
 31
0.0
  0
LINE
  5
B2F
330
1F
100
AcDbEntity
  8
0
  6
Continuous
 62
     7
370
    25
100
AcDbLine
 10
220.4815697890189
 20
255.5235221739847
 30
0.0
 11
219.6155443852346
 21
255.5235221740153
 31
0.0
  0
LINE
  5
B30
330
1F
100
AcDbEntity
  8
0
  6
Continuous
 62
     7
370
    25
100
AcDbLine
 10
242.0485570871002
 20
257.273522174
 30
0.0
 11
242.0485570871002
 21
247.273522174
 31
0.0
  0
LINE
  5
B31
330
1F
100
AcDbEntity
  8
0
  6
Continuous
 62
     7
370
    25
100
AcDbLine
 10
242.0485570871002
 20
247.273522174
 30
0.0
 11
238.0485570871002
 21
247.273522174
 31
0.0
  0
LINE
  5
B32
330
1F
100
AcDbEntity
  8
0
  6
Continuous
 62
     7
370
    25
100
AcDbLine
 10
238.0485570871002
 20
247.273522174
 30
0.0
 11
238.0485570871002
 21
257.273522174
 31
0.0
  0
LINE
  5
B33
330
1F
100
AcDbEntity
  8
0
  6
Continuous
 62
     7
370
    25
100
AcDbLine
 10
238.0485570871002
 20
257.273522174
 30
0.0
 11
242.0485570871002
 21
257.273522174
 31
0.0
  0
LINE
  5
B34
330
1F
100
AcDbEntity
  8
0
  6
Continuous
 62
     7
370
    25
100
AcDbLine
 10
204.8427857211601
 20
247.273522174
 30
0.0
 11
197.0485570871
 21
251.773522174
 31
0.0
  0
LINE
  5
B35
330
1F
100
AcDbEntity
  8
0
  6
Continuous
 62
     7
370
    25
100
AcDbLine
 10
197.0485570871
 20
251.773522174
 30
0.0
 11
182.0485570871
 21
251.773522174
 31
0.0
  0
LINE
  5
B36
330
1F
100
AcDbEntity
  8
0
  6
Continuous
 62
     7
370
    25
100
AcDbLine
 10
182.0485570871
 20
257.273522174
 30
0.0
 11
182.0485570871
 21
251.773522174
 31
0.0
  0
LINE
  5
B37
330
1F
100
AcDbEntity
  8
0
  6
Continuous
 62
     7
370
    25
100
AcDbLine
 10
238.0485570871002
 20
247.273522174
 30
0.0
 11
204.8427857211601
 21
247.273522174
 31
0.0
  0
CIRCLE
  5
B38
330
1F
100
AcDbEntity
  8
0
  6
Continuous
 62
     7
370
    25
100
AcDbCircle
 10
220.0485570871
 20
254.773522174
 30
0.0
 40
1.25
  0
LINE
  5
B39
330
1F
100
AcDbEntity
  8
0
  6
Continuous
 62
     7
370
    25
100
AcDbLine
 10
238.0485570871002
 20
257.273522174
 30
0.0
 11
182.0485570871
 21
257.273522174
 31
0.0
  0
LINE
  5
B3A
330
1F
100
AcDbEntity
  8
0
  6
Continuous
 62
     7
370
    25
100
AcDbLine
 10
182.0485570871
 20
257.2735221740003
 30
0.0
 11
182.0485570871
 21
267.6735221740003
 31
0.0
  0
LINE
  5
B3B
330
1F
100
AcDbEntity
  8
0
  6
Continuous
 62
     7
370
    25
100
AcDbLine
 10
185.0485570871002
 20
257.2735221740003
 30
0.0
 11
185.0485570871002
 21
267.6735221740003
 31
0.0
  0
LINE
  5
B3C
330
1F
100
AcDbEntity
  8
0
  6
Continuous
 62
     7
370
    25
100
AcDbLine
 10
238.0485570871002
 20
268.073522174
 30
0.0
 11
238.0485570871002
 21
278.073522174
 31
0.0
  0
LINE
  5
B3D
330
1F
100
AcDbEntity
  8
0
  6
Continuous
 62
     7
370
    25
100
AcDbLine
 10
182.0485570871
 20
268.073522174
 30
0.0
 11
238.0485570871002
 21
268.073522174
 31
0.0
  0
LINE
  5
B3E
330
1F
100
AcDbEntity
  8
0
  6
Continuous
 62
     7
370
    25
100
AcDbLine
 10
182.0485570871
 20
273.5735221740001
 30
0.0
 11
182.0485570871
 21
268.073522174
 31
0.0
  0
LINE
  5
B3F
330
1F
100
AcDbEntity
  8
0
  6
Continuous
 62
     7
370
    25
100
AcDbLine
 10
171.0485570871
 20
273.5735221740001
 30
0.0
 11
182.0485570871
 21
273.5735221740001
 31
0.0
  0
LINE
  5
B40
330
1F
100
AcDbEntity
  8
0
  6
Continuous
 62
     7
370
    25
100
AcDbLine
 10
171.0485570871
 20
278.073522174
 30
0.0
 11
171.0485570871
 21
273.5735221740001
 31
0.0
  0
LINE
  5
B41
330
1F
100
AcDbEntity
  8
0
  6
Continuous
 62
     7
370
    25
100
AcDbLine
 10
238.0485570871002
 20
278.073522174
 30
0.0
 11
171.0485570871
 21
278.073522174
 31
0.0
  0
LINE
  5
B42
330
1F
100
AcDbEntity
  8
0
  6
Continuous
 62
     7
370
    25
100
AcDbLine
 10
167.0485570871
 20
273.5735221740001
 30
0.0
 11
167.0485570871
 21
278.073522174
 31
0.0
  0
LINE
  5
B43
330
1F
100
AcDbEntity
  8
0
  6
Continuous
 62
     7
370
    25
100
AcDbLine
 10
167.0485570871
 20
278.073522174
 30
0.0
 11
171.0485570871
 21
278.073522174
 31
0.0
  0
LINE
  5
B44
330
1F
100
AcDbEntity
  8
0
  6
Continuous
 62
     7
370
    25
100
AcDbLine
 10
171.0485570871
 20
273.5735221740001
 30
0.0
 11
167.0485570871
 21
273.5735221740001
 31
0.0
  0
LINE
  5
B45
330
1F
100
AcDbEntity
  8
0
  6
Continuous
 62
     7
370
    25
100
AcDbLine
 10
238.0485570871002
 20
278.073522174
 30
0.0
 11
242.0485570871002
 21
278.073522174
 31
0.0
  0
LINE
  5
B46
330
1F
100
AcDbEntity
  8
0
  6
Continuous
 62
     7
370
    25
100
AcDbLine
 10
242.0485570871002
 20
278.073522174
 30
0.0
 11
242.0485570871002
 21
268.073522174
 31
0.0
  0
LINE
  5
B47
330
1F
100
AcDbEntity
  8
0
  6
Continuous
 62
     7
370
    25
100
AcDbLine
 10
242.0485570871002
 20
268.073522174
 30
0.0
 11
238.0485570871002
 21
268.073522174
 31
0.0
  0
LINE
  5
B48
330
1F
100
AcDbEntity
  8
0
  6
Continuous
 62
     7
370
    25
100
AcDbLine
 10
188.0485570871
 20
258.073522174
 30
0.0
 11
185.0485570871002
 21
258.073522174
 31
0.0
  0
LINE
  5
B49
330
1F
100
AcDbEntity
  8
0
  6
Continuous
 62
     7
370
    25
100
AcDbLine
 10
229.0485570871002
 20
267.6735221740003
 30
0.0
 11
229.0485570871002
 21
258.073522174
 31
0.0
  0
LINE
  5
B4A
330
1F
100
AcDbEntity
  8
0
  6
Continuous
 62
     7
370
    25
100
AcDbLine
 10
229.0485570871002
 20
258.073522174
 30
0.0
 11
225.0485570871
 21
258.073522174
 31
0.0
  0
LINE
  5
B4B
330
1F
100
AcDbEntity
  8
0
  6
Continuous
 62
     7
370
    25
100
AcDbLine
 10
225.0485570871
 20
258.073522174
 30
0.0
 11
188.0485570871
 21
258.073522174
 31
0.0
  0
LINE
  5
B4C
330
1F
100
AcDbEntity
  8
0
  6
Continuous
 62
     7
370
    25
100
AcDbLine
 10
188.0485570871
 20
267.6735221740003
 30
0.0
 11
188.0485570871
 21
258.073522174
 31
0.0
  0
LINE
  5
B4D
330
1F
100
AcDbEntity
  8
0
  6
Continuous
 62
     8
370
    25
100
AcDbLine
 10
225.0485570871
 20
258.073522174
 30
0.0
 11
225.0485570871
 21
267.673522174
 31
0.0
  0
LINE
  5
B4E
330
1F
100
AcDbEntity
  8
0
  6
Continuous
 62
     7
370
    25
100
AcDbLine
 10
89.15663798247496
 20
248.3308231546579
 30
0.0
 11
89.43948069494965
 21
248.1675415322934
 31
0.0
  0
LINE
  5
B4F
330
1F
100
AcDbEntity
  8
0
  6
Continuous
 62
     7
370
    25
100
AcDbLine
 10
129.8123225883105
 20
277.2689241028282
 30
0.0
 11
129.5294798758358
 21
277.4322057251928
 31
0.0
  0
LINE
  5
B50
330
1F
100
AcDbEntity
  8
0
  6
Continuous
 62
     7
370
    25
100
AcDbLine
 10
89.15663798247496
 20
187.0902622632267
 30
0.0
 11
89.43948069494965
 21
186.9269806408621
 31
0.0
  0
LINE
  5
B51
330
1F
100
AcDbEntity
  8
0
  6
Continuous
 62
     7
370
    25
100
AcDbLine
 10
94.94946596606448
 20
196.5248677187408
 30
0.0
 11
95.30301935666293
 21
196.7289697466996
 31
0.0
  0
LINE
  5
B52
330
1F
100
AcDbEntity
  8
0
  6
Continuous
 62
     7
370
    25
100
AcDbLine
 10
91.30334442611874
 20
203.657360645745
 30
0.0
 11
90.94979103552006
 21
203.4532586177863
 31
0.0
  0
LINE
  5
B53
330
1F
100
AcDbEntity
  8
0
  6
Continuous
 62
     7
370
    25
100
AcDbLine
 10
94.94946596606448
 20
233.2692042535996
 30
0.0
 11
95.30301935666293
 21
233.4733062815583
 31
0.0
  0
LINE
  5
B54
330
1F
100
AcDbEntity
  8
0
  6
Continuous
 62
     7
370
    25
100
AcDbLine
 10
91.30334442611874
 20
240.4016971806037
 30
0.0
 11
90.94979103552006
 21
240.197595152645
 31
0.0
  0
LINE
  5
B55
330
1F
100
AcDbEntity
  8
0
  6
Continuous
 62
     7
370
    25
100
AcDbLine
 10
82.45758438295704
 20
248.7308755014791
 30
0.0
 11
81.60905624553331
 21
249.2207203685728
 31
0.0
  0
LINE
  5
B56
330
1F
100
AcDbEntity
  8
0
  6
Continuous
 62
     7
370
    25
100
AcDbLine
 10
76.35948289919392
 20
240.1272073135756
 30
0.0
 11
77.20801103661776
 21
239.637362446482
 31
0.0
  0
LINE
  5
B57
330
1F
100
AcDbEntity
  8
0
  6
Continuous
 62
     7
370
    25
100
AcDbLine
 10
82.45758438295704
 20
199.7384267883341
 30
0.0
 11
81.60905624553331
 21
200.2282716554278
 31
0.0
  0
LINE
  5
B58
330
1F
100
AcDbEntity
  8
0
  6
Continuous
 62
     7
370
    25
100
AcDbLine
 10
76.35948289919392
 20
191.1347586004306
 30
0.0
 11
77.20801103661776
 21
190.6449137333369
 31
0.0
  0
LINE
  5
B59
330
1F
100
AcDbEntity
  8
0
  6
Continuous
 62
     7
370
    25
100
AcDbLine
 10
145.0479814131369
 20
269.9373838267992
 30
0.0
 11
137.9769136012714
 21
274.0194243859127
 31
0.0
  0
LINE
  5
B5A
330
1F
100
AcDbEntity
  8
0
  6
Continuous
 62
     7
370
    25
100
AcDbLine
 10
130.3401603644566
 20
278.4280281897553
 30
0.0
 11
123.2690925525911
 21
282.5100687488688
 31
0.0
  0
LINE
  5
B5B
330
1F
100
AcDbEntity
  8
0
  6
Continuous
 62
     7
370
    25
100
AcDbLine
 10
71.8932632825483
 20
185.3583635885598
 30
0.0
 11
75.07524379788774
 21
183.5214453369588
 31
0.0
  0
LINE
  5
B5C
330
1F
100
AcDbEntity
  8
0
  6
Continuous
 62
     7
370
    25
100
AcDbLine
 10
89.02518586521259
 20
253.1659352046607
 30
0.0
 11
88.7423431527379
 21
253.3292168270253
 31
0.0
  0
ARC
  5
B5D
330
1F
100
AcDbEntity
  8
0
  6
Continuous
 62
     7
370
    25
100
AcDbCircle
 10
91.81277535547335
 20
253.189495122504
 30
0.0
 40
3.073609615144576
100
AcDbArc
 50
122.60547834003
 51
177.3945215143432
  0
LINE
  5
B5E
330
1F
100
AcDbEntity
  8
0
  6
Continuous
 62
     7
370
    25
100
AcDbLine
 10
90.15655671511101
 20
255.7787065626195
 30
0.0
 11
90.43939942758558
 21
255.6154249402549
 31
0.0
  0
ARC
  5
B5F
330
1F
100
AcDbEntity
  8
0
  6
Continuous
 62
     7
370
    25
100
AcDbCircle
 10
92.09561806794758
 20
253.0262135001398
 30
0.0
 40
3.073609615144012
100
AcDbArc
 50
122.6054783400292
 51
177.3945215143491
  0
ARC
  5
B60
330
1F
100
AcDbEntity
  8
0
  6
Continuous
 62
     7
370
    25
100
AcDbCircle
 10
120.4618962093792
 20
262.7474872586059
 30
0.0
 40
2.474932473253315
100
AcDbArc
 50
77.80220199858387
 51
124.0197579764073
  0
LINE
  5
B61
330
1F
100
AcDbEntity
  8
0
  6
Continuous
 62
     7
370
    25
100
AcDbLine
 10
119.0772240656408
 20
264.7988218976931
 30
0.0
 11
90.43939942758558
 21
248.2665576332832
 31
0.0
  0
ARC
  5
B62
330
1F
100
AcDbEntity
  8
0
  6
Continuous
 62
     7
370
    25
100
AcDbCircle
 10
89.88733460006583
 20
248.9433767514306
 30
0.0
 40
0.8734183948569022
100
AcDbArc
 50
170.7859630095319
 51
309.2032852357086
  0
LINE
  5
B63
330
1F
100
AcDbEntity
  8
0
  6
Continuous
 62
     7
370
    25
100
AcDbLine
 10
89.02518586521259
 20
249.083231145232
 30
0.0
 11
89.02518586521259
 21
253.1659352046607
 31
0.0
  0
LINE
  5
B64
330
1F
100
AcDbEntity
  8
0
  6
Continuous
 62
     7
370
    25
100
AcDbLine
 10
90.43939942758558
 20
255.6154249402549
 30
0.0
 11
127.5625054398792
 21
277.0461378756011
 31
0.0
  0
ARC
  5
B65
330
1F
100
AcDbEntity
  8
0
  6
Continuous
 62
     7
370
    25
100
AcDbCircle
 10
128.7949165905519
 20
275.5064374982041
 30
0.0
 40
1.972185208457479
100
AcDbArc
 50
351.3146750032957
 51
128.6745732419585
  0
LINE
  5
B66
330
1F
100
AcDbEntity
  8
0
  6
Continuous
 62
     7
370
    25
100
AcDbLine
 10
130.7444859552188
 20
275.2086224737163
 30
0.0
 11
130.7444859552188
 21
270.8006821701889
 31
0.0
  0
LINE
  5
B67
330
1F
100
AcDbEntity
  8
0
  6
Continuous
 62
     7
370
    25
100
AcDbLine
 10
95.92059758905177
 20
190.1902250879723
 30
0.0
 11
90.43939942758558
 21
187.0259967418519
 31
0.0
  0
ARC
  5
B68
330
1F
100
AcDbEntity
  8
0
  6
Continuous
 62
     7
370
    25
100
AcDbCircle
 10
89.88733460006583
 20
187.7028158599992
 30
0.0
 40
0.8734183948569204
100
AcDbArc
 50
170.7859630095245
 51
309.2032852357133
  0
LINE
  5
B69
330
1F
100
AcDbEntity
  8
0
  6
Continuous
 62
     7
370
    25
100
AcDbLine
 10
89.02518586521259
 20
187.8426702538007
 30
0.0
 11
89.02518586521259
 21
191.9253743132294
 31
0.0
  0
ARC
  5
B6A
330
1F
100
AcDbEntity
  8
0
  6
Continuous
 62
     7
370
    25
100
AcDbCircle
 10
92.09844787465701
 20
191.7817630376799
 30
0.0
 40
3.076615604387275
100
AcDbArc
 50
140.0344328148685
 51
177.3245565778041
  0
LINE
  5
B6B
330
1F
100
AcDbEntity
  8
0
  6
Continuous
 62
     7
370
    25
100
AcDbLine
 10
88.7423431527379
 20
249.2465127675965
 30
0.0
 11
89.02518586521259
 21
249.083231145232
 31
0.0
  0
LINE
  5
B6C
330
1F
100
AcDbEntity
  8
0
  6
Continuous
 62
     7
370
    25
100
AcDbLine
 10
88.7423431527379
 20
249.2465127675965
 30
0.0
 11
88.7423431527379
 21
253.3292168270253
 31
0.0
  0
LINE
  5
B6D
330
1F
100
AcDbEntity
  8
0
  6
Continuous
 62
     7
370
    25
100
AcDbLine
 10
127.5625054398792
 20
277.0461378756011
 30
0.0
 11
127.2796627274047
 21
277.2094194979657
 31
0.0
  0
LINE
  5
B6E
330
1F
100
AcDbEntity
  8
0
  6
Continuous
 62
     7
370
    25
100
AcDbLine
 10
90.15655671511101
 20
255.7787065626195
 30
0.0
 11
127.2796627274047
 21
277.2094194979657
 31
0.0
  0
ARC
  5
B6F
330
1F
100
AcDbEntity
  8
0
  6
Continuous
 62
     7
370
    25
100
AcDbCircle
 10
89.72234695781671
 20
249.1383392930601
 30
0.0
 40
0.9859558603518874
100
AcDbArc
 50
173.7011524935431
 51
234.9866671130942
  0
ARC
  5
B70
330
1F
100
AcDbEntity
  8
0
  6
Continuous
 62
     7
370
    25
100
AcDbCircle
 10
128.5908849453595
 20
275.4393155554626
 30
0.0
 40
2.202855345256191
100
AcDbArc
 50
64.78089010125647
 51
126.5295683278364
  0
LINE
  5
B71
330
1F
100
AcDbEntity
  8
0
  6
Continuous
 62
     7
370
    25
100
AcDbLine
 10
89.02518586521259
 20
191.9253743132294
 30
0.0
 11
88.7423431527379
 21
192.088655935594
 31
0.0
  0
ARC
  5
B72
330
1F
100
AcDbEntity
  8
0
  6
Continuous
 62
     7
370
    25
100
AcDbCircle
 10
91.81560516218471
 20
191.9450446600434
 30
0.0
 40
3.076615604389716
100
AcDbArc
 50
140.034432814881
 51
177.3245565777871
  0
LINE
  5
B73
330
1F
100
AcDbEntity
  8
0
  6
Continuous
 62
     7
370
    25
100
AcDbLine
 10
88.7423431527379
 20
188.0059518761653
 30
0.0
 11
89.02518586521259
 21
187.8426702538007
 31
0.0
  0
LINE
  5
B74
330
1F
100
AcDbEntity
  8
0
  6
Continuous
 62
     7
370
    25
100
AcDbLine
 10
88.7423431527379
 20
188.0059518761653
 30
0.0
 11
88.7423431527379
 21
192.088655935594
 31
0.0
  0
ARC
  5
B75
330
1F
100
AcDbEntity
  8
0
  6
Continuous
 62
     7
370
    25
100
AcDbCircle
 10
89.7223469573456
 20
187.8977784014157
 30
0.0
 40
0.9859558599070003
100
AcDbArc
 50
173.7011524782269
 51
234.9866671284088
  0
ARC
  5
B76
330
1F
100
AcDbEntity
  8
0
  6
Continuous
 62
     7
370
    25
100
AcDbCircle
 10
94.04542312622479
 20
198.0814095915389
 30
0.0
 40
1.745369412719005
100
AcDbArc
 50
231.1098228255195
 51
7.057717590674178
  0
LWPOLYLINE
  5
B77
330
1F
100
AcDbEntity
  8
0
  6
Continuous
 62
     7
370
    25
100
AcDbPolyline
 90
       19
 70
   128
 43
0.0
 10
92.89755178325706
 20
203.2847360064908
 10
92.45847728494968
 20
203.489141618736
 10
91.98224945023216
 20
203.6167087090924
 10
91.5354149384485
 20
203.6340516253682
 10
91.13155059012999
 20
203.5406434118278
 10
90.78292761913517
 20
203.3393222297732
 10
90.50013875802605
 20
203.0362051214474
 10
90.29177640324914
 20
202.6405021468023
 10
90.16417153951804
 20
202.1642365404872
 10
90.12120137604617
 20
201.621879391948
 10
90.16417153950633
 20
201.029909948697
 10
90.29177640322595
 20
200.4063149027163
 10
90.50013875799218
 20
199.7700418739239
 10
90.78292761909174
 20
199.1404236963299
 10
91.13155059007815
 20
198.5365909996582
 10
91.53541493838995
 20
197.9768909348434
 10
91.9822494501685
 20
197.4783297051326
 10
92.45847728488306
 20
197.0560558412067
 10
92.9496285007584
 20
196.72289992074
  0
LINE
  5
B78
330
1F
100
AcDbEntity
  8
0
  6
Continuous
 62
     7
370
    25
100
AcDbLine
 10
95.30301935666293
 20
196.7289697466995
 30
0.0
 11
95.40310088527676
 21
196.7928403620339
 31
0.0
  0
LINE
  5
B79
330
1F
100
AcDbEntity
  8
0
  6
Continuous
 62
     7
370
    25
100
AcDbLine
 10
91.40870390184259
 20
203.7120885977794
 30
0.0
 11
91.30334442611874
 21
203.6573606457449
 31
0.0
  0
LINE
  5
B7A
330
1F
100
AcDbEntity
  8
0
  6
Continuous
 62
     7
370
    25
100
AcDbLine
 10
92.66678578831417
 20
199.8257284658796
 30
0.0
 11
92.66678578829894
 21
198.3443936173886
 31
0.0
  0
ARC
  5
B7B
330
1F
100
AcDbEntity
  8
0
  6
Continuous
 62
     7
370
    25
100
AcDbCircle
 10
93.9931657493772
 20
199.9887673923752
 30
0.0
 40
2.112640270612472
100
AcDbArc
 50
231.1097597485892
 51
248.8956167828976
  0
LINE
  5
B7C
330
1F
100
AcDbEntity
  8
0
  6
Continuous
 62
     7
370
    25
100
AcDbLine
 10
93.23247121324809
 20
198.0178303726516
 30
0.0
 11
93.23247121326355
 21
199.4991652211427
 31
0.0
  0
LINE
  5
B7D
330
1F
100
AcDbEntity
  8
0
  6
Continuous
 62
     7
370
    25
100
AcDbLine
 10
93.23247121326355
 20
199.4991652211427
 30
0.0
 11
94.51527533197392
 21
198.7586181663808
 31
0.0
  0
ARC
  5
B7E
330
1F
100
AcDbEntity
  8
0
  6
Continuous
 62
     7
370
    25
100
AcDbCircle
 10
92.42751776059524
 20
199.0852344911549
 30
0.0
 40
2.113151651079023
100
AcDbArc
 50
351.1085126792358
 51
8.891487319566187
  0
LINE
  5
B7F
330
1F
100
AcDbEntity
  8
0
  6
Continuous
 62
     7
370
    25
100
AcDbLine
 10
94.51527533198075
 20
199.4118508158854
 30
0.0
 11
93.23247121327037
 21
200.1523978706474
 31
0.0
  0
LINE
  5
B80
330
1F
100
AcDbEntity
  8
0
  6
Continuous
 62
     7
370
    25
100
AcDbLine
 10
93.23247121327037
 20
200.1523978706474
 30
0.0
 11
93.2324712132856
 21
201.6337327191385
 31
0.0
  0
ARC
  5
B81
330
1F
100
AcDbEntity
  8
0
  6
Continuous
 62
     7
370
    25
100
AcDbCircle
 10
91.90609125220314
 20
199.989358944144
 30
0.0
 40
2.112640270621346
100
AcDbArc
 50
51.10975974863656
 51
68.8956167828649
  0
LINE
  5
B82
330
1F
100
AcDbEntity
  8
0
  6
Continuous
 62
     7
370
    25
100
AcDbLine
 10
92.66678578833645
 20
201.9602959638754
 30
0.0
 11
92.666785788321
 21
200.4789611153843
 31
0.0
  0
LINE
  5
B83
330
1F
100
AcDbEntity
  8
0
  6
Continuous
 62
     7
370
    25
100
AcDbLine
 10
92.666785788321
 20
200.4789611153843
 30
0.0
 11
91.3839816696105
 21
201.2195081701464
 31
0.0
  0
ARC
  5
B84
330
1F
100
AcDbEntity
  8
0
  6
Continuous
 62
     7
370
    25
100
AcDbCircle
 10
93.47173924099624
 20
200.8928918453726
 30
0.0
 40
2.113151651085935
100
AcDbArc
 50
171.1085126792744
 51
188.8914873195493
  0
LINE
  5
B85
330
1F
100
AcDbEntity
  8
0
  6
Continuous
 62
     7
370
    25
100
AcDbLine
 10
91.3839816696038
 20
200.5662755206416
 30
0.0
 11
92.66678578831417
 21
199.8257284658796
 31
0.0
  0
LINE
  5
B86
330
1F
100
AcDbEntity
  8
0
  6
Continuous
 62
     7
370
    25
100
AcDbLine
 10
93.72744596008826
 20
199.8666550315099
 30
0.0
 11
93.72744596008735
 21
199.7849080602767
 31
0.0
  0
LINE
  5
B87
330
1F
100
AcDbEntity
  8
0
  6
Continuous
 62
     7
370
    25
100
AcDbLine
 10
93.16166858789515
 20
200.7646508745009
 30
0.0
 11
93.23247121327617
 21
200.7237773888842
 31
0.0
  0
LINE
  5
B88
330
1F
100
AcDbEntity
  8
0
  6
Continuous
 62
     7
370
    25
100
AcDbLine
 10
93.79824858546917
 20
199.8257815458931
 30
0.0
 11
93.23247121326355
 21
199.4991652211427
 31
0.0
  0
LINE
  5
B89
330
1F
100
AcDbEntity
  8
0
  6
Continuous
 62
     7
370
    25
100
AcDbLine
 10
93.23247121327697
 20
200.8055243601173
 30
0.0
 11
92.666785788321
 21
200.4789611153843
 31
0.0
  0
LINE
  5
B8A
330
1F
100
AcDbEntity
  8
0
  6
Continuous
 62
     7
370
    25
100
AcDbLine
 10
92.16012511028609
 20
200.7714500990179
 30
0.0
 11
91.3839816696038
 21
200.5662755206416
 31
0.0
  0
LINE
  5
B8B
330
1F
100
AcDbEntity
  8
0
  6
Continuous
 62
     7
370
    25
100
AcDbLine
 10
93.2325631605199
 20
200.15234479063
 30
0.0
 11
92.66678578831417
 21
199.8257284658796
 31
0.0
  0
LINE
  5
B8C
330
1F
100
AcDbEntity
  8
0
  6
Continuous
 62
     7
370
    25
100
AcDbLine
 10
93.23247121325741
 20
198.9138403548685
 30
0.0
 11
92.66678578829894
 21
198.3443936173886
 31
0.0
  0
ARC
  5
B8D
330
1F
100
AcDbEntity
  8
0
  6
Continuous
 62
     7
370
    25
100
AcDbCircle
 10
94.04542312636065
 20
234.8257461225177
 30
0.0
 40
1.74536940978438
100
AcDbArc
 50
231.1098227420836
 51
7.057716951165219
  0
LWPOLYLINE
  5
B8E
330
1F
100
AcDbEntity
  8
0
  6
Continuous
 62
     7
370
    25
100
AcDbPolyline
 90
       19
 70
   128
 43
0.0
 10
92.89755177182698
 20
240.0290725477049
 10
92.45847728494968
 20
240.2334781535947
 10
91.98224945023216
 20
240.3610452439513
 10
91.5354149384485
 20
240.3783881602269
 10
91.13155059012999
 20
240.2849799466867
 10
90.78292761913517
 20
240.0836587646319
 10
90.50013875802605
 20
239.7805416563061
 10
90.29177640324914
 20
239.3848386816611
 10
90.16417153951804
 20
238.908573075346
 10
90.12120137604617
 20
238.3662159268067
 10
90.16417153950633
 20
237.7742464835557
 10
90.29177640322595
 20
237.1506514375751
 10
90.50013875799218
 20
236.5143784087826
 10
90.78292761909174
 20
235.8847602311886
 10
91.13155059007815
 20
235.280927534517
 10
91.53541493838995
 20
234.7212274697021
 10
91.9822494501685
 20
234.2226662399913
 10
92.45847728488306
 20
233.8003923760654
 10
92.9496285007584
 20
233.4672364555988
  0
LINE
  5
B8F
330
1F
100
AcDbEntity
  8
0
  6
Continuous
 62
     7
370
    25
100
AcDbLine
 10
92.66678578831417
 20
236.5700650007384
 30
0.0
 11
92.66678578829894
 21
235.0887301522473
 31
0.0
  0
ARC
  5
B90
330
1F
100
AcDbEntity
  8
0
  6
Continuous
 62
     7
370
    25
100
AcDbCircle
 10
93.99316574937731
 20
236.7331039272349
 30
0.0
 40
2.112640270613362
100
AcDbArc
 50
231.1097597486044
 51
248.8956167829036
  0
LINE
  5
B91
330
1F
100
AcDbEntity
  8
0
  6
Continuous
 62
     7
370
    25
100
AcDbLine
 10
93.23247121324809
 20
234.7621669075104
 30
0.0
 11
93.23247121326355
 21
236.2435017560014
 31
0.0
  0
LINE
  5
B92
330
1F
100
AcDbEntity
  8
0
  6
Continuous
 62
     7
370
    25
100
AcDbLine
 10
93.23247121326355
 20
236.2435017560014
 30
0.0
 11
94.51527533197392
 21
235.5029547012394
 31
0.0
  0
ARC
  5
B93
330
1F
100
AcDbEntity
  8
0
  6
Continuous
 62
     7
370
    25
100
AcDbCircle
 10
92.42751776059478
 20
235.8295710260135
 30
0.0
 40
2.113151651079482
100
AcDbArc
 50
351.1085126792408
 51
8.891487319567327
  0
LINE
  5
B94
330
1F
100
AcDbEntity
  8
0
  6
Continuous
 62
     7
370
    25
100
AcDbLine
 10
94.51527533198075
 20
236.1561873507441
 30
0.0
 11
93.23247121327037
 21
236.8967344055061
 31
0.0
  0
LINE
  5
B95
330
1F
100
AcDbEntity
  8
0
  6
Continuous
 62
     7
370
    25
100
AcDbLine
 10
93.23247121327037
 20
236.8967344055061
 30
0.0
 11
93.2324712132856
 21
238.3780692539972
 31
0.0
  0
ARC
  5
B96
330
1F
100
AcDbEntity
  8
0
  6
Continuous
 62
     7
370
    25
100
AcDbCircle
 10
91.90609125220132
 20
236.7336954790005
 30
0.0
 40
2.112640270624123
100
AcDbArc
 50
51.10975974863458
 51
68.89561678284109
  0
LINE
  5
B97
330
1F
100
AcDbEntity
  8
0
  6
Continuous
 62
     7
370
    25
100
AcDbLine
 10
92.66678578833645
 20
238.7046324987342
 30
0.0
 11
92.666785788321
 21
237.2232976502431
 31
0.0
  0
LINE
  5
B98
330
1F
100
AcDbEntity
  8
0
  6
Continuous
 62
     7
370
    25
100
AcDbLine
 10
92.666785788321
 20
237.2232976502431
 30
0.0
 11
91.3839816696105
 21
237.963844705005
 31
0.0
  0
ARC
  5
B99
330
1F
100
AcDbEntity
  8
0
  6
Continuous
 62
     7
370
    25
100
AcDbCircle
 10
93.47173924099567
 20
237.6372283802312
 30
0.0
 40
2.113151651085373
100
AcDbArc
 50
171.1085126792721
 51
188.8914873195486
  0
LINE
  5
B9A
330
1F
100
AcDbEntity
  8
0
  6
Continuous
 62
     7
370
    25
100
AcDbLine
 10
91.3839816696038
 20
237.3106120555004
 30
0.0
 11
92.66678578831417
 21
236.5700650007384
 31
0.0
  0
LINE
  5
B9B
330
1F
100
AcDbEntity
  8
0
  6
Continuous
 62
     7
370
    25
100
AcDbLine
 10
95.30301935666293
 20
233.4733062815583
 30
0.0
 11
95.42161005052728
 21
233.5504141892305
 31
0.0
  0
LINE
  5
B9C
330
1F
100
AcDbEntity
  8
0
  6
Continuous
 62
     7
370
    25
100
AcDbLine
 10
91.40870390176323
 20
240.4564251326013
 30
0.0
 11
91.30334442611874
 21
240.4016971806037
 31
0.0
  0
LINE
  5
B9D
330
1F
100
AcDbEntity
  8
0
  6
Continuous
 62
     7
370
    25
100
AcDbLine
 10
93.72744596008826
 20
236.6109915663687
 30
0.0
 11
93.72744596008735
 21
236.5292445951354
 31
0.0
  0
LINE
  5
B9E
330
1F
100
AcDbEntity
  8
0
  6
Continuous
 62
     7
370
    25
100
AcDbLine
 10
93.16166858789515
 20
237.5089874093597
 30
0.0
 11
93.23247121327617
 21
237.4681139237429
 31
0.0
  0
LINE
  5
B9F
330
1F
100
AcDbEntity
  8
0
  6
Continuous
 62
     7
370
    25
100
AcDbLine
 10
93.79824858546917
 20
236.5701180807519
 30
0.0
 11
93.23247121326355
 21
236.2435017560014
 31
0.0
  0
LINE
  5
BA0
330
1F
100
AcDbEntity
  8
0
  6
Continuous
 62
     7
370
    25
100
AcDbLine
 10
93.23247121327697
 20
237.5498608949761
 30
0.0
 11
92.666785788321
 21
237.2232976502431
 31
0.0
  0
LINE
  5
BA1
330
1F
100
AcDbEntity
  8
0
  6
Continuous
 62
     7
370
    25
100
AcDbLine
 10
93.2325631605199
 20
236.8966813254888
 30
0.0
 11
92.66678578831417
 21
236.5700650007384
 31
0.0
  0
LINE
  5
BA2
330
1F
100
AcDbEntity
  8
0
  6
Continuous
 62
     7
370
    25
100
AcDbLine
 10
93.23247121325741
 20
235.6581768897272
 30
0.0
 11
92.66678578829894
 21
235.0887301522473
 31
0.0
  0
LINE
  5
BA3
330
1F
100
AcDbEntity
  8
0
  6
Continuous
 62
     7
370
    25
100
AcDbLine
 10
92.16012511028609
 20
237.5157866338766
 30
0.0
 11
91.3839816696038
 21
237.3106120555004
 31
0.0
  0
LWPOLYLINE
  5
BA4
330
1F
100
AcDbEntity
  8
0
  6
Continuous
 62
     7
370
    25
100
AcDbPolyline
 90
       42
 70
   128
 43
0.0
 10
79.8327977097874
 20
248.4709582363807
 10
79.26611615371164
 20
248.0935799979155
 10
78.71271713301323
 20
247.6245673065548
 10
78.18557185169809
 20
247.0749134222674
 10
77.69703614837269
 20
246.4575017662359
 10
77.2585608858594
 20
245.7868039443838
 10
76.88042355267689
 20
245.0785405451983
 10
76.57148736742076
 20
244.3493126624599
 10
76.33899353243132
 20
243.6162127796753
 10
76.18839150614812
 20
242.8964241367502
 10
76.1232112724226
 20
242.2068179694102
 10
76.14498060068908
 20
241.5635580617349
 10
76.25318923634435
 20
240.9817218807581
 10
76.44530086068139
 20
240.4749471734204
 10
76.71681254005236
 20
240.0551123093397
 10
77.06136027081536
 20
239.7320578618944
 10
77.47086814618646
 20
239.5133559535244
 10
77.93573764864968
 20
239.4041327715988
 10
78.4450726310724
 20
239.4069484149286
 10
78.98693471315912
 20
239.5217368872204
 10
79.54862310696635
 20
239.7458076439742
 10
80.11697231260868
 20
240.073908656565
 10
80.67866070641591
 20
240.4983495153433
 10
81.2205227885025
 20
241.0091816863188
 10
81.72985777092512
 20
241.5944316963649
 10
82.19472727338845
 20
242.2403817812814
 10
82.60423514875944
 20
242.9318914185593
 10
82.94878287952244
 20
243.6527522083975
 10
83.22029455889353
 20
244.3860677848554
 10
83.41240618323067
 20
245.1146498523501
 10
83.52061481888572
 20
245.8214210647374
 10
83.54238414715243
 20
246.4898153038303
 10
83.4772039134269
 20
247.1041659751689
 10
83.32660188714348
 20
247.6500732197169
 10
83.09410805215404
 20
248.1147414343513
 10
82.78517186689791
 20
248.4872791899559
 10
82.4070345337154
 20
248.7589545172873
 10
81.96855927120211
 20
248.9233995769346
 10
81.4800235678766
 20
248.9767599160765
 10
80.95287828656157
 20
248.9177848135897
 10
80.39947926586316
 20
248.7478565958917
 10
79.8327977097874
 20
248.4709582363807
  0
LWPOLYLINE
  5
BA5
330
1F
100
AcDbEntity
  8
0
  6
Continuous
 62
     7
370
    25
100
AcDbPolyline
 90
        3
 70
   128
 43
0.0
 10
76.06686700344639
 20
240.3388504612316
 10
76.21283213339152
 20
240.2219027289881
 10
76.35948289919392
 20
240.1272073135756
  0
LWPOLYLINE
  5
BA6
330
1F
100
AcDbEntity
  8
0
  6
Continuous
 62
     7
370
    25
100
AcDbPolyline
 90
        3
 70
   128
 43
0.0
 10
81.60905624553331
 20
249.2207203685728
 10
81.55850639629156
 20
249.248799384381
 10
81.27944610696247
 20
249.368280664657
  0
LWPOLYLINE
  5
BA7
330
1F
100
AcDbEntity
  8
0
  6
Continuous
 62
     7
370
    25
100
AcDbPolyline
 90
       42
 70
   128
 43
0.0
 10
82.4476891062072
 20
199.7440963074685
 10
82.01480216446097
 20
199.9194714513995
 10
81.53077088767859
 20
199.9840309425223
 10
81.00694055874155
 20
199.9362615610827
 10
80.45558931658238
 20
199.7772829808945
 10
79.8896403670137
 20
199.5108215251333
 10
79.32235907373726
 20
199.1431228244797
 10
78.76704202946209
 20
198.6828054248302
 10
78.23670539504107
 20
198.1406587758858
 10
77.74377981169252
 20
197.5293903355952
 10
77.29981903730592
 20
196.8633277181119
 10
76.91522913614924
 20
196.1580828666612
 10
76.59902456954202
 20
195.4301861228233
 10
76.35861690452325
 20
194.6966987693372
 10
76.19964109300074
 20
193.9748131280933
 10
76.12582339325488
 20
193.2814495866807
 10
76.13889402960282
 20
192.6328599988422
 10
76.23854663740676
 20
192.0442467547978
 10
76.42244544400134
 20
191.5294064501026
 10
76.68628001722547
 20
191.10040650514
 10
77.02386629829843
 20
190.7673023150165
 10
77.42729155091692
 20
190.5379015596228
 10
77.88709982908685
 20
190.417581198234
 10
78.39251361648323
 20
190.4091614381423
 10
78.93168644229851
 20
190.512839631388
 10
79.49198055247732
 20
190.7261856489951
 10
80.06026312796016
 20
191.0441988411345
 10
80.62321410683191
 20
191.4594252481178
 10
81.16763839528275
 20
191.962132314895
 10
81.68077514942397
 20
192.5405370138958
 10
82.1505968786532
 20
193.1810820292084
 10
82.56609135983976
 20
193.8687535285748
 10
82.91751975450128
 20
194.5874330748932
 10
83.19664487892405
 20
195.3202754287223
 10
83.39692427676673
 20
196.0501033864168
 10
83.51366356869309
 20
196.759810399222
 10
83.5441264846439
 20
197.4327615362772
 10
83.48759899968852
 20
198.0531833932971
 10
83.34540607016376
 20
198.6065338077981
 10
83.12088057782054
 20
199.0798427150625
 10
82.81928520990058
 20
199.4620161554618
 10
82.4476891062072
 20
199.7440963074685
  0
LINE
  5
BA8
330
1F
100
AcDbEntity
  8
0
  6
Continuous
 62
     7
370
    25
100
AcDbLine
 10
81.59916096878337
 20
200.2339411745621
 30
0.0
 11
81.27944610699521
 21
200.3758319515013
 31
0.0
  0
LWPOLYLINE
  5
BA9
330
1F
100
AcDbEntity
  8
0
  6
Continuous
 62
     7
370
    25
100
AcDbPolyline
 90
        3
 70
   128
 43
0.0
 10
76.06686700340762
 20
191.3464017481209
 10
76.1753381608747
 20
191.2571471821102
 10
76.35948289919392
 20
191.1347586004306
  0
LWPOLYLINE
  5
BAA
330
1F
100
AcDbEntity
  8
0
  6
Continuous
 62
     7
370
    25
100
AcDbPolyline
 90
       19
 70
   128
 43
0.0
 10
124.3098142464229
 20
265.8614130937051
 10
124.5943027658852
 20
265.9764093866154
 10
124.9297652848927
 20
266.0282999958397
 10
125.2757400727531
 20
266.0108261480817
 10
125.5904974640069
 20
265.9260954472675
 10
125.8360730719442
 20
265.7843276664072
 10
125.9828468539381
 20
265.6026220921423
 10
126.0131157257295
 20
265.4028950984177
 10
125.9232288146595
 20
265.2092367083333
 10
125.7240278087927
 20
265.0450049818263
 10
125.4395392893303
 20
264.930008688916
 10
125.104076770323
 20
264.8781180796917
 10
124.7581019824623
 20
264.8955919274498
 10
124.4433445912086
 20
264.9803226282639
 10
124.1977689832712
 20
265.1220904091242
 10
124.0509952012775
 20
265.3037959833891
 10
124.020726329486
 20
265.5035229771137
 10
124.1106132405561
 20
265.6971813671983
 10
124.3098142464229
 20
265.8614130937051
  0
LINE
  5
BAB
330
1F
100
AcDbEntity
  8
0
  6
Continuous
 62
     7
370
    25
100
AcDbLine
 10
124.1804047238781
 20
265.5826045385272
 30
0.0
 11
124.4045485918903
 21
265.0996939554155
 31
0.0
  0
LINE
  5
BAC
330
1F
100
AcDbEntity
  8
0
  6
Continuous
 62
     7
370
    25
100
AcDbLine
 10
124.4045485918903
 20
265.0996939554155
 30
0.0
 11
125.2410648956202
 21
264.9702984546384
 31
0.0
  0
LINE
  5
BAD
330
1F
100
AcDbEntity
  8
0
  6
Continuous
 62
     7
370
    25
100
AcDbLine
 10
125.2410648956202
 20
264.9702984546384
 30
0.0
 11
125.8534373313376
 21
265.323813536973
 31
0.0
  0
LINE
  5
BAE
330
1F
100
AcDbEntity
  8
0
  6
Continuous
 62
     7
370
    25
100
AcDbLine
 10
125.8534373313376
 20
265.323813536973
 30
0.0
 11
125.6292934633256
 21
265.8067241200848
 31
0.0
  0
LINE
  5
BAF
330
1F
100
AcDbEntity
  8
0
  6
Continuous
 62
     7
370
    25
100
AcDbLine
 10
124.7927771595955
 20
265.9361196208617
 30
0.0
 11
125.6292934633256
 21
265.8067241200848
 31
0.0
  0
LINE
  5
BB0
330
1F
100
AcDbEntity
  8
0
  6
Continuous
 62
     7
370
    25
100
AcDbLine
 10
124.7927771595955
 20
265.9361196208617
 30
0.0
 11
124.1804047238781
 21
265.5826045385272
 31
0.0
  0
LINE
  5
BB1
330
1F
100
AcDbEntity
  8
0
  6
Continuous
 62
     7
370
    25
100
AcDbLine
 10
125.6292934633256
 20
265.1944180362395
 30
0.0
 11
125.6292934633256
 21
265.8067241200848
 31
0.0
  0
LINE
  5
BB2
330
1F
100
AcDbEntity
  8
0
  6
Continuous
 62
     7
370
    25
100
AcDbLine
 10
124.7927771595955
 20
265.9361196208617
 30
0.0
 11
124.7927771595957
 21
265.0396412945048
 31
0.0
  0
LINE
  5
BB3
330
1F
100
AcDbEntity
  8
0
  6
Continuous
 62
     7
370
    25
100
AcDbLine
 10
119.5681178404786
 20
256.1846210735775
 30
0.0
 11
110.8747854038769
 21
254.8399035840549
 31
0.0
  0
LINE
  5
BB4
330
1F
100
AcDbEntity
  8
0
  6
Continuous
 62
     7
370
    25
100
AcDbLine
 10
110.8747854038769
 20
254.8399035840549
 30
0.0
 11
100.2681836860787
 21
248.7168427453846
 31
0.0
  0
LINE
  5
BB5
330
1F
100
AcDbEntity
  8
0
  6
Continuous
 62
     7
370
    25
100
AcDbLine
 10
96.3790963895527
 20
250.961965052897
 30
0.0
 11
100.2681836860787
 21
248.7168427453846
 31
0.0
  0
LINE
  5
BB6
330
1F
100
AcDbEntity
  8
0
  6
Continuous
 62
     7
370
    25
100
AcDbLine
 10
135.9770761359993
 20
273.8213921839329
 30
0.0
 11
96.3790963895527
 21
250.961965052897
 31
0.0
  0
LINE
  5
BB7
330
1F
100
AcDbEntity
  8
0
  6
Continuous
 62
     7
370
    25
100
AcDbLine
 10
143.0481439478648
 20
269.7393516248194
 30
0.0
 11
135.9770761359993
 21
273.8213921839329
 31
0.0
  0
LINE
  5
BB8
330
1F
100
AcDbEntity
  8
0
  6
Continuous
 62
     7
370
    25
100
AcDbLine
 10
143.0481439478648
 20
269.7393516248194
 30
0.0
 11
119.5681178404786
 21
256.1846210735775
 31
0.0
  0
LWPOLYLINE
  5
BB9
330
1F
100
AcDbEntity
  8
0
  6
Continuous
 62
     7
370
    25
100
AcDbPolyline
 90
       21
 70
   128
 43
0.0
 10
124.1330375511247
 20
265.9634641076393
 10
124.4494329029334
 20
266.0961679350027
 10
124.8213779463075
 20
266.1659344657448
 10
125.2124641089082
 20
266.1659344657448
 10
125.5844091522823
 20
266.0961679350027
 10
125.9008045040909
 20
265.9634641076393
 10
126.1306791828432
 20
265.7808129588792
 10
126.2515314533517
 20
265.5660936557681
 10
126.2515314533517
 20
265.3403244197322
 10
126.1306791828432
 20
265.1256051166212
 10
125.9008045040909
 20
264.9429539678609
 10
125.5844091522823
 20
264.8102501404977
 10
125.2124641089082
 20
264.7404836097555
 10
124.8213779463075
 20
264.7404836097555
 10
124.4494329029334
 20
264.8102501404977
 10
124.1330375511247
 20
264.9429539678609
 10
123.9031628723723
 20
265.1256051166212
 10
123.7823106018639
 20
265.3403244197322
 10
123.7823106018639
 20
265.5660936557681
 10
123.9031628723723
 20
265.7808129588792
 10
124.1330375511247
 20
265.9634641076393
  0
LINE
  5
BBA
330
1F
100
AcDbEntity
  8
0
  6
Continuous
 62
     7
370
    25
100
AcDbLine
 10
110.8747854038769
 20
185.4339345737661
 30
0.0
 11
110.8747854038769
 21
254.8399035840549
 31
0.0
  0
LINE
  5
BBB
330
1F
100
AcDbEntity
  8
0
  6
Continuous
 62
     7
370
    25
100
AcDbLine
 10
110.8747854038769
 20
185.4339345737661
 30
0.0
 11
100.2681836860787
 21
179.3108737350958
 31
0.0
  0
LINE
  5
BBC
330
1F
100
AcDbEntity
  8
0
  6
Continuous
 62
     7
370
    25
100
AcDbLine
 10
100.2681836860787
 20
179.3108737350958
 30
0.0
 11
100.2681836860787
 21
187.3538007321705
 31
0.0
  0
LINE
  5
BBD
330
1F
100
AcDbEntity
  8
0
  6
Continuous
 62
     7
370
    25
100
AcDbLine
 10
100.2681836860787
 20
187.3538007321705
 30
0.0
 11
102.3895040296383
 21
188.5784128999046
 31
0.0
  0
LINE
  5
BBE
330
1F
100
AcDbEntity
  8
0
  6
Continuous
 62
     7
370
    25
100
AcDbLine
 10
102.3895040296383
 20
188.5784128999046
 30
0.0
 11
102.3895040296383
 21
241.898527916044
 31
0.0
  0
LINE
  5
BBF
330
1F
100
AcDbEntity
  8
0
  6
Continuous
 62
     7
370
    25
100
AcDbLine
 10
102.3895040296383
 20
241.898527916044
 30
0.0
 11
100.2681836860787
 21
240.6739157483099
 31
0.0
  0
LINE
  5
BC0
330
1F
100
AcDbEntity
  8
0
  6
Continuous
 62
     7
370
    25
100
AcDbLine
 10
100.2681836860787
 20
240.6739157483099
 30
0.0
 11
100.2681836860787
 21
248.7168427453846
 31
0.0
  0
LINE
  5
BC1
330
1F
100
AcDbEntity
  8
0
  6
Continuous
 62
     7
370
    25
100
AcDbLine
 10
96.3790963895527
 20
250.961965052897
 30
0.0
 11
96.3790963895527
 21
242.9190380558224
 31
0.0
  0
LINE
  5
BC2
330
1F
100
AcDbEntity
  8
0
  6
Continuous
 62
     7
370
    25
100
AcDbLine
 10
96.3790963895527
 20
242.9190380558224
 30
0.0
 11
100.2681836860787
 21
240.6739157483099
 31
0.0
  0
LINE
  5
BC3
330
1F
100
AcDbEntity
  8
0
  6
Continuous
 62
     7
370
    25
100
AcDbLine
 10
119.5681178404786
 20
186.7786520632889
 30
0.0
 11
119.5681178404786
 21
256.1846210735775
 31
0.0
  0
LINE
  5
BC4
330
1F
100
AcDbEntity
  8
0
  6
Continuous
 62
     7
370
    25
100
AcDbLine
 10
119.5681178404786
 20
186.7786520632889
 30
0.0
 11
110.8747854038769
 21
185.4339345737661
 31
0.0
  0
LINE
  5
BC5
330
1F
100
AcDbEntity
  8
0
  6
Continuous
 62
     7
370
    25
100
AcDbLine
 10
101.7530619529389
 20
188.9458230902374
 30
0.0
 11
102.3895040296383
 21
188.5784128999046
 31
0.0
  0
ARC
  5
BC6
330
1F
100
AcDbEntity
  8
0
  6
Continuous
 62
     7
370
    25
100
AcDbCircle
 10
139.7616602730311
 20
205.49682117337
 30
0.0
 40
6.120626822136646
100
AcDbArc
 50
302.4763978921782
 51
357.523601962199
  0
LINE
  5
BC7
330
1F
100
AcDbEntity
  8
0
  6
Continuous
 62
     7
370
    25
100
AcDbLine
 10
119.5681178404786
 20
186.7786520632889
 30
0.0
 11
143.0481439478648
 21
200.3333826145306
 31
0.0
  0
ARC
  5
BC8
330
1F
100
AcDbEntity
  8
0
  6
Continuous
 62
     7
370
    25
100
AcDbCircle
 10
144.1436205262403
 20
268.3707290671331
 30
0.0
 40
1.753053518628974
100
AcDbArc
 50
351.3146750032992
 51
128.6745732419513
  0
LINE
  5
BC9
330
1F
100
AcDbEntity
  8
0
  6
Continuous
 62
     7
370
    25
100
AcDbLine
 10
145.8765710726109
 20
205.232362085719
 30
0.0
 11
145.876571072611
 21
268.1060046009218
 31
0.0
  0
ARC
  5
BCA
330
1F
100
AcDbEntity
  8
0
  6
Continuous
 62
     7
370
    25
100
AcDbCircle
 10
137.1426069964037
 20
272.2479664572638
 30
0.0
 40
1.958093640227429
100
AcDbArc
 50
64.78089010125768
 51
126.5295683278436
  0
LINE
  5
BCB
330
1F
100
AcDbEntity
  8
0
  6
Continuous
 62
     7
370
    25
100
AcDbLine
 10
96.3790963895527
 20
189.598923039683
 30
0.0
 11
100.2681836860787
 21
187.3538007321705
 31
0.0
  0
LINE
  5
BCC
330
1F
100
AcDbEntity
  8
0
  6
Continuous
 62
     7
370
    25
100
AcDbLine
 10
96.3790963895527
 20
189.598923039683
 30
0.0
 11
96.66198507565886
 21
189.7622312020601
 31
0.0
  0
LINE
  5
BCD
330
1F
100
AcDbEntity
  8
0
  6
Continuous
 62
     7
370
    25
100
AcDbLine
 10
96.3790963895527
 20
181.5559960426083
 30
0.0
 11
100.2681836860787
 21
179.3108737350958
 31
0.0
  0
LINE
  5
BCE
330
1F
100
AcDbEntity
  8
0
  6
Continuous
 62
     7
370
    25
100
AcDbLine
 10
96.3790963895527
 20
189.598923039683
 30
0.0
 11
96.3790963895527
 21
181.5559960426083
 31
0.0
  0
LINE
  5
BCF
330
1F
100
AcDbEntity
  8
0
  6
Continuous
 62
     7
370
    25
100
AcDbLine
 10
99.91463029548547
 20
240.5514014515113
 30
0.0
 11
85.7724946717544
 21
248.7154825697384
 31
0.0
  0
LINE
  5
BD0
330
1F
100
AcDbEntity
  8
0
  6
Continuous
 62
     7
370
    25
100
AcDbLine
 10
99.91463029548547
 20
187.8845190848805
 30
0.0
 11
99.91463029548547
 21
240.5514014515113
 31
0.0
  0
LINE
  5
BD1
330
1F
100
AcDbEntity
  8
0
  6
Continuous
 62
     7
370
    25
100
AcDbLine
 10
85.7724946717544
 20
196.0486002031075
 30
0.0
 11
99.91463029548547
 21
187.8845190848805
 31
0.0
  0
LINE
  5
BD2
330
1F
100
AcDbEntity
  8
0
  6
Continuous
 62
     7
370
    25
100
AcDbLine
 10
85.7724946717544
 20
248.7154825697384
 30
0.0
 11
85.7724946717544
 21
196.0486002031075
 31
0.0
  0
ARC
  5
BD3
330
1F
100
AcDbEntity
  8
0
  6
Continuous
 62
     7
370
    25
100
AcDbCircle
 10
88.40241035957396
 20
232.1164161949607
 30
0.0
 40
0.873418394856884
100
AcDbArc
 50
50.79671476428618
 51
189.2140369904608
  0
LINE
  5
BD4
330
1F
100
AcDbEntity
  8
0
  6
Continuous
 62
     7
370
    25
100
AcDbLine
 10
87.54026162472084
 20
210.7465006921299
 30
0.0
 11
87.54026162472084
 21
231.9765618011594
 31
0.0
  0
ARC
  5
BD5
330
1F
100
AcDbEntity
  8
0
  6
Continuous
 62
     7
370
    25
100
AcDbCircle
 10
90.61069382745606
 20
210.8862223966511
 30
0.0
 40
3.073609615144421
100
AcDbArc
 50
182.6054784856547
 51
237.3945216599707
  0
LINE
  5
BD6
330
1F
100
AcDbEntity
  8
0
  6
Continuous
 62
     7
370
    25
100
AcDbLine
 10
94.61132943658626
 20
205.0313785092449
 30
0.0
 11
88.95447518709383
 21
208.2970109565356
 31
0.0
  0
ARC
  5
BD7
330
1F
100
AcDbEntity
  8
0
  6
Continuous
 62
     7
370
    25
100
AcDbCircle
 10
95.16339426410636
 20
205.7081976273921
 30
0.0
 40
0.8734183948569204
100
AcDbArc
 50
230.7967147642702
 51
9.214036990475497
  0
LINE
  5
BD8
330
1F
100
AcDbEntity
  8
0
  6
Continuous
 62
     7
370
    25
100
AcDbLine
 10
96.02554299895937
 20
227.0781131302231
 30
0.0
 11
96.02554299895937
 21
205.8480520211937
 31
0.0
  0
ARC
  5
BD9
330
1F
100
AcDbEntity
  8
0
  6
Continuous
 62
     7
370
    25
100
AcDbCircle
 10
92.95511079622472
 20
226.9383914257021
 30
0.0
 40
3.073609615143879
100
AcDbArc
 50
2.605478485650979
 51
57.39452165997746
  0
LINE
  5
BDA
330
1F
100
AcDbEntity
  8
0
  6
Continuous
 62
     7
370
    25
100
AcDbLine
 10
88.95447518709383
 20
232.7932353131081
 30
0.0
 11
94.61132943658626
 21
229.5276028658172
 31
0.0
  0
LWPOLYLINE
  5
BDB
330
1F
100
AcDbEntity
  8
0
  6
Continuous
 62
     7
370
    25
100
AcDbPolyline
 90
       38
 70
   128
 43
0.0
 10
95.77805562554394
 20
234.9781222627067
 10
95.73584561310642
 20
235.575173262409
 10
95.61042988100027
 20
236.203782834912
 10
95.40541641149431
 20
236.8458670273216
 10
95.12670306883896
 20
237.4829542464616
 10
94.78230792845065
 20
238.0967166529796
 10
94.38213861147935
 20
238.6694974199141
 10
93.9377072605881
 20
239.1848186874598
 10
93.46179935656787
 20
239.6278556009926
 10
92.96810590333402
 20
239.9858627951453
 10
92.47082956267045
 20
240.2485410547644
 10
91.9842760695096
 20
240.4083336045774
 10
91.52244268198396
 20
240.46064350386
 10
91.09861550579453
 20
240.4039658920502
 10
90.72498727714
 20
240.239931280847
 10
90.41230659989591
 20
239.9732586473577
 10
90.16956872785008
 20
239.6116196777184
 10
90.00375678762961
 20
239.1654180666508
 10
89.91964088686152
 20
238.6474902221083
 10
89.91964088686152
 20
238.0727359851895
 10
90.00375678762961
 20
237.4576899888382
 10
90.16956872785008
 20
236.8200459865579
 10
90.41230659989591
 20
236.1781478353388
 10
90.72498727714023
 20
235.5504617762904
 10
91.09861550579453
 20
234.9550451945063
 10
91.52244268198396
 20
234.4090271409723
 10
91.98427606950983
 20
233.928115560956
 10
92.47082956267067
 20
233.526145405021
 10
92.96810590333402
 20
233.2146806226881
 10
93.46179935656787
 20
233.0026814886628
 10
93.93770726058833
 20
232.8962468320451
 10
94.38213861147935
 20
232.8984385841206
 10
94.78230792845065
 20
233.0091936921729
 10
95.12670306883896
 20
233.2253259333943
 10
95.40541641149431
 20
233.5406175767163
 10
95.61042988100027
 20
233.94599825561
 10
95.73584561310642
 20
234.4298059060189
 10
95.77805562554394
 20
234.9781222627067
  0
LWPOLYLINE
  5
BDC
330
1F
100
AcDbEntity
  8
0
  6
Continuous
 62
     7
370
    25
100
AcDbPolyline
 90
       38
 70
   128
 43
0.0
 10
95.77805562554394
 20
198.233785727848
 10
95.73584561310642
 20
198.8308367275503
 10
95.61042988100027
 20
199.4594463000533
 10
95.40541641149431
 20
200.1015304924628
 10
95.12670306883896
 20
200.738617711603
 10
94.78230792845065
 20
201.3523801181208
 10
94.38213861147935
 20
201.9251608850553
 10
93.9377072605881
 20
202.4404821526011
 10
93.46179935656787
 20
202.8835190661339
 10
92.96810590333402
 20
203.2415262602866
 10
92.47082956267045
 20
203.5042045199056
 10
91.9842760695096
 20
203.6639970697187
 10
91.52244268198396
 20
203.7163069690013
 10
91.09861550579453
 20
203.6596293571914
 10
90.72498727714
 20
203.4955947459882
 10
90.41230659989591
 20
203.228922112499
 10
90.16956872785008
 20
202.8672831428596
 10
90.00375678762961
 20
202.421081531792
 10
89.91964088686152
 20
201.9031536872495
 10
89.91964088686152
 20
201.3283994503308
 10
90.00375678762961
 20
200.7133534539794
 10
90.16956872785008
 20
200.0757094516991
 10
90.41230659989591
 20
199.43381130048
 10
90.72498727714023
 20
198.8061252414316
 10
91.09861550579453
 20
198.2107086596476
 10
91.52244268198396
 20
197.6646906061135
 10
91.98427606950983
 20
197.1837790260972
 10
92.47082956267067
 20
196.7818088701622
 10
92.96810590333402
 20
196.4703440878294
 10
93.46179935656787
 20
196.2583449538041
 10
93.93770726058833
 20
196.1519102971863
 10
94.38213861147935
 20
196.1541020492618
 10
94.78230792845065
 20
196.2648571573142
 10
95.12670306883896
 20
196.4809893985356
 10
95.40541641149431
 20
196.7962810418575
 10
95.61042988100027
 20
197.2016617207513
 10
95.73584561310642
 20
197.6854693711601
 10
95.77805562554394
 20
198.233785727848
  0
LINE
  5
BDD
330
1F
100
AcDbEntity
  8
0
  6
Continuous
 62
     7
370
    25
100
AcDbLine
 10
85.94930010057087
 20
248.8175501712242
 30
0.0
 11
85.7724946717544
 21
248.7154825697384
 31
0.0
  0
LINE
  5
BDE
330
1F
100
AcDbEntity
  8
0
  6
Continuous
 62
     7
370
    25
100
AcDbLine
 10
96.3790963895527
 20
245.0416460665361
 30
0.0
 11
90.6868580674811
 21
248.3277053041305
 31
0.0
  0
LINE
  5
BDF
330
1F
100
AcDbEntity
  8
0
  6
Continuous
 62
     7
370
    25
100
AcDbLine
 10
100.1975189815916
 20
240.7147096138885
 30
0.0
 11
99.91463029548547
 21
240.5514014515113
 31
0.0
  0
LINE
  5
BE0
330
1F
100
AcDbEntity
  8
0
  6
Continuous
 62
     7
370
    25
100
AcDbLine
 10
102.0359506390451
 20
189.1091312526145
 30
0.0
 11
102.0359506390451
 21
241.6944258880884
 31
0.0
  0
LINE
  5
BE1
330
1F
100
AcDbEntity
  8
0
  6
Continuous
 62
     7
370
    25
100
AcDbLine
 10
102.0359506390451
 20
189.1091312526145
 30
0.0
 11
99.91463029548547
 21
187.8845190848805
 31
0.0
  0
ARC
  5
BE2
330
1F
100
AcDbEntity
  8
0
  6
Continuous
 62
     7
370
    25
100
AcDbCircle
 10
91.99456233980126
 20
239.0840123109907
 30
0.0
 40
1.643415613782593
100
AcDbArc
 50
129.3272408925757
 51
153.967059274818
  0
LWPOLYLINE
  5
BE3
330
1F
100
AcDbEntity
  8
0
  6
Continuous
 62
     7
370
    25
100
AcDbPolyline
 90
        3
 70
   128
 43
0.0
 10
94.39374757644927
 20
233.0913683382478
 10
94.73569200207245
 20
233.1025406120762
 10
95.08762855662482
 20
233.1931818596162
  0
LINE
  5
BE4
330
1F
100
AcDbEntity
  8
0
  6
Continuous
 62
     7
370
    25
100
AcDbLine
 10
87.54026162472084
 20
210.7465006921299
 30
0.0
 11
89.6615819682805
 21
211.971112859864
 31
0.0
  0
LINE
  5
BE5
330
1F
100
AcDbEntity
  8
0
  6
Continuous
 62
     7
370
    25
100
AcDbLine
 10
89.6615819682805
 20
211.971112859864
 30
0.0
 11
89.6615819682805
 21
232.3850312571968
 31
0.0
  0
LINE
  5
BE6
330
1F
100
AcDbEntity
  8
0
  6
Continuous
 62
     7
370
    25
100
AcDbLine
 10
91.07579553065361
 20
209.5216231242697
 30
0.0
 11
88.95447518709383
 21
208.2970109565356
 31
0.0
  0
LINE
  5
BE7
330
1F
100
AcDbEntity
  8
0
  6
Continuous
 62
     7
370
    25
100
AcDbLine
 10
96.02554299895937
 20
206.6641947328902
 30
0.0
 11
91.07579553065361
 21
209.5216231242697
 31
0.0
  0
ARC
  5
BE8
330
1F
100
AcDbEntity
  8
0
  6
Continuous
 62
     7
370
    25
100
AcDbCircle
 10
91.99456233961004
 20
202.339675776292
 30
0.0
 40
1.643415613534351
100
AcDbArc
 50
129.3272408838325
 51
153.9670592489718
  0
LWPOLYLINE
  5
BE9
330
1F
100
AcDbEntity
  8
0
  6
Continuous
 62
     7
370
    25
100
AcDbPolyline
 90
        3
 70
   128
 43
0.0
 10
94.39374757755795
 20
196.3470318033209
 10
94.73569200207245
 20
196.3582040772175
 10
95.08762855693087
 20
196.4488453248784
  0
ARC
  5
BEA
330
1F
100
AcDbEntity
  8
0
  6
Continuous
 62
     7
370
    25
100
AcDbCircle
 10
92.73201417101538
 20
212.110834564385
 30
0.0
 40
3.073609615143993
100
AcDbArc
 50
182.6054784856508
 51
237.3945216599784
  0
LINE
  5
BEB
330
1F
100
AcDbEntity
  8
0
  6
Continuous
 62
     7
370
    25
100
AcDbLine
 10
128.3403228991845
 20
278.2299959877756
 30
0.0
 11
121.2692550873191
 21
282.3120365468891
 31
0.0
  0
LINE
  5
BEC
330
1F
100
AcDbEntity
  8
0
  6
Continuous
 62
     7
370
    25
100
AcDbLine
 10
88.7423431527379
 20
255.3705688567397
 30
0.0
 11
128.3403228991845
 21
278.2299959877756
 31
0.0
  0
LINE
  5
BED
330
1F
100
AcDbEntity
  8
0
  6
Continuous
 62
     7
370
    25
100
AcDbLine
 10
84.8532558562118
 20
257.6156911642521
 30
0.0
 11
88.7423431527379
 21
255.3705688567397
 31
0.0
  0
LINE
  5
BEE
330
1F
100
AcDbEntity
  8
0
  6
Continuous
 62
     7
370
    25
100
AcDbLine
 10
77.07508126315994
 20
253.1254465492271
 30
0.0
 11
84.8532558562118
 21
257.6156911642521
 31
0.0
  0
LINE
  5
BEF
330
1F
100
AcDbEntity
  8
0
  6
Continuous
 62
     7
370
    25
100
AcDbLine
 10
73.8931007478204
 20
254.9623648008283
 30
0.0
 11
77.07508126315994
 21
253.1254465492271
 31
0.0
  0
LINE
  5
BF0
330
1F
100
AcDbEntity
  8
0
  6
Continuous
 62
     7
370
    25
100
AcDbLine
 10
121.2692550873191
 20
282.3120365468891
 30
0.0
 11
73.8931007478204
 21
254.9623648008283
 31
0.0
  0
LINE
  5
BF1
330
1F
100
AcDbEntity
  8
0
  6
Continuous
 62
     7
370
    25
100
AcDbLine
 10
84.8532558562118
 20
188.2097221539633
 30
0.0
 11
84.8532558562118
 21
257.6156911642521
 31
0.0
  0
LINE
  5
BF2
330
1F
100
AcDbEntity
  8
0
  6
Continuous
 62
     7
370
    25
100
AcDbLine
 10
77.07508126315994
 20
183.7194775389385
 30
0.0
 11
84.8532558562118
 21
188.2097221539634
 31
0.0
  0
ARC
  5
BF3
330
1F
100
AcDbEntity
  8
0
  6
Continuous
 62
     7
370
    25
100
AcDbCircle
 10
75.97960468478445
 20
185.0881000966247
 30
0.0
 40
1.753053518628878
100
AcDbArc
 50
171.3146750032949
 51
308.6745732419558
  0
LINE
  5
BF4
330
1F
100
AcDbEntity
  8
0
  6
Continuous
 62
     7
370
    25
100
AcDbLine
 10
74.24665413841373
 20
185.3528245628361
 30
0.0
 11
74.24665413841373
 21
248.2264670780388
 31
0.0
  0
ARC
  5
BF5
330
1F
100
AcDbEntity
  8
0
  6
Continuous
 62
     7
370
    25
100
AcDbCircle
 10
80.36156493799305
 20
247.962007990388
 30
0.0
 40
6.120626822136088
100
AcDbArc
 50
122.476397892174
 51
177.5236019621988
  0
LWPOLYLINE
  5
BF6
330
1F
100
AcDbEntity
  8
0
  6
Continuous
 62
     7
370
    25
100
AcDbPolyline
 90
       30
 70
   128
 43
0.0
 10
83.28651016806847
 20
198.7574276245348
 10
83.17020426783446
 20
199.0856145133412
 10
82.91800339363962
 20
199.5447720687948
 10
82.59056588380324
 20
199.9103359647718
 10
82.19520615122096
 20
200.174140107912
 10
81.74075587900629
 20
200.330291549581
 10
81.2373667352841
 20
200.3753021246043
 10
80.69628360169949
 20
200.3081663711138
 10
80.12959338134405
 20
200.1303839909037
 10
79.54995499731282
 20
199.8459263485717
 10
78.97031661328148
 20
199.4611477577952
 10
78.40362639292604
 20
198.9846435364645
 10
77.86254325934155
 20
198.4270580014849
 10
77.35915411561925
 20
197.8008466923253
 10
76.90470384340458
 20
197.1199981348493
 10
76.5093441108223
 20
196.3997213607628
 10
76.18190660098591
 20
195.6561061629769
 10
75.92970572679107
 20
194.9057636762234
 10
75.7583752390178
 20
194.1654553117526
 10
75.67174237764797
 20
193.4517183351039
 10
75.67174237764797
 20
192.780496450921
 10
75.75837523901791
 20
192.1667836469356
 10
75.92970572679107
 20
191.624289253059
 10
76.18190660098591
 20
191.1651316976054
 10
76.5093441108223
 20
190.7995678016284
 10
76.90470384340458
 20
190.5357636584881
 10
77.35915411561925
 20
190.3796122168192
 10
77.86254325934155
 20
190.3346016417959
 10
78.40362639292616
 20
190.4017373952864
 10
78.4720654562569
 20
190.4176611429695
  0
LWPOLYLINE
  5
BF7
330
1F
100
AcDbEntity
  8
0
  6
Continuous
 62
     7
370
    25
100
AcDbPolyline
 90
       30
 70
   128
 43
0.0
 10
83.28651016807643
 20
247.7498763376525
 10
83.17020426783446
 20
248.0780632264862
 10
82.91800339363962
 20
248.5372207819398
 10
82.59056588380324
 20
248.9027846779168
 10
82.19520615122096
 20
249.1665888210571
 10
81.74075587900629
 20
249.322740262726
 10
81.2373667352841
 20
249.3677508377493
 10
80.69628360169949
 20
249.3006150842588
 10
80.12959338134405
 20
249.1228327040488
 10
79.54995499731282
 20
248.8383750617166
 10
78.97031661328148
 20
248.4535964709401
 10
78.40362639292604
 20
247.9770922496094
 10
77.86254325934155
 20
247.4195067146298
 10
77.35915411561925
 20
246.7932954054703
 10
76.90470384340458
 20
246.1124468479944
 10
76.5093441108223
 20
245.3921700739077
 10
76.18190660098591
 20
244.6485548761219
 10
75.92970572679107
 20
243.8982123893684
 10
75.7583752390178
 20
243.1579040248976
 10
75.67174237764797
 20
242.4441670482489
 10
75.67174237764797
 20
241.772945164066
 10
75.75837523901791
 20
241.1592323600806
 10
75.92970572679107
 20
240.616737966204
 10
76.18190660098591
 20
240.1575804107504
 10
76.5093441108223
 20
239.7920165147734
 10
76.90470384340458
 20
239.5282123716331
 10
77.35915411561925
 20
239.3720609299642
 10
77.86254325934155
 20
239.3270503549408
 10
78.40362639292616
 20
239.3941861084314
 10
78.47206545700712
 20
239.4101098562976
  0
LINE
  5
BF8
330
1F
100
AcDbEntity
  8
0
  6
Continuous
 62
     7
370
    25
100
AcDbLine
 10
74.24665413841373
 20
248.2264670780388
 30
0.0
 11
71.06467362307419
 21
250.0633853296399
 31
0.0
  0
ARC
  5
BF9
330
1F
100
AcDbEntity
  8
0
  6
Continuous
 62
     7
370
    25
100
AcDbCircle
 10
77.17956553768826
 20
249.7989371452288
 30
0.0
 40
6.120607483710333
100
AcDbArc
 50
122.4763035593676
 51
177.5236962950044
  0
LINE
  5
BFA
330
1F
100
AcDbEntity
  8
0
  6
Continuous
 62
     7
370
    25
100
AcDbLine
 10
71.06467362307419
 20
187.1897428144371
 30
0.0
 11
74.24665413841373
 21
185.3528245628361
 31
0.0
  0
LINE
  5
BFB
330
1F
100
AcDbEntity
  8
0
  6
Continuous
 62
     7
370
    25
100
AcDbLine
 10
71.06467362307419
 20
250.0633853296399
 30
0.0
 11
71.06467362307419
 21
187.1897428144371
 31
0.0
  0
ARC
  5
BFC
330
1F
100
AcDbEntity
  8
0
  6
Continuous
 62
     7
370
    25
100
AcDbCircle
 10
80.66533563803554
 20
247.6789463077324
 30
0.0
 40
2.061941649954305
100
AcDbArc
 50
31.21309458970687
 51
49.57857141937592
  0
LWPOLYLINE
  5
BFD
330
1F
100
AcDbEntity
  8
0
  6
Continuous
 62
     7
370
    25
100
AcDbPolyline
 90
        3
 70
   128
 43
0.0
 10
76.53191633548849
 20
239.7726704923408
 10
76.7934686906701
 20
239.6986241746932
 10
77.17922932253643
 20
239.6539777763538
  0
LINE
  5
BFE
330
1F
100
AcDbEntity
  8
0
  6
Continuous
 62
     7
370
    25
100
AcDbLine
 10
88.7423431527379
 20
255.3705688567397
 30
0.0
 11
88.7423431527379
 21
247.2051607378821
 31
0.0
  0
LINE
  5
BFF
330
1F
100
AcDbEntity
  8
0
  6
Continuous
 62
     7
370
    25
100
AcDbLine
 10
85.56036263739847
 20
249.0420789894832
 30
0.0
 11
88.7423431527379
 21
247.2051607378821
 31
0.0
  0
LINE
  5
C00
330
1F
100
AcDbEntity
  8
0
  6
Continuous
 62
     7
370
    25
100
AcDbLine
 10
85.56036263739847
 20
195.9669262169095
 30
0.0
 11
85.56036263739847
 21
249.0420789894832
 31
0.0
  0
LINE
  5
C01
330
1F
100
AcDbEntity
  8
0
  6
Continuous
 62
     7
370
    25
100
AcDbLine
 10
88.7423431527379
 20
194.1300079653084
 30
0.0
 11
85.56036263739847
 21
195.9669262169095
 31
0.0
  0
LINE
  5
C02
330
1F
100
AcDbEntity
  8
0
  6
Continuous
 62
     7
370
    25
100
AcDbLine
 10
88.7423431527379
 20
185.9645998464509
 30
0.0
 11
88.7423431527379
 21
194.1300079653084
 31
0.0
  0
LINE
  5
C03
330
1F
100
AcDbEntity
  8
0
  6
Continuous
 62
     7
370
    25
100
AcDbLine
 10
88.7423431527379
 20
185.9645998464509
 30
0.0
 11
84.8532558562118
 21
188.2097221539634
 31
0.0
  0
LINE
  5
C04
330
1F
100
AcDbEntity
  8
0
  6
Continuous
 62
     7
370
    25
100
AcDbLine
 10
95.99136573421012
 20
190.1493715073653
 30
0.0
 11
88.7423431527379
 21
185.9645998464509
 31
0.0
  0
LINE
  5
C05
330
1F
100
AcDbEntity
  8
0
  6
Continuous
 62
     7
370
    25
100
AcDbLine
 10
88.91914858155425
 20
194.2320755667942
 30
0.0
 11
88.7423431527379
 21
194.1300079653084
 31
0.0
  0
LINE
  5
C06
330
1F
100
AcDbEntity
  8
0
  6
Continuous
 62
     7
370
    25
100
AcDbLine
 10
94.39919740223033
 20
209.6437525908855
 30
0.0
 11
96.02554299895937
 21
210.5826219194817
 31
0.0
  0
ARC
  5
C07
330
1F
100
AcDbEntity
  8
0
  6
Continuous
 62
     7
370
    25
100
AcDbCircle
 10
88.66990285340952
 20
219.4129234887214
 30
0.0
 40
11.32526008788645
100
AcDbArc
 50
300.3902082951494
 51
310.5031409351554
  0
ARC
  5
C08
330
1F
100
AcDbEntity
  8
0
  6
Continuous
 62
     7
370
    25
100
AcDbCircle
 10
120.3787983274626
 20
262.9344110856794
 30
0.0
 40
2.200060259611848
100
AcDbArc
 50
77.8104082024779
 51
124.019022874472
  0
LINE
  5
C09
330
1F
100
AcDbEntity
  8
0
  6
Continuous
 62
     7
370
    25
100
AcDbLine
 10
92.98498383985722
 20
249.6543850733503
 30
0.0
 11
119.1479347437595
 21
264.7579351420704
 31
0.0
  0
LINE
  5
C0A
330
1F
100
AcDbEntity
  8
0
  6
Continuous
 62
     7
370
    25
100
AcDbLine
 10
92.98498383985722
 20
247.2047626376931
 30
0.0
 11
92.98498383985722
 21
249.6543850733503
 31
0.0
  0
ARC
  5
C0B
330
1F
100
AcDbEntity
  8
0
  6
Continuous
 62
     7
370
    25
100
AcDbCircle
 10
91.69176073757748
 20
247.414544228395
 30
0.0
 40
1.310127592285482
100
AcDbArc
 50
350.7859630095429
 51
129.2032852357127
  0
LINE
  5
C0C
330
1F
100
AcDbEntity
  8
0
  6
Continuous
 62
     7
370
    25
100
AcDbLine
 10
88.7423431527379
 20
247.2051607378821
 30
0.0
 11
90.86366349629756
 21
248.4297729056162
 31
0.0
  0
ARC
  5
C0D
330
1F
100
AcDbEntity
  8
0
  6
Continuous
 62
     7
370
    25
100
AcDbCircle
 10
129.43579947756
 20
276.8613734300894
 30
0.0
 40
1.75305351862888
100
AcDbArc
 50
351.3146750032949
 51
128.6745732419503
  0
LINE
  5
C0E
330
1F
100
AcDbEntity
  8
0
  6
Continuous
 62
     7
370
    25
100
AcDbLine
 10
131.1687500239306
 20
276.596648963878
 30
0.0
 11
131.1687500239306
 21
271.0456046037357
 31
0.0
  0
LINE
  5
C0F
330
1F
100
AcDbEntity
  8
0
  6
Continuous
 62
     7
370
    25
100
AcDbLine
 10
92.98498383985722
 20
249.6543850733503
 30
0.0
 11
96.3790963895527
 21
247.6950056049758
 31
0.0
  0
ARC
  5
C10
330
1F
100
AcDbEntity
  8
0
  6
Continuous
 62
     7
370
    25
100
AcDbCircle
 10
83.50963589711611
 20
223.7717507637593
 30
0.0
 40
14.50784099530508
100
AcDbArc
 50
302.0913052518054
 51
329.62104676667
  0
LINE
  5
C11
330
1F
100
AcDbEntity
  8
0
  6
Continuous
 62
     7
370
    25
100
AcDbLine
 10
91.2172168868909
 20
211.4806708424866
 30
0.0
 11
89.97553695173187
 21
210.7638642735761
 31
0.0
  0
LINE
  5
C12
330
1F
100
AcDbEntity
  8
0
  6
Continuous
 62
     7
370
    25
100
AcDbLine
 10
85.56036263739847
 20
195.9669262169095
 30
0.0
 11
85.7724946717544
 21
196.0893874336829
 31
0.0
  0
LINE
  5
C13
330
1F
100
AcDbEntity
  8
0
  6
Continuous
 62
     7
370
    25
100
AcDbLine
 10
94.39919740223033
 20
209.6437525908855
 30
0.0
 11
91.2172168868909
 21
211.4806708424866
 31
0.0
  0
ARC
  5
C14
330
1F
100
AcDbEntity
  8
0
  6
Continuous
 62
     7
370
    25
100
AcDbCircle
 10
122.4347859477233
 20
280.7386108202207
 30
0.0
 40
1.958093640226654
100
AcDbArc
 50
64.78089010124334
 51
126.5295683278494
  0
ARC
  5
C15
330
1F
100
AcDbEntity
  8
0
  6
Continuous
 62
     7
370
    25
100
AcDbCircle
 10
80.66533563802986
 20
198.6864975945829
 30
0.0
 40
2.061941649961426
100
AcDbArc
 50
31.21309458973472
 51
49.57857141932424
  0
LWPOLYLINE
  5
C16
330
1F
100
AcDbEntity
  8
0
  6
Continuous
 62
     7
370
    25
100
AcDbPolyline
 90
        3
 70
   128
 43
0.0
 10
76.53191633548985
 20
190.7802217791954
 10
76.7934686906701
 20
190.7061754615482
 10
77.17922932253643
 20
190.6615290632088
  0
ARC
  5
C17
330
1F
100
AcDbEntity
  8
0
  6
Continuous
 62
     7
370
    25
100
AcDbCircle
 10
73.06458457030621
 20
186.991449740832
 30
0.0
 40
2.009717378115204
100
AcDbArc
 50
174.3375761359744
 51
234.3502434706508
  0
LINE
  5
C18
330
1F
100
AcDbEntity
  8
0
  6
Continuous
 62
     8
370
    25
100
AcDbLine
 10
88.95470505525199
 20
232.7931026130451
 30
0.0
 11
87.54026162472084
 21
231.9765618011594
 31
0.0
  0
LINE
  5
C19
330
1F
100
AcDbEntity
  8
0
  6
Continuous
 62
     8
370
    25
100
AcDbLine
 10
94.61132943658626
 20
205.0313785092449
 30
0.0
 11
96.02554298028096
 21
205.8477866102846
 31
0.0
  0
LINE
  5
C1A
330
1F
100
AcDbEntity
  8
0
  6
Continuous
 62
     8
370
    25
100
AcDbLine
 10
92.98498383985722
 20
247.2047626376931
 30
0.0
 11
96.3790963895527
 21
245.2453831693185
 31
0.0
  0
LINE
  5
C1B
330
1F
100
AcDbEntity
  8
0
  6
Continuous
 62
     8
370
    25
100
AcDbLine
 10
119.7124708279184
 20
264.4320353976566
 30
0.0
 11
119.1479347437595
 21
264.7579351420704
 31
0.0
  0
LINE
  5
C1C
330
1F
100
AcDbEntity
  8
0
  6
Continuous
 62
     7
370
    25
100
AcDbLine
 10
101.7714712511
 20
373.704754717
 30
0.0
 11
102.1714712511
 21
373.704754717
 31
0.0
  0
LINE
  5
C1D
330
1F
100
AcDbEntity
  8
0
  6
Continuous
 62
     7
370
    25
100
AcDbLine
 10
102.1714712510998
 20
379.7047547170001
 30
0.0
 11
101.7714712511
 21
379.7047547170001
 31
0.0
  0
LINE
  5
C1E
330
1F
100
AcDbEntity
  8
0
  6
Continuous
 62
     7
370
    25
100
AcDbLine
 10
101.7714712511
 20
318.7047547170001
 30
0.0
 11
102.1714712510998
 21
318.7047547170001
 31
0.0
  0
LINE
  5
C1F
330
1F
100
AcDbEntity
  8
0
  6
Continuous
 62
     7
370
    25
100
AcDbLine
 10
102.1714712511
 20
324.7047547170001
 30
0.0
 11
101.7714712511
 21
324.7047547170001
 31
0.0
  0
LINE
  5
C20
330
1F
100
AcDbEntity
  8
0
  6
Continuous
 62
     7
370
    25
100
AcDbLine
 10
111.7714712511
 20
311.7047547170001
 30
0.0
 11
112.1714712511
 21
311.7047547170001
 31
0.0
  0
LINE
  5
C21
330
1F
100
AcDbEntity
  8
0
  6
Continuous
 62
     7
370
    25
100
AcDbLine
 10
111.7714712511
 20
386.7047547170001
 30
0.0
 11
111.7714712511
 21
311.7047547170001
 31
0.0
  0
LINE
  5
C22
330
1F
100
AcDbEntity
  8
0
  6
Continuous
 62
     7
370
    25
100
AcDbLine
 10
112.1714712511
 20
386.7047547170001
 30
0.0
 11
111.7714712511
 21
386.7047547170001
 31
0.0
  0
LINE
  5
C23
330
1F
100
AcDbEntity
  8
0
  6
Continuous
 62
     7
370
    25
100
AcDbLine
 10
111.7714712511
 20
391.204754717
 30
0.0
 11
112.1714712511
 21
391.204754717
 31
0.0
  0
LINE
  5
C24
330
1F
100
AcDbEntity
  8
0
  6
Continuous
 62
     7
370
    25
100
AcDbLine
 10
111.7714712511
 20
386.7047547170001
 30
0.0
 11
111.7714712511
 21
391.204754717
 31
0.0
  0
LINE
  5
C25
330
1F
100
AcDbEntity
  8
0
  6
Continuous
 62
     7
370
    25
100
AcDbLine
 10
112.1714712511
 20
307.2047547170001
 30
0.0
 11
111.7714712511
 21
307.2047547170001
 31
0.0
  0
LINE
  5
C26
330
1F
100
AcDbEntity
  8
0
  6
Continuous
 62
     7
370
    25
100
AcDbLine
 10
111.7714712511
 20
307.2047547170001
 30
0.0
 11
111.7714712511
 21
311.7047547170001
 31
0.0
  0
LINE
  5
C27
330
1F
100
AcDbEntity
  8
0
  6
Continuous
 62
     7
370
    25
100
AcDbLine
 10
101.7714712511
 20
382.7047547170001
 30
0.0
 11
101.3714712511
 21
382.7047547170001
 31
0.0
  0
LINE
  5
C28
330
1F
100
AcDbEntity
  8
0
  6
Continuous
 62
     7
370
    25
100
AcDbLine
 10
101.7714712511
 20
315.704754717
 30
0.0
 11
101.7714712511
 21
382.7047547170001
 31
0.0
  0
LINE
  5
C29
330
1F
100
AcDbEntity
  8
0
  6
Continuous
 62
     7
370
    25
100
AcDbLine
 10
101.3714712511
 20
315.704754717
 30
0.0
 11
101.7714712511
 21
315.704754717
 31
0.0
  0
LINE
  5
C2A
330
1F
100
AcDbEntity
  8
0
  6
Continuous
 62
     7
370
    25
100
AcDbLine
 10
101.3714712511
 20
388.2047547170002
 30
0.0
 11
101.7714712511
 21
388.2047547170002
 31
0.0
  0
LINE
  5
C2B
330
1F
100
AcDbEntity
  8
0
  6
Continuous
 62
     7
370
    25
100
AcDbLine
 10
101.7714712511
 20
388.2047547170002
 30
0.0
 11
101.7714712511
 21
382.7047547170001
 31
0.0
  0
LINE
  5
C2C
330
1F
100
AcDbEntity
  8
0
  6
Continuous
 62
     7
370
    25
100
AcDbLine
 10
101.7714712511
 20
310.2047547170001
 30
0.0
 11
101.3714712511
 21
310.2047547170001
 31
0.0
  0
LINE
  5
C2D
330
1F
100
AcDbEntity
  8
0
  6
Continuous
 62
     7
370
    25
100
AcDbLine
 10
101.7714712511
 20
315.704754717
 30
0.0
 11
101.7714712511
 21
310.2047547170001
 31
0.0
  0
LINE
  5
C2E
330
1F
100
AcDbEntity
  8
0
  6
Continuous
 62
     7
370
    25
100
AcDbLine
 10
101.3714712511
 20
387.7047547170001
 30
0.0
 11
91.37147125109993
 21
387.7047547170001
 31
0.0
  0
LINE
  5
C2F
330
1F
100
AcDbEntity
  8
0
  6
Continuous
 62
     7
370
    25
100
AcDbLine
 10
91.37147125109993
 20
387.7047547170001
 30
0.0
 11
91.37147125109993
 21
391.7047547170001
 31
0.0
  0
LINE
  5
C30
330
1F
100
AcDbEntity
  8
0
  6
Continuous
 62
     7
370
    25
100
AcDbLine
 10
91.37147125109993
 20
391.7047547170001
 30
0.0
 11
101.3714712511
 21
391.7047547170001
 31
0.0
  0
LINE
  5
C31
330
1F
100
AcDbEntity
  8
0
  6
Continuous
 62
     7
370
    25
100
AcDbLine
 10
101.3714712511
 20
391.7047547170001
 30
0.0
 11
101.3714712511
 21
387.7047547170001
 31
0.0
  0
LINE
  5
C32
330
1F
100
AcDbEntity
  8
0
  6
Continuous
 62
     7
370
    25
100
AcDbLine
 10
91.37147125109993
 20
310.704754717
 30
0.0
 11
101.3714712511
 21
310.704754717
 31
0.0
  0
LINE
  5
C33
330
1F
100
AcDbEntity
  8
0
  6
Continuous
 62
     7
370
    25
100
AcDbLine
 10
91.37147125109993
 20
310.704754717
 30
0.0
 11
91.37147125109993
 21
387.7047547170001
 31
0.0
  0
LINE
  5
C34
330
1F
100
AcDbEntity
  8
0
  6
Continuous
 62
     7
370
    25
100
AcDbLine
 10
101.3714712511
 20
310.704754717
 30
0.0
 11
101.3714712511
 21
387.7047547170001
 31
0.0
  0
LINE
  5
C35
330
1F
100
AcDbEntity
  8
0
  6
Continuous
 62
     7
370
    25
100
AcDbLine
 10
101.3714712511
 20
306.704754717
 30
0.0
 11
91.37147125109993
 21
306.704754717
 31
0.0
  0
LINE
  5
C36
330
1F
100
AcDbEntity
  8
0
  6
Continuous
 62
     7
370
    25
100
AcDbLine
 10
91.37147125109993
 20
306.704754717
 30
0.0
 11
91.37147125109993
 21
310.704754717
 31
0.0
  0
LINE
  5
C37
330
1F
100
AcDbEntity
  8
0
  6
Continuous
 62
     7
370
    25
100
AcDbLine
 10
101.3714712511
 20
310.704754717
 30
0.0
 11
101.3714712511
 21
306.704754717
 31
0.0
  0
LINE
  5
C38
330
1F
100
AcDbEntity
  8
0
  6
Continuous
 62
     7
370
    25
100
AcDbLine
 10
102.1714712510998
 20
316.954754717
 30
0.0
 11
101.7714712510998
 21
316.954754717
 31
0.0
  0
LINE
  5
C39
330
1F
100
AcDbEntity
  8
0
  6
Continuous
 62
     7
370
    25
100
AcDbLine
 10
101.7714712510998
 20
381.4547547170001
 30
0.0
 11
102.1714712510998
 21
381.4547547170001
 31
0.0
  0
LINE
  5
C3A
330
1F
100
AcDbEntity
  8
0
  6
Continuous
 62
     7
370
    25
100
AcDbLine
 10
111.7714712510998
 20
364.2047547170001
 30
0.0
 11
103.8714712511
 21
364.2047547170001
 31
0.0
  0
ARC
  5
C3B
330
1F
100
AcDbEntity
  8
0
  6
Continuous
 62
     7
370
    25
100
AcDbCircle
 10
103.8714712511
 20
362.204754717
 30
0.0
 40
2.000000000000114
100
AcDbArc
 50
90.0
 51
180.0
  0
LINE
  5
C3C
330
1F
100
AcDbEntity
  8
0
  6
Continuous
 62
     7
370
    25
100
AcDbLine
 10
101.8714712510999
 20
362.204754717
 30
0.0
 11
101.8714712510999
 21
336.2047547170001
 31
0.0
  0
ARC
  5
C3D
330
1F
100
AcDbEntity
  8
0
  6
Continuous
 62
     7
370
    25
100
AcDbCircle
 10
103.8714712511
 20
336.2047547170001
 30
0.0
 40
2.000000000000114
100
AcDbArc
 50
180.0
 51
270.0
  0
LINE
  5
C3E
330
1F
100
AcDbEntity
  8
0
  6
Continuous
 62
     7
370
    25
100
AcDbLine
 10
103.8714712511
 20
334.2047547170001
 30
0.0
 11
111.7714712510998
 21
334.2047547170001
 31
0.0
  0
LINE
  5
C3F
330
1F
100
AcDbEntity
  8
0
  6
Continuous
 62
     7
370
    25
100
AcDbLine
 10
112.1714712511
 20
391.7047547170001
 30
0.0
 11
122.1714712511
 21
391.7047547170001
 31
0.0
  0
LINE
  5
C40
330
1F
100
AcDbEntity
  8
0
  6
Continuous
 62
     7
370
    25
100
AcDbLine
 10
122.1714712511
 20
391.7047547170001
 30
0.0
 11
122.1714712511
 21
387.7047547170001
 31
0.0
  0
LINE
  5
C41
330
1F
100
AcDbEntity
  8
0
  6
Continuous
 62
     7
370
    25
100
AcDbLine
 10
122.1714712511
 20
387.7047547170001
 30
0.0
 11
112.1714712511
 21
387.7047547170001
 31
0.0
  0
LINE
  5
C42
330
1F
100
AcDbEntity
  8
0
  6
Continuous
 62
     7
370
    25
100
AcDbLine
 10
112.1714712511
 20
387.7047547170001
 30
0.0
 11
112.1714712511
 21
391.7047547170001
 31
0.0
  0
LINE
  5
C43
330
1F
100
AcDbEntity
  8
0
  6
Continuous
 62
     7
370
    25
100
AcDbLine
 10
122.1714712511
 20
306.704754717
 30
0.0
 11
112.1714712511
 21
306.704754717
 31
0.0
  0
LINE
  5
C44
330
1F
100
AcDbEntity
  8
0
  6
Continuous
 62
     7
370
    25
100
AcDbLine
 10
112.1714712511
 20
306.704754717
 30
0.0
 11
112.1714712511
 21
310.704754717
 31
0.0
  0
LINE
  5
C45
330
1F
100
AcDbEntity
  8
0
  6
Continuous
 62
     7
370
    25
100
AcDbLine
 10
112.1714712511
 20
310.704754717
 30
0.0
 11
122.1714712511
 21
310.704754717
 31
0.0
  0
LINE
  5
C46
330
1F
100
AcDbEntity
  8
0
  6
Continuous
 62
     7
370
    25
100
AcDbLine
 10
122.1714712511
 20
310.704754717
 30
0.0
 11
122.1714712511
 21
306.704754717
 31
0.0
  0
LINE
  5
C47
330
1F
100
AcDbEntity
  8
0
  6
Continuous
 62
     7
370
    25
100
AcDbLine
 10
112.1714712511
 20
387.7047547170001
 30
0.0
 11
112.1714712511
 21
310.704754717
 31
0.0
  0
LINE
  5
C48
330
1F
100
AcDbEntity
  8
0
  6
Continuous
 62
     7
370
    25
100
AcDbLine
 10
122.1714712511
 20
310.704754717
 30
0.0
 11
122.1714712511
 21
387.7047547170001
 31
0.0
  0
LINE
  5
C49
330
1F
100
AcDbEntity
  8
0
  6
Continuous
 62
     7
370
    25
100
AcDbLine
 10
102.1714712511
 20
366.7047547170001
 30
0.0
 11
102.1714712511
 21
377.7047547170001
 31
0.0
  0
LINE
  5
C4A
330
1F
100
AcDbEntity
  8
0
  6
Continuous
 62
     7
370
    25
100
AcDbLine
 10
111.7714712511
 20
366.7047547170001
 30
0.0
 11
102.1714712511
 21
366.7047547170001
 31
0.0
  0
LINE
  5
C4B
330
1F
100
AcDbEntity
  8
0
  6
Continuous
 62
     7
370
    25
100
AcDbLine
 10
102.1714712511
 20
320.704754717
 30
0.0
 11
102.1714712511
 21
331.7047547170001
 31
0.0
  0
LINE
  5
C4C
330
1F
100
AcDbEntity
  8
0
  6
Continuous
 62
     7
370
    25
100
AcDbLine
 10
102.1714712511
 20
331.7047547170001
 30
0.0
 11
111.7714712511
 21
331.7047547170001
 31
0.0
  0
LINE
  5
C4D
330
1F
100
AcDbEntity
  8
0
  6
Continuous
 62
     7
370
    25
100
AcDbLine
 10
102.1714712511
 20
377.7047547170001
 30
0.0
 11
102.1714712511
 21
381.7047547170001
 31
0.0
  0
LINE
  5
C4E
330
1F
100
AcDbEntity
  8
0
  6
Continuous
 62
     7
370
    25
100
AcDbLine
 10
102.1714712511
 20
381.7047547170001
 30
0.0
 11
111.7714712511
 21
381.7047547170001
 31
0.0
  0
LINE
  5
C4F
330
1F
100
AcDbEntity
  8
0
  6
Continuous
 62
     7
370
    25
100
AcDbLine
 10
111.7714712511
 20
316.7047547170001
 30
0.0
 11
102.1714712511
 21
316.7047547170001
 31
0.0
  0
LINE
  5
C50
330
1F
100
AcDbEntity
  8
0
  6
Continuous
 62
     7
370
    25
100
AcDbLine
 10
102.1714712511
 20
316.7047547170001
 30
0.0
 11
102.1714712511
 21
320.704754717
 31
0.0
  0
LINE
  5
C51
330
1F
100
AcDbEntity
  8
0
  6
Continuous
 62
     8
370
    25
100
AcDbLine
 10
111.7714712511
 20
377.7047547170001
 30
0.0
 11
102.1714712511
 21
377.7047547170001
 31
0.0
  0
LINE
  5
C52
330
1F
100
AcDbEntity
  8
0
  6
Continuous
 62
     8
370
    25
100
AcDbLine
 10
102.1714712511
 20
320.704754717
 30
0.0
 11
111.7714712511
 21
320.704754717
 31
0.0
  0
ENDSEC
  0
SECTION
  2
OBJECTS
  0
DICTIONARY
  5
C
330
0
100
AcDbDictionary
281
     1
  3
ACAD_GROUP
350
D
  3
ACAD_IMAGE_VARS
350
653
  3
ACAD_LAYOUT
350
1A
  3
ACAD_MLINESTYLE
350
17
  3
ACAD_PLOTSETTINGS
350
19
  3
ACAD_PLOTSTYLENAME
350
E
  3
ACAD_SCALELIST
350
47
  3
APPDATA
350
651
  3
DWGPROPS
350
C53
  0
DICTIONARY
  5
D
102
{ACAD_REACTORS
330
C
102
}
330
C
100
AcDbDictionary
281
     1
  0
RASTERVARIABLES
  5
653
102
{ACAD_REACTORS
330
C
102
}
330
C
100
AcDbRasterVariables
 90
        0
 70
     1
 71
     1
 72
     1
  0
DICTIONARY
  5
1A
102
{ACAD_REACTORS
330
C
102
}
330
C
100
AcDbDictionary
281
     1
  3
Layout1
350
1E
  3
Layout2
350
26
  3
Model
350
22
  0
DICTIONARY
  5
17
102
{ACAD_REACTORS
330
C
102
}
330
C
100
AcDbDictionary
281
     1
  3
Standard
350
18
  0
DICTIONARY
  5
19
102
{ACAD_REACTORS
330
C
102
}
330
C
100
AcDbDictionary
281
     1
  0
ACDBDICTIONARYWDFLT
  5
E
102
{ACAD_REACTORS
330
C
102
}
330
C
100
AcDbDictionary
281
     1
  3
Normal
350
F
100
AcDbDictionaryWithDefault
340
F
  0
DICTIONARY
  5
47
102
{ACAD_REACTORS
330
C
102
}
330
C
100
AcDbDictionary
281
     1
  3
A0
350
48
  3
A1
350
49
  3
A2
350
4A
  3
A3
350
4B
  3
A4
350
4C
  3
A5
350
4D
  3
A6
350
4E
  3
A7
350
4F
  3
A8
350
50
  3
A9
350
51
  3
B0
350
52
  3
B1
350
53
  3
B2
350
54
  3
B3
350
55
  3
B4
350
56
  3
B5
350
57
  3
B6
350
58
  3
B7
350
59
  3
B8
350
5A
  3
B9
350
5B
  3
C0
350
5C
  3
C1
350
5D
  3
C2
350
5E
  3
C3
350
5F
  3
C4
350
60
  3
C5
350
61
  3
C6
350
62
  3
C7
350
63
  3
C8
350
64
  3
C9
350
65
  3
D0
350
66
  3
D1
350
67
  3
D2
350
68
  0
DICTIONARY
  5
651
102
{ACAD_REACTORS
330
C
102
}
330
C
100
AcDbDictionary
281
     1
  0
XRECORD
  5
C53
102
{ACAD_REACTORS
330
C
102
}
330
C
100
AcDbXrecord
280
     1
  1
DWGPROPS COOKIE
  2

  3

  4

  6

  7

  8
simone.danesi
  9

300
=
301
=
302
=
303
=
304
=
305
=
306
=
307
=
308
=
309
=
 40
0.0
 41
2458179.653494109
 42
2458872.553758299
  1

 90
        0
  0
LAYOUT
  5
1E
102
{ACAD_REACTORS
330
1A
102
}
330
1A
100
AcDbPlotSettings
  1

  2
none_device
  4

  6

 40
0.0
 41
0.0
 42
0.0
 43
0.0
 44
0.0
 45
0.0
 46
0.0
 47
0.0
 48
0.0
 49
0.0
140
0.0
141
0.0
142
1.0
143
1.0
 70
   688
 72
     1
 73
     0
 74
     5
  7

 75
    16
147
1.0
148
0.0
149
0.0
100
AcDbLayout
  1
Layout1
 70
     1
 71
     1
 10
0.0
 20
0.0
 11
420.0
 21
297.0
 12
0.0
 22
0.0
 32
0.0
 14
1.000000000000000E+20
 24
1.000000000000000E+20
 34
1.000000000000000E+20
 15
-1.000000000000000E+20
 25
-1.000000000000000E+20
 35
-1.000000000000000E+20
146
0.0
 13
0.0
 23
0.0
 33
0.0
 16
1.0
 26
0.0
 36
0.0
 17
0.0
 27
1.0
 37
0.0
 76
     0
330
1B
  0
LAYOUT
  5
26
102
{ACAD_REACTORS
330
1A
102
}
330
1A
100
AcDbPlotSettings
  1

  2
none_device
  4

  6

 40
0.0
 41
0.0
 42
0.0
 43
0.0
 44
0.0
 45
0.0
 46
0.0
 47
0.0
 48
0.0
 49
0.0
140
0.0
141
0.0
142
1.0
143
1.0
 70
   688
 72
     1
 73
     0
 74
     5
  7

 75
    16
147
1.0
148
0.0
149
0.0
100
AcDbLayout
  1
Layout2
 70
     1
 71
     2
 10
0.0
 20
0.0
 11
0.0
 21
0.0
 12
0.0
 22
0.0
 32
0.0
 14
0.0
 24
0.0
 34
0.0
 15
0.0
 25
0.0
 35
0.0
146
0.0
 13
0.0
 23
0.0
 33
0.0
 16
1.0
 26
0.0
 36
0.0
 17
0.0
 27
1.0
 37
0.0
 76
     0
330
23
  0
LAYOUT
  5
22
102
{ACAD_REACTORS
330
1A
102
}
330
1A
100
AcDbPlotSettings
  1

  2
none_device
  4
Letter_(8.50_x_11.00_Inches)
  6

 40
6.35
 41
6.35
 42
6.35000508
 43
6.35000508
 44
215.9
 45
279.4
 46
0.0
 47
0.0
 48
0.0
 49
0.0
140
0.0
141
0.0
142
1.0
143
1.0
 70
  1712
 72
     1
 73
     0
 74
     0
  7

 75
     0
147
1.0
148
0.0
149
0.0
100
AcDbLayout
  1
Model
 70
     1
 71
     0
 10
0.0
 20
0.0
 11
840.0
 21
594.0
 12
0.0
 22
0.0
 32
0.0
 14
60.2907537057
 24
179.3108737350958
 34
0.0
 15
295.9984461681
 25
549.8550705797002
 35
0.0
146
0.0
 13
0.0
 23
0.0
 33
0.0
 16
1.0
 26
0.0
 36
0.0
 17
0.0
 27
1.0
 37
0.0
 76
     0
330
1F
331
29
  0
MLINESTYLE
  5
18
102
{ACAD_REACTORS
330
17
102
}
330
17
100
AcDbMlineStyle
  2
Standard
 70
     0
  3

 62
   256
 51
90.0
 52
90.0
 71
     2
 49
0.5
 62
   256
  6
BYLAYER
 49
-0.5
 62
   256
  6
BYLAYER
  0
ACDBPLACEHOLDER
  5
F
102
{ACAD_REACTORS
330
E
102
}
330
E
  0
SCALE
  5
48
102
{ACAD_REACTORS
330
47
102
}
330
47
100
AcDbScale
 70
     0
300
1:1
140
1.0
141
1.0
290
     1
  0
SCALE
  5
49
102
{ACAD_REACTORS
330
47
102
}
330
47
100
AcDbScale
 70
     0
300
1:2
140
1.0
141
2.0
290
     0
  0
SCALE
  5
4A
102
{ACAD_REACTORS
330
47
102
}
330
47
100
AcDbScale
 70
     0
300
1:4
140
1.0
141
4.0
290
     0
  0
SCALE
  5
4B
102
{ACAD_REACTORS
330
47
102
}
330
47
100
AcDbScale
 70
     0
300
1:5
140
1.0
141
5.0
290
     0
  0
SCALE
  5
4C
102
{ACAD_REACTORS
330
47
102
}
330
47
100
AcDbScale
 70
     0
300
1:8
140
1.0
141
8.0
290
     0
  0
SCALE
  5
4D
102
{ACAD_REACTORS
330
47
102
}
330
47
100
AcDbScale
 70
     0
300
1:10
140
1.0
141
10.0
290
     0
  0
SCALE
  5
4E
102
{ACAD_REACTORS
330
47
102
}
330
47
100
AcDbScale
 70
     0
300
1:16
140
1.0
141
16.0
290
     0
  0
SCALE
  5
4F
102
{ACAD_REACTORS
330
47
102
}
330
47
100
AcDbScale
 70
     0
300
1:20
140
1.0
141
20.0
290
     0
  0
SCALE
  5
50
102
{ACAD_REACTORS
330
47
102
}
330
47
100
AcDbScale
 70
     0
300
1:30
140
1.0
141
30.0
290
     0
  0
SCALE
  5
51
102
{ACAD_REACTORS
330
47
102
}
330
47
100
AcDbScale
 70
     0
300
1:40
140
1.0
141
40.0
290
     0
  0
SCALE
  5
52
102
{ACAD_REACTORS
330
47
102
}
330
47
100
AcDbScale
 70
     0
300
1:50
140
1.0
141
50.0
290
     0
  0
SCALE
  5
53
102
{ACAD_REACTORS
330
47
102
}
330
47
100
AcDbScale
 70
     0
300
1:100
140
1.0
141
100.0
290
     0
  0
SCALE
  5
54
102
{ACAD_REACTORS
330
47
102
}
330
47
100
AcDbScale
 70
     0
300
2:1
140
2.0
141
1.0
290
     0
  0
SCALE
  5
55
102
{ACAD_REACTORS
330
47
102
}
330
47
100
AcDbScale
 70
     0
300
4:1
140
4.0
141
1.0
290
     0
  0
SCALE
  5
56
102
{ACAD_REACTORS
330
47
102
}
330
47
100
AcDbScale
 70
     0
300
8:1
140
8.0
141
1.0
290
     0
  0
SCALE
  5
57
102
{ACAD_REACTORS
330
47
102
}
330
47
100
AcDbScale
 70
     0
300
10:1
140
10.0
141
1.0
290
     0
  0
SCALE
  5
58
102
{ACAD_REACTORS
330
47
102
}
330
47
100
AcDbScale
 70
     0
300
100:1
140
100.0
141
1.0
290
     0
  0
SCALE
  5
59
102
{ACAD_REACTORS
330
47
102
}
330
47
100
AcDbScale
 70
     0
300
1/128" = 1'-0"
140
0.0078125
141
12.0
290
     0
  0
SCALE
  5
5A
102
{ACAD_REACTORS
330
47
102
}
330
47
100
AcDbScale
 70
     0
300
1/64" = 1'-0"
140
0.015625
141
12.0
290
     0
  0
SCALE
  5
5B
102
{ACAD_REACTORS
330
47
102
}
330
47
100
AcDbScale
 70
     0
300
1/32" = 1'-0"
140
0.03125
141
12.0
290
     0
  0
SCALE
  5
5C
102
{ACAD_REACTORS
330
47
102
}
330
47
100
AcDbScale
 70
     0
300
1/16" = 1'-0"
140
0.0625
141
12.0
290
     0
  0
SCALE
  5
5D
102
{ACAD_REACTORS
330
47
102
}
330
47
100
AcDbScale
 70
     0
300
3/32" = 1'-0"
140
0.09375
141
12.0
290
     0
  0
SCALE
  5
5E
102
{ACAD_REACTORS
330
47
102
}
330
47
100
AcDbScale
 70
     0
300
1/8" = 1'-0"
140
0.125
141
12.0
290
     0
  0
SCALE
  5
5F
102
{ACAD_REACTORS
330
47
102
}
330
47
100
AcDbScale
 70
     0
300
3/16" = 1'-0"
140
0.1875
141
12.0
290
     0
  0
SCALE
  5
60
102
{ACAD_REACTORS
330
47
102
}
330
47
100
AcDbScale
 70
     0
300
1/4" = 1'-0"
140
0.25
141
12.0
290
     0
  0
SCALE
  5
61
102
{ACAD_REACTORS
330
47
102
}
330
47
100
AcDbScale
 70
     0
300
3/8" = 1'-0"
140
0.375
141
12.0
290
     0
  0
SCALE
  5
62
102
{ACAD_REACTORS
330
47
102
}
330
47
100
AcDbScale
 70
     0
300
1/2" = 1'-0"
140
0.5
141
12.0
290
     0
  0
SCALE
  5
63
102
{ACAD_REACTORS
330
47
102
}
330
47
100
AcDbScale
 70
     0
300
3/4" = 1'-0"
140
0.75
141
12.0
290
     0
  0
SCALE
  5
64
102
{ACAD_REACTORS
330
47
102
}
330
47
100
AcDbScale
 70
     0
300
1" = 1'-0"
140
1.0
141
12.0
290
     0
  0
SCALE
  5
65
102
{ACAD_REACTORS
330
47
102
}
330
47
100
AcDbScale
 70
     0
300
1-1/2" = 1'-0"
140
1.5
141
12.0
290
     0
  0
SCALE
  5
66
102
{ACAD_REACTORS
330
47
102
}
330
47
100
AcDbScale
 70
     0
300
3" = 1'-0"
140
3.0
141
12.0
290
     0
  0
SCALE
  5
67
102
{ACAD_REACTORS
330
47
102
}
330
47
100
AcDbScale
 70
     0
300
6" = 1'-0"
140
6.0
141
12.0
290
     0
  0
SCALE
  5
68
102
{ACAD_REACTORS
330
47
102
}
330
47
100
AcDbScale
 70
     0
300
1'-0" = 1'-0"
140
12.0
141
12.0
290
     0
  0
ENDSEC
  0
EOF
