  0
SECTION
  2
HEADER
  9
$ACADVER
  1
AC1015
  9
$ACADMAINTVER
 70
     6
  9
$DWGCODEPAGE
  3
ANSI_1252
  9
$INSBASE
 10
0.0
 20
0.0
 30
0.0
  9
$EXTMIN
 10
6234.258418290687
 20
7026.394253887291
 30
0.0
  9
$EXTMAX
 10
6954.133839049893
 20
7379.895255529403
 30
0.0
  9
$LIMMIN
 10
0.0
 20
0.0
  9
$LIMMAX
 10
3150.0
 20
4455.0
  9
$ORTHOMODE
 70
     0
  9
$REGENMODE
 70
     1
  9
$FILLMODE
 70
     1
  9
$QTEXTMODE
 70
     0
  9
$MIRRTEXT
 70
     1
  9
$LTSCALE
 40
15.0
  9
$ATTMODE
 70
     1
  9
$TEXTSIZE
 40
42.0
  9
$TRACEWID
 40
1.0
  9
$TEXTSTYLE
  7
STANDARD
  9
$CLAYER
  8
0
  9
$CELTYPE
  6
ByLayer
  9
$CECOLOR
 62
   256
  9
$CELTSCALE
 40
1.0
  9
$DISPSILH
 70
     0
  9
$DIMSCALE
 40
1.0
  9
$DIMASZ
 40
48.0
  9
$DIMEXO
 40
1.5
  9
$DIMDLI
 40
3.75
  9
$DIMRND
 40
0.0
  9
$DIMDLE
 40
0.0
  9
$DIMEXE
 40
15.0
  9
$DIMTP
 40
0.0
  9
$DIMTM
 40
0.0
  9
$DIMTXT
 40
48.0
  9
$DIMCEN
 40
2.5
  9
$DIMTSZ
 40
0.0
  9
$DIMTOL
 70
     0
  9
$DIMLIM
 70
     0
  9
$DIMTIH
 70
     1
  9
$DIMTOH
 70
     1
  9
$DIMSE1
 70
     0
  9
$DIMSE2
 70
     0
  9
$DIMTAD
 70
     1
  9
$DIMZIN
 70
     0
  9
$DIMBLK
  1

  9
$DIMASO
 70
     1
  9
$DIMSHO
 70
     1
  9
$DIMPOST
  1

  9
$DIMAPOST
  1

  9
$DIMALT
 70
     0
  9
$DIMALTD
 70
     3
  9
$DIMALTF
 40
0.0393700787
  9
$DIMLFAC
 40
1.0
  9
$DIMTOFL
 70
     1
  9
$DIMTVP
 40
0.0
  9
$DIMTIX
 70
     0
  9
$DIMSOXD
 70
     0
  9
$DIMSAH
 70
     0
  9
$DIMBLK1
  1

  9
$DIMBLK2
  1

  9
$DIMSTYLE
  2
ISO-25
  9
$DIMCLRD
 70
     0
  9
$DIMCLRE
 70
     0
  9
$DIMCLRT
 70
     0
  9
$DIMTFAC
 40
1.0
  9
$DIMGAP
 40
30.0
  9
$DIMJUST
 70
     0
  9
$DIMSD1
 70
     0
  9
$DIMSD2
 70
     0
  9
$DIMTOLJ
 70
     1
  9
$DIMTZIN
 70
     0
  9
$DIMALTZ
 70
     0
  9
$DIMALTTZ
 70
     0
  9
$DIMUPT
 70
     0
  9
$DIMDEC
 70
     2
  9
$DIMTDEC
 70
     2
  9
$DIMALTU
 70
     2
  9
$DIMALTTD
 70
     2
  9
$DIMTXSTY
  7
STANDARD
  9
$DIMAUNIT
 70
     0
  9
$DIMADEC
 70
     0
  9
$DIMALTRND
 40
0.0
  9
$DIMAZIN
 70
     0
  9
$DIMDSEP
 70
    46
  9
$DIMATFIT
 70
     3
  9
$DIMFRAC
 70
     0
  9
$DIMLDRBLK
  1

  9
$DIMLUNIT
 70
     2
  9
$DIMLWD
 70
    -2
  9
$DIMLWE
 70
    -2
  9
$DIMTMOVE
 70
     2
  9
$LUNITS
 70
     2
  9
$LUPREC
 70
     2
  9
$SKETCHINC
 40
1.0
  9
$FILLETRAD
 40
10.0
  9
$AUNITS
 70
     0
  9
$AUPREC
 70
     2
  9
$MENU
  1
.
  9
$ELEVATION
 40
0.0
  9
$PELEVATION
 40
0.0
  9
$THICKNESS
 40
0.0
  9
$LIMCHECK
 70
     0
  9
$CHAMFERA
 40
0.0
  9
$CHAMFERB
 40
0.0
  9
$CHAMFERC
 40
0.0
  9
$CHAMFERD
 40
0.0
  9
$SKPOLY
 70
     0
  9
$TDCREATE
 40
2457771.413085799
  9
$TDUCREATE
 40
2457771.371419132
  9
$TDUPDATE
 40
2458788.429237003
  9
$TDUUPDATE
 40
2458788.387570336
  9
$TDINDWG
 40
0.0077825694
  9
$TDUSRTIMER
 40
0.0002026968
  9
$USRTIMER
 70
     1
  9
$ANGBASE
 50
0.0
  9
$ANGDIR
 70
     0
  9
$PDMODE
 70
     0
  9
$PDSIZE
 40
-1.0
  9
$PLINEWID
 40
0.0
  9
$SPLFRAME
 70
     0
  9
$SPLINETYPE
 70
     6
  9
$SPLINESEGS
 70
     8
  9
$HANDSEED
  5
E6B8
  9
$SURFTAB1
 70
     6
  9
$SURFTAB2
 70
     6
  9
$SURFTYPE
 70
     6
  9
$SURFU
 70
     6
  9
$SURFV
 70
     6
  9
$UCSBASE
  2

  9
$UCSNAME
  2

  9
$UCSORG
 10
0.0
 20
0.0
 30
0.0
  9
$UCSXDIR
 10
1.0
 20
0.0
 30
0.0
  9
$UCSYDIR
 10
0.0
 20
1.0
 30
0.0
  9
$UCSORTHOREF
  2

  9
$UCSORTHOVIEW
 70
     0
  9
$UCSORGTOP
 10
0.0
 20
0.0
 30
0.0
  9
$UCSORGBOTTOM
 10
0.0
 20
0.0
 30
0.0
  9
$UCSORGLEFT
 10
0.0
 20
0.0
 30
0.0
  9
$UCSORGRIGHT
 10
0.0
 20
0.0
 30
0.0
  9
$UCSORGFRONT
 10
0.0
 20
0.0
 30
0.0
  9
$UCSORGBACK
 10
0.0
 20
0.0
 30
0.0
  9
$PUCSBASE
  2

  9
$PUCSNAME
  2

  9
$PUCSORG
 10
0.0
 20
0.0
 30
0.0
  9
$PUCSXDIR
 10
1.0
 20
0.0
 30
0.0
  9
$PUCSYDIR
 10
0.0
 20
1.0
 30
0.0
  9
$PUCSORTHOREF
  2

  9
$PUCSORTHOVIEW
 70
     0
  9
$PUCSORGTOP
 10
0.0
 20
0.0
 30
0.0
  9
$PUCSORGBOTTOM
 10
0.0
 20
0.0
 30
0.0
  9
$PUCSORGLEFT
 10
0.0
 20
0.0
 30
0.0
  9
$PUCSORGRIGHT
 10
0.0
 20
0.0
 30
0.0
  9
$PUCSORGFRONT
 10
0.0
 20
0.0
 30
0.0
  9
$PUCSORGBACK
 10
0.0
 20
0.0
 30
0.0
  9
$USERI1
 70
     0
  9
$USERI2
 70
     0
  9
$USERI3
 70
     0
  9
$USERI4
 70
     0
  9
$USERI5
 70
     0
  9
$USERR1
 40
0.0
  9
$USERR2
 40
0.0
  9
$USERR3
 40
0.0
  9
$USERR4
 40
0.0
  9
$USERR5
 40
0.0
  9
$WORLDVIEW
 70
     1
  9
$SHADEDGE
 70
     3
  9
$SHADEDIF
 70
    70
  9
$TILEMODE
 70
     1
  9
$MAXACTVP
 70
    64
  9
$PINSBASE
 10
0.0
 20
0.0
 30
0.0
  9
$PLIMCHECK
 70
     0
  9
$PEXTMIN
 10
1.000000000000000E+20
 20
1.000000000000000E+20
 30
1.000000000000000E+20
  9
$PEXTMAX
 10
-1.000000000000000E+20
 20
-1.000000000000000E+20
 30
-1.000000000000000E+20
  9
$PLIMMIN
 10
0.0
 20
0.0
  9
$PLIMMAX
 10
0.0
 20
0.0
  9
$UNITMODE
 70
     0
  9
$VISRETAIN
 70
     1
  9
$PLINEGEN
 70
     0
  9
$PSLTSCALE
 70
     1
  9
$TREEDEPTH
 70
  3020
  9
$CMLSTYLE
  2
Standard
  9
$CMLJUST
 70
     0
  9
$CMLSCALE
 40
1.0
  9
$PROXYGRAPHICS
 70
     1
  9
$MEASUREMENT
 70
     0
  9
$CELWEIGHT
370
    -1
  9
$ENDCAPS
280
     0
  9
$JOINSTYLE
280
     0
  9
$LWDISPLAY
290
     0
  9
$INSUNITS
 70
     0
  9
$HYPERLINKBASE
  1

  9
$STYLESHEET
  1

  9
$XEDIT
290
     1
  9
$CEPSNTYPE
380
     0
  9
$PSTYLEMODE
290
     1
  9
$FINGERPRINTGUID
  2
{FF718641-E4C5-422E-8C61-599A0620F0D9}
  9
$VERSIONGUID
  2
{FAEB1C32-E019-11D5-929B-00C0DF256EC4}
  9
$EXTNAMES
290
     1
  9
$PSVPSCALE
 40
0.0
  9
$OLESTARTUP
290
     0
  0
ENDSEC
  0
SECTION
  2
CLASSES
  0
CLASS
  1
ACDBDICTIONARYWDFLT
  2
AcDbDictionaryWithDefault
  3
ObjectDBX Classes
 90
        0
280
     0
281
     0
  0
CLASS
  1
MATERIAL
  2
AcDbMaterial
  3
ObjectDBX Classes
 90
     1153
280
     0
281
     0
  0
CLASS
  1
SCALE
  2
AcDbScale
  3
ObjectDBX Classes
 90
     1153
280
     0
281
     0
  0
CLASS
  1
VISUALSTYLE
  2
AcDbVisualStyle
  3
ObjectDBX Classes
 90
     4095
280
     0
281
     0
  0
CLASS
  1
TABLESTYLE
  2
AcDbTableStyle
  3
ObjectDBX Classes
 90
     4095
280
     0
281
     0
  0
CLASS
  1
MLEADERSTYLE
  2
AcDbMLeaderStyle
  3
ACDB_MLEADERSTYLE_CLASS
 90
     4095
280
     0
281
     0
  0
CLASS
  1
DICTIONARYVAR
  2
AcDbDictionaryVar
  3
ObjectDBX Classes
 90
        0
280
     0
281
     0
  0
CLASS
  1
ACDBPLACEHOLDER
  2
AcDbPlaceHolder
  3
ObjectDBX Classes
 90
        0
280
     0
281
     0
  0
CLASS
  1
LAYOUT
  2
AcDbLayout
  3
ObjectDBX Classes
 90
        0
280
     0
281
     0
  0
ENDSEC
  0
SECTION
  2
TABLES
  0
TABLE
  2
VPORT
  5
DBDD
330
0
100
AcDbSymbolTable
 70
     1
  0
VPORT
  5
DBF4
330
DBDD
100
AcDbSymbolTableRecord
100
AcDbViewportTableRecord
  2
*ACTIVE
 70
     0
 10
0.0
 20
0.0
 11
1.0
 21
1.0
 12
6594.19612867029
 22
7203.144754708346
 13
0.0
 23
0.0
 14
10.0
 24
10.0
 15
10.0
 25
10.0
 16
0.0
 26
0.0
 36
1.0
 17
0.0
 27
0.0
 37
0.0
 40
360.5710216749542
 41
2.584131326949384
 42
50.0
 43
0.0
 44
0.0
 50
0.0
 51
0.0
 71
    16
 72
  2000
 73
     1
 74
     3
 75
     0
 76
     0
 77
     0
 78
     0
281
     0
 65
     0
110
0.0
120
0.0
130
0.0
111
1.0
121
0.0
131
0.0
112
0.0
122
1.0
132
0.0
 79
     0
146
0.0
  0
ENDTAB
  0
TABLE
  2
LTYPE
  5
DBDA
330
0
100
AcDbSymbolTable
 70
     6
  0
LTYPE
  5
DBE8
330
DBDA
100
AcDbSymbolTableRecord
100
AcDbLinetypeTableRecord
  2
ByBlock
 70
     0
  3

 72
    65
 73
     0
 40
0.0
  0
LTYPE
  5
DBE9
330
DBDA
100
AcDbSymbolTableRecord
100
AcDbLinetypeTableRecord
  2
ByLayer
 70
     0
  3

 72
    65
 73
     0
 40
0.0
  0
LTYPE
  5
DBEA
330
DBDA
100
AcDbSymbolTableRecord
100
AcDbLinetypeTableRecord
  2
CONTINUOUS
 70
     0
  3
Solid line
 72
    65
 73
     0
 40
0.0
  0
ENDTAB
  0
TABLE
  2
LAYER
  5
DBD7
330
0
100
AcDbSymbolTable
 70
     5
  0
LAYER
  5
DBE5
330
DBD7
100
AcDbSymbolTableRecord
100
AcDbLayerTableRecord
  2
0
 70
     0
 62
     7
  6
CONTINUOUS
370
    -3
390
DBE4
  0
ENDTAB
  0
TABLE
  2
STYLE
  5
DBD8
330
0
100
AcDbSymbolTable
 70
     2
  0
STYLE
  5
DBE6
330
DBD8
100
AcDbSymbolTableRecord
100
AcDbTextStyleTableRecord
  2
STANDARD
 70
     0
 40
0.0
 41
1.0
 50
0.0
 71
     0
 42
42.0
  3
txt
  4

  0
STYLE
  5
DC05
330
DBD8
100
AcDbSymbolTableRecord
100
AcDbTextStyleTableRecord
  2
SLDTEXTSTYLE0
 70
     0
 40
0.0
 41
0.75
 50
0.0
 71
     0
 42
42.0
  3
TXT
  4

  0
ENDTAB
  0
TABLE
  2
VIEW
  5
DBDB
330
0
100
AcDbSymbolTable
 70
     0
  0
ENDTAB
  0
TABLE
  2
UCS
  5
DBDC
330
0
100
AcDbSymbolTable
 70
     0
  0
ENDTAB
  0
TABLE
  2
APPID
  5
DBDE
330
0
100
AcDbSymbolTable
 70
     1
  0
APPID
  5
DBE7
330
DBDE
100
AcDbSymbolTableRecord
100
AcDbRegAppTableRecord
  2
ACAD
 70
     0
  0
ENDTAB
  0
TABLE
  2
DIMSTYLE
  5
DBDF
330
0
100
AcDbSymbolTable
 70
     2
100
AcDbDimStyleTable
  0
DIMSTYLE
105
DC07
330
DBDF
100
AcDbSymbolTableRecord
100
AcDbDimStyleTableRecord
  2
ISO-25
 70
     0
 41
2.5
 42
0.625
 43
3.75
 44
1.25
 73
     0
 74
     0
 77
     1
 78
     8
140
2.5
141
2.5
143
0.0393700787
147
0.625
171
     3
172
     1
178
     0
340
DBE6
  0
ENDTAB
  0
TABLE
  2
BLOCK_RECORD
  5
DBD6
330
0
100
AcDbSymbolTable
 70
   234
  0
BLOCK_RECORD
  5
DBF1
330
DBD6
100
AcDbSymbolTableRecord
100
AcDbBlockTableRecord
  2
*Model_Space
340
DBF2
  0
BLOCK_RECORD
  5
DBEF
330
DBD6
100
AcDbSymbolTableRecord
100
AcDbBlockTableRecord
  2
*Paper_Space
340
DBF0
  0
BLOCK_RECORD
  5
DF81
330
DBD6
100
AcDbSymbolTableRecord
100
AcDbBlockTableRecord
  2
A$C17531
340
0
102
{BLKREFS
331
DF80
331
E17A
331
E17B
331
E2C9
331
E470
331
E471
102
}
  0
ENDTAB
  0
ENDSEC
  0
SECTION
  2
BLOCKS
  0
BLOCK
  5
DC09
330
DBF1
100
AcDbEntity
  8
0
100
AcDbBlockBegin
  2
*Model_Space
 70
     0
 10
0.0
 20
0.0
 30
0.0
  3
*Model_Space
  1

  0
ENDBLK
  5
21
330
DBF1
100
AcDbEntity
  8
0
100
AcDbBlockEnd
  0
BLOCK
  5
DC0A
330
DBEF
100
AcDbEntity
 67
     1
  8
0
100
AcDbBlockBegin
  2
*Paper_Space
 70
     0
 10
0.0
 20
0.0
 30
0.0
  3
*Paper_Space
  1

  0
ENDBLK
  5
1D
330
DBEF
100
AcDbEntity
 67
     1
  8
0
100
AcDbBlockEnd
  0
BLOCK
  5
DF82
330
DF81
100
AcDbEntity
  8
0
100
AcDbBlockBegin
  2
A$C17531
 70
     0
 10
0.0
 20
0.0
 30
0.0
  3
A$C17531
  1

  0
LINE
  5
E65D
330
DF81
100
AcDbEntity
  8
0
  6
Continuous
 62
     7
370
    25
100
AcDbLine
 10
10.20000000005621
 20
4.918812933726258
 30
0.0
 11
10.20000000005621
 21
8.418812933726258
 31
0.0
  0
LINE
  5
E65E
330
DF81
100
AcDbEntity
  8
0
  6
Continuous
 62
     7
370
    25
100
AcDbLine
 10
12.35000000000036
 20
10.21881293372644
 30
0.0
 11
6.900000000000546
 21
10.21881293372644
 31
0.0
  0
LINE
  5
E65F
330
DF81
100
AcDbEntity
  8
0
  6
Continuous
 62
     7
370
    25
100
AcDbLine
 10
2.850000000000364
 20
10.21881293372644
 30
0.0
 11
2.850000000000364
 21
20.21881293372644
 31
0.0
  0
ARC
  5
E660
330
DF81
100
AcDbEntity
  8
0
  6
Continuous
 62
     7
370
    25
100
AcDbCircle
 10
13.34999999999309
 20
34.21881293371825
 30
0.0
 40
0.5000000000077307
100
AcDbArc
 50
0.0
 51
90.0
  0
LINE
  5
E661
330
DF81
100
AcDbEntity
  8
0
  6
Continuous
 62
     7
370
    25
100
AcDbLine
 10
6.900000000000546
 20
17.21881293372644
 30
0.0
 11
6.900000000000546
 21
20.77197875935235
 31
0.0
  0
LINE
  5
E662
330
DF81
100
AcDbEntity
  8
0
  6
Continuous
 62
     7
370
    25
100
AcDbLine
 10
5.400000000000546
 20
13.21881293372644
 30
0.0
 11
5.400000000000546
 21
10.21881293372644
 31
0.0
  0
LINE
  5
E663
330
DF81
100
AcDbEntity
  8
0
  6
Continuous
 62
     7
370
    25
100
AcDbLine
 10
5.400000000000546
 20
17.21881293372644
 30
0.0
 11
6.900000000000546
 21
17.21881293372644
 31
0.0
  0
LINE
  5
E664
330
DF81
100
AcDbEntity
  8
0
  6
Continuous
 62
     7
370
    25
100
AcDbLine
 10
4.212952822409534
 20
0.3324549962308083
 30
0.0
 11
3.415289903618032
 21
1.933615971660402
 31
0.0
  0
ARC
  5
E665
330
DF81
100
AcDbEntity
  8
0
  6
Continuous
 62
     7
370
    25
100
AcDbCircle
 10
9.789550983125082
 20
26.44483099858917
 30
0.0
 40
0.874999999999779
100
AcDbArc
 50
234.3157391711883
 51
54.31573917113991
  0
LINE
  5
E666
330
DF81
100
AcDbEntity
  8
0
  6
Continuous
 62
     7
370
    25
100
AcDbLine
 10
5.400000000000546
 20
20.21881293372644
 30
0.0
 11
5.400000000000546
 21
17.21881293372644
 31
0.0
  0
LINE
  5
E667
330
DF81
100
AcDbEntity
  8
0
  6
Continuous
 62
     7
370
    25
100
AcDbLine
 10
5.400000000000546
 20
10.21881293372644
 30
0.0
 11
2.850000000000364
 21
10.21881293372644
 31
0.0
  0
ARC
  5
E668
330
DF81
100
AcDbEntity
  8
0
  6
Continuous
 62
     7
370
    25
100
AcDbCircle
 10
5.650000000056934
 20
6.104975662744437
 30
0.0
 40
0.3000000000002055
100
AcDbArc
 50
104.9005055299398
 51
180.0
  0
LINE
  5
E669
330
DF81
100
AcDbEntity
  8
0
  6
Continuous
 62
     7
370
    25
100
AcDbLine
 10
7.149999999991451
 20
33.21881293372644
 30
0.0
 11
12.35000000000036
 21
33.21881293372644
 31
0.0
  0
LINE
  5
E66A
330
DF81
100
AcDbEntity
  8
0
  6
Continuous
 62
     7
370
    25
100
AcDbLine
 10
12.2000000000553
 20
8.418812933726258
 30
0.0
 11
12.2000000000553
 21
4.918812933726258
 31
0.0
  0
ARC
  5
E66B
330
DF81
100
AcDbEntity
  8
0
  6
Continuous
 62
     7
370
    25
100
AcDbCircle
 10
1.650000000000546
 20
21.41881293372626
 30
0.0
 40
0.3000000000001819
100
AcDbArc
 50
90.0
 51
180.0
  0
LINE
  5
E66C
330
DF81
100
AcDbEntity
  8
0
  6
Continuous
 62
     7
370
    25
100
AcDbLine
 10
6.084710096382878
 20
1.933615971660402
 30
0.0
 11
5.287047177591376
 21
0.3324549962308083
 31
0.0
  0
LINE
  5
E66D
330
DF81
100
AcDbEntity
  8
0
  6
Continuous
 62
     7
370
    25
100
AcDbLine
 10
1.650000000000546
 20
21.71881293372644
 30
0.0
 11
2.850000000000364
 21
21.71881293372644
 31
0.0
  0
ARC
  5
E66E
330
DF81
100
AcDbEntity
  8
0
  6
Continuous
 62
     7
370
    25
100
AcDbCircle
 10
5.547662918791502
 20
2.201160975429048
 30
0.0
 40
0.5999999999999995
100
AcDbArc
 50
333.5185312727024
 51
89.99999999991316
  0
ARC
  5
E66F
330
DF81
100
AcDbEntity
  8
0
  6
Continuous
 62
     7
370
    25
100
AcDbCircle
 10
2.099999999944885
 20
8.418812933726258
 30
0.0
 40
0.3000000000002103
100
AcDbArc
 50
0.0
 51
90.0
  0
ARC
  5
E670
330
DF81
100
AcDbEntity
  8
0
  6
Continuous
 62
     7
370
    25
100
AcDbCircle
 10
4.75
 20
0.6000000000003638
 30
0.0
 40
0.5999999999999995
100
AcDbArc
 50
206.481468727414
 51
333.518531272586
  0
LINE
  5
E671
330
DF81
100
AcDbEntity
  8
0
  6
Continuous
 62
     7
370
    25
100
AcDbLine
 10
13.55000000000018
 20
8.71881293372644
 30
0.0
 11
12.50000000005548
 21
8.71881293372644
 31
0.0
  0
ARC
  5
E672
330
DF81
100
AcDbEntity
  8
0
  6
Continuous
 62
     7
370
    25
100
AcDbCircle
 10
-2.5
 20
4.918812933726258
 30
0.0
 40
0.2000000000000171
100
AcDbArc
 50
180.0
 51
270.0
  0
ARC
  5
E673
330
DF81
100
AcDbEntity
  8
0
  6
Continuous
 62
     7
370
    25
100
AcDbCircle
 10
8.550000000000182
 20
24.71881293372644
 30
0.0
 40
1.249999999999972
100
AcDbArc
 50
54.31573917115244
 51
305.6842608288137
  0
ARC
  5
E674
330
DF81
100
AcDbEntity
  8
0
  6
Continuous
 62
     7
370
    25
100
AcDbCircle
 10
-0.3999999999996362
 20
8.418812933726258
 30
0.0
 40
0.3000000000000114
100
AcDbArc
 50
90.0
 51
180.0
  0
LINE
  5
E675
330
DF81
100
AcDbEntity
  8
0
  6
Continuous
 62
     7
370
    25
100
AcDbLine
 10
2.850000000000364
 20
31.76881293372662
 30
0.0
 11
2.850000000000364
 21
34.21881293372644
 31
0.0
  0
ARC
  5
E676
330
DF81
100
AcDbEntity
  8
0
  6
Continuous
 62
     7
370
    25
100
AcDbCircle
 10
3.150000000000546
 20
31.76881293372662
 30
0.0
 40
0.3000000000001819
100
AcDbArc
 50
180.0
 51
270.0
  0
LINE
  5
E677
330
DF81
100
AcDbEntity
  8
0
  6
Continuous
 62
     7
370
    25
100
AcDbLine
 10
2.850000000000364
 20
21.71881293372644
 30
0.0
 11
2.850000000000364
 21
27.66881293372626
 31
0.0
  0
ARC
  5
E678
330
DF81
100
AcDbEntity
  8
0
  6
Continuous
 62
     7
370
    25
100
AcDbCircle
 10
2.699999999945248
 20
7.031855621405157
 30
0.0
 40
0.3000000000001819
100
AcDbArc
 50
180.0
 51
255.0994944700603
  0
LINE
  5
E679
330
DF81
100
AcDbEntity
  8
0
  6
Continuous
 62
     7
370
    25
100
AcDbLine
 10
-2.699999999999818
 20
4.918812933726258
 30
0.0
 11
-2.699999999999818
 21
9.21881293372644
 31
0.0
  0
LINE
  5
E67A
330
DF81
100
AcDbEntity
  8
0
  6
Continuous
 62
     7
370
    25
100
AcDbLine
 10
5.350000000056752
 20
6.104975662744437
 30
0.0
 11
5.350000000056752
 21
2.801160975429411
 31
0.0
  0
LINE
  5
E67B
330
DF81
100
AcDbEntity
  8
0
  6
Continuous
 62
     7
370
    25
100
AcDbLine
 10
9.900000000056025
 20
8.71881293372644
 30
0.0
 11
7.400000000056025
 21
8.71881293372644
 31
0.0
  0
ARC
  5
E67C
330
DF81
100
AcDbEntity
  8
0
  6
Continuous
 62
     7
370
    25
100
AcDbCircle
 10
5.049999999991087
 20
32.91881293372626
 30
0.0
 40
0.3000000000002103
100
AcDbArc
 50
0.0
 51
90.0
  0
LINE
  5
E67D
330
DF81
100
AcDbEntity
  8
0
  6
Continuous
 62
     7
370
    25
100
AcDbLine
 10
7.100000000055843
 20
8.418812933726258
 30
0.0
 11
7.100000000055843
 21
7.031855621405157
 31
0.0
  0
LINE
  5
E67E
330
DF81
100
AcDbEntity
  8
0
  6
Continuous
 62
     7
370
    25
100
AcDbLine
 10
-0.6999999999998181
 20
8.418812933726258
 30
0.0
 11
-0.6999999999998181
 21
4.918812933726258
 31
0.0
  0
LINE
  5
E67F
330
DF81
100
AcDbEntity
  8
0
  6
Continuous
 62
     7
370
    25
100
AcDbLine
 10
5.349999999991269
 20
26.51881293372662
 30
0.0
 11
5.349999999991269
 21
32.91881293372626
 31
0.0
  0
ARC
  5
E680
330
DF81
100
AcDbEntity
  8
0
  6
Continuous
 62
     7
370
    25
100
AcDbCircle
 10
5.049999999991087
 20
26.51881293372662
 30
0.0
 40
0.3000000000001819
100
AcDbArc
 50
270.0
 51
0.0
  0
LINE
  5
E681
330
DF81
100
AcDbEntity
  8
0
  6
Continuous
 62
     7
370
    25
100
AcDbLine
 10
5.350000000056752
 20
2.801160975429411
 30
0.0
 11
5.547662918792412
 21
2.801160975429411
 31
0.0
  0
LINE
  5
E682
330
DF81
100
AcDbEntity
  8
0
  6
Continuous
 62
     7
370
    25
100
AcDbLine
 10
4.149999999991451
 20
26.21881293372644
 30
0.0
 11
5.049999999991087
 21
26.21881293372644
 31
0.0
  0
ARC
  5
E683
330
DF81
100
AcDbEntity
  8
0
  6
Continuous
 62
     7
370
    25
100
AcDbCircle
 10
4.149999999991451
 20
26.51881293372662
 30
0.0
 40
0.3000000000001819
100
AcDbArc
 50
180.0
 51
270.0
  0
LINE
  5
E684
330
DF81
100
AcDbEntity
  8
0
  6
Continuous
 62
     7
370
    25
100
AcDbLine
 10
3.92714239583529
 20
6.394887805911821
 30
0.0
 11
2.622857604053934
 21
6.741943478236863
 31
0.0
  0
LINE
  5
E685
330
DF81
100
AcDbEntity
  8
0
  6
Continuous
 62
     7
370
    25
100
AcDbLine
 10
3.549999999991087
 20
31.46881293372644
 30
0.0
 11
3.150000000000546
 21
31.46881293372644
 31
0.0
  0
ARC
  5
E686
330
DF81
100
AcDbEntity
  8
0
  6
Continuous
 62
     7
370
    25
100
AcDbCircle
 10
12.50000000005548
 20
8.418812933726258
 30
0.0
 40
0.3000000000000966
100
AcDbArc
 50
90.0
 51
180.0
  0
LINE
  5
E687
330
DF81
100
AcDbEntity
  8
0
  6
Continuous
 62
     7
370
    25
100
AcDbLine
 10
6.900000000000546
 20
10.21881293372644
 30
0.0
 11
6.900000000000546
 21
13.21881293372644
 31
0.0
  0
LINE
  5
E688
330
DF81
100
AcDbEntity
  8
0
  6
Continuous
 62
     7
370
    25
100
AcDbLine
 10
2.099999999944885
 20
8.71881293372644
 30
0.0
 11
-0.3999999999996362
 21
8.71881293372644
 31
0.0
  0
LINE
  5
E689
330
DF81
100
AcDbEntity
  8
0
  6
Continuous
 62
     7
370
    25
100
AcDbLine
 10
3.150000000000546
 20
27.96881293372644
 30
0.0
 11
3.549999999991087
 21
27.96881293372644
 31
0.0
  0
LINE
  5
E68A
330
DF81
100
AcDbEntity
  8
0
  6
Continuous
 62
     7
370
    25
100
AcDbLine
 10
6.877142395946976
 20
6.741943478236863
 30
0.0
 11
5.57285760416562
 21
6.394887805911821
 31
0.0
  0
ARC
  5
E68B
330
DF81
100
AcDbEntity
  8
0
  6
Continuous
 62
     7
370
    25
100
AcDbCircle
 10
3.350000000000364
 20
34.21881293372644
 30
0.0
 40
0.5
100
AcDbArc
 50
90.0
 51
180.0
  0
ARC
  5
E68C
330
DF81
100
AcDbEntity
  8
0
  6
Continuous
 62
     7
370
    25
100
AcDbCircle
 10
-0.8999999999996362
 20
4.918812933726258
 30
0.0
 40
0.2000000000000171
100
AcDbArc
 50
270.0
 51
0.0
  0
ARC
  5
E68D
330
DF81
100
AcDbEntity
  8
0
  6
Continuous
 62
     7
370
    25
100
AcDbCircle
 10
7.149999999991451
 20
32.91881293372626
 30
0.0
 40
0.3000000000000398
100
AcDbArc
 50
90.0
 51
180.0
  0
ARC
  5
E68E
330
DF81
100
AcDbEntity
  8
0
  6
Continuous
 62
     7
370
    25
100
AcDbCircle
 10
8.550000000000182
 20
24.71881293372644
 30
0.0
 40
3.000000000000696
100
AcDbArc
 50
260.6479649424355
 51
305.6842608288306
  0
ARC
  5
E68F
330
DF81
100
AcDbEntity
  8
0
  6
Continuous
 62
     7
370
    25
100
AcDbCircle
 10
3.849999999943975
 20
6.104975662744437
 30
0.0
 40
0.3000000000001909
100
AcDbArc
 50
0.0
 51
75.09949447006025
  0
ARC
  5
E690
330
DF81
100
AcDbEntity
  8
0
  6
Continuous
 62
     7
370
    25
100
AcDbCircle
 10
3.549999999991087
 20
27.66881293372626
 30
0.0
 40
0.3000000000001819
100
AcDbArc
 50
0.0
 51
90.0
  0
LINE
  5
E691
330
DF81
100
AcDbEntity
  8
0
  6
Continuous
 62
     7
370
    25
100
AcDbLine
 10
3.849999999991269
 20
27.66881293372626
 30
0.0
 11
3.849999999991269
 21
26.51881293372662
 31
0.0
  0
LINE
  5
E692
330
DF81
100
AcDbEntity
  8
0
  6
Continuous
 62
     7
370
    25
100
AcDbLine
 10
2.850000000000364
 20
20.21881293372644
 30
0.0
 11
5.400000000000546
 21
20.21881293372644
 31
0.0
  0
LINE
  5
E693
330
DF81
100
AcDbEntity
  8
0
  6
Continuous
 62
     7
370
    25
100
AcDbLine
 10
12.00000000005548
 20
4.71881293372644
 30
0.0
 11
10.40000000005512
 21
4.71881293372644
 31
0.0
  0
LINE
  5
E694
330
DF81
100
AcDbEntity
  8
0
  6
Continuous
 62
     7
370
    25
100
AcDbLine
 10
4.149999999944157
 20
2.801160975429411
 30
0.0
 11
4.149999999944157
 21
6.104975662744437
 31
0.0
  0
ARC
  5
E695
330
DF81
100
AcDbEntity
  8
0
  6
Continuous
 62
     7
370
    25
100
AcDbCircle
 10
12.00000000005548
 20
4.918812933726258
 30
0.0
 40
0.2000000000000171
100
AcDbArc
 50
270.0
 51
0.0
  0
LINE
  5
E696
330
DF81
100
AcDbEntity
  8
0
  6
Continuous
 62
     7
370
    25
100
AcDbLine
 10
12.35000000000036
 20
33.21881293372644
 30
0.0
 11
12.35000000000036
 21
10.21881293372644
 31
0.0
  0
ARC
  5
E697
330
DF81
100
AcDbEntity
  8
0
  6
Continuous
 62
     7
370
    25
100
AcDbCircle
 10
6.800000000055661
 20
7.031855621405157
 30
0.0
 40
0.3000000000001708
100
AcDbArc
 50
284.9005055299398
 51
0.0
  0
ARC
  5
E698
330
DF81
100
AcDbEntity
  8
0
  6
Continuous
 62
     7
370
    25
100
AcDbCircle
 10
3.150000000000546
 20
27.66881293372626
 30
0.0
 40
0.3000000000002103
100
AcDbArc
 50
90.0
 51
180.0
  0
LINE
  5
E699
330
DF81
100
AcDbEntity
  8
0
  6
Continuous
 62
     7
370
    25
100
AcDbLine
 10
-1.699999999999818
 20
10.21881293372644
 30
0.0
 11
1.350000000000364
 21
10.21881293372644
 31
0.0
  0
LINE
  5
E69A
330
DF81
100
AcDbEntity
  8
0
  6
Continuous
 62
     7
370
    25
100
AcDbLine
 10
1.350000000000364
 20
10.21881293372644
 30
0.0
 11
1.350000000000364
 21
21.41881293372626
 31
0.0
  0
LINE
  5
E69B
330
DF81
100
AcDbEntity
  8
0
  6
Continuous
 62
     7
370
    25
100
AcDbLine
 10
6.900000000000546
 20
13.21881293372644
 30
0.0
 11
5.400000000000546
 21
13.21881293372644
 31
0.0
  0
LINE
  5
E69C
330
DF81
100
AcDbEntity
  8
0
  6
Continuous
 62
     7
370
    25
100
AcDbLine
 10
13.85000000000036
 20
34.21881293371825
 30
0.0
 11
13.85000000000036
 21
9.018812933726622
 31
0.0
  0
ARC
  5
E69D
330
DF81
100
AcDbEntity
  8
0
  6
Continuous
 62
     7
370
    25
100
AcDbCircle
 10
7.400000000056025
 20
8.418812933726258
 30
0.0
 40
0.3000000000002103
100
AcDbArc
 50
90.0
 51
180.0
  0
ARC
  5
E69E
330
DF81
100
AcDbEntity
  8
0
  6
Continuous
 62
     7
370
    25
100
AcDbCircle
 10
7.900000000000546
 20
20.77197875935235
 30
0.0
 40
1.0
100
AcDbArc
 50
80.64796494246983
 51
180.0
  0
ARC
  5
E69F
330
DF81
100
AcDbEntity
  8
0
  6
Continuous
 62
     7
370
    25
100
AcDbCircle
 10
10.40000000005512
 20
4.918812933726258
 30
0.0
 40
0.1999999999998749
100
AcDbArc
 50
180.0
 51
270.0
  0
LINE
  5
E6A0
330
DF81
100
AcDbEntity
  8
0
  6
Continuous
 62
     7
370
    25
100
AcDbLine
 10
3.952337081208498
 20
2.801160975429411
 30
0.0
 11
4.149999999944157
 21
2.801160975429411
 31
0.0
  0
ARC
  5
E6A1
330
DF81
100
AcDbEntity
  8
0
  6
Continuous
 62
     7
370
    25
100
AcDbCircle
 10
3.549999999991087
 20
31.76881293372662
 30
0.0
 40
0.3000000000001819
100
AcDbArc
 50
270.0
 51
0.0
  0
ARC
  5
E6A2
330
DF81
100
AcDbEntity
  8
0
  6
Continuous
 62
     7
370
    25
100
AcDbCircle
 10
4.149999999991451
 20
32.91881293372626
 30
0.0
 40
0.3000000000001819
100
AcDbArc
 50
90.0
 51
180.0
  0
LINE
  5
E6A3
330
DF81
100
AcDbEntity
  8
0
  6
Continuous
 62
     7
370
    25
100
AcDbLine
 10
3.350000000000364
 20
34.71881293372644
 30
0.0
 11
13.34999999999309
 21
34.71881293372644
 31
0.0
  0
ARC
  5
E6A4
330
DF81
100
AcDbEntity
  8
0
  6
Continuous
 62
     7
370
    25
100
AcDbCircle
 10
13.55000000000018
 20
9.018812933726622
 30
0.0
 40
0.3000000000000114
100
AcDbArc
 50
270.0
 51
0.0
  0
ARC
  5
E6A5
330
DF81
100
AcDbEntity
  8
0
  6
Continuous
 62
     7
370
    25
100
AcDbCircle
 10
7.849999999991269
 20
28.6570866672273
 30
0.0
 40
1.0
100
AcDbArc
 50
180.0
 51
280.0786581079083
  0
LINE
  5
E6A6
330
DF81
100
AcDbEntity
  8
0
  6
Continuous
 62
     7
370
    25
100
AcDbLine
 10
2.399999999945067
 20
7.031855621405157
 30
0.0
 11
2.399999999945067
 21
8.418812933726258
 31
0.0
  0
LINE
  5
E6A7
330
DF81
100
AcDbEntity
  8
0
  6
Continuous
 62
     7
370
    25
100
AcDbLine
 10
3.849999999990359
 20
32.91881293372626
 30
0.0
 11
3.849999999990359
 21
31.76881293372662
 31
0.0
  0
ARC
  5
E6A8
330
DF81
100
AcDbEntity
  8
0
  6
Continuous
 62
     7
370
    25
100
AcDbCircle
 10
9.789550983125082
 20
22.9927948688628
 30
0.0
 40
0.8750000000003604
100
AcDbArc
 50
305.6842608288601
 51
125.6842608288254
  0
ARC
  5
E6A9
330
DF81
100
AcDbEntity
  8
0
  6
Continuous
 62
     7
370
    25
100
AcDbCircle
 10
-1.699999999999818
 20
9.21881293372644
 30
0.0
 40
1.0
100
AcDbArc
 50
90.0
 51
180.0
  0
LINE
  5
E6AA
330
DF81
100
AcDbEntity
  8
0
  6
Continuous
 62
     7
370
    25
100
AcDbLine
 10
-0.8999999999996362
 20
4.71881293372644
 30
0.0
 11
-2.5
 21
4.71881293372644
 31
0.0
  0
LINE
  5
E6AB
330
DF81
100
AcDbEntity
  8
0
  6
Continuous
 62
     7
370
    25
100
AcDbLine
 10
5.049999999991087
 20
33.21881293372644
 30
0.0
 11
4.149999999991451
 21
33.21881293372644
 31
0.0
  0
ARC
  5
E6AC
330
DF81
100
AcDbEntity
  8
0
  6
Continuous
 62
     7
370
    25
100
AcDbCircle
 10
9.900000000056025
 20
8.418812933726258
 30
0.0
 40
0.2999999999999829
100
AcDbArc
 50
0.0
 51
90.0
  0
LINE
  5
E6AD
330
DF81
100
AcDbEntity
  8
0
  6
Continuous
 62
     7
370
    25
100
AcDbLine
 10
6.849999999991269
 20
28.6570866672273
 30
0.0
 11
6.849999999991269
 21
32.91881293372626
 31
0.0
  0
ARC
  5
E6AE
330
DF81
100
AcDbEntity
  8
0
  6
Continuous
 62
     7
370
    25
100
AcDbCircle
 10
3.952337081208498
 20
2.201160975429048
 30
0.0
 40
0.5999999999999375
100
AcDbArc
 50
90.0
 51
206.4814687273363
  0
ARC
  5
E6AF
330
DF81
100
AcDbEntity
  8
0
  6
Continuous
 62
     7
370
    25
100
AcDbCircle
 10
8.550000000000182
 20
24.71881293372644
 30
0.0
 40
2.999999999999484
100
AcDbArc
 50
54.31573917115924
 51
100.0786581079224
  0
ENDBLK
  5
DFD3
330
DF81
100
AcDbEntity
  8
0
100
AcDbBlockEnd
  0
ENDSEC
  0
SECTION
  2
ENTITIES
  0
LINE
  5
E183
330
DBF1
100
AcDbEntity
  8
0
  6
Continuous
 62
     7
370
    25
100
AcDbLine
 10
6337.754129961079
 20
7288.934782052391
 30
0.0
 11
6338.454129961079
 21
7288.934782052391
 31
0.0
  0
ARC
  5
E184
330
DBF1
100
AcDbEntity
  8
0
  6
Continuous
 62
     7
370
    25
100
AcDbCircle
 10
6337.754129961079
 20
7289.434782052391
 30
0.0
 40
0.5
100
AcDbArc
 50
180.0
 51
270.0
  0
LINE
  5
E185
330
DBF1
100
AcDbEntity
  8
0
  6
Continuous
 62
     7
370
    25
100
AcDbLine
 10
6337.254129961079
 20
7293.634782052391
 30
0.0
 11
6337.254129961079
 21
7289.434782052391
 31
0.0
  0
ARC
  5
E186
330
DBF1
100
AcDbEntity
  8
0
  6
Continuous
 62
     7
370
    25
100
AcDbCircle
 10
6336.954129961079
 20
7293.634782052391
 30
0.0
 40
0.3000000000001819
100
AcDbArc
 50
0.0
 51
90.0
  0
LINE
  5
E187
330
DBF1
100
AcDbEntity
  8
0
  6
Continuous
 62
     7
370
    25
100
AcDbLine
 10
6335.254129961079
 20
7293.934782052391
 30
0.0
 11
6336.954129961079
 21
7293.934782052391
 31
0.0
  0
ARC
  5
E188
330
DBF1
100
AcDbEntity
  8
0
  6
Continuous
 62
     7
370
    25
100
AcDbCircle
 10
6335.254129961079
 20
7293.634782052391
 30
0.0
 40
0.3000000000001819
100
AcDbArc
 50
90.0
 51
180.0
  0
LINE
  5
E189
330
DBF1
100
AcDbEntity
  8
0
  6
Continuous
 62
     7
370
    25
100
AcDbLine
 10
6334.954129961079
 20
7289.434782052391
 30
0.0
 11
6334.954129961079
 21
7293.634782052391
 31
0.0
  0
ARC
  5
E18A
330
DBF1
100
AcDbEntity
  8
0
  6
Continuous
 62
     7
370
    25
100
AcDbCircle
 10
6334.454129961079
 20
7289.434782052391
 30
0.0
 40
0.5
100
AcDbArc
 50
270.0
 51
0.0
  0
LINE
  5
E18B
330
DBF1
100
AcDbEntity
  8
0
  6
Continuous
 62
     7
370
    25
100
AcDbLine
 10
6332.65413125608
 20
7288.934782052391
 30
0.0
 11
6334.454129961079
 21
7288.934782052391
 31
0.0
  0
ARC
  5
E18C
330
DBF1
100
AcDbEntity
  8
0
  6
Continuous
 62
     7
370
    25
100
AcDbCircle
 10
6332.65413125608
 20
7289.434782052391
 30
0.0
 40
0.5
100
AcDbArc
 50
180.0
 51
270.0
  0
LINE
  5
E18D
330
DBF1
100
AcDbEntity
  8
0
  6
Continuous
 62
     7
370
    25
100
AcDbLine
 10
6332.15413125608
 20
7290.828742322927
 30
0.0
 11
6332.15413125608
 21
7289.434782052391
 31
0.0
  0
ARC
  5
E18E
330
DBF1
100
AcDbEntity
  8
0
  6
Continuous
 62
     7
370
    25
100
AcDbCircle
 10
6332.454131256081
 20
7290.828742322927
 30
0.0
 40
0.3000000000009865
100
AcDbArc
 50
111.0375110252846
 51
180.0
  0
LINE
  5
E18F
330
DBF1
100
AcDbEntity
  8
0
  6
Continuous
 62
     7
370
    25
100
AcDbLine
 10
6333.261824979877
 20
7291.460818100014
 30
0.0
 11
6332.346437532289
 21
7291.108746004788
 31
0.0
  0
ARC
  5
E190
330
DBF1
100
AcDbEntity
  8
0
  6
Continuous
 62
     7
370
    25
100
AcDbCircle
 10
6333.154131256084
 20
7291.740821781875
 30
0.0
 40
0.3000000000008498
100
AcDbArc
 50
291.0375110254467
 51
0.0
  0
LINE
  5
E191
330
DBF1
100
AcDbEntity
  8
0
  6
Continuous
 62
     7
370
    25
100
AcDbLine
 10
6333.454131256085
 20
7295.428148890881
 30
0.0
 11
6333.454131256085
 21
7291.740821781875
 31
0.0
  0
ARC
  5
E192
330
DBF1
100
AcDbEntity
  8
0
  6
Continuous
 62
     7
370
    25
100
AcDbCircle
 10
6333.154131256084
 20
7295.428148890881
 30
0.0
 40
0.3000000000009989
100
AcDbArc
 50
0.0
 51
24.00000000019476
  0
LINE
  5
E193
330
DBF1
100
AcDbEntity
  8
0
  6
Continuous
 62
     7
370
    25
100
AcDbLine
 10
6331.733372615415
 20
7299.356803045323
 30
0.0
 11
6333.428194893378
 21
7295.550169883805
 31
0.0
  0
ARC
  5
E194
330
DBF1
100
AcDbEntity
  8
0
  6
Continuous
 62
     7
370
    25
100
AcDbCircle
 10
6331.459308978121
 20
7299.2347820524
 30
0.0
 40
0.3000000000011143
100
AcDbArc
 50
24.00000000003607
 51
90.0
  0
LINE
  5
E195
330
DBF1
100
AcDbEntity
  8
0
  6
Continuous
 62
     7
370
    25
100
AcDbLine
 10
6327.848953534034
 20
7299.534782052401
 30
0.0
 11
6331.459308978121
 21
7299.534782052401
 31
0.0
  0
ARC
  5
E196
330
DBF1
100
AcDbEntity
  8
0
  6
Continuous
 62
     7
370
    25
100
AcDbCircle
 10
6327.848953534034
 20
7299.2347820524
 30
0.0
 40
0.3000000000010914
100
AcDbArc
 50
90.0
 51
156.0000000001226
  0
LINE
  5
E197
330
DBF1
100
AcDbEntity
  8
0
  6
Continuous
 62
     7
370
    25
100
AcDbLine
 10
6325.880067618785
 20
7295.550169883801
 30
0.0
 11
6327.57488989674
 21
7299.356803045323
 31
0.0
  0
ARC
  5
E198
330
DBF1
100
AcDbEntity
  8
0
  6
Continuous
 62
     7
370
    25
100
AcDbCircle
 10
6326.154131256078
 20
7295.428148890877
 30
0.0
 40
0.3000000000010772
100
AcDbArc
 50
155.9999999999639
 51
180.0
  0
LINE
  5
E199
330
DBF1
100
AcDbEntity
  8
0
  6
Continuous
 62
     7
370
    25
100
AcDbLine
 10
6325.854131256077
 20
7291.740821781881
 30
0.0
 11
6325.854131256077
 21
7295.428148890877
 31
0.0
  0
ARC
  5
E19A
330
DBF1
100
AcDbEntity
  8
0
  6
Continuous
 62
     7
370
    25
100
AcDbCircle
 10
6326.154131256078
 20
7291.740821781882
 30
0.0
 40
0.300000000001057
100
AcDbArc
 50
180.0000000001737
 51
248.9624889741667
  0
LINE
  5
E19B
330
DBF1
100
AcDbEntity
  8
0
  6
Continuous
 62
     7
370
    25
100
AcDbLine
 10
6326.961824979869
 20
7291.108746004787
 30
0.0
 11
6326.046437532284
 21
7291.460818100021
 31
0.0
  0
ARC
  5
E19C
330
DBF1
100
AcDbEntity
  8
0
  6
Continuous
 62
     7
370
    25
100
AcDbCircle
 10
6326.854131256074
 20
7290.828742322927
 30
0.0
 40
0.3000000000009804
100
AcDbArc
 50
0.0
 51
68.96248897416665
  0
LINE
  5
E19D
330
DBF1
100
AcDbEntity
  8
0
  6
Continuous
 62
     7
370
    25
100
AcDbLine
 10
6327.154131256075
 20
7289.434782052391
 30
0.0
 11
6327.154131256075
 21
7290.828742322927
 31
0.0
  0
ARC
  5
E19E
330
DBF1
100
AcDbEntity
  8
0
  6
Continuous
 62
     7
370
    25
100
AcDbCircle
 10
6326.654131256075
 20
7289.434782052391
 30
0.0
 40
0.5
100
AcDbArc
 50
270.0
 51
0.0
  0
LINE
  5
E19F
330
DBF1
100
AcDbEntity
  8
0
  6
Continuous
 62
     7
370
    25
100
AcDbLine
 10
6324.854131256077
 20
7288.934782052391
 30
0.0
 11
6326.654131256075
 21
7288.934782052391
 31
0.0
  0
ARC
  5
E1A0
330
DBF1
100
AcDbEntity
  8
0
  6
Continuous
 62
     7
370
    25
100
AcDbCircle
 10
6324.854131256077
 20
7289.434782052391
 30
0.0
 40
0.5
100
AcDbArc
 50
180.0
 51
270.0
  0
LINE
  5
E1A1
330
DBF1
100
AcDbEntity
  8
0
  6
Continuous
 62
     7
370
    25
100
AcDbLine
 10
6324.354131256077
 20
7293.634782052391
 30
0.0
 11
6324.354131256077
 21
7289.434782052391
 31
0.0
  0
ARC
  5
E1A2
330
DBF1
100
AcDbEntity
  8
0
  6
Continuous
 62
     7
370
    25
100
AcDbCircle
 10
6324.054131256077
 20
7293.634782052391
 30
0.0
 40
0.3000000000001819
100
AcDbArc
 50
0.0
 51
90.0
  0
LINE
  5
E1A3
330
DBF1
100
AcDbEntity
  8
0
  6
Continuous
 62
     7
370
    25
100
AcDbLine
 10
6322.354131256077
 20
7293.934782052391
 30
0.0
 11
6324.054131256077
 21
7293.934782052391
 31
0.0
  0
ARC
  5
E1A4
330
DBF1
100
AcDbEntity
  8
0
  6
Continuous
 62
     7
370
    25
100
AcDbCircle
 10
6322.354131256077
 20
7293.634782052391
 30
0.0
 40
0.3000000000001961
100
AcDbArc
 50
90.0
 51
180.0
  0
LINE
  5
E1A5
330
DBF1
100
AcDbEntity
  8
0
  6
Continuous
 62
     7
370
    25
100
AcDbLine
 10
6322.054131256077
 20
7289.434782052391
 30
0.0
 11
6322.054131256077
 21
7293.634782052391
 31
0.0
  0
ARC
  5
E1A6
330
DBF1
100
AcDbEntity
  8
0
  6
Continuous
 62
     7
370
    25
100
AcDbCircle
 10
6321.554131256077
 20
7289.434782052391
 30
0.0
 40
0.5
100
AcDbArc
 50
270.0
 51
0.0
  0
LINE
  5
E1A7
330
DBF1
100
AcDbEntity
  8
0
  6
Continuous
 62
     7
370
    25
100
AcDbLine
 10
6317.754131256078
 20
7288.934782052391
 30
0.0
 11
6321.554131256077
 21
7288.934782052391
 31
0.0
  0
LINE
  5
E1A8
330
DBF1
100
AcDbEntity
  8
0
  6
Continuous
 62
     7
370
    25
100
AcDbLine
 10
6317.754131256078
 20
7292.434782052391
 30
0.0
 11
6317.754131256078
 21
7288.934782052391
 31
0.0
  0
LINE
  5
E1A9
330
DBF1
100
AcDbEntity
  8
0
  6
Continuous
 62
     7
370
    25
100
AcDbLine
 10
6320.554131256077
 20
7292.434782052391
 30
0.0
 11
6317.754131256078
 21
7292.434782052391
 31
0.0
  0
LINE
  5
E1AA
330
DBF1
100
AcDbEntity
  8
0
  6
Continuous
 62
     7
370
    25
100
AcDbLine
 10
6320.554131256077
 20
7296.934782052391
 30
0.0
 11
6320.554131256077
 21
7292.434782052391
 31
0.0
  0
LINE
  5
E1AB
330
DBF1
100
AcDbEntity
  8
0
  6
Continuous
 62
     7
370
    25
100
AcDbLine
 10
6314.754131256078
 20
7296.934782052391
 30
0.0
 11
6320.554131256077
 21
7296.934782052391
 31
0.0
  0
LINE
  5
E1AC
330
DBF1
100
AcDbEntity
  8
0
  6
Continuous
 62
     7
370
    25
100
AcDbLine
 10
6313.754131256078
 20
7297.934782052391
 30
0.0
 11
6314.754131256078
 21
7296.934782052391
 31
0.0
  0
LINE
  5
E1AD
330
DBF1
100
AcDbEntity
  8
0
  6
Continuous
 62
     7
370
    25
100
AcDbLine
 10
6312.754131256078
 20
7296.934782052391
 30
0.0
 11
6313.754131256078
 21
7297.934782052391
 31
0.0
  0
LINE
  5
E1AE
330
DBF1
100
AcDbEntity
  8
0
  6
Continuous
 62
     7
370
    25
100
AcDbLine
 10
6306.954131256078
 20
7296.934782052391
 30
0.0
 11
6312.754131256078
 21
7296.934782052391
 31
0.0
  0
LINE
  5
E1AF
330
DBF1
100
AcDbEntity
  8
0
  6
Continuous
 62
     7
370
    25
100
AcDbLine
 10
6306.954131256078
 20
7292.434782052391
 30
0.0
 11
6306.954131256078
 21
7296.934782052391
 31
0.0
  0
LINE
  5
E1B0
330
DBF1
100
AcDbEntity
  8
0
  6
Continuous
 62
     7
370
    25
100
AcDbLine
 10
6309.754131256078
 20
7292.434782052391
 30
0.0
 11
6306.954131256078
 21
7292.434782052391
 31
0.0
  0
LINE
  5
E1B1
330
DBF1
100
AcDbEntity
  8
0
  6
Continuous
 62
     7
370
    25
100
AcDbLine
 10
6309.754131256078
 20
7288.934782052391
 30
0.0
 11
6309.754131256078
 21
7292.434782052391
 31
0.0
  0
LINE
  5
E1B2
330
DBF1
100
AcDbEntity
  8
0
  6
Continuous
 62
     7
370
    25
100
AcDbLine
 10
6305.954131256078
 20
7288.934782052391
 30
0.0
 11
6309.754131256078
 21
7288.934782052391
 31
0.0
  0
ARC
  5
E1B3
330
DBF1
100
AcDbEntity
  8
0
  6
Continuous
 62
     7
370
    25
100
AcDbCircle
 10
6305.954131256078
 20
7289.434782052391
 30
0.0
 40
0.5
100
AcDbArc
 50
180.0
 51
270.0
  0
LINE
  5
E1B4
330
DBF1
100
AcDbEntity
  8
0
  6
Continuous
 62
     7
370
    25
100
AcDbLine
 10
6305.454131256078
 20
7293.634782052391
 30
0.0
 11
6305.454131256078
 21
7289.434782052391
 31
0.0
  0
ARC
  5
E1B5
330
DBF1
100
AcDbEntity
  8
0
  6
Continuous
 62
     7
370
    25
100
AcDbCircle
 10
6305.154131256078
 20
7293.634782052391
 30
0.0
 40
0.3000000000001819
100
AcDbArc
 50
0.0
 51
90.0
  0
LINE
  5
E1B6
330
DBF1
100
AcDbEntity
  8
0
  6
Continuous
 62
     7
370
    25
100
AcDbLine
 10
6303.454131256077
 20
7293.934782052391
 30
0.0
 11
6305.154131256078
 21
7293.934782052391
 31
0.0
  0
ARC
  5
E1B7
330
DBF1
100
AcDbEntity
  8
0
  6
Continuous
 62
     7
370
    25
100
AcDbCircle
 10
6303.454131256077
 20
7293.634782052391
 30
0.0
 40
0.3000000000001819
100
AcDbArc
 50
90.0
 51
180.0
  0
LINE
  5
E1B8
330
DBF1
100
AcDbEntity
  8
0
  6
Continuous
 62
     7
370
    25
100
AcDbLine
 10
6303.154131256078
 20
7289.434782052391
 30
0.0
 11
6303.154131256078
 21
7293.634782052391
 31
0.0
  0
ARC
  5
E1B9
330
DBF1
100
AcDbEntity
  8
0
  6
Continuous
 62
     7
370
    25
100
AcDbCircle
 10
6302.654131256078
 20
7289.434782052391
 30
0.0
 40
0.5
100
AcDbArc
 50
270.0
 51
0.0
  0
LINE
  5
E1BA
330
DBF1
100
AcDbEntity
  8
0
  6
Continuous
 62
     7
370
    25
100
AcDbLine
 10
6300.85413125608
 20
7288.934782052391
 30
0.0
 11
6302.654131256078
 21
7288.934782052391
 31
0.0
  0
ARC
  5
E1BB
330
DBF1
100
AcDbEntity
  8
0
  6
Continuous
 62
     7
370
    25
100
AcDbCircle
 10
6300.85413125608
 20
7289.434782052391
 30
0.0
 40
0.5
100
AcDbArc
 50
180.0
 51
270.0
  0
LINE
  5
E1BC
330
DBF1
100
AcDbEntity
  8
0
  6
Continuous
 62
     7
370
    25
100
AcDbLine
 10
6300.35413125608
 20
7290.828742322927
 30
0.0
 11
6300.35413125608
 21
7289.434782052391
 31
0.0
  0
ARC
  5
E1BD
330
DBF1
100
AcDbEntity
  8
0
  6
Continuous
 62
     7
370
    25
100
AcDbCircle
 10
6300.654131256081
 20
7290.828742322927
 30
0.0
 40
0.3000000000010722
100
AcDbArc
 50
111.0375110258334
 51
180.0
  0
LINE
  5
E1BE
330
DBF1
100
AcDbEntity
  8
0
  6
Continuous
 62
     7
370
    25
100
AcDbLine
 10
6301.461824979871
 20
7291.460818100021
 30
0.0
 11
6300.546437532286
 21
7291.108746004787
 31
0.0
  0
ARC
  5
E1BF
330
DBF1
100
AcDbEntity
  8
0
  6
Continuous
 62
     7
370
    25
100
AcDbCircle
 10
6301.354131256076
 20
7291.740821781881
 30
0.0
 40
0.3000000000008498
100
AcDbArc
 50
291.0375110258333
 51
0.0
  0
LINE
  5
E1C0
330
DBF1
100
AcDbEntity
  8
0
  6
Continuous
 62
     7
370
    25
100
AcDbLine
 10
6301.654131256078
 20
7295.428148890877
 30
0.0
 11
6301.654131256077
 21
7291.740821781881
 31
0.0
  0
ARC
  5
E1C1
330
DBF1
100
AcDbEntity
  8
0
  6
Continuous
 62
     7
370
    25
100
AcDbCircle
 10
6301.354131256076
 20
7295.428148890877
 30
0.0
 40
0.3000000000008612
100
AcDbArc
 50
0.0
 51
24.00000000003607
  0
LINE
  5
E1C2
330
DBF1
100
AcDbEntity
  8
0
  6
Continuous
 62
     7
370
    25
100
AcDbLine
 10
6299.933372615415
 20
7299.356803045323
 30
0.0
 11
6301.62819489337
 21
7295.550169883801
 31
0.0
  0
ARC
  5
E1C3
330
DBF1
100
AcDbEntity
  8
0
  6
Continuous
 62
     7
370
    25
100
AcDbCircle
 10
6299.659308978121
 20
7299.2347820524
 30
0.0
 40
0.3000000000010914
100
AcDbArc
 50
23.99999999987739
 51
90.0
  0
LINE
  5
E1C4
330
DBF1
100
AcDbEntity
  8
0
  6
Continuous
 62
     7
370
    25
100
AcDbLine
 10
6296.048953534034
 20
7299.534782052401
 30
0.0
 11
6299.659308978121
 21
7299.534782052401
 31
0.0
  0
ARC
  5
E1C5
330
DBF1
100
AcDbEntity
  8
0
  6
Continuous
 62
     7
370
    25
100
AcDbCircle
 10
6296.048953534034
 20
7299.2347820524
 30
0.0
 40
0.3000000000011208
100
AcDbArc
 50
90.0
 51
155.9999999999639
  0
LINE
  5
E1C6
330
DBF1
100
AcDbEntity
  8
0
  6
Continuous
 62
     7
370
    25
100
AcDbLine
 10
6294.080067618777
 20
7295.550169883805
 30
0.0
 11
6295.77488989674
 21
7299.356803045323
 31
0.0
  0
ARC
  5
E1C7
330
DBF1
100
AcDbEntity
  8
0
  6
Continuous
 62
     7
370
    25
100
AcDbCircle
 10
6294.35413125607
 20
7295.428148890881
 30
0.0
 40
0.3000000000010119
100
AcDbArc
 50
155.9999999997346
 51
180.0
  0
LINE
  5
E1C8
330
DBF1
100
AcDbEntity
  8
0
  6
Continuous
 62
     7
370
    25
100
AcDbLine
 10
6294.05413125607
 20
7291.740821781875
 30
0.0
 11
6294.05413125607
 21
7295.428148890881
 31
0.0
  0
ARC
  5
E1C9
330
DBF1
100
AcDbEntity
  8
0
  6
Continuous
 62
     7
370
    25
100
AcDbCircle
 10
6294.35413125607
 20
7291.740821781875
 30
0.0
 40
0.3000000000008569
100
AcDbArc
 50
180.0
 51
248.9624889747154
  0
LINE
  5
E1CA
330
DBF1
100
AcDbEntity
  8
0
  6
Continuous
 62
     7
370
    25
100
AcDbLine
 10
6295.161824979867
 20
7291.108746004788
 30
0.0
 11
6294.246437532278
 21
7291.460818100014
 31
0.0
  0
ARC
  5
E1CB
330
DBF1
100
AcDbEntity
  8
0
  6
Continuous
 62
     7
370
    25
100
AcDbCircle
 10
6295.054131256074
 20
7290.828742322927
 30
0.0
 40
0.3000000000009993
100
AcDbArc
 50
0.0
 51
68.96248897455324
  0
LINE
  5
E1CC
330
DBF1
100
AcDbEntity
  8
0
  6
Continuous
 62
     7
370
    25
100
AcDbLine
 10
6295.354131256075
 20
7289.434782052391
 30
0.0
 11
6295.354131256075
 21
7290.828742322927
 31
0.0
  0
ARC
  5
E1CD
330
DBF1
100
AcDbEntity
  8
0
  6
Continuous
 62
     7
370
    25
100
AcDbCircle
 10
6294.854131256075
 20
7289.434782052391
 30
0.0
 40
0.5
100
AcDbArc
 50
270.0
 51
0.0
  0
LINE
  5
E1CE
330
DBF1
100
AcDbEntity
  8
0
  6
Continuous
 62
     7
370
    25
100
AcDbLine
 10
6293.054132551076
 20
7288.934782052391
 30
0.0
 11
6294.854131256075
 21
7288.934782052391
 31
0.0
  0
ARC
  5
E1CF
330
DBF1
100
AcDbEntity
  8
0
  6
Continuous
 62
     7
370
    25
100
AcDbCircle
 10
6293.054132551076
 20
7289.434782052391
 30
0.0
 40
0.5
100
AcDbArc
 50
180.0
 51
270.0
  0
LINE
  5
E1D0
330
DBF1
100
AcDbEntity
  8
0
  6
Continuous
 62
     7
370
    25
100
AcDbLine
 10
6292.554132551076
 20
7293.634782052391
 30
0.0
 11
6292.554132551076
 21
7289.434782052391
 31
0.0
  0
ARC
  5
E1D1
330
DBF1
100
AcDbEntity
  8
0
  6
Continuous
 62
     7
370
    25
100
AcDbCircle
 10
6292.254132551076
 20
7293.634782052391
 30
0.0
 40
0.3000000000001819
100
AcDbArc
 50
0.0
 51
90.0
  0
LINE
  5
E1D2
330
DBF1
100
AcDbEntity
  8
0
  6
Continuous
 62
     7
370
    25
100
AcDbLine
 10
6290.554132551076
 20
7293.934782052391
 30
0.0
 11
6292.254132551076
 21
7293.934782052391
 31
0.0
  0
ARC
  5
E1D3
330
DBF1
100
AcDbEntity
  8
0
  6
Continuous
 62
     7
370
    25
100
AcDbCircle
 10
6290.554132551076
 20
7293.634782052391
 30
0.0
 40
0.3000000000001819
100
AcDbArc
 50
90.0
 51
180.0
  0
LINE
  5
E1D4
330
DBF1
100
AcDbEntity
  8
0
  6
Continuous
 62
     7
370
    25
100
AcDbLine
 10
6290.254132551076
 20
7289.434782052391
 30
0.0
 11
6290.254132551076
 21
7293.634782052391
 31
0.0
  0
ARC
  5
E1D5
330
DBF1
100
AcDbEntity
  8
0
  6
Continuous
 62
     7
370
    25
100
AcDbCircle
 10
6289.754132551076
 20
7289.434782052391
 30
0.0
 40
0.5000000000000071
100
AcDbArc
 50
270.0
 51
0.0
  0
LINE
  5
E1D6
330
DBF1
100
AcDbEntity
  8
0
  6
Continuous
 62
     7
370
    25
100
AcDbLine
 10
6289.054132551076
 20
7288.934782052391
 30
0.0
 11
6289.754132551076
 21
7288.934782052391
 31
0.0
  0
LINE
  5
E1D7
330
DBF1
100
AcDbEntity
  8
0
  6
Continuous
 62
     7
370
    25
100
AcDbLine
 10
6296.054132551076
 20
7326.934782052391
 30
0.0
 11
6288.754132551076
 21
7326.934782052391
 31
0.0
  0
LINE
  5
E1D8
330
DBF1
100
AcDbEntity
  8
0
  6
Continuous
 62
     7
370
    25
100
AcDbLine
 10
6296.054132551076
 20
7325.434782052391
 30
0.0
 11
6296.054132551076
 21
7326.934782052391
 31
0.0
  0
LINE
  5
E1D9
330
DBF1
100
AcDbEntity
  8
0
  6
Continuous
 62
     7
370
    25
100
AcDbLine
 10
6294.754132551077
 20
7325.434782052391
 30
0.0
 11
6296.054132551076
 21
7325.434782052391
 31
0.0
  0
LINE
  5
E1DA
330
DBF1
100
AcDbEntity
  8
0
  6
Continuous
 62
     7
370
    25
100
AcDbLine
 10
6294.754132551077
 20
7322.734782052391
 30
0.0
 11
6294.754132551077
 21
7325.434782052391
 31
0.0
  0
ARC
  5
E1DB
330
DBF1
100
AcDbEntity
  8
0
  6
Continuous
 62
     7
370
    25
100
AcDbCircle
 10
6294.454132551076
 20
7322.734782052391
 30
0.0
 40
0.3000000000001819
100
AcDbArc
 50
270.0
 51
0.0
  0
LINE
  5
E1DC
330
DBF1
100
AcDbEntity
  8
0
  6
Continuous
 62
     7
370
    25
100
AcDbLine
 10
6293.254132551077
 20
7322.434782052391
 30
0.0
 11
6294.454132551076
 21
7322.434782052391
 31
0.0
  0
ARC
  5
E1DD
330
DBF1
100
AcDbEntity
  8
0
  6
Continuous
 62
     7
370
    25
100
AcDbCircle
 10
6293.254132551077
 20
7322.734782052391
 30
0.0
 40
0.3000000000001819
100
AcDbArc
 50
180.0
 51
270.0
  0
LINE
  5
E1DE
330
DBF1
100
AcDbEntity
  8
0
  6
Continuous
 62
     7
370
    25
100
AcDbLine
 10
6292.954132551076
 20
7323.134782052391
 30
0.0
 11
6292.954132551076
 21
7322.734782052391
 31
0.0
  0
ARC
  5
E1DF
330
DBF1
100
AcDbEntity
  8
0
  6
Continuous
 62
     7
370
    25
100
AcDbCircle
 10
6292.654132551076
 20
7323.134782052391
 30
0.0
 40
0.3000000000001819
100
AcDbArc
 50
0.0
 51
90.0
  0
LINE
  5
E1E0
330
DBF1
100
AcDbEntity
  8
0
  6
Continuous
 62
     7
370
    25
100
AcDbLine
 10
6290.554132551076
 20
7323.434782052392
 30
0.0
 11
6292.654132551076
 21
7323.434782052392
 31
0.0
  0
ARC
  5
E1E1
330
DBF1
100
AcDbEntity
  8
0
  6
Continuous
 62
     7
370
    25
100
AcDbCircle
 10
6290.554132551076
 20
7323.134782052391
 30
0.0
 40
0.3000000000001819
100
AcDbArc
 50
90.0
 51
180.0
  0
LINE
  5
E1E2
330
DBF1
100
AcDbEntity
  8
0
  6
Continuous
 62
     7
370
    25
100
AcDbLine
 10
6290.254132551076
 20
7317.734782052391
 30
0.0
 11
6290.254132551076
 21
7323.134782052391
 31
0.0
  0
ARC
  5
E1E3
330
DBF1
100
AcDbEntity
  8
0
  6
Continuous
 62
     7
370
    25
100
AcDbCircle
 10
6290.554132551076
 20
7317.734782052391
 30
0.0
 40
0.3000000000001819
100
AcDbArc
 50
180.0
 51
270.0
  0
LINE
  5
E1E4
330
DBF1
100
AcDbEntity
  8
0
  6
Continuous
 62
     7
370
    25
100
AcDbLine
 10
6292.654132551076
 20
7317.434782052391
 30
0.0
 11
6290.554132551076
 21
7317.434782052391
 31
0.0
  0
ARC
  5
E1E5
330
DBF1
100
AcDbEntity
  8
0
  6
Continuous
 62
     7
370
    25
100
AcDbCircle
 10
6292.654132551076
 20
7317.734782052391
 30
0.0
 40
0.3000000000001819
100
AcDbArc
 50
270.0
 51
0.0
  0
LINE
  5
E1E6
330
DBF1
100
AcDbEntity
  8
0
  6
Continuous
 62
     7
370
    25
100
AcDbLine
 10
6292.954132551076
 20
7318.134782052392
 30
0.0
 11
6292.954132551076
 21
7317.734782052391
 31
0.0
  0
ARC
  5
E1E7
330
DBF1
100
AcDbEntity
  8
0
  6
Continuous
 62
     7
370
    25
100
AcDbCircle
 10
6293.254132551076
 20
7318.134782052392
 30
0.0
 40
0.2999999999999332
100
AcDbArc
 50
90.0
 51
180.0
  0
LINE
  5
E1E8
330
DBF1
100
AcDbEntity
  8
0
  6
Continuous
 62
     7
370
    25
100
AcDbLine
 10
6294.454132551075
 20
7318.434782052391
 30
0.0
 11
6293.254132551076
 21
7318.434782052391
 31
0.0
  0
ARC
  5
E1E9
330
DBF1
100
AcDbEntity
  8
0
  6
Continuous
 62
     7
370
    25
100
AcDbCircle
 10
6294.454132551075
 20
7318.134782052392
 30
0.0
 40
0.3000000000000824
100
AcDbArc
 50
0.0
 51
90.0
  0
LINE
  5
E1EA
330
DBF1
100
AcDbEntity
  8
0
  6
Continuous
 62
     7
370
    25
100
AcDbLine
 10
6294.754132551076
 20
7310.734782052388
 30
0.0
 11
6294.754132551076
 21
7318.134782052392
 31
0.0
  0
ARC
  5
E1EB
330
DBF1
100
AcDbEntity
  8
0
  6
Continuous
 62
     7
370
    25
100
AcDbCircle
 10
6295.054132551073
 20
7310.734782052388
 30
0.0
 40
0.2999999999975387
100
AcDbArc
 50
180.0
 51
270.0
  0
LINE
  5
E1EC
330
DBF1
100
AcDbEntity
  8
0
  6
Continuous
 62
     7
370
    25
100
AcDbLine
 10
6304.004132551076
 20
7310.434782052392
 30
0.0
 11
6295.054132551073
 21
7310.434782052391
 31
0.0
  0
ARC
  5
E1ED
330
DBF1
100
AcDbEntity
  8
0
  6
Continuous
 62
     7
370
    25
100
AcDbCircle
 10
6304.004132551076
 20
7310.134782052392
 30
0.0
 40
0.3000000000001819
100
AcDbArc
 50
0.0
 51
90.0
  0
LINE
  5
E1EE
330
DBF1
100
AcDbEntity
  8
0
  6
Continuous
 62
     7
370
    25
100
AcDbLine
 10
6304.304132551076
 20
7309.73504297914
 30
0.0
 11
6304.304132551076
 21
7310.134782052392
 31
0.0
  0
LINE
  5
E1EF
330
DBF1
100
AcDbEntity
  8
0
  6
Continuous
 62
     7
370
    25
100
AcDbLine
 10
6304.954132551076
 20
7309.73504297914
 30
0.0
 11
6304.304132551076
 21
7309.73504297914
 31
0.0
  0
ARC
  5
E1F0
330
DBF1
100
AcDbEntity
  8
0
  6
Continuous
 62
     7
370
    25
100
AcDbCircle
 10
6304.954132551076
 20
7309.234912515765
 30
0.0
 40
0.5001304633749157
100
AcDbArc
 50
270.0
 51
90.0
  0
LINE
  5
E1F1
330
DBF1
100
AcDbEntity
  8
0
  6
Continuous
 62
     7
370
    25
100
AcDbLine
 10
6304.304132551076
 20
7308.734782052391
 30
0.0
 11
6304.954132551076
 21
7308.734782052391
 31
0.0
  0
LINE
  5
E1F2
330
DBF1
100
AcDbEntity
  8
0
  6
Continuous
 62
     7
370
    25
100
AcDbLine
 10
6304.304132551076
 20
7307.934782052391
 30
0.0
 11
6304.304132551076
 21
7308.734782052391
 31
0.0
  0
LINE
  5
E1F3
330
DBF1
100
AcDbEntity
  8
0
  6
Continuous
 62
     7
370
    25
100
AcDbLine
 10
6295.054132551076
 20
7307.934782052391
 30
0.0
 11
6304.304132551076
 21
7307.934782052391
 31
0.0
  0
LINE
  5
E1F4
330
DBF1
100
AcDbEntity
  8
0
  6
Continuous
 62
     7
370
    25
100
AcDbLine
 10
6295.054132551076
 20
7301.034782052391
 30
0.0
 11
6295.054132551076
 21
7307.934782052391
 31
0.0
  0
LINE
  5
E1F5
330
DBF1
100
AcDbEntity
  8
0
  6
Continuous
 62
     7
370
    25
100
AcDbLine
 10
6312.554129961079
 20
7301.034782052391
 30
0.0
 11
6295.054132551076
 21
7301.034782052391
 31
0.0
  0
LINE
  5
E1F6
330
DBF1
100
AcDbEntity
  8
0
  6
Continuous
 62
     7
370
    25
100
AcDbLine
 10
6313.054129961079
 20
7300.534782052391
 30
0.0
 11
6312.554129961079
 21
7301.034782052391
 31
0.0
  0
LINE
  5
E1F7
330
DBF1
100
AcDbEntity
  8
0
  6
Continuous
 62
     7
370
    25
100
AcDbLine
 10
6313.55412996108
 20
7301.034782052391
 30
0.0
 11
6313.054129961079
 21
7300.534782052391
 31
0.0
  0
LINE
  5
E1F8
330
DBF1
100
AcDbEntity
  8
0
  6
Continuous
 62
     7
370
    25
100
AcDbLine
 10
6331.054132551076
 20
7301.034782052391
 30
0.0
 11
6313.55412996108
 21
7301.034782052391
 31
0.0
  0
LINE
  5
E1F9
330
DBF1
100
AcDbEntity
  8
0
  6
Continuous
 62
     7
370
    25
100
AcDbLine
 10
6331.054132551076
 20
7307.934782052391
 30
0.0
 11
6331.054132551076
 21
7301.034782052391
 31
0.0
  0
LINE
  5
E1FA
330
DBF1
100
AcDbEntity
  8
0
  6
Continuous
 62
     7
370
    25
100
AcDbLine
 10
6321.204132551075
 20
7307.934782052391
 30
0.0
 11
6331.054132551076
 21
7307.934782052391
 31
0.0
  0
LINE
  5
E1FB
330
DBF1
100
AcDbEntity
  8
0
  6
Continuous
 62
     7
370
    25
100
AcDbLine
 10
6321.204132551075
 20
7308.734782052391
 30
0.0
 11
6321.204132551075
 21
7307.934782052391
 31
0.0
  0
LINE
  5
E1FC
330
DBF1
100
AcDbEntity
  8
0
  6
Continuous
 62
     7
370
    25
100
AcDbLine
 10
6320.554132551076
 20
7308.734782052391
 30
0.0
 11
6321.204132551075
 21
7308.734782052391
 31
0.0
  0
ARC
  5
E1FD
330
DBF1
100
AcDbEntity
  8
0
  6
Continuous
 62
     7
370
    25
100
AcDbCircle
 10
6320.554132551076
 20
7309.234912515765
 30
0.0
 40
0.5001304633749157
100
AcDbArc
 50
90.0
 51
270.0
  0
LINE
  5
E1FE
330
DBF1
100
AcDbEntity
  8
0
  6
Continuous
 62
     7
370
    25
100
AcDbLine
 10
6321.204132551075
 20
7309.73504297914
 30
0.0
 11
6320.554132551076
 21
7309.73504297914
 31
0.0
  0
LINE
  5
E1FF
330
DBF1
100
AcDbEntity
  8
0
  6
Continuous
 62
     7
370
    25
100
AcDbLine
 10
6321.204132551075
 20
7310.134782052392
 30
0.0
 11
6321.204132551075
 21
7309.73504297914
 31
0.0
  0
ARC
  5
E200
330
DBF1
100
AcDbEntity
  8
0
  6
Continuous
 62
     7
370
    25
100
AcDbCircle
 10
6321.504132551076
 20
7310.134782052392
 30
0.0
 40
0.3000000000000398
100
AcDbArc
 50
90.0
 51
180.0
  0
LINE
  5
E201
330
DBF1
100
AcDbEntity
  8
0
  6
Continuous
 62
     7
370
    25
100
AcDbLine
 10
6338.754129961079
 20
7310.434782052391
 30
0.0
 11
6321.504132551076
 21
7310.434782052391
 31
0.0
  0
LINE
  5
E202
330
DBF1
100
AcDbEntity
  8
0
  6
Continuous
 62
     7
370
    25
100
AcDbLine
 10
6338.754129961079
 20
7289.234782052391
 30
0.0
 11
6338.754129961079
 21
7310.434782052391
 31
0.0
  0
ARC
  5
E203
330
DBF1
100
AcDbEntity
  8
0
  6
Continuous
 62
     7
370
    25
100
AcDbCircle
 10
6338.454129961079
 20
7289.234782052391
 30
0.0
 40
0.3000000000001819
100
AcDbArc
 50
270.0
 51
0.0
  0
ARC
  5
E204
330
DBF1
100
AcDbEntity
  8
0
  6
Continuous
 62
     7
370
    25
100
AcDbCircle
 10
6337.054129961079
 20
7295.634782052392
 30
0.0
 40
0.2000000000004434
100
AcDbArc
 50
270.0
 51
0.0
  0
LINE
  5
E205
330
DBF1
100
AcDbEntity
  8
0
  6
Continuous
 62
     7
370
    25
100
AcDbLine
 10
6337.254129961079
 20
7295.634782052392
 30
0.0
 11
6337.254129961079
 21
7308.434782052391
 31
0.0
  0
LINE
  5
E206
330
DBF1
100
AcDbEntity
  8
0
  6
Continuous
 62
     7
370
    25
100
AcDbLine
 10
6337.254129961079
 20
7308.434782052391
 30
0.0
 11
6332.754132551076
 21
7308.434782052391
 31
0.0
  0
LINE
  5
E207
330
DBF1
100
AcDbEntity
  8
0
  6
Continuous
 62
     7
370
    25
100
AcDbLine
 10
6332.754132551076
 20
7308.434782052391
 30
0.0
 11
6332.754132551076
 21
7300.752028695858
 31
0.0
  0
LINE
  5
E208
330
DBF1
100
AcDbEntity
  8
0
  6
Continuous
 62
     7
370
    25
100
AcDbLine
 10
6332.754132551076
 20
7300.752028695858
 30
0.0
 11
6335.06869571073
 21
7295.553434723775
 31
0.0
  0
ARC
  5
E209
330
DBF1
100
AcDbEntity
  8
0
  6
Continuous
 62
     7
370
    25
100
AcDbCircle
 10
6335.251404802259
 20
7295.634782052392
 30
0.0
 40
0.2000000000004434
100
AcDbArc
 50
204.0000000002654
 51
270.0
  0
LINE
  5
E20A
330
DBF1
100
AcDbEntity
  8
0
  6
Continuous
 62
     7
370
    25
100
AcDbLine
 10
6335.251404802259
 20
7295.434782052391
 30
0.0
 11
6337.054129961079
 21
7295.434782052391
 31
0.0
  0
LINE
  5
E20B
330
DBF1
100
AcDbEntity
  8
0
  6
Continuous
 62
     7
370
    25
100
AcDbLine
 10
6293.354132551076
 20
7313.934782052391
 30
0.0
 11
6293.354132551076
 21
7297.607583029636
 31
0.0
  0
LINE
  5
E20C
330
DBF1
100
AcDbEntity
  8
0
  6
Continuous
 62
     7
370
    25
100
AcDbLine
 10
6293.354132551076
 20
7313.934782052391
 30
0.0
 11
6289.954132551075
 21
7313.934782052391
 31
0.0
  0
LINE
  5
E20D
330
DBF1
100
AcDbEntity
  8
0
  6
Continuous
 62
     7
370
    25
100
AcDbLine
 10
6289.954132551075
 20
7295.434782052391
 30
0.0
 11
6289.954132551075
 21
7313.934782052391
 31
0.0
  0
LINE
  5
E20E
330
DBF1
100
AcDbEntity
  8
0
  6
Continuous
 62
     7
370
    25
100
AcDbLine
 10
6289.954132551075
 20
7295.434782052391
 30
0.0
 11
6292.386739228536
 21
7295.434782052391
 31
0.0
  0
LINE
  5
E20F
330
DBF1
100
AcDbEntity
  8
0
  6
Continuous
 62
     7
370
    25
100
AcDbLine
 10
6293.354132551076
 20
7297.607583029636
 30
0.0
 11
6292.386739228536
 21
7295.434782052391
 31
0.0
  0
LINE
  5
E210
330
DBF1
100
AcDbEntity
  8
0
  6
Continuous
 62
     7
370
    25
100
AcDbLine
 10
6288.754132551076
 20
7326.934782052391
 30
0.0
 11
6288.754132551076
 21
7289.234782052391
 31
0.0
  0
ARC
  5
E211
330
DBF1
100
AcDbEntity
  8
0
  6
Continuous
 62
     7
370
    25
100
AcDbCircle
 10
6289.054132551076
 20
7289.234782052391
 30
0.0
 40
0.3000000000001819
100
AcDbArc
 50
180.0
 51
270.0
  0
LINE
  5
E212
330
DBF1
100
AcDbEntity
  8
0
  6
Continuous
 62
     7
370
    25
100
AcDbLine
 10
6273.036859471332
 20
7193.608368424358
 30
0.0
 11
6274.661859471332
 21
7193.608368424358
 31
0.0
  0
LINE
  5
E213
330
DBF1
100
AcDbEntity
  8
0
  6
Continuous
 62
     7
370
    25
100
AcDbLine
 10
6277.161859471332
 20
7193.608368424358
 30
0.0
 11
6278.162359471332
 21
7193.608368424358
 31
0.0
  0
LINE
  5
E214
330
DBF1
100
AcDbEntity
  8
0
  6
Continuous
 62
     7
370
    25
100
AcDbLine
 10
6278.162359471332
 20
7198.608368424358
 30
0.0
 11
6277.161859471332
 21
7198.608368424358
 31
0.0
  0
LINE
  5
E215
330
DBF1
100
AcDbEntity
  8
0
  6
Continuous
 62
     7
370
    25
100
AcDbLine
 10
6274.661859471332
 20
7198.608368424358
 30
0.0
 11
6273.036859471332
 21
7198.608368424358
 31
0.0
  0
LINE
  5
E216
330
DBF1
100
AcDbEntity
  8
0
  6
Continuous
 62
     7
370
    25
100
AcDbLine
 10
6273.036859471332
 20
7198.608368424349
 30
0.0
 11
6272.661859471344
 21
7197.808368424386
 31
0.0
  0
LINE
  5
E217
330
DBF1
100
AcDbEntity
  8
0
  6
Continuous
 62
     7
370
    25
100
AcDbLine
 10
6272.661859471344
 20
7194.40836842433
 30
0.0
 11
6273.036859471332
 21
7193.608368424366
 31
0.0
  0
LINE
  5
E218
330
DBF1
100
AcDbEntity
  8
0
  6
Continuous
 62
     7
370
    25
100
AcDbLine
 10
6278.162359471332
 20
7193.608368424359
 30
0.0
 11
6280.66235947133
 21
7196.108368424358
 31
0.0
  0
LINE
  5
E219
330
DBF1
100
AcDbEntity
  8
0
  6
Continuous
 62
     7
370
    25
100
AcDbLine
 10
6280.66235947133
 20
7196.108368424359
 30
0.0
 11
6278.162359471332
 21
7198.608368424357
 31
0.0
  0
LINE
  5
E21A
330
DBF1
100
AcDbEntity
  8
0
  6
Continuous
 62
     7
370
    25
100
AcDbLine
 10
6329.161859471331
 20
7147.608868424358
 30
0.0
 11
6326.661859471332
 21
7150.108868424357
 31
0.0
  0
LINE
  5
E21B
330
DBF1
100
AcDbEntity
  8
0
  6
Continuous
 62
     7
370
    25
100
AcDbLine
 10
6326.661859471332
 20
7150.108868424357
 30
0.0
 11
6324.161859471334
 21
7147.608868424358
 31
0.0
  0
LINE
  5
E21C
330
DBF1
100
AcDbEntity
  8
0
  6
Continuous
 62
     7
370
    25
100
AcDbLine
 10
6329.161859471332
 20
7142.483368424358
 30
0.0
 11
6329.161859471332
 21
7144.108368424358
 31
0.0
  0
LINE
  5
E21D
330
DBF1
100
AcDbEntity
  8
0
  6
Continuous
 62
     7
370
    25
100
AcDbLine
 10
6329.161859471332
 20
7146.608368424358
 30
0.0
 11
6329.161859471332
 21
7147.608868424358
 31
0.0
  0
LINE
  5
E21E
330
DBF1
100
AcDbEntity
  8
0
  6
Continuous
 62
     7
370
    25
100
AcDbLine
 10
6324.161859471332
 20
7147.608868424358
 30
0.0
 11
6324.161859471332
 21
7146.608368424358
 31
0.0
  0
LINE
  5
E21F
330
DBF1
100
AcDbEntity
  8
0
  6
Continuous
 62
     7
370
    25
100
AcDbLine
 10
6324.161859471332
 20
7144.108368424358
 30
0.0
 11
6324.161859471332
 21
7142.483368424358
 31
0.0
  0
LINE
  5
E220
330
DBF1
100
AcDbEntity
  8
0
  6
Continuous
 62
     7
370
    25
100
AcDbLine
 10
6324.16185947134
 20
7142.483368424358
 30
0.0
 11
6324.961859471304
 21
7142.108368424369
 31
0.0
  0
LINE
  5
E221
330
DBF1
100
AcDbEntity
  8
0
  6
Continuous
 62
     7
370
    25
100
AcDbLine
 10
6328.36185947136
 20
7142.108368424369
 30
0.0
 11
6329.161859471324
 21
7142.483368424358
 31
0.0
  0
LINE
  5
E222
330
DBF1
100
AcDbEntity
  8
0
  6
Continuous
 62
     7
370
    25
100
AcDbLine
 10
6294.161859471332
 20
7142.483368424358
 30
0.0
 11
6294.161859471332
 21
7144.108368424358
 31
0.0
  0
LINE
  5
E223
330
DBF1
100
AcDbEntity
  8
0
  6
Continuous
 62
     7
370
    25
100
AcDbLine
 10
6294.161859471332
 20
7146.608368424358
 30
0.0
 11
6294.161859471332
 21
7147.608868424358
 31
0.0
  0
LINE
  5
E224
330
DBF1
100
AcDbEntity
  8
0
  6
Continuous
 62
     7
370
    25
100
AcDbLine
 10
6289.161859471332
 20
7147.608868424358
 30
0.0
 11
6289.161859471332
 21
7146.608368424358
 31
0.0
  0
LINE
  5
E225
330
DBF1
100
AcDbEntity
  8
0
  6
Continuous
 62
     7
370
    25
100
AcDbLine
 10
6289.161859471332
 20
7144.108368424358
 30
0.0
 11
6289.161859471332
 21
7142.483368424358
 31
0.0
  0
LINE
  5
E226
330
DBF1
100
AcDbEntity
  8
0
  6
Continuous
 62
     7
370
    25
100
AcDbLine
 10
6294.16185947133
 20
7147.608868424358
 30
0.0
 11
6291.661859471332
 21
7150.108868424356
 31
0.0
  0
LINE
  5
E227
330
DBF1
100
AcDbEntity
  8
0
  6
Continuous
 62
     7
370
    25
100
AcDbLine
 10
6291.661859471331
 20
7150.108868424357
 30
0.0
 11
6289.161859471333
 21
7147.608868424358
 31
0.0
  0
LINE
  5
E228
330
DBF1
100
AcDbEntity
  8
0
  6
Continuous
 62
     7
370
    25
100
AcDbLine
 10
6289.16185947134
 20
7142.483368424358
 30
0.0
 11
6289.961859471304
 21
7142.108368424369
 31
0.0
  0
LINE
  5
E229
330
DBF1
100
AcDbEntity
  8
0
  6
Continuous
 62
     7
370
    25
100
AcDbLine
 10
6293.36185947136
 20
7142.108368424369
 30
0.0
 11
6294.161859471324
 21
7142.483368424358
 31
0.0
  0
LINE
  5
E22A
330
DBF1
100
AcDbEntity
  8
0
  6
Continuous
 62
     7
370
    25
100
AcDbLine
 10
6273.036859471332
 20
7163.608368424349
 30
0.0
 11
6272.661859471344
 21
7162.808368424386
 31
0.0
  0
LINE
  5
E22B
330
DBF1
100
AcDbEntity
  8
0
  6
Continuous
 62
     7
370
    25
100
AcDbLine
 10
6272.661859471344
 20
7159.40836842433
 30
0.0
 11
6273.036859471332
 21
7158.608368424366
 31
0.0
  0
LINE
  5
E22C
330
DBF1
100
AcDbEntity
  8
0
  6
Continuous
 62
     7
370
    25
100
AcDbLine
 10
6273.036859471332
 20
7158.608368424358
 30
0.0
 11
6274.661859471332
 21
7158.608368424358
 31
0.0
  0
LINE
  5
E22D
330
DBF1
100
AcDbEntity
  8
0
  6
Continuous
 62
     7
370
    25
100
AcDbLine
 10
6277.161859471332
 20
7158.608368424358
 30
0.0
 11
6278.162359471332
 21
7158.608368424358
 31
0.0
  0
LINE
  5
E22E
330
DBF1
100
AcDbEntity
  8
0
  6
Continuous
 62
     7
370
    25
100
AcDbLine
 10
6278.162359471332
 20
7163.608368424358
 30
0.0
 11
6277.161859471332
 21
7163.608368424358
 31
0.0
  0
LINE
  5
E22F
330
DBF1
100
AcDbEntity
  8
0
  6
Continuous
 62
     7
370
    25
100
AcDbLine
 10
6274.661859471332
 20
7163.608368424358
 30
0.0
 11
6273.036859471332
 21
7163.608368424358
 31
0.0
  0
LINE
  5
E230
330
DBF1
100
AcDbEntity
  8
0
  6
Continuous
 62
     7
370
    25
100
AcDbLine
 10
6278.162359471332
 20
7158.608368424359
 30
0.0
 11
6280.66235947133
 21
7161.108368424358
 31
0.0
  0
LINE
  5
E231
330
DBF1
100
AcDbEntity
  8
0
  6
Continuous
 62
     7
370
    25
100
AcDbLine
 10
6280.66235947133
 20
7161.108368424359
 30
0.0
 11
6278.162359471332
 21
7163.608368424357
 31
0.0
  0
LINE
  5
E232
330
DBF1
100
AcDbEntity
  8
0
  6
Continuous
 62
     7
370
    25
100
AcDbLine
 10
6273.036859471332
 20
7193.921565222191
 30
0.0
 11
6273.036859471332
 21
7193.608368424358
 31
0.0
  0
LINE
  5
E233
330
DBF1
100
AcDbEntity
  8
0
  6
Continuous
 62
     7
370
    25
100
AcDbLine
 10
6273.036859471332
 20
7198.608368424358
 30
0.0
 11
6273.036859471332
 21
7193.921565222191
 31
0.0
  0
LINE
  5
E234
330
DBF1
100
AcDbEntity
  8
0
  6
Continuous
 62
     7
370
    25
100
AcDbLine
 10
6278.162359471332
 20
7193.921565222191
 30
0.0
 11
6278.162359471332
 21
7198.608368424359
 31
0.0
  0
LINE
  5
E235
330
DBF1
100
AcDbEntity
  8
0
  6
Continuous
 62
     7
370
    25
100
AcDbLine
 10
6278.162359471332
 20
7193.608368424359
 30
0.0
 11
6278.162359471332
 21
7193.921565222191
 31
0.0
  0
LINE
  5
E236
330
DBF1
100
AcDbEntity
  8
0
  6
Continuous
 62
     7
370
    25
100
AcDbLine
 10
6272.661859471344
 20
7194.62134224686
 30
0.0
 11
6272.661859471344
 21
7194.40836842433
 31
0.0
  0
LINE
  5
E237
330
DBF1
100
AcDbEntity
  8
0
  6
Continuous
 62
     7
370
    25
100
AcDbLine
 10
6272.661859471344
 20
7197.808368424386
 30
0.0
 11
6272.661859471344
 21
7194.62134224686
 31
0.0
  0
LINE
  5
E238
330
DBF1
100
AcDbEntity
  8
0
  6
Continuous
 62
     7
370
    25
100
AcDbLine
 10
6329.161859471331
 20
7147.608868424358
 30
0.0
 11
6324.161859471334
 21
7147.608868424358
 31
0.0
  0
LINE
  5
E239
330
DBF1
100
AcDbEntity
  8
0
  6
Continuous
 62
     7
370
    25
100
AcDbLine
 10
6324.161859471332
 20
7142.483368424358
 30
0.0
 11
6329.161859471332
 21
7142.483368424358
 31
0.0
  0
LINE
  5
E23A
330
DBF1
100
AcDbEntity
  8
0
  6
Continuous
 62
     7
370
    25
100
AcDbLine
 10
6324.961859471304
 20
7142.108368424369
 30
0.0
 11
6328.36185947136
 21
7142.108368424369
 31
0.0
  0
LINE
  5
E23B
330
DBF1
100
AcDbEntity
  8
0
  6
Continuous
 62
     7
370
    25
100
AcDbLine
 10
6289.161859471332
 20
7142.483368424358
 30
0.0
 11
6294.161859471332
 21
7142.483368424358
 31
0.0
  0
LINE
  5
E23C
330
DBF1
100
AcDbEntity
  8
0
  6
Continuous
 62
     7
370
    25
100
AcDbLine
 10
6294.161859471331
 20
7147.608868424358
 30
0.0
 11
6289.161859471331
 21
7147.608868424358
 31
0.0
  0
LINE
  5
E23D
330
DBF1
100
AcDbEntity
  8
0
  6
Continuous
 62
     7
370
    25
100
AcDbLine
 10
6289.961859471304
 20
7142.108368424369
 30
0.0
 11
6293.36185947136
 21
7142.108368424369
 31
0.0
  0
LINE
  5
E23E
330
DBF1
100
AcDbEntity
  8
0
  6
Continuous
 62
     7
370
    25
100
AcDbLine
 10
6272.661859471344
 20
7159.62134224686
 30
0.0
 11
6272.661859471344
 21
7159.40836842433
 31
0.0
  0
LINE
  5
E23F
330
DBF1
100
AcDbEntity
  8
0
  6
Continuous
 62
     7
370
    25
100
AcDbLine
 10
6272.661859471344
 20
7162.808368424386
 30
0.0
 11
6272.661859471344
 21
7159.62134224686
 31
0.0
  0
LINE
  5
E240
330
DBF1
100
AcDbEntity
  8
0
  6
Continuous
 62
     7
370
    25
100
AcDbLine
 10
6273.036859471332
 20
7158.921565222191
 30
0.0
 11
6273.036859471332
 21
7158.608368424366
 31
0.0
  0
LINE
  5
E241
330
DBF1
100
AcDbEntity
  8
0
  6
Continuous
 62
     7
370
    25
100
AcDbLine
 10
6273.036859471332
 20
7163.608368424349
 30
0.0
 11
6273.036859471332
 21
7158.921565222191
 31
0.0
  0
LINE
  5
E242
330
DBF1
100
AcDbEntity
  8
0
  6
Continuous
 62
     7
370
    25
100
AcDbLine
 10
6278.162359471332
 20
7158.921565222191
 30
0.0
 11
6278.162359471332
 21
7163.608368424359
 31
0.0
  0
LINE
  5
E243
330
DBF1
100
AcDbEntity
  8
0
  6
Continuous
 62
     7
370
    25
100
AcDbLine
 10
6278.162359471332
 20
7158.608368424359
 30
0.0
 11
6278.162359471332
 21
7158.921565222191
 31
0.0
  0
ARC
  5
E244
330
DBF1
100
AcDbEntity
  8
0
  6
Continuous
 62
     7
370
    25
100
AcDbCircle
 10
6279.661859471332
 20
7149.108368424358
 30
0.0
 40
5.0
100
AcDbArc
 50
180.0
 51
270.0
  0
LINE
  5
E245
330
DBF1
100
AcDbEntity
  8
0
  6
Continuous
 62
     7
370
    25
100
AcDbLine
 10
6277.161859471332
 20
7201.108368424358
 30
0.0
 11
6274.661859471332
 21
7201.108368424358
 31
0.0
  0
LINE
  5
E246
330
DBF1
100
AcDbEntity
  8
0
  6
Continuous
 62
     7
370
    25
100
AcDbLine
 10
6331.661859471332
 20
7144.108368424358
 30
0.0
 11
6331.661859471332
 21
7146.608368424358
 31
0.0
  0
LINE
  5
E247
330
DBF1
100
AcDbEntity
  8
0
  6
Continuous
 62
     7
370
    25
100
AcDbLine
 10
6331.661859471332
 20
7144.108368424358
 30
0.0
 11
6279.661859471332
 21
7144.108368424358
 31
0.0
  0
LINE
  5
E248
330
DBF1
100
AcDbEntity
  8
0
  6
Continuous
 62
     7
370
    25
100
AcDbLine
 10
6279.661859471332
 20
7146.608368424358
 30
0.0
 11
6331.661859471332
 21
7146.608368424358
 31
0.0
  0
LINE
  5
E249
330
DBF1
100
AcDbEntity
  8
0
  6
Continuous
 62
     7
370
    25
100
AcDbLine
 10
6277.161859471332
 20
7201.108368424358
 30
0.0
 11
6277.161859471332
 21
7149.108368424358
 31
0.0
  0
ARC
  5
E24A
330
DBF1
100
AcDbEntity
  8
0
  6
Continuous
 62
     7
370
    25
100
AcDbCircle
 10
6279.661859471332
 20
7149.108368424358
 30
0.0
 40
2.5
100
AcDbArc
 50
180.0
 51
270.0
  0
LINE
  5
E24B
330
DBF1
100
AcDbEntity
  8
0
  6
Continuous
 62
     7
370
    25
100
AcDbLine
 10
6274.661859471332
 20
7149.108368424358
 30
0.0
 11
6274.661859471332
 21
7201.108368424358
 31
0.0
  0
LINE
  5
E24C
330
DBF1
100
AcDbEntity
  8
0
  6
Continuous
 62
     7
370
    25
100
AcDbLine
 10
6274.661859471332
 20
7204.108368424358
 30
0.0
 11
6277.161859471332
 21
7204.108368424358
 31
0.0
  0
LINE
  5
E24D
330
DBF1
100
AcDbEntity
  8
0
  6
Continuous
 62
     7
370
    25
100
AcDbLine
 10
6277.161859471332
 20
7204.108368424358
 30
0.0
 11
6277.161859471332
 21
7201.108368424358
 31
0.0
  0
LINE
  5
E24E
330
DBF1
100
AcDbEntity
  8
0
  6
Continuous
 62
     7
370
    25
100
AcDbLine
 10
6274.661859471332
 20
7201.108368424358
 30
0.0
 11
6274.661859471332
 21
7204.108368424358
 31
0.0
  0
LINE
  5
E24F
330
DBF1
100
AcDbEntity
  8
0
  6
Continuous
 62
     7
370
    25
100
AcDbLine
 10
6334.661859471332
 20
7146.608368424358
 30
0.0
 11
6334.661859471332
 21
7144.108368424358
 31
0.0
  0
LINE
  5
E250
330
DBF1
100
AcDbEntity
  8
0
  6
Continuous
 62
     7
370
    25
100
AcDbLine
 10
6334.661859471332
 20
7144.108368424358
 30
0.0
 11
6331.661859471332
 21
7144.108368424358
 31
0.0
  0
LINE
  5
E251
330
DBF1
100
AcDbEntity
  8
0
  6
Continuous
 62
     7
370
    25
100
AcDbLine
 10
6331.661859471332
 20
7146.608368424358
 30
0.0
 11
6334.661859471332
 21
7146.608368424358
 31
0.0
  0
LINE
  5
E252
330
DBF1
100
AcDbEntity
  8
0
  6
Continuous
 62
     7
370
    25
100
AcDbLine
 10
6278.162359471332
 20
7090.45303768506
 30
0.0
 11
6280.66235947133
 21
7092.953037685058
 31
0.0
  0
LINE
  5
E253
330
DBF1
100
AcDbEntity
  8
0
  6
Continuous
 62
     7
370
    25
100
AcDbLine
 10
6280.66235947133
 20
7092.953037685058
 30
0.0
 11
6278.162359471332
 21
7095.453037685057
 31
0.0
  0
LINE
  5
E254
330
DBF1
100
AcDbEntity
  8
0
  6
Continuous
 62
     7
370
    25
100
AcDbLine
 10
6273.036859471332
 20
7090.453037685058
 30
0.0
 11
6274.661859471332
 21
7090.453037685058
 31
0.0
  0
LINE
  5
E255
330
DBF1
100
AcDbEntity
  8
0
  6
Continuous
 62
     7
370
    25
100
AcDbLine
 10
6277.161859471332
 20
7090.453037685058
 30
0.0
 11
6278.162359471332
 21
7090.453037685058
 31
0.0
  0
LINE
  5
E256
330
DBF1
100
AcDbEntity
  8
0
  6
Continuous
 62
     7
370
    25
100
AcDbLine
 10
6278.162359471332
 20
7095.453037685058
 30
0.0
 11
6277.161859471332
 21
7095.453037685058
 31
0.0
  0
LINE
  5
E257
330
DBF1
100
AcDbEntity
  8
0
  6
Continuous
 62
     7
370
    25
100
AcDbLine
 10
6274.661859471332
 20
7095.453037685058
 30
0.0
 11
6273.036859471332
 21
7095.453037685058
 31
0.0
  0
LINE
  5
E258
330
DBF1
100
AcDbEntity
  8
0
  6
Continuous
 62
     7
370
    25
100
AcDbLine
 10
6273.036859471332
 20
7095.45303768505
 30
0.0
 11
6272.661859471344
 21
7094.653037685086
 31
0.0
  0
LINE
  5
E259
330
DBF1
100
AcDbEntity
  8
0
  6
Continuous
 62
     7
370
    25
100
AcDbLine
 10
6272.661859471344
 20
7091.25303768503
 30
0.0
 11
6273.036859471332
 21
7090.453037685066
 31
0.0
  0
LINE
  5
E25A
330
DBF1
100
AcDbEntity
  8
0
  6
Continuous
 62
     7
370
    25
100
AcDbLine
 10
6278.162359471332
 20
7090.45303768506
 30
0.0
 11
6278.162359471332
 21
7095.453037685057
 31
0.0
  0
LINE
  5
E25B
330
DBF1
100
AcDbEntity
  8
0
  6
Continuous
 62
     7
370
    25
100
AcDbLine
 10
6273.036859471332
 20
7095.453037685058
 30
0.0
 11
6273.036859471332
 21
7090.453037685058
 31
0.0
  0
LINE
  5
E25C
330
DBF1
100
AcDbEntity
  8
0
  6
Continuous
 62
     7
370
    25
100
AcDbLine
 10
6272.661859471344
 20
7094.653037685086
 30
0.0
 11
6272.661859471344
 21
7091.25303768503
 31
0.0
  0
CIRCLE
  5
E25D
330
DBF1
100
AcDbEntity
  8
0
  6
Continuous
 62
     7
370
    25
100
AcDbCircle
 10
6326.661859471332
 20
7092.953037685058
 30
0.0
 40
2.499999999999992
  0
CIRCLE
  5
E25E
330
DBF1
100
AcDbEntity
  8
0
  6
Continuous
 62
     7
370
    25
100
AcDbCircle
 10
6291.661859471331
 20
7092.953037685058
 30
0.0
 40
2.5
  0
LINE
  5
E25F
330
DBF1
100
AcDbEntity
  8
0
  6
Continuous
 62
     7
370
    25
100
AcDbLine
 10
6274.661859471332
 20
7099.453037685058
 30
0.0
 11
6277.161859471332
 21
7099.453037685058
 31
0.0
  0
LINE
  5
E260
330
DBF1
100
AcDbEntity
  8
0
  6
Continuous
 62
     7
370
    25
100
AcDbLine
 10
6277.161859471332
 20
7096.453037685058
 30
0.0
 11
6274.661859471332
 21
7096.453037685058
 31
0.0
  0
LINE
  5
E261
330
DBF1
100
AcDbEntity
  8
0
  6
Continuous
 62
     7
370
    25
100
AcDbLine
 10
6274.661859471332
 20
7096.453037685058
 30
0.0
 11
6274.661859471332
 21
7099.453037685058
 31
0.0
  0
LINE
  5
E262
330
DBF1
100
AcDbEntity
  8
0
  6
Continuous
 62
     7
370
    25
100
AcDbLine
 10
6277.161859471332
 20
7099.453037685058
 30
0.0
 11
6277.161859471332
 21
7096.453037685058
 31
0.0
  0
LINE
  5
E263
330
DBF1
100
AcDbEntity
  8
0
  6
Continuous
 62
     7
370
    25
100
AcDbLine
 10
6274.661859471332
 20
7089.453037685058
 30
0.0
 11
6277.161859471332
 21
7089.453037685058
 31
0.0
  0
LINE
  5
E264
330
DBF1
100
AcDbEntity
  8
0
  6
Continuous
 62
     7
370
    25
100
AcDbLine
 10
6274.661859471332
 20
7096.453037685058
 30
0.0
 11
6274.661859471332
 21
7089.453037685058
 31
0.0
  0
LINE
  5
E265
330
DBF1
100
AcDbEntity
  8
0
  6
Continuous
 62
     7
370
    25
100
AcDbLine
 10
6277.161859471332
 20
7096.453037685058
 30
0.0
 11
6277.161859471332
 21
7089.453037685058
 31
0.0
  0
LINE
  5
E266
330
DBF1
100
AcDbEntity
  8
0
  6
Continuous
 62
     7
370
    25
100
AcDbLine
 10
6277.161859471332
 20
7086.453037685058
 30
0.0
 11
6274.661859471332
 21
7086.453037685058
 31
0.0
  0
LINE
  5
E267
330
DBF1
100
AcDbEntity
  8
0
  6
Continuous
 62
     7
370
    25
100
AcDbLine
 10
6274.661859471332
 20
7086.453037685058
 30
0.0
 11
6274.661859471332
 21
7089.453037685058
 31
0.0
  0
LINE
  5
E268
330
DBF1
100
AcDbEntity
  8
0
  6
Continuous
 62
     7
370
    25
100
AcDbLine
 10
6277.161859471332
 20
7089.453037685058
 30
0.0
 11
6277.161859471332
 21
7086.453037685058
 31
0.0
  0
LINE
  5
E269
330
DBF1
100
AcDbEntity
  8
0
  6
Continuous
 62
     7
370
    25
100
AcDbLine
 10
6279.661859471332
 20
7086.453037685058
 30
0.0
 11
6277.161859471332
 21
7086.453037685058
 31
0.0
  0
LINE
  5
E26A
330
DBF1
100
AcDbEntity
  8
0
  6
Continuous
 62
     7
370
    25
100
AcDbLine
 10
6277.161859471332
 20
7099.453037685058
 30
0.0
 11
6279.661859471332
 21
7099.453037685058
 31
0.0
  0
LINE
  5
E26B
330
DBF1
100
AcDbEntity
  8
0
  6
Continuous
 62
     7
370
    25
100
AcDbLine
 10
6334.661859471332
 20
7096.453037685058
 30
0.0
 11
6331.661859471332
 21
7099.453037685058
 31
0.0
  0
LINE
  5
E26C
330
DBF1
100
AcDbEntity
  8
0
  6
Continuous
 62
     7
370
    25
100
AcDbLine
 10
6334.661859471332
 20
7096.453037685058
 30
0.0
 11
6334.661859471332
 21
7089.453037685058
 31
0.0
  0
LINE
  5
E26D
330
DBF1
100
AcDbEntity
  8
0
  6
Continuous
 62
     7
370
    25
100
AcDbLine
 10
6331.661859471332
 20
7086.453037685058
 30
0.0
 11
6334.661859471332
 21
7089.453037685058
 31
0.0
  0
LINE
  5
E26E
330
DBF1
100
AcDbEntity
  8
0
  6
Continuous
 62
     7
370
    25
100
AcDbLine
 10
6279.661859471332
 20
7086.453037685058
 30
0.0
 11
6331.661859471332
 21
7086.453037685058
 31
0.0
  0
LINE
  5
E26F
330
DBF1
100
AcDbEntity
  8
0
  6
Continuous
 62
     7
370
    25
100
AcDbLine
 10
6279.661859471332
 20
7099.453037685058
 30
0.0
 11
6331.661859471332
 21
7099.453037685058
 31
0.0
  0
LINE
  5
E270
330
DBF1
100
AcDbEntity
  8
0
  6
Continuous
 62
     8
370
    25
100
AcDbLine
 10
6279.661859471332
 20
7099.453037685058
 30
0.0
 11
6279.661859471332
 21
7093.953537685057
 31
0.0
  0
LINE
  5
E271
330
DBF1
100
AcDbEntity
  8
0
  6
Continuous
 62
     8
370
    25
100
AcDbLine
 10
6279.661859471332
 20
7091.95253768506
 30
0.0
 11
6279.661859471332
 21
7086.453037685058
 31
0.0
  0
LINE
  5
E272
330
DBF1
100
AcDbEntity
  8
0
  6
Continuous
 62
     7
370
    25
100
AcDbLine
 10
6387.888863362383
 20
7142.483368424358
 30
0.0
 11
6387.888863362383
 21
7144.108368424358
 31
0.0
  0
LINE
  5
E273
330
DBF1
100
AcDbEntity
  8
0
  6
Continuous
 62
     7
370
    25
100
AcDbLine
 10
6382.888863362383
 20
7144.108368424358
 30
0.0
 11
6382.888863362383
 21
7142.483368424358
 31
0.0
  0
LINE
  5
E274
330
DBF1
100
AcDbEntity
  8
0
  6
Continuous
 62
     7
370
    25
100
AcDbLine
 10
6382.888863362391
 20
7142.483368424358
 30
0.0
 11
6383.688863362355
 21
7142.108368424369
 31
0.0
  0
LINE
  5
E275
330
DBF1
100
AcDbEntity
  8
0
  6
Continuous
 62
     7
370
    25
100
AcDbLine
 10
6387.088863362411
 20
7142.108368424369
 30
0.0
 11
6387.888863362375
 21
7142.483368424358
 31
0.0
  0
CIRCLE
  5
E276
330
DBF1
100
AcDbEntity
  8
0
  6
Continuous
 62
     7
370
    25
100
AcDbCircle
 10
6385.388863362383
 20
7196.108368424358
 30
0.0
 40
1.700000000028012
  0
LINE
  5
E277
330
DBF1
100
AcDbEntity
  8
0
  6
Continuous
 62
     7
370
    25
100
AcDbLine
 10
6386.62592198498
 20
7195.364715751673
 30
0.0
 11
6386.651414779819
 21
7196.807866281155
 31
0.0
  0
LINE
  5
E278
330
DBF1
100
AcDbEntity
  8
0
  6
Continuous
 62
     7
370
    25
100
AcDbLine
 10
6386.651414779819
 20
7196.807866281155
 30
0.0
 11
6385.414356157222
 21
7197.55151895384
 31
0.0
  0
LINE
  5
E279
330
DBF1
100
AcDbEntity
  8
0
  6
Continuous
 62
     7
370
    25
100
AcDbLine
 10
6385.414356157222
 20
7197.55151895384
 30
0.0
 11
6384.151804739786
 21
7196.852021097043
 31
0.0
  0
LINE
  5
E27A
330
DBF1
100
AcDbEntity
  8
0
  6
Continuous
 62
     7
370
    25
100
AcDbLine
 10
6384.151804739786
 20
7196.852021097043
 30
0.0
 11
6384.126311944947
 21
7195.40887056756
 31
0.0
  0
LINE
  5
E27B
330
DBF1
100
AcDbEntity
  8
0
  6
Continuous
 62
     7
370
    25
100
AcDbLine
 10
6385.363370567544
 20
7194.665217894876
 30
0.0
 11
6384.126311944947
 21
7195.40887056756
 31
0.0
  0
LINE
  5
E27C
330
DBF1
100
AcDbEntity
  8
0
  6
Continuous
 62
     7
370
    25
100
AcDbLine
 10
6385.363370567544
 20
7194.665217894876
 30
0.0
 11
6386.62592198498
 21
7195.364715751673
 31
0.0
  0
CIRCLE
  5
E27D
330
DBF1
100
AcDbEntity
  8
0
  6
Continuous
 62
     7
370
    25
100
AcDbCircle
 10
6385.388863362383
 20
7196.108368424358
 30
0.0
 40
2.499999999999996
  0
LINE
  5
E27E
330
DBF1
100
AcDbEntity
  8
0
  6
Continuous
 62
     7
370
    25
100
AcDbLine
 10
6382.888863362383
 20
7142.483368424358
 30
0.0
 11
6387.888863362383
 21
7142.483368424358
 31
0.0
  0
LINE
  5
E27F
330
DBF1
100
AcDbEntity
  8
0
  6
Continuous
 62
     7
370
    25
100
AcDbLine
 10
6383.688863362355
 20
7142.108368424369
 30
0.0
 11
6387.088863362411
 21
7142.108368424369
 31
0.0
  0
CIRCLE
  5
E280
330
DBF1
100
AcDbEntity
  8
0
  6
Continuous
 62
     7
370
    25
100
AcDbCircle
 10
6385.388863362383
 20
7161.108368424358
 30
0.0
 40
1.700000000028012
  0
LINE
  5
E281
330
DBF1
100
AcDbEntity
  8
0
  6
Continuous
 62
     7
370
    25
100
AcDbLine
 10
6386.62592198498
 20
7160.364715751673
 30
0.0
 11
6386.651414779819
 21
7161.807866281155
 31
0.0
  0
LINE
  5
E282
330
DBF1
100
AcDbEntity
  8
0
  6
Continuous
 62
     7
370
    25
100
AcDbLine
 10
6386.651414779819
 20
7161.807866281155
 30
0.0
 11
6385.414356157222
 21
7162.55151895384
 31
0.0
  0
LINE
  5
E283
330
DBF1
100
AcDbEntity
  8
0
  6
Continuous
 62
     7
370
    25
100
AcDbLine
 10
6385.414356157222
 20
7162.55151895384
 30
0.0
 11
6384.151804739786
 21
7161.852021097043
 31
0.0
  0
LINE
  5
E284
330
DBF1
100
AcDbEntity
  8
0
  6
Continuous
 62
     7
370
    25
100
AcDbLine
 10
6384.151804739786
 20
7161.852021097043
 30
0.0
 11
6384.126311944947
 21
7160.40887056756
 31
0.0
  0
LINE
  5
E285
330
DBF1
100
AcDbEntity
  8
0
  6
Continuous
 62
     7
370
    25
100
AcDbLine
 10
6385.363370567544
 20
7159.665217894876
 30
0.0
 11
6384.126311944947
 21
7160.40887056756
 31
0.0
  0
LINE
  5
E286
330
DBF1
100
AcDbEntity
  8
0
  6
Continuous
 62
     7
370
    25
100
AcDbLine
 10
6385.363370567544
 20
7159.665217894876
 30
0.0
 11
6386.62592198498
 21
7160.364715751673
 31
0.0
  0
CIRCLE
  5
E287
330
DBF1
100
AcDbEntity
  8
0
  6
Continuous
 62
     7
370
    25
100
AcDbCircle
 10
6385.388863362383
 20
7161.108368424358
 30
0.0
 40
2.500000000000024
  0
LINE
  5
E288
330
DBF1
100
AcDbEntity
  8
0
  6
Continuous
 62
     7
370
    25
100
AcDbLine
 10
6378.888863362383
 20
7149.108368424358
 30
0.0
 11
6391.888863362383
 21
7149.108368424358
 31
0.0
  0
LINE
  5
E289
330
DBF1
100
AcDbEntity
  8
0
  6
Continuous
 62
     7
370
    25
100
AcDbLine
 10
6391.888863362383
 20
7149.108368424358
 30
0.0
 11
6391.888863362383
 21
7144.108368424358
 31
0.0
  0
LINE
  5
E28A
330
DBF1
100
AcDbEntity
  8
0
  6
Continuous
 62
     7
370
    25
100
AcDbLine
 10
6391.888863362383
 20
7144.108368424358
 30
0.0
 11
6378.888863362383
 21
7144.108368424358
 31
0.0
  0
LINE
  5
E28B
330
DBF1
100
AcDbEntity
  8
0
  6
Continuous
 62
     7
370
    25
100
AcDbLine
 10
6378.888863362383
 20
7144.108368424358
 30
0.0
 11
6378.888863362383
 21
7149.108368424358
 31
0.0
  0
LINE
  5
E28C
330
DBF1
100
AcDbEntity
  8
0
  6
Continuous
 62
     7
370
    25
100
AcDbLine
 10
6391.888863362383
 20
7201.108368424358
 30
0.0
 11
6388.888863362383
 21
7204.108368424358
 31
0.0
  0
LINE
  5
E28D
330
DBF1
100
AcDbEntity
  8
0
  6
Continuous
 62
     7
370
    25
100
AcDbLine
 10
6391.888863362383
 20
7149.108368424358
 30
0.0
 11
6391.888863362383
 21
7201.108368424358
 31
0.0
  0
LINE
  5
E28E
330
DBF1
100
AcDbEntity
  8
0
  6
Continuous
 62
     7
370
    25
100
AcDbLine
 10
6381.888863362383
 20
7204.108368424358
 30
0.0
 11
6378.888863362383
 21
7201.108368424358
 31
0.0
  0
LINE
  5
E28F
330
DBF1
100
AcDbEntity
  8
0
  6
Continuous
 62
     7
370
    25
100
AcDbLine
 10
6381.888863362383
 20
7204.108368424358
 30
0.0
 11
6388.888863362383
 21
7204.108368424358
 31
0.0
  0
LINE
  5
E290
330
DBF1
100
AcDbEntity
  8
0
  6
Continuous
 62
     7
370
    25
100
AcDbLine
 10
6378.888863362383
 20
7149.108368424358
 30
0.0
 11
6378.888863362383
 21
7201.108368424358
 31
0.0
  0
LINE
  5
E291
330
DBF1
100
AcDbEntity
  8
0
  6
Continuous
 62
     7
370
    25
100
AcDbLine
 10
6363.232639284016
 20
7117.547320669393
 30
0.0
 11
6365.000118925135
 21
7118.567996670769
 31
0.0
  0
LINE
  5
E292
330
DBF1
100
AcDbEntity
  8
0
  6
Continuous
 62
     7
370
    25
100
AcDbLine
 10
6365.000118925135
 20
7118.567996670769
 30
0.0
 11
6365.000118925135
 21
7120.609016950325
 31
0.0
  0
LINE
  5
E293
330
DBF1
100
AcDbEntity
  8
0
  6
Continuous
 62
     7
370
    25
100
AcDbLine
 10
6361.274993221798
 20
7117.831792812534
 30
0.0
 11
6361.982453556375
 21
7117.423384654595
 31
0.0
  0
LINE
  5
E294
330
DBF1
100
AcDbEntity
  8
0
  6
Continuous
 62
     7
370
    25
100
AcDbLine
 10
6364.482250387965
 20
7121.753628966499
 30
0.0
 11
6363.774790053388
 21
7122.162037124438
 31
0.0
  0
LINE
  5
E295
330
DBF1
100
AcDbEntity
  8
0
  6
Continuous
 62
     7
370
    25
100
AcDbLine
 10
6399.294731501112
 20
7061.209337386477
 30
0.0
 11
6397.526677306327
 21
7062.230345124534
 31
0.0
  0
LINE
  5
E296
330
DBF1
100
AcDbEntity
  8
0
  6
Continuous
 62
     7
370
    25
100
AcDbLine
 10
6397.526677306327
 20
7062.230345124534
 30
0.0
 11
6395.758623111541
 21
7061.209337386477
 31
0.0
  0
LINE
  5
E297
330
DBF1
100
AcDbEntity
  8
0
  6
Continuous
 62
     7
370
    25
100
AcDbLine
 10
6400.026677306327
 20
7059.372044012529
 30
0.0
 11
6400.026677306327
 21
7060.188993094821
 31
0.0
  0
LINE
  5
E298
330
DBF1
100
AcDbEntity
  8
0
  6
Continuous
 62
     7
370
    25
100
AcDbLine
 10
6395.026677306327
 20
7060.188993094821
 30
0.0
 11
6395.026677306327
 21
7059.372044012529
 31
0.0
  0
LINE
  5
E299
330
DBF1
100
AcDbEntity
  8
0
  6
Continuous
 62
     7
370
    25
100
AcDbLine
 10
6374.545994159583
 20
7075.496479343375
 30
0.0
 11
6372.777939964797
 21
7076.517487081432
 31
0.0
  0
LINE
  5
E29A
330
DBF1
100
AcDbEntity
  8
0
  6
Continuous
 62
     7
370
    25
100
AcDbLine
 10
6372.777939964797
 20
7076.517487081432
 30
0.0
 11
6371.009885770011
 21
7075.496479343375
 31
0.0
  0
LINE
  5
E29B
330
DBF1
100
AcDbEntity
  8
0
  6
Continuous
 62
     7
370
    25
100
AcDbLine
 10
6375.277939964798
 20
7073.659185969427
 30
0.0
 11
6375.277939964798
 21
7074.476135051718
 31
0.0
  0
LINE
  5
E29C
330
DBF1
100
AcDbEntity
  8
0
  6
Continuous
 62
     7
370
    25
100
AcDbLine
 10
6370.277939964798
 20
7074.476135051718
 30
0.0
 11
6370.277939964798
 21
7073.659185969427
 31
0.0
  0
LINE
  5
E29D
330
DBF1
100
AcDbEntity
  8
0
  6
Continuous
 62
     7
370
    25
100
AcDbLine
 10
6363.232639284016
 20
7088.968392253392
 30
0.0
 11
6365.000118925135
 21
7089.989068254768
 31
0.0
  0
LINE
  5
E29E
330
DBF1
100
AcDbEntity
  8
0
  6
Continuous
 62
     7
370
    25
100
AcDbLine
 10
6365.000118925135
 20
7089.989068254768
 30
0.0
 11
6365.000118925135
 21
7092.030088534324
 31
0.0
  0
LINE
  5
E29F
330
DBF1
100
AcDbEntity
  8
0
  6
Continuous
 62
     7
370
    25
100
AcDbLine
 10
6361.274993221798
 20
7089.252864396533
 30
0.0
 11
6361.982453556375
 21
7088.844456238594
 31
0.0
  0
LINE
  5
E2A0
330
DBF1
100
AcDbEntity
  8
0
  6
Continuous
 62
     7
370
    25
100
AcDbLine
 10
6364.482250387965
 20
7093.174700550498
 30
0.0
 11
6363.774790053388
 21
7093.583108708436
 31
0.0
  0
LWPOLYLINE
  5
E2A1
330
DBF1
100
AcDbEntity
  8
0
  6
Continuous
 62
     7
370
    25
100
AcDbPolyline
 90
       24
 70
   128
 43
0.0
 10
6362.375645559508
 20
7117.30832666352
 10
6362.098487522879
 20
7117.36782002777
 10
6361.862310301702
 20
7117.507574798291
 10
6361.675649956104
 20
7117.722539873551
 10
6361.545252877315
 20
7118.004945855644
 10
6361.475831955508
 20
7118.344585856574
 10
6361.469896243671
 20
7118.729184401785
 10
6361.527660273895
 20
7119.144841097793
 10
6361.647036303626
 20
7119.576533028618
 10
6361.823709772118
 20
7120.00865772312
 10
6362.051295239901
 20
7120.425597068948
 10
6362.321567175202
 20
7120.812281791821
 10
6362.624757246092
 20
7121.154736098357
 10
6362.949907373455
 20
7121.44058279766
 10
6363.285265784518
 20
7121.659490645251
 10
6363.618711752537
 20
7121.803547741161
 10
6363.938193671443
 20
7121.867547486606
 10
6364.232164632283
 20
7121.849176764035
 10
6364.489999758603
 20
7121.749099539227
 10
6364.70238021715
 20
7121.570932863835
 10
6364.861630024802
 20
7121.321116145717
 10
6364.961993478591
 20
7121.008678411956
 10
6364.999843181799
 20
7120.644911976299
 10
6365.000118925135
 20
7120.609016950325
  0
ARC
  5
E2A2
330
DBF1
100
AcDbEntity
  8
0
  6
Continuous
 62
     7
370
    25
100
AcDbCircle
 10
6362.395615293977
 20
7118.892735656714
 30
0.0
 40
1.584534836476321
100
AcDbArc
 50
269.2778878899578
 51
301.8870120608174
  0
LWPOLYLINE
  5
E2A3
330
DBF1
100
AcDbEntity
  8
0
  6
Continuous
 62
     7
370
    25
100
AcDbPolyline
 90
       27
 70
   128
 43
0.0
 10
6399.294731501112
 20
7061.209337386477
 10
6399.466092140392
 20
7061.099694440936
 10
6399.729598054161
 20
7060.87135112134
 10
6399.91348467245
 20
7060.618345604799
 10
6400.011105853761
 20
7060.349822169881
 10
6400.018933314253
 20
7060.075485953153
 10
6399.936684149108
 20
7059.805252180266
 10
6399.767331057454
 20
7059.548887803858
 10
6399.516994901267
 20
7059.315658500443
 10
6399.194723481478
 20
7059.11399378472
 10
6398.812164526867
 20
7058.951182344947
 10
6398.3831447148
 20
7058.83310861076
 10
6397.923169939088
 20
7058.764040074549
 10
6397.448864886576
 20
7058.746473053169
 10
6396.977372177653
 20
7058.781042464544
 10
6396.52573278728
 20
7058.866498880077
 10
6396.11027013976
 20
7058.999753682256
 10
6395.746000137654
 20
7059.175990695338
 10
6395.446088447933
 20
7059.388840254489
 10
6395.221374660475
 20
7059.630609422068
 10
6395.079980517045
 20
7059.892560030434
 10
6395.027016370387
 20
7060.165224502096
 10
6395.064396482757
 20
7060.438748032628
 10
6395.190769839501
 20
7060.703244768977
 10
6395.401568978243
 20
7060.949155109953
 10
6395.689175068877
 20
7061.167591215119
 10
6395.758623111541
 20
7061.209337386477
  0
LWPOLYLINE
  5
E2A4
330
DBF1
100
AcDbEntity
  8
0
  6
Continuous
 62
     7
370
    25
100
AcDbPolyline
 90
       21
 70
   128
 43
0.0
 10
6375.188986522942
 20
7074.094576916613
 10
6375.020330219135
 20
7073.838059503119
 10
6374.770628089044
 20
7073.604603802441
 10
6374.448905018246
 20
7073.402647511864
 10
6374.066788916758
 20
7073.239489857923
 10
6373.638090456083
 20
7073.121027783332
 10
6373.178303915553
 20
7073.05154281612
 10
6372.704047178705
 20
7073.03354632404
 10
6372.232461119672
 20
7073.067688747206
 10
6371.780590087333
 20
7073.15273608949
 10
6371.364765878135
 20
7073.28561451835
 10
6371.000017462418
 20
7073.461521461157
 10
6370.69952779827
 20
7073.674099182676
 10
6370.474157365069
 20
7073.915664570188
 10
6370.33205163747
 20
7074.177486821193
 10
6370.27834668672
 20
7074.45010299737
 10
6370.314983549667
 20
7074.723660039817
 10
6370.440638074627
 20
7074.988270884274
 10
6370.650768779678
 20
7075.234371805385
 10
6370.93778099365
 20
7075.453068074653
 10
6371.009885770011
 20
7075.496479343375
  0
ARC
  5
E2A5
330
DBF1
100
AcDbEntity
  8
0
  6
Continuous
 62
     7
370
    25
100
AcDbCircle
 10
6374.123524383514
 20
7074.454302934645
 30
0.0
 40
1.12454985598827
100
AcDbArc
 50
341.3440626285304
 51
67.93371401529915
  0
LWPOLYLINE
  5
E2A6
330
DBF1
100
AcDbEntity
  8
0
  6
Continuous
 62
     7
370
    25
100
AcDbPolyline
 90
       24
 70
   128
 43
0.0
 10
6362.375645559508
 20
7088.729398247519
 10
6362.098487522879
 20
7088.788891611768
 10
6361.862310301702
 20
7088.92864638229
 10
6361.675649956104
 20
7089.14361145755
 10
6361.545252877315
 20
7089.426017439642
 10
6361.475831955508
 20
7089.765657440573
 10
6361.469896243671
 20
7090.150255985784
 10
6361.527660273895
 20
7090.565912681791
 10
6361.647036303626
 20
7090.997604612617
 10
6361.823709772118
 20
7091.429729307119
 10
6362.051295239901
 20
7091.846668652947
 10
6362.321567175202
 20
7092.23335337582
 10
6362.624757246092
 20
7092.575807682355
 10
6362.949907373455
 20
7092.861654381658
 10
6363.285265784518
 20
7093.08056222925
 10
6363.618711752537
 20
7093.22461932516
 10
6363.938193671443
 20
7093.288619070605
 10
6364.232164632283
 20
7093.270248348033
 10
6364.489999758603
 20
7093.170171123226
 10
6364.70238021715
 20
7092.992004447834
 10
6364.861630024802
 20
7092.742187729716
 10
6364.961993478591
 20
7092.429749995955
 10
6364.999843181799
 20
7092.065983560298
 10
6365.000118925135
 20
7092.030088534324
  0
ARC
  5
E2A7
330
DBF1
100
AcDbEntity
  8
0
  6
Continuous
 62
     7
370
    25
100
AcDbCircle
 10
6362.395615293977
 20
7090.313807240713
 30
0.0
 40
1.584534836476265
100
AcDbArc
 50
269.2778878899578
 51
301.8870120608174
  0
ARC
  5
E2A8
330
DBF1
100
AcDbEntity
  8
0
  6
Continuous
 62
     7
370
    25
100
AcDbCircle
 10
6363.837011113752
 20
7080.335984847513
 30
0.0
 40
7.684024037860453
100
AcDbArc
 50
182.6054784856523
 51
237.3945216599671
  0
LINE
  5
E2A9
330
DBF1
100
AcDbEntity
  8
0
  6
Continuous
 62
     7
370
    25
100
AcDbLine
 10
6356.160930606914
 20
7079.98668058621
 30
0.0
 11
6356.160930606914
 21
7122.446802804269
 31
0.0
  0
LINE
  5
E2AA
330
DBF1
100
AcDbEntity
  8
0
  6
Continuous
 62
     7
370
    25
100
AcDbLine
 10
6357.928697559881
 20
7121.426292664491
 30
0.0
 11
6356.160930606914
 21
7122.446802804269
 31
0.0
  0
LINE
  5
E2AB
330
DBF1
100
AcDbEntity
  8
0
  6
Continuous
 62
     7
370
    25
100
AcDbLine
 10
6357.928697559881
 20
7121.426292664491
 30
0.0
 11
6357.928697559881
 21
7078.966170446432
 31
0.0
  0
ARC
  5
E2AC
330
DBF1
100
AcDbEntity
  8
0
  6
Continuous
 62
     7
370
    25
100
AcDbCircle
 10
6361.766737813299
 20
7079.140822577084
 30
0.0
 40
3.842012018930547
100
AcDbArc
 50
182.6054784856656
 51
237.3945216599708
  0
LINE
  5
E2AD
330
DBF1
100
AcDbEntity
  8
0
  6
Continuous
 62
     7
370
    25
100
AcDbLine
 10
6359.696464512846
 20
7075.904308276939
 30
0.0
 11
6396.466017134547
 21
7054.677697369549
 31
0.0
  0
LINE
  5
E2AE
330
DBF1
100
AcDbEntity
  8
0
  6
Continuous
 62
     7
370
    25
100
AcDbLine
 10
6396.466017134547
 20
7052.636345339834
 30
0.0
 11
6396.466017134547
 21
7054.677697369549
 31
0.0
  0
LINE
  5
E2AF
330
DBF1
100
AcDbEntity
  8
0
  6
Continuous
 62
     7
370
    25
100
AcDbLine
 10
6396.466017134547
 20
7052.636345339834
 30
0.0
 11
6359.696464512846
 21
7073.862956247225
 31
0.0
  0
LINE
  5
E2B0
330
DBF1
100
AcDbEntity
  8
0
  6
Continuous
 62
     7
370
    25
100
AcDbLine
 10
6368.888852668271
 20
7081.210961003787
 30
0.0
 11
6359.696464512846
 21
7075.904308276939
 31
0.0
  0
LINE
  5
E2B1
330
DBF1
100
AcDbEntity
  8
0
  6
Continuous
 62
     7
370
    25
100
AcDbLine
 10
6405.658405289973
 20
7057.535125760928
 30
0.0
 11
6405.658405289973
 21
7059.984350096396
 31
0.0
  0
LINE
  5
E2B2
330
DBF1
100
AcDbEntity
  8
0
  6
Continuous
 62
     7
370
    25
100
AcDbLine
 10
6405.658405289973
 20
7057.535125760928
 30
0.0
 11
6400.708657821666
 21
7054.677697369549
 31
0.0
  0
LINE
  5
E2B3
330
DBF1
100
AcDbEntity
  8
0
  6
Continuous
 62
     7
370
    25
100
AcDbLine
 10
6396.466017134547
 20
7054.677697369549
 30
0.0
 11
6400.708657821666
 21
7054.677697369549
 31
0.0
  0
LINE
  5
E2B4
330
DBF1
100
AcDbEntity
  8
0
  6
Continuous
 62
     7
370
    25
100
AcDbLine
 10
6368.888852668271
 20
7081.210961003787
 30
0.0
 11
6405.658405289973
 21
7059.984350096396
 31
0.0
  0
LINE
  5
E2B5
330
DBF1
100
AcDbEntity
  8
0
  6
Continuous
 62
     7
370
    25
100
AcDbLine
 10
6400.708657821666
 20
7054.677697369549
 30
0.0
 11
6400.708657821666
 21
7052.636345339834
 31
0.0
  0
LINE
  5
E2B6
330
DBF1
100
AcDbEntity
  8
0
  6
Continuous
 62
     7
370
    25
100
AcDbLine
 10
6400.708657821666
 20
7052.636345339834
 30
0.0
 11
6396.466017134547
 21
7052.636345339834
 31
0.0
  0
LINE
  5
E2B7
330
DBF1
100
AcDbEntity
  8
0
  6
Continuous
 62
     7
370
    25
100
AcDbLine
 10
6357.928697559881
 20
7078.966170446432
 30
0.0
 11
6367.121085715306
 21
7084.27282317328
 31
0.0
  0
LINE
  5
E2B8
330
DBF1
100
AcDbEntity
  8
0
  6
Continuous
 62
     7
370
    25
100
AcDbLine
 10
6360.05001790344
 20
7125.100527267882
 30
0.0
 11
6357.928697559881
 21
7121.426292664491
 31
0.0
  0
LINE
  5
E2B9
330
DBF1
100
AcDbEntity
  8
0
  6
Continuous
 62
     7
370
    25
100
AcDbLine
 10
6364.999765371746
 20
7127.957955659262
 30
0.0
 11
6360.05001790344
 21
7125.100527267882
 31
0.0
  0
LINE
  5
E2BA
330
DBF1
100
AcDbEntity
  8
0
  6
Continuous
 62
     7
370
    25
100
AcDbLine
 10
6367.121085715306
 20
7126.732945391339
 30
0.0
 11
6364.999765371746
 21
7127.957955659262
 31
0.0
  0
LINE
  5
E2BB
330
DBF1
100
AcDbEntity
  8
0
  6
Continuous
 62
     7
370
    25
100
AcDbLine
 10
6367.121085715306
 20
7126.732945391339
 30
0.0
 11
6367.121085715306
 21
7084.27282317328
 31
0.0
  0
LINE
  5
E2BC
330
DBF1
100
AcDbEntity
  8
0
  6
Continuous
 62
     7
370
    25
100
AcDbLine
 10
6358.282250950473
 20
7126.121037407661
 30
0.0
 11
6360.05001790344
 21
7125.100527267882
 31
0.0
  0
LINE
  5
E2BD
330
DBF1
100
AcDbEntity
  8
0
  6
Continuous
 62
     7
370
    25
100
AcDbLine
 10
6356.160930606914
 20
7122.446802804269
 30
0.0
 11
6358.282250950473
 21
7126.121037407661
 31
0.0
  0
LINE
  5
E2BE
330
DBF1
100
AcDbEntity
  8
0
  6
Continuous
 62
     7
370
    25
100
AcDbLine
 10
6405.658405289973
 20
7055.493773731214
 30
0.0
 11
6405.658405289973
 21
7057.535125760928
 31
0.0
  0
LINE
  5
E2BF
330
DBF1
100
AcDbEntity
  8
0
  6
Continuous
 62
     7
370
    25
100
AcDbLine
 10
6405.658405289973
 20
7055.493773731214
 30
0.0
 11
6400.708657821666
 21
7052.636345339834
 31
0.0
  0
LINE
  5
E2C0
330
DBF1
100
AcDbEntity
  8
0
  6
Continuous
 62
     7
370
    25
100
AcDbLine
 10
6364.999765371746
 20
7127.957955659262
 30
0.0
 11
6363.23199841878
 21
7128.97846579904
 31
0.0
  0
LINE
  5
E2C1
330
DBF1
100
AcDbEntity
  8
0
  6
Continuous
 62
     7
370
    25
100
AcDbLine
 10
6363.23199841878
 20
7128.97846579904
 30
0.0
 11
6358.282250950473
 21
7126.121037407661
 31
0.0
  0
ARC
  5
E2C2
330
DBF1
100
AcDbEntity
  8
0
  6
Continuous
 62
     7
370
    25
100
AcDbCircle
 10
6370.959125968724
 20
7084.447475303931
 30
0.0
 40
3.842012018929907
100
AcDbArc
 50
182.6054784856526
 51
237.3945216599822
  0
LWPOLYLINE
  5
E2C3
330
DBF1
100
AcDbEntity
  8
0
100
AcDbPolyline
 90
        4
 70
     1
 43
0.0
 10
6234.258418290687
 20
7379.895255529403
 10
6234.258418290688
 20
7231.972818738242
 10
6414.227273480488
 20
7231.972818738242
 10
6414.227273480488
 20
7379.895255529403
  0
TEXT
  5
E2C4
330
DBF1
100
AcDbEntity
  8
0
  6
Continuous
 62
     7
100
AcDbText
 10
6287.799124694997
 20
7362.901902848742
 30
0.0
 40
10.58333333333333
  1
P35EG40/6
 41
0.75
  7
SLDTEXTSTYLE0
100
AcDbText
  0
LWPOLYLINE
  5
E2C5
330
DBF1
100
AcDbEntity
  8
0
100
AcDbPolyline
 90
        4
 70
     1
 43
0.0
 10
6234.258418290688
 20
7231.972818738242
 10
6234.258418290688
 20
7026.394253887291
 10
6414.227273480488
 20
7026.394253887291
 10
6414.227273480488
 20
7231.972818738242
  0
TEXT
  5
E2C6
330
DBF1
100
AcDbEntity
  8
0
  6
Continuous
 62
     7
100
AcDbText
 10
6278.260148046183
 20
7214.979466057583
 30
0.0
 40
10.58333333333333
  1
P35EP22
 41
0.75
  7
SLDTEXTSTYLE0
100
AcDbText
  0
LWPOLYLINE
  5
E2C7
330
DBF1
100
AcDbEntity
  8
0
100
AcDbPolyline
 90
        4
 70
     1
 43
0.0
 10
6414.227273480488
 20
7379.895255529403
 10
6414.227273480489
 20
7231.972818738242
 10
6594.19612867029
 20
7231.972818738242
 10
6594.19612867029
 20
7379.895255529403
  0
TEXT
  5
E2C8
330
DBF1
100
AcDbEntity
  8
0
  6
Continuous
 62
     7
100
AcDbText
 10
6467.767979884798
 20
7362.901902848742
 30
0.0
 40
10.58333333333333
  1
P35EG42/6
 41
0.75
  7
SLDTEXTSTYLE0
100
AcDbText
  0
INSERT
  5
E2C9
330
DBF1
100
AcDbEntity
  8
0
100
AcDbBlockReference
  2
A$C17531
 10
6497.587049066754
 20
7290.212760771227
 30
0.0
  0
LINE
  5
E2CA
330
DBF1
100
AcDbEntity
  8
0
  6
Continuous
 62
     7
370
    25
100
AcDbLine
 10
6678.41353432239
 20
7309.712781912195
 30
0.0
 11
6677.79400593644
 21
7311.374766561202
 31
0.0
  0
LINE
  5
E2CB
330
DBF1
100
AcDbEntity
  8
0
  6
Continuous
 62
     7
370
    25
100
AcDbLine
 10
6678.974632307103
 20
7309.752070467513
 30
0.0
 11
6678.41353432239
 21
7309.712781912195
 31
0.0
  0
ARC
  5
E2CC
330
DBF1
100
AcDbEntity
  8
0
  6
Continuous
 62
     7
370
    25
100
AcDbCircle
 10
6679.01654219965
 20
7309.153535956473
 30
0.0
 40
0.6000000000001487
100
AcDbArc
 50
4.005361476409929
 51
94.00536147649657
  0
LINE
  5
E2CD
330
DBF1
100
AcDbEntity
  8
0
  6
Continuous
 62
     7
370
    25
100
AcDbLine
 10
6679.629046674872
 20
7308.995934345339
 30
0.0
 11
6679.61507671069
 21
7309.195445849019
 31
0.0
  0
ARC
  5
E2CE
330
DBF1
100
AcDbEntity
  8
0
  6
Continuous
 62
     7
370
    25
100
AcDbCircle
 10
6679.429535171192
 20
7308.981964381157
 30
0.0
 40
0.2000000000000125
100
AcDbArc
 50
274.0053614764905
 51
4.005361476490501
  0
LINE
  5
E2CF
330
DBF1
100
AcDbEntity
  8
0
  6
Continuous
 62
     7
370
    25
100
AcDbLine
 10
6678.777705887618
 20
7308.735833051191
 30
0.0
 11
6679.443505135374
 21
7308.782452877476
 31
0.0
  0
LINE
  5
E2D0
330
DBF1
100
AcDbEntity
  8
0
  6
Continuous
 62
     7
370
    25
100
AcDbLine
 10
6680.117573334956
 20
7305.099893109287
 30
0.0
 11
6678.777705887618
 21
7308.735833051191
 31
0.0
  0
ARC
  5
E2D1
330
DBF1
100
AcDbEntity
  8
0
  6
Continuous
 62
     7
370
    25
100
AcDbCircle
 10
6680.299165211856
 20
7305.18370474478
 30
0.0
 40
0.199999999999917
100
AcDbArc
 50
204.7751405689229
 51
270.0
  0
LINE
  5
E2D2
330
DBF1
100
AcDbEntity
  8
0
  6
Continuous
 62
     7
370
    25
100
AcDbLine
 10
6681.399942213612
 20
7304.98370474478
 30
0.0
 11
6680.299165211856
 21
7304.98370474478
 31
0.0
  0
ARC
  5
E2D3
330
DBF1
100
AcDbEntity
  8
0
  6
Continuous
 62
     7
370
    25
100
AcDbCircle
 10
6681.399942213612
 20
7305.18370474478
 30
0.0
 40
0.2000000000000313
100
AcDbArc
 50
270.0
 51
335.224859431077
  0
LINE
  5
E2D4
330
DBF1
100
AcDbEntity
  8
0
  6
Continuous
 62
     7
370
    25
100
AcDbLine
 10
6682.92140153785
 20
7308.735833051191
 30
0.0
 11
6681.581534090512
 21
7305.099893109287
 31
0.0
  0
LINE
  5
E2D5
330
DBF1
100
AcDbEntity
  8
0
  6
Continuous
 62
     7
370
    25
100
AcDbLine
 10
6682.255602290094
 20
7308.782452877476
 30
0.0
 11
6682.92140153785
 21
7308.735833051191
 31
0.0
  0
ARC
  5
E2D6
330
DBF1
100
AcDbEntity
  8
0
  6
Continuous
 62
     7
370
    25
100
AcDbCircle
 10
6682.269572254276
 20
7308.981964381157
 30
0.0
 40
0.2000000000001309
100
AcDbArc
 50
175.9946385235095
 51
265.9946385235095
  0
LINE
  5
E2D7
330
DBF1
100
AcDbEntity
  8
0
  6
Continuous
 62
     7
370
    25
100
AcDbLine
 10
6682.084030714777
 20
7309.195445849019
 30
0.0
 11
6682.070060750595
 21
7308.995934345339
 31
0.0
  0
ARC
  5
E2D8
330
DBF1
100
AcDbEntity
  8
0
  6
Continuous
 62
     7
370
    25
100
AcDbCircle
 10
6682.682565225819
 20
7309.153535956473
 30
0.0
 40
0.6000000000000172
100
AcDbArc
 50
85.99463852359008
 51
175.9946385235901
  0
LINE
  5
E2D9
330
DBF1
100
AcDbEntity
  8
0
  6
Continuous
 62
     7
370
    25
100
AcDbLine
 10
6683.285573103078
 20
7309.712781912195
 30
0.0
 11
6682.724475118364
 21
7309.752070467513
 31
0.0
  0
LINE
  5
E2DA
330
DBF1
100
AcDbEntity
  8
0
  6
Continuous
 62
     7
370
    25
100
AcDbLine
 10
6683.905101489028
 20
7311.374766561202
 30
0.0
 11
6683.285573103078
 21
7309.712781912195
 31
0.0
  0
ARC
  5
E2DB
330
DBF1
100
AcDbEntity
  8
0
  6
Continuous
 62
     7
370
    25
100
AcDbCircle
 10
6684.265015576389
 20
7311.200233327349
 30
0.0
 40
0.4000000000000919
100
AcDbArc
 50
85.99463852363037
 51
154.1298495010612
  0
LINE
  5
E2DC
330
DBF1
100
AcDbEntity
  8
0
  6
Continuous
 62
     7
370
    25
100
AcDbLine
 10
6684.72026467628
 20
7311.569335785213
 30
0.0
 11
6684.292955504753
 21
7311.59925633471
 31
0.0
  0
ARC
  5
E2DD
330
DBF1
100
AcDbEntity
  8
0
  6
Continuous
 62
     7
370
    25
100
AcDbCircle
 10
6684.692324747916
 20
7311.170312777853
 30
0.0
 40
0.3999999999999915
100
AcDbArc
 50
334.3680198667636
 51
85.99463852363037
  0
LINE
  5
E2DE
330
DBF1
100
AcDbEntity
  8
0
  6
Continuous
 62
     7
370
    25
100
AcDbLine
 10
6682.886369958934
 20
7305.063473278213
 30
0.0
 11
6685.052961233337
 21
7310.997277159026
 31
0.0
  0
ARC
  5
E2DF
330
DBF1
100
AcDbEntity
  8
0
  6
Continuous
 62
     7
370
    25
100
AcDbCircle
 10
6683.249553712734
 20
7304.895850007229
 30
0.0
 40
0.3999999999999572
100
AcDbArc
 50
155.22485943125
 51
180.0
  0
LINE
  5
E2E0
330
DBF1
100
AcDbEntity
  8
0
  6
Continuous
 62
     7
370
    25
100
AcDbLine
 10
6682.849553712734
 20
7304.18370474478
 30
0.0
 11
6682.849553712734
 21
7304.895850007229
 31
0.0
  0
ARC
  5
E2E1
330
DBF1
100
AcDbEntity
  8
0
  6
Continuous
 62
     7
370
    25
100
AcDbCircle
 10
6682.649553712734
 20
7304.18370474478
 30
0.0
 40
0.2000000000000739
100
AcDbArc
 50
270.0
 51
0.0
  0
LINE
  5
E2E2
330
DBF1
100
AcDbEntity
  8
0
  6
Continuous
 62
     7
370
    25
100
AcDbLine
 10
6679.049553712734
 20
7303.98370474478
 30
0.0
 11
6682.649553712734
 21
7303.98370474478
 31
0.0
  0
ARC
  5
E2E3
330
DBF1
100
AcDbEntity
  8
0
  6
Continuous
 62
     7
370
    25
100
AcDbCircle
 10
6679.049553712734
 20
7304.18370474478
 30
0.0
 40
0.1999999999999886
100
AcDbArc
 50
180.0
 51
270.0
  0
LINE
  5
E2E4
330
DBF1
100
AcDbEntity
  8
0
  6
Continuous
 62
     7
370
    25
100
AcDbLine
 10
6678.849553712734
 20
7304.895850007229
 30
0.0
 11
6678.849553712734
 21
7304.18370474478
 31
0.0
  0
ARC
  5
E2E5
330
DBF1
100
AcDbEntity
  8
0
  6
Continuous
 62
     7
370
    25
100
AcDbCircle
 10
6678.449553712734
 20
7304.895850007229
 30
0.0
 40
0.4000000000000098
100
AcDbArc
 50
0.0
 51
24.77514056875003
  0
LINE
  5
E2E6
330
DBF1
100
AcDbEntity
  8
0
  6
Continuous
 62
     7
370
    25
100
AcDbLine
 10
6676.646146192131
 20
7310.997277159026
 30
0.0
 11
6678.812737466534
 21
7305.063473278213
 31
0.0
  0
ARC
  5
E2E7
330
DBF1
100
AcDbEntity
  8
0
  6
Continuous
 62
     7
370
    25
100
AcDbCircle
 10
6677.006782677551
 20
7311.170312777853
 30
0.0
 40
0.4000000000000346
100
AcDbArc
 50
94.00536147636966
 51
205.6319801332364
  0
LINE
  5
E2E8
330
DBF1
100
AcDbEntity
  8
0
  6
Continuous
 62
     7
370
    25
100
AcDbLine
 10
6677.406151920714
 20
7311.59925633471
 30
0.0
 11
6676.978842749188
 21
7311.569335785213
 31
0.0
  0
ARC
  5
E2E9
330
DBF1
100
AcDbEntity
  8
0
  6
Continuous
 62
     7
370
    25
100
AcDbCircle
 10
6677.434091849079
 20
7311.200233327349
 30
0.0
 40
0.4000000000002021
100
AcDbArc
 50
25.87015049905606
 51
94.00536147649962
  0
LWPOLYLINE
  5
E2EA
330
DBF1
100
AcDbEntity
  8
0
100
AcDbPolyline
 90
        4
 70
     1
 43
0.0
 10
6594.19612867029
 20
7379.895255529403
 10
6594.196128670291
 20
7231.972818738242
 10
6774.164983860092
 20
7231.972818738242
 10
6774.164983860092
 20
7379.895255529403
  0
TEXT
  5
E2EB
330
DBF1
100
AcDbEntity
  8
0
  6
Continuous
 62
     7
100
AcDbText
 10
6647.7368350746
 20
7362.901902848742
 30
0.0
 40
10.58333333333333
  1
JDAUV40
 41
0.75
  7
SLDTEXTSTYLE0
100
AcDbText
  0
ARC
  5
E2EC
330
DBF1
100
AcDbEntity
  8
0
  6
Continuous
 62
     7
370
    25
100
AcDbCircle
 10
6485.529496065002
 20
7135.89459767144
 30
0.0
 40
3.000000000000629
100
AcDbArc
 50
94.87961523002402
 51
127.2129545098213
  0
ARC
  5
E2ED
330
DBF1
100
AcDbEntity
  8
0
  6
Continuous
 62
     7
370
    25
100
AcDbCircle
 10
6497.012925014178
 20
7001.383888582649
 30
0.0
 40
138.0000000000004
100
AcDbArc
 50
86.13510051840223
 51
94.87961523000428
  0
ARC
  5
E2EE
330
DBF1
100
AcDbEntity
  8
0
  6
Continuous
 62
     7
370
    25
100
AcDbCircle
 10
6506.112475406648
 20
7136.076866063493
 30
0.0
 40
2.999999999999909
100
AcDbArc
 50
60.00000000001342
 51
86.13510051842196
  0
LINE
  5
E2EF
330
DBF1
100
AcDbEntity
  8
0
  6
Continuous
 62
     7
370
    25
100
AcDbLine
 10
6510.512925014179
 20
7137.000366913167
 30
0.0
 11
6507.612475406647
 21
7138.674942274846
 31
0.0
  0
ARC
  5
E2F0
330
DBF1
100
AcDbEntity
  8
0
  6
Continuous
 62
     7
370
    25
100
AcDbCircle
 10
6509.012925014178
 20
7134.402290701814
 30
0.0
 40
3.000000000000369
100
AcDbArc
 50
0.0
 51
59.99999999998333
  0
LINE
  5
E2F1
330
DBF1
100
AcDbEntity
  8
0
  6
Continuous
 62
     7
370
    25
100
AcDbLine
 10
6512.012925014178
 20
7134.402290701814
 30
0.0
 11
6512.012925014178
 21
7131.38388858265
 31
0.0
  0
ARC
  5
E2F2
330
DBF1
100
AcDbEntity
  8
0
  6
Continuous
 62
     7
370
    25
100
AcDbCircle
 10
6510.012925014178
 20
7131.38388858265
 30
0.0
 40
2.000000000000448
100
AcDbArc
 50
270.0
 51
0.0
  0
LINE
  5
E2F3
330
DBF1
100
AcDbEntity
  8
0
  6
Continuous
 62
     7
370
    25
100
AcDbLine
 10
6510.012925014178
 20
7129.38388858265
 30
0.0
 11
6475.012925014178
 21
7129.38388858265
 31
0.0
  0
ARC
  5
E2F4
330
DBF1
100
AcDbEntity
  8
0
  6
Continuous
 62
     7
370
    25
100
AcDbCircle
 10
6475.012925014179
 20
7132.38388858265
 30
0.0
 40
3.000000000001222
100
AcDbArc
 50
180.0
 51
269.9999999999826
  0
LINE
  5
E2F5
330
DBF1
100
AcDbEntity
  8
0
  6
Continuous
 62
     7
370
    25
100
AcDbLine
 10
6472.012925014177
 20
7132.38388858265
 30
0.0
 11
6472.012925014177
 21
7167.38388858265
 31
0.0
  0
ARC
  5
E2F6
330
DBF1
100
AcDbEntity
  8
0
  6
Continuous
 62
     7
370
    25
100
AcDbCircle
 10
6474.012925014178
 20
7167.38388858265
 30
0.0
 40
2.000000000000888
100
AcDbArc
 50
90.0
 51
180.0
  0
LINE
  5
E2F7
330
DBF1
100
AcDbEntity
  8
0
  6
Continuous
 62
     7
370
    25
100
AcDbLine
 10
6474.012925014178
 20
7169.38388858265
 30
0.0
 11
6477.031327133343
 21
7169.38388858265
 31
0.0
  0
ARC
  5
E2F8
330
DBF1
100
AcDbEntity
  8
0
  6
Continuous
 62
     7
370
    25
100
AcDbCircle
 10
6477.031327133342
 20
7166.38388858265
 30
0.0
 40
2.999999999999927
100
AcDbArc
 50
30.00000000000163
 51
89.99999999996527
  0
LINE
  5
E2F9
330
DBF1
100
AcDbEntity
  8
0
  6
Continuous
 62
     7
370
    25
100
AcDbLine
 10
6481.303978706374
 20
7164.98343897512
 30
0.0
 11
6479.629403344695
 21
7167.88388858265
 31
0.0
  0
ARC
  5
E2FA
330
DBF1
100
AcDbEntity
  8
0
  6
Continuous
 62
     7
370
    25
100
AcDbCircle
 10
6478.70590249502
 20
7163.483438975119
 30
0.0
 40
3.000000000000028
100
AcDbArc
 50
3.864899481612698
 51
30.00000000000163
  0
ARC
  5
E2FB
330
DBF1
100
AcDbEntity
  8
0
  6
Continuous
 62
     7
370
    25
100
AcDbCircle
 10
6344.012925014178
 20
7154.38388858265
 30
0.0
 40
138.0
100
AcDbArc
 50
355.1203847699969
 51
3.864899481598549
  0
ARC
  5
E2FC
330
DBF1
100
AcDbEntity
  8
0
  6
Continuous
 62
     7
370
    25
100
AcDbCircle
 10
6478.523634102969
 20
7142.900459633473
 30
0.0
 40
2.999999999999994
100
AcDbArc
 50
322.7870454901681
 51
355.1203847699919
  0
ARC
  5
E2FD
330
DBF1
100
AcDbEntity
  8
0
  6
Continuous
 62
     7
370
    25
100
AcDbCircle
 10
6482.505600095477
 20
7139.876563663949
 30
0.0
 40
2.000000000000603
100
AcDbArc
 50
142.7870454902273
 51
307.2129545097934
  0
LINE
  5
E2FE
330
DBF1
100
AcDbEntity
  8
0
  6
Continuous
 62
     7
370
    25
100
AcDbLine
 10
6534.964270182901
 20
7167.38388858265
 30
0.0
 11
6537.464270182901
 21
7167.38388858265
 31
0.0
  0
LINE
  5
E2FF
330
DBF1
100
AcDbEntity
  8
0
  6
Continuous
 62
     7
370
    25
100
AcDbLine
 10
6534.964270182901
 20
7167.38388858265
 30
0.0
 11
6534.964270182901
 21
7169.38388858265
 31
0.0
  0
LINE
  5
E300
330
DBF1
100
AcDbEntity
  8
0
  6
Continuous
 62
     7
370
    25
100
AcDbLine
 10
6534.964270182901
 20
7169.38388858265
 30
0.0
 11
6537.464270182901
 21
7169.38388858265
 31
0.0
  0
LINE
  5
E301
330
DBF1
100
AcDbEntity
  8
0
  6
Continuous
 62
     7
370
    25
100
AcDbLine
 10
6537.464270182901
 20
7167.38388858265
 30
0.0
 11
6537.464270182901
 21
7169.38388858265
 31
0.0
  0
LINE
  5
E302
330
DBF1
100
AcDbEntity
  8
0
  6
Continuous
 62
     7
370
    25
100
AcDbLine
 10
6534.964270182901
 20
7132.38388858265
 30
0.0
 11
6537.464270182901
 21
7132.38388858265
 31
0.0
  0
LINE
  5
E303
330
DBF1
100
AcDbEntity
  8
0
  6
Continuous
 62
     7
370
    25
100
AcDbLine
 10
6534.964270182901
 20
7132.38388858265
 30
0.0
 11
6534.964270182901
 21
7167.38388858265
 31
0.0
  0
LINE
  5
E304
330
DBF1
100
AcDbEntity
  8
0
  6
Continuous
 62
     7
370
    25
100
AcDbLine
 10
6537.464270182901
 20
7132.38388858265
 30
0.0
 11
6537.464270182901
 21
7167.38388858265
 31
0.0
  0
LINE
  5
E305
330
DBF1
100
AcDbEntity
  8
0
  6
Continuous
 62
     7
370
    25
100
AcDbLine
 10
6534.964270182901
 20
7129.38388858265
 30
0.0
 11
6537.464270182901
 21
7129.38388858265
 31
0.0
  0
LINE
  5
E306
330
DBF1
100
AcDbEntity
  8
0
  6
Continuous
 62
     7
370
    25
100
AcDbLine
 10
6534.964270182901
 20
7129.38388858265
 30
0.0
 11
6534.964270182901
 21
7132.38388858265
 31
0.0
  0
LINE
  5
E307
330
DBF1
100
AcDbEntity
  8
0
  6
Continuous
 62
     7
370
    25
100
AcDbLine
 10
6537.464270182901
 20
7129.38388858265
 30
0.0
 11
6537.464270182901
 21
7132.38388858265
 31
0.0
  0
LINE
  5
E308
330
DBF1
100
AcDbEntity
  8
0
  6
Continuous
 62
     7
370
    25
100
AcDbLine
 10
6553.699899357981
 20
7072.44457809937
 30
0.0
 11
6555.467666310948
 21
7073.465088239149
 31
0.0
  0
LINE
  5
E309
330
DBF1
100
AcDbEntity
  8
0
  6
Continuous
 62
     7
370
    25
100
AcDbLine
 10
6528.011984722959
 20
7121.020098929368
 30
0.0
 11
6526.244217769993
 21
7119.999588789589
 31
0.0
  0
ARC
  5
E30A
330
DBF1
100
AcDbEntity
  8
0
  6
Continuous
 62
     7
370
    25
100
AcDbCircle
 10
6534.465194169782
 20
7089.037857269373
 30
0.0
 40
1.550223575542655
100
AcDbArc
 50
61.40573594922908
 51
103.4486952473625
  0
ARC
  5
E30B
330
DBF1
100
AcDbEntity
  8
0
  6
Continuous
 62
     7
370
    25
100
AcDbCircle
 10
6479.421889425582
 20
6974.686437258814
 30
0.0
 40
128.4577416732442
100
AcDbArc
 50
56.62696019147234
 51
64.26119539285527
  0
ARC
  5
E30C
330
DBF1
100
AcDbEntity
  8
0
  6
Continuous
 62
     7
370
    25
100
AcDbCircle
 10
6547.820030681326
 20
7078.603791636101
 30
0.0
 40
4.050904666372824
100
AcDbArc
 50
38.21956479798365
 51
56.00573092452036
  0
LINE
  5
E30D
330
DBF1
100
AcDbEntity
  8
0
  6
Continuous
 62
     7
370
    25
100
AcDbLine
 10
6553.053534015939
 20
7078.558657572115
 30
0.0
 11
6551.002606429963
 21
7081.109991991265
 31
0.0
  0
ARC
  5
E30E
330
DBF1
100
AcDbEntity
  8
0
  6
Continuous
 62
     7
370
    25
100
AcDbCircle
 10
6549.507108904892
 20
7075.610052813522
 30
0.0
 40
4.612092918692995
100
AcDbArc
 50
2.670203001073457
 51
39.7411567391858
  0
LINE
  5
E30F
330
DBF1
100
AcDbEntity
  8
0
  6
Continuous
 62
     7
370
    25
100
AcDbLine
 10
6554.114194187718
 20
7075.82491622929
 30
0.0
 11
6554.114194187718
 21
7073.360267712309
 31
0.0
  0
ARC
  5
E310
330
DBF1
100
AcDbEntity
  8
0
  6
Continuous
 62
     7
370
    25
100
AcDbCircle
 10
6553.248084407458
 20
7073.227272564036
 30
0.0
 40
0.8762612971745224
100
AcDbArc
 50
231.2809082946072
 51
8.729843460155742
  0
LINE
  5
E311
330
DBF1
100
AcDbEntity
  8
0
  6
Continuous
 62
     7
370
    25
100
AcDbLine
 10
6552.699980625345
 20
7072.543594200361
 30
0.0
 11
6527.951243283816
 21
7086.830736157258
 31
0.0
  0
ARC
  5
E312
330
DBF1
100
AcDbEntity
  8
0
  6
Continuous
 62
     7
370
    25
100
AcDbCircle
 10
6530.422685637929
 20
7090.707113809069
 30
0.0
 40
4.597209045623838
100
AcDbArc
 50
182.5201549070562
 51
237.4798452385721
  0
LINE
  5
E313
330
DBF1
100
AcDbEntity
  8
0
  6
Continuous
 62
     7
370
    25
100
AcDbLine
 10
6525.829922940256
 20
7090.504970760649
 30
0.0
 11
6525.829922940256
 21
7119.08389917665
 31
0.0
  0
ARC
  5
E314
330
DBF1
100
AcDbEntity
  8
0
  6
Continuous
 62
     7
370
    25
100
AcDbCircle
 10
6526.696032720515
 20
7119.216894324924
 30
0.0
 40
0.8762612971741615
100
AcDbArc
 50
51.2809082945236
 51
188.7298434602145
  0
LINE
  5
E315
330
DBF1
100
AcDbEntity
  8
0
  6
Continuous
 62
     7
370
    25
100
AcDbLine
 10
6527.244136502629
 20
7119.900572688599
 30
0.0
 11
6529.378469109439
 21
7118.668448701184
 31
0.0
  0
ARC
  5
E316
330
DBF1
100
AcDbEntity
  8
0
  6
Continuous
 62
     7
370
    25
100
AcDbCircle
 10
6526.914715532273
 20
7114.806849183374
 30
0.0
 40
4.580614863198023
100
AcDbArc
 50
20.12757854179807
 51
57.4615646547088
  0
LINE
  5
E317
330
DBF1
100
AcDbEntity
  8
0
  6
Continuous
 62
     7
370
    25
100
AcDbLine
 10
6532.399690010376
 20
7113.331188304383
 30
0.0
 11
6531.215586416525
 21
7116.383092236315
 31
0.0
  0
ARC
  5
E318
330
DBF1
100
AcDbEntity
  8
0
  6
Continuous
 62
     7
370
    25
100
AcDbCircle
 10
6528.637375976002
 20
7111.827860734624
 30
0.0
 40
4.051542999308913
100
AcDbArc
 50
3.996139541933609
 51
21.78042675957848
  0
ARC
  5
E319
330
DBF1
100
AcDbEntity
  8
0
  6
Continuous
 62
     7
370
    25
100
AcDbCircle
 10
6404.778682358382
 20
7104.542731321673
 30
0.0
 40
128.1240630968757
100
AcDbArc
 50
355.7312948667484
 51
3.386070166914562
  0
ARC
  5
E31A
330
DBF1
100
AcDbEntity
  8
0
  6
Continuous
 62
     7
370
    25
100
AcDbCircle
 10
6530.997163907721
 20
7095.043894430097
 30
0.0
 40
1.550622085074632
100
AcDbArc
 50
316.5617204533948
 51
358.5973553522577
  0
LWPOLYLINE
  5
E31B
330
DBF1
100
AcDbEntity
  8
0
  6
Continuous
 62
     7
370
    25
100
AcDbPolyline
 90
       21
 70
   128
 43
0.0
 10
6532.123094580727
 20
7093.977728884645
 10
6532.012365793325
 20
7093.845523207285
 10
6531.927061907127
 20
7093.682371265542
 10
6531.868936232476
 20
7093.491626435212
 10
6531.839183466956
 20
7093.277209227997
 10
6531.838415139935
 20
7093.043526710492
 10
6531.866647043374
 20
7092.795381922671
 10
6531.923298907244
 20
7092.537875157647
 10
6532.007206326228
 20
7092.276299131789
 10
6532.116644692545
 20
7092.016030199824
 10
6532.249364643029
 20
7091.762417850868
 10
6532.402638291854
 20
7091.520674756637
 10
6532.573315298676
 20
7091.295769631765
 10
6532.757887619786
 20
7091.092325108345
 10
6532.952561611372
 20
7090.914522723739
 10
6533.153336002938
 20
7090.766016974524
 10
6533.356084138204
 20
7090.649860203072
 10
6533.556638793159
 20
7090.568439860624
 10
6533.750877827924
 20
7090.523429436338
 10
6533.934808911974
 20
7090.515754060894
 10
6534.10465158129
 20
7090.545571491648
  0
LINE
  5
E31C
330
DBF1
100
AcDbEntity
  8
0
  6
Continuous
 62
     7
370
    25
100
AcDbLine
 10
6553.053534015939
 20
7078.558657572115
 30
0.0
 11
6554.821300968904
 21
7079.579167711894
 31
0.0
  0
LINE
  5
E31D
330
DBF1
100
AcDbEntity
  8
0
  6
Continuous
 62
     7
370
    25
100
AcDbLine
 10
6552.770373382929
 20
7082.130502131044
 30
0.0
 11
6551.002606429963
 21
7081.109991991265
 31
0.0
  0
LINE
  5
E31E
330
DBF1
100
AcDbEntity
  8
0
  6
Continuous
 62
     7
370
    25
100
AcDbLine
 10
6554.821300968904
 20
7079.579167711894
 30
0.0
 11
6552.770373382929
 21
7082.130502131044
 31
0.0
  0
LINE
  5
E31F
330
DBF1
100
AcDbEntity
  8
0
  6
Continuous
 62
     7
370
    25
100
AcDbLine
 10
6532.983353369492
 20
7117.403602376094
 30
0.0
 11
6531.215586416525
 21
7116.383092236315
 31
0.0
  0
LINE
  5
E320
330
DBF1
100
AcDbEntity
  8
0
  6
Continuous
 62
     7
370
    25
100
AcDbLine
 10
6532.399690010376
 20
7113.331188304383
 30
0.0
 11
6534.167456963342
 21
7114.351698444161
 31
0.0
  0
LINE
  5
E321
330
DBF1
100
AcDbEntity
  8
0
  6
Continuous
 62
     7
370
    25
100
AcDbLine
 10
6534.167456963342
 20
7114.351698444161
 30
0.0
 11
6532.983353369492
 21
7117.403602376094
 31
0.0
  0
LINE
  5
E322
330
DBF1
100
AcDbEntity
  8
0
  6
Continuous
 62
     7
370
    25
100
AcDbLine
 10
6555.881961140684
 20
7076.845426369068
 30
0.0
 11
6554.114194187718
 21
7075.82491622929
 31
0.0
  0
ARC
  5
E323
330
DBF1
100
AcDbEntity
  8
0
  6
Continuous
 62
     7
370
    25
100
AcDbCircle
 10
6551.305454437043
 20
7076.642427090022
 30
0.0
 40
4.581006692394085
100
AcDbArc
 50
2.539793684092128
 51
39.871566056174
  0
LINE
  5
E324
330
DBF1
100
AcDbEntity
  8
0
  6
Continuous
 62
     7
370
    25
100
AcDbLine
 10
6529.378469109439
 20
7118.668448701184
 30
0.0
 11
6531.146236062405
 21
7119.688958840963
 31
0.0
  0
ARC
  5
E325
330
DBF1
100
AcDbEntity
  8
0
  6
Continuous
 62
     7
370
    25
100
AcDbCircle
 10
6528.656904970398
 20
7115.806798462773
 30
0.0
 40
4.611717520363031
100
AcDbArc
 50
20.25807568569057
 51
57.33106751083665
  0
LINE
  5
E326
330
DBF1
100
AcDbEntity
  8
0
  6
Continuous
 62
     7
370
    25
100
AcDbLine
 10
6550.084931897922
 20
7081.962370367514
 30
0.0
 11
6551.852698850889
 21
7082.982880507292
 31
0.0
  0
ARC
  5
E327
330
DBF1
100
AcDbEntity
  8
0
  6
Continuous
 62
     7
370
    25
100
AcDbCircle
 10
6549.587797634295
 20
7079.624301775882
 30
0.0
 40
4.050904666368857
100
AcDbArc
 50
38.21956479798516
 51
56.00573092452012
  0
LINE
  5
E328
330
DBF1
100
AcDbEntity
  8
0
  6
Continuous
 62
     7
370
    25
100
AcDbLine
 10
6534.446835606363
 20
7113.130719907925
 30
0.0
 11
6532.679068653398
 21
7112.110209768147
 31
0.0
  0
ARC
  5
E329
330
DBF1
100
AcDbEntity
  8
0
  6
Continuous
 62
     7
370
    25
100
AcDbCircle
 10
6530.405142928994
 20
7112.848370874409
 30
0.0
 40
4.051542999282444
100
AcDbArc
 50
3.996139541856062
 51
21.78042675963327
  0
LINE
  5
E32A
330
DBF1
100
AcDbEntity
  8
0
  6
Continuous
 62
     7
370
    25
100
AcDbLine
 10
6555.881961140684
 20
7074.380777852088
 30
0.0
 11
6554.114194187718
 21
7073.360267712309
 31
0.0
  0
LINE
  5
E32B
330
DBF1
100
AcDbEntity
  8
0
  6
Continuous
 62
     7
370
    25
100
AcDbLine
 10
6555.881961140684
 20
7076.845426369068
 30
0.0
 11
6555.881961140684
 21
7074.380777852088
 31
0.0
  0
LINE
  5
E32C
330
DBF1
100
AcDbEntity
  8
0
  6
Continuous
 62
     7
370
    25
100
AcDbLine
 10
6529.011903455596
 20
7120.921082828378
 30
0.0
 11
6527.244136502629
 21
7119.900572688599
 31
0.0
  0
LINE
  5
E32D
330
DBF1
100
AcDbEntity
  8
0
  6
Continuous
 62
     7
370
    25
100
AcDbLine
 10
6529.011903455596
 20
7120.921082828378
 30
0.0
 11
6531.146236062405
 21
7119.688958840963
 31
0.0
  0
LINE
  5
E32E
330
DBF1
100
AcDbEntity
  8
0
  6
Continuous
 62
     7
370
    25
100
AcDbLine
 10
6536.974904264288
 20
7091.419511600224
 30
0.0
 11
6535.207137311322
 21
7090.399001460445
 31
0.0
  0
ARC
  5
E32F
330
DBF1
100
AcDbEntity
  8
0
  6
Continuous
 62
     7
370
    25
100
AcDbCircle
 10
6481.189656378545
 20
6975.706947398586
 30
0.0
 40
128.457741673252
100
AcDbArc
 50
56.6269601914722
 51
64.26119539285558
  0
LINE
  5
E330
330
DBF1
100
AcDbEntity
  8
0
  6
Continuous
 62
     7
370
    25
100
AcDbLine
 10
6532.547321365914
 20
7095.005937803152
 30
0.0
 11
6534.31508831888
 21
7096.026447942931
 31
0.0
  0
ARC
  5
E331
330
DBF1
100
AcDbEntity
  8
0
  6
Continuous
 62
     7
370
    25
100
AcDbCircle
 10
6406.546449311439
 20
7105.563241461453
 30
0.0
 40
128.124063096785
100
AcDbArc
 50
355.731294866745
 51
3.386070166916128
  0
ARC
  5
E332
330
DBF1
100
AcDbEntity
  8
0
  6
Continuous
 62
     7
370
    25
100
AcDbCircle
 10
6554.890407007226
 20
7074.277830210915
 30
0.0
 40
0.9968840536402901
100
AcDbArc
 50
305.384710626787
 51
5.927469766571577
  0
ARC
  5
E333
330
DBF1
100
AcDbEntity
  8
0
  6
Continuous
 62
     7
370
    25
100
AcDbCircle
 10
6528.42711476266
 20
7120.11393795159
 30
0.0
 40
0.996724970846503
100
AcDbArc
 50
54.07610109466436
 51
114.6134404761902
  0
LINE
  5
E334
330
DBF1
100
AcDbEntity
  8
0
  6
Continuous
 62
     7
370
    25
100
AcDbLine
 10
6534.10465158129
 20
7090.545571491648
 30
0.0
 11
6535.872418534257
 21
7091.566081631427
 31
0.0
  0
LINE
  5
E335
330
DBF1
100
AcDbEntity
  8
0
  6
Continuous
 62
     7
370
    25
100
AcDbLine
 10
6533.890861533693
 20
7094.998239024424
 30
0.0
 11
6532.123094580727
 21
7093.977728884645
 31
0.0
  0
LWPOLYLINE
  5
E336
330
DBF1
100
AcDbEntity
  8
0
  6
Continuous
 62
     7
370
    25
100
AcDbPolyline
 90
       21
 70
   128
 43
0.0
 10
6535.872418534257
 20
7091.566081631427
 10
6535.70257586494
 20
7091.536264200674
 10
6535.51864478089
 20
7091.543939576117
 10
6535.324405746124
 20
7091.588950000404
 10
6535.12385109117
 20
7091.670370342852
 10
6534.921102955904
 20
7091.786527114304
 10
6534.720328564338
 20
7091.935032863518
 10
6534.525654572752
 20
7092.112835248124
 10
6534.341082251643
 20
7092.316279771544
 10
6534.170405244819
 20
7092.541184896416
 10
6534.017131595996
 20
7092.782927990647
 10
6533.884411645512
 20
7093.036540339603
 10
6533.774973279194
 20
7093.296809271567
 10
6533.69106586021
 20
7093.558385297426
 10
6533.634413996339
 20
7093.815892062451
 10
6533.606182092902
 20
7094.064036850272
 10
6533.606950419923
 20
7094.297719367775
 10
6533.636703185442
 20
7094.512136574991
 10
6533.694828860092
 20
7094.702881405321
 10
6533.78013274629
 20
7094.866033347063
 10
6533.890861533693
 20
7094.998239024424
  0
ARC
  5
E337
330
DBF1
100
AcDbEntity
  8
0
  6
Continuous
 62
     7
370
    25
100
AcDbCircle
 10
6536.232961122751
 20
7090.058367409163
 30
0.0
 40
1.550223575531425
100
AcDbArc
 50
61.40573594910848
 51
103.4486952475296
  0
ARC
  5
E338
330
DBF1
100
AcDbEntity
  8
0
  6
Continuous
 62
     7
370
    25
100
AcDbCircle
 10
6532.764930860681
 20
7096.064404569877
 30
0.0
 40
1.550622085081238
100
AcDbArc
 50
316.5617204535309
 51
358.5973553521962
  0
LINE
  5
E339
330
DBF1
100
AcDbEntity
  8
0
  6
Continuous
 62
     7
370
    25
100
AcDbLine
 10
6482.012925014177
 20
7111.494771000792
 30
0.0
 11
6482.012925014177
 21
7113.994771000792
 31
0.0
  0
LINE
  5
E33A
330
DBF1
100
AcDbEntity
  8
0
  6
Continuous
 62
     7
370
    25
100
AcDbLine
 10
6477.031327133343
 20
7111.494771000792
 30
0.0
 11
6477.031327133343
 21
7113.994771000792
 31
0.0
  0
LINE
  5
E33B
330
DBF1
100
AcDbEntity
  8
0
  6
Continuous
 62
     7
370
    25
100
AcDbLine
 10
6477.031327133343
 20
7113.994771000792
 30
0.0
 11
6479.629403344696
 21
7113.994771000792
 31
0.0
  0
LINE
  5
E33C
330
DBF1
100
AcDbEntity
  8
0
  6
Continuous
 62
     7
370
    25
100
AcDbLine
 10
6479.629403344696
 20
7113.994771000792
 30
0.0
 11
6479.629403344695
 21
7111.494771000792
 31
0.0
  0
LINE
  5
E33D
330
DBF1
100
AcDbEntity
  8
0
  6
Continuous
 62
     7
370
    25
100
AcDbLine
 10
6479.629403344695
 20
7111.494771000792
 30
0.0
 11
6477.031327133343
 21
7111.494771000792
 31
0.0
  0
LINE
  5
E33E
330
DBF1
100
AcDbEntity
  8
0
  6
Continuous
 62
     7
370
    25
100
AcDbLine
 10
6474.012925014179
 20
7113.994771000792
 30
0.0
 11
6474.012925014178
 21
7111.494771000792
 31
0.0
  0
LINE
  5
E33F
330
DBF1
100
AcDbEntity
  8
0
  6
Continuous
 62
     7
370
    25
100
AcDbLine
 10
6474.012925014179
 20
7113.994771000792
 30
0.0
 11
6477.031327133343
 21
7113.994771000792
 31
0.0
  0
LINE
  5
E340
330
DBF1
100
AcDbEntity
  8
0
  6
Continuous
 62
     7
370
    25
100
AcDbLine
 10
6474.012925014178
 20
7111.494771000792
 30
0.0
 11
6477.031327133343
 21
7111.494771000792
 31
0.0
  0
LINE
  5
E341
330
DBF1
100
AcDbEntity
  8
0
  6
Continuous
 62
     7
370
    25
100
AcDbLine
 10
6472.012925014177
 20
7113.994771000792
 30
0.0
 11
6472.012925014177
 21
7111.494771000792
 31
0.0
  0
LINE
  5
E342
330
DBF1
100
AcDbEntity
  8
0
  6
Continuous
 62
     7
370
    25
100
AcDbLine
 10
6472.012925014177
 20
7111.494771000792
 30
0.0
 11
6474.012925014178
 21
7111.494771000792
 31
0.0
  0
LINE
  5
E343
330
DBF1
100
AcDbEntity
  8
0
  6
Continuous
 62
     7
370
    25
100
AcDbLine
 10
6472.012925014177
 20
7113.994771000792
 30
0.0
 11
6474.012925014179
 21
7113.994771000792
 31
0.0
  0
LINE
  5
E344
330
DBF1
100
AcDbEntity
  8
0
  6
Continuous
 62
     7
370
    25
100
AcDbLine
 10
6481.303978706374
 20
7111.494771000792
 30
0.0
 11
6481.303978706374
 21
7113.994771000792
 31
0.0
  0
LINE
  5
E345
330
DBF1
100
AcDbEntity
  8
0
  6
Continuous
 62
     7
370
    25
100
AcDbLine
 10
6481.303978706374
 20
7111.494771000792
 30
0.0
 11
6479.629403344695
 21
7111.494771000792
 31
0.0
  0
LINE
  5
E346
330
DBF1
100
AcDbEntity
  8
0
  6
Continuous
 62
     7
370
    25
100
AcDbLine
 10
6481.303978706374
 20
7113.994771000792
 30
0.0
 11
6479.629403344696
 21
7113.994771000792
 31
0.0
  0
LINE
  5
E347
330
DBF1
100
AcDbEntity
  8
0
  6
Continuous
 62
     7
370
    25
100
AcDbLine
 10
6481.699079772372
 20
7113.994771000792
 30
0.0
 11
6481.699079772372
 21
7111.494771000792
 31
0.0
  0
LINE
  5
E348
330
DBF1
100
AcDbEntity
  8
0
  6
Continuous
 62
     7
370
    25
100
AcDbLine
 10
6481.699079772372
 20
7111.494771000792
 30
0.0
 11
6481.303978706374
 21
7111.494771000792
 31
0.0
  0
LINE
  5
E349
330
DBF1
100
AcDbEntity
  8
0
  6
Continuous
 62
     7
370
    25
100
AcDbLine
 10
6481.303978706374
 20
7113.994771000792
 30
0.0
 11
6481.699079772372
 21
7113.994771000792
 31
0.0
  0
LINE
  5
E34A
330
DBF1
100
AcDbEntity
  8
0
  6
Continuous
 62
     7
370
    25
100
AcDbLine
 10
6481.699079772372
 20
7111.494771000792
 30
0.0
 11
6482.012925014178
 21
7111.494771000792
 31
0.0
  0
LINE
  5
E34B
330
DBF1
100
AcDbEntity
  8
0
  6
Continuous
 62
     7
370
    25
100
AcDbLine
 10
6481.699079772372
 20
7113.994771000792
 30
0.0
 11
6482.012925014177
 21
7113.994771000792
 31
0.0
  0
LINE
  5
E34C
330
DBF1
100
AcDbEntity
  8
0
  6
Continuous
 62
     7
370
    25
100
AcDbLine
 10
6483.715158483286
 20
7111.494771000792
 30
0.0
 11
6483.715158483286
 21
7113.994771000792
 31
0.0
  0
LINE
  5
E34D
330
DBF1
100
AcDbEntity
  8
0
  6
Continuous
 62
     7
370
    25
100
AcDbLine
 10
6482.012925014177
 20
7111.494771000792
 30
0.0
 11
6483.715158483286
 21
7111.494771000792
 31
0.0
  0
LINE
  5
E34E
330
DBF1
100
AcDbEntity
  8
0
  6
Continuous
 62
     7
370
    25
100
AcDbLine
 10
6483.715158483286
 20
7113.994771000792
 30
0.0
 11
6482.012925014177
 21
7113.994771000792
 31
0.0
  0
LINE
  5
E34F
330
DBF1
100
AcDbEntity
  8
0
  6
Continuous
 62
     7
370
    25
100
AcDbLine
 10
6506.31468763759
 20
7111.494771000792
 30
0.0
 11
6506.314687637591
 21
7113.994771000792
 31
0.0
  0
LINE
  5
E350
330
DBF1
100
AcDbEntity
  8
0
  6
Continuous
 62
     7
370
    25
100
AcDbLine
 10
6485.274308755018
 20
7113.994771000792
 30
0.0
 11
6485.274308755019
 21
7111.494771000792
 31
0.0
  0
LINE
  5
E351
330
DBF1
100
AcDbEntity
  8
0
  6
Continuous
 62
     7
370
    25
100
AcDbLine
 10
6485.274308755019
 20
7111.494771000792
 30
0.0
 11
6506.31468763759
 21
7111.494771000792
 31
0.0
  0
LINE
  5
E352
330
DBF1
100
AcDbEntity
  8
0
  6
Continuous
 62
     7
370
    25
100
AcDbLine
 10
6485.274308755018
 20
7113.994771000792
 30
0.0
 11
6506.314687637591
 21
7113.994771000792
 31
0.0
  0
LINE
  5
E353
330
DBF1
100
AcDbEntity
  8
0
  6
Continuous
 62
     7
370
    25
100
AcDbLine
 10
6507.612475406648
 20
7113.994771000792
 30
0.0
 11
6507.612475406647
 21
7111.494771000792
 31
0.0
  0
LINE
  5
E354
330
DBF1
100
AcDbEntity
  8
0
  6
Continuous
 62
     7
370
    25
100
AcDbLine
 10
6507.612475406647
 20
7111.494771000792
 30
0.0
 11
6506.31468763759
 21
7111.494771000792
 31
0.0
  0
LINE
  5
E355
330
DBF1
100
AcDbEntity
  8
0
  6
Continuous
 62
     7
370
    25
100
AcDbLine
 10
6506.314687637591
 20
7113.994771000792
 30
0.0
 11
6507.612475406648
 21
7113.994771000792
 31
0.0
  0
LINE
  5
E356
330
DBF1
100
AcDbEntity
  8
0
  6
Continuous
 62
     7
370
    25
100
AcDbLine
 10
6485.274308755019
 20
7111.494771000792
 30
0.0
 11
6483.715158483286
 21
7111.494771000792
 31
0.0
  0
LINE
  5
E357
330
DBF1
100
AcDbEntity
  8
0
  6
Continuous
 62
     7
370
    25
100
AcDbLine
 10
6483.715158483286
 20
7113.994771000792
 30
0.0
 11
6485.274308755018
 21
7113.994771000792
 31
0.0
  0
LINE
  5
E358
330
DBF1
100
AcDbEntity
  8
0
  6
Continuous
 62
     7
370
    25
100
AcDbLine
 10
6510.512925014179
 20
7111.494771000792
 30
0.0
 11
6510.512925014178
 21
7113.994771000792
 31
0.0
  0
LINE
  5
E359
330
DBF1
100
AcDbEntity
  8
0
  6
Continuous
 62
     7
370
    25
100
AcDbLine
 10
6510.512925014179
 20
7111.494771000792
 30
0.0
 11
6507.612475406647
 21
7111.494771000792
 31
0.0
  0
LINE
  5
E35A
330
DBF1
100
AcDbEntity
  8
0
  6
Continuous
 62
     7
370
    25
100
AcDbLine
 10
6510.512925014178
 20
7113.994771000792
 30
0.0
 11
6507.612475406648
 21
7113.994771000792
 31
0.0
  0
LINE
  5
E35B
330
DBF1
100
AcDbEntity
  8
0
  6
Continuous
 62
     7
370
    25
100
AcDbLine
 10
6512.012925014178
 20
7113.994771000792
 30
0.0
 11
6512.012925014178
 21
7111.494771000792
 31
0.0
  0
LINE
  5
E35C
330
DBF1
100
AcDbEntity
  8
0
  6
Continuous
 62
     7
370
    25
100
AcDbLine
 10
6512.012925014178
 20
7111.494771000792
 30
0.0
 11
6510.512925014179
 21
7111.494771000792
 31
0.0
  0
LINE
  5
E35D
330
DBF1
100
AcDbEntity
  8
0
  6
Continuous
 62
     7
370
    25
100
AcDbLine
 10
6510.512925014178
 20
7113.994771000792
 30
0.0
 11
6512.012925014178
 21
7113.994771000792
 31
0.0
  0
LINE
  5
E35E
330
DBF1
100
AcDbEntity
  8
0
100
AcDbLine
 10
6414.227273480488
 20
7026.394253887291
 30
0.0
 11
6594.196128670291
 21
7026.394253887291
 31
0.0
  0
LINE
  5
E35F
330
DBF1
100
AcDbEntity
  8
0
100
AcDbLine
 10
6594.19612867029
 20
7231.972818738242
 30
0.0
 11
6594.196128670291
 21
7026.394253887291
 31
0.0
  0
TEXT
  5
E360
330
DBF1
100
AcDbEntity
  8
0
  6
Continuous
 62
     7
100
AcDbText
 10
6478.418000644177
 20
7214.979466057583
 30
0.0
 40
10.58333333333333
  1
PDAUG07
 41
0.75
  7
SLDTEXTSTYLE0
100
AcDbText
  0
LWPOLYLINE
  5
E361
330
DBF1
100
AcDbEntity
  8
0
100
AcDbPolyline
 90
        4
 70
     1
 43
0.0
 10
6774.164983860092
 20
7379.895255529403
 10
6774.164983860092
 20
7109.292428068751
 10
6954.133839049892
 20
7109.292428068751
 10
6954.133839049893
 20
7379.895255529403
  0
MTEXT
  5
E362
330
DBF1
100
AcDbEntity
  8
0
100
AcDbMText
 10
6780.851297415586
 20
7375.687719159763
 30
0.0
 40
10.0
 41
149.9436517786235
 71
     1
 72
     5
  1
{P35EG40/6 + P35EJ01/6 + P35EG43/3 + JDAUV40 + P35EG42/6 }
 73
     1
 44
1.0
1001
ACAD
1000
ACAD_MTEXT_DEFINED_HEIGHT_BEGIN
1070
    46
1040
76.66666666666667
1000
ACAD_MTEXT_DEFINED_HEIGHT_END
  0
LINE
  5
E363
330
DBF1
100
AcDbEntity
  8
0
  6
Continuous
 62
     7
370
    25
100
AcDbLine
 10
6873.58834150338
 20
7257.487409132269
 30
0.0
 11
6874.086821823306
 21
7257.487409132269
 31
0.0
  0
ARC
  5
E364
330
DBF1
100
AcDbEntity
  8
0
  6
Continuous
 62
     7
370
    25
100
AcDbCircle
 10
6873.598241503381
 20
7257.834701468124
 30
0.0
 40
0.3474334131079054
100
AcDbArc
 50
91.63284527002821
 51
268.3671547304216
  0
LINE
  5
E365
330
DBF1
100
AcDbEntity
  8
0
  6
Continuous
 62
     7
370
    25
100
AcDbLine
 10
6889.050274677164
 20
7258.18199380398
 30
0.0
 11
6873.588341503378
 21
7258.18199380398
 31
0.0
  0
ARC
  5
E366
330
DBF1
100
AcDbEntity
  8
0
  6
Continuous
 62
     7
370
    25
100
AcDbCircle
 10
6889.040374677165
 20
7257.834701468124
 30
0.0
 40
0.3474334131077947
100
AcDbArc
 50
271.6328452695784
 51
88.36715473072142
  0
LINE
  5
E367
330
DBF1
100
AcDbEntity
  8
0
  6
Continuous
 62
     7
370
    25
100
AcDbLine
 10
6888.55179435724
 20
7257.487409132269
 30
0.0
 11
6889.050274677166
 21
7257.487409132269
 31
0.0
  0
ARC
  5
E368
330
DBF1
100
AcDbEntity
  8
0
  6
Continuous
 62
     7
370
    25
100
AcDbCircle
 10
6888.55179435724
 20
7257.289409132269
 30
0.0
 40
0.1980000000000928
100
AcDbArc
 50
90.0
 51
179.9999999997368
  0
LINE
  5
E369
330
DBF1
100
AcDbEntity
  8
0
  6
Continuous
 62
     7
370
    25
100
AcDbLine
 10
6888.611448096084
 20
7256.581511302757
 30
0.0
 11
6888.35379435724
 21
7257.28940913227
 31
0.0
  0
LINE
  5
E36A
330
DBF1
100
AcDbEntity
  8
0
  6
Continuous
 62
     7
370
    25
100
AcDbLine
 10
6888.984804017507
 20
7256.320084672142
 30
0.0
 11
6888.611448096084
 21
7256.581511302757
 31
0.0
  0
ARC
  5
E36B
330
DBF1
100
AcDbEntity
  8
0
  6
Continuous
 62
     7
370
    25
100
AcDbCircle
 10
6888.899627916709
 20
7256.198440593565
 30
0.0
 40
0.1485000000000652
100
AcDbArc
 50
324.9999999999637
 51
54.99999999996373
  0
LINE
  5
E36C
330
DBF1
100
AcDbEntity
  8
0
  6
Continuous
 62
     7
370
    25
100
AcDbLine
 10
6888.168831694034
 20
7254.895853575666
 30
0.0
 11
6889.021271995286
 21
7256.113264492767
 31
0.0
  0
ARC
  5
E36D
330
DBF1
100
AcDbEntity
  8
0
  6
Continuous
 62
     7
370
    25
100
AcDbCircle
 10
6887.884995510687
 20
7255.094597810862
 30
0.0
 40
0.3465000000000132
100
AcDbArc
 50
145.0000000000377
 51
325.0000000000377
  0
LINE
  5
E36E
330
DBF1
100
AcDbEntity
  8
0
  6
Continuous
 62
     7
370
    25
100
AcDbLine
 10
6888.089162483432
 20
7255.990282780713
 30
0.0
 11
6887.601159327341
 21
7255.293342046058
 31
0.0
  0
LINE
  5
E36F
330
DBF1
100
AcDbEntity
  8
0
  6
Continuous
 62
     7
370
    25
100
AcDbLine
 10
6887.770320556649
 20
7256.866293774926
 30
0.0
 11
6888.089162483432
 21
7255.990282780713
 31
0.0
  0
ARC
  5
E370
330
DBF1
100
AcDbEntity
  8
0
  6
Continuous
 62
     7
370
    25
100
AcDbCircle
 10
6887.305172709359
 20
7256.696993803979
 30
0.0
 40
0.495000000000033
100
AcDbArc
 50
20.00000000005949
 51
90.0
  0
LINE
  5
E371
330
DBF1
100
AcDbEntity
  8
0
  6
Continuous
 62
     7
370
    25
100
AcDbLine
 10
6875.333443471187
 20
7257.191993803979
 30
0.0
 11
6887.305172709359
 21
7257.191993803979
 31
0.0
  0
ARC
  5
E372
330
DBF1
100
AcDbEntity
  8
0
  6
Continuous
 62
     7
370
    25
100
AcDbCircle
 10
6875.333443471187
 20
7256.696993803979
 30
0.0
 40
0.494999999999969
100
AcDbArc
 50
90.0
 51
159.9999999999405
  0
LINE
  5
E373
330
DBF1
100
AcDbEntity
  8
0
  6
Continuous
 62
     7
370
    25
100
AcDbLine
 10
6874.549453697115
 20
7255.990282780713
 30
0.0
 11
6874.868295623898
 21
7256.866293774926
 31
0.0
  0
LINE
  5
E374
330
DBF1
100
AcDbEntity
  8
0
  6
Continuous
 62
     7
370
    25
100
AcDbLine
 10
6875.037456853205
 20
7255.293342046058
 30
0.0
 11
6874.549453697115
 21
7255.990282780713
 31
0.0
  0
ARC
  5
E375
330
DBF1
100
AcDbEntity
  8
0
  6
Continuous
 62
     7
370
    25
100
AcDbCircle
 10
6874.753620669859
 20
7255.094597810862
 30
0.0
 40
0.3464999999999783
100
AcDbArc
 50
215.0000000000486
 51
34.99999999996232
  0
LINE
  5
E376
330
DBF1
100
AcDbEntity
  8
0
  6
Continuous
 62
     7
370
    25
100
AcDbLine
 10
6873.617344185261
 20
7256.113264492767
 30
0.0
 11
6874.469784486513
 21
7254.895853575666
 31
0.0
  0
ARC
  5
E377
330
DBF1
100
AcDbEntity
  8
0
  6
Continuous
 62
     7
370
    25
100
AcDbCircle
 10
6873.738988263837
 20
7256.198440593565
 30
0.0
 40
0.1485000000000594
100
AcDbArc
 50
125.0000000000363
 51
215.0000000003237
  0
LINE
  5
E378
330
DBF1
100
AcDbEntity
  8
0
  6
Continuous
 62
     7
370
    25
100
AcDbLine
 10
6874.027168084463
 20
7256.581511302757
 30
0.0
 11
6873.653812163039
 21
7256.320084672142
 31
0.0
  0
LINE
  5
E379
330
DBF1
100
AcDbEntity
  8
0
  6
Continuous
 62
     7
370
    25
100
AcDbLine
 10
6874.284821823306
 20
7257.289409132269
 30
0.0
 11
6874.027168084463
 21
7256.581511302757
 31
0.0
  0
ARC
  5
E37A
330
DBF1
100
AcDbEntity
  8
0
  6
Continuous
 62
     7
370
    25
100
AcDbCircle
 10
6874.086821823306
 20
7257.289409132269
 30
0.0
 40
0.1979999999999791
100
AcDbArc
 50
0.0
 51
90.0
  0
LINE
  5
E37B
330
DBF1
100
AcDbEntity
  8
0
  6
Continuous
 62
     7
370
    25
100
AcDbLine
 10
6895.809486755761
 20
7222.599504854047
 30
0.0
 11
6896.509486755761
 21
7222.599504854047
 31
0.0
  0
ARC
  5
E37C
330
DBF1
100
AcDbEntity
  8
0
  6
Continuous
 62
     7
370
    25
100
AcDbCircle
 10
6895.809486755761
 20
7223.099504854047
 30
0.0
 40
0.5
100
AcDbArc
 50
180.0
 51
270.0
  0
LINE
  5
E37D
330
DBF1
100
AcDbEntity
  8
0
  6
Continuous
 62
     7
370
    25
100
AcDbLine
 10
6895.309486755761
 20
7227.299504854047
 30
0.0
 11
6895.309486755761
 21
7223.099504854047
 31
0.0
  0
ARC
  5
E37E
330
DBF1
100
AcDbEntity
  8
0
  6
Continuous
 62
     7
370
    25
100
AcDbCircle
 10
6895.009486755761
 20
7227.299504854047
 30
0.0
 40
0.3000000000001819
100
AcDbArc
 50
0.0
 51
90.0
  0
LINE
  5
E37F
330
DBF1
100
AcDbEntity
  8
0
  6
Continuous
 62
     7
370
    25
100
AcDbLine
 10
6893.309486755761
 20
7227.599504854047
 30
0.0
 11
6895.009486755761
 21
7227.599504854047
 31
0.0
  0
ARC
  5
E380
330
DBF1
100
AcDbEntity
  8
0
  6
Continuous
 62
     7
370
    25
100
AcDbCircle
 10
6893.309486755761
 20
7227.299504854047
 30
0.0
 40
0.3000000000001819
100
AcDbArc
 50
90.0
 51
180.0
  0
LINE
  5
E381
330
DBF1
100
AcDbEntity
  8
0
  6
Continuous
 62
     7
370
    25
100
AcDbLine
 10
6893.009486755761
 20
7223.099504854047
 30
0.0
 11
6893.009486755761
 21
7227.299504854047
 31
0.0
  0
ARC
  5
E382
330
DBF1
100
AcDbEntity
  8
0
  6
Continuous
 62
     7
370
    25
100
AcDbCircle
 10
6892.509486755761
 20
7223.099504854047
 30
0.0
 40
0.5
100
AcDbArc
 50
270.0
 51
0.0
  0
LINE
  5
E383
330
DBF1
100
AcDbEntity
  8
0
  6
Continuous
 62
     7
370
    25
100
AcDbLine
 10
6890.709488050762
 20
7222.599504854047
 30
0.0
 11
6892.509486755761
 21
7222.599504854047
 31
0.0
  0
ARC
  5
E384
330
DBF1
100
AcDbEntity
  8
0
  6
Continuous
 62
     7
370
    25
100
AcDbCircle
 10
6890.709488050762
 20
7223.099504854047
 30
0.0
 40
0.5
100
AcDbArc
 50
180.0
 51
270.0
  0
LINE
  5
E385
330
DBF1
100
AcDbEntity
  8
0
  6
Continuous
 62
     7
370
    25
100
AcDbLine
 10
6890.209488050762
 20
7224.493465124583
 30
0.0
 11
6890.209488050762
 21
7223.099504854047
 31
0.0
  0
ARC
  5
E386
330
DBF1
100
AcDbEntity
  8
0
  6
Continuous
 62
     7
370
    25
100
AcDbCircle
 10
6890.509488050763
 20
7224.493465124583
 30
0.0
 40
0.3000000000009865
100
AcDbArc
 50
111.0375110252846
 51
180.0
  0
LINE
  5
E387
330
DBF1
100
AcDbEntity
  8
0
  6
Continuous
 62
     7
370
    25
100
AcDbLine
 10
6891.317181774559
 20
7225.12554090167
 30
0.0
 11
6890.401794326971
 21
7224.773468806445
 31
0.0
  0
ARC
  5
E388
330
DBF1
100
AcDbEntity
  8
0
  6
Continuous
 62
     7
370
    25
100
AcDbCircle
 10
6891.209488050766
 20
7225.405544583531
 30
0.0
 40
0.3000000000008498
100
AcDbArc
 50
291.0375110254467
 51
0.0
  0
LINE
  5
E389
330
DBF1
100
AcDbEntity
  8
0
  6
Continuous
 62
     7
370
    25
100
AcDbLine
 10
6891.509488050767
 20
7229.092871692537
 30
0.0
 11
6891.509488050767
 21
7225.405544583531
 31
0.0
  0
ARC
  5
E38A
330
DBF1
100
AcDbEntity
  8
0
  6
Continuous
 62
     7
370
    25
100
AcDbCircle
 10
6891.209488050766
 20
7229.092871692537
 30
0.0
 40
0.3000000000009989
100
AcDbArc
 50
0.0
 51
24.00000000019476
  0
LINE
  5
E38B
330
DBF1
100
AcDbEntity
  8
0
  6
Continuous
 62
     7
370
    25
100
AcDbLine
 10
6889.788729410096
 20
7233.02152584698
 30
0.0
 11
6891.483551688059
 21
7229.214892685462
 31
0.0
  0
ARC
  5
E38C
330
DBF1
100
AcDbEntity
  8
0
  6
Continuous
 62
     7
370
    25
100
AcDbCircle
 10
6889.514665772803
 20
7232.899504854056
 30
0.0
 40
0.3000000000011143
100
AcDbArc
 50
24.00000000003607
 51
90.0
  0
LINE
  5
E38D
330
DBF1
100
AcDbEntity
  8
0
  6
Continuous
 62
     7
370
    25
100
AcDbLine
 10
6885.904310328716
 20
7233.199504854058
 30
0.0
 11
6889.514665772803
 21
7233.199504854058
 31
0.0
  0
ARC
  5
E38E
330
DBF1
100
AcDbEntity
  8
0
  6
Continuous
 62
     7
370
    25
100
AcDbCircle
 10
6885.904310328716
 20
7232.899504854056
 30
0.0
 40
0.3000000000010914
100
AcDbArc
 50
90.0
 51
156.0000000001226
  0
LINE
  5
E38F
330
DBF1
100
AcDbEntity
  8
0
  6
Continuous
 62
     7
370
    25
100
AcDbLine
 10
6883.935424413467
 20
7229.214892685457
 30
0.0
 11
6885.630246691422
 21
7233.021525846979
 31
0.0
  0
ARC
  5
E390
330
DBF1
100
AcDbEntity
  8
0
  6
Continuous
 62
     7
370
    25
100
AcDbCircle
 10
6884.20948805076
 20
7229.092871692534
 30
0.0
 40
0.3000000000010772
100
AcDbArc
 50
155.9999999999639
 51
180.0
  0
LINE
  5
E391
330
DBF1
100
AcDbEntity
  8
0
  6
Continuous
 62
     7
370
    25
100
AcDbLine
 10
6883.909488050759
 20
7225.405544583537
 30
0.0
 11
6883.909488050759
 21
7229.092871692534
 31
0.0
  0
ARC
  5
E392
330
DBF1
100
AcDbEntity
  8
0
  6
Continuous
 62
     7
370
    25
100
AcDbCircle
 10
6884.20948805076
 20
7225.405544583538
 30
0.0
 40
0.300000000001057
100
AcDbArc
 50
180.0000000001737
 51
248.9624889741667
  0
LINE
  5
E393
330
DBF1
100
AcDbEntity
  8
0
  6
Continuous
 62
     7
370
    25
100
AcDbLine
 10
6885.01718177455
 20
7224.773468806444
 30
0.0
 11
6884.101794326965
 21
7225.125540901678
 31
0.0
  0
ARC
  5
E394
330
DBF1
100
AcDbEntity
  8
0
  6
Continuous
 62
     7
370
    25
100
AcDbCircle
 10
6884.909488050755
 20
7224.493465124583
 30
0.0
 40
0.3000000000009804
100
AcDbArc
 50
0.0
 51
68.96248897416665
  0
LINE
  5
E395
330
DBF1
100
AcDbEntity
  8
0
  6
Continuous
 62
     7
370
    25
100
AcDbLine
 10
6885.209488050757
 20
7223.099504854047
 30
0.0
 11
6885.209488050757
 21
7224.493465124583
 31
0.0
  0
ARC
  5
E396
330
DBF1
100
AcDbEntity
  8
0
  6
Continuous
 62
     7
370
    25
100
AcDbCircle
 10
6884.709488050757
 20
7223.099504854047
 30
0.0
 40
0.5
100
AcDbArc
 50
270.0
 51
0.0
  0
LINE
  5
E397
330
DBF1
100
AcDbEntity
  8
0
  6
Continuous
 62
     7
370
    25
100
AcDbLine
 10
6882.909488050759
 20
7222.599504854047
 30
0.0
 11
6884.709488050757
 21
7222.599504854047
 31
0.0
  0
ARC
  5
E398
330
DBF1
100
AcDbEntity
  8
0
  6
Continuous
 62
     7
370
    25
100
AcDbCircle
 10
6882.909488050759
 20
7223.099504854047
 30
0.0
 40
0.5
100
AcDbArc
 50
180.0
 51
270.0
  0
LINE
  5
E399
330
DBF1
100
AcDbEntity
  8
0
  6
Continuous
 62
     7
370
    25
100
AcDbLine
 10
6882.409488050759
 20
7227.299504854047
 30
0.0
 11
6882.409488050759
 21
7223.099504854047
 31
0.0
  0
ARC
  5
E39A
330
DBF1
100
AcDbEntity
  8
0
  6
Continuous
 62
     7
370
    25
100
AcDbCircle
 10
6882.109488050759
 20
7227.299504854047
 30
0.0
 40
0.3000000000001819
100
AcDbArc
 50
0.0
 51
90.0
  0
LINE
  5
E39B
330
DBF1
100
AcDbEntity
  8
0
  6
Continuous
 62
     7
370
    25
100
AcDbLine
 10
6880.409488050759
 20
7227.599504854047
 30
0.0
 11
6882.109488050759
 21
7227.599504854047
 31
0.0
  0
ARC
  5
E39C
330
DBF1
100
AcDbEntity
  8
0
  6
Continuous
 62
     7
370
    25
100
AcDbCircle
 10
6880.409488050759
 20
7227.299504854047
 30
0.0
 40
0.3000000000001961
100
AcDbArc
 50
90.0
 51
180.0
  0
LINE
  5
E39D
330
DBF1
100
AcDbEntity
  8
0
  6
Continuous
 62
     7
370
    25
100
AcDbLine
 10
6880.109488050759
 20
7223.099504854047
 30
0.0
 11
6880.109488050759
 21
7227.299504854047
 31
0.0
  0
ARC
  5
E39E
330
DBF1
100
AcDbEntity
  8
0
  6
Continuous
 62
     7
370
    25
100
AcDbCircle
 10
6879.609488050759
 20
7223.099504854047
 30
0.0
 40
0.5
100
AcDbArc
 50
270.0
 51
0.0
  0
LINE
  5
E39F
330
DBF1
100
AcDbEntity
  8
0
  6
Continuous
 62
     7
370
    25
100
AcDbLine
 10
6875.80948805076
 20
7222.599504854047
 30
0.0
 11
6879.609488050759
 21
7222.599504854047
 31
0.0
  0
LINE
  5
E3A0
330
DBF1
100
AcDbEntity
  8
0
  6
Continuous
 62
     7
370
    25
100
AcDbLine
 10
6875.80948805076
 20
7226.099504854047
 30
0.0
 11
6875.80948805076
 21
7222.599504854047
 31
0.0
  0
LINE
  5
E3A1
330
DBF1
100
AcDbEntity
  8
0
  6
Continuous
 62
     7
370
    25
100
AcDbLine
 10
6878.609488050759
 20
7226.099504854047
 30
0.0
 11
6875.80948805076
 21
7226.099504854047
 31
0.0
  0
LINE
  5
E3A2
330
DBF1
100
AcDbEntity
  8
0
  6
Continuous
 62
     7
370
    25
100
AcDbLine
 10
6878.609488050759
 20
7230.599504854047
 30
0.0
 11
6878.609488050759
 21
7226.099504854047
 31
0.0
  0
LINE
  5
E3A3
330
DBF1
100
AcDbEntity
  8
0
  6
Continuous
 62
     7
370
    25
100
AcDbLine
 10
6872.80948805076
 20
7230.599504854047
 30
0.0
 11
6878.609488050759
 21
7230.599504854047
 31
0.0
  0
LINE
  5
E3A4
330
DBF1
100
AcDbEntity
  8
0
  6
Continuous
 62
     7
370
    25
100
AcDbLine
 10
6871.80948805076
 20
7231.599504854047
 30
0.0
 11
6872.80948805076
 21
7230.599504854047
 31
0.0
  0
LINE
  5
E3A5
330
DBF1
100
AcDbEntity
  8
0
  6
Continuous
 62
     7
370
    25
100
AcDbLine
 10
6870.80948805076
 20
7230.599504854047
 30
0.0
 11
6871.80948805076
 21
7231.599504854047
 31
0.0
  0
LINE
  5
E3A6
330
DBF1
100
AcDbEntity
  8
0
  6
Continuous
 62
     7
370
    25
100
AcDbLine
 10
6865.00948805076
 20
7230.599504854047
 30
0.0
 11
6870.80948805076
 21
7230.599504854047
 31
0.0
  0
LINE
  5
E3A7
330
DBF1
100
AcDbEntity
  8
0
  6
Continuous
 62
     7
370
    25
100
AcDbLine
 10
6865.00948805076
 20
7226.099504854047
 30
0.0
 11
6865.00948805076
 21
7230.599504854047
 31
0.0
  0
LINE
  5
E3A8
330
DBF1
100
AcDbEntity
  8
0
  6
Continuous
 62
     7
370
    25
100
AcDbLine
 10
6867.80948805076
 20
7226.099504854047
 30
0.0
 11
6865.00948805076
 21
7226.099504854047
 31
0.0
  0
LINE
  5
E3A9
330
DBF1
100
AcDbEntity
  8
0
  6
Continuous
 62
     7
370
    25
100
AcDbLine
 10
6867.80948805076
 20
7222.599504854047
 30
0.0
 11
6867.80948805076
 21
7226.099504854047
 31
0.0
  0
LINE
  5
E3AA
330
DBF1
100
AcDbEntity
  8
0
  6
Continuous
 62
     7
370
    25
100
AcDbLine
 10
6864.00948805076
 20
7222.599504854047
 30
0.0
 11
6867.80948805076
 21
7222.599504854047
 31
0.0
  0
ARC
  5
E3AB
330
DBF1
100
AcDbEntity
  8
0
  6
Continuous
 62
     7
370
    25
100
AcDbCircle
 10
6864.00948805076
 20
7223.099504854047
 30
0.0
 40
0.5
100
AcDbArc
 50
180.0
 51
270.0
  0
LINE
  5
E3AC
330
DBF1
100
AcDbEntity
  8
0
  6
Continuous
 62
     7
370
    25
100
AcDbLine
 10
6863.50948805076
 20
7227.299504854047
 30
0.0
 11
6863.50948805076
 21
7223.099504854047
 31
0.0
  0
ARC
  5
E3AD
330
DBF1
100
AcDbEntity
  8
0
  6
Continuous
 62
     7
370
    25
100
AcDbCircle
 10
6863.209488050759
 20
7227.299504854047
 30
0.0
 40
0.3000000000001819
100
AcDbArc
 50
0.0
 51
90.0
  0
LINE
  5
E3AE
330
DBF1
100
AcDbEntity
  8
0
  6
Continuous
 62
     7
370
    25
100
AcDbLine
 10
6861.509488050759
 20
7227.599504854047
 30
0.0
 11
6863.209488050759
 21
7227.599504854047
 31
0.0
  0
ARC
  5
E3AF
330
DBF1
100
AcDbEntity
  8
0
  6
Continuous
 62
     7
370
    25
100
AcDbCircle
 10
6861.509488050759
 20
7227.299504854047
 30
0.0
 40
0.3000000000001819
100
AcDbArc
 50
90.0
 51
180.0
  0
LINE
  5
E3B0
330
DBF1
100
AcDbEntity
  8
0
  6
Continuous
 62
     7
370
    25
100
AcDbLine
 10
6861.209488050759
 20
7223.099504854047
 30
0.0
 11
6861.209488050759
 21
7227.299504854047
 31
0.0
  0
ARC
  5
E3B1
330
DBF1
100
AcDbEntity
  8
0
  6
Continuous
 62
     7
370
    25
100
AcDbCircle
 10
6860.709488050759
 20
7223.099504854047
 30
0.0
 40
0.5
100
AcDbArc
 50
270.0
 51
0.0
  0
LINE
  5
E3B2
330
DBF1
100
AcDbEntity
  8
0
  6
Continuous
 62
     7
370
    25
100
AcDbLine
 10
6858.909488050762
 20
7222.599504854047
 30
0.0
 11
6860.709488050759
 21
7222.599504854047
 31
0.0
  0
ARC
  5
E3B3
330
DBF1
100
AcDbEntity
  8
0
  6
Continuous
 62
     7
370
    25
100
AcDbCircle
 10
6858.909488050762
 20
7223.099504854047
 30
0.0
 40
0.5
100
AcDbArc
 50
180.0
 51
270.0
  0
LINE
  5
E3B4
330
DBF1
100
AcDbEntity
  8
0
  6
Continuous
 62
     7
370
    25
100
AcDbLine
 10
6858.409488050762
 20
7224.493465124583
 30
0.0
 11
6858.409488050762
 21
7223.099504854047
 31
0.0
  0
ARC
  5
E3B5
330
DBF1
100
AcDbEntity
  8
0
  6
Continuous
 62
     7
370
    25
100
AcDbCircle
 10
6858.709488050763
 20
7224.493465124583
 30
0.0
 40
0.3000000000010722
100
AcDbArc
 50
111.0375110258334
 51
180.0
  0
LINE
  5
E3B6
330
DBF1
100
AcDbEntity
  8
0
  6
Continuous
 62
     7
370
    25
100
AcDbLine
 10
6859.517181774553
 20
7225.125540901678
 30
0.0
 11
6858.601794326968
 21
7224.773468806444
 31
0.0
  0
ARC
  5
E3B7
330
DBF1
100
AcDbEntity
  8
0
  6
Continuous
 62
     7
370
    25
100
AcDbCircle
 10
6859.409488050758
 20
7225.405544583537
 30
0.0
 40
0.3000000000008498
100
AcDbArc
 50
291.0375110258333
 51
0.0
  0
LINE
  5
E3B8
330
DBF1
100
AcDbEntity
  8
0
  6
Continuous
 62
     7
370
    25
100
AcDbLine
 10
6859.709488050759
 20
7229.092871692534
 30
0.0
 11
6859.709488050758
 21
7225.405544583537
 31
0.0
  0
ARC
  5
E3B9
330
DBF1
100
AcDbEntity
  8
0
  6
Continuous
 62
     7
370
    25
100
AcDbCircle
 10
6859.409488050758
 20
7229.092871692534
 30
0.0
 40
0.3000000000008612
100
AcDbArc
 50
0.0
 51
24.00000000003607
  0
LINE
  5
E3BA
330
DBF1
100
AcDbEntity
  8
0
  6
Continuous
 62
     7
370
    25
100
AcDbLine
 10
6857.988729410096
 20
7233.021525846979
 30
0.0
 11
6859.683551688052
 21
7229.214892685457
 31
0.0
  0
ARC
  5
E3BB
330
DBF1
100
AcDbEntity
  8
0
  6
Continuous
 62
     7
370
    25
100
AcDbCircle
 10
6857.714665772803
 20
7232.899504854056
 30
0.0
 40
0.3000000000010914
100
AcDbArc
 50
23.99999999987739
 51
90.0
  0
LINE
  5
E3BC
330
DBF1
100
AcDbEntity
  8
0
  6
Continuous
 62
     7
370
    25
100
AcDbLine
 10
6854.104310328716
 20
7233.199504854058
 30
0.0
 11
6857.714665772803
 21
7233.199504854058
 31
0.0
  0
ARC
  5
E3BD
330
DBF1
100
AcDbEntity
  8
0
  6
Continuous
 62
     7
370
    25
100
AcDbCircle
 10
6854.104310328716
 20
7232.899504854056
 30
0.0
 40
0.3000000000011208
100
AcDbArc
 50
90.0
 51
155.9999999999639
  0
LINE
  5
E3BE
330
DBF1
100
AcDbEntity
  8
0
  6
Continuous
 62
     7
370
    25
100
AcDbLine
 10
6852.135424413459
 20
7229.214892685462
 30
0.0
 11
6853.830246691422
 21
7233.02152584698
 31
0.0
  0
ARC
  5
E3BF
330
DBF1
100
AcDbEntity
  8
0
  6
Continuous
 62
     7
370
    25
100
AcDbCircle
 10
6852.409488050752
 20
7229.092871692537
 30
0.0
 40
0.3000000000010119
100
AcDbArc
 50
155.9999999997346
 51
180.0
  0
LINE
  5
E3C0
330
DBF1
100
AcDbEntity
  8
0
  6
Continuous
 62
     7
370
    25
100
AcDbLine
 10
6852.109488050752
 20
7225.405544583531
 30
0.0
 11
6852.109488050752
 21
7229.092871692537
 31
0.0
  0
ARC
  5
E3C1
330
DBF1
100
AcDbEntity
  8
0
  6
Continuous
 62
     7
370
    25
100
AcDbCircle
 10
6852.409488050752
 20
7225.405544583531
 30
0.0
 40
0.3000000000008569
100
AcDbArc
 50
180.0
 51
248.9624889747154
  0
LINE
  5
E3C2
330
DBF1
100
AcDbEntity
  8
0
  6
Continuous
 62
     7
370
    25
100
AcDbLine
 10
6853.217181774548
 20
7224.773468806445
 30
0.0
 11
6852.30179432696
 21
7225.12554090167
 31
0.0
  0
ARC
  5
E3C3
330
DBF1
100
AcDbEntity
  8
0
  6
Continuous
 62
     7
370
    25
100
AcDbCircle
 10
6853.109488050755
 20
7224.493465124583
 30
0.0
 40
0.3000000000009993
100
AcDbArc
 50
0.0
 51
68.96248897455324
  0
LINE
  5
E3C4
330
DBF1
100
AcDbEntity
  8
0
  6
Continuous
 62
     7
370
    25
100
AcDbLine
 10
6853.409488050756
 20
7223.099504854047
 30
0.0
 11
6853.409488050756
 21
7224.493465124583
 31
0.0
  0
ARC
  5
E3C5
330
DBF1
100
AcDbEntity
  8
0
  6
Continuous
 62
     7
370
    25
100
AcDbCircle
 10
6852.909488050756
 20
7223.099504854047
 30
0.0
 40
0.5
100
AcDbArc
 50
270.0
 51
0.0
  0
LINE
  5
E3C6
330
DBF1
100
AcDbEntity
  8
0
  6
Continuous
 62
     7
370
    25
100
AcDbLine
 10
6851.109489345758
 20
7222.599504854047
 30
0.0
 11
6852.909488050756
 21
7222.599504854047
 31
0.0
  0
ARC
  5
E3C7
330
DBF1
100
AcDbEntity
  8
0
  6
Continuous
 62
     7
370
    25
100
AcDbCircle
 10
6851.109489345758
 20
7223.099504854047
 30
0.0
 40
0.5
100
AcDbArc
 50
180.0
 51
270.0
  0
LINE
  5
E3C8
330
DBF1
100
AcDbEntity
  8
0
  6
Continuous
 62
     7
370
    25
100
AcDbLine
 10
6850.609489345758
 20
7227.299504854047
 30
0.0
 11
6850.609489345758
 21
7223.099504854047
 31
0.0
  0
ARC
  5
E3C9
330
DBF1
100
AcDbEntity
  8
0
  6
Continuous
 62
     7
370
    25
100
AcDbCircle
 10
6850.309489345757
 20
7227.299504854047
 30
0.0
 40
0.3000000000001819
100
AcDbArc
 50
0.0
 51
90.0
  0
LINE
  5
E3CA
330
DBF1
100
AcDbEntity
  8
0
  6
Continuous
 62
     7
370
    25
100
AcDbLine
 10
6848.609489345758
 20
7227.599504854047
 30
0.0
 11
6850.309489345757
 21
7227.599504854047
 31
0.0
  0
ARC
  5
E3CB
330
DBF1
100
AcDbEntity
  8
0
  6
Continuous
 62
     7
370
    25
100
AcDbCircle
 10
6848.609489345758
 20
7227.299504854047
 30
0.0
 40
0.3000000000001819
100
AcDbArc
 50
90.0
 51
180.0
  0
LINE
  5
E3CC
330
DBF1
100
AcDbEntity
  8
0
  6
Continuous
 62
     7
370
    25
100
AcDbLine
 10
6848.309489345757
 20
7223.099504854047
 30
0.0
 11
6848.309489345757
 21
7227.299504854047
 31
0.0
  0
ARC
  5
E3CD
330
DBF1
100
AcDbEntity
  8
0
  6
Continuous
 62
     7
370
    25
100
AcDbCircle
 10
6847.809489345757
 20
7223.099504854047
 30
0.0
 40
0.5000000000000071
100
AcDbArc
 50
270.0
 51
0.0
  0
LINE
  5
E3CE
330
DBF1
100
AcDbEntity
  8
0
  6
Continuous
 62
     7
370
    25
100
AcDbLine
 10
6847.109489345758
 20
7222.599504854047
 30
0.0
 11
6847.809489345757
 21
7222.599504854047
 31
0.0
  0
LINE
  5
E3CF
330
DBF1
100
AcDbEntity
  8
0
  6
Continuous
 62
     7
370
    25
100
AcDbLine
 10
6854.109489345758
 20
7260.599504854047
 30
0.0
 11
6846.809489345757
 21
7260.599504854047
 31
0.0
  0
LINE
  5
E3D0
330
DBF1
100
AcDbEntity
  8
0
  6
Continuous
 62
     7
370
    25
100
AcDbLine
 10
6854.109489345758
 20
7259.099504854047
 30
0.0
 11
6854.109489345758
 21
7260.599504854047
 31
0.0
  0
LINE
  5
E3D1
330
DBF1
100
AcDbEntity
  8
0
  6
Continuous
 62
     7
370
    25
100
AcDbLine
 10
6852.809489345758
 20
7259.099504854047
 30
0.0
 11
6854.109489345758
 21
7259.099504854047
 31
0.0
  0
LINE
  5
E3D2
330
DBF1
100
AcDbEntity
  8
0
  6
Continuous
 62
     7
370
    25
100
AcDbLine
 10
6852.809489345758
 20
7256.399504854047
 30
0.0
 11
6852.809489345758
 21
7259.099504854047
 31
0.0
  0
ARC
  5
E3D3
330
DBF1
100
AcDbEntity
  8
0
  6
Continuous
 62
     7
370
    25
100
AcDbCircle
 10
6852.509489345758
 20
7256.399504854047
 30
0.0
 40
0.3000000000001819
100
AcDbArc
 50
270.0
 51
0.0
  0
LINE
  5
E3D4
330
DBF1
100
AcDbEntity
  8
0
  6
Continuous
 62
     7
370
    25
100
AcDbLine
 10
6851.309489345758
 20
7256.099504854047
 30
0.0
 11
6852.509489345758
 21
7256.099504854047
 31
0.0
  0
ARC
  5
E3D5
330
DBF1
100
AcDbEntity
  8
0
  6
Continuous
 62
     7
370
    25
100
AcDbCircle
 10
6851.309489345758
 20
7256.399504854047
 30
0.0
 40
0.3000000000001819
100
AcDbArc
 50
180.0
 51
270.0
  0
LINE
  5
E3D6
330
DBF1
100
AcDbEntity
  8
0
  6
Continuous
 62
     7
370
    25
100
AcDbLine
 10
6851.009489345758
 20
7256.799504854047
 30
0.0
 11
6851.009489345758
 21
7256.399504854047
 31
0.0
  0
ARC
  5
E3D7
330
DBF1
100
AcDbEntity
  8
0
  6
Continuous
 62
     7
370
    25
100
AcDbCircle
 10
6850.709489345758
 20
7256.799504854047
 30
0.0
 40
0.3000000000001819
100
AcDbArc
 50
0.0
 51
90.0
  0
LINE
  5
E3D8
330
DBF1
100
AcDbEntity
  8
0
  6
Continuous
 62
     7
370
    25
100
AcDbLine
 10
6848.609489345758
 20
7257.099504854048
 30
0.0
 11
6850.709489345758
 21
7257.099504854048
 31
0.0
  0
ARC
  5
E3D9
330
DBF1
100
AcDbEntity
  8
0
  6
Continuous
 62
     7
370
    25
100
AcDbCircle
 10
6848.609489345758
 20
7256.799504854047
 30
0.0
 40
0.3000000000001819
100
AcDbArc
 50
90.0
 51
180.0
  0
LINE
  5
E3DA
330
DBF1
100
AcDbEntity
  8
0
  6
Continuous
 62
     7
370
    25
100
AcDbLine
 10
6848.309489345757
 20
7251.399504854047
 30
0.0
 11
6848.309489345757
 21
7256.799504854047
 31
0.0
  0
ARC
  5
E3DB
330
DBF1
100
AcDbEntity
  8
0
  6
Continuous
 62
     7
370
    25
100
AcDbCircle
 10
6848.609489345758
 20
7251.399504854047
 30
0.0
 40
0.3000000000001819
100
AcDbArc
 50
180.0
 51
270.0
  0
LINE
  5
E3DC
330
DBF1
100
AcDbEntity
  8
0
  6
Continuous
 62
     7
370
    25
100
AcDbLine
 10
6850.709489345758
 20
7251.099504854047
 30
0.0
 11
6848.609489345758
 21
7251.099504854047
 31
0.0
  0
ARC
  5
E3DD
330
DBF1
100
AcDbEntity
  8
0
  6
Continuous
 62
     7
370
    25
100
AcDbCircle
 10
6850.709489345758
 20
7251.399504854047
 30
0.0
 40
0.3000000000001819
100
AcDbArc
 50
270.0
 51
0.0
  0
LINE
  5
E3DE
330
DBF1
100
AcDbEntity
  8
0
  6
Continuous
 62
     7
370
    25
100
AcDbLine
 10
6851.009489345758
 20
7251.799504854048
 30
0.0
 11
6851.009489345758
 21
7251.399504854047
 31
0.0
  0
ARC
  5
E3DF
330
DBF1
100
AcDbEntity
  8
0
  6
Continuous
 62
     7
370
    25
100
AcDbCircle
 10
6851.309489345757
 20
7251.799504854048
 30
0.0
 40
0.2999999999999332
100
AcDbArc
 50
90.0
 51
180.0
  0
LINE
  5
E3E0
330
DBF1
100
AcDbEntity
  8
0
  6
Continuous
 62
     7
370
    25
100
AcDbLine
 10
6852.509489345757
 20
7252.099504854047
 30
0.0
 11
6851.309489345757
 21
7252.099504854047
 31
0.0
  0
ARC
  5
E3E1
330
DBF1
100
AcDbEntity
  8
0
  6
Continuous
 62
     7
370
    25
100
AcDbCircle
 10
6852.509489345757
 20
7251.799504854048
 30
0.0
 40
0.3000000000000824
100
AcDbArc
 50
0.0
 51
90.0
  0
LINE
  5
E3E2
330
DBF1
100
AcDbEntity
  8
0
  6
Continuous
 62
     7
370
    25
100
AcDbLine
 10
6852.809489345757
 20
7244.399504854045
 30
0.0
 11
6852.809489345757
 21
7251.799504854048
 31
0.0
  0
ARC
  5
E3E3
330
DBF1
100
AcDbEntity
  8
0
  6
Continuous
 62
     7
370
    25
100
AcDbCircle
 10
6853.109489345755
 20
7244.399504854045
 30
0.0
 40
0.2999999999975387
100
AcDbArc
 50
180.0
 51
270.0
  0
LINE
  5
E3E4
330
DBF1
100
AcDbEntity
  8
0
  6
Continuous
 62
     7
370
    25
100
AcDbLine
 10
6862.059489345757
 20
7244.099504854048
 30
0.0
 11
6853.109489345755
 21
7244.099504854047
 31
0.0
  0
ARC
  5
E3E5
330
DBF1
100
AcDbEntity
  8
0
  6
Continuous
 62
     7
370
    25
100
AcDbCircle
 10
6862.059489345757
 20
7243.799504854048
 30
0.0
 40
0.3000000000001819
100
AcDbArc
 50
0.0
 51
90.0
  0
LINE
  5
E3E6
330
DBF1
100
AcDbEntity
  8
0
  6
Continuous
 62
     7
370
    25
100
AcDbLine
 10
6862.359489345758
 20
7243.399765780796
 30
0.0
 11
6862.359489345758
 21
7243.799504854048
 31
0.0
  0
LINE
  5
E3E7
330
DBF1
100
AcDbEntity
  8
0
  6
Continuous
 62
     7
370
    25
100
AcDbLine
 10
6863.009489345758
 20
7243.399765780796
 30
0.0
 11
6862.359489345758
 21
7243.399765780796
 31
0.0
  0
ARC
  5
E3E8
330
DBF1
100
AcDbEntity
  8
0
  6
Continuous
 62
     7
370
    25
100
AcDbCircle
 10
6863.009489345758
 20
7242.899635317422
 30
0.0
 40
0.5001304633749157
100
AcDbArc
 50
270.0
 51
90.0
  0
LINE
  5
E3E9
330
DBF1
100
AcDbEntity
  8
0
  6
Continuous
 62
     7
370
    25
100
AcDbLine
 10
6862.359489345758
 20
7242.399504854047
 30
0.0
 11
6863.009489345758
 21
7242.399504854047
 31
0.0
  0
LINE
  5
E3EA
330
DBF1
100
AcDbEntity
  8
0
  6
Continuous
 62
     7
370
    25
100
AcDbLine
 10
6862.359489345758
 20
7241.599504854047
 30
0.0
 11
6862.359489345758
 21
7242.399504854047
 31
0.0
  0
LINE
  5
E3EB
330
DBF1
100
AcDbEntity
  8
0
  6
Continuous
 62
     7
370
    25
100
AcDbLine
 10
6853.109489345758
 20
7241.599504854047
 30
0.0
 11
6862.359489345758
 21
7241.599504854047
 31
0.0
  0
LINE
  5
E3EC
330
DBF1
100
AcDbEntity
  8
0
  6
Continuous
 62
     7
370
    25
100
AcDbLine
 10
6853.109489345758
 20
7234.699504854048
 30
0.0
 11
6853.109489345758
 21
7241.599504854047
 31
0.0
  0
LINE
  5
E3ED
330
DBF1
100
AcDbEntity
  8
0
  6
Continuous
 62
     7
370
    25
100
AcDbLine
 10
6870.60948675576
 20
7234.699504854048
 30
0.0
 11
6853.109489345758
 21
7234.699504854048
 31
0.0
  0
LINE
  5
E3EE
330
DBF1
100
AcDbEntity
  8
0
  6
Continuous
 62
     7
370
    25
100
AcDbLine
 10
6871.10948675576
 20
7234.199504854048
 30
0.0
 11
6870.60948675576
 21
7234.699504854048
 31
0.0
  0
LINE
  5
E3EF
330
DBF1
100
AcDbEntity
  8
0
  6
Continuous
 62
     7
370
    25
100
AcDbLine
 10
6871.609486755761
 20
7234.699504854048
 30
0.0
 11
6871.10948675576
 21
7234.199504854048
 31
0.0
  0
LINE
  5
E3F0
330
DBF1
100
AcDbEntity
  8
0
  6
Continuous
 62
     7
370
    25
100
AcDbLine
 10
6889.109489345758
 20
7234.699504854048
 30
0.0
 11
6871.609486755761
 21
7234.699504854048
 31
0.0
  0
LINE
  5
E3F1
330
DBF1
100
AcDbEntity
  8
0
  6
Continuous
 62
     7
370
    25
100
AcDbLine
 10
6889.109489345758
 20
7241.599504854047
 30
0.0
 11
6889.109489345758
 21
7234.699504854048
 31
0.0
  0
LINE
  5
E3F2
330
DBF1
100
AcDbEntity
  8
0
  6
Continuous
 62
     7
370
    25
100
AcDbLine
 10
6879.259489345757
 20
7241.599504854047
 30
0.0
 11
6889.109489345758
 21
7241.599504854047
 31
0.0
  0
LINE
  5
E3F3
330
DBF1
100
AcDbEntity
  8
0
  6
Continuous
 62
     7
370
    25
100
AcDbLine
 10
6879.259489345757
 20
7242.399504854047
 30
0.0
 11
6879.259489345757
 21
7241.599504854047
 31
0.0
  0
LINE
  5
E3F4
330
DBF1
100
AcDbEntity
  8
0
  6
Continuous
 62
     7
370
    25
100
AcDbLine
 10
6878.609489345758
 20
7242.399504854047
 30
0.0
 11
6879.259489345757
 21
7242.399504854047
 31
0.0
  0
ARC
  5
E3F5
330
DBF1
100
AcDbEntity
  8
0
  6
Continuous
 62
     7
370
    25
100
AcDbCircle
 10
6878.609489345758
 20
7242.899635317422
 30
0.0
 40
0.5001304633749157
100
AcDbArc
 50
90.0
 51
270.0
  0
LINE
  5
E3F6
330
DBF1
100
AcDbEntity
  8
0
  6
Continuous
 62
     7
370
    25
100
AcDbLine
 10
6879.259489345757
 20
7243.399765780796
 30
0.0
 11
6878.609489345758
 21
7243.399765780796
 31
0.0
  0
LINE
  5
E3F7
330
DBF1
100
AcDbEntity
  8
0
  6
Continuous
 62
     7
370
    25
100
AcDbLine
 10
6879.259489345757
 20
7243.799504854048
 30
0.0
 11
6879.259489345757
 21
7243.399765780796
 31
0.0
  0
ARC
  5
E3F8
330
DBF1
100
AcDbEntity
  8
0
  6
Continuous
 62
     7
370
    25
100
AcDbCircle
 10
6879.559489345757
 20
7243.799504854048
 30
0.0
 40
0.3000000000000398
100
AcDbArc
 50
90.0
 51
180.0
  0
LINE
  5
E3F9
330
DBF1
100
AcDbEntity
  8
0
  6
Continuous
 62
     7
370
    25
100
AcDbLine
 10
6896.809486755761
 20
7244.099504854047
 30
0.0
 11
6879.559489345757
 21
7244.099504854047
 31
0.0
  0
LINE
  5
E3FA
330
DBF1
100
AcDbEntity
  8
0
  6
Continuous
 62
     7
370
    25
100
AcDbLine
 10
6896.809486755761
 20
7222.899504854047
 30
0.0
 11
6896.809486755761
 21
7244.099504854047
 31
0.0
  0
ARC
  5
E3FB
330
DBF1
100
AcDbEntity
  8
0
  6
Continuous
 62
     7
370
    25
100
AcDbCircle
 10
6896.509486755761
 20
7222.899504854047
 30
0.0
 40
0.3000000000001819
100
AcDbArc
 50
270.0
 51
0.0
  0
ARC
  5
E3FC
330
DBF1
100
AcDbEntity
  8
0
  6
Continuous
 62
     7
370
    25
100
AcDbCircle
 10
6895.10948675576
 20
7229.299504854048
 30
0.0
 40
0.2000000000004434
100
AcDbArc
 50
270.0
 51
0.0
  0
LINE
  5
E3FD
330
DBF1
100
AcDbEntity
  8
0
  6
Continuous
 62
     7
370
    25
100
AcDbLine
 10
6895.309486755761
 20
7229.299504854048
 30
0.0
 11
6895.309486755761
 21
7242.099504854047
 31
0.0
  0
LINE
  5
E3FE
330
DBF1
100
AcDbEntity
  8
0
  6
Continuous
 62
     7
370
    25
100
AcDbLine
 10
6895.309486755761
 20
7242.099504854047
 30
0.0
 11
6890.809489345757
 21
7242.099504854047
 31
0.0
  0
LINE
  5
E3FF
330
DBF1
100
AcDbEntity
  8
0
  6
Continuous
 62
     7
370
    25
100
AcDbLine
 10
6890.809489345757
 20
7242.099504854047
 30
0.0
 11
6890.809489345757
 21
7234.416751497514
 31
0.0
  0
LINE
  5
E400
330
DBF1
100
AcDbEntity
  8
0
  6
Continuous
 62
     7
370
    25
100
AcDbLine
 10
6890.809489345757
 20
7234.416751497514
 30
0.0
 11
6893.124052505412
 21
7229.218157525432
 31
0.0
  0
ARC
  5
E401
330
DBF1
100
AcDbEntity
  8
0
  6
Continuous
 62
     7
370
    25
100
AcDbCircle
 10
6893.30676159694
 20
7229.299504854048
 30
0.0
 40
0.2000000000004434
100
AcDbArc
 50
204.0000000002654
 51
270.0
  0
LINE
  5
E402
330
DBF1
100
AcDbEntity
  8
0
  6
Continuous
 62
     7
370
    25
100
AcDbLine
 10
6893.30676159694
 20
7229.099504854047
 30
0.0
 11
6895.10948675576
 21
7229.099504854047
 31
0.0
  0
LINE
  5
E403
330
DBF1
100
AcDbEntity
  8
0
  6
Continuous
 62
     7
370
    25
100
AcDbLine
 10
6851.409489345758
 20
7247.599504854047
 30
0.0
 11
6851.409489345758
 21
7231.272305831292
 31
0.0
  0
LINE
  5
E404
330
DBF1
100
AcDbEntity
  8
0
  6
Continuous
 62
     7
370
    25
100
AcDbLine
 10
6851.409489345758
 20
7247.599504854047
 30
0.0
 11
6848.009489345757
 21
7247.599504854047
 31
0.0
  0
LINE
  5
E405
330
DBF1
100
AcDbEntity
  8
0
  6
Continuous
 62
     7
370
    25
100
AcDbLine
 10
6848.009489345757
 20
7229.099504854047
 30
0.0
 11
6848.009489345757
 21
7247.599504854047
 31
0.0
  0
LINE
  5
E406
330
DBF1
100
AcDbEntity
  8
0
  6
Continuous
 62
     7
370
    25
100
AcDbLine
 10
6848.009489345757
 20
7229.099504854047
 30
0.0
 11
6850.442096023217
 21
7229.099504854047
 31
0.0
  0
LINE
  5
E407
330
DBF1
100
AcDbEntity
  8
0
  6
Continuous
 62
     7
370
    25
100
AcDbLine
 10
6851.409489345758
 20
7231.272305831292
 30
0.0
 11
6850.442096023217
 21
7229.099504854047
 31
0.0
  0
LINE
  5
E408
330
DBF1
100
AcDbEntity
  8
0
  6
Continuous
 62
     7
370
    25
100
AcDbLine
 10
6846.809489345757
 20
7260.599504854047
 30
0.0
 11
6846.809489345757
 21
7222.899504854047
 31
0.0
  0
ARC
  5
E409
330
DBF1
100
AcDbEntity
  8
0
  6
Continuous
 62
     7
370
    25
100
AcDbCircle
 10
6847.109489345758
 20
7222.899504854047
 30
0.0
 40
0.3000000000001819
100
AcDbArc
 50
180.0
 51
270.0
  0
ARC
  5
E40A
330
DBF1
100
AcDbEntity
  8
0
  6
Continuous
 62
     7
370
    25
100
AcDbCircle
 10
6877.966777926577
 20
7269.423656162775
 30
0.0
 40
0.1999999999999176
100
AcDbArc
 50
180.0
 51
270.0
  0
LINE
  5
E40B
330
DBF1
100
AcDbEntity
  8
0
  6
Continuous
 62
     7
370
    25
100
AcDbLine
 10
6879.766777926578
 20
7269.223656162775
 30
0.0
 11
6877.966777926577
 21
7269.223656162775
 31
0.0
  0
ARC
  5
E40C
330
DBF1
100
AcDbEntity
  8
0
  6
Continuous
 62
     7
370
    25
100
AcDbCircle
 10
6879.766777926578
 20
7269.423656162775
 30
0.0
 40
0.2000000000000739
100
AcDbArc
 50
270.0
 51
0.0
  0
LINE
  5
E40D
330
DBF1
100
AcDbEntity
  8
0
  6
Continuous
 62
     7
370
    25
100
AcDbLine
 10
6879.966777926577
 20
7271.473656162775
 30
0.0
 11
6879.966777926577
 21
7269.423656162775
 31
0.0
  0
ARC
  5
E40E
330
DBF1
100
AcDbEntity
  8
0
  6
Continuous
 62
     7
370
    25
100
AcDbCircle
 10
6880.166777926578
 20
7271.473656162775
 30
0.0
 40
0.2000000000005855
100
AcDbArc
 50
90.0
 51
180.0
  0
LINE
  5
E40F
330
DBF1
100
AcDbEntity
  8
0
  6
Continuous
 62
     7
370
    25
100
AcDbLine
 10
6882.216480317053
 20
7271.673656162776
 30
0.0
 11
6880.166777926578
 21
7271.673656162776
 31
0.0
  0
ARC
  5
E410
330
DBF1
100
AcDbEntity
  8
0
  6
Continuous
 62
     7
370
    25
100
AcDbCircle
 10
6882.216480317053
 20
7267.423358542776
 30
0.0
 40
4.250297620000225
100
AcDbArc
 50
270.9589127250939
 51
90.0
  0
LINE
  5
E411
330
DBF1
100
AcDbEntity
  8
0
  6
Continuous
 62
     7
370
    25
100
AcDbLine
 10
6880.166777926578
 20
7263.173656162776
 30
0.0
 11
6882.287610760604
 21
7263.173656162776
 31
0.0
  0
ARC
  5
E412
330
DBF1
100
AcDbEntity
  8
0
  6
Continuous
 62
     7
370
    25
100
AcDbCircle
 10
6880.166777926578
 20
7263.373656162776
 30
0.0
 40
0.2000000000000171
100
AcDbArc
 50
180.0
 51
270.0
  0
LINE
  5
E413
330
DBF1
100
AcDbEntity
  8
0
  6
Continuous
 62
     7
370
    25
100
AcDbLine
 10
6879.966777926577
 20
7265.423656162776
 30
0.0
 11
6879.966777926577
 21
7263.373656162776
 31
0.0
  0
ARC
  5
E414
330
DBF1
100
AcDbEntity
  8
0
  6
Continuous
 62
     7
370
    25
100
AcDbCircle
 10
6879.766777926578
 20
7265.423656162776
 30
0.0
 40
0.2000000000003865
100
AcDbArc
 50
0.0
 51
90.0
  0
LINE
  5
E415
330
DBF1
100
AcDbEntity
  8
0
  6
Continuous
 62
     7
370
    25
100
AcDbLine
 10
6877.968623869362
 20
7265.623656162776
 30
0.0
 11
6879.766777926578
 21
7265.623656162776
 31
0.0
  0
ARC
  5
E416
330
DBF1
100
AcDbEntity
  8
0
  6
Continuous
 62
     7
370
    25
100
AcDbCircle
 10
6877.968623869362
 20
7265.423656162776
 30
0.0
 40
0.2000000000000455
100
AcDbArc
 50
90.0
 51
180.0
  0
LINE
  5
E417
330
DBF1
100
AcDbEntity
  8
0
  6
Continuous
 62
     7
370
    25
100
AcDbLine
 10
6877.768623869361
 20
7265.073387860293
 30
0.0
 11
6877.768623869361
 21
7265.423656162776
 31
0.0
  0
ARC
  5
E418
330
DBF1
100
AcDbEntity
  8
0
  6
Continuous
 62
     7
370
    25
100
AcDbCircle
 10
6877.472324462839
 20
7265.073387860293
 30
0.0
 40
0.2962994065222537
100
AcDbArc
 50
308.3069243358473
 51
0.0
  0
ARC
  5
E419
330
DBF1
100
AcDbEntity
  8
0
  6
Continuous
 62
     7
370
    25
100
AcDbCircle
 10
6877.466741949366
 20
7265.073656162775
 30
0.0
 40
0.300000000000041
100
AcDbArc
 50
222.2090464123453
 51
309.1118214452122
  0
LINE
  5
E41A
330
DBF1
100
AcDbEntity
  8
0
  6
Continuous
 62
     7
370
    25
100
AcDbLine
 10
6876.195833830965
 20
7266.16198434358
 30
0.0
 11
6877.244532390575
 21
7264.87210489887
 31
0.0
  0
ARC
  5
E41B
330
DBF1
100
AcDbEntity
  8
0
  6
Continuous
 62
     7
370
    25
100
AcDbCircle
 10
6877.747666367242
 20
7267.423656162775
 30
0.0
 40
1.999999999999946
100
AcDbArc
 50
140.8881786095407
 51
219.1118213904795
  0
LINE
  5
E41C
330
DBF1
100
AcDbEntity
  8
0
  6
Continuous
 62
     7
370
    25
100
AcDbLine
 10
6877.244532390575
 20
7269.975207426681
 30
0.0
 11
6876.195833830965
 21
7268.68532798197
 31
0.0
  0
ARC
  5
E41D
330
DBF1
100
AcDbEntity
  8
0
  6
Continuous
 62
     7
370
    25
100
AcDbCircle
 10
6877.466741949366
 20
7269.773656162775
 30
0.0
 40
0.2999999999998814
100
AcDbArc
 50
50.88817854529199
 51
137.7909535876547
  0
ARC
  5
E41E
330
DBF1
100
AcDbEntity
  8
0
  6
Continuous
 62
     7
370
    25
100
AcDbCircle
 10
6877.466028368489
 20
7269.773270495542
 30
0.0
 40
0.3007495580891089
100
AcDbArc
 50
0.0
 51
50.8290468659508
  0
LINE
  5
E41F
330
DBF1
100
AcDbEntity
  8
0
  6
Continuous
 62
     7
370
    25
100
AcDbLine
 10
6877.766777926578
 20
7269.773270495542
 30
0.0
 11
6877.766777926578
 21
7269.423656162775
 31
0.0
  0
LINE
  5
E420
330
DBF1
100
AcDbEntity
  8
0
  6
Continuous
 62
     7
370
    25
100
AcDbLine
 10
6879.966777926577
 20
7267.923656162776
 30
0.0
 11
6879.966777926577
 21
7266.923656162785
 31
0.0
  0
ARC
  5
E421
330
DBF1
100
AcDbEntity
  8
0
  6
Continuous
 62
     7
370
    25
100
AcDbCircle
 10
6879.766777926578
 20
7267.923656162776
 30
0.0
 40
0.2000000000000313
100
AcDbArc
 50
0.0
 51
90.0
  0
LINE
  5
E422
330
DBF1
100
AcDbEntity
  8
0
  6
Continuous
 62
     7
370
    25
100
AcDbLine
 10
6879.766777926578
 20
7268.123656162776
 30
0.0
 11
6877.416003888229
 21
7268.123656162776
 31
0.0
  0
ARC
  5
E423
330
DBF1
100
AcDbEntity
  8
0
  6
Continuous
 62
     7
370
    25
100
AcDbCircle
 10
6877.416003888229
 20
7267.923656162776
 30
0.0
 40
0.1999999999996191
100
AcDbArc
 50
90.0
 51
123.5573097600228
  0
ARC
  5
E424
330
DBF1
100
AcDbEntity
  8
0
  6
Continuous
 62
     7
370
    25
100
AcDbCircle
 10
6877.747666367242
 20
7267.423656162775
 30
0.0
 40
0.7999999999883591
100
AcDbArc
 50
123.5573097601297
 51
236.4426902380817
  0
ARC
  5
E425
330
DBF1
100
AcDbEntity
  8
0
  6
Continuous
 62
     7
370
    25
100
AcDbCircle
 10
6877.41600388821
 20
7266.92365616278
 30
0.0
 40
0.1999999999942618
100
AcDbArc
 50
236.4426902381736
 51
270.0
  0
LINE
  5
E426
330
DBF1
100
AcDbEntity
  8
0
  6
Continuous
 62
     7
370
    25
100
AcDbLine
 10
6877.41600388821
 20
7266.723656162786
 30
0.0
 11
6879.766777926578
 21
7266.723656162786
 31
0.0
  0
ARC
  5
E427
330
DBF1
100
AcDbEntity
  8
0
  6
Continuous
 62
     7
370
    25
100
AcDbCircle
 10
6879.766777926578
 20
7266.923656162785
 30
0.0
 40
0.1999999999996049
100
AcDbArc
 50
270.0
 51
0.0
  0
LINE
  5
E428
330
DBF1
100
AcDbEntity
  8
0
  6
Continuous
 62
     7
370
    25
100
AcDbLine
 10
6880.966777926577
 20
7270.873656162776
 30
0.0
 11
6880.966777926577
 21
7263.973656162775
 31
0.0
  0
ARC
  5
E429
330
DBF1
100
AcDbEntity
  8
0
  6
Continuous
 62
     7
370
    25
100
AcDbCircle
 10
6881.166777926577
 20
7263.973656162775
 30
0.0
 40
0.1999999999998181
100
AcDbArc
 50
180.0
 51
270.0
  0
LINE
  5
E42A
330
DBF1
100
AcDbEntity
  8
0
  6
Continuous
 62
     7
370
    25
100
AcDbLine
 10
6881.166777926577
 20
7263.773656162775
 30
0.0
 11
6882.216496236013
 21
7263.773656162775
 31
0.0
  0
ARC
  5
E42B
330
DBF1
100
AcDbEntity
  8
0
  6
Continuous
 62
     7
370
    25
100
AcDbCircle
 10
6882.216496236013
 20
7267.423656162775
 30
0.0
 40
3.650000000000091
100
AcDbArc
 50
270.0
 51
89.99999997044709
  0
LINE
  5
E42C
330
DBF1
100
AcDbEntity
  8
0
  6
Continuous
 62
     7
370
    25
100
AcDbLine
 10
6882.216488277264
 20
7271.073656162775
 30
0.0
 11
6881.166777926577
 21
7271.073656162775
 31
0.0
  0
ARC
  5
E42D
330
DBF1
100
AcDbEntity
  8
0
  6
Continuous
 62
     7
370
    25
100
AcDbCircle
 10
6881.166777926577
 20
7270.873656162776
 30
0.0
 40
0.1999999999999886
100
AcDbArc
 50
90.0
 51
180.0
  0
LINE
  5
E42E
330
DBF1
100
AcDbEntity
  8
0
100
AcDbLine
 10
6854.475664690794
 20
7254.225306561254
 30
0.0
 11
6873.46129263994
 21
7266.037336573819
 31
0.0
  0
LINE
  5
E42F
330
DBF1
100
AcDbEntity
  8
0
100
AcDbLine
 10
6870.475508245157
 20
7242.102473970899
 30
0.0
 11
6879.911145133219
 21
7254.804292858675
 31
0.0
  0
LINE
  5
E430
330
DBF1
100
AcDbEntity
  8
0
  6
Continuous
 62
     7
370
    25
100
AcDbLine
 10
6848.345507441102
 20
7202.272744962179
 30
0.0
 11
6848.965035827052
 21
7200.610760313172
 31
0.0
  0
LINE
  5
E431
330
DBF1
100
AcDbEntity
  8
0
  6
Continuous
 62
     7
370
    25
100
AcDbLine
 10
6847.784409456389
 20
7202.233456406861
 30
0.0
 11
6848.345507441102
 21
7202.272744962179
 31
0.0
  0
ARC
  5
E432
330
DBF1
100
AcDbEntity
  8
0
  6
Continuous
 62
     7
370
    25
100
AcDbCircle
 10
6847.742499563842
 20
7202.831990917901
 30
0.0
 40
0.6000000000001487
100
AcDbArc
 50
184.0053614764099
 51
274.0053614764965
  0
LINE
  5
E433
330
DBF1
100
AcDbEntity
  8
0
  6
Continuous
 62
     7
370
    25
100
AcDbLine
 10
6847.12999508862
 20
7202.989592529035
 30
0.0
 11
6847.143965052802
 21
7202.790081025355
 31
0.0
  0
ARC
  5
E434
330
DBF1
100
AcDbEntity
  8
0
  6
Continuous
 62
     7
370
    25
100
AcDbCircle
 10
6847.3295065923
 20
7203.003562493217
 30
0.0
 40
0.2000000000000125
100
AcDbArc
 50
94.00536147649049
 51
184.0053614765087
  0
LINE
  5
E435
330
DBF1
100
AcDbEntity
  8
0
  6
Continuous
 62
     7
370
    25
100
AcDbLine
 10
6847.981335875874
 20
7203.249693823183
 30
0.0
 11
6847.315536628118
 21
7203.203073996898
 31
0.0
  0
LINE
  5
E436
330
DBF1
100
AcDbEntity
  8
0
  6
Continuous
 62
     7
370
    25
100
AcDbLine
 10
6846.641468428536
 20
7206.885633765087
 30
0.0
 11
6847.981335875874
 21
7203.249693823183
 31
0.0
  0
ARC
  5
E437
330
DBF1
100
AcDbEntity
  8
0
  6
Continuous
 62
     7
370
    25
100
AcDbCircle
 10
6846.459876551636
 20
7206.801822129594
 30
0.0
 40
0.199999999999917
100
AcDbArc
 50
24.77514056892291
 51
90.0
  0
LINE
  5
E438
330
DBF1
100
AcDbEntity
  8
0
  6
Continuous
 62
     7
370
    25
100
AcDbLine
 10
6845.35909954988
 20
7207.001822129594
 30
0.0
 11
6846.459876551636
 21
7207.001822129594
 31
0.0
  0
ARC
  5
E439
330
DBF1
100
AcDbEntity
  8
0
  6
Continuous
 62
     7
370
    25
100
AcDbCircle
 10
6845.35909954988
 20
7206.801822129594
 30
0.0
 40
0.2000000000000313
100
AcDbArc
 50
90.0
 51
155.2248594310771
  0
LINE
  5
E43A
330
DBF1
100
AcDbEntity
  8
0
  6
Continuous
 62
     7
370
    25
100
AcDbLine
 10
6843.837640225642
 20
7203.249693823183
 30
0.0
 11
6845.17750767298
 21
7206.885633765087
 31
0.0
  0
LINE
  5
E43B
330
DBF1
100
AcDbEntity
  8
0
  6
Continuous
 62
     7
370
    25
100
AcDbLine
 10
6844.503439473398
 20
7203.203073996898
 30
0.0
 11
6843.837640225642
 21
7203.249693823183
 31
0.0
  0
ARC
  5
E43C
330
DBF1
100
AcDbEntity
  8
0
  6
Continuous
 62
     7
370
    25
100
AcDbCircle
 10
6844.489469509216
 20
7203.003562493217
 30
0.0
 40
0.2000000000001309
100
AcDbArc
 50
355.9946385235095
 51
85.99463852350951
  0
LINE
  5
E43D
330
DBF1
100
AcDbEntity
  8
0
  6
Continuous
 62
     7
370
    25
100
AcDbLine
 10
6844.675011048715
 20
7202.790081025355
 30
0.0
 11
6844.688981012897
 21
7202.989592529035
 31
0.0
  0
ARC
  5
E43E
330
DBF1
100
AcDbEntity
  8
0
  6
Continuous
 62
     7
370
    25
100
AcDbCircle
 10
6844.076476537673
 20
7202.831990917901
 30
0.0
 40
0.6000000000000172
100
AcDbArc
 50
265.9946385235901
 51
355.994638523584
  0
LINE
  5
E43F
330
DBF1
100
AcDbEntity
  8
0
  6
Continuous
 62
     7
370
    25
100
AcDbLine
 10
6843.473468660414
 20
7202.272744962179
 30
0.0
 11
6844.034566645128
 21
7202.233456406861
 31
0.0
  0
LINE
  5
E440
330
DBF1
100
AcDbEntity
  8
0
  6
Continuous
 62
     7
370
    25
100
AcDbLine
 10
6842.853940274464
 20
7200.610760313172
 30
0.0
 11
6843.473468660414
 21
7202.272744962179
 31
0.0
  0
ARC
  5
E441
330
DBF1
100
AcDbEntity
  8
0
  6
Continuous
 62
     7
370
    25
100
AcDbCircle
 10
6842.494026187102
 20
7200.785293547025
 30
0.0
 40
0.4000000000000919
100
AcDbArc
 50
265.9946385236303
 51
334.1298495010611
  0
LINE
  5
E442
330
DBF1
100
AcDbEntity
  8
0
  6
Continuous
 62
     7
370
    25
100
AcDbLine
 10
6842.038777087212
 20
7200.416191089161
 30
0.0
 11
6842.466086258739
 21
7200.386270539664
 31
0.0
  0
ARC
  5
E443
330
DBF1
100
AcDbEntity
  8
0
  6
Continuous
 62
     7
370
    25
100
AcDbCircle
 10
6842.066717015576
 20
7200.815214096521
 30
0.0
 40
0.3999999999999915
100
AcDbArc
 50
154.3680198667636
 51
265.9946385236303
  0
LINE
  5
E444
330
DBF1
100
AcDbEntity
  8
0
  6
Continuous
 62
     7
370
    25
100
AcDbLine
 10
6843.872671804558
 20
7206.922053596161
 30
0.0
 11
6841.706080530155
 21
7200.988249715349
 31
0.0
  0
ARC
  5
E445
330
DBF1
100
AcDbEntity
  8
0
  6
Continuous
 62
     7
370
    25
100
AcDbCircle
 10
6843.509488050758
 20
7207.089676867145
 30
0.0
 40
0.3999999999999572
100
AcDbArc
 50
335.22485943125
 51
0.0
  0
LINE
  5
E446
330
DBF1
100
AcDbEntity
  8
0
  6
Continuous
 62
     7
370
    25
100
AcDbLine
 10
6843.909488050758
 20
7207.801822129594
 30
0.0
 11
6843.909488050758
 21
7207.089676867145
 31
0.0
  0
ARC
  5
E447
330
DBF1
100
AcDbEntity
  8
0
  6
Continuous
 62
     7
370
    25
100
AcDbCircle
 10
6844.109488050758
 20
7207.801822129594
 30
0.0
 40
0.2000000000000739
100
AcDbArc
 50
90.0
 51
180.0
  0
LINE
  5
E448
330
DBF1
100
AcDbEntity
  8
0
  6
Continuous
 62
     7
370
    25
100
AcDbLine
 10
6847.709488050758
 20
7208.001822129594
 30
0.0
 11
6844.109488050758
 21
7208.001822129594
 31
0.0
  0
ARC
  5
E449
330
DBF1
100
AcDbEntity
  8
0
  6
Continuous
 62
     7
370
    25
100
AcDbCircle
 10
6847.709488050758
 20
7207.801822129594
 30
0.0
 40
0.1999999999999886
100
AcDbArc
 50
0.0
 51
90.0
  0
LINE
  5
E44A
330
DBF1
100
AcDbEntity
  8
0
  6
Continuous
 62
     7
370
    25
100
AcDbLine
 10
6847.909488050758
 20
7207.089676867145
 30
0.0
 11
6847.909488050758
 21
7207.801822129594
 31
0.0
  0
ARC
  5
E44B
330
DBF1
100
AcDbEntity
  8
0
  6
Continuous
 62
     7
370
    25
100
AcDbCircle
 10
6848.309488050758
 20
7207.089676867145
 30
0.0
 40
0.4000000000000098
100
AcDbArc
 50
180.0
 51
204.77514056875
  0
LINE
  5
E44C
330
DBF1
100
AcDbEntity
  8
0
  6
Continuous
 62
     7
370
    25
100
AcDbLine
 10
6850.112895571361
 20
7200.988249715349
 30
0.0
 11
6847.946304296958
 21
7206.922053596161
 31
0.0
  0
ARC
  5
E44D
330
DBF1
100
AcDbEntity
  8
0
  6
Continuous
 62
     7
370
    25
100
AcDbCircle
 10
6849.752259085941
 20
7200.815214096521
 30
0.0
 40
0.4000000000000346
100
AcDbArc
 50
274.0053614763697
 51
25.63198013323641
  0
LINE
  5
E44E
330
DBF1
100
AcDbEntity
  8
0
  6
Continuous
 62
     7
370
    25
100
AcDbLine
 10
6849.352889842778
 20
7200.386270539664
 30
0.0
 11
6849.780199014304
 21
7200.416191089161
 31
0.0
  0
ARC
  5
E44F
330
DBF1
100
AcDbEntity
  8
0
  6
Continuous
 62
     7
370
    25
100
AcDbCircle
 10
6849.324949914413
 20
7200.785293547026
 30
0.0
 40
0.4000000000002021
100
AcDbArc
 50
205.8701504990561
 51
274.0053614764996
  0
LINE
  5
E450
330
DBF1
100
AcDbEntity
  8
0
  6
Continuous
 62
     7
370
    25
100
AcDbLine
 10
6895.273468660417
 20
7202.272744962179
 30
0.0
 11
6894.653940274467
 21
7200.610760313172
 31
0.0
  0
LINE
  5
E451
330
DBF1
100
AcDbEntity
  8
0
  6
Continuous
 62
     7
370
    25
100
AcDbLine
 10
6895.834566645131
 20
7202.233456406861
 30
0.0
 11
6895.273468660417
 21
7202.272744962179
 31
0.0
  0
ARC
  5
E452
330
DBF1
100
AcDbEntity
  8
0
  6
Continuous
 62
     7
370
    25
100
AcDbCircle
 10
6895.876476537677
 20
7202.831990917901
 30
0.0
 40
0.6000000000001487
100
AcDbArc
 50
265.9946385235035
 51
355.9946385235901
  0
LINE
  5
E453
330
DBF1
100
AcDbEntity
  8
0
  6
Continuous
 62
     7
370
    25
100
AcDbLine
 10
6896.4889810129
 20
7202.989592529035
 30
0.0
 11
6896.475011048718
 21
7202.790081025355
 31
0.0
  0
ARC
  5
E454
330
DBF1
100
AcDbEntity
  8
0
  6
Continuous
 62
     7
370
    25
100
AcDbCircle
 10
6896.289469509219
 20
7203.003562493217
 30
0.0
 40
0.2000000000000125
100
AcDbArc
 50
355.9946385234912
 51
85.99463852350951
  0
LINE
  5
E455
330
DBF1
100
AcDbEntity
  8
0
  6
Continuous
 62
     7
370
    25
100
AcDbLine
 10
6895.637640225646
 20
7203.249693823183
 30
0.0
 11
6896.303439473401
 21
7203.203073996898
 31
0.0
  0
LINE
  5
E456
330
DBF1
100
AcDbEntity
  8
0
  6
Continuous
 62
     7
370
    25
100
AcDbLine
 10
6896.977507672983
 20
7206.885633765087
 30
0.0
 11
6895.637640225646
 21
7203.249693823183
 31
0.0
  0
ARC
  5
E457
330
DBF1
100
AcDbEntity
  8
0
  6
Continuous
 62
     7
370
    25
100
AcDbCircle
 10
6897.159099549884
 20
7206.801822129594
 30
0.0
 40
0.199999999999917
100
AcDbArc
 50
90.0
 51
155.2248594310771
  0
LINE
  5
E458
330
DBF1
100
AcDbEntity
  8
0
  6
Continuous
 62
     7
370
    25
100
AcDbLine
 10
6898.25987655164
 20
7207.001822129594
 30
0.0
 11
6897.159099549884
 21
7207.001822129594
 31
0.0
  0
ARC
  5
E459
330
DBF1
100
AcDbEntity
  8
0
  6
Continuous
 62
     7
370
    25
100
AcDbCircle
 10
6898.25987655164
 20
7206.801822129594
 30
0.0
 40
0.2000000000000313
100
AcDbArc
 50
24.77514056892291
 51
90.0
  0
LINE
  5
E45A
330
DBF1
100
AcDbEntity
  8
0
  6
Continuous
 62
     7
370
    25
100
AcDbLine
 10
6899.781335875878
 20
7203.249693823183
 30
0.0
 11
6898.441468428539
 21
7206.885633765087
 31
0.0
  0
LINE
  5
E45B
330
DBF1
100
AcDbEntity
  8
0
  6
Continuous
 62
     7
370
    25
100
AcDbLine
 10
6899.115536628121
 20
7203.203073996898
 30
0.0
 11
6899.781335875878
 21
7203.249693823183
 31
0.0
  0
ARC
  5
E45C
330
DBF1
100
AcDbEntity
  8
0
  6
Continuous
 62
     7
370
    25
100
AcDbCircle
 10
6899.129506592303
 20
7203.003562493217
 30
0.0
 40
0.2000000000001309
100
AcDbArc
 50
94.00536147649049
 51
184.0053614764905
  0
LINE
  5
E45D
330
DBF1
100
AcDbEntity
  8
0
  6
Continuous
 62
     7
370
    25
100
AcDbLine
 10
6898.943965052805
 20
7202.790081025355
 30
0.0
 11
6898.929995088622
 21
7202.989592529035
 31
0.0
  0
ARC
  5
E45E
330
DBF1
100
AcDbEntity
  8
0
  6
Continuous
 62
     7
370
    25
100
AcDbCircle
 10
6899.542499563846
 20
7202.831990917901
 30
0.0
 40
0.6000000000000172
100
AcDbArc
 50
184.005361476416
 51
274.0053614764099
  0
LINE
  5
E45F
330
DBF1
100
AcDbEntity
  8
0
  6
Continuous
 62
     7
370
    25
100
AcDbLine
 10
6900.145507441105
 20
7202.272744962179
 30
0.0
 11
6899.584409456392
 21
7202.233456406861
 31
0.0
  0
LINE
  5
E460
330
DBF1
100
AcDbEntity
  8
0
  6
Continuous
 62
     7
370
    25
100
AcDbLine
 10
6900.765035827056
 20
7200.610760313172
 30
0.0
 11
6900.145507441105
 21
7202.272744962179
 31
0.0
  0
ARC
  5
E461
330
DBF1
100
AcDbEntity
  8
0
  6
Continuous
 62
     7
370
    25
100
AcDbCircle
 10
6901.124949914417
 20
7200.785293547025
 30
0.0
 40
0.4000000000000919
100
AcDbArc
 50
205.8701504989388
 51
274.0053614763697
  0
LINE
  5
E462
330
DBF1
100
AcDbEntity
  8
0
  6
Continuous
 62
     7
370
    25
100
AcDbLine
 10
6901.580199014307
 20
7200.416191089161
 30
0.0
 11
6901.15288984278
 21
7200.386270539664
 31
0.0
  0
ARC
  5
E463
330
DBF1
100
AcDbEntity
  8
0
  6
Continuous
 62
     7
370
    25
100
AcDbCircle
 10
6901.552259085944
 20
7200.815214096521
 30
0.0
 40
0.3999999999999915
100
AcDbArc
 50
274.0053614763697
 51
25.63198013323641
  0
LINE
  5
E464
330
DBF1
100
AcDbEntity
  8
0
  6
Continuous
 62
     7
370
    25
100
AcDbLine
 10
6899.746304296961
 20
7206.922053596161
 30
0.0
 11
6901.912895571364
 21
7200.988249715349
 31
0.0
  0
ARC
  5
E465
330
DBF1
100
AcDbEntity
  8
0
  6
Continuous
 62
     7
370
    25
100
AcDbCircle
 10
6900.109488050762
 20
7207.089676867145
 30
0.0
 40
0.3999999999999572
100
AcDbArc
 50
180.0
 51
204.77514056875
  0
LINE
  5
E466
330
DBF1
100
AcDbEntity
  8
0
  6
Continuous
 62
     7
370
    25
100
AcDbLine
 10
6899.709488050761
 20
7207.801822129594
 30
0.0
 11
6899.709488050761
 21
7207.089676867145
 31
0.0
  0
ARC
  5
E467
330
DBF1
100
AcDbEntity
  8
0
  6
Continuous
 62
     7
370
    25
100
AcDbCircle
 10
6899.509488050761
 20
7207.801822129594
 30
0.0
 40
0.2000000000000739
100
AcDbArc
 50
0.0
 51
90.0
  0
LINE
  5
E468
330
DBF1
100
AcDbEntity
  8
0
  6
Continuous
 62
     7
370
    25
100
AcDbLine
 10
6895.909488050761
 20
7208.001822129594
 30
0.0
 11
6899.509488050761
 21
7208.001822129594
 31
0.0
  0
ARC
  5
E469
330
DBF1
100
AcDbEntity
  8
0
  6
Continuous
 62
     7
370
    25
100
AcDbCircle
 10
6895.909488050761
 20
7207.801822129594
 30
0.0
 40
0.1999999999999886
100
AcDbArc
 50
90.0
 51
180.0
  0
LINE
  5
E46A
330
DBF1
100
AcDbEntity
  8
0
  6
Continuous
 62
     7
370
    25
100
AcDbLine
 10
6895.709488050761
 20
7207.089676867145
 30
0.0
 11
6895.709488050761
 21
7207.801822129594
 31
0.0
  0
ARC
  5
E46B
330
DBF1
100
AcDbEntity
  8
0
  6
Continuous
 62
     7
370
    25
100
AcDbCircle
 10
6895.309488050762
 20
7207.089676867145
 30
0.0
 40
0.4000000000000098
100
AcDbArc
 50
335.22485943125
 51
0.0
  0
LINE
  5
E46C
330
DBF1
100
AcDbEntity
  8
0
  6
Continuous
 62
     7
370
    25
100
AcDbLine
 10
6893.506080530158
 20
7200.988249715349
 30
0.0
 11
6895.672671804561
 21
7206.922053596161
 31
0.0
  0
ARC
  5
E46D
330
DBF1
100
AcDbEntity
  8
0
  6
Continuous
 62
     7
370
    25
100
AcDbCircle
 10
6893.866717015579
 20
7200.815214096521
 30
0.0
 40
0.4000000000000346
100
AcDbArc
 50
154.3680198667636
 51
265.9946385236303
  0
LINE
  5
E46E
330
DBF1
100
AcDbEntity
  8
0
  6
Continuous
 62
     7
370
    25
100
AcDbLine
 10
6894.266086258742
 20
7200.386270539664
 30
0.0
 11
6893.838777087215
 21
7200.416191089161
 31
0.0
  0
ARC
  5
E46F
330
DBF1
100
AcDbEntity
  8
0
  6
Continuous
 62
     7
370
    25
100
AcDbCircle
 10
6894.294026187106
 20
7200.785293547026
 30
0.0
 40
0.4000000000002021
100
AcDbArc
 50
265.9946385235004
 51
334.1298495009439
  0
INSERT
  5
E470
330
DBF1
100
AcDbEntity
  8
0
100
AcDbBlockReference
  2
A$C17531
 10
6843.359488050758
 20
7184.440499852926
 30
0.0
 50
180.0
  0
INSERT
  5
E471
330
DBF1
100
AcDbEntity
  8
0
100
AcDbBlockReference
  2
A$C17531
 10
6900.259488050757
 20
7184.440499852925
 30
0.0
 41
-1.0
 50
179.9999999999933
  0
LINE
  5
E472
330
DBF1
100
AcDbEntity
  8
0
100
AcDbLine
 10
6846.539538990755
 20
7210.507868927724
 30
0.0
 11
6855.733236471431
 21
7222.483869593341
 31
0.0
  0
LINE
  5
E473
330
DBF1
100
AcDbEntity
  8
0
100
AcDbLine
 10
6837.466811213773
 20
7186.434897892797
 30
0.0
 11
6844.966932842745
 21
7199.257686484266
 31
0.0
  0
LINE
  5
E474
330
DBF1
100
AcDbEntity
  8
0
100
AcDbLine
 10
6906.152164887743
 20
7186.434897892796
 30
0.0
 11
6898.652043258772
 21
7199.257686484266
 31
0.0
  0
LINE
  5
E475
330
DBF1
100
AcDbEntity
  8
0
100
AcDbLine
 10
6897.079437110762
 20
7210.507868927724
 30
0.0
 11
6887.885739630087
 21
7222.483869593341
 31
0.0
  0
ENDSEC
  0
SECTION
  2
OBJECTS
  0
DICTIONARY
  5
DBE1
330
0
100
AcDbDictionary
281
     1
  3
ACAD_DETAILVIEWSTYLE
350
E6B5
  3
ACAD_GROUP
350
DBE2
  3
ACAD_LAYOUT
350
DBEE
  3
ACAD_MLINESTYLE
350
DBEB
  3
ACAD_PLOTSETTINGS
350
DBED
  3
ACAD_PLOTSTYLENAME
350
DBE3
  3
ACAD_SCALELIST
350
DDD7
  3
ACAD_SECTIONVIEWSTYLE
350
E6B6
  3
AcDbVariableDictionary
350
E6B0
  3
APPDATA
350
DE16
  3
DWGPROPS
350
E6B7
  0
DICTIONARY
  5
E6B5
102
{ACAD_REACTORS
330
DBE1
102
}
330
DBE1
100
AcDbDictionary
281
     1
  0
DICTIONARY
  5
DBE2
102
{ACAD_REACTORS
330
DBE1
102
}
330
DBE1
100
AcDbDictionary
281
     1
  0
DICTIONARY
  5
DBEE
102
{ACAD_REACTORS
330
DBE1
102
}
330
DBE1
100
AcDbDictionary
281
     1
  3
Foglio 1
350
DBF0
  3
Model
350
DBF2
  0
DICTIONARY
  5
DBEB
102
{ACAD_REACTORS
330
DBE1
102
}
330
DBE1
100
AcDbDictionary
281
     1
  3
Standard
350
DBEC
  0
DICTIONARY
  5
DBED
102
{ACAD_REACTORS
330
DBE1
102
}
330
DBE1
100
AcDbDictionary
281
     1
  0
ACDBDICTIONARYWDFLT
  5
DBE3
102
{ACAD_REACTORS
330
DBE1
102
}
330
DBE1
100
AcDbDictionary
281
     1
  3
Normal
350
DBE4
100
AcDbDictionaryWithDefault
340
DBE4
  0
DICTIONARY
  5
DDD7
102
{ACAD_REACTORS
330
DBE1
102
}
330
DBE1
100
AcDbDictionary
281
     1
  3
A0
350
DDD8
  3
A1
350
DDD9
  3
A2
350
DDDA
  3
A3
350
DDDB
  3
A4
350
DDDC
  3
A5
350
DDDD
  3
A6
350
DDDE
  3
A7
350
DDDF
  3
A8
350
DDE0
  3
A9
350
DDE1
  3
B0
350
DDE2
  3
B1
350
DDE3
  3
B2
350
DDE4
  3
B3
350
DDE5
  3
B4
350
DDE6
  3
B5
350
DDE7
  3
B6
350
DDE8
  3
B7
350
DDE9
  3
B8
350
DDEA
  3
B9
350
DDEB
  3
C0
350
DDEC
  3
C1
350
DDED
  3
C2
350
DDEE
  3
C3
350
DDEF
  3
C4
350
DDF0
  3
C5
350
DDF1
  3
C6
350
DDF2
  3
C7
350
DDF3
  3
C8
350
DDF4
  3
C9
350
DDF5
  3
D0
350
DDF6
  3
D1
350
DDF7
  3
D2
350
DDF8
  0
DICTIONARY
  5
E6B6
102
{ACAD_REACTORS
330
DBE1
102
}
330
DBE1
100
AcDbDictionary
281
     1
  0
DICTIONARY
  5
E6B0
102
{ACAD_REACTORS
330
DBE1
102
}
330
DBE1
100
AcDbDictionary
281
     1
  0
DICTIONARY
  5
DE16
102
{ACAD_REACTORS
330
DBE1
102
}
330
DBE1
100
AcDbDictionary
281
     1
  0
XRECORD
  5
E6B7
102
{ACAD_REACTORS
330
DBE1
102
}
330
DBE1
100
AcDbXrecord
280
     1
  1
DWGPROPS COOKIE
  2

  3

  4

  6

  7

  8
simone.danesi
  9

300
=
301
=
302
=
303
=
304
=
305
=
306
=
307
=
308
=
309
=
 40
0.0
 41
2457771.371419132
 42
2458788.387570336
  1

 90
        0
  0
LAYOUT
  5
DBF0
102
{ACAD_REACTORS
330
DBEE
102
}
330
DBEE
100
AcDbPlotSettings
  1

  2
none_device
  4

  6

 40
0.0
 41
0.0
 42
0.0
 43
0.0
 44
0.0
 45
0.0
 46
0.0
 47
0.0
 48
0.0
 49
0.0
140
0.0
141
0.0
142
1.0
143
1.0
 70
   688
 72
     0
 73
     0
 74
     5
  7

 75
    16
147
1.0
148
0.0
149
0.0
100
AcDbLayout
  1
Foglio 1
 70
     1
 71
     1
 10
0.0
 20
0.0
 11
0.0
 21
0.0
 12
0.0
 22
0.0
 32
0.0
 14
1.000000000000000E+20
 24
1.000000000000000E+20
 34
1.000000000000000E+20
 15
-1.000000000000000E+20
 25
-1.000000000000000E+20
 35
-1.000000000000000E+20
146
0.0
 13
0.0
 23
0.0
 33
0.0
 16
1.0
 26
0.0
 36
0.0
 17
0.0
 27
1.0
 37
0.0
 76
     0
330
DBEF
  0
LAYOUT
  5
DBF2
102
{ACAD_REACTORS
330
DBEE
102
}
330
DBEE
100
AcDbPlotSettings
  1

  2
none_device
  4
Letter_(8.50_x_11.00_Inches)
  6

 40
6.35
 41
6.35
 42
6.35
 43
6.35
 44
215.9
 45
279.4
 46
0.0
 47
0.0
 48
0.0
 49
0.0
140
0.0
141
0.0
142
1.0
143
1.0
 70
  1712
 72
     0
 73
     0
 74
     0
  7

 75
     0
147
1.0
148
0.0
149
0.0
100
AcDbLayout
  1
Model
 70
     1
 71
     0
 10
0.0
 20
0.0
 11
12.0
 21
9.0
 12
0.0
 22
0.0
 32
0.0
 14
6234.258418290687
 24
7026.394253887291
 34
0.0
 15
6954.133839049893
 25
7379.895255529403
 35
0.0
146
0.0
 13
0.0
 23
0.0
 33
0.0
 16
1.0
 26
0.0
 36
0.0
 17
0.0
 27
1.0
 37
0.0
 76
     0
330
DBF1
331
DBF4
  0
MLINESTYLE
  5
DBEC
102
{ACAD_REACTORS
330
DBEB
102
}
330
DBEB
100
AcDbMlineStyle
  2
Standard
 70
     0
  3

 62
   256
 51
90.0
 52
90.0
 71
     2
 49
0.5
 62
   256
  6
BYLAYER
 49
-0.5
 62
   256
  6
BYLAYER
  0
ACDBPLACEHOLDER
  5
DBE4
102
{ACAD_REACTORS
330
DBE3
102
}
330
DBE3
  0
SCALE
  5
DDD8
102
{ACAD_REACTORS
330
DDD7
102
}
330
DDD7
100
AcDbScale
 70
     0
300
1:1
140
1.0
141
1.0
290
     1
  0
SCALE
  5
DDD9
102
{ACAD_REACTORS
330
DDD7
102
}
330
DDD7
100
AcDbScale
 70
     0
300
1:2
140
1.0
141
2.0
290
     0
  0
SCALE
  5
DDDA
102
{ACAD_REACTORS
330
DDD7
102
}
330
DDD7
100
AcDbScale
 70
     0
300
1:4
140
1.0
141
4.0
290
     0
  0
SCALE
  5
DDDB
102
{ACAD_REACTORS
330
DDD7
102
}
330
DDD7
100
AcDbScale
 70
     0
300
1:5
140
1.0
141
5.0
290
     0
  0
SCALE
  5
DDDC
102
{ACAD_REACTORS
330
DDD7
102
}
330
DDD7
100
AcDbScale
 70
     0
300
1:8
140
1.0
141
8.0
290
     0
  0
SCALE
  5
DDDD
102
{ACAD_REACTORS
330
DDD7
102
}
330
DDD7
100
AcDbScale
 70
     0
300
1:10
140
1.0
141
10.0
290
     0
  0
SCALE
  5
DDDE
102
{ACAD_REACTORS
330
DDD7
102
}
330
DDD7
100
AcDbScale
 70
     0
300
1:16
140
1.0
141
16.0
290
     0
  0
SCALE
  5
DDDF
102
{ACAD_REACTORS
330
DDD7
102
}
330
DDD7
100
AcDbScale
 70
     0
300
1:20
140
1.0
141
20.0
290
     0
  0
SCALE
  5
DDE0
102
{ACAD_REACTORS
330
DDD7
102
}
330
DDD7
100
AcDbScale
 70
     0
300
1:30
140
1.0
141
30.0
290
     0
  0
SCALE
  5
DDE1
102
{ACAD_REACTORS
330
DDD7
102
}
330
DDD7
100
AcDbScale
 70
     0
300
1:40
140
1.0
141
40.0
290
     0
  0
SCALE
  5
DDE2
102
{ACAD_REACTORS
330
DDD7
102
}
330
DDD7
100
AcDbScale
 70
     0
300
1:50
140
1.0
141
50.0
290
     0
  0
SCALE
  5
DDE3
102
{ACAD_REACTORS
330
DDD7
102
}
330
DDD7
100
AcDbScale
 70
     0
300
1:100
140
1.0
141
100.0
290
     0
  0
SCALE
  5
DDE4
102
{ACAD_REACTORS
330
DDD7
102
}
330
DDD7
100
AcDbScale
 70
     0
300
2:1
140
2.0
141
1.0
290
     0
  0
SCALE
  5
DDE5
102
{ACAD_REACTORS
330
DDD7
102
}
330
DDD7
100
AcDbScale
 70
     0
300
4:1
140
4.0
141
1.0
290
     0
  0
SCALE
  5
DDE6
102
{ACAD_REACTORS
330
DDD7
102
}
330
DDD7
100
AcDbScale
 70
     0
300
8:1
140
8.0
141
1.0
290
     0
  0
SCALE
  5
DDE7
102
{ACAD_REACTORS
330
DDD7
102
}
330
DDD7
100
AcDbScale
 70
     0
300
10:1
140
10.0
141
1.0
290
     0
  0
SCALE
  5
DDE8
102
{ACAD_REACTORS
330
DDD7
102
}
330
DDD7
100
AcDbScale
 70
     0
300
100:1
140
100.0
141
1.0
290
     0
  0
SCALE
  5
DDE9
102
{ACAD_REACTORS
330
DDD7
102
}
330
DDD7
100
AcDbScale
 70
     0
300
1/128" = 1'-0"
140
0.0078125
141
12.0
290
     0
  0
SCALE
  5
DDEA
102
{ACAD_REACTORS
330
DDD7
102
}
330
DDD7
100
AcDbScale
 70
     0
300
1/64" = 1'-0"
140
0.015625
141
12.0
290
     0
  0
SCALE
  5
DDEB
102
{ACAD_REACTORS
330
DDD7
102
}
330
DDD7
100
AcDbScale
 70
     0
300
1/32" = 1'-0"
140
0.03125
141
12.0
290
     0
  0
SCALE
  5
DDEC
102
{ACAD_REACTORS
330
DDD7
102
}
330
DDD7
100
AcDbScale
 70
     0
300
1/16" = 1'-0"
140
0.0625
141
12.0
290
     0
  0
SCALE
  5
DDED
102
{ACAD_REACTORS
330
DDD7
102
}
330
DDD7
100
AcDbScale
 70
     0
300
3/32" = 1'-0"
140
0.09375
141
12.0
290
     0
  0
SCALE
  5
DDEE
102
{ACAD_REACTORS
330
DDD7
102
}
330
DDD7
100
AcDbScale
 70
     0
300
1/8" = 1'-0"
140
0.125
141
12.0
290
     0
  0
SCALE
  5
DDEF
102
{ACAD_REACTORS
330
DDD7
102
}
330
DDD7
100
AcDbScale
 70
     0
300
3/16" = 1'-0"
140
0.1875
141
12.0
290
     0
  0
SCALE
  5
DDF0
102
{ACAD_REACTORS
330
DDD7
102
}
330
DDD7
100
AcDbScale
 70
     0
300
1/4" = 1'-0"
140
0.25
141
12.0
290
     0
  0
SCALE
  5
DDF1
102
{ACAD_REACTORS
330
DDD7
102
}
330
DDD7
100
AcDbScale
 70
     0
300
3/8" = 1'-0"
140
0.375
141
12.0
290
     0
  0
SCALE
  5
DDF2
102
{ACAD_REACTORS
330
DDD7
102
}
330
DDD7
100
AcDbScale
 70
     0
300
1/2" = 1'-0"
140
0.5
141
12.0
290
     0
  0
SCALE
  5
DDF3
102
{ACAD_REACTORS
330
DDD7
102
}
330
DDD7
100
AcDbScale
 70
     0
300
3/4" = 1'-0"
140
0.75
141
12.0
290
     0
  0
SCALE
  5
DDF4
102
{ACAD_REACTORS
330
DDD7
102
}
330
DDD7
100
AcDbScale
 70
     0
300
1" = 1'-0"
140
1.0
141
12.0
290
     0
  0
SCALE
  5
DDF5
102
{ACAD_REACTORS
330
DDD7
102
}
330
DDD7
100
AcDbScale
 70
     0
300
1-1/2" = 1'-0"
140
1.5
141
12.0
290
     0
  0
SCALE
  5
DDF6
102
{ACAD_REACTORS
330
DDD7
102
}
330
DDD7
100
AcDbScale
 70
     0
300
3" = 1'-0"
140
3.0
141
12.0
290
     0
  0
SCALE
  5
DDF7
102
{ACAD_REACTORS
330
DDD7
102
}
330
DDD7
100
AcDbScale
 70
     0
300
6" = 1'-0"
140
6.0
141
12.0
290
     0
  0
SCALE
  5
DDF8
102
{ACAD_REACTORS
330
DDD7
102
}
330
DDD7
100
AcDbScale
 70
     0
300
1'-0" = 1'-0"
140
12.0
141
12.0
290
     0
  0
ENDSEC
  0
EOF
