  0
SECTION
  2
HEADER
  9
$ACADVER
  1
AC1015
  9
$ACADMAINTVER
 70
     6
  9
$DWGCODEPAGE
  3
ANSI_1252
  9
$INSBASE
 10
0.0
 20
0.0
 30
0.0
  9
$EXTMIN
 10
6149.776737613125
 20
6853.652039192996
 30
0.0
  9
$EXTMAX
 10
6869.652158372332
 20
7207.153040835108
 30
0.0
  9
$LIMMIN
 10
0.0
 20
0.0
  9
$LIMMAX
 10
3150.0
 20
4455.0
  9
$ORTHOMODE
 70
     1
  9
$REGENMODE
 70
     1
  9
$FILLMODE
 70
     1
  9
$QTEXTMODE
 70
     0
  9
$MIRRTEXT
 70
     1
  9
$LTSCALE
 40
15.0
  9
$ATTMODE
 70
     1
  9
$TEXTSIZE
 40
42.0
  9
$TRACEWID
 40
1.0
  9
$TEXTSTYLE
  7
STANDARD
  9
$CLAYER
  8
0
  9
$CELTYPE
  6
ByLayer
  9
$CECOLOR
 62
   256
  9
$CELTSCALE
 40
1.0
  9
$DISPSILH
 70
     0
  9
$DIMSCALE
 40
1.0
  9
$DIMASZ
 40
48.0
  9
$DIMEXO
 40
1.5
  9
$DIMDLI
 40
3.75
  9
$DIMRND
 40
0.0
  9
$DIMDLE
 40
0.0
  9
$DIMEXE
 40
15.0
  9
$DIMTP
 40
0.0
  9
$DIMTM
 40
0.0
  9
$DIMTXT
 40
48.0
  9
$DIMCEN
 40
2.5
  9
$DIMTSZ
 40
0.0
  9
$DIMTOL
 70
     0
  9
$DIMLIM
 70
     0
  9
$DIMTIH
 70
     1
  9
$DIMTOH
 70
     1
  9
$DIMSE1
 70
     0
  9
$DIMSE2
 70
     0
  9
$DIMTAD
 70
     1
  9
$DIMZIN
 70
     0
  9
$DIMBLK
  1

  9
$DIMASO
 70
     1
  9
$DIMSHO
 70
     1
  9
$DIMPOST
  1

  9
$DIMAPOST
  1

  9
$DIMALT
 70
     0
  9
$DIMALTD
 70
     3
  9
$DIMALTF
 40
0.0393700787
  9
$DIMLFAC
 40
1.0
  9
$DIMTOFL
 70
     1
  9
$DIMTVP
 40
0.0
  9
$DIMTIX
 70
     0
  9
$DIMSOXD
 70
     0
  9
$DIMSAH
 70
     0
  9
$DIMBLK1
  1

  9
$DIMBLK2
  1

  9
$DIMSTYLE
  2
ISO-25
  9
$DIMCLRD
 70
     0
  9
$DIMCLRE
 70
     0
  9
$DIMCLRT
 70
     0
  9
$DIMTFAC
 40
1.0
  9
$DIMGAP
 40
30.0
  9
$DIMJUST
 70
     0
  9
$DIMSD1
 70
     0
  9
$DIMSD2
 70
     0
  9
$DIMTOLJ
 70
     1
  9
$DIMTZIN
 70
     0
  9
$DIMALTZ
 70
     0
  9
$DIMALTTZ
 70
     0
  9
$DIMUPT
 70
     0
  9
$DIMDEC
 70
     2
  9
$DIMTDEC
 70
     2
  9
$DIMALTU
 70
     2
  9
$DIMALTTD
 70
     2
  9
$DIMTXSTY
  7
STANDARD
  9
$DIMAUNIT
 70
     0
  9
$DIMADEC
 70
     0
  9
$DIMALTRND
 40
0.0
  9
$DIMAZIN
 70
     0
  9
$DIMDSEP
 70
    46
  9
$DIMATFIT
 70
     3
  9
$DIMFRAC
 70
     0
  9
$DIMLDRBLK
  1

  9
$DIMLUNIT
 70
     2
  9
$DIMLWD
 70
    -2
  9
$DIMLWE
 70
    -2
  9
$DIMTMOVE
 70
     2
  9
$LUNITS
 70
     2
  9
$LUPREC
 70
     2
  9
$SKETCHINC
 40
1.0
  9
$FILLETRAD
 40
10.0
  9
$AUNITS
 70
     0
  9
$AUPREC
 70
     2
  9
$MENU
  1
.
  9
$ELEVATION
 40
0.0
  9
$PELEVATION
 40
0.0
  9
$THICKNESS
 40
0.0
  9
$LIMCHECK
 70
     0
  9
$CHAMFERA
 40
0.0
  9
$CHAMFERB
 40
0.0
  9
$CHAMFERC
 40
0.0
  9
$CHAMFERD
 40
0.0
  9
$SKPOLY
 70
     0
  9
$TDCREATE
 40
2457771.413085799
  9
$TDUCREATE
 40
2457771.371419132
  9
$TDUPDATE
 40
2458788.428962338
  9
$TDUUPDATE
 40
2458788.387295671
  9
$TDINDWG
 40
0.0076589583
  9
$TDUSRTIMER
 40
0.0000878125
  9
$USRTIMER
 70
     1
  9
$ANGBASE
 50
0.0
  9
$ANGDIR
 70
     0
  9
$PDMODE
 70
     0
  9
$PDSIZE
 40
-1.0
  9
$PLINEWID
 40
0.0
  9
$SPLFRAME
 70
     0
  9
$SPLINETYPE
 70
     6
  9
$SPLINESEGS
 70
     8
  9
$HANDSEED
  5
E88E
  9
$SURFTAB1
 70
     6
  9
$SURFTAB2
 70
     6
  9
$SURFTYPE
 70
     6
  9
$SURFU
 70
     6
  9
$SURFV
 70
     6
  9
$UCSBASE
  2

  9
$UCSNAME
  2

  9
$UCSORG
 10
0.0
 20
0.0
 30
0.0
  9
$UCSXDIR
 10
1.0
 20
0.0
 30
0.0
  9
$UCSYDIR
 10
0.0
 20
1.0
 30
0.0
  9
$UCSORTHOREF
  2

  9
$UCSORTHOVIEW
 70
     0
  9
$UCSORGTOP
 10
0.0
 20
0.0
 30
0.0
  9
$UCSORGBOTTOM
 10
0.0
 20
0.0
 30
0.0
  9
$UCSORGLEFT
 10
0.0
 20
0.0
 30
0.0
  9
$UCSORGRIGHT
 10
0.0
 20
0.0
 30
0.0
  9
$UCSORGFRONT
 10
0.0
 20
0.0
 30
0.0
  9
$UCSORGBACK
 10
0.0
 20
0.0
 30
0.0
  9
$PUCSBASE
  2

  9
$PUCSNAME
  2

  9
$PUCSORG
 10
0.0
 20
0.0
 30
0.0
  9
$PUCSXDIR
 10
1.0
 20
0.0
 30
0.0
  9
$PUCSYDIR
 10
0.0
 20
1.0
 30
0.0
  9
$PUCSORTHOREF
  2

  9
$PUCSORTHOVIEW
 70
     0
  9
$PUCSORGTOP
 10
0.0
 20
0.0
 30
0.0
  9
$PUCSORGBOTTOM
 10
0.0
 20
0.0
 30
0.0
  9
$PUCSORGLEFT
 10
0.0
 20
0.0
 30
0.0
  9
$PUCSORGRIGHT
 10
0.0
 20
0.0
 30
0.0
  9
$PUCSORGFRONT
 10
0.0
 20
0.0
 30
0.0
  9
$PUCSORGBACK
 10
0.0
 20
0.0
 30
0.0
  9
$USERI1
 70
     0
  9
$USERI2
 70
     0
  9
$USERI3
 70
     0
  9
$USERI4
 70
     0
  9
$USERI5
 70
     0
  9
$USERR1
 40
0.0
  9
$USERR2
 40
0.0
  9
$USERR3
 40
0.0
  9
$USERR4
 40
0.0
  9
$USERR5
 40
0.0
  9
$WORLDVIEW
 70
     1
  9
$SHADEDGE
 70
     3
  9
$SHADEDIF
 70
    70
  9
$TILEMODE
 70
     1
  9
$MAXACTVP
 70
    64
  9
$PINSBASE
 10
0.0
 20
0.0
 30
0.0
  9
$PLIMCHECK
 70
     0
  9
$PEXTMIN
 10
1.000000000000000E+20
 20
1.000000000000000E+20
 30
1.000000000000000E+20
  9
$PEXTMAX
 10
-1.000000000000000E+20
 20
-1.000000000000000E+20
 30
-1.000000000000000E+20
  9
$PLIMMIN
 10
0.0
 20
0.0
  9
$PLIMMAX
 10
0.0
 20
0.0
  9
$UNITMODE
 70
     0
  9
$VISRETAIN
 70
     1
  9
$PLINEGEN
 70
     0
  9
$PSLTSCALE
 70
     1
  9
$TREEDEPTH
 70
  3020
  9
$CMLSTYLE
  2
Standard
  9
$CMLJUST
 70
     0
  9
$CMLSCALE
 40
1.0
  9
$PROXYGRAPHICS
 70
     1
  9
$MEASUREMENT
 70
     0
  9
$CELWEIGHT
370
    -1
  9
$ENDCAPS
280
     0
  9
$JOINSTYLE
280
     0
  9
$LWDISPLAY
290
     0
  9
$INSUNITS
 70
     0
  9
$HYPERLINKBASE
  1

  9
$STYLESHEET
  1

  9
$XEDIT
290
     1
  9
$CEPSNTYPE
380
     0
  9
$PSTYLEMODE
290
     1
  9
$FINGERPRINTGUID
  2
{3E2491F0-E367-4947-93FC-B7D85CF42A6A}
  9
$VERSIONGUID
  2
{FAEB1C32-E019-11D5-929B-00C0DF256EC4}
  9
$EXTNAMES
290
     1
  9
$PSVPSCALE
 40
0.0
  9
$OLESTARTUP
290
     0
  0
ENDSEC
  0
SECTION
  2
CLASSES
  0
CLASS
  1
ACDBDICTIONARYWDFLT
  2
AcDbDictionaryWithDefault
  3
ObjectDBX Classes
 90
        0
280
     0
281
     0
  0
CLASS
  1
MATERIAL
  2
AcDbMaterial
  3
ObjectDBX Classes
 90
     1153
280
     0
281
     0
  0
CLASS
  1
SCALE
  2
AcDbScale
  3
ObjectDBX Classes
 90
     1153
280
     0
281
     0
  0
CLASS
  1
VISUALSTYLE
  2
AcDbVisualStyle
  3
ObjectDBX Classes
 90
     4095
280
     0
281
     0
  0
CLASS
  1
TABLESTYLE
  2
AcDbTableStyle
  3
ObjectDBX Classes
 90
     4095
280
     0
281
     0
  0
CLASS
  1
MLEADERSTYLE
  2
AcDbMLeaderStyle
  3
ACDB_MLEADERSTYLE_CLASS
 90
     4095
280
     0
281
     0
  0
CLASS
  1
DICTIONARYVAR
  2
AcDbDictionaryVar
  3
ObjectDBX Classes
 90
        0
280
     0
281
     0
  0
CLASS
  1
ACDBPLACEHOLDER
  2
AcDbPlaceHolder
  3
ObjectDBX Classes
 90
        0
280
     0
281
     0
  0
CLASS
  1
LAYOUT
  2
AcDbLayout
  3
ObjectDBX Classes
 90
        0
280
     0
281
     0
  0
ENDSEC
  0
SECTION
  2
TABLES
  0
TABLE
  2
VPORT
  5
DBDD
330
0
100
AcDbSymbolTable
 70
     1
  0
VPORT
  5
DBF4
330
DBDD
100
AcDbSymbolTableRecord
100
AcDbViewportTableRecord
  2
*ACTIVE
 70
     0
 10
0.0
 20
0.0
 11
1.0
 21
1.0
 12
6509.714447992728
 22
7030.402540014053
 13
0.0
 23
0.0
 14
10.0
 24
10.0
 15
10.0
 25
10.0
 16
0.0
 26
0.0
 36
1.0
 17
0.0
 27
0.0
 37
0.0
 40
360.5710216749542
 41
2.584131326949384
 42
50.0
 43
0.0
 44
0.0
 50
0.0
 51
0.0
 71
    16
 72
  2000
 73
     1
 74
     3
 75
     0
 76
     0
 77
     0
 78
     0
281
     0
 65
     0
110
0.0
120
0.0
130
0.0
111
1.0
121
0.0
131
0.0
112
0.0
122
1.0
132
0.0
 79
     0
146
0.0
  0
ENDTAB
  0
TABLE
  2
LTYPE
  5
DBDA
330
0
100
AcDbSymbolTable
 70
     6
  0
LTYPE
  5
DBE8
330
DBDA
100
AcDbSymbolTableRecord
100
AcDbLinetypeTableRecord
  2
ByBlock
 70
     0
  3

 72
    65
 73
     0
 40
0.0
  0
LTYPE
  5
DBE9
330
DBDA
100
AcDbSymbolTableRecord
100
AcDbLinetypeTableRecord
  2
ByLayer
 70
     0
  3

 72
    65
 73
     0
 40
0.0
  0
LTYPE
  5
DBEA
330
DBDA
100
AcDbSymbolTableRecord
100
AcDbLinetypeTableRecord
  2
CONTINUOUS
 70
     0
  3
Solid line
 72
    65
 73
     0
 40
0.0
  0
ENDTAB
  0
TABLE
  2
LAYER
  5
DBD7
330
0
100
AcDbSymbolTable
 70
     5
  0
LAYER
  5
DBE5
330
DBD7
100
AcDbSymbolTableRecord
100
AcDbLayerTableRecord
  2
0
 70
     0
 62
     7
  6
CONTINUOUS
370
    -3
390
DBE4
  0
ENDTAB
  0
TABLE
  2
STYLE
  5
DBD8
330
0
100
AcDbSymbolTable
 70
     2
  0
STYLE
  5
DBE6
330
DBD8
100
AcDbSymbolTableRecord
100
AcDbTextStyleTableRecord
  2
STANDARD
 70
     0
 40
0.0
 41
1.0
 50
0.0
 71
     0
 42
42.0
  3
txt
  4

  0
STYLE
  5
DC05
330
DBD8
100
AcDbSymbolTableRecord
100
AcDbTextStyleTableRecord
  2
SLDTEXTSTYLE0
 70
     0
 40
0.0
 41
0.75
 50
0.0
 71
     0
 42
42.0
  3
TXT
  4

  0
ENDTAB
  0
TABLE
  2
VIEW
  5
DBDB
330
0
100
AcDbSymbolTable
 70
     0
  0
ENDTAB
  0
TABLE
  2
UCS
  5
DBDC
330
0
100
AcDbSymbolTable
 70
     0
  0
ENDTAB
  0
TABLE
  2
APPID
  5
DBDE
330
0
100
AcDbSymbolTable
 70
     1
  0
APPID
  5
DBE7
330
DBDE
100
AcDbSymbolTableRecord
100
AcDbRegAppTableRecord
  2
ACAD
 70
     0
  0
ENDTAB
  0
TABLE
  2
DIMSTYLE
  5
DBDF
330
0
100
AcDbSymbolTable
 70
     2
100
AcDbDimStyleTable
  0
DIMSTYLE
105
DC07
330
DBDF
100
AcDbSymbolTableRecord
100
AcDbDimStyleTableRecord
  2
ISO-25
 70
     0
 41
2.5
 42
0.625
 43
3.75
 44
1.25
 73
     0
 74
     0
 77
     1
 78
     8
140
2.5
141
2.5
143
0.0393700787
147
0.625
171
     3
172
     1
178
     0
340
DBE6
  0
ENDTAB
  0
TABLE
  2
BLOCK_RECORD
  5
DBD6
330
0
100
AcDbSymbolTable
 70
   236
  0
BLOCK_RECORD
  5
DBF1
330
DBD6
100
AcDbSymbolTableRecord
100
AcDbBlockTableRecord
  2
*Model_Space
340
DBF2
  0
BLOCK_RECORD
  5
DBEF
330
DBD6
100
AcDbSymbolTableRecord
100
AcDbBlockTableRecord
  2
*Paper_Space
340
DBF0
  0
BLOCK_RECORD
  5
E448
330
DBD6
100
AcDbSymbolTableRecord
100
AcDbBlockTableRecord
  2
A$C17531
340
0
102
{BLKREFS
331
E4BC
331
E830
331
E887
331
E888
102
}
  0
ENDTAB
  0
ENDSEC
  0
SECTION
  2
BLOCKS
  0
BLOCK
  5
DC09
330
DBF1
100
AcDbEntity
  8
0
100
AcDbBlockBegin
  2
*Model_Space
 70
     0
 10
0.0
 20
0.0
 30
0.0
  3
*Model_Space
  1

  0
ENDBLK
  5
21
330
DBF1
100
AcDbEntity
  8
0
100
AcDbBlockEnd
  0
BLOCK
  5
DC0A
330
DBEF
100
AcDbEntity
 67
     1
  8
0
100
AcDbBlockBegin
  2
*Paper_Space
 70
     0
 10
0.0
 20
0.0
 30
0.0
  3
*Paper_Space
  1

  0
ENDBLK
  5
1D
330
DBEF
100
AcDbEntity
 67
     1
  8
0
100
AcDbBlockEnd
  0
BLOCK
  5
E4BA
330
E448
100
AcDbEntity
  8
0
100
AcDbBlockBegin
  2
A$C17531
 70
     0
 10
0.0
 20
0.0
 30
0.0
  3
A$C17531
  1

  0
LINE
  5
E46A
330
E448
100
AcDbEntity
  8
0
  6
Continuous
 62
     7
370
    25
100
AcDbLine
 10
4.100000000005821
 20
13.21881293372644
 30
0.0
 11
4.100000000005821
 21
10.21881293372644
 31
0.0
  0
LINE
  5
E46B
330
E448
100
AcDbEntity
  8
0
  6
Continuous
 62
     7
370
    25
100
AcDbLine
 10
5.600000000005821
 20
13.21881293372644
 30
0.0
 11
4.100000000005821
 21
13.21881293372644
 31
0.0
  0
LINE
  5
E46C
330
E448
100
AcDbEntity
  8
0
  6
Continuous
 62
     7
370
    25
100
AcDbLine
 10
5.600000000005821
 20
10.21881293372644
 30
0.0
 11
5.600000000005821
 21
13.21881293372644
 31
0.0
  0
LINE
  5
E46D
330
E448
100
AcDbEntity
  8
0
  6
Continuous
 62
     7
370
    25
100
AcDbLine
 10
15.05000000000564
 20
10.21881293372644
 30
0.0
 11
5.600000000005821
 21
10.21881293372644
 31
0.0
  0
LINE
  5
E46E
330
E448
100
AcDbEntity
  8
0
  6
Continuous
 62
     7
370
    25
100
AcDbLine
 10
15.05000000000564
 20
33.21881293372644
 30
0.0
 11
15.05000000000564
 21
10.21881293372644
 31
0.0
  0
LINE
  5
E46F
330
E448
100
AcDbEntity
  8
0
  6
Continuous
 62
     7
370
    25
100
AcDbLine
 10
5.849999999995816
 20
33.21881293372644
 30
0.0
 11
15.05000000000564
 21
33.21881293372644
 31
0.0
  0
ARC
  5
E470
330
E448
100
AcDbEntity
  8
0
  6
Continuous
 62
     7
370
    25
100
AcDbCircle
 10
5.849999999995816
 20
32.91881293372626
 30
0.0
 40
0.3000000000000114
100
AcDbArc
 50
90.0
 51
180.0
  0
LINE
  5
E471
330
E448
100
AcDbEntity
  8
0
  6
Continuous
 62
     7
370
    25
100
AcDbLine
 10
5.549999999996544
 20
28.18291454886185
 30
0.0
 11
5.549999999996544
 21
32.91881293372626
 31
0.0
  0
ARC
  5
E472
330
E448
100
AcDbEntity
  8
0
  6
Continuous
 62
     7
370
    25
100
AcDbCircle
 10
6.549999999996544
 20
28.18291454886185
 30
0.0
 40
1.0
100
AcDbArc
 50
180.0
 51
300.0000000000554
  0
ARC
  5
E473
330
E448
100
AcDbEntity
  8
0
  6
Continuous
 62
     7
370
    25
100
AcDbCircle
 10
8.550000000000182
 20
24.71881293372644
 30
0.0
 40
2.999999999999988
100
AcDbArc
 50
54.31573917116937
 51
120.0000000000641
  0
ARC
  5
E474
330
E448
100
AcDbEntity
  8
0
  6
Continuous
 62
     7
370
    25
100
AcDbCircle
 10
9.789550983125082
 20
26.44483099858917
 30
0.0
 40
0.8749999999999607
100
AcDbArc
 50
234.3157391711399
 51
54.31573917113991
  0
ARC
  5
E475
330
E448
100
AcDbEntity
  8
0
  6
Continuous
 62
     7
370
    25
100
AcDbCircle
 10
8.550000000000182
 20
24.71881293372644
 30
0.0
 40
1.25000000000009
100
AcDbArc
 50
54.31573917118629
 51
305.6842608288137
  0
ARC
  5
E476
330
E448
100
AcDbEntity
  8
0
  6
Continuous
 62
     7
370
    25
100
AcDbCircle
 10
9.789550983125082
 20
22.9927948688628
 30
0.0
 40
0.8749999999999903
100
AcDbArc
 50
305.684260828777
 51
125.6842608288601
  0
ARC
  5
E477
330
E448
100
AcDbEntity
  8
0
  6
Continuous
 62
     7
370
    25
100
AcDbCircle
 10
8.550000000000182
 20
24.71881293372644
 30
0.0
 40
3.000000000000052
100
AcDbArc
 50
240.8236041449768
 51
305.6842608288306
  0
ARC
  5
E478
330
E448
100
AcDbEntity
  8
0
  6
Continuous
 62
     7
370
    25
100
AcDbCircle
 10
6.600000000000364
 20
21.22632098670601
 30
0.0
 40
0.9999999999999716
100
AcDbArc
 50
60.82360414503079
 51
180.0
  0
LINE
  5
E479
330
E448
100
AcDbEntity
  8
0
  6
Continuous
 62
     7
370
    25
100
AcDbLine
 10
5.600000000000364
 20
17.21881293372644
 30
0.0
 11
5.600000000000364
 21
21.22632098670601
 31
0.0
  0
LINE
  5
E47A
330
E448
100
AcDbEntity
  8
0
  6
Continuous
 62
     7
370
    25
100
AcDbLine
 10
4.100000000000364
 20
17.21881293372644
 30
0.0
 11
5.600000000000364
 21
17.21881293372644
 31
0.0
  0
LINE
  5
E47B
330
E448
100
AcDbEntity
  8
0
  6
Continuous
 62
     7
370
    25
100
AcDbLine
 10
4.100000000000364
 20
20.21881293372644
 30
0.0
 11
4.100000000000364
 21
17.21881293372644
 31
0.0
  0
LINE
  5
E47C
330
E448
100
AcDbEntity
  8
0
  6
Continuous
 62
     7
370
    25
100
AcDbLine
 10
1.550000000005639
 20
20.21881293372644
 30
0.0
 11
4.100000000000364
 21
20.21881293372644
 31
0.0
  0
LINE
  5
E47D
330
E448
100
AcDbEntity
  8
0
  6
Continuous
 62
     7
370
    25
100
AcDbLine
 10
1.550000000005639
 20
10.21881293372644
 30
0.0
 11
1.550000000005639
 21
20.21881293372644
 31
0.0
  0
LINE
  5
E47E
330
E448
100
AcDbEntity
  8
0
  6
Continuous
 62
     7
370
    25
100
AcDbLine
 10
4.100000000005821
 20
10.21881293372644
 30
0.0
 11
1.550000000005639
 21
10.21881293372644
 31
0.0
  0
LINE
  5
E47F
330
E448
100
AcDbEntity
  8
0
  6
Continuous
 62
     7
370
    25
100
AcDbLine
 10
16.25
 20
8.71881293372644
 30
0.0
 11
15.2000000000553
 21
8.71881293372644
 31
0.0
  0
ARC
  5
E480
330
E448
100
AcDbEntity
  8
0
  6
Continuous
 62
     7
370
    25
100
AcDbCircle
 10
15.2000000000553
 20
8.418812933726258
 30
0.0
 40
0.3000000000000824
100
AcDbArc
 50
90.0
 51
180.0
  0
LINE
  5
E481
330
E448
100
AcDbEntity
  8
0
  6
Continuous
 62
     7
370
    25
100
AcDbLine
 10
14.90000000005512
 20
8.418812933726258
 30
0.0
 11
14.90000000005512
 21
4.918812933726258
 31
0.0
  0
ARC
  5
E482
330
E448
100
AcDbEntity
  8
0
  6
Continuous
 62
     7
370
    25
100
AcDbCircle
 10
14.7000000000553
 20
4.918812933726258
 30
0.0
 40
0.2000000000000028
100
AcDbArc
 50
270.0
 51
0.0
  0
LINE
  5
E483
330
E448
100
AcDbEntity
  8
0
  6
Continuous
 62
     7
370
    25
100
AcDbLine
 10
14.7000000000553
 20
4.71881293372644
 30
0.0
 11
13.10000000005493
 21
4.71881293372644
 31
0.0
  0
ARC
  5
E484
330
E448
100
AcDbEntity
  8
0
  6
Continuous
 62
     7
370
    25
100
AcDbCircle
 10
13.10000000005493
 20
4.918812933726258
 30
0.0
 40
0.1999999999998749
100
AcDbArc
 50
180.0
 51
270.0
  0
LINE
  5
E485
330
E448
100
AcDbEntity
  8
0
  6
Continuous
 62
     7
370
    25
100
AcDbLine
 10
12.90000000005602
 20
4.918812933726258
 30
0.0
 11
12.90000000005602
 21
8.418812933726258
 31
0.0
  0
ARC
  5
E486
330
E448
100
AcDbEntity
  8
0
  6
Continuous
 62
     7
370
    25
100
AcDbCircle
 10
12.60000000005584
 20
8.418812933726258
 30
0.0
 40
0.2999999999999829
100
AcDbArc
 50
0.0
 51
90.0
  0
LINE
  5
E487
330
E448
100
AcDbEntity
  8
0
  6
Continuous
 62
     7
370
    25
100
AcDbLine
 10
12.60000000005584
 20
8.71881293372644
 30
0.0
 11
10.10000000005584
 21
8.71881293372644
 31
0.0
  0
ARC
  5
E488
330
E448
100
AcDbEntity
  8
0
  6
Continuous
 62
     7
370
    25
100
AcDbCircle
 10
10.10000000005584
 20
8.418812933726258
 30
0.0
 40
0.3000000000001819
100
AcDbArc
 50
90.0
 51
180.0
  0
LINE
  5
E489
330
E448
100
AcDbEntity
  8
0
  6
Continuous
 62
     7
370
    25
100
AcDbLine
 10
9.800000000055661
 20
8.418812933726258
 30
0.0
 11
9.800000000055661
 21
7.031855621405157
 31
0.0
  0
ARC
  5
E48A
330
E448
100
AcDbEntity
  8
0
  6
Continuous
 62
     7
370
    25
100
AcDbCircle
 10
9.50000000005548
 20
7.031855621405157
 30
0.0
 40
0.3000000000001606
100
AcDbArc
 50
284.9005055299398
 51
0.0
  0
LINE
  5
E48B
330
E448
100
AcDbEntity
  8
0
  6
Continuous
 62
     7
370
    25
100
AcDbLine
 10
9.577142395946794
 20
6.741943478236863
 30
0.0
 11
8.272857604165438
 21
6.394887805911821
 31
0.0
  0
ARC
  5
E48C
330
E448
100
AcDbEntity
  8
0
  6
Continuous
 62
     7
370
    25
100
AcDbCircle
 10
8.350000000056752
 20
6.104975662744437
 30
0.0
 40
0.3000000000001846
100
AcDbArc
 50
104.9005055299398
 51
180.0
  0
LINE
  5
E48D
330
E448
100
AcDbEntity
  8
0
  6
Continuous
 62
     7
370
    25
100
AcDbLine
 10
8.05000000005657
 20
6.104975662744437
 30
0.0
 11
8.05000000005657
 21
2.801160975429411
 31
0.0
  0
LINE
  5
E48E
330
E448
100
AcDbEntity
  8
0
  6
Continuous
 62
     7
370
    25
100
AcDbLine
 10
8.05000000005657
 20
2.801160975429411
 30
0.0
 11
8.24766291879223
 21
2.801160975429411
 31
0.0
  0
ARC
  5
E48F
330
E448
100
AcDbEntity
  8
0
  6
Continuous
 62
     7
370
    25
100
AcDbCircle
 10
8.24766291879132
 20
2.201160975429048
 30
0.0
 40
0.5999999999999943
100
AcDbArc
 50
333.5185312727024
 51
89.99999999991316
  0
LINE
  5
E490
330
E448
100
AcDbEntity
  8
0
  6
Continuous
 62
     7
370
    25
100
AcDbLine
 10
8.784710096382696
 20
1.933615971660402
 30
0.0
 11
7.987047177591194
 21
0.3324549962308083
 31
0.0
  0
ARC
  5
E491
330
E448
100
AcDbEntity
  8
0
  6
Continuous
 62
     7
370
    25
100
AcDbCircle
 10
7.449999999999818
 20
0.6000000000003638
 30
0.0
 40
0.5999999999999677
100
AcDbArc
 50
206.481468727414
 51
333.518531272586
  0
LINE
  5
E492
330
E448
100
AcDbEntity
  8
0
  6
Continuous
 62
     7
370
    25
100
AcDbLine
 10
6.912952822409352
 20
0.3324549962308083
 30
0.0
 11
6.11528990361785
 21
1.933615971660402
 31
0.0
  0
ARC
  5
E493
330
E448
100
AcDbEntity
  8
0
  6
Continuous
 62
     7
370
    25
100
AcDbCircle
 10
6.652337081208316
 20
2.201160975429048
 30
0.0
 40
0.5999999999999486
100
AcDbArc
 50
90.0
 51
206.4814687273363
  0
LINE
  5
E494
330
E448
100
AcDbEntity
  8
0
  6
Continuous
 62
     7
370
    25
100
AcDbLine
 10
6.652337081208316
 20
2.801160975429411
 30
0.0
 11
6.849999999943975
 21
2.801160975429411
 31
0.0
  0
LINE
  5
E495
330
E448
100
AcDbEntity
  8
0
  6
Continuous
 62
     7
370
    25
100
AcDbLine
 10
6.849999999943975
 20
2.801160975429411
 30
0.0
 11
6.849999999943975
 21
6.104975662744437
 31
0.0
  0
ARC
  5
E496
330
E448
100
AcDbEntity
  8
0
  6
Continuous
 62
     7
370
    25
100
AcDbCircle
 10
6.549999999943793
 20
6.104975662744437
 30
0.0
 40
0.3000000000001964
100
AcDbArc
 50
0.0
 51
75.09949447006025
  0
LINE
  5
E497
330
E448
100
AcDbEntity
  8
0
  6
Continuous
 62
     7
370
    25
100
AcDbLine
 10
6.627142395835108
 20
6.394887805911821
 30
0.0
 11
5.322857604053752
 21
6.741943478236863
 31
0.0
  0
ARC
  5
E498
330
E448
100
AcDbEntity
  8
0
  6
Continuous
 62
     7
370
    25
100
AcDbCircle
 10
5.399999999945067
 20
7.031855621405157
 30
0.0
 40
0.3000000000001606
100
AcDbArc
 50
180.0
 51
255.0994944700603
  0
LINE
  5
E499
330
E448
100
AcDbEntity
  8
0
  6
Continuous
 62
     7
370
    25
100
AcDbLine
 10
5.099999999944885
 20
7.031855621405157
 30
0.0
 11
5.099999999944885
 21
8.418812933726258
 31
0.0
  0
ARC
  5
E49A
330
E448
100
AcDbEntity
  8
0
  6
Continuous
 62
     7
370
    25
100
AcDbCircle
 10
4.799999999944703
 20
8.418812933726258
 30
0.0
 40
0.3000000000002032
100
AcDbArc
 50
0.0
 51
90.0
  0
LINE
  5
E49B
330
E448
100
AcDbEntity
  8
0
  6
Continuous
 62
     7
370
    25
100
AcDbLine
 10
4.799999999944703
 20
8.71881293372644
 30
0.0
 11
2.300000000000182
 21
8.71881293372644
 31
0.0
  0
ARC
  5
E49C
330
E448
100
AcDbEntity
  8
0
  6
Continuous
 62
     7
370
    25
100
AcDbCircle
 10
2.300000000000182
 20
8.418812933726258
 30
0.0
 40
0.3000000000000256
100
AcDbArc
 50
90.0
 51
180.0
  0
LINE
  5
E49D
330
E448
100
AcDbEntity
  8
0
  6
Continuous
 62
     7
370
    25
100
AcDbLine
 10
2.0
 20
8.418812933726258
 30
0.0
 11
2.0
 21
4.918812933726258
 31
0.0
  0
ARC
  5
E49E
330
E448
100
AcDbEntity
  8
0
  6
Continuous
 62
     7
370
    25
100
AcDbCircle
 10
1.800000000000182
 20
4.918812933726258
 30
0.0
 40
0.2000000000000099
100
AcDbArc
 50
270.0
 51
0.0
  0
LINE
  5
E49F
330
E448
100
AcDbEntity
  8
0
  6
Continuous
 62
     7
370
    25
100
AcDbLine
 10
1.800000000000182
 20
4.71881293372644
 30
0.0
 11
0.1999999999998181
 21
4.71881293372644
 31
0.0
  0
ARC
  5
E4A0
330
E448
100
AcDbEntity
  8
0
  6
Continuous
 62
     7
370
    25
100
AcDbCircle
 10
0.1999999999998181
 20
4.918812933726258
 30
0.0
 40
0.2000000000000028
100
AcDbArc
 50
180.0
 51
270.0
  0
LINE
  5
E4A1
330
E448
100
AcDbEntity
  8
0
  6
Continuous
 62
     7
370
    25
100
AcDbLine
 10
0.0
 20
4.918812933726258
 30
0.0
 11
0.0
 21
21.41881293372626
 31
0.0
  0
ARC
  5
E4A2
330
E448
100
AcDbEntity
  8
0
  6
Continuous
 62
     7
370
    25
100
AcDbCircle
 10
0.3000000000001819
 20
21.41881293372626
 30
0.0
 40
0.3000000000001819
100
AcDbArc
 50
90.0
 51
180.0
  0
LINE
  5
E4A3
330
E448
100
AcDbEntity
  8
0
  6
Continuous
 62
     7
370
    25
100
AcDbLine
 10
0.3000000000001819
 20
21.71881293372644
 30
0.0
 11
1.550000000000182
 21
21.71881293372644
 31
0.0
  0
LINE
  5
E4A4
330
E448
100
AcDbEntity
  8
0
  6
Continuous
 62
     7
370
    25
100
AcDbLine
 10
1.550000000000182
 20
21.71881293372644
 30
0.0
 11
1.550000000000182
 21
27.66881293372626
 31
0.0
  0
ARC
  5
E4A5
330
E448
100
AcDbEntity
  8
0
  6
Continuous
 62
     7
370
    25
100
AcDbCircle
 10
1.850000000000364
 20
27.66881293372626
 30
0.0
 40
0.3000000000002103
100
AcDbArc
 50
90.0
 51
180.0
  0
LINE
  5
E4A6
330
E448
100
AcDbEntity
  8
0
  6
Continuous
 62
     7
370
    25
100
AcDbLine
 10
1.850000000000364
 20
27.96881293372644
 30
0.0
 11
2.249999999990905
 21
27.96881293372644
 31
0.0
  0
ARC
  5
E4A7
330
E448
100
AcDbEntity
  8
0
  6
Continuous
 62
     7
370
    25
100
AcDbCircle
 10
2.249999999990905
 20
27.66881293372626
 30
0.0
 40
0.3000000000002032
100
AcDbArc
 50
0.0
 51
90.0
  0
LINE
  5
E4A8
330
E448
100
AcDbEntity
  8
0
  6
Continuous
 62
     7
370
    25
100
AcDbLine
 10
2.549999999991087
 20
27.66881293372626
 30
0.0
 11
2.549999999991087
 21
26.51881293372662
 31
0.0
  0
ARC
  5
E4A9
330
E448
100
AcDbEntity
  8
0
  6
Continuous
 62
     7
370
    25
100
AcDbCircle
 10
2.849999999991269
 20
26.51881293372662
 30
0.0
 40
0.3000000000001819
100
AcDbArc
 50
180.0
 51
270.0
  0
LINE
  5
E4AA
330
E448
100
AcDbEntity
  8
0
  6
Continuous
 62
     7
370
    25
100
AcDbLine
 10
2.849999999991269
 20
26.21881293372644
 30
0.0
 11
3.749999999989996
 21
26.21881293372644
 31
0.0
  0
ARC
  5
E4AB
330
E448
100
AcDbEntity
  8
0
  6
Continuous
 62
     7
370
    25
100
AcDbCircle
 10
3.749999999989996
 20
26.51881293372662
 30
0.0
 40
0.3000000000002174
100
AcDbArc
 50
270.0000000001737
 51
0.0
  0
LINE
  5
E4AC
330
E448
100
AcDbEntity
  8
0
  6
Continuous
 62
     7
370
    25
100
AcDbLine
 10
4.049999999991087
 20
26.51881293372662
 30
0.0
 11
4.049999999991087
 21
32.91881293372626
 31
0.0
  0
ARC
  5
E4AD
330
E448
100
AcDbEntity
  8
0
  6
Continuous
 62
     7
370
    25
100
AcDbCircle
 10
3.749999999989996
 20
32.91881293372626
 30
0.0
 40
0.3000000000002103
100
AcDbArc
 50
0.0
 51
90.0
  0
LINE
  5
E4AE
330
E448
100
AcDbEntity
  8
0
  6
Continuous
 62
     7
370
    25
100
AcDbLine
 10
3.749999999989996
 20
33.21881293372644
 30
0.0
 11
2.849999999991269
 21
33.21881293372644
 31
0.0
  0
ARC
  5
E4AF
330
E448
100
AcDbEntity
  8
0
  6
Continuous
 62
     7
370
    25
100
AcDbCircle
 10
2.849999999991269
 20
32.91881293372626
 30
0.0
 40
0.300000000000189
100
AcDbArc
 50
90.0
 51
180.0
  0
LINE
  5
E4B0
330
E448
100
AcDbEntity
  8
0
  6
Continuous
 62
     7
370
    25
100
AcDbLine
 10
2.549999999991087
 20
32.91881293372626
 30
0.0
 11
2.549999999991087
 21
31.76881293372662
 31
0.0
  0
ARC
  5
E4B1
330
E448
100
AcDbEntity
  8
0
  6
Continuous
 62
     7
370
    25
100
AcDbCircle
 10
2.249999999989996
 20
31.76881293372662
 30
0.0
 40
0.3000000000002103
100
AcDbArc
 50
270.0
 51
0.0
  0
LINE
  5
E4B2
330
E448
100
AcDbEntity
  8
0
  6
Continuous
 62
     7
370
    25
100
AcDbLine
 10
2.249999999989996
 20
31.46881293372644
 30
0.0
 11
1.850000000000364
 21
31.46881293372644
 31
0.0
  0
ARC
  5
E4B3
330
E448
100
AcDbEntity
  8
0
  6
Continuous
 62
     7
370
    25
100
AcDbCircle
 10
1.850000000000364
 20
31.76881293372662
 30
0.0
 40
0.3000000000002103
100
AcDbArc
 50
180.0
 51
270.0
  0
LINE
  5
E4B4
330
E448
100
AcDbEntity
  8
0
  6
Continuous
 62
     7
370
    25
100
AcDbLine
 10
1.550000000000182
 20
31.76881293372662
 30
0.0
 11
1.550000000000182
 21
34.21881293372644
 31
0.0
  0
ARC
  5
E4B5
330
E448
100
AcDbEntity
  8
0
  6
Continuous
 62
     7
370
    25
100
AcDbCircle
 10
2.050000000000182
 20
34.21881293372644
 30
0.0
 40
0.5
100
AcDbArc
 50
90.0
 51
180.0
  0
LINE
  5
E4B6
330
E448
100
AcDbEntity
  8
0
  6
Continuous
 62
     7
370
    25
100
AcDbLine
 10
2.050000000000182
 20
34.71881293372644
 30
0.0
 11
16.04999999999291
 21
34.71881293372644
 31
0.0
  0
ARC
  5
E4B7
330
E448
100
AcDbEntity
  8
0
  6
Continuous
 62
     7
370
    25
100
AcDbCircle
 10
16.04999999999291
 20
34.21881293371825
 30
0.0
 40
0.5000000000077023
100
AcDbArc
 50
0.0
 51
90.0
  0
LINE
  5
E4B8
330
E448
100
AcDbEntity
  8
0
  6
Continuous
 62
     7
370
    25
100
AcDbLine
 10
16.55000000000018
 20
34.21881293371825
 30
0.0
 11
16.55000000000018
 21
9.018812933726622
 31
0.0
  0
ARC
  5
E4B9
330
E448
100
AcDbEntity
  8
0
  6
Continuous
 62
     7
370
    25
100
AcDbCircle
 10
16.25
 20
9.018812933726622
 30
0.0
 40
0.2999999999999972
100
AcDbArc
 50
270.0
 51
0.0
  0
ENDBLK
  5
E4BB
330
E448
100
AcDbEntity
  8
0
100
AcDbBlockEnd
  0
ENDSEC
  0
SECTION
  2
ENTITIES
  0
LINE
  5
E094
330
DBF1
100
AcDbEntity
  8
0
  6
Continuous
 62
     7
370
    25
100
AcDbLine
 10
6253.272449283518
 20
7116.192567358096
 30
0.0
 11
6253.972449283518
 21
7116.192567358096
 31
0.0
  0
ARC
  5
E095
330
DBF1
100
AcDbEntity
  8
0
  6
Continuous
 62
     7
370
    25
100
AcDbCircle
 10
6253.272449283518
 20
7116.692567358096
 30
0.0
 40
0.5
100
AcDbArc
 50
180.0
 51
270.0
  0
LINE
  5
E096
330
DBF1
100
AcDbEntity
  8
0
  6
Continuous
 62
     7
370
    25
100
AcDbLine
 10
6252.772449283518
 20
7120.892567358096
 30
0.0
 11
6252.772449283518
 21
7116.692567358096
 31
0.0
  0
ARC
  5
E097
330
DBF1
100
AcDbEntity
  8
0
  6
Continuous
 62
     7
370
    25
100
AcDbCircle
 10
6252.472449283518
 20
7120.892567358096
 30
0.0
 40
0.3000000000001819
100
AcDbArc
 50
0.0
 51
90.0
  0
LINE
  5
E098
330
DBF1
100
AcDbEntity
  8
0
  6
Continuous
 62
     7
370
    25
100
AcDbLine
 10
6250.772449283518
 20
7121.192567358096
 30
0.0
 11
6252.472449283518
 21
7121.192567358096
 31
0.0
  0
ARC
  5
E099
330
DBF1
100
AcDbEntity
  8
0
  6
Continuous
 62
     7
370
    25
100
AcDbCircle
 10
6250.772449283518
 20
7120.892567358096
 30
0.0
 40
0.3000000000001819
100
AcDbArc
 50
90.0
 51
180.0
  0
LINE
  5
E09A
330
DBF1
100
AcDbEntity
  8
0
  6
Continuous
 62
     7
370
    25
100
AcDbLine
 10
6250.472449283518
 20
7116.692567358096
 30
0.0
 11
6250.472449283518
 21
7120.892567358096
 31
0.0
  0
ARC
  5
E09B
330
DBF1
100
AcDbEntity
  8
0
  6
Continuous
 62
     7
370
    25
100
AcDbCircle
 10
6249.972449283518
 20
7116.692567358096
 30
0.0
 40
0.5
100
AcDbArc
 50
270.0
 51
0.0
  0
LINE
  5
E09C
330
DBF1
100
AcDbEntity
  8
0
  6
Continuous
 62
     7
370
    25
100
AcDbLine
 10
6248.172450578519
 20
7116.192567358096
 30
0.0
 11
6249.972449283518
 21
7116.192567358096
 31
0.0
  0
ARC
  5
E09D
330
DBF1
100
AcDbEntity
  8
0
  6
Continuous
 62
     7
370
    25
100
AcDbCircle
 10
6248.172450578519
 20
7116.692567358096
 30
0.0
 40
0.5
100
AcDbArc
 50
180.0
 51
270.0
  0
LINE
  5
E09E
330
DBF1
100
AcDbEntity
  8
0
  6
Continuous
 62
     7
370
    25
100
AcDbLine
 10
6247.672450578519
 20
7118.086527628632
 30
0.0
 11
6247.672450578519
 21
7116.692567358096
 31
0.0
  0
ARC
  5
E09F
330
DBF1
100
AcDbEntity
  8
0
  6
Continuous
 62
     7
370
    25
100
AcDbCircle
 10
6247.97245057852
 20
7118.086527628632
 30
0.0
 40
0.3000000000009865
100
AcDbArc
 50
111.0375110252846
 51
180.0
  0
LINE
  5
E0A0
330
DBF1
100
AcDbEntity
  8
0
  6
Continuous
 62
     7
370
    25
100
AcDbLine
 10
6248.780144302315
 20
7118.718603405719
 30
0.0
 11
6247.864756854728
 21
7118.366531310494
 31
0.0
  0
ARC
  5
E0A1
330
DBF1
100
AcDbEntity
  8
0
  6
Continuous
 62
     7
370
    25
100
AcDbCircle
 10
6248.672450578522
 20
7118.99860708758
 30
0.0
 40
0.3000000000008498
100
AcDbArc
 50
291.0375110254467
 51
0.0
  0
LINE
  5
E0A2
330
DBF1
100
AcDbEntity
  8
0
  6
Continuous
 62
     7
370
    25
100
AcDbLine
 10
6248.972450578523
 20
7122.685934196586
 30
0.0
 11
6248.972450578523
 21
7118.99860708758
 31
0.0
  0
ARC
  5
E0A3
330
DBF1
100
AcDbEntity
  8
0
  6
Continuous
 62
     7
370
    25
100
AcDbCircle
 10
6248.672450578522
 20
7122.685934196586
 30
0.0
 40
0.3000000000009989
100
AcDbArc
 50
0.0
 51
24.00000000019476
  0
LINE
  5
E0A4
330
DBF1
100
AcDbEntity
  8
0
  6
Continuous
 62
     7
370
    25
100
AcDbLine
 10
6247.251691937853
 20
7126.614588351029
 30
0.0
 11
6248.946514215816
 21
7122.807955189511
 31
0.0
  0
ARC
  5
E0A5
330
DBF1
100
AcDbEntity
  8
0
  6
Continuous
 62
     7
370
    25
100
AcDbCircle
 10
6246.977628300559
 20
7126.492567358106
 30
0.0
 40
0.3000000000011143
100
AcDbArc
 50
24.00000000003607
 51
90.0
  0
LINE
  5
E0A6
330
DBF1
100
AcDbEntity
  8
0
  6
Continuous
 62
     7
370
    25
100
AcDbLine
 10
6243.367272856472
 20
7126.792567358107
 30
0.0
 11
6246.977628300559
 21
7126.792567358107
 31
0.0
  0
ARC
  5
E0A7
330
DBF1
100
AcDbEntity
  8
0
  6
Continuous
 62
     7
370
    25
100
AcDbCircle
 10
6243.367272856472
 20
7126.492567358106
 30
0.0
 40
0.3000000000010914
100
AcDbArc
 50
90.0
 51
156.0000000001226
  0
LINE
  5
E0A8
330
DBF1
100
AcDbEntity
  8
0
  6
Continuous
 62
     7
370
    25
100
AcDbLine
 10
6241.398386941223
 20
7122.807955189506
 30
0.0
 11
6243.093209219179
 21
7126.614588351028
 31
0.0
  0
ARC
  5
E0A9
330
DBF1
100
AcDbEntity
  8
0
  6
Continuous
 62
     7
370
    25
100
AcDbCircle
 10
6241.672450578517
 20
7122.685934196583
 30
0.0
 40
0.3000000000010772
100
AcDbArc
 50
155.9999999999639
 51
180.0
  0
LINE
  5
E0AA
330
DBF1
100
AcDbEntity
  8
0
  6
Continuous
 62
     7
370
    25
100
AcDbLine
 10
6241.372450578516
 20
7118.998607087587
 30
0.0
 11
6241.372450578516
 21
7122.685934196583
 31
0.0
  0
ARC
  5
E0AB
330
DBF1
100
AcDbEntity
  8
0
  6
Continuous
 62
     7
370
    25
100
AcDbCircle
 10
6241.672450578517
 20
7118.998607087588
 30
0.0
 40
0.300000000001057
100
AcDbArc
 50
180.0000000001737
 51
248.9624889741667
  0
LINE
  5
E0AC
330
DBF1
100
AcDbEntity
  8
0
  6
Continuous
 62
     7
370
    25
100
AcDbLine
 10
6242.480144302307
 20
7118.366531310493
 30
0.0
 11
6241.564756854722
 21
7118.718603405727
 31
0.0
  0
ARC
  5
E0AD
330
DBF1
100
AcDbEntity
  8
0
  6
Continuous
 62
     7
370
    25
100
AcDbCircle
 10
6242.372450578512
 20
7118.086527628632
 30
0.0
 40
0.3000000000009804
100
AcDbArc
 50
0.0
 51
68.96248897416665
  0
LINE
  5
E0AE
330
DBF1
100
AcDbEntity
  8
0
  6
Continuous
 62
     7
370
    25
100
AcDbLine
 10
6242.672450578513
 20
7116.692567358096
 30
0.0
 11
6242.672450578513
 21
7118.086527628632
 31
0.0
  0
ARC
  5
E0AF
330
DBF1
100
AcDbEntity
  8
0
  6
Continuous
 62
     7
370
    25
100
AcDbCircle
 10
6242.172450578513
 20
7116.692567358096
 30
0.0
 40
0.5
100
AcDbArc
 50
270.0
 51
0.0
  0
LINE
  5
E0B0
330
DBF1
100
AcDbEntity
  8
0
  6
Continuous
 62
     7
370
    25
100
AcDbLine
 10
6240.372450578516
 20
7116.192567358096
 30
0.0
 11
6242.172450578513
 21
7116.192567358096
 31
0.0
  0
ARC
  5
E0B1
330
DBF1
100
AcDbEntity
  8
0
  6
Continuous
 62
     7
370
    25
100
AcDbCircle
 10
6240.372450578516
 20
7116.692567358096
 30
0.0
 40
0.5
100
AcDbArc
 50
180.0
 51
270.0
  0
LINE
  5
E0B2
330
DBF1
100
AcDbEntity
  8
0
  6
Continuous
 62
     7
370
    25
100
AcDbLine
 10
6239.872450578516
 20
7120.892567358096
 30
0.0
 11
6239.872450578516
 21
7116.692567358096
 31
0.0
  0
ARC
  5
E0B3
330
DBF1
100
AcDbEntity
  8
0
  6
Continuous
 62
     7
370
    25
100
AcDbCircle
 10
6239.572450578516
 20
7120.892567358096
 30
0.0
 40
0.3000000000001819
100
AcDbArc
 50
0.0
 51
90.0
  0
LINE
  5
E0B4
330
DBF1
100
AcDbEntity
  8
0
  6
Continuous
 62
     7
370
    25
100
AcDbLine
 10
6237.872450578516
 20
7121.192567358096
 30
0.0
 11
6239.572450578516
 21
7121.192567358096
 31
0.0
  0
ARC
  5
E0B5
330
DBF1
100
AcDbEntity
  8
0
  6
Continuous
 62
     7
370
    25
100
AcDbCircle
 10
6237.872450578516
 20
7120.892567358096
 30
0.0
 40
0.3000000000001961
100
AcDbArc
 50
90.0
 51
180.0
  0
LINE
  5
E0B6
330
DBF1
100
AcDbEntity
  8
0
  6
Continuous
 62
     7
370
    25
100
AcDbLine
 10
6237.572450578516
 20
7116.692567358096
 30
0.0
 11
6237.572450578516
 21
7120.892567358096
 31
0.0
  0
ARC
  5
E0B7
330
DBF1
100
AcDbEntity
  8
0
  6
Continuous
 62
     7
370
    25
100
AcDbCircle
 10
6237.072450578516
 20
7116.692567358096
 30
0.0
 40
0.5
100
AcDbArc
 50
270.0
 51
0.0
  0
LINE
  5
E0B8
330
DBF1
100
AcDbEntity
  8
0
  6
Continuous
 62
     7
370
    25
100
AcDbLine
 10
6233.272450578516
 20
7116.192567358096
 30
0.0
 11
6237.072450578516
 21
7116.192567358096
 31
0.0
  0
LINE
  5
E0B9
330
DBF1
100
AcDbEntity
  8
0
  6
Continuous
 62
     7
370
    25
100
AcDbLine
 10
6233.272450578516
 20
7119.692567358096
 30
0.0
 11
6233.272450578516
 21
7116.192567358096
 31
0.0
  0
LINE
  5
E0BA
330
DBF1
100
AcDbEntity
  8
0
  6
Continuous
 62
     7
370
    25
100
AcDbLine
 10
6236.072450578516
 20
7119.692567358096
 30
0.0
 11
6233.272450578516
 21
7119.692567358096
 31
0.0
  0
LINE
  5
E0BB
330
DBF1
100
AcDbEntity
  8
0
  6
Continuous
 62
     7
370
    25
100
AcDbLine
 10
6236.072450578516
 20
7124.192567358096
 30
0.0
 11
6236.072450578516
 21
7119.692567358096
 31
0.0
  0
LINE
  5
E0BC
330
DBF1
100
AcDbEntity
  8
0
  6
Continuous
 62
     7
370
    25
100
AcDbLine
 10
6230.272450578516
 20
7124.192567358096
 30
0.0
 11
6236.072450578516
 21
7124.192567358096
 31
0.0
  0
LINE
  5
E0BD
330
DBF1
100
AcDbEntity
  8
0
  6
Continuous
 62
     7
370
    25
100
AcDbLine
 10
6229.272450578516
 20
7125.192567358096
 30
0.0
 11
6230.272450578516
 21
7124.192567358096
 31
0.0
  0
LINE
  5
E0BE
330
DBF1
100
AcDbEntity
  8
0
  6
Continuous
 62
     7
370
    25
100
AcDbLine
 10
6228.272450578516
 20
7124.192567358096
 30
0.0
 11
6229.272450578516
 21
7125.192567358096
 31
0.0
  0
LINE
  5
E0BF
330
DBF1
100
AcDbEntity
  8
0
  6
Continuous
 62
     7
370
    25
100
AcDbLine
 10
6222.472450578516
 20
7124.192567358096
 30
0.0
 11
6228.272450578516
 21
7124.192567358096
 31
0.0
  0
LINE
  5
E0C0
330
DBF1
100
AcDbEntity
  8
0
  6
Continuous
 62
     7
370
    25
100
AcDbLine
 10
6222.472450578516
 20
7119.692567358096
 30
0.0
 11
6222.472450578516
 21
7124.192567358096
 31
0.0
  0
LINE
  5
E0C1
330
DBF1
100
AcDbEntity
  8
0
  6
Continuous
 62
     7
370
    25
100
AcDbLine
 10
6225.272450578516
 20
7119.692567358096
 30
0.0
 11
6222.472450578516
 21
7119.692567358096
 31
0.0
  0
LINE
  5
E0C2
330
DBF1
100
AcDbEntity
  8
0
  6
Continuous
 62
     7
370
    25
100
AcDbLine
 10
6225.272450578516
 20
7116.192567358096
 30
0.0
 11
6225.272450578516
 21
7119.692567358096
 31
0.0
  0
LINE
  5
E0C3
330
DBF1
100
AcDbEntity
  8
0
  6
Continuous
 62
     7
370
    25
100
AcDbLine
 10
6221.472450578516
 20
7116.192567358096
 30
0.0
 11
6225.272450578516
 21
7116.192567358096
 31
0.0
  0
ARC
  5
E0C4
330
DBF1
100
AcDbEntity
  8
0
  6
Continuous
 62
     7
370
    25
100
AcDbCircle
 10
6221.472450578516
 20
7116.692567358096
 30
0.0
 40
0.5
100
AcDbArc
 50
180.0
 51
270.0
  0
LINE
  5
E0C5
330
DBF1
100
AcDbEntity
  8
0
  6
Continuous
 62
     7
370
    25
100
AcDbLine
 10
6220.972450578516
 20
7120.892567358096
 30
0.0
 11
6220.972450578516
 21
7116.692567358096
 31
0.0
  0
ARC
  5
E0C6
330
DBF1
100
AcDbEntity
  8
0
  6
Continuous
 62
     7
370
    25
100
AcDbCircle
 10
6220.672450578516
 20
7120.892567358096
 30
0.0
 40
0.3000000000001819
100
AcDbArc
 50
0.0
 51
90.0
  0
LINE
  5
E0C7
330
DBF1
100
AcDbEntity
  8
0
  6
Continuous
 62
     7
370
    25
100
AcDbLine
 10
6218.972450578515
 20
7121.192567358096
 30
0.0
 11
6220.672450578516
 21
7121.192567358096
 31
0.0
  0
ARC
  5
E0C8
330
DBF1
100
AcDbEntity
  8
0
  6
Continuous
 62
     7
370
    25
100
AcDbCircle
 10
6218.972450578515
 20
7120.892567358096
 30
0.0
 40
0.3000000000001819
100
AcDbArc
 50
90.0
 51
180.0
  0
LINE
  5
E0C9
330
DBF1
100
AcDbEntity
  8
0
  6
Continuous
 62
     7
370
    25
100
AcDbLine
 10
6218.672450578516
 20
7116.692567358096
 30
0.0
 11
6218.672450578516
 21
7120.892567358096
 31
0.0
  0
ARC
  5
E0CA
330
DBF1
100
AcDbEntity
  8
0
  6
Continuous
 62
     7
370
    25
100
AcDbCircle
 10
6218.172450578516
 20
7116.692567358096
 30
0.0
 40
0.5
100
AcDbArc
 50
270.0
 51
0.0
  0
LINE
  5
E0CB
330
DBF1
100
AcDbEntity
  8
0
  6
Continuous
 62
     7
370
    25
100
AcDbLine
 10
6216.372450578519
 20
7116.192567358096
 30
0.0
 11
6218.172450578516
 21
7116.192567358096
 31
0.0
  0
ARC
  5
E0CC
330
DBF1
100
AcDbEntity
  8
0
  6
Continuous
 62
     7
370
    25
100
AcDbCircle
 10
6216.372450578519
 20
7116.692567358096
 30
0.0
 40
0.5
100
AcDbArc
 50
180.0
 51
270.0
  0
LINE
  5
E0CD
330
DBF1
100
AcDbEntity
  8
0
  6
Continuous
 62
     7
370
    25
100
AcDbLine
 10
6215.872450578519
 20
7118.086527628632
 30
0.0
 11
6215.872450578519
 21
7116.692567358096
 31
0.0
  0
ARC
  5
E0CE
330
DBF1
100
AcDbEntity
  8
0
  6
Continuous
 62
     7
370
    25
100
AcDbCircle
 10
6216.17245057852
 20
7118.086527628632
 30
0.0
 40
0.3000000000010722
100
AcDbArc
 50
111.0375110258334
 51
180.0
  0
LINE
  5
E0CF
330
DBF1
100
AcDbEntity
  8
0
  6
Continuous
 62
     7
370
    25
100
AcDbLine
 10
6216.98014430231
 20
7118.718603405727
 30
0.0
 11
6216.064756854725
 21
7118.366531310493
 31
0.0
  0
ARC
  5
E0D0
330
DBF1
100
AcDbEntity
  8
0
  6
Continuous
 62
     7
370
    25
100
AcDbCircle
 10
6216.872450578515
 20
7118.998607087587
 30
0.0
 40
0.3000000000008498
100
AcDbArc
 50
291.0375110258333
 51
0.0
  0
LINE
  5
E0D1
330
DBF1
100
AcDbEntity
  8
0
  6
Continuous
 62
     7
370
    25
100
AcDbLine
 10
6217.172450578516
 20
7122.685934196583
 30
0.0
 11
6217.172450578515
 21
7118.998607087587
 31
0.0
  0
ARC
  5
E0D2
330
DBF1
100
AcDbEntity
  8
0
  6
Continuous
 62
     7
370
    25
100
AcDbCircle
 10
6216.872450578515
 20
7122.685934196583
 30
0.0
 40
0.3000000000008612
100
AcDbArc
 50
0.0
 51
24.00000000003607
  0
LINE
  5
E0D3
330
DBF1
100
AcDbEntity
  8
0
  6
Continuous
 62
     7
370
    25
100
AcDbLine
 10
6215.451691937853
 20
7126.614588351028
 30
0.0
 11
6217.146514215809
 21
7122.807955189506
 31
0.0
  0
ARC
  5
E0D4
330
DBF1
100
AcDbEntity
  8
0
  6
Continuous
 62
     7
370
    25
100
AcDbCircle
 10
6215.177628300559
 20
7126.492567358106
 30
0.0
 40
0.3000000000010914
100
AcDbArc
 50
23.99999999987739
 51
90.0
  0
LINE
  5
E0D5
330
DBF1
100
AcDbEntity
  8
0
  6
Continuous
 62
     7
370
    25
100
AcDbLine
 10
6211.567272856472
 20
7126.792567358107
 30
0.0
 11
6215.177628300559
 21
7126.792567358107
 31
0.0
  0
ARC
  5
E0D6
330
DBF1
100
AcDbEntity
  8
0
  6
Continuous
 62
     7
370
    25
100
AcDbCircle
 10
6211.567272856472
 20
7126.492567358106
 30
0.0
 40
0.3000000000011208
100
AcDbArc
 50
90.0
 51
155.9999999999639
  0
LINE
  5
E0D7
330
DBF1
100
AcDbEntity
  8
0
  6
Continuous
 62
     7
370
    25
100
AcDbLine
 10
6209.598386941216
 20
7122.807955189511
 30
0.0
 11
6211.293209219179
 21
7126.614588351029
 31
0.0
  0
ARC
  5
E0D8
330
DBF1
100
AcDbEntity
  8
0
  6
Continuous
 62
     7
370
    25
100
AcDbCircle
 10
6209.872450578509
 20
7122.685934196586
 30
0.0
 40
0.3000000000010119
100
AcDbArc
 50
155.9999999997346
 51
180.0
  0
LINE
  5
E0D9
330
DBF1
100
AcDbEntity
  8
0
  6
Continuous
 62
     7
370
    25
100
AcDbLine
 10
6209.572450578508
 20
7118.99860708758
 30
0.0
 11
6209.572450578508
 21
7122.685934196586
 31
0.0
  0
ARC
  5
E0DA
330
DBF1
100
AcDbEntity
  8
0
  6
Continuous
 62
     7
370
    25
100
AcDbCircle
 10
6209.872450578509
 20
7118.99860708758
 30
0.0
 40
0.3000000000008569
100
AcDbArc
 50
180.0
 51
248.9624889747154
  0
LINE
  5
E0DB
330
DBF1
100
AcDbEntity
  8
0
  6
Continuous
 62
     7
370
    25
100
AcDbLine
 10
6210.680144302305
 20
7118.366531310494
 30
0.0
 11
6209.764756854716
 21
7118.718603405719
 31
0.0
  0
ARC
  5
E0DC
330
DBF1
100
AcDbEntity
  8
0
  6
Continuous
 62
     7
370
    25
100
AcDbCircle
 10
6210.572450578512
 20
7118.086527628632
 30
0.0
 40
0.3000000000009993
100
AcDbArc
 50
0.0
 51
68.96248897455324
  0
LINE
  5
E0DD
330
DBF1
100
AcDbEntity
  8
0
  6
Continuous
 62
     7
370
    25
100
AcDbLine
 10
6210.872450578513
 20
7116.692567358096
 30
0.0
 11
6210.872450578513
 21
7118.086527628632
 31
0.0
  0
ARC
  5
E0DE
330
DBF1
100
AcDbEntity
  8
0
  6
Continuous
 62
     7
370
    25
100
AcDbCircle
 10
6210.372450578513
 20
7116.692567358096
 30
0.0
 40
0.5
100
AcDbArc
 50
270.0
 51
0.0
  0
LINE
  5
E0DF
330
DBF1
100
AcDbEntity
  8
0
  6
Continuous
 62
     7
370
    25
100
AcDbLine
 10
6208.572451873514
 20
7116.192567358096
 30
0.0
 11
6210.372450578513
 21
7116.192567358096
 31
0.0
  0
ARC
  5
E0E0
330
DBF1
100
AcDbEntity
  8
0
  6
Continuous
 62
     7
370
    25
100
AcDbCircle
 10
6208.572451873514
 20
7116.692567358096
 30
0.0
 40
0.5
100
AcDbArc
 50
180.0
 51
270.0
  0
LINE
  5
E0E1
330
DBF1
100
AcDbEntity
  8
0
  6
Continuous
 62
     7
370
    25
100
AcDbLine
 10
6208.072451873514
 20
7120.892567358096
 30
0.0
 11
6208.072451873514
 21
7116.692567358096
 31
0.0
  0
ARC
  5
E0E2
330
DBF1
100
AcDbEntity
  8
0
  6
Continuous
 62
     7
370
    25
100
AcDbCircle
 10
6207.772451873514
 20
7120.892567358096
 30
0.0
 40
0.3000000000001819
100
AcDbArc
 50
0.0
 51
90.0
  0
LINE
  5
E0E3
330
DBF1
100
AcDbEntity
  8
0
  6
Continuous
 62
     7
370
    25
100
AcDbLine
 10
6206.072451873514
 20
7121.192567358096
 30
0.0
 11
6207.772451873514
 21
7121.192567358096
 31
0.0
  0
ARC
  5
E0E4
330
DBF1
100
AcDbEntity
  8
0
  6
Continuous
 62
     7
370
    25
100
AcDbCircle
 10
6206.072451873514
 20
7120.892567358096
 30
0.0
 40
0.3000000000001819
100
AcDbArc
 50
90.0
 51
180.0
  0
LINE
  5
E0E5
330
DBF1
100
AcDbEntity
  8
0
  6
Continuous
 62
     7
370
    25
100
AcDbLine
 10
6205.772451873514
 20
7116.692567358096
 30
0.0
 11
6205.772451873514
 21
7120.892567358096
 31
0.0
  0
ARC
  5
E0E6
330
DBF1
100
AcDbEntity
  8
0
  6
Continuous
 62
     7
370
    25
100
AcDbCircle
 10
6205.272451873514
 20
7116.692567358096
 30
0.0
 40
0.5000000000000071
100
AcDbArc
 50
270.0
 51
0.0
  0
LINE
  5
E0E7
330
DBF1
100
AcDbEntity
  8
0
  6
Continuous
 62
     7
370
    25
100
AcDbLine
 10
6204.572451873514
 20
7116.192567358096
 30
0.0
 11
6205.272451873514
 21
7116.192567358096
 31
0.0
  0
LINE
  5
E0E8
330
DBF1
100
AcDbEntity
  8
0
  6
Continuous
 62
     7
370
    25
100
AcDbLine
 10
6211.572451873514
 20
7154.192567358096
 30
0.0
 11
6204.272451873514
 21
7154.192567358096
 31
0.0
  0
LINE
  5
E0E9
330
DBF1
100
AcDbEntity
  8
0
  6
Continuous
 62
     7
370
    25
100
AcDbLine
 10
6211.572451873514
 20
7152.692567358096
 30
0.0
 11
6211.572451873514
 21
7154.192567358096
 31
0.0
  0
LINE
  5
E0EA
330
DBF1
100
AcDbEntity
  8
0
  6
Continuous
 62
     7
370
    25
100
AcDbLine
 10
6210.272451873515
 20
7152.692567358096
 30
0.0
 11
6211.572451873514
 21
7152.692567358096
 31
0.0
  0
LINE
  5
E0EB
330
DBF1
100
AcDbEntity
  8
0
  6
Continuous
 62
     7
370
    25
100
AcDbLine
 10
6210.272451873515
 20
7149.992567358096
 30
0.0
 11
6210.272451873515
 21
7152.692567358096
 31
0.0
  0
ARC
  5
E0EC
330
DBF1
100
AcDbEntity
  8
0
  6
Continuous
 62
     7
370
    25
100
AcDbCircle
 10
6209.972451873515
 20
7149.992567358096
 30
0.0
 40
0.3000000000001819
100
AcDbArc
 50
270.0
 51
0.0
  0
LINE
  5
E0ED
330
DBF1
100
AcDbEntity
  8
0
  6
Continuous
 62
     7
370
    25
100
AcDbLine
 10
6208.772451873515
 20
7149.692567358096
 30
0.0
 11
6209.972451873515
 21
7149.692567358096
 31
0.0
  0
ARC
  5
E0EE
330
DBF1
100
AcDbEntity
  8
0
  6
Continuous
 62
     7
370
    25
100
AcDbCircle
 10
6208.772451873515
 20
7149.992567358096
 30
0.0
 40
0.3000000000001819
100
AcDbArc
 50
180.0
 51
270.0
  0
LINE
  5
E0EF
330
DBF1
100
AcDbEntity
  8
0
  6
Continuous
 62
     7
370
    25
100
AcDbLine
 10
6208.472451873515
 20
7150.392567358096
 30
0.0
 11
6208.472451873515
 21
7149.992567358096
 31
0.0
  0
ARC
  5
E0F0
330
DBF1
100
AcDbEntity
  8
0
  6
Continuous
 62
     7
370
    25
100
AcDbCircle
 10
6208.172451873515
 20
7150.392567358096
 30
0.0
 40
0.3000000000001819
100
AcDbArc
 50
0.0
 51
90.0
  0
LINE
  5
E0F1
330
DBF1
100
AcDbEntity
  8
0
  6
Continuous
 62
     7
370
    25
100
AcDbLine
 10
6206.072451873514
 20
7150.692567358097
 30
0.0
 11
6208.172451873515
 21
7150.692567358097
 31
0.0
  0
ARC
  5
E0F2
330
DBF1
100
AcDbEntity
  8
0
  6
Continuous
 62
     7
370
    25
100
AcDbCircle
 10
6206.072451873514
 20
7150.392567358096
 30
0.0
 40
0.3000000000001819
100
AcDbArc
 50
90.0
 51
180.0
  0
LINE
  5
E0F3
330
DBF1
100
AcDbEntity
  8
0
  6
Continuous
 62
     7
370
    25
100
AcDbLine
 10
6205.772451873514
 20
7144.992567358096
 30
0.0
 11
6205.772451873514
 21
7150.392567358096
 31
0.0
  0
ARC
  5
E0F4
330
DBF1
100
AcDbEntity
  8
0
  6
Continuous
 62
     7
370
    25
100
AcDbCircle
 10
6206.072451873514
 20
7144.992567358096
 30
0.0
 40
0.3000000000001819
100
AcDbArc
 50
180.0
 51
270.0
  0
LINE
  5
E0F5
330
DBF1
100
AcDbEntity
  8
0
  6
Continuous
 62
     7
370
    25
100
AcDbLine
 10
6208.172451873515
 20
7144.692567358096
 30
0.0
 11
6206.072451873514
 21
7144.692567358096
 31
0.0
  0
ARC
  5
E0F6
330
DBF1
100
AcDbEntity
  8
0
  6
Continuous
 62
     7
370
    25
100
AcDbCircle
 10
6208.172451873515
 20
7144.992567358096
 30
0.0
 40
0.3000000000001819
100
AcDbArc
 50
270.0
 51
0.0
  0
LINE
  5
E0F7
330
DBF1
100
AcDbEntity
  8
0
  6
Continuous
 62
     7
370
    25
100
AcDbLine
 10
6208.472451873515
 20
7145.392567358097
 30
0.0
 11
6208.472451873515
 21
7144.992567358096
 31
0.0
  0
ARC
  5
E0F8
330
DBF1
100
AcDbEntity
  8
0
  6
Continuous
 62
     7
370
    25
100
AcDbCircle
 10
6208.772451873514
 20
7145.392567358097
 30
0.0
 40
0.2999999999999332
100
AcDbArc
 50
90.0
 51
180.0
  0
LINE
  5
E0F9
330
DBF1
100
AcDbEntity
  8
0
  6
Continuous
 62
     7
370
    25
100
AcDbLine
 10
6209.972451873514
 20
7145.692567358096
 30
0.0
 11
6208.772451873514
 21
7145.692567358096
 31
0.0
  0
ARC
  5
E0FA
330
DBF1
100
AcDbEntity
  8
0
  6
Continuous
 62
     7
370
    25
100
AcDbCircle
 10
6209.972451873514
 20
7145.392567358097
 30
0.0
 40
0.3000000000000824
100
AcDbArc
 50
0.0
 51
90.0
  0
LINE
  5
E0FB
330
DBF1
100
AcDbEntity
  8
0
  6
Continuous
 62
     7
370
    25
100
AcDbLine
 10
6210.272451873514
 20
7137.992567358094
 30
0.0
 11
6210.272451873514
 21
7145.392567358097
 31
0.0
  0
ARC
  5
E0FC
330
DBF1
100
AcDbEntity
  8
0
  6
Continuous
 62
     7
370
    25
100
AcDbCircle
 10
6210.572451873511
 20
7137.992567358094
 30
0.0
 40
0.2999999999975387
100
AcDbArc
 50
180.0
 51
270.0
  0
LINE
  5
E0FD
330
DBF1
100
AcDbEntity
  8
0
  6
Continuous
 62
     7
370
    25
100
AcDbLine
 10
6219.522451873514
 20
7137.692567358097
 30
0.0
 11
6210.572451873511
 21
7137.692567358096
 31
0.0
  0
ARC
  5
E0FE
330
DBF1
100
AcDbEntity
  8
0
  6
Continuous
 62
     7
370
    25
100
AcDbCircle
 10
6219.522451873514
 20
7137.392567358097
 30
0.0
 40
0.3000000000001819
100
AcDbArc
 50
0.0
 51
90.0
  0
LINE
  5
E0FF
330
DBF1
100
AcDbEntity
  8
0
  6
Continuous
 62
     7
370
    25
100
AcDbLine
 10
6219.822451873514
 20
7136.992828284845
 30
0.0
 11
6219.822451873514
 21
7137.392567358097
 31
0.0
  0
LINE
  5
E100
330
DBF1
100
AcDbEntity
  8
0
  6
Continuous
 62
     7
370
    25
100
AcDbLine
 10
6220.472451873515
 20
7136.992828284845
 30
0.0
 11
6219.822451873514
 21
7136.992828284845
 31
0.0
  0
ARC
  5
E101
330
DBF1
100
AcDbEntity
  8
0
  6
Continuous
 62
     7
370
    25
100
AcDbCircle
 10
6220.472451873515
 20
7136.492697821471
 30
0.0
 40
0.5001304633749157
100
AcDbArc
 50
270.0
 51
90.0
  0
LINE
  5
E102
330
DBF1
100
AcDbEntity
  8
0
  6
Continuous
 62
     7
370
    25
100
AcDbLine
 10
6219.822451873514
 20
7135.992567358096
 30
0.0
 11
6220.472451873515
 21
7135.992567358096
 31
0.0
  0
LINE
  5
E103
330
DBF1
100
AcDbEntity
  8
0
  6
Continuous
 62
     7
370
    25
100
AcDbLine
 10
6219.822451873514
 20
7135.192567358096
 30
0.0
 11
6219.822451873514
 21
7135.992567358096
 31
0.0
  0
LINE
  5
E104
330
DBF1
100
AcDbEntity
  8
0
  6
Continuous
 62
     7
370
    25
100
AcDbLine
 10
6210.572451873514
 20
7135.192567358096
 30
0.0
 11
6219.822451873514
 21
7135.192567358096
 31
0.0
  0
LINE
  5
E105
330
DBF1
100
AcDbEntity
  8
0
  6
Continuous
 62
     7
370
    25
100
AcDbLine
 10
6210.572451873514
 20
7128.292567358097
 30
0.0
 11
6210.572451873514
 21
7135.192567358096
 31
0.0
  0
LINE
  5
E106
330
DBF1
100
AcDbEntity
  8
0
  6
Continuous
 62
     7
370
    25
100
AcDbLine
 10
6228.072449283517
 20
7128.292567358097
 30
0.0
 11
6210.572451873514
 21
7128.292567358097
 31
0.0
  0
LINE
  5
E107
330
DBF1
100
AcDbEntity
  8
0
  6
Continuous
 62
     7
370
    25
100
AcDbLine
 10
6228.572449283517
 20
7127.792567358097
 30
0.0
 11
6228.072449283517
 21
7128.292567358097
 31
0.0
  0
LINE
  5
E108
330
DBF1
100
AcDbEntity
  8
0
  6
Continuous
 62
     7
370
    25
100
AcDbLine
 10
6229.072449283518
 20
7128.292567358097
 30
0.0
 11
6228.572449283517
 21
7127.792567358097
 31
0.0
  0
LINE
  5
E109
330
DBF1
100
AcDbEntity
  8
0
  6
Continuous
 62
     7
370
    25
100
AcDbLine
 10
6246.572451873514
 20
7128.292567358097
 30
0.0
 11
6229.072449283518
 21
7128.292567358097
 31
0.0
  0
LINE
  5
E10A
330
DBF1
100
AcDbEntity
  8
0
  6
Continuous
 62
     7
370
    25
100
AcDbLine
 10
6246.572451873514
 20
7135.192567358096
 30
0.0
 11
6246.572451873514
 21
7128.292567358097
 31
0.0
  0
LINE
  5
E10B
330
DBF1
100
AcDbEntity
  8
0
  6
Continuous
 62
     7
370
    25
100
AcDbLine
 10
6236.722451873514
 20
7135.192567358096
 30
0.0
 11
6246.572451873514
 21
7135.192567358096
 31
0.0
  0
LINE
  5
E10C
330
DBF1
100
AcDbEntity
  8
0
  6
Continuous
 62
     7
370
    25
100
AcDbLine
 10
6236.722451873514
 20
7135.992567358096
 30
0.0
 11
6236.722451873514
 21
7135.192567358096
 31
0.0
  0
LINE
  5
E10D
330
DBF1
100
AcDbEntity
  8
0
  6
Continuous
 62
     7
370
    25
100
AcDbLine
 10
6236.072451873514
 20
7135.992567358096
 30
0.0
 11
6236.722451873514
 21
7135.992567358096
 31
0.0
  0
ARC
  5
E10E
330
DBF1
100
AcDbEntity
  8
0
  6
Continuous
 62
     7
370
    25
100
AcDbCircle
 10
6236.072451873514
 20
7136.492697821471
 30
0.0
 40
0.5001304633749157
100
AcDbArc
 50
90.0
 51
270.0
  0
LINE
  5
E10F
330
DBF1
100
AcDbEntity
  8
0
  6
Continuous
 62
     7
370
    25
100
AcDbLine
 10
6236.722451873514
 20
7136.992828284845
 30
0.0
 11
6236.072451873514
 21
7136.992828284845
 31
0.0
  0
LINE
  5
E110
330
DBF1
100
AcDbEntity
  8
0
  6
Continuous
 62
     7
370
    25
100
AcDbLine
 10
6236.722451873514
 20
7137.392567358097
 30
0.0
 11
6236.722451873514
 21
7136.992828284845
 31
0.0
  0
ARC
  5
E111
330
DBF1
100
AcDbEntity
  8
0
  6
Continuous
 62
     7
370
    25
100
AcDbCircle
 10
6237.022451873514
 20
7137.392567358097
 30
0.0
 40
0.3000000000000398
100
AcDbArc
 50
90.0
 51
180.0
  0
LINE
  5
E112
330
DBF1
100
AcDbEntity
  8
0
  6
Continuous
 62
     7
370
    25
100
AcDbLine
 10
6254.272449283518
 20
7137.692567358096
 30
0.0
 11
6237.022451873514
 21
7137.692567358096
 31
0.0
  0
LINE
  5
E113
330
DBF1
100
AcDbEntity
  8
0
  6
Continuous
 62
     7
370
    25
100
AcDbLine
 10
6254.272449283518
 20
7116.492567358096
 30
0.0
 11
6254.272449283518
 21
7137.692567358096
 31
0.0
  0
ARC
  5
E114
330
DBF1
100
AcDbEntity
  8
0
  6
Continuous
 62
     7
370
    25
100
AcDbCircle
 10
6253.972449283518
 20
7116.492567358096
 30
0.0
 40
0.3000000000001819
100
AcDbArc
 50
270.0
 51
0.0
  0
ARC
  5
E115
330
DBF1
100
AcDbEntity
  8
0
  6
Continuous
 62
     7
370
    25
100
AcDbCircle
 10
6252.572449283517
 20
7122.892567358097
 30
0.0
 40
0.2000000000004434
100
AcDbArc
 50
270.0
 51
0.0
  0
LINE
  5
E116
330
DBF1
100
AcDbEntity
  8
0
  6
Continuous
 62
     7
370
    25
100
AcDbLine
 10
6252.772449283518
 20
7122.892567358097
 30
0.0
 11
6252.772449283518
 21
7135.692567358096
 31
0.0
  0
LINE
  5
E117
330
DBF1
100
AcDbEntity
  8
0
  6
Continuous
 62
     7
370
    25
100
AcDbLine
 10
6252.772449283518
 20
7135.692567358096
 30
0.0
 11
6248.272451873514
 21
7135.692567358096
 31
0.0
  0
LINE
  5
E118
330
DBF1
100
AcDbEntity
  8
0
  6
Continuous
 62
     7
370
    25
100
AcDbLine
 10
6248.272451873514
 20
7135.692567358096
 30
0.0
 11
6248.272451873514
 21
7128.009814001563
 31
0.0
  0
LINE
  5
E119
330
DBF1
100
AcDbEntity
  8
0
  6
Continuous
 62
     7
370
    25
100
AcDbLine
 10
6248.272451873514
 20
7128.009814001563
 30
0.0
 11
6250.587015033168
 21
7122.811220029481
 31
0.0
  0
ARC
  5
E11A
330
DBF1
100
AcDbEntity
  8
0
  6
Continuous
 62
     7
370
    25
100
AcDbCircle
 10
6250.769724124697
 20
7122.892567358097
 30
0.0
 40
0.2000000000004434
100
AcDbArc
 50
204.0000000002654
 51
270.0
  0
LINE
  5
E11B
330
DBF1
100
AcDbEntity
  8
0
  6
Continuous
 62
     7
370
    25
100
AcDbLine
 10
6250.769724124697
 20
7122.692567358096
 30
0.0
 11
6252.572449283517
 21
7122.692567358096
 31
0.0
  0
LINE
  5
E11C
330
DBF1
100
AcDbEntity
  8
0
  6
Continuous
 62
     7
370
    25
100
AcDbLine
 10
6208.872451873514
 20
7141.192567358096
 30
0.0
 11
6208.872451873514
 21
7124.865368335341
 31
0.0
  0
LINE
  5
E11D
330
DBF1
100
AcDbEntity
  8
0
  6
Continuous
 62
     7
370
    25
100
AcDbLine
 10
6208.872451873514
 20
7141.192567358096
 30
0.0
 11
6205.472451873514
 21
7141.192567358096
 31
0.0
  0
LINE
  5
E11E
330
DBF1
100
AcDbEntity
  8
0
  6
Continuous
 62
     7
370
    25
100
AcDbLine
 10
6205.472451873514
 20
7122.692567358096
 30
0.0
 11
6205.472451873514
 21
7141.192567358096
 31
0.0
  0
LINE
  5
E11F
330
DBF1
100
AcDbEntity
  8
0
  6
Continuous
 62
     7
370
    25
100
AcDbLine
 10
6205.472451873514
 20
7122.692567358096
 30
0.0
 11
6207.905058550974
 21
7122.692567358096
 31
0.0
  0
LINE
  5
E120
330
DBF1
100
AcDbEntity
  8
0
  6
Continuous
 62
     7
370
    25
100
AcDbLine
 10
6208.872451873514
 20
7124.865368335341
 30
0.0
 11
6207.905058550974
 21
7122.692567358096
 31
0.0
  0
LINE
  5
E121
330
DBF1
100
AcDbEntity
  8
0
  6
Continuous
 62
     7
370
    25
100
AcDbLine
 10
6204.272451873514
 20
7154.192567358096
 30
0.0
 11
6204.272451873514
 21
7116.492567358096
 31
0.0
  0
ARC
  5
E122
330
DBF1
100
AcDbEntity
  8
0
  6
Continuous
 62
     7
370
    25
100
AcDbCircle
 10
6204.572451873514
 20
7116.492567358096
 30
0.0
 40
0.3000000000001819
100
AcDbArc
 50
180.0
 51
270.0
  0
LINE
  5
E13B
330
DBF1
100
AcDbEntity
  8
0
  6
Continuous
 62
     7
370
    25
100
AcDbLine
 10
6188.55517879377
 20
7020.866153730063
 30
0.0
 11
6190.18017879377
 21
7020.866153730063
 31
0.0
  0
LINE
  5
E13C
330
DBF1
100
AcDbEntity
  8
0
  6
Continuous
 62
     7
370
    25
100
AcDbLine
 10
6192.68017879377
 20
7020.866153730063
 30
0.0
 11
6193.68067879377
 21
7020.866153730063
 31
0.0
  0
LINE
  5
E13D
330
DBF1
100
AcDbEntity
  8
0
  6
Continuous
 62
     7
370
    25
100
AcDbLine
 10
6193.68067879377
 20
7025.866153730063
 30
0.0
 11
6192.68017879377
 21
7025.866153730063
 31
0.0
  0
LINE
  5
E13E
330
DBF1
100
AcDbEntity
  8
0
  6
Continuous
 62
     7
370
    25
100
AcDbLine
 10
6190.18017879377
 20
7025.866153730063
 30
0.0
 11
6188.55517879377
 21
7025.866153730063
 31
0.0
  0
LINE
  5
E13F
330
DBF1
100
AcDbEntity
  8
0
  6
Continuous
 62
     7
370
    25
100
AcDbLine
 10
6188.55517879377
 20
7025.866153730055
 30
0.0
 11
6188.180178793782
 21
7025.066153730091
 31
0.0
  0
LINE
  5
E140
330
DBF1
100
AcDbEntity
  8
0
  6
Continuous
 62
     7
370
    25
100
AcDbLine
 10
6188.180178793782
 20
7021.666153730035
 30
0.0
 11
6188.55517879377
 21
7020.866153730071
 31
0.0
  0
LINE
  5
E141
330
DBF1
100
AcDbEntity
  8
0
  6
Continuous
 62
     7
370
    25
100
AcDbLine
 10
6193.68067879377
 20
7020.866153730065
 30
0.0
 11
6196.180678793768
 21
7023.366153730063
 31
0.0
  0
LINE
  5
E142
330
DBF1
100
AcDbEntity
  8
0
  6
Continuous
 62
     7
370
    25
100
AcDbLine
 10
6196.180678793768
 20
7023.366153730064
 30
0.0
 11
6193.68067879377
 21
7025.866153730062
 31
0.0
  0
LINE
  5
E143
330
DBF1
100
AcDbEntity
  8
0
  6
Continuous
 62
     7
370
    25
100
AcDbLine
 10
6244.680178793769
 20
6974.866653730063
 30
0.0
 11
6242.18017879377
 21
6977.366653730062
 31
0.0
  0
LINE
  5
E144
330
DBF1
100
AcDbEntity
  8
0
  6
Continuous
 62
     7
370
    25
100
AcDbLine
 10
6242.18017879377
 20
6977.366653730062
 30
0.0
 11
6239.680178793772
 21
6974.866653730063
 31
0.0
  0
LINE
  5
E145
330
DBF1
100
AcDbEntity
  8
0
  6
Continuous
 62
     7
370
    25
100
AcDbLine
 10
6244.68017879377
 20
6969.741153730063
 30
0.0
 11
6244.68017879377
 21
6971.366153730063
 31
0.0
  0
LINE
  5
E146
330
DBF1
100
AcDbEntity
  8
0
  6
Continuous
 62
     7
370
    25
100
AcDbLine
 10
6244.68017879377
 20
6973.866153730063
 30
0.0
 11
6244.68017879377
 21
6974.866653730063
 31
0.0
  0
LINE
  5
E147
330
DBF1
100
AcDbEntity
  8
0
  6
Continuous
 62
     7
370
    25
100
AcDbLine
 10
6239.68017879377
 20
6974.866653730063
 30
0.0
 11
6239.68017879377
 21
6973.866153730063
 31
0.0
  0
LINE
  5
E148
330
DBF1
100
AcDbEntity
  8
0
  6
Continuous
 62
     7
370
    25
100
AcDbLine
 10
6239.68017879377
 20
6971.366153730063
 30
0.0
 11
6239.68017879377
 21
6969.741153730063
 31
0.0
  0
LINE
  5
E149
330
DBF1
100
AcDbEntity
  8
0
  6
Continuous
 62
     7
370
    25
100
AcDbLine
 10
6239.680178793778
 20
6969.741153730063
 30
0.0
 11
6240.480178793742
 21
6969.366153730075
 31
0.0
  0
LINE
  5
E14A
330
DBF1
100
AcDbEntity
  8
0
  6
Continuous
 62
     7
370
    25
100
AcDbLine
 10
6243.880178793798
 20
6969.366153730075
 30
0.0
 11
6244.680178793762
 21
6969.741153730063
 31
0.0
  0
LINE
  5
E14B
330
DBF1
100
AcDbEntity
  8
0
  6
Continuous
 62
     7
370
    25
100
AcDbLine
 10
6209.68017879377
 20
6969.741153730063
 30
0.0
 11
6209.68017879377
 21
6971.366153730063
 31
0.0
  0
LINE
  5
E14C
330
DBF1
100
AcDbEntity
  8
0
  6
Continuous
 62
     7
370
    25
100
AcDbLine
 10
6209.68017879377
 20
6973.866153730063
 30
0.0
 11
6209.68017879377
 21
6974.866653730063
 31
0.0
  0
LINE
  5
E14D
330
DBF1
100
AcDbEntity
  8
0
  6
Continuous
 62
     7
370
    25
100
AcDbLine
 10
6204.68017879377
 20
6974.866653730063
 30
0.0
 11
6204.68017879377
 21
6973.866153730063
 31
0.0
  0
LINE
  5
E14E
330
DBF1
100
AcDbEntity
  8
0
  6
Continuous
 62
     7
370
    25
100
AcDbLine
 10
6204.68017879377
 20
6971.366153730063
 30
0.0
 11
6204.68017879377
 21
6969.741153730063
 31
0.0
  0
LINE
  5
E14F
330
DBF1
100
AcDbEntity
  8
0
  6
Continuous
 62
     7
370
    25
100
AcDbLine
 10
6209.680178793768
 20
6974.866653730063
 30
0.0
 11
6207.18017879377
 21
6977.366653730061
 31
0.0
  0
LINE
  5
E150
330
DBF1
100
AcDbEntity
  8
0
  6
Continuous
 62
     7
370
    25
100
AcDbLine
 10
6207.180178793769
 20
6977.366653730062
 30
0.0
 11
6204.680178793771
 21
6974.866653730063
 31
0.0
  0
LINE
  5
E151
330
DBF1
100
AcDbEntity
  8
0
  6
Continuous
 62
     7
370
    25
100
AcDbLine
 10
6204.680178793778
 20
6969.741153730063
 30
0.0
 11
6205.480178793742
 21
6969.366153730075
 31
0.0
  0
LINE
  5
E152
330
DBF1
100
AcDbEntity
  8
0
  6
Continuous
 62
     7
370
    25
100
AcDbLine
 10
6208.880178793798
 20
6969.366153730075
 30
0.0
 11
6209.680178793762
 21
6969.741153730063
 31
0.0
  0
LINE
  5
E153
330
DBF1
100
AcDbEntity
  8
0
  6
Continuous
 62
     7
370
    25
100
AcDbLine
 10
6188.55517879377
 20
6990.866153730055
 30
0.0
 11
6188.180178793782
 21
6990.066153730091
 31
0.0
  0
LINE
  5
E154
330
DBF1
100
AcDbEntity
  8
0
  6
Continuous
 62
     7
370
    25
100
AcDbLine
 10
6188.180178793782
 20
6986.666153730035
 30
0.0
 11
6188.55517879377
 21
6985.866153730071
 31
0.0
  0
LINE
  5
E155
330
DBF1
100
AcDbEntity
  8
0
  6
Continuous
 62
     7
370
    25
100
AcDbLine
 10
6188.55517879377
 20
6985.866153730063
 30
0.0
 11
6190.18017879377
 21
6985.866153730063
 31
0.0
  0
LINE
  5
E156
330
DBF1
100
AcDbEntity
  8
0
  6
Continuous
 62
     7
370
    25
100
AcDbLine
 10
6192.68017879377
 20
6985.866153730063
 30
0.0
 11
6193.68067879377
 21
6985.866153730063
 31
0.0
  0
LINE
  5
E157
330
DBF1
100
AcDbEntity
  8
0
  6
Continuous
 62
     7
370
    25
100
AcDbLine
 10
6193.68067879377
 20
6990.866153730063
 30
0.0
 11
6192.68017879377
 21
6990.866153730063
 31
0.0
  0
LINE
  5
E158
330
DBF1
100
AcDbEntity
  8
0
  6
Continuous
 62
     7
370
    25
100
AcDbLine
 10
6190.18017879377
 20
6990.866153730063
 30
0.0
 11
6188.55517879377
 21
6990.866153730063
 31
0.0
  0
LINE
  5
E159
330
DBF1
100
AcDbEntity
  8
0
  6
Continuous
 62
     7
370
    25
100
AcDbLine
 10
6193.68067879377
 20
6985.866153730065
 30
0.0
 11
6196.180678793768
 21
6988.366153730063
 31
0.0
  0
LINE
  5
E15A
330
DBF1
100
AcDbEntity
  8
0
  6
Continuous
 62
     7
370
    25
100
AcDbLine
 10
6196.180678793768
 20
6988.366153730064
 30
0.0
 11
6193.68067879377
 21
6990.866153730062
 31
0.0
  0
LINE
  5
E15B
330
DBF1
100
AcDbEntity
  8
0
  6
Continuous
 62
     7
370
    25
100
AcDbLine
 10
6188.55517879377
 20
7021.179350527897
 30
0.0
 11
6188.55517879377
 21
7020.866153730063
 31
0.0
  0
LINE
  5
E15C
330
DBF1
100
AcDbEntity
  8
0
  6
Continuous
 62
     7
370
    25
100
AcDbLine
 10
6188.55517879377
 20
7025.866153730063
 30
0.0
 11
6188.55517879377
 21
7021.179350527897
 31
0.0
  0
LINE
  5
E15D
330
DBF1
100
AcDbEntity
  8
0
  6
Continuous
 62
     7
370
    25
100
AcDbLine
 10
6193.68067879377
 20
7021.179350527897
 30
0.0
 11
6193.68067879377
 21
7025.866153730064
 31
0.0
  0
LINE
  5
E15E
330
DBF1
100
AcDbEntity
  8
0
  6
Continuous
 62
     7
370
    25
100
AcDbLine
 10
6193.68067879377
 20
7020.866153730064
 30
0.0
 11
6193.68067879377
 21
7021.179350527897
 31
0.0
  0
LINE
  5
E15F
330
DBF1
100
AcDbEntity
  8
0
  6
Continuous
 62
     7
370
    25
100
AcDbLine
 10
6188.180178793782
 20
7021.879127552565
 30
0.0
 11
6188.180178793782
 21
7021.666153730035
 31
0.0
  0
LINE
  5
E160
330
DBF1
100
AcDbEntity
  8
0
  6
Continuous
 62
     7
370
    25
100
AcDbLine
 10
6188.180178793782
 20
7025.066153730091
 30
0.0
 11
6188.180178793782
 21
7021.879127552565
 31
0.0
  0
LINE
  5
E161
330
DBF1
100
AcDbEntity
  8
0
  6
Continuous
 62
     7
370
    25
100
AcDbLine
 10
6244.680178793769
 20
6974.866653730063
 30
0.0
 11
6239.680178793772
 21
6974.866653730063
 31
0.0
  0
LINE
  5
E162
330
DBF1
100
AcDbEntity
  8
0
  6
Continuous
 62
     7
370
    25
100
AcDbLine
 10
6239.68017879377
 20
6969.741153730063
 30
0.0
 11
6244.68017879377
 21
6969.741153730063
 31
0.0
  0
LINE
  5
E163
330
DBF1
100
AcDbEntity
  8
0
  6
Continuous
 62
     7
370
    25
100
AcDbLine
 10
6240.480178793742
 20
6969.366153730075
 30
0.0
 11
6243.880178793798
 21
6969.366153730075
 31
0.0
  0
LINE
  5
E164
330
DBF1
100
AcDbEntity
  8
0
  6
Continuous
 62
     7
370
    25
100
AcDbLine
 10
6204.68017879377
 20
6969.741153730063
 30
0.0
 11
6209.68017879377
 21
6969.741153730063
 31
0.0
  0
LINE
  5
E165
330
DBF1
100
AcDbEntity
  8
0
  6
Continuous
 62
     7
370
    25
100
AcDbLine
 10
6209.680178793769
 20
6974.866653730063
 30
0.0
 11
6204.680178793769
 21
6974.866653730063
 31
0.0
  0
LINE
  5
E166
330
DBF1
100
AcDbEntity
  8
0
  6
Continuous
 62
     7
370
    25
100
AcDbLine
 10
6205.480178793742
 20
6969.366153730075
 30
0.0
 11
6208.880178793798
 21
6969.366153730075
 31
0.0
  0
LINE
  5
E167
330
DBF1
100
AcDbEntity
  8
0
  6
Continuous
 62
     7
370
    25
100
AcDbLine
 10
6188.180178793782
 20
6986.879127552565
 30
0.0
 11
6188.180178793782
 21
6986.666153730035
 31
0.0
  0
LINE
  5
E168
330
DBF1
100
AcDbEntity
  8
0
  6
Continuous
 62
     7
370
    25
100
AcDbLine
 10
6188.180178793782
 20
6990.066153730091
 30
0.0
 11
6188.180178793782
 21
6986.879127552565
 31
0.0
  0
LINE
  5
E169
330
DBF1
100
AcDbEntity
  8
0
  6
Continuous
 62
     7
370
    25
100
AcDbLine
 10
6188.55517879377
 20
6986.179350527897
 30
0.0
 11
6188.55517879377
 21
6985.866153730071
 31
0.0
  0
LINE
  5
E16A
330
DBF1
100
AcDbEntity
  8
0
  6
Continuous
 62
     7
370
    25
100
AcDbLine
 10
6188.55517879377
 20
6990.866153730055
 30
0.0
 11
6188.55517879377
 21
6986.179350527897
 31
0.0
  0
LINE
  5
E16B
330
DBF1
100
AcDbEntity
  8
0
  6
Continuous
 62
     7
370
    25
100
AcDbLine
 10
6193.68067879377
 20
6986.179350527897
 30
0.0
 11
6193.68067879377
 21
6990.866153730064
 31
0.0
  0
LINE
  5
E16C
330
DBF1
100
AcDbEntity
  8
0
  6
Continuous
 62
     7
370
    25
100
AcDbLine
 10
6193.68067879377
 20
6985.866153730064
 30
0.0
 11
6193.68067879377
 21
6986.179350527897
 31
0.0
  0
ARC
  5
E16D
330
DBF1
100
AcDbEntity
  8
0
  6
Continuous
 62
     7
370
    25
100
AcDbCircle
 10
6195.18017879377
 20
6976.366153730063
 30
0.0
 40
5.0
100
AcDbArc
 50
180.0
 51
270.0
  0
LINE
  5
E16E
330
DBF1
100
AcDbEntity
  8
0
  6
Continuous
 62
     7
370
    25
100
AcDbLine
 10
6192.68017879377
 20
7028.366153730063
 30
0.0
 11
6190.18017879377
 21
7028.366153730063
 31
0.0
  0
LINE
  5
E16F
330
DBF1
100
AcDbEntity
  8
0
  6
Continuous
 62
     7
370
    25
100
AcDbLine
 10
6247.18017879377
 20
6971.366153730063
 30
0.0
 11
6247.18017879377
 21
6973.866153730063
 31
0.0
  0
LINE
  5
E170
330
DBF1
100
AcDbEntity
  8
0
  6
Continuous
 62
     7
370
    25
100
AcDbLine
 10
6247.18017879377
 20
6971.366153730063
 30
0.0
 11
6195.18017879377
 21
6971.366153730063
 31
0.0
  0
LINE
  5
E171
330
DBF1
100
AcDbEntity
  8
0
  6
Continuous
 62
     7
370
    25
100
AcDbLine
 10
6195.18017879377
 20
6973.866153730063
 30
0.0
 11
6247.18017879377
 21
6973.866153730063
 31
0.0
  0
LINE
  5
E172
330
DBF1
100
AcDbEntity
  8
0
  6
Continuous
 62
     7
370
    25
100
AcDbLine
 10
6192.68017879377
 20
7028.366153730063
 30
0.0
 11
6192.68017879377
 21
6976.366153730063
 31
0.0
  0
ARC
  5
E173
330
DBF1
100
AcDbEntity
  8
0
  6
Continuous
 62
     7
370
    25
100
AcDbCircle
 10
6195.18017879377
 20
6976.366153730063
 30
0.0
 40
2.5
100
AcDbArc
 50
180.0
 51
270.0
  0
LINE
  5
E174
330
DBF1
100
AcDbEntity
  8
0
  6
Continuous
 62
     7
370
    25
100
AcDbLine
 10
6190.18017879377
 20
6976.366153730063
 30
0.0
 11
6190.18017879377
 21
7028.366153730063
 31
0.0
  0
LINE
  5
E175
330
DBF1
100
AcDbEntity
  8
0
  6
Continuous
 62
     7
370
    25
100
AcDbLine
 10
6190.18017879377
 20
7031.366153730063
 30
0.0
 11
6192.68017879377
 21
7031.366153730063
 31
0.0
  0
LINE
  5
E176
330
DBF1
100
AcDbEntity
  8
0
  6
Continuous
 62
     7
370
    25
100
AcDbLine
 10
6192.68017879377
 20
7031.366153730063
 30
0.0
 11
6192.68017879377
 21
7028.366153730063
 31
0.0
  0
LINE
  5
E177
330
DBF1
100
AcDbEntity
  8
0
  6
Continuous
 62
     7
370
    25
100
AcDbLine
 10
6190.18017879377
 20
7028.366153730063
 30
0.0
 11
6190.18017879377
 21
7031.366153730063
 31
0.0
  0
LINE
  5
E178
330
DBF1
100
AcDbEntity
  8
0
  6
Continuous
 62
     7
370
    25
100
AcDbLine
 10
6250.18017879377
 20
6973.866153730063
 30
0.0
 11
6250.18017879377
 21
6971.366153730063
 31
0.0
  0
LINE
  5
E179
330
DBF1
100
AcDbEntity
  8
0
  6
Continuous
 62
     7
370
    25
100
AcDbLine
 10
6250.18017879377
 20
6971.366153730063
 30
0.0
 11
6247.18017879377
 21
6971.366153730063
 31
0.0
  0
LINE
  5
E17A
330
DBF1
100
AcDbEntity
  8
0
  6
Continuous
 62
     7
370
    25
100
AcDbLine
 10
6247.18017879377
 20
6973.866153730063
 30
0.0
 11
6250.18017879377
 21
6973.866153730063
 31
0.0
  0
LINE
  5
E17B
330
DBF1
100
AcDbEntity
  8
0
  6
Continuous
 62
     7
370
    25
100
AcDbLine
 10
6193.68067879377
 20
6917.710822990765
 30
0.0
 11
6196.180678793768
 21
6920.210822990764
 31
0.0
  0
LINE
  5
E17C
330
DBF1
100
AcDbEntity
  8
0
  6
Continuous
 62
     7
370
    25
100
AcDbLine
 10
6196.180678793768
 20
6920.210822990764
 30
0.0
 11
6193.68067879377
 21
6922.710822990763
 31
0.0
  0
LINE
  5
E17D
330
DBF1
100
AcDbEntity
  8
0
  6
Continuous
 62
     7
370
    25
100
AcDbLine
 10
6188.55517879377
 20
6917.710822990764
 30
0.0
 11
6190.18017879377
 21
6917.710822990764
 31
0.0
  0
LINE
  5
E17E
330
DBF1
100
AcDbEntity
  8
0
  6
Continuous
 62
     7
370
    25
100
AcDbLine
 10
6192.68017879377
 20
6917.710822990764
 30
0.0
 11
6193.68067879377
 21
6917.710822990764
 31
0.0
  0
LINE
  5
E17F
330
DBF1
100
AcDbEntity
  8
0
  6
Continuous
 62
     7
370
    25
100
AcDbLine
 10
6193.68067879377
 20
6922.710822990764
 30
0.0
 11
6192.68017879377
 21
6922.710822990764
 31
0.0
  0
LINE
  5
E180
330
DBF1
100
AcDbEntity
  8
0
  6
Continuous
 62
     7
370
    25
100
AcDbLine
 10
6190.18017879377
 20
6922.710822990764
 30
0.0
 11
6188.55517879377
 21
6922.710822990764
 31
0.0
  0
LINE
  5
E181
330
DBF1
100
AcDbEntity
  8
0
  6
Continuous
 62
     7
370
    25
100
AcDbLine
 10
6188.55517879377
 20
6922.710822990755
 30
0.0
 11
6188.180178793782
 21
6921.910822990792
 31
0.0
  0
LINE
  5
E182
330
DBF1
100
AcDbEntity
  8
0
  6
Continuous
 62
     7
370
    25
100
AcDbLine
 10
6188.180178793782
 20
6918.510822990736
 30
0.0
 11
6188.55517879377
 21
6917.710822990772
 31
0.0
  0
LINE
  5
E183
330
DBF1
100
AcDbEntity
  8
0
  6
Continuous
 62
     7
370
    25
100
AcDbLine
 10
6193.68067879377
 20
6917.710822990765
 30
0.0
 11
6193.68067879377
 21
6922.710822990763
 31
0.0
  0
LINE
  5
E184
330
DBF1
100
AcDbEntity
  8
0
  6
Continuous
 62
     7
370
    25
100
AcDbLine
 10
6188.55517879377
 20
6922.710822990764
 30
0.0
 11
6188.55517879377
 21
6917.710822990764
 31
0.0
  0
LINE
  5
E185
330
DBF1
100
AcDbEntity
  8
0
  6
Continuous
 62
     7
370
    25
100
AcDbLine
 10
6188.180178793782
 20
6921.910822990792
 30
0.0
 11
6188.180178793782
 21
6918.510822990736
 31
0.0
  0
CIRCLE
  5
E186
330
DBF1
100
AcDbEntity
  8
0
  6
Continuous
 62
     7
370
    25
100
AcDbCircle
 10
6242.18017879377
 20
6920.210822990764
 30
0.0
 40
2.499999999999992
  0
CIRCLE
  5
E187
330
DBF1
100
AcDbEntity
  8
0
  6
Continuous
 62
     7
370
    25
100
AcDbCircle
 10
6207.180178793769
 20
6920.210822990764
 30
0.0
 40
2.5
  0
LINE
  5
E188
330
DBF1
100
AcDbEntity
  8
0
  6
Continuous
 62
     7
370
    25
100
AcDbLine
 10
6190.18017879377
 20
6926.710822990764
 30
0.0
 11
6192.68017879377
 21
6926.710822990764
 31
0.0
  0
LINE
  5
E189
330
DBF1
100
AcDbEntity
  8
0
  6
Continuous
 62
     7
370
    25
100
AcDbLine
 10
6192.68017879377
 20
6923.710822990764
 30
0.0
 11
6190.18017879377
 21
6923.710822990764
 31
0.0
  0
LINE
  5
E18A
330
DBF1
100
AcDbEntity
  8
0
  6
Continuous
 62
     7
370
    25
100
AcDbLine
 10
6190.18017879377
 20
6923.710822990764
 30
0.0
 11
6190.18017879377
 21
6926.710822990764
 31
0.0
  0
LINE
  5
E18B
330
DBF1
100
AcDbEntity
  8
0
  6
Continuous
 62
     7
370
    25
100
AcDbLine
 10
6192.68017879377
 20
6926.710822990764
 30
0.0
 11
6192.68017879377
 21
6923.710822990764
 31
0.0
  0
LINE
  5
E18C
330
DBF1
100
AcDbEntity
  8
0
  6
Continuous
 62
     7
370
    25
100
AcDbLine
 10
6190.18017879377
 20
6916.710822990764
 30
0.0
 11
6192.68017879377
 21
6916.710822990764
 31
0.0
  0
LINE
  5
E18D
330
DBF1
100
AcDbEntity
  8
0
  6
Continuous
 62
     7
370
    25
100
AcDbLine
 10
6190.18017879377
 20
6923.710822990764
 30
0.0
 11
6190.18017879377
 21
6916.710822990764
 31
0.0
  0
LINE
  5
E18E
330
DBF1
100
AcDbEntity
  8
0
  6
Continuous
 62
     7
370
    25
100
AcDbLine
 10
6192.68017879377
 20
6923.710822990764
 30
0.0
 11
6192.68017879377
 21
6916.710822990764
 31
0.0
  0
LINE
  5
E18F
330
DBF1
100
AcDbEntity
  8
0
  6
Continuous
 62
     7
370
    25
100
AcDbLine
 10
6192.68017879377
 20
6913.710822990764
 30
0.0
 11
6190.18017879377
 21
6913.710822990764
 31
0.0
  0
LINE
  5
E190
330
DBF1
100
AcDbEntity
  8
0
  6
Continuous
 62
     7
370
    25
100
AcDbLine
 10
6190.18017879377
 20
6913.710822990764
 30
0.0
 11
6190.18017879377
 21
6916.710822990764
 31
0.0
  0
LINE
  5
E191
330
DBF1
100
AcDbEntity
  8
0
  6
Continuous
 62
     7
370
    25
100
AcDbLine
 10
6192.68017879377
 20
6916.710822990764
 30
0.0
 11
6192.68017879377
 21
6913.710822990764
 31
0.0
  0
LINE
  5
E192
330
DBF1
100
AcDbEntity
  8
0
  6
Continuous
 62
     7
370
    25
100
AcDbLine
 10
6195.18017879377
 20
6913.710822990764
 30
0.0
 11
6192.68017879377
 21
6913.710822990764
 31
0.0
  0
LINE
  5
E193
330
DBF1
100
AcDbEntity
  8
0
  6
Continuous
 62
     7
370
    25
100
AcDbLine
 10
6192.68017879377
 20
6926.710822990764
 30
0.0
 11
6195.18017879377
 21
6926.710822990764
 31
0.0
  0
LINE
  5
E194
330
DBF1
100
AcDbEntity
  8
0
  6
Continuous
 62
     7
370
    25
100
AcDbLine
 10
6250.18017879377
 20
6923.710822990764
 30
0.0
 11
6247.18017879377
 21
6926.710822990764
 31
0.0
  0
LINE
  5
E195
330
DBF1
100
AcDbEntity
  8
0
  6
Continuous
 62
     7
370
    25
100
AcDbLine
 10
6250.18017879377
 20
6923.710822990764
 30
0.0
 11
6250.18017879377
 21
6916.710822990764
 31
0.0
  0
LINE
  5
E196
330
DBF1
100
AcDbEntity
  8
0
  6
Continuous
 62
     7
370
    25
100
AcDbLine
 10
6247.18017879377
 20
6913.710822990764
 30
0.0
 11
6250.18017879377
 21
6916.710822990764
 31
0.0
  0
LINE
  5
E197
330
DBF1
100
AcDbEntity
  8
0
  6
Continuous
 62
     7
370
    25
100
AcDbLine
 10
6195.18017879377
 20
6913.710822990764
 30
0.0
 11
6247.18017879377
 21
6913.710822990764
 31
0.0
  0
LINE
  5
E198
330
DBF1
100
AcDbEntity
  8
0
  6
Continuous
 62
     7
370
    25
100
AcDbLine
 10
6195.18017879377
 20
6926.710822990764
 30
0.0
 11
6247.18017879377
 21
6926.710822990764
 31
0.0
  0
LINE
  5
E199
330
DBF1
100
AcDbEntity
  8
0
  6
Continuous
 62
     8
370
    25
100
AcDbLine
 10
6195.18017879377
 20
6926.710822990764
 30
0.0
 11
6195.18017879377
 21
6921.211322990763
 31
0.0
  0
LINE
  5
E19A
330
DBF1
100
AcDbEntity
  8
0
  6
Continuous
 62
     8
370
    25
100
AcDbLine
 10
6195.18017879377
 20
6919.210322990765
 30
0.0
 11
6195.18017879377
 21
6913.710822990764
 31
0.0
  0
LINE
  5
E19B
330
DBF1
100
AcDbEntity
  8
0
  6
Continuous
 62
     7
370
    25
100
AcDbLine
 10
6303.407182684821
 20
6969.741153730063
 30
0.0
 11
6303.407182684821
 21
6971.366153730063
 31
0.0
  0
LINE
  5
E19C
330
DBF1
100
AcDbEntity
  8
0
  6
Continuous
 62
     7
370
    25
100
AcDbLine
 10
6298.407182684821
 20
6971.366153730063
 30
0.0
 11
6298.407182684821
 21
6969.741153730063
 31
0.0
  0
LINE
  5
E19D
330
DBF1
100
AcDbEntity
  8
0
  6
Continuous
 62
     7
370
    25
100
AcDbLine
 10
6298.407182684829
 20
6969.741153730063
 30
0.0
 11
6299.207182684793
 21
6969.366153730075
 31
0.0
  0
LINE
  5
E19E
330
DBF1
100
AcDbEntity
  8
0
  6
Continuous
 62
     7
370
    25
100
AcDbLine
 10
6302.607182684849
 20
6969.366153730075
 30
0.0
 11
6303.407182684813
 21
6969.741153730063
 31
0.0
  0
CIRCLE
  5
E19F
330
DBF1
100
AcDbEntity
  8
0
  6
Continuous
 62
     7
370
    25
100
AcDbCircle
 10
6300.907182684821
 20
7023.366153730063
 30
0.0
 40
1.700000000028012
  0
LINE
  5
E1A0
330
DBF1
100
AcDbEntity
  8
0
  6
Continuous
 62
     7
370
    25
100
AcDbLine
 10
6302.144241307418
 20
7022.622501057378
 30
0.0
 11
6302.169734102257
 21
7024.06565158686
 31
0.0
  0
LINE
  5
E1A1
330
DBF1
100
AcDbEntity
  8
0
  6
Continuous
 62
     7
370
    25
100
AcDbLine
 10
6302.169734102257
 20
7024.06565158686
 30
0.0
 11
6300.93267547966
 21
7024.809304259546
 31
0.0
  0
LINE
  5
E1A2
330
DBF1
100
AcDbEntity
  8
0
  6
Continuous
 62
     7
370
    25
100
AcDbLine
 10
6300.93267547966
 20
7024.809304259546
 30
0.0
 11
6299.670124062224
 21
7024.109806402748
 31
0.0
  0
LINE
  5
E1A3
330
DBF1
100
AcDbEntity
  8
0
  6
Continuous
 62
     7
370
    25
100
AcDbLine
 10
6299.670124062224
 20
7024.109806402748
 30
0.0
 11
6299.644631267385
 21
7022.666655873266
 31
0.0
  0
LINE
  5
E1A4
330
DBF1
100
AcDbEntity
  8
0
  6
Continuous
 62
     7
370
    25
100
AcDbLine
 10
6300.881689889982
 20
7021.923003200582
 30
0.0
 11
6299.644631267385
 21
7022.666655873266
 31
0.0
  0
LINE
  5
E1A5
330
DBF1
100
AcDbEntity
  8
0
  6
Continuous
 62
     7
370
    25
100
AcDbLine
 10
6300.881689889982
 20
7021.923003200582
 30
0.0
 11
6302.144241307418
 21
7022.622501057378
 31
0.0
  0
CIRCLE
  5
E1A6
330
DBF1
100
AcDbEntity
  8
0
  6
Continuous
 62
     7
370
    25
100
AcDbCircle
 10
6300.907182684821
 20
7023.366153730063
 30
0.0
 40
2.499999999999996
  0
LINE
  5
E1A7
330
DBF1
100
AcDbEntity
  8
0
  6
Continuous
 62
     7
370
    25
100
AcDbLine
 10
6298.407182684821
 20
6969.741153730063
 30
0.0
 11
6303.407182684821
 21
6969.741153730063
 31
0.0
  0
LINE
  5
E1A8
330
DBF1
100
AcDbEntity
  8
0
  6
Continuous
 62
     7
370
    25
100
AcDbLine
 10
6299.207182684793
 20
6969.366153730075
 30
0.0
 11
6302.607182684849
 21
6969.366153730075
 31
0.0
  0
CIRCLE
  5
E1A9
330
DBF1
100
AcDbEntity
  8
0
  6
Continuous
 62
     7
370
    25
100
AcDbCircle
 10
6300.907182684821
 20
6988.366153730063
 30
0.0
 40
1.700000000028012
  0
LINE
  5
E1AA
330
DBF1
100
AcDbEntity
  8
0
  6
Continuous
 62
     7
370
    25
100
AcDbLine
 10
6302.144241307418
 20
6987.622501057378
 30
0.0
 11
6302.169734102257
 21
6989.06565158686
 31
0.0
  0
LINE
  5
E1AB
330
DBF1
100
AcDbEntity
  8
0
  6
Continuous
 62
     7
370
    25
100
AcDbLine
 10
6302.169734102257
 20
6989.06565158686
 30
0.0
 11
6300.93267547966
 21
6989.809304259546
 31
0.0
  0
LINE
  5
E1AC
330
DBF1
100
AcDbEntity
  8
0
  6
Continuous
 62
     7
370
    25
100
AcDbLine
 10
6300.93267547966
 20
6989.809304259546
 30
0.0
 11
6299.670124062224
 21
6989.109806402748
 31
0.0
  0
LINE
  5
E1AD
330
DBF1
100
AcDbEntity
  8
0
  6
Continuous
 62
     7
370
    25
100
AcDbLine
 10
6299.670124062224
 20
6989.109806402748
 30
0.0
 11
6299.644631267385
 21
6987.666655873266
 31
0.0
  0
LINE
  5
E1AE
330
DBF1
100
AcDbEntity
  8
0
  6
Continuous
 62
     7
370
    25
100
AcDbLine
 10
6300.881689889982
 20
6986.923003200582
 30
0.0
 11
6299.644631267385
 21
6987.666655873266
 31
0.0
  0
LINE
  5
E1AF
330
DBF1
100
AcDbEntity
  8
0
  6
Continuous
 62
     7
370
    25
100
AcDbLine
 10
6300.881689889982
 20
6986.923003200582
 30
0.0
 11
6302.144241307418
 21
6987.622501057378
 31
0.0
  0
CIRCLE
  5
E1B0
330
DBF1
100
AcDbEntity
  8
0
  6
Continuous
 62
     7
370
    25
100
AcDbCircle
 10
6300.907182684821
 20
6988.366153730063
 30
0.0
 40
2.500000000000024
  0
LINE
  5
E1B1
330
DBF1
100
AcDbEntity
  8
0
  6
Continuous
 62
     7
370
    25
100
AcDbLine
 10
6294.407182684821
 20
6976.366153730063
 30
0.0
 11
6307.407182684821
 21
6976.366153730063
 31
0.0
  0
LINE
  5
E1B2
330
DBF1
100
AcDbEntity
  8
0
  6
Continuous
 62
     7
370
    25
100
AcDbLine
 10
6307.407182684821
 20
6976.366153730063
 30
0.0
 11
6307.407182684821
 21
6971.366153730063
 31
0.0
  0
LINE
  5
E1B3
330
DBF1
100
AcDbEntity
  8
0
  6
Continuous
 62
     7
370
    25
100
AcDbLine
 10
6307.407182684821
 20
6971.366153730063
 30
0.0
 11
6294.407182684821
 21
6971.366153730063
 31
0.0
  0
LINE
  5
E1B4
330
DBF1
100
AcDbEntity
  8
0
  6
Continuous
 62
     7
370
    25
100
AcDbLine
 10
6294.407182684821
 20
6971.366153730063
 30
0.0
 11
6294.407182684821
 21
6976.366153730063
 31
0.0
  0
LINE
  5
E1B5
330
DBF1
100
AcDbEntity
  8
0
  6
Continuous
 62
     7
370
    25
100
AcDbLine
 10
6307.407182684821
 20
7028.366153730063
 30
0.0
 11
6304.407182684821
 21
7031.366153730063
 31
0.0
  0
LINE
  5
E1B6
330
DBF1
100
AcDbEntity
  8
0
  6
Continuous
 62
     7
370
    25
100
AcDbLine
 10
6307.407182684821
 20
6976.366153730063
 30
0.0
 11
6307.407182684821
 21
7028.366153730063
 31
0.0
  0
LINE
  5
E1B7
330
DBF1
100
AcDbEntity
  8
0
  6
Continuous
 62
     7
370
    25
100
AcDbLine
 10
6297.407182684821
 20
7031.366153730063
 30
0.0
 11
6294.407182684821
 21
7028.366153730063
 31
0.0
  0
LINE
  5
E1B8
330
DBF1
100
AcDbEntity
  8
0
  6
Continuous
 62
     7
370
    25
100
AcDbLine
 10
6297.407182684821
 20
7031.366153730063
 30
0.0
 11
6304.407182684821
 21
7031.366153730063
 31
0.0
  0
LINE
  5
E1B9
330
DBF1
100
AcDbEntity
  8
0
  6
Continuous
 62
     7
370
    25
100
AcDbLine
 10
6294.407182684821
 20
6976.366153730063
 30
0.0
 11
6294.407182684821
 21
7028.366153730063
 31
0.0
  0
LINE
  5
E1BA
330
DBF1
100
AcDbEntity
  8
0
  6
Continuous
 62
     7
370
    25
100
AcDbLine
 10
6278.750958606454
 20
6944.805105975099
 30
0.0
 11
6280.518438247574
 21
6945.825781976475
 31
0.0
  0
LINE
  5
E1BB
330
DBF1
100
AcDbEntity
  8
0
  6
Continuous
 62
     7
370
    25
100
AcDbLine
 10
6280.518438247574
 20
6945.825781976475
 30
0.0
 11
6280.518438247574
 21
6947.86680225603
 31
0.0
  0
LINE
  5
E1BC
330
DBF1
100
AcDbEntity
  8
0
  6
Continuous
 62
     7
370
    25
100
AcDbLine
 10
6276.793312544236
 20
6945.08957811824
 30
0.0
 11
6277.500772878813
 21
6944.6811699603
 31
0.0
  0
LINE
  5
E1BD
330
DBF1
100
AcDbEntity
  8
0
  6
Continuous
 62
     7
370
    25
100
AcDbLine
 10
6280.000569710403
 20
6949.011414272204
 30
0.0
 11
6279.293109375826
 21
6949.419822430144
 31
0.0
  0
LINE
  5
E1BE
330
DBF1
100
AcDbEntity
  8
0
  6
Continuous
 62
     7
370
    25
100
AcDbLine
 10
6314.813050823551
 20
6888.467122692183
 30
0.0
 11
6313.044996628765
 21
6889.48813043024
 31
0.0
  0
LINE
  5
E1BF
330
DBF1
100
AcDbEntity
  8
0
  6
Continuous
 62
     7
370
    25
100
AcDbLine
 10
6313.044996628765
 20
6889.48813043024
 30
0.0
 11
6311.276942433979
 21
6888.467122692183
 31
0.0
  0
LINE
  5
E1C0
330
DBF1
100
AcDbEntity
  8
0
  6
Continuous
 62
     7
370
    25
100
AcDbLine
 10
6315.544996628765
 20
6886.629829318234
 30
0.0
 11
6315.544996628765
 21
6887.446778400526
 31
0.0
  0
LINE
  5
E1C1
330
DBF1
100
AcDbEntity
  8
0
  6
Continuous
 62
     7
370
    25
100
AcDbLine
 10
6310.544996628765
 20
6887.446778400526
 30
0.0
 11
6310.544996628765
 21
6886.629829318234
 31
0.0
  0
LINE
  5
E1C2
330
DBF1
100
AcDbEntity
  8
0
  6
Continuous
 62
     7
370
    25
100
AcDbLine
 10
6290.064313482021
 20
6902.75426464908
 30
0.0
 11
6288.296259287235
 21
6903.775272387137
 31
0.0
  0
LINE
  5
E1C3
330
DBF1
100
AcDbEntity
  8
0
  6
Continuous
 62
     7
370
    25
100
AcDbLine
 10
6288.296259287235
 20
6903.775272387137
 30
0.0
 11
6286.52820509245
 21
6902.75426464908
 31
0.0
  0
LINE
  5
E1C4
330
DBF1
100
AcDbEntity
  8
0
  6
Continuous
 62
     7
370
    25
100
AcDbLine
 10
6290.796259287236
 20
6900.916971275133
 30
0.0
 11
6290.796259287236
 21
6901.733920357424
 31
0.0
  0
LINE
  5
E1C5
330
DBF1
100
AcDbEntity
  8
0
  6
Continuous
 62
     7
370
    25
100
AcDbLine
 10
6285.796259287236
 20
6901.733920357424
 30
0.0
 11
6285.796259287236
 21
6900.916971275133
 31
0.0
  0
LINE
  5
E1C6
330
DBF1
100
AcDbEntity
  8
0
  6
Continuous
 62
     7
370
    25
100
AcDbLine
 10
6278.750958606454
 20
6916.226177559098
 30
0.0
 11
6280.518438247574
 21
6917.246853560473
 31
0.0
  0
LINE
  5
E1C7
330
DBF1
100
AcDbEntity
  8
0
  6
Continuous
 62
     7
370
    25
100
AcDbLine
 10
6280.518438247574
 20
6917.246853560474
 30
0.0
 11
6280.518438247574
 21
6919.28787384003
 31
0.0
  0
LINE
  5
E1C8
330
DBF1
100
AcDbEntity
  8
0
  6
Continuous
 62
     7
370
    25
100
AcDbLine
 10
6276.793312544236
 20
6916.510649702239
 30
0.0
 11
6277.500772878813
 21
6916.102241544299
 31
0.0
  0
LINE
  5
E1C9
330
DBF1
100
AcDbEntity
  8
0
  6
Continuous
 62
     7
370
    25
100
AcDbLine
 10
6280.000569710403
 20
6920.432485856203
 30
0.0
 11
6279.293109375826
 21
6920.840894014142
 31
0.0
  0
LWPOLYLINE
  5
E1CA
330
DBF1
100
AcDbEntity
  8
0
  6
Continuous
 62
     7
370
    25
100
AcDbPolyline
 90
       24
 70
   128
 43
0.0
 10
6277.893964881947
 20
6944.566111969226
 10
6277.616806845317
 20
6944.625605333476
 10
6277.38062962414
 20
6944.765360103996
 10
6277.193969278543
 20
6944.980325179256
 10
6277.063572199753
 20
6945.26273116135
 10
6276.994151277946
 20
6945.602371162279
 10
6276.988215566109
 20
6945.986969707491
 10
6277.045979596333
 20
6946.402626403498
 10
6277.165355626064
 20
6946.834318334323
 10
6277.342029094557
 20
6947.266443028825
 10
6277.56961456234
 20
6947.683382374654
 10
6277.839886497641
 20
6948.070067097527
 10
6278.143076568531
 20
6948.412521404062
 10
6278.468226695893
 20
6948.698368103365
 10
6278.803585106956
 20
6948.917275950957
 10
6279.137031074975
 20
6949.061333046867
 10
6279.456512993881
 20
6949.125332792311
 10
6279.750483954722
 20
6949.106962069741
 10
6280.008319081041
 20
6949.006884844933
 10
6280.220699539588
 20
6948.82871816954
 10
6280.379949347241
 20
6948.578901451422
 10
6280.480312801029
 20
6948.266463717661
 10
6280.518162504238
 20
6947.902697282005
 10
6280.518438247574
 20
6947.86680225603
  0
ARC
  5
E1CB
330
DBF1
100
AcDbEntity
  8
0
  6
Continuous
 62
     7
370
    25
100
AcDbCircle
 10
6277.913934616416
 20
6946.150520962419
 30
0.0
 40
1.584534836476321
100
AcDbArc
 50
269.2778878899578
 51
301.8870120608174
  0
LWPOLYLINE
  5
E1CC
330
DBF1
100
AcDbEntity
  8
0
  6
Continuous
 62
     7
370
    25
100
AcDbPolyline
 90
       27
 70
   128
 43
0.0
 10
6314.813050823551
 20
6888.467122692183
 10
6314.98441146283
 20
6888.357479746642
 10
6315.2479173766
 20
6888.129136427046
 10
6315.431803994888
 20
6887.876130910505
 10
6315.5294251762
 20
6887.607607475587
 10
6315.537252636691
 20
6887.333271258859
 10
6315.455003471547
 20
6887.063037485971
 10
6315.285650379892
 20
6886.806673109563
 10
6315.035314223705
 20
6886.573443806148
 10
6314.713042803916
 20
6886.371779090426
 10
6314.330483849305
 20
6886.208967650653
 10
6313.901464037239
 20
6886.090893916466
 10
6313.441489261527
 20
6886.021825380254
 10
6312.967184209015
 20
6886.004258358875
 10
6312.495691500091
 20
6886.03882777025
 10
6312.044052109718
 20
6886.124284185783
 10
6311.628589462199
 20
6886.257538987961
 10
6311.264319460092
 20
6886.433776001043
 10
6310.964407770372
 20
6886.646625560194
 10
6310.739693982913
 20
6886.888394727774
 10
6310.598299839484
 20
6887.150345336139
 10
6310.545335692826
 20
6887.423009807801
 10
6310.582715805195
 20
6887.696533338333
 10
6310.709089161939
 20
6887.961030074683
 10
6310.919888300681
 20
6888.206940415658
 10
6311.207494391316
 20
6888.425376520824
 10
6311.276942433979
 20
6888.467122692183
  0
LWPOLYLINE
  5
E1CD
330
DBF1
100
AcDbEntity
  8
0
  6
Continuous
 62
     7
370
    25
100
AcDbPolyline
 90
       21
 70
   128
 43
0.0
 10
6290.707305845381
 20
6901.352362222318
 10
6290.538649541573
 20
6901.095844808824
 10
6290.288947411483
 20
6900.862389108147
 10
6289.967224340684
 20
6900.66043281757
 10
6289.585108239196
 20
6900.497275163629
 10
6289.156409778521
 20
6900.378813089038
 10
6288.696623237992
 20
6900.309328121825
 10
6288.222366501143
 20
6900.291331629745
 10
6287.75078044211
 20
6900.325474052912
 10
6287.298909409771
 20
6900.410521395195
 10
6286.883085200573
 20
6900.543399824055
 10
6286.518336784857
 20
6900.719306766862
 10
6286.217847120708
 20
6900.931884488382
 10
6285.992476687507
 20
6901.173449875893
 10
6285.850370959908
 20
6901.435272126899
 10
6285.796666009159
 20
6901.707888303075
 10
6285.833302872105
 20
6901.981445345523
 10
6285.958957397065
 20
6902.24605618998
 10
6286.169088102117
 20
6902.492157111091
 10
6286.456100316089
 20
6902.710853380358
 10
6286.52820509245
 20
6902.75426464908
  0
ARC
  5
E1CE
330
DBF1
100
AcDbEntity
  8
0
  6
Continuous
 62
     7
370
    25
100
AcDbCircle
 10
6289.641843705953
 20
6901.712088240351
 30
0.0
 40
1.12454985598827
100
AcDbArc
 50
341.3440626285304
 51
67.93371401529915
  0
LWPOLYLINE
  5
E1CF
330
DBF1
100
AcDbEntity
  8
0
  6
Continuous
 62
     7
370
    25
100
AcDbPolyline
 90
       24
 70
   128
 43
0.0
 10
6277.893964881947
 20
6915.987183553225
 10
6277.616806845317
 20
6916.046676917474
 10
6277.38062962414
 20
6916.186431687996
 10
6277.193969278543
 20
6916.401396763255
 10
6277.063572199753
 20
6916.683802745348
 10
6276.994151277946
 20
6917.023442746278
 10
6276.988215566109
 20
6917.40804129149
 10
6277.045979596333
 20
6917.823697987496
 10
6277.165355626064
 20
6918.255389918322
 10
6277.342029094557
 20
6918.687514612824
 10
6277.56961456234
 20
6919.104453958653
 10
6277.839886497641
 20
6919.491138681526
 10
6278.143076568531
 20
6919.83359298806
 10
6278.468226695893
 20
6920.119439687363
 10
6278.803585106956
 20
6920.338347534956
 10
6279.137031074975
 20
6920.482404630866
 10
6279.456512993881
 20
6920.54640437631
 10
6279.750483954722
 20
6920.528033653739
 10
6280.008319081041
 20
6920.427956428932
 10
6280.220699539588
 20
6920.24978975354
 10
6280.379949347241
 20
6919.999973035421
 10
6280.480312801029
 20
6919.68753530166
 10
6280.518162504238
 20
6919.323768866004
 10
6280.518438247574
 20
6919.28787384003
  0
ARC
  5
E1D0
330
DBF1
100
AcDbEntity
  8
0
  6
Continuous
 62
     7
370
    25
100
AcDbCircle
 10
6277.913934616416
 20
6917.571592546418
 30
0.0
 40
1.584534836476265
100
AcDbArc
 50
269.2778878899578
 51
301.8870120608174
  0
ARC
  5
E1D1
330
DBF1
100
AcDbEntity
  8
0
  6
Continuous
 62
     7
370
    25
100
AcDbCircle
 10
6279.35533043619
 20
6907.593770153218
 30
0.0
 40
7.684024037860453
100
AcDbArc
 50
182.6054784856523
 51
237.3945216599671
  0
LINE
  5
E1D2
330
DBF1
100
AcDbEntity
  8
0
  6
Continuous
 62
     7
370
    25
100
AcDbLine
 10
6271.679249929352
 20
6907.244465891916
 30
0.0
 11
6271.679249929352
 21
6949.704588109975
 31
0.0
  0
LINE
  5
E1D3
330
DBF1
100
AcDbEntity
  8
0
  6
Continuous
 62
     7
370
    25
100
AcDbLine
 10
6273.447016882319
 20
6948.684077970196
 30
0.0
 11
6271.679249929352
 21
6949.704588109975
 31
0.0
  0
LINE
  5
E1D4
330
DBF1
100
AcDbEntity
  8
0
  6
Continuous
 62
     7
370
    25
100
AcDbLine
 10
6273.447016882319
 20
6948.684077970196
 30
0.0
 11
6273.447016882319
 21
6906.223955752138
 31
0.0
  0
ARC
  5
E1D5
330
DBF1
100
AcDbEntity
  8
0
  6
Continuous
 62
     7
370
    25
100
AcDbCircle
 10
6277.285057135738
 20
6906.398607882789
 30
0.0
 40
3.842012018930547
100
AcDbArc
 50
182.6054784856656
 51
237.3945216599708
  0
LINE
  5
E1D6
330
DBF1
100
AcDbEntity
  8
0
  6
Continuous
 62
     7
370
    25
100
AcDbLine
 10
6275.214783835285
 20
6903.162093582645
 30
0.0
 11
6311.984336456985
 21
6881.935482675254
 31
0.0
  0
LINE
  5
E1D7
330
DBF1
100
AcDbEntity
  8
0
  6
Continuous
 62
     7
370
    25
100
AcDbLine
 10
6311.984336456985
 20
6879.89413064554
 30
0.0
 11
6311.984336456985
 21
6881.935482675254
 31
0.0
  0
LINE
  5
E1D8
330
DBF1
100
AcDbEntity
  8
0
  6
Continuous
 62
     7
370
    25
100
AcDbLine
 10
6311.984336456985
 20
6879.89413064554
 30
0.0
 11
6275.214783835285
 21
6901.120741552931
 31
0.0
  0
LINE
  5
E1D9
330
DBF1
100
AcDbEntity
  8
0
  6
Continuous
 62
     7
370
    25
100
AcDbLine
 10
6284.40717199071
 20
6908.468746309492
 30
0.0
 11
6275.214783835285
 21
6903.162093582645
 31
0.0
  0
LINE
  5
E1DA
330
DBF1
100
AcDbEntity
  8
0
  6
Continuous
 62
     7
370
    25
100
AcDbLine
 10
6321.176724612411
 20
6884.792911066634
 30
0.0
 11
6321.176724612411
 21
6887.242135402102
 31
0.0
  0
LINE
  5
E1DB
330
DBF1
100
AcDbEntity
  8
0
  6
Continuous
 62
     7
370
    25
100
AcDbLine
 10
6321.176724612411
 20
6884.792911066634
 30
0.0
 11
6316.226977144104
 21
6881.935482675254
 31
0.0
  0
LINE
  5
E1DC
330
DBF1
100
AcDbEntity
  8
0
  6
Continuous
 62
     7
370
    25
100
AcDbLine
 10
6311.984336456985
 20
6881.935482675254
 30
0.0
 11
6316.226977144104
 21
6881.935482675254
 31
0.0
  0
LINE
  5
E1DD
330
DBF1
100
AcDbEntity
  8
0
  6
Continuous
 62
     7
370
    25
100
AcDbLine
 10
6284.40717199071
 20
6908.468746309492
 30
0.0
 11
6321.176724612411
 21
6887.242135402102
 31
0.0
  0
LINE
  5
E1DE
330
DBF1
100
AcDbEntity
  8
0
  6
Continuous
 62
     7
370
    25
100
AcDbLine
 10
6316.226977144104
 20
6881.935482675254
 30
0.0
 11
6316.226977144104
 21
6879.89413064554
 31
0.0
  0
LINE
  5
E1DF
330
DBF1
100
AcDbEntity
  8
0
  6
Continuous
 62
     7
370
    25
100
AcDbLine
 10
6316.226977144104
 20
6879.89413064554
 30
0.0
 11
6311.984336456985
 21
6879.89413064554
 31
0.0
  0
LINE
  5
E1E0
330
DBF1
100
AcDbEntity
  8
0
  6
Continuous
 62
     7
370
    25
100
AcDbLine
 10
6273.447016882319
 20
6906.223955752138
 30
0.0
 11
6282.639405037744
 21
6911.530608478985
 31
0.0
  0
LINE
  5
E1E1
330
DBF1
100
AcDbEntity
  8
0
  6
Continuous
 62
     7
370
    25
100
AcDbLine
 10
6275.568337225878
 20
6952.358312573588
 30
0.0
 11
6273.447016882319
 21
6948.684077970196
 31
0.0
  0
LINE
  5
E1E2
330
DBF1
100
AcDbEntity
  8
0
  6
Continuous
 62
     7
370
    25
100
AcDbLine
 10
6280.518084694184
 20
6955.215740964967
 30
0.0
 11
6275.568337225878
 21
6952.358312573588
 31
0.0
  0
LINE
  5
E1E3
330
DBF1
100
AcDbEntity
  8
0
  6
Continuous
 62
     7
370
    25
100
AcDbLine
 10
6282.639405037744
 20
6953.990730697044
 30
0.0
 11
6280.518084694184
 21
6955.215740964967
 31
0.0
  0
LINE
  5
E1E4
330
DBF1
100
AcDbEntity
  8
0
  6
Continuous
 62
     7
370
    25
100
AcDbLine
 10
6282.639405037744
 20
6953.990730697044
 30
0.0
 11
6282.639405037744
 21
6911.530608478985
 31
0.0
  0
LINE
  5
E1E5
330
DBF1
100
AcDbEntity
  8
0
  6
Continuous
 62
     7
370
    25
100
AcDbLine
 10
6273.800570272912
 20
6953.378822713366
 30
0.0
 11
6275.568337225878
 21
6952.358312573588
 31
0.0
  0
LINE
  5
E1E6
330
DBF1
100
AcDbEntity
  8
0
  6
Continuous
 62
     7
370
    25
100
AcDbLine
 10
6271.679249929352
 20
6949.704588109975
 30
0.0
 11
6273.800570272912
 21
6953.378822713366
 31
0.0
  0
LINE
  5
E1E7
330
DBF1
100
AcDbEntity
  8
0
  6
Continuous
 62
     7
370
    25
100
AcDbLine
 10
6321.176724612411
 20
6882.751559036919
 30
0.0
 11
6321.176724612411
 21
6884.792911066634
 31
0.0
  0
LINE
  5
E1E8
330
DBF1
100
AcDbEntity
  8
0
  6
Continuous
 62
     7
370
    25
100
AcDbLine
 10
6321.176724612411
 20
6882.751559036919
 30
0.0
 11
6316.226977144104
 21
6879.89413064554
 31
0.0
  0
LINE
  5
E1E9
330
DBF1
100
AcDbEntity
  8
0
  6
Continuous
 62
     7
370
    25
100
AcDbLine
 10
6280.518084694184
 20
6955.215740964967
 30
0.0
 11
6278.750317741218
 21
6956.236251104746
 31
0.0
  0
LINE
  5
E1EA
330
DBF1
100
AcDbEntity
  8
0
  6
Continuous
 62
     7
370
    25
100
AcDbLine
 10
6278.750317741218
 20
6956.236251104746
 30
0.0
 11
6273.800570272912
 21
6953.378822713366
 31
0.0
  0
ARC
  5
E1EB
330
DBF1
100
AcDbEntity
  8
0
  6
Continuous
 62
     7
370
    25
100
AcDbCircle
 10
6286.477445291162
 20
6911.705260609637
 30
0.0
 40
3.842012018929907
100
AcDbArc
 50
182.6054784856526
 51
237.3945216599822
  0
LWPOLYLINE
  5
E1EC
330
DBF1
100
AcDbEntity
  8
0
100
AcDbPolyline
 90
        4
 70
     1
 43
0.0
 10
6149.776737613125
 20
7207.153040835108
 10
6149.776737613126
 20
7059.230604043948
 10
6329.745592802927
 20
7059.230604043948
 10
6329.745592802927
 20
7207.153040835108
  0
TEXT
  5
E1ED
330
DBF1
100
AcDbEntity
  8
0
  6
Continuous
 62
     7
100
AcDbText
 10
6203.317444017435
 20
7190.159688154447
 30
0.0
 40
10.58333333333333
  1
P35EG40/6
 41
0.75
  7
SLDTEXTSTYLE0
100
AcDbText
  0
LWPOLYLINE
  5
E1EE
330
DBF1
100
AcDbEntity
  8
0
100
AcDbPolyline
 90
        4
 70
     1
 43
0.0
 10
6149.776737613126
 20
7059.230604043948
 10
6149.776737613126
 20
6853.652039192996
 10
6329.745592802927
 20
6853.652039192996
 10
6329.745592802927
 20
7059.230604043948
  0
TEXT
  5
E1EF
330
DBF1
100
AcDbEntity
  8
0
  6
Continuous
 62
     7
100
AcDbText
 10
6193.778467368621
 20
7042.237251363288
 30
0.0
 40
10.58333333333333
  1
P35EP22
 41
0.75
  7
SLDTEXTSTYLE0
100
AcDbText
  0
LWPOLYLINE
  5
E446
330
DBF1
100
AcDbEntity
  8
0
100
AcDbPolyline
 90
        4
 70
     1
 43
0.0
 10
6329.745592802927
 20
7207.153040835108
 10
6329.745592802928
 20
7059.230604043948
 10
6509.714447992728
 20
7059.230604043948
 10
6509.714447992728
 20
7207.153040835108
  0
TEXT
  5
E447
330
DBF1
100
AcDbEntity
  8
0
  6
Continuous
 62
     7
100
AcDbText
 10
6383.286299207237
 20
7190.159688154447
 30
0.0
 40
10.58333333333333
  1
P35EG41/6
 41
0.75
  7
SLDTEXTSTYLE0
100
AcDbText
  0
INSERT
  5
E4BC
330
DBF1
100
AcDbEntity
  8
0
100
AcDbBlockReference
  2
A$C17531
 10
6413.105368389192
 20
7117.470546076933
 30
0.0
  0
LINE
  5
E502
330
DBF1
100
AcDbEntity
  8
0
  6
Continuous
 62
     7
370
    25
100
AcDbLine
 10
6593.931853644828
 20
7136.970567217901
 30
0.0
 11
6593.312325258878
 21
7138.632551866907
 31
0.0
  0
LINE
  5
E503
330
DBF1
100
AcDbEntity
  8
0
  6
Continuous
 62
     7
370
    25
100
AcDbLine
 10
6594.492951629541
 20
7137.009855773219
 30
0.0
 11
6593.931853644828
 21
7136.970567217901
 31
0.0
  0
ARC
  5
E504
330
DBF1
100
AcDbEntity
  8
0
  6
Continuous
 62
     7
370
    25
100
AcDbCircle
 10
6594.534861522088
 20
7136.411321262179
 30
0.0
 40
0.6000000000001487
100
AcDbArc
 50
4.005361476409929
 51
94.00536147649657
  0
LINE
  5
E505
330
DBF1
100
AcDbEntity
  8
0
  6
Continuous
 62
     7
370
    25
100
AcDbLine
 10
6595.147365997311
 20
7136.253719651045
 30
0.0
 11
6595.133396033129
 21
7136.453231154725
 31
0.0
  0
ARC
  5
E506
330
DBF1
100
AcDbEntity
  8
0
  6
Continuous
 62
     7
370
    25
100
AcDbCircle
 10
6594.94785449363
 20
7136.239749686863
 30
0.0
 40
0.2000000000000125
100
AcDbArc
 50
274.0053614764905
 51
4.005361476490501
  0
LINE
  5
E507
330
DBF1
100
AcDbEntity
  8
0
  6
Continuous
 62
     7
370
    25
100
AcDbLine
 10
6594.296025210057
 20
7135.993618356896
 30
0.0
 11
6594.961824457812
 21
7136.040238183182
 31
0.0
  0
LINE
  5
E508
330
DBF1
100
AcDbEntity
  8
0
  6
Continuous
 62
     7
370
    25
100
AcDbLine
 10
6595.635892657394
 20
7132.357678414993
 30
0.0
 11
6594.296025210057
 21
7135.993618356896
 31
0.0
  0
ARC
  5
E509
330
DBF1
100
AcDbEntity
  8
0
  6
Continuous
 62
     7
370
    25
100
AcDbCircle
 10
6595.817484534295
 20
7132.441490050485
 30
0.0
 40
0.199999999999917
100
AcDbArc
 50
204.7751405689229
 51
270.0
  0
LINE
  5
E50A
330
DBF1
100
AcDbEntity
  8
0
  6
Continuous
 62
     7
370
    25
100
AcDbLine
 10
6596.918261536051
 20
7132.241490050485
 30
0.0
 11
6595.817484534295
 21
7132.241490050485
 31
0.0
  0
ARC
  5
E50B
330
DBF1
100
AcDbEntity
  8
0
  6
Continuous
 62
     7
370
    25
100
AcDbCircle
 10
6596.918261536051
 20
7132.441490050485
 30
0.0
 40
0.2000000000000313
100
AcDbArc
 50
270.0
 51
335.224859431077
  0
LINE
  5
E50C
330
DBF1
100
AcDbEntity
  8
0
  6
Continuous
 62
     7
370
    25
100
AcDbLine
 10
6598.439720860289
 20
7135.993618356896
 30
0.0
 11
6597.09985341295
 21
7132.357678414993
 31
0.0
  0
LINE
  5
E50D
330
DBF1
100
AcDbEntity
  8
0
  6
Continuous
 62
     7
370
    25
100
AcDbLine
 10
6597.773921612532
 20
7136.040238183182
 30
0.0
 11
6598.439720860289
 21
7135.993618356896
 31
0.0
  0
ARC
  5
E50E
330
DBF1
100
AcDbEntity
  8
0
  6
Continuous
 62
     7
370
    25
100
AcDbCircle
 10
6597.787891576714
 20
7136.239749686863
 30
0.0
 40
0.2000000000001309
100
AcDbArc
 50
175.9946385235095
 51
265.9946385235095
  0
LINE
  5
E50F
330
DBF1
100
AcDbEntity
  8
0
  6
Continuous
 62
     7
370
    25
100
AcDbLine
 10
6597.602350037216
 20
7136.453231154725
 30
0.0
 11
6597.588380073033
 21
7136.253719651045
 31
0.0
  0
ARC
  5
E510
330
DBF1
100
AcDbEntity
  8
0
  6
Continuous
 62
     7
370
    25
100
AcDbCircle
 10
6598.200884548257
 20
7136.411321262179
 30
0.0
 40
0.6000000000000172
100
AcDbArc
 50
85.99463852359008
 51
175.9946385235901
  0
LINE
  5
E511
330
DBF1
100
AcDbEntity
  8
0
  6
Continuous
 62
     7
370
    25
100
AcDbLine
 10
6598.803892425516
 20
7136.970567217901
 30
0.0
 11
6598.242794440803
 21
7137.009855773219
 31
0.0
  0
LINE
  5
E512
330
DBF1
100
AcDbEntity
  8
0
  6
Continuous
 62
     7
370
    25
100
AcDbLine
 10
6599.423420811467
 20
7138.632551866907
 30
0.0
 11
6598.803892425516
 21
7136.970567217901
 31
0.0
  0
ARC
  5
E513
330
DBF1
100
AcDbEntity
  8
0
  6
Continuous
 62
     7
370
    25
100
AcDbCircle
 10
6599.783334898828
 20
7138.458018633055
 30
0.0
 40
0.4000000000000919
100
AcDbArc
 50
85.99463852363037
 51
154.1298495010612
  0
LINE
  5
E514
330
DBF1
100
AcDbEntity
  8
0
  6
Continuous
 62
     7
370
    25
100
AcDbLine
 10
6600.238583998718
 20
7138.827121090919
 30
0.0
 11
6599.811274827191
 21
7138.857041640415
 31
0.0
  0
ARC
  5
E515
330
DBF1
100
AcDbEntity
  8
0
  6
Continuous
 62
     7
370
    25
100
AcDbCircle
 10
6600.210644070355
 20
7138.428098083558
 30
0.0
 40
0.3999999999999915
100
AcDbArc
 50
334.3680198667636
 51
85.99463852363037
  0
LINE
  5
E516
330
DBF1
100
AcDbEntity
  8
0
  6
Continuous
 62
     7
370
    25
100
AcDbLine
 10
6598.404689281372
 20
7132.321258583918
 30
0.0
 11
6600.571280555775
 21
7138.255062464731
 31
0.0
  0
ARC
  5
E517
330
DBF1
100
AcDbEntity
  8
0
  6
Continuous
 62
     7
370
    25
100
AcDbCircle
 10
6598.767873035173
 20
7132.153635312934
 30
0.0
 40
0.3999999999999572
100
AcDbArc
 50
155.22485943125
 51
180.0
  0
LINE
  5
E518
330
DBF1
100
AcDbEntity
  8
0
  6
Continuous
 62
     7
370
    25
100
AcDbLine
 10
6598.367873035172
 20
7131.441490050485
 30
0.0
 11
6598.367873035172
 21
7132.153635312934
 31
0.0
  0
ARC
  5
E519
330
DBF1
100
AcDbEntity
  8
0
  6
Continuous
 62
     7
370
    25
100
AcDbCircle
 10
6598.167873035172
 20
7131.441490050485
 30
0.0
 40
0.2000000000000739
100
AcDbArc
 50
270.0
 51
0.0
  0
LINE
  5
E51A
330
DBF1
100
AcDbEntity
  8
0
  6
Continuous
 62
     7
370
    25
100
AcDbLine
 10
6594.567873035172
 20
7131.241490050485
 30
0.0
 11
6598.167873035172
 21
7131.241490050485
 31
0.0
  0
ARC
  5
E51B
330
DBF1
100
AcDbEntity
  8
0
  6
Continuous
 62
     7
370
    25
100
AcDbCircle
 10
6594.567873035172
 20
7131.441490050485
 30
0.0
 40
0.1999999999999886
100
AcDbArc
 50
180.0
 51
270.0
  0
LINE
  5
E51C
330
DBF1
100
AcDbEntity
  8
0
  6
Continuous
 62
     7
370
    25
100
AcDbLine
 10
6594.367873035172
 20
7132.153635312934
 30
0.0
 11
6594.367873035172
 21
7131.441490050485
 31
0.0
  0
ARC
  5
E51D
330
DBF1
100
AcDbEntity
  8
0
  6
Continuous
 62
     7
370
    25
100
AcDbCircle
 10
6593.967873035172
 20
7132.153635312934
 30
0.0
 40
0.4000000000000098
100
AcDbArc
 50
0.0
 51
24.77514056875003
  0
LINE
  5
E51E
330
DBF1
100
AcDbEntity
  8
0
  6
Continuous
 62
     7
370
    25
100
AcDbLine
 10
6592.164465514569
 20
7138.255062464731
 30
0.0
 11
6594.331056788972
 21
7132.321258583918
 31
0.0
  0
ARC
  5
E51F
330
DBF1
100
AcDbEntity
  8
0
  6
Continuous
 62
     7
370
    25
100
AcDbCircle
 10
6592.52510199999
 20
7138.428098083558
 30
0.0
 40
0.4000000000000346
100
AcDbArc
 50
94.00536147636966
 51
205.6319801332364
  0
LINE
  5
E520
330
DBF1
100
AcDbEntity
  8
0
  6
Continuous
 62
     7
370
    25
100
AcDbLine
 10
6592.924471243153
 20
7138.857041640415
 30
0.0
 11
6592.497162071626
 21
7138.827121090919
 31
0.0
  0
ARC
  5
E521
330
DBF1
100
AcDbEntity
  8
0
  6
Continuous
 62
     7
370
    25
100
AcDbCircle
 10
6592.952411171517
 20
7138.458018633054
 30
0.0
 40
0.4000000000002021
100
AcDbArc
 50
25.87015049905606
 51
94.00536147649962
  0
LWPOLYLINE
  5
E522
330
DBF1
100
AcDbEntity
  8
0
100
AcDbPolyline
 90
        4
 70
     1
 43
0.0
 10
6509.714447992728
 20
7207.153040835108
 10
6509.714447992729
 20
7059.230604043948
 10
6689.68330318253
 20
7059.230604043948
 10
6689.68330318253
 20
7207.153040835108
  0
TEXT
  5
E523
330
DBF1
100
AcDbEntity
  8
0
  6
Continuous
 62
     7
100
AcDbText
 10
6563.255154397038
 20
7190.159688154447
 30
0.0
 40
10.58333333333333
  1
JDAUV40
 41
0.75
  7
SLDTEXTSTYLE0
100
AcDbText
  0
ARC
  5
E5BB
330
DBF1
100
AcDbEntity
  8
0
  6
Continuous
 62
     7
370
    25
100
AcDbCircle
 10
6401.04781538744
 20
6963.152382977146
 30
0.0
 40
3.000000000000629
100
AcDbArc
 50
94.87961523002402
 51
127.2129545098213
  0
ARC
  5
E5BC
330
DBF1
100
AcDbEntity
  8
0
  6
Continuous
 62
     7
370
    25
100
AcDbCircle
 10
6412.531244336617
 20
6828.641673888354
 30
0.0
 40
138.0000000000004
100
AcDbArc
 50
86.13510051840223
 51
94.87961523000428
  0
ARC
  5
E5BD
330
DBF1
100
AcDbEntity
  8
0
  6
Continuous
 62
     7
370
    25
100
AcDbCircle
 10
6421.630794729086
 20
6963.334651369199
 30
0.0
 40
2.999999999999909
100
AcDbArc
 50
60.00000000001342
 51
86.13510051842196
  0
LINE
  5
E5BE
330
DBF1
100
AcDbEntity
  8
0
  6
Continuous
 62
     7
370
    25
100
AcDbLine
 10
6426.031244336617
 20
6964.258152218873
 30
0.0
 11
6423.130794729085
 21
6965.932727580552
 31
0.0
  0
ARC
  5
E5BF
330
DBF1
100
AcDbEntity
  8
0
  6
Continuous
 62
     7
370
    25
100
AcDbCircle
 10
6424.531244336617
 20
6961.66007600752
 30
0.0
 40
3.000000000000369
100
AcDbArc
 50
0.0
 51
59.99999999998333
  0
LINE
  5
E5C0
330
DBF1
100
AcDbEntity
  8
0
  6
Continuous
 62
     7
370
    25
100
AcDbLine
 10
6427.531244336617
 20
6961.66007600752
 30
0.0
 11
6427.531244336617
 21
6958.641673888355
 31
0.0
  0
ARC
  5
E5C1
330
DBF1
100
AcDbEntity
  8
0
  6
Continuous
 62
     7
370
    25
100
AcDbCircle
 10
6425.531244336617
 20
6958.641673888355
 30
0.0
 40
2.000000000000448
100
AcDbArc
 50
270.0
 51
0.0
  0
LINE
  5
E5C2
330
DBF1
100
AcDbEntity
  8
0
  6
Continuous
 62
     7
370
    25
100
AcDbLine
 10
6425.531244336617
 20
6956.641673888355
 30
0.0
 11
6390.531244336617
 21
6956.641673888355
 31
0.0
  0
ARC
  5
E5C3
330
DBF1
100
AcDbEntity
  8
0
  6
Continuous
 62
     7
370
    25
100
AcDbCircle
 10
6390.531244336617
 20
6959.641673888355
 30
0.0
 40
3.000000000001222
100
AcDbArc
 50
180.0
 51
269.9999999999826
  0
LINE
  5
E5C4
330
DBF1
100
AcDbEntity
  8
0
  6
Continuous
 62
     7
370
    25
100
AcDbLine
 10
6387.531244336616
 20
6959.641673888355
 30
0.0
 11
6387.531244336616
 21
6994.641673888355
 31
0.0
  0
ARC
  5
E5C5
330
DBF1
100
AcDbEntity
  8
0
  6
Continuous
 62
     7
370
    25
100
AcDbCircle
 10
6389.531244336617
 20
6994.641673888355
 30
0.0
 40
2.000000000000888
100
AcDbArc
 50
90.0
 51
180.0
  0
LINE
  5
E5C6
330
DBF1
100
AcDbEntity
  8
0
  6
Continuous
 62
     7
370
    25
100
AcDbLine
 10
6389.531244336617
 20
6996.641673888355
 30
0.0
 11
6392.549646455782
 21
6996.641673888355
 31
0.0
  0
ARC
  5
E5C7
330
DBF1
100
AcDbEntity
  8
0
  6
Continuous
 62
     7
370
    25
100
AcDbCircle
 10
6392.54964645578
 20
6993.641673888355
 30
0.0
 40
2.999999999999927
100
AcDbArc
 50
30.00000000000163
 51
89.99999999996527
  0
LINE
  5
E5C8
330
DBF1
100
AcDbEntity
  8
0
  6
Continuous
 62
     7
370
    25
100
AcDbLine
 10
6396.822298028813
 20
6992.241224280826
 30
0.0
 11
6395.147722667133
 21
6995.141673888355
 31
0.0
  0
ARC
  5
E5C9
330
DBF1
100
AcDbEntity
  8
0
  6
Continuous
 62
     7
370
    25
100
AcDbCircle
 10
6394.224221817459
 20
6990.741224280825
 30
0.0
 40
3.000000000000028
100
AcDbArc
 50
3.864899481612698
 51
30.00000000000163
  0
ARC
  5
E5CA
330
DBF1
100
AcDbEntity
  8
0
  6
Continuous
 62
     7
370
    25
100
AcDbCircle
 10
6259.531244336617
 20
6981.641673888355
 30
0.0
 40
138.0
100
AcDbArc
 50
355.1203847699969
 51
3.864899481598549
  0
ARC
  5
E5CB
330
DBF1
100
AcDbEntity
  8
0
  6
Continuous
 62
     7
370
    25
100
AcDbCircle
 10
6394.041953425407
 20
6970.158244939179
 30
0.0
 40
2.999999999999994
100
AcDbArc
 50
322.7870454901681
 51
355.1203847699919
  0
ARC
  5
E5CC
330
DBF1
100
AcDbEntity
  8
0
  6
Continuous
 62
     7
370
    25
100
AcDbCircle
 10
6398.023919417916
 20
6967.134348969655
 30
0.0
 40
2.000000000000603
100
AcDbArc
 50
142.7870454902273
 51
307.2129545097934
  0
LINE
  5
E5CD
330
DBF1
100
AcDbEntity
  8
0
  6
Continuous
 62
     7
370
    25
100
AcDbLine
 10
6450.482589505339
 20
6994.641673888355
 30
0.0
 11
6452.982589505339
 21
6994.641673888355
 31
0.0
  0
LINE
  5
E5CE
330
DBF1
100
AcDbEntity
  8
0
  6
Continuous
 62
     7
370
    25
100
AcDbLine
 10
6450.482589505339
 20
6994.641673888355
 30
0.0
 11
6450.482589505339
 21
6996.641673888355
 31
0.0
  0
LINE
  5
E5CF
330
DBF1
100
AcDbEntity
  8
0
  6
Continuous
 62
     7
370
    25
100
AcDbLine
 10
6450.482589505339
 20
6996.641673888355
 30
0.0
 11
6452.982589505339
 21
6996.641673888355
 31
0.0
  0
LINE
  5
E5D0
330
DBF1
100
AcDbEntity
  8
0
  6
Continuous
 62
     7
370
    25
100
AcDbLine
 10
6452.982589505339
 20
6994.641673888355
 30
0.0
 11
6452.982589505339
 21
6996.641673888355
 31
0.0
  0
LINE
  5
E5D1
330
DBF1
100
AcDbEntity
  8
0
  6
Continuous
 62
     7
370
    25
100
AcDbLine
 10
6450.482589505339
 20
6959.641673888355
 30
0.0
 11
6452.982589505339
 21
6959.641673888355
 31
0.0
  0
LINE
  5
E5D2
330
DBF1
100
AcDbEntity
  8
0
  6
Continuous
 62
     7
370
    25
100
AcDbLine
 10
6450.482589505339
 20
6959.641673888355
 30
0.0
 11
6450.482589505339
 21
6994.641673888355
 31
0.0
  0
LINE
  5
E5D3
330
DBF1
100
AcDbEntity
  8
0
  6
Continuous
 62
     7
370
    25
100
AcDbLine
 10
6452.982589505339
 20
6959.641673888355
 30
0.0
 11
6452.982589505339
 21
6994.641673888355
 31
0.0
  0
LINE
  5
E5D4
330
DBF1
100
AcDbEntity
  8
0
  6
Continuous
 62
     7
370
    25
100
AcDbLine
 10
6450.482589505339
 20
6956.641673888355
 30
0.0
 11
6452.982589505339
 21
6956.641673888355
 31
0.0
  0
LINE
  5
E5D5
330
DBF1
100
AcDbEntity
  8
0
  6
Continuous
 62
     7
370
    25
100
AcDbLine
 10
6450.482589505339
 20
6956.641673888355
 30
0.0
 11
6450.482589505339
 21
6959.641673888355
 31
0.0
  0
LINE
  5
E5D6
330
DBF1
100
AcDbEntity
  8
0
  6
Continuous
 62
     7
370
    25
100
AcDbLine
 10
6452.982589505339
 20
6956.641673888355
 30
0.0
 11
6452.982589505339
 21
6959.641673888355
 31
0.0
  0
LINE
  5
E5D7
330
DBF1
100
AcDbEntity
  8
0
  6
Continuous
 62
     7
370
    25
100
AcDbLine
 10
6469.218218680419
 20
6899.702363405076
 30
0.0
 11
6470.985985633386
 21
6900.722873544854
 31
0.0
  0
LINE
  5
E5D8
330
DBF1
100
AcDbEntity
  8
0
  6
Continuous
 62
     7
370
    25
100
AcDbLine
 10
6443.530304045397
 20
6948.277884235074
 30
0.0
 11
6441.762537092432
 21
6947.257374095295
 31
0.0
  0
ARC
  5
E5D9
330
DBF1
100
AcDbEntity
  8
0
  6
Continuous
 62
     7
370
    25
100
AcDbCircle
 10
6449.98351349222
 20
6916.295642575078
 30
0.0
 40
1.550223575542655
100
AcDbArc
 50
61.40573594922908
 51
103.4486952473625
  0
ARC
  5
E5DA
330
DBF1
100
AcDbEntity
  8
0
  6
Continuous
 62
     7
370
    25
100
AcDbCircle
 10
6394.94020874802
 20
6801.94422256452
 30
0.0
 40
128.4577416732442
100
AcDbArc
 50
56.62696019147234
 51
64.26119539285527
  0
ARC
  5
E5DB
330
DBF1
100
AcDbEntity
  8
0
  6
Continuous
 62
     7
370
    25
100
AcDbCircle
 10
6463.338350003764
 20
6905.861576941807
 30
0.0
 40
4.050904666372824
100
AcDbArc
 50
38.21956479798365
 51
56.00573092452036
  0
LINE
  5
E5DC
330
DBF1
100
AcDbEntity
  8
0
  6
Continuous
 62
     7
370
    25
100
AcDbLine
 10
6468.571853338377
 20
6905.816442877821
 30
0.0
 11
6466.520925752401
 21
6908.36777729697
 31
0.0
  0
ARC
  5
E5DD
330
DBF1
100
AcDbEntity
  8
0
  6
Continuous
 62
     7
370
    25
100
AcDbCircle
 10
6465.025428227331
 20
6902.867838119228
 30
0.0
 40
4.612092918692995
100
AcDbArc
 50
2.670203001073457
 51
39.7411567391858
  0
LINE
  5
E5DE
330
DBF1
100
AcDbEntity
  8
0
  6
Continuous
 62
     7
370
    25
100
AcDbLine
 10
6469.632513510156
 20
6903.082701534995
 30
0.0
 11
6469.632513510156
 21
6900.618053018015
 31
0.0
  0
ARC
  5
E5DF
330
DBF1
100
AcDbEntity
  8
0
  6
Continuous
 62
     7
370
    25
100
AcDbCircle
 10
6468.766403729896
 20
6900.485057869741
 30
0.0
 40
0.8762612971745224
100
AcDbArc
 50
231.2809082946072
 51
8.729843460155742
  0
LINE
  5
E5E0
330
DBF1
100
AcDbEntity
  8
0
  6
Continuous
 62
     7
370
    25
100
AcDbLine
 10
6468.218299947784
 20
6899.801379506066
 30
0.0
 11
6443.469562606254
 21
6914.088521462963
 31
0.0
  0
ARC
  5
E5E1
330
DBF1
100
AcDbEntity
  8
0
  6
Continuous
 62
     7
370
    25
100
AcDbCircle
 10
6445.941004960368
 20
6917.964899114774
 30
0.0
 40
4.597209045623838
100
AcDbArc
 50
182.5201549070562
 51
237.4798452385721
  0
LINE
  5
E5E2
330
DBF1
100
AcDbEntity
  8
0
  6
Continuous
 62
     7
370
    25
100
AcDbLine
 10
6441.348242262694
 20
6917.762756066355
 30
0.0
 11
6441.348242262694
 21
6946.341684482356
 31
0.0
  0
ARC
  5
E5E3
330
DBF1
100
AcDbEntity
  8
0
  6
Continuous
 62
     7
370
    25
100
AcDbCircle
 10
6442.214352042954
 20
6946.47467963063
 30
0.0
 40
0.8762612971741615
100
AcDbArc
 50
51.2809082945236
 51
188.7298434602145
  0
LINE
  5
E5E4
330
DBF1
100
AcDbEntity
  8
0
  6
Continuous
 62
     7
370
    25
100
AcDbLine
 10
6442.762455825067
 20
6947.158357994304
 30
0.0
 11
6444.896788431877
 21
6945.92623400689
 31
0.0
  0
ARC
  5
E5E5
330
DBF1
100
AcDbEntity
  8
0
  6
Continuous
 62
     7
370
    25
100
AcDbCircle
 10
6442.433034854712
 20
6942.064634489079
 30
0.0
 40
4.580614863198023
100
AcDbArc
 50
20.12757854179807
 51
57.4615646547088
  0
LINE
  5
E5E6
330
DBF1
100
AcDbEntity
  8
0
  6
Continuous
 62
     7
370
    25
100
AcDbLine
 10
6447.918009332814
 20
6940.588973610088
 30
0.0
 11
6446.733905738964
 21
6943.64087754202
 31
0.0
  0
ARC
  5
E5E7
330
DBF1
100
AcDbEntity
  8
0
  6
Continuous
 62
     7
370
    25
100
AcDbCircle
 10
6444.15569529844
 20
6939.085646040329
 30
0.0
 40
4.051542999308913
100
AcDbArc
 50
3.996139541933609
 51
21.78042675957848
  0
ARC
  5
E5E8
330
DBF1
100
AcDbEntity
  8
0
  6
Continuous
 62
     7
370
    25
100
AcDbCircle
 10
6320.29700168082
 20
6931.800516627379
 30
0.0
 40
128.1240630968757
100
AcDbArc
 50
355.7312948667484
 51
3.386070166914562
  0
ARC
  5
E5E9
330
DBF1
100
AcDbEntity
  8
0
  6
Continuous
 62
     7
370
    25
100
AcDbCircle
 10
6446.51548323016
 20
6922.301679735802
 30
0.0
 40
1.550622085074632
100
AcDbArc
 50
316.5617204533948
 51
358.5973553522577
  0
LWPOLYLINE
  5
E5EA
330
DBF1
100
AcDbEntity
  8
0
  6
Continuous
 62
     7
370
    25
100
AcDbPolyline
 90
       21
 70
   128
 43
0.0
 10
6447.641413903165
 20
6921.235514190351
 10
6447.530685115763
 20
6921.10330851299
 10
6447.445381229565
 20
6920.940156571248
 10
6447.387255554914
 20
6920.749411740918
 10
6447.357502789395
 20
6920.534994533702
 10
6447.356734462373
 20
6920.301312016198
 10
6447.384966365812
 20
6920.053167228377
 10
6447.441618229683
 20
6919.795660463353
 10
6447.525525648666
 20
6919.534084437494
 10
6447.634964014984
 20
6919.273815505529
 10
6447.767683965468
 20
6919.020203156573
 10
6447.920957614292
 20
6918.778460062343
 10
6448.091634621114
 20
6918.553554937471
 10
6448.276206942224
 20
6918.350110414051
 10
6448.470880933811
 20
6918.172308029444
 10
6448.671655325376
 20
6918.02380228023
 10
6448.874403460642
 20
6917.907645508778
 10
6449.074958115597
 20
6917.82622516633
 10
6449.269197150363
 20
6917.781214742044
 10
6449.453128234412
 20
6917.7735393666
 10
6449.622970903729
 20
6917.803356797353
  0
LINE
  5
E5EB
330
DBF1
100
AcDbEntity
  8
0
  6
Continuous
 62
     7
370
    25
100
AcDbLine
 10
6468.571853338377
 20
6905.816442877821
 30
0.0
 11
6470.339620291343
 21
6906.8369530176
 31
0.0
  0
LINE
  5
E5EC
330
DBF1
100
AcDbEntity
  8
0
  6
Continuous
 62
     7
370
    25
100
AcDbLine
 10
6468.288692705368
 20
6909.388287436749
 30
0.0
 11
6466.520925752401
 21
6908.36777729697
 31
0.0
  0
LINE
  5
E5ED
330
DBF1
100
AcDbEntity
  8
0
  6
Continuous
 62
     7
370
    25
100
AcDbLine
 10
6470.339620291343
 20
6906.8369530176
 30
0.0
 11
6468.288692705368
 21
6909.388287436749
 31
0.0
  0
LINE
  5
E5EE
330
DBF1
100
AcDbEntity
  8
0
  6
Continuous
 62
     7
370
    25
100
AcDbLine
 10
6448.50167269193
 20
6944.661387681799
 30
0.0
 11
6446.733905738964
 21
6943.64087754202
 31
0.0
  0
LINE
  5
E5EF
330
DBF1
100
AcDbEntity
  8
0
  6
Continuous
 62
     7
370
    25
100
AcDbLine
 10
6447.918009332814
 20
6940.588973610088
 30
0.0
 11
6449.685776285781
 21
6941.609483749867
 31
0.0
  0
LINE
  5
E5F0
330
DBF1
100
AcDbEntity
  8
0
  6
Continuous
 62
     7
370
    25
100
AcDbLine
 10
6449.685776285781
 20
6941.609483749867
 30
0.0
 11
6448.50167269193
 21
6944.661387681799
 31
0.0
  0
LINE
  5
E5F1
330
DBF1
100
AcDbEntity
  8
0
  6
Continuous
 62
     7
370
    25
100
AcDbLine
 10
6471.400280463123
 20
6904.103211674774
 30
0.0
 11
6469.632513510156
 21
6903.082701534995
 31
0.0
  0
ARC
  5
E5F2
330
DBF1
100
AcDbEntity
  8
0
  6
Continuous
 62
     7
370
    25
100
AcDbCircle
 10
6466.823773759482
 20
6903.900212395727
 30
0.0
 40
4.581006692394085
100
AcDbArc
 50
2.539793684092128
 51
39.871566056174
  0
LINE
  5
E5F3
330
DBF1
100
AcDbEntity
  8
0
  6
Continuous
 62
     7
370
    25
100
AcDbLine
 10
6444.896788431877
 20
6945.92623400689
 30
0.0
 11
6446.664555384843
 21
6946.946744146669
 31
0.0
  0
ARC
  5
E5F4
330
DBF1
100
AcDbEntity
  8
0
  6
Continuous
 62
     7
370
    25
100
AcDbCircle
 10
6444.175224292836
 20
6943.064583768479
 30
0.0
 40
4.611717520363031
100
AcDbArc
 50
20.25807568569057
 51
57.33106751083665
  0
LINE
  5
E5F5
330
DBF1
100
AcDbEntity
  8
0
  6
Continuous
 62
     7
370
    25
100
AcDbLine
 10
6465.60325122036
 20
6909.22015567322
 30
0.0
 11
6467.371018173328
 21
6910.240665812998
 31
0.0
  0
ARC
  5
E5F6
330
DBF1
100
AcDbEntity
  8
0
  6
Continuous
 62
     7
370
    25
100
AcDbCircle
 10
6465.106116956734
 20
6906.882087081587
 30
0.0
 40
4.050904666368857
100
AcDbArc
 50
38.21956479798516
 51
56.00573092452012
  0
LINE
  5
E5F7
330
DBF1
100
AcDbEntity
  8
0
  6
Continuous
 62
     7
370
    25
100
AcDbLine
 10
6449.965154928802
 20
6940.38850521363
 30
0.0
 11
6448.197387975836
 21
6939.367995073852
 31
0.0
  0
ARC
  5
E5F8
330
DBF1
100
AcDbEntity
  8
0
  6
Continuous
 62
     7
370
    25
100
AcDbCircle
 10
6445.923462251432
 20
6940.106156180114
 30
0.0
 40
4.051542999282444
100
AcDbArc
 50
3.996139541856062
 51
21.78042675963327
  0
LINE
  5
E5F9
330
DBF1
100
AcDbEntity
  8
0
  6
Continuous
 62
     7
370
    25
100
AcDbLine
 10
6471.400280463123
 20
6901.638563157793
 30
0.0
 11
6469.632513510156
 21
6900.618053018015
 31
0.0
  0
LINE
  5
E5FA
330
DBF1
100
AcDbEntity
  8
0
  6
Continuous
 62
     7
370
    25
100
AcDbLine
 10
6471.400280463123
 20
6904.103211674774
 30
0.0
 11
6471.400280463123
 21
6901.638563157793
 31
0.0
  0
LINE
  5
E5FB
330
DBF1
100
AcDbEntity
  8
0
  6
Continuous
 62
     7
370
    25
100
AcDbLine
 10
6444.530222778035
 20
6948.178868134083
 30
0.0
 11
6442.762455825067
 21
6947.158357994304
 31
0.0
  0
LINE
  5
E5FC
330
DBF1
100
AcDbEntity
  8
0
  6
Continuous
 62
     7
370
    25
100
AcDbLine
 10
6444.530222778035
 20
6948.178868134083
 30
0.0
 11
6446.664555384843
 21
6946.946744146669
 31
0.0
  0
LINE
  5
E5FD
330
DBF1
100
AcDbEntity
  8
0
  6
Continuous
 62
     7
370
    25
100
AcDbLine
 10
6452.493223586726
 20
6918.677296905929
 30
0.0
 11
6450.725456633761
 21
6917.656786766151
 31
0.0
  0
ARC
  5
E5FE
330
DBF1
100
AcDbEntity
  8
0
  6
Continuous
 62
     7
370
    25
100
AcDbCircle
 10
6396.707975700983
 20
6802.964732704291
 30
0.0
 40
128.457741673252
100
AcDbArc
 50
56.6269601914722
 51
64.26119539285558
  0
LINE
  5
E5FF
330
DBF1
100
AcDbEntity
  8
0
  6
Continuous
 62
     7
370
    25
100
AcDbLine
 10
6448.065640688353
 20
6922.263723108857
 30
0.0
 11
6449.833407641318
 21
6923.284233248636
 31
0.0
  0
ARC
  5
E600
330
DBF1
100
AcDbEntity
  8
0
  6
Continuous
 62
     7
370
    25
100
AcDbCircle
 10
6322.064768633877
 20
6932.821026767158
 30
0.0
 40
128.124063096785
100
AcDbArc
 50
355.731294866745
 51
3.386070166916128
  0
ARC
  5
E601
330
DBF1
100
AcDbEntity
  8
0
  6
Continuous
 62
     7
370
    25
100
AcDbCircle
 10
6470.408726329664
 20
6901.53561551662
 30
0.0
 40
0.9968840536402901
100
AcDbArc
 50
305.384710626787
 51
5.927469766571577
  0
ARC
  5
E602
330
DBF1
100
AcDbEntity
  8
0
  6
Continuous
 62
     7
370
    25
100
AcDbCircle
 10
6443.945434085099
 20
6947.371723257295
 30
0.0
 40
0.996724970846503
100
AcDbArc
 50
54.07610109466436
 51
114.6134404761902
  0
LINE
  5
E603
330
DBF1
100
AcDbEntity
  8
0
  6
Continuous
 62
     7
370
    25
100
AcDbLine
 10
6449.622970903729
 20
6917.803356797353
 30
0.0
 11
6451.390737856696
 21
6918.823866937132
 31
0.0
  0
LINE
  5
E604
330
DBF1
100
AcDbEntity
  8
0
  6
Continuous
 62
     7
370
    25
100
AcDbLine
 10
6449.409180856132
 20
6922.25602433013
 30
0.0
 11
6447.641413903165
 21
6921.235514190351
 31
0.0
  0
LWPOLYLINE
  5
E605
330
DBF1
100
AcDbEntity
  8
0
  6
Continuous
 62
     7
370
    25
100
AcDbPolyline
 90
       21
 70
   128
 43
0.0
 10
6451.390737856696
 20
6918.823866937132
 10
6451.220895187378
 20
6918.794049506379
 10
6451.036964103329
 20
6918.801724881822
 10
6450.842725068563
 20
6918.84673530611
 10
6450.642170413608
 20
6918.928155648558
 10
6450.439422278342
 20
6919.044312420009
 10
6450.238647886777
 20
6919.192818169224
 10
6450.04397389519
 20
6919.370620553829
 10
6449.859401574081
 20
6919.57406507725
 10
6449.688724567258
 20
6919.798970202121
 10
6449.535450918434
 20
6920.040713296353
 10
6449.40273096795
 20
6920.294325645308
 10
6449.293292601633
 20
6920.554594577273
 10
6449.209385182648
 20
6920.816170603131
 10
6449.152733318778
 20
6921.073677368156
 10
6449.12450141534
 20
6921.321822155977
 10
6449.125269742362
 20
6921.555504673481
 10
6449.155022507881
 20
6921.769921880697
 10
6449.213148182531
 20
6921.960666711027
 10
6449.298452068729
 20
6922.123818652769
 10
6449.409180856132
 20
6922.25602433013
  0
ARC
  5
E606
330
DBF1
100
AcDbEntity
  8
0
  6
Continuous
 62
     7
370
    25
100
AcDbCircle
 10
6451.751280445189
 20
6917.316152714869
 30
0.0
 40
1.550223575531425
100
AcDbArc
 50
61.40573594910848
 51
103.4486952475296
  0
ARC
  5
E607
330
DBF1
100
AcDbEntity
  8
0
  6
Continuous
 62
     7
370
    25
100
AcDbCircle
 10
6448.283250183119
 20
6923.322189875583
 30
0.0
 40
1.550622085081238
100
AcDbArc
 50
316.5617204535309
 51
358.5973553521962
  0
LINE
  5
E608
330
DBF1
100
AcDbEntity
  8
0
  6
Continuous
 62
     7
370
    25
100
AcDbLine
 10
6397.531244336616
 20
6938.752556306497
 30
0.0
 11
6397.531244336616
 21
6941.252556306497
 31
0.0
  0
LINE
  5
E609
330
DBF1
100
AcDbEntity
  8
0
  6
Continuous
 62
     7
370
    25
100
AcDbLine
 10
6392.549646455782
 20
6938.752556306497
 30
0.0
 11
6392.549646455781
 21
6941.252556306497
 31
0.0
  0
LINE
  5
E60A
330
DBF1
100
AcDbEntity
  8
0
  6
Continuous
 62
     7
370
    25
100
AcDbLine
 10
6392.549646455781
 20
6941.252556306497
 30
0.0
 11
6395.147722667134
 21
6941.252556306497
 31
0.0
  0
LINE
  5
E60B
330
DBF1
100
AcDbEntity
  8
0
  6
Continuous
 62
     7
370
    25
100
AcDbLine
 10
6395.147722667134
 20
6941.252556306497
 30
0.0
 11
6395.147722667133
 21
6938.752556306497
 31
0.0
  0
LINE
  5
E60C
330
DBF1
100
AcDbEntity
  8
0
  6
Continuous
 62
     7
370
    25
100
AcDbLine
 10
6395.147722667133
 20
6938.752556306497
 30
0.0
 11
6392.549646455782
 21
6938.752556306497
 31
0.0
  0
LINE
  5
E60D
330
DBF1
100
AcDbEntity
  8
0
  6
Continuous
 62
     7
370
    25
100
AcDbLine
 10
6389.531244336617
 20
6941.252556306497
 30
0.0
 11
6389.531244336617
 21
6938.752556306497
 31
0.0
  0
LINE
  5
E60E
330
DBF1
100
AcDbEntity
  8
0
  6
Continuous
 62
     7
370
    25
100
AcDbLine
 10
6389.531244336617
 20
6941.252556306497
 30
0.0
 11
6392.549646455781
 21
6941.252556306497
 31
0.0
  0
LINE
  5
E60F
330
DBF1
100
AcDbEntity
  8
0
  6
Continuous
 62
     7
370
    25
100
AcDbLine
 10
6389.531244336617
 20
6938.752556306497
 30
0.0
 11
6392.549646455782
 21
6938.752556306497
 31
0.0
  0
LINE
  5
E610
330
DBF1
100
AcDbEntity
  8
0
  6
Continuous
 62
     7
370
    25
100
AcDbLine
 10
6387.531244336616
 20
6941.252556306497
 30
0.0
 11
6387.531244336616
 21
6938.752556306497
 31
0.0
  0
LINE
  5
E611
330
DBF1
100
AcDbEntity
  8
0
  6
Continuous
 62
     7
370
    25
100
AcDbLine
 10
6387.531244336616
 20
6938.752556306497
 30
0.0
 11
6389.531244336617
 21
6938.752556306497
 31
0.0
  0
LINE
  5
E612
330
DBF1
100
AcDbEntity
  8
0
  6
Continuous
 62
     7
370
    25
100
AcDbLine
 10
6387.531244336616
 20
6941.252556306497
 30
0.0
 11
6389.531244336617
 21
6941.252556306497
 31
0.0
  0
LINE
  5
E613
330
DBF1
100
AcDbEntity
  8
0
  6
Continuous
 62
     7
370
    25
100
AcDbLine
 10
6396.822298028813
 20
6938.752556306497
 30
0.0
 11
6396.822298028812
 21
6941.252556306497
 31
0.0
  0
LINE
  5
E614
330
DBF1
100
AcDbEntity
  8
0
  6
Continuous
 62
     7
370
    25
100
AcDbLine
 10
6396.822298028813
 20
6938.752556306497
 30
0.0
 11
6395.147722667133
 21
6938.752556306497
 31
0.0
  0
LINE
  5
E615
330
DBF1
100
AcDbEntity
  8
0
  6
Continuous
 62
     7
370
    25
100
AcDbLine
 10
6396.822298028812
 20
6941.252556306497
 30
0.0
 11
6395.147722667134
 21
6941.252556306497
 31
0.0
  0
LINE
  5
E616
330
DBF1
100
AcDbEntity
  8
0
  6
Continuous
 62
     7
370
    25
100
AcDbLine
 10
6397.21739909481
 20
6941.252556306497
 30
0.0
 11
6397.21739909481
 21
6938.752556306497
 31
0.0
  0
LINE
  5
E617
330
DBF1
100
AcDbEntity
  8
0
  6
Continuous
 62
     7
370
    25
100
AcDbLine
 10
6397.21739909481
 20
6938.752556306497
 30
0.0
 11
6396.822298028813
 21
6938.752556306497
 31
0.0
  0
LINE
  5
E618
330
DBF1
100
AcDbEntity
  8
0
  6
Continuous
 62
     7
370
    25
100
AcDbLine
 10
6396.822298028812
 20
6941.252556306497
 30
0.0
 11
6397.21739909481
 21
6941.252556306497
 31
0.0
  0
LINE
  5
E619
330
DBF1
100
AcDbEntity
  8
0
  6
Continuous
 62
     7
370
    25
100
AcDbLine
 10
6397.21739909481
 20
6938.752556306497
 30
0.0
 11
6397.531244336617
 21
6938.752556306497
 31
0.0
  0
LINE
  5
E61A
330
DBF1
100
AcDbEntity
  8
0
  6
Continuous
 62
     7
370
    25
100
AcDbLine
 10
6397.21739909481
 20
6941.252556306497
 30
0.0
 11
6397.531244336616
 21
6941.252556306497
 31
0.0
  0
LINE
  5
E61B
330
DBF1
100
AcDbEntity
  8
0
  6
Continuous
 62
     7
370
    25
100
AcDbLine
 10
6399.233477805725
 20
6938.752556306497
 30
0.0
 11
6399.233477805725
 21
6941.252556306497
 31
0.0
  0
LINE
  5
E61C
330
DBF1
100
AcDbEntity
  8
0
  6
Continuous
 62
     7
370
    25
100
AcDbLine
 10
6397.531244336616
 20
6938.752556306497
 30
0.0
 11
6399.233477805725
 21
6938.752556306497
 31
0.0
  0
LINE
  5
E61D
330
DBF1
100
AcDbEntity
  8
0
  6
Continuous
 62
     7
370
    25
100
AcDbLine
 10
6399.233477805725
 20
6941.252556306497
 30
0.0
 11
6397.531244336616
 21
6941.252556306497
 31
0.0
  0
LINE
  5
E61E
330
DBF1
100
AcDbEntity
  8
0
  6
Continuous
 62
     7
370
    25
100
AcDbLine
 10
6421.833006960029
 20
6938.752556306497
 30
0.0
 11
6421.83300696003
 21
6941.252556306497
 31
0.0
  0
LINE
  5
E61F
330
DBF1
100
AcDbEntity
  8
0
  6
Continuous
 62
     7
370
    25
100
AcDbLine
 10
6400.792628077456
 20
6941.252556306497
 30
0.0
 11
6400.792628077457
 21
6938.752556306497
 31
0.0
  0
LINE
  5
E620
330
DBF1
100
AcDbEntity
  8
0
  6
Continuous
 62
     7
370
    25
100
AcDbLine
 10
6400.792628077457
 20
6938.752556306497
 30
0.0
 11
6421.833006960029
 21
6938.752556306497
 31
0.0
  0
LINE
  5
E621
330
DBF1
100
AcDbEntity
  8
0
  6
Continuous
 62
     7
370
    25
100
AcDbLine
 10
6400.792628077456
 20
6941.252556306497
 30
0.0
 11
6421.83300696003
 21
6941.252556306497
 31
0.0
  0
LINE
  5
E622
330
DBF1
100
AcDbEntity
  8
0
  6
Continuous
 62
     7
370
    25
100
AcDbLine
 10
6423.130794729086
 20
6941.252556306497
 30
0.0
 11
6423.130794729085
 21
6938.752556306497
 31
0.0
  0
LINE
  5
E623
330
DBF1
100
AcDbEntity
  8
0
  6
Continuous
 62
     7
370
    25
100
AcDbLine
 10
6423.130794729085
 20
6938.752556306497
 30
0.0
 11
6421.833006960029
 21
6938.752556306497
 31
0.0
  0
LINE
  5
E624
330
DBF1
100
AcDbEntity
  8
0
  6
Continuous
 62
     7
370
    25
100
AcDbLine
 10
6421.83300696003
 20
6941.252556306497
 30
0.0
 11
6423.130794729086
 21
6941.252556306497
 31
0.0
  0
LINE
  5
E625
330
DBF1
100
AcDbEntity
  8
0
  6
Continuous
 62
     7
370
    25
100
AcDbLine
 10
6400.792628077457
 20
6938.752556306497
 30
0.0
 11
6399.233477805725
 21
6938.752556306497
 31
0.0
  0
LINE
  5
E626
330
DBF1
100
AcDbEntity
  8
0
  6
Continuous
 62
     7
370
    25
100
AcDbLine
 10
6399.233477805725
 20
6941.252556306497
 30
0.0
 11
6400.792628077456
 21
6941.252556306497
 31
0.0
  0
LINE
  5
E627
330
DBF1
100
AcDbEntity
  8
0
  6
Continuous
 62
     7
370
    25
100
AcDbLine
 10
6426.031244336617
 20
6938.752556306497
 30
0.0
 11
6426.031244336617
 21
6941.252556306497
 31
0.0
  0
LINE
  5
E628
330
DBF1
100
AcDbEntity
  8
0
  6
Continuous
 62
     7
370
    25
100
AcDbLine
 10
6426.031244336617
 20
6938.752556306497
 30
0.0
 11
6423.130794729085
 21
6938.752556306497
 31
0.0
  0
LINE
  5
E629
330
DBF1
100
AcDbEntity
  8
0
  6
Continuous
 62
     7
370
    25
100
AcDbLine
 10
6426.031244336617
 20
6941.252556306497
 30
0.0
 11
6423.130794729086
 21
6941.252556306497
 31
0.0
  0
LINE
  5
E62A
330
DBF1
100
AcDbEntity
  8
0
  6
Continuous
 62
     7
370
    25
100
AcDbLine
 10
6427.531244336617
 20
6941.252556306497
 30
0.0
 11
6427.531244336617
 21
6938.752556306497
 31
0.0
  0
LINE
  5
E62B
330
DBF1
100
AcDbEntity
  8
0
  6
Continuous
 62
     7
370
    25
100
AcDbLine
 10
6427.531244336617
 20
6938.752556306497
 30
0.0
 11
6426.031244336617
 21
6938.752556306497
 31
0.0
  0
LINE
  5
E62C
330
DBF1
100
AcDbEntity
  8
0
  6
Continuous
 62
     7
370
    25
100
AcDbLine
 10
6426.031244336617
 20
6941.252556306497
 30
0.0
 11
6427.531244336617
 21
6941.252556306497
 31
0.0
  0
LINE
  5
E62D
330
DBF1
100
AcDbEntity
  8
0
100
AcDbLine
 10
6509.714447992728
 20
7059.230604043948
 30
0.0
 11
6509.714447992729
 21
6853.652039192996
 31
0.0
  0
LINE
  5
E62E
330
DBF1
100
AcDbEntity
  8
0
100
AcDbLine
 10
6329.745592802927
 20
6853.652039192996
 30
0.0
 11
6509.714447992729
 21
6853.652039192996
 31
0.0
  0
TEXT
  5
E62F
330
DBF1
100
AcDbEntity
  8
0
  6
Continuous
 62
     7
100
AcDbText
 10
6393.936319966616
 20
7042.237251363288
 30
0.0
 40
10.58333333333333
  1
PDAUG07
 41
0.75
  7
SLDTEXTSTYLE0
100
AcDbText
  0
LWPOLYLINE
  5
E6BF
330
DBF1
100
AcDbEntity
  8
0
100
AcDbPolyline
 90
        4
 70
     1
 43
0.0
 10
6689.68330318253
 20
7207.153040835108
 10
6689.683303182531
 20
6936.550213374457
 10
6869.652158372331
 20
6936.550213374457
 10
6869.652158372332
 20
7207.153040835108
  0
MTEXT
  5
E6FF
330
DBF1
100
AcDbEntity
  8
0
100
AcDbMText
 10
6696.369616738024
 20
7202.945504465469
 30
0.0
 40
10.0
 41
149.9436517786237
 71
     1
 72
     5
  1
{P35EG40/6 + P35EJ01/6 + P35EG43/3 + JDAUV40 + P35EG41/6 }
 73
     1
 44
1.0
1001
ACAD
1000
ACAD_MTEXT_DEFINED_HEIGHT_BEGIN
1070
    46
1040
76.66666666666667
1000
ACAD_MTEXT_DEFINED_HEIGHT_END
  0
LINE
  5
E700
330
DBF1
100
AcDbEntity
  8
0
  6
Continuous
 62
     7
370
    25
100
AcDbLine
 10
6789.106660825819
 20
7084.745194437975
 30
0.0
 11
6789.605141145745
 21
7084.745194437975
 31
0.0
  0
ARC
  5
E701
330
DBF1
100
AcDbEntity
  8
0
  6
Continuous
 62
     7
370
    25
100
AcDbCircle
 10
6789.11656082582
 20
7085.092486773829
 30
0.0
 40
0.3474334131079054
100
AcDbArc
 50
91.63284527002821
 51
268.3671547304216
  0
LINE
  5
E702
330
DBF1
100
AcDbEntity
  8
0
  6
Continuous
 62
     7
370
    25
100
AcDbLine
 10
6804.568593999603
 20
7085.439779109685
 30
0.0
 11
6789.106660825816
 21
7085.439779109685
 31
0.0
  0
ARC
  5
E703
330
DBF1
100
AcDbEntity
  8
0
  6
Continuous
 62
     7
370
    25
100
AcDbCircle
 10
6804.558693999604
 20
7085.092486773829
 30
0.0
 40
0.3474334131077947
100
AcDbArc
 50
271.6328452695784
 51
88.36715473072142
  0
LINE
  5
E704
330
DBF1
100
AcDbEntity
  8
0
  6
Continuous
 62
     7
370
    25
100
AcDbLine
 10
6804.070113679679
 20
7084.745194437975
 30
0.0
 11
6804.568593999605
 21
7084.745194437975
 31
0.0
  0
ARC
  5
E705
330
DBF1
100
AcDbEntity
  8
0
  6
Continuous
 62
     7
370
    25
100
AcDbCircle
 10
6804.070113679679
 20
7084.547194437974
 30
0.0
 40
0.1980000000000928
100
AcDbArc
 50
90.0
 51
179.9999999997368
  0
LINE
  5
E706
330
DBF1
100
AcDbEntity
  8
0
  6
Continuous
 62
     7
370
    25
100
AcDbLine
 10
6804.129767418523
 20
7083.839296608463
 30
0.0
 11
6803.872113679678
 21
7084.547194437975
 31
0.0
  0
LINE
  5
E707
330
DBF1
100
AcDbEntity
  8
0
  6
Continuous
 62
     7
370
    25
100
AcDbLine
 10
6804.503123339945
 20
7083.577869977848
 30
0.0
 11
6804.129767418523
 21
7083.839296608463
 31
0.0
  0
ARC
  5
E708
330
DBF1
100
AcDbEntity
  8
0
  6
Continuous
 62
     7
370
    25
100
AcDbCircle
 10
6804.417947239147
 20
7083.456225899271
 30
0.0
 40
0.1485000000000652
100
AcDbArc
 50
324.9999999999637
 51
54.99999999996373
  0
LINE
  5
E709
330
DBF1
100
AcDbEntity
  8
0
  6
Continuous
 62
     7
370
    25
100
AcDbLine
 10
6803.687151016472
 20
7082.153638881372
 30
0.0
 11
6804.539591317724
 21
7083.371049798472
 31
0.0
  0
ARC
  5
E70A
330
DBF1
100
AcDbEntity
  8
0
  6
Continuous
 62
     7
370
    25
100
AcDbCircle
 10
6803.403314833125
 20
7082.352383116568
 30
0.0
 40
0.3465000000000132
100
AcDbArc
 50
145.0000000000377
 51
325.0000000000377
  0
LINE
  5
E70B
330
DBF1
100
AcDbEntity
  8
0
  6
Continuous
 62
     7
370
    25
100
AcDbLine
 10
6803.607481805871
 20
7083.248068086418
 30
0.0
 11
6803.119478649779
 21
7082.551127351763
 31
0.0
  0
LINE
  5
E70C
330
DBF1
100
AcDbEntity
  8
0
  6
Continuous
 62
     7
370
    25
100
AcDbLine
 10
6803.288639879087
 20
7084.124079080631
 30
0.0
 11
6803.607481805871
 21
7083.248068086418
 31
0.0
  0
ARC
  5
E70D
330
DBF1
100
AcDbEntity
  8
0
  6
Continuous
 62
     7
370
    25
100
AcDbCircle
 10
6802.823492031797
 20
7083.954779109685
 30
0.0
 40
0.495000000000033
100
AcDbArc
 50
20.00000000005949
 51
90.0
  0
LINE
  5
E70E
330
DBF1
100
AcDbEntity
  8
0
  6
Continuous
 62
     7
370
    25
100
AcDbLine
 10
6790.851762793625
 20
7084.449779109685
 30
0.0
 11
6802.823492031797
 21
7084.449779109685
 31
0.0
  0
ARC
  5
E70F
330
DBF1
100
AcDbEntity
  8
0
  6
Continuous
 62
     7
370
    25
100
AcDbCircle
 10
6790.851762793625
 20
7083.954779109685
 30
0.0
 40
0.494999999999969
100
AcDbArc
 50
90.0
 51
159.9999999999405
  0
LINE
  5
E710
330
DBF1
100
AcDbEntity
  8
0
  6
Continuous
 62
     7
370
    25
100
AcDbLine
 10
6790.067773019553
 20
7083.248068086418
 30
0.0
 11
6790.386614946337
 21
7084.124079080631
 31
0.0
  0
LINE
  5
E711
330
DBF1
100
AcDbEntity
  8
0
  6
Continuous
 62
     7
370
    25
100
AcDbLine
 10
6790.555776175644
 20
7082.551127351763
 30
0.0
 11
6790.067773019553
 21
7083.248068086418
 31
0.0
  0
ARC
  5
E712
330
DBF1
100
AcDbEntity
  8
0
  6
Continuous
 62
     7
370
    25
100
AcDbCircle
 10
6790.271939992297
 20
7082.352383116568
 30
0.0
 40
0.3464999999999783
100
AcDbArc
 50
215.0000000000486
 51
34.99999999996232
  0
LINE
  5
E713
330
DBF1
100
AcDbEntity
  8
0
  6
Continuous
 62
     7
370
    25
100
AcDbLine
 10
6789.135663507699
 20
7083.371049798472
 30
0.0
 11
6789.988103808952
 21
7082.153638881372
 31
0.0
  0
ARC
  5
E714
330
DBF1
100
AcDbEntity
  8
0
  6
Continuous
 62
     7
370
    25
100
AcDbCircle
 10
6789.257307586276
 20
7083.456225899271
 30
0.0
 40
0.1485000000000594
100
AcDbArc
 50
125.0000000000363
 51
215.0000000003237
  0
LINE
  5
E715
330
DBF1
100
AcDbEntity
  8
0
  6
Continuous
 62
     7
370
    25
100
AcDbLine
 10
6789.545487406901
 20
7083.839296608463
 30
0.0
 11
6789.172131485478
 21
7083.577869977848
 31
0.0
  0
LINE
  5
E716
330
DBF1
100
AcDbEntity
  8
0
  6
Continuous
 62
     7
370
    25
100
AcDbLine
 10
6789.803141145744
 20
7084.547194437974
 30
0.0
 11
6789.545487406901
 21
7083.839296608463
 31
0.0
  0
ARC
  5
E717
330
DBF1
100
AcDbEntity
  8
0
  6
Continuous
 62
     7
370
    25
100
AcDbCircle
 10
6789.605141145745
 20
7084.547194437974
 30
0.0
 40
0.1979999999999791
100
AcDbArc
 50
0.0
 51
90.0
  0
LINE
  5
E718
330
DBF1
100
AcDbEntity
  8
0
  6
Continuous
 62
     7
370
    25
100
AcDbLine
 10
6811.3278060782
 20
7049.857290159753
 30
0.0
 11
6812.027806078199
 21
7049.857290159753
 31
0.0
  0
ARC
  5
E719
330
DBF1
100
AcDbEntity
  8
0
  6
Continuous
 62
     7
370
    25
100
AcDbCircle
 10
6811.3278060782
 20
7050.357290159753
 30
0.0
 40
0.5
100
AcDbArc
 50
180.0
 51
270.0
  0
LINE
  5
E71A
330
DBF1
100
AcDbEntity
  8
0
  6
Continuous
 62
     7
370
    25
100
AcDbLine
 10
6810.8278060782
 20
7054.557290159752
 30
0.0
 11
6810.8278060782
 21
7050.357290159753
 31
0.0
  0
ARC
  5
E71B
330
DBF1
100
AcDbEntity
  8
0
  6
Continuous
 62
     7
370
    25
100
AcDbCircle
 10
6810.527806078199
 20
7054.557290159752
 30
0.0
 40
0.3000000000001819
100
AcDbArc
 50
0.0
 51
90.0
  0
LINE
  5
E71C
330
DBF1
100
AcDbEntity
  8
0
  6
Continuous
 62
     7
370
    25
100
AcDbLine
 10
6808.8278060782
 20
7054.857290159753
 30
0.0
 11
6810.527806078199
 21
7054.857290159753
 31
0.0
  0
ARC
  5
E71D
330
DBF1
100
AcDbEntity
  8
0
  6
Continuous
 62
     7
370
    25
100
AcDbCircle
 10
6808.8278060782
 20
7054.557290159752
 30
0.0
 40
0.3000000000001819
100
AcDbArc
 50
90.0
 51
180.0
  0
LINE
  5
E71E
330
DBF1
100
AcDbEntity
  8
0
  6
Continuous
 62
     7
370
    25
100
AcDbLine
 10
6808.527806078199
 20
7050.357290159753
 30
0.0
 11
6808.527806078199
 21
7054.557290159752
 31
0.0
  0
ARC
  5
E71F
330
DBF1
100
AcDbEntity
  8
0
  6
Continuous
 62
     7
370
    25
100
AcDbCircle
 10
6808.027806078199
 20
7050.357290159753
 30
0.0
 40
0.5
100
AcDbArc
 50
270.0
 51
0.0
  0
LINE
  5
E720
330
DBF1
100
AcDbEntity
  8
0
  6
Continuous
 62
     7
370
    25
100
AcDbLine
 10
6806.2278073732
 20
7049.857290159753
 30
0.0
 11
6808.027806078199
 21
7049.857290159753
 31
0.0
  0
ARC
  5
E721
330
DBF1
100
AcDbEntity
  8
0
  6
Continuous
 62
     7
370
    25
100
AcDbCircle
 10
6806.2278073732
 20
7050.357290159753
 30
0.0
 40
0.5
100
AcDbArc
 50
180.0
 51
270.0
  0
LINE
  5
E722
330
DBF1
100
AcDbEntity
  8
0
  6
Continuous
 62
     7
370
    25
100
AcDbLine
 10
6805.7278073732
 20
7051.751250430289
 30
0.0
 11
6805.7278073732
 21
7050.357290159753
 31
0.0
  0
ARC
  5
E723
330
DBF1
100
AcDbEntity
  8
0
  6
Continuous
 62
     7
370
    25
100
AcDbCircle
 10
6806.027807373202
 20
7051.751250430289
 30
0.0
 40
0.3000000000009865
100
AcDbArc
 50
111.0375110252846
 51
180.0
  0
LINE
  5
E724
330
DBF1
100
AcDbEntity
  8
0
  6
Continuous
 62
     7
370
    25
100
AcDbLine
 10
6806.835501096997
 20
7052.383326207376
 30
0.0
 11
6805.920113649409
 21
7052.03125411215
 31
0.0
  0
ARC
  5
E725
330
DBF1
100
AcDbEntity
  8
0
  6
Continuous
 62
     7
370
    25
100
AcDbCircle
 10
6806.727807373204
 20
7052.663329889237
 30
0.0
 40
0.3000000000008498
100
AcDbArc
 50
291.0375110254467
 51
0.0
  0
LINE
  5
E726
330
DBF1
100
AcDbEntity
  8
0
  6
Continuous
 62
     7
370
    25
100
AcDbLine
 10
6807.027807373205
 20
7056.350656998243
 30
0.0
 11
6807.027807373205
 21
7052.663329889237
 31
0.0
  0
ARC
  5
E727
330
DBF1
100
AcDbEntity
  8
0
  6
Continuous
 62
     7
370
    25
100
AcDbCircle
 10
6806.727807373204
 20
7056.350656998243
 30
0.0
 40
0.3000000000009989
100
AcDbArc
 50
0.0
 51
24.00000000019476
  0
LINE
  5
E728
330
DBF1
100
AcDbEntity
  8
0
  6
Continuous
 62
     7
370
    25
100
AcDbLine
 10
6805.307048732535
 20
7060.279311152685
 30
0.0
 11
6807.001871010498
 21
7056.472677991167
 31
0.0
  0
ARC
  5
E729
330
DBF1
100
AcDbEntity
  8
0
  6
Continuous
 62
     7
370
    25
100
AcDbCircle
 10
6805.032985095241
 20
7060.157290159762
 30
0.0
 40
0.3000000000011143
100
AcDbArc
 50
24.00000000003607
 51
90.0
  0
LINE
  5
E72A
330
DBF1
100
AcDbEntity
  8
0
  6
Continuous
 62
     7
370
    25
100
AcDbLine
 10
6801.422629651154
 20
7060.457290159763
 30
0.0
 11
6805.032985095241
 21
7060.457290159763
 31
0.0
  0
ARC
  5
E72B
330
DBF1
100
AcDbEntity
  8
0
  6
Continuous
 62
     7
370
    25
100
AcDbCircle
 10
6801.422629651154
 20
7060.157290159762
 30
0.0
 40
0.3000000000010914
100
AcDbArc
 50
90.0
 51
156.0000000001226
  0
LINE
  5
E72C
330
DBF1
100
AcDbEntity
  8
0
  6
Continuous
 62
     7
370
    25
100
AcDbLine
 10
6799.453743735905
 20
7056.472677991163
 30
0.0
 11
6801.148566013861
 21
7060.279311152684
 31
0.0
  0
ARC
  5
E72D
330
DBF1
100
AcDbEntity
  8
0
  6
Continuous
 62
     7
370
    25
100
AcDbCircle
 10
6799.727807373199
 20
7056.350656998239
 30
0.0
 40
0.3000000000010772
100
AcDbArc
 50
155.9999999999639
 51
180.0
  0
LINE
  5
E72E
330
DBF1
100
AcDbEntity
  8
0
  6
Continuous
 62
     7
370
    25
100
AcDbLine
 10
6799.427807373198
 20
7052.663329889243
 30
0.0
 11
6799.427807373198
 21
7056.350656998239
 31
0.0
  0
ARC
  5
E72F
330
DBF1
100
AcDbEntity
  8
0
  6
Continuous
 62
     7
370
    25
100
AcDbCircle
 10
6799.727807373199
 20
7052.663329889244
 30
0.0
 40
0.300000000001057
100
AcDbArc
 50
180.0000000001737
 51
248.9624889741667
  0
LINE
  5
E730
330
DBF1
100
AcDbEntity
  8
0
  6
Continuous
 62
     7
370
    25
100
AcDbLine
 10
6800.535501096989
 20
7052.031254112149
 30
0.0
 11
6799.620113649404
 21
7052.383326207383
 31
0.0
  0
ARC
  5
E731
330
DBF1
100
AcDbEntity
  8
0
  6
Continuous
 62
     7
370
    25
100
AcDbCircle
 10
6800.427807373194
 20
7051.751250430289
 30
0.0
 40
0.3000000000009804
100
AcDbArc
 50
0.0
 51
68.96248897416665
  0
LINE
  5
E732
330
DBF1
100
AcDbEntity
  8
0
  6
Continuous
 62
     7
370
    25
100
AcDbLine
 10
6800.727807373195
 20
7050.357290159753
 30
0.0
 11
6800.727807373195
 21
7051.751250430289
 31
0.0
  0
ARC
  5
E733
330
DBF1
100
AcDbEntity
  8
0
  6
Continuous
 62
     7
370
    25
100
AcDbCircle
 10
6800.227807373195
 20
7050.357290159753
 30
0.0
 40
0.5
100
AcDbArc
 50
270.0
 51
0.0
  0
LINE
  5
E734
330
DBF1
100
AcDbEntity
  8
0
  6
Continuous
 62
     7
370
    25
100
AcDbLine
 10
6798.427807373198
 20
7049.857290159753
 30
0.0
 11
6800.227807373195
 21
7049.857290159753
 31
0.0
  0
ARC
  5
E735
330
DBF1
100
AcDbEntity
  8
0
  6
Continuous
 62
     7
370
    25
100
AcDbCircle
 10
6798.427807373198
 20
7050.357290159753
 30
0.0
 40
0.5
100
AcDbArc
 50
180.0
 51
270.0
  0
LINE
  5
E736
330
DBF1
100
AcDbEntity
  8
0
  6
Continuous
 62
     7
370
    25
100
AcDbLine
 10
6797.927807373198
 20
7054.557290159752
 30
0.0
 11
6797.927807373198
 21
7050.357290159753
 31
0.0
  0
ARC
  5
E737
330
DBF1
100
AcDbEntity
  8
0
  6
Continuous
 62
     7
370
    25
100
AcDbCircle
 10
6797.627807373197
 20
7054.557290159752
 30
0.0
 40
0.3000000000001819
100
AcDbArc
 50
0.0
 51
90.0
  0
LINE
  5
E738
330
DBF1
100
AcDbEntity
  8
0
  6
Continuous
 62
     7
370
    25
100
AcDbLine
 10
6795.927807373198
 20
7054.857290159753
 30
0.0
 11
6797.627807373197
 21
7054.857290159753
 31
0.0
  0
ARC
  5
E739
330
DBF1
100
AcDbEntity
  8
0
  6
Continuous
 62
     7
370
    25
100
AcDbCircle
 10
6795.927807373198
 20
7054.557290159752
 30
0.0
 40
0.3000000000001961
100
AcDbArc
 50
90.0
 51
180.0
  0
LINE
  5
E73A
330
DBF1
100
AcDbEntity
  8
0
  6
Continuous
 62
     7
370
    25
100
AcDbLine
 10
6795.627807373197
 20
7050.357290159753
 30
0.0
 11
6795.627807373197
 21
7054.557290159752
 31
0.0
  0
ARC
  5
E73B
330
DBF1
100
AcDbEntity
  8
0
  6
Continuous
 62
     7
370
    25
100
AcDbCircle
 10
6795.127807373197
 20
7050.357290159753
 30
0.0
 40
0.5
100
AcDbArc
 50
270.0
 51
0.0
  0
LINE
  5
E73C
330
DBF1
100
AcDbEntity
  8
0
  6
Continuous
 62
     7
370
    25
100
AcDbLine
 10
6791.327807373198
 20
7049.857290159753
 30
0.0
 11
6795.127807373197
 21
7049.857290159753
 31
0.0
  0
LINE
  5
E73D
330
DBF1
100
AcDbEntity
  8
0
  6
Continuous
 62
     7
370
    25
100
AcDbLine
 10
6791.327807373198
 20
7053.357290159753
 30
0.0
 11
6791.327807373198
 21
7049.857290159753
 31
0.0
  0
LINE
  5
E73E
330
DBF1
100
AcDbEntity
  8
0
  6
Continuous
 62
     7
370
    25
100
AcDbLine
 10
6794.127807373197
 20
7053.357290159753
 30
0.0
 11
6791.327807373198
 21
7053.357290159753
 31
0.0
  0
LINE
  5
E73F
330
DBF1
100
AcDbEntity
  8
0
  6
Continuous
 62
     7
370
    25
100
AcDbLine
 10
6794.127807373197
 20
7057.857290159753
 30
0.0
 11
6794.127807373197
 21
7053.357290159753
 31
0.0
  0
LINE
  5
E740
330
DBF1
100
AcDbEntity
  8
0
  6
Continuous
 62
     7
370
    25
100
AcDbLine
 10
6788.327807373198
 20
7057.857290159753
 30
0.0
 11
6794.127807373197
 21
7057.857290159753
 31
0.0
  0
LINE
  5
E741
330
DBF1
100
AcDbEntity
  8
0
  6
Continuous
 62
     7
370
    25
100
AcDbLine
 10
6787.327807373198
 20
7058.857290159753
 30
0.0
 11
6788.327807373198
 21
7057.857290159753
 31
0.0
  0
LINE
  5
E742
330
DBF1
100
AcDbEntity
  8
0
  6
Continuous
 62
     7
370
    25
100
AcDbLine
 10
6786.327807373198
 20
7057.857290159753
 30
0.0
 11
6787.327807373198
 21
7058.857290159753
 31
0.0
  0
LINE
  5
E743
330
DBF1
100
AcDbEntity
  8
0
  6
Continuous
 62
     7
370
    25
100
AcDbLine
 10
6780.527807373198
 20
7057.857290159753
 30
0.0
 11
6786.327807373198
 21
7057.857290159753
 31
0.0
  0
LINE
  5
E744
330
DBF1
100
AcDbEntity
  8
0
  6
Continuous
 62
     7
370
    25
100
AcDbLine
 10
6780.527807373198
 20
7053.357290159753
 30
0.0
 11
6780.527807373198
 21
7057.857290159753
 31
0.0
  0
LINE
  5
E745
330
DBF1
100
AcDbEntity
  8
0
  6
Continuous
 62
     7
370
    25
100
AcDbLine
 10
6783.327807373198
 20
7053.357290159753
 30
0.0
 11
6780.527807373198
 21
7053.357290159753
 31
0.0
  0
LINE
  5
E746
330
DBF1
100
AcDbEntity
  8
0
  6
Continuous
 62
     7
370
    25
100
AcDbLine
 10
6783.327807373198
 20
7049.857290159753
 30
0.0
 11
6783.327807373198
 21
7053.357290159753
 31
0.0
  0
LINE
  5
E747
330
DBF1
100
AcDbEntity
  8
0
  6
Continuous
 62
     7
370
    25
100
AcDbLine
 10
6779.527807373198
 20
7049.857290159753
 30
0.0
 11
6783.327807373198
 21
7049.857290159753
 31
0.0
  0
ARC
  5
E748
330
DBF1
100
AcDbEntity
  8
0
  6
Continuous
 62
     7
370
    25
100
AcDbCircle
 10
6779.527807373198
 20
7050.357290159753
 30
0.0
 40
0.5
100
AcDbArc
 50
180.0
 51
270.0
  0
LINE
  5
E749
330
DBF1
100
AcDbEntity
  8
0
  6
Continuous
 62
     7
370
    25
100
AcDbLine
 10
6779.027807373198
 20
7054.557290159752
 30
0.0
 11
6779.027807373198
 21
7050.357290159753
 31
0.0
  0
ARC
  5
E74A
330
DBF1
100
AcDbEntity
  8
0
  6
Continuous
 62
     7
370
    25
100
AcDbCircle
 10
6778.727807373198
 20
7054.557290159752
 30
0.0
 40
0.3000000000001819
100
AcDbArc
 50
0.0
 51
90.0
  0
LINE
  5
E74B
330
DBF1
100
AcDbEntity
  8
0
  6
Continuous
 62
     7
370
    25
100
AcDbLine
 10
6777.027807373197
 20
7054.857290159753
 30
0.0
 11
6778.727807373198
 21
7054.857290159753
 31
0.0
  0
ARC
  5
E74C
330
DBF1
100
AcDbEntity
  8
0
  6
Continuous
 62
     7
370
    25
100
AcDbCircle
 10
6777.027807373197
 20
7054.557290159752
 30
0.0
 40
0.3000000000001819
100
AcDbArc
 50
90.0
 51
180.0
  0
LINE
  5
E74D
330
DBF1
100
AcDbEntity
  8
0
  6
Continuous
 62
     7
370
    25
100
AcDbLine
 10
6776.727807373198
 20
7050.357290159753
 30
0.0
 11
6776.727807373198
 21
7054.557290159752
 31
0.0
  0
ARC
  5
E74E
330
DBF1
100
AcDbEntity
  8
0
  6
Continuous
 62
     7
370
    25
100
AcDbCircle
 10
6776.227807373198
 20
7050.357290159753
 30
0.0
 40
0.5
100
AcDbArc
 50
270.0
 51
0.0
  0
LINE
  5
E74F
330
DBF1
100
AcDbEntity
  8
0
  6
Continuous
 62
     7
370
    25
100
AcDbLine
 10
6774.4278073732
 20
7049.857290159753
 30
0.0
 11
6776.227807373198
 21
7049.857290159753
 31
0.0
  0
ARC
  5
E750
330
DBF1
100
AcDbEntity
  8
0
  6
Continuous
 62
     7
370
    25
100
AcDbCircle
 10
6774.4278073732
 20
7050.357290159753
 30
0.0
 40
0.5
100
AcDbArc
 50
180.0
 51
270.0
  0
LINE
  5
E751
330
DBF1
100
AcDbEntity
  8
0
  6
Continuous
 62
     7
370
    25
100
AcDbLine
 10
6773.9278073732
 20
7051.751250430289
 30
0.0
 11
6773.9278073732
 21
7050.357290159753
 31
0.0
  0
ARC
  5
E752
330
DBF1
100
AcDbEntity
  8
0
  6
Continuous
 62
     7
370
    25
100
AcDbCircle
 10
6774.227807373201
 20
7051.751250430289
 30
0.0
 40
0.3000000000010722
100
AcDbArc
 50
111.0375110258334
 51
180.0
  0
LINE
  5
E753
330
DBF1
100
AcDbEntity
  8
0
  6
Continuous
 62
     7
370
    25
100
AcDbLine
 10
6775.035501096992
 20
7052.383326207383
 30
0.0
 11
6774.120113649406
 21
7052.031254112149
 31
0.0
  0
ARC
  5
E754
330
DBF1
100
AcDbEntity
  8
0
  6
Continuous
 62
     7
370
    25
100
AcDbCircle
 10
6774.927807373197
 20
7052.663329889243
 30
0.0
 40
0.3000000000008498
100
AcDbArc
 50
291.0375110258333
 51
0.0
  0
LINE
  5
E755
330
DBF1
100
AcDbEntity
  8
0
  6
Continuous
 62
     7
370
    25
100
AcDbLine
 10
6775.227807373198
 20
7056.350656998239
 30
0.0
 11
6775.227807373197
 21
7052.663329889243
 31
0.0
  0
ARC
  5
E756
330
DBF1
100
AcDbEntity
  8
0
  6
Continuous
 62
     7
370
    25
100
AcDbCircle
 10
6774.927807373197
 20
7056.350656998239
 30
0.0
 40
0.3000000000008612
100
AcDbArc
 50
0.0
 51
24.00000000003607
  0
LINE
  5
E757
330
DBF1
100
AcDbEntity
  8
0
  6
Continuous
 62
     7
370
    25
100
AcDbLine
 10
6773.507048732535
 20
7060.279311152684
 30
0.0
 11
6775.20187101049
 21
7056.472677991163
 31
0.0
  0
ARC
  5
E758
330
DBF1
100
AcDbEntity
  8
0
  6
Continuous
 62
     7
370
    25
100
AcDbCircle
 10
6773.232985095241
 20
7060.157290159762
 30
0.0
 40
0.3000000000010914
100
AcDbArc
 50
23.99999999987739
 51
90.0
  0
LINE
  5
E759
330
DBF1
100
AcDbEntity
  8
0
  6
Continuous
 62
     7
370
    25
100
AcDbLine
 10
6769.622629651154
 20
7060.457290159763
 30
0.0
 11
6773.232985095241
 21
7060.457290159763
 31
0.0
  0
ARC
  5
E75A
330
DBF1
100
AcDbEntity
  8
0
  6
Continuous
 62
     7
370
    25
100
AcDbCircle
 10
6769.622629651154
 20
7060.157290159762
 30
0.0
 40
0.3000000000011208
100
AcDbArc
 50
90.0
 51
155.9999999999639
  0
LINE
  5
E75B
330
DBF1
100
AcDbEntity
  8
0
  6
Continuous
 62
     7
370
    25
100
AcDbLine
 10
6767.653743735897
 20
7056.472677991167
 30
0.0
 11
6769.34856601386
 21
7060.279311152685
 31
0.0
  0
ARC
  5
E75C
330
DBF1
100
AcDbEntity
  8
0
  6
Continuous
 62
     7
370
    25
100
AcDbCircle
 10
6767.92780737319
 20
7056.350656998243
 30
0.0
 40
0.3000000000010119
100
AcDbArc
 50
155.9999999997346
 51
180.0
  0
LINE
  5
E75D
330
DBF1
100
AcDbEntity
  8
0
  6
Continuous
 62
     7
370
    25
100
AcDbLine
 10
6767.62780737319
 20
7052.663329889237
 30
0.0
 11
6767.62780737319
 21
7056.350656998243
 31
0.0
  0
ARC
  5
E75E
330
DBF1
100
AcDbEntity
  8
0
  6
Continuous
 62
     7
370
    25
100
AcDbCircle
 10
6767.92780737319
 20
7052.663329889237
 30
0.0
 40
0.3000000000008569
100
AcDbArc
 50
180.0
 51
248.9624889747154
  0
LINE
  5
E75F
330
DBF1
100
AcDbEntity
  8
0
  6
Continuous
 62
     7
370
    25
100
AcDbLine
 10
6768.735501096987
 20
7052.03125411215
 30
0.0
 11
6767.820113649398
 21
7052.383326207376
 31
0.0
  0
ARC
  5
E760
330
DBF1
100
AcDbEntity
  8
0
  6
Continuous
 62
     7
370
    25
100
AcDbCircle
 10
6768.627807373194
 20
7051.751250430289
 30
0.0
 40
0.3000000000009993
100
AcDbArc
 50
0.0
 51
68.96248897455324
  0
LINE
  5
E761
330
DBF1
100
AcDbEntity
  8
0
  6
Continuous
 62
     7
370
    25
100
AcDbLine
 10
6768.927807373195
 20
7050.357290159753
 30
0.0
 11
6768.927807373195
 21
7051.751250430289
 31
0.0
  0
ARC
  5
E762
330
DBF1
100
AcDbEntity
  8
0
  6
Continuous
 62
     7
370
    25
100
AcDbCircle
 10
6768.427807373195
 20
7050.357290159753
 30
0.0
 40
0.5
100
AcDbArc
 50
270.0
 51
0.0
  0
LINE
  5
E763
330
DBF1
100
AcDbEntity
  8
0
  6
Continuous
 62
     7
370
    25
100
AcDbLine
 10
6766.627808668196
 20
7049.857290159753
 30
0.0
 11
6768.427807373195
 21
7049.857290159753
 31
0.0
  0
ARC
  5
E764
330
DBF1
100
AcDbEntity
  8
0
  6
Continuous
 62
     7
370
    25
100
AcDbCircle
 10
6766.627808668196
 20
7050.357290159753
 30
0.0
 40
0.5
100
AcDbArc
 50
180.0
 51
270.0
  0
LINE
  5
E765
330
DBF1
100
AcDbEntity
  8
0
  6
Continuous
 62
     7
370
    25
100
AcDbLine
 10
6766.127808668196
 20
7054.557290159752
 30
0.0
 11
6766.127808668196
 21
7050.357290159753
 31
0.0
  0
ARC
  5
E766
330
DBF1
100
AcDbEntity
  8
0
  6
Continuous
 62
     7
370
    25
100
AcDbCircle
 10
6765.827808668196
 20
7054.557290159752
 30
0.0
 40
0.3000000000001819
100
AcDbArc
 50
0.0
 51
90.0
  0
LINE
  5
E767
330
DBF1
100
AcDbEntity
  8
0
  6
Continuous
 62
     7
370
    25
100
AcDbLine
 10
6764.127808668196
 20
7054.857290159753
 30
0.0
 11
6765.827808668196
 21
7054.857290159753
 31
0.0
  0
ARC
  5
E768
330
DBF1
100
AcDbEntity
  8
0
  6
Continuous
 62
     7
370
    25
100
AcDbCircle
 10
6764.127808668196
 20
7054.557290159752
 30
0.0
 40
0.3000000000001819
100
AcDbArc
 50
90.0
 51
180.0
  0
LINE
  5
E769
330
DBF1
100
AcDbEntity
  8
0
  6
Continuous
 62
     7
370
    25
100
AcDbLine
 10
6763.827808668196
 20
7050.357290159753
 30
0.0
 11
6763.827808668196
 21
7054.557290159752
 31
0.0
  0
ARC
  5
E76A
330
DBF1
100
AcDbEntity
  8
0
  6
Continuous
 62
     7
370
    25
100
AcDbCircle
 10
6763.327808668196
 20
7050.357290159753
 30
0.0
 40
0.5000000000000071
100
AcDbArc
 50
270.0
 51
0.0
  0
LINE
  5
E76B
330
DBF1
100
AcDbEntity
  8
0
  6
Continuous
 62
     7
370
    25
100
AcDbLine
 10
6762.627808668196
 20
7049.857290159753
 30
0.0
 11
6763.327808668196
 21
7049.857290159753
 31
0.0
  0
LINE
  5
E76C
330
DBF1
100
AcDbEntity
  8
0
  6
Continuous
 62
     7
370
    25
100
AcDbLine
 10
6769.627808668196
 20
7087.857290159753
 30
0.0
 11
6762.327808668196
 21
7087.857290159753
 31
0.0
  0
LINE
  5
E76D
330
DBF1
100
AcDbEntity
  8
0
  6
Continuous
 62
     7
370
    25
100
AcDbLine
 10
6769.627808668196
 20
7086.357290159753
 30
0.0
 11
6769.627808668196
 21
7087.857290159753
 31
0.0
  0
LINE
  5
E76E
330
DBF1
100
AcDbEntity
  8
0
  6
Continuous
 62
     7
370
    25
100
AcDbLine
 10
6768.327808668197
 20
7086.357290159753
 30
0.0
 11
6769.627808668196
 21
7086.357290159753
 31
0.0
  0
LINE
  5
E76F
330
DBF1
100
AcDbEntity
  8
0
  6
Continuous
 62
     7
370
    25
100
AcDbLine
 10
6768.327808668197
 20
7083.657290159753
 30
0.0
 11
6768.327808668197
 21
7086.357290159753
 31
0.0
  0
ARC
  5
E770
330
DBF1
100
AcDbEntity
  8
0
  6
Continuous
 62
     7
370
    25
100
AcDbCircle
 10
6768.027808668196
 20
7083.657290159753
 30
0.0
 40
0.3000000000001819
100
AcDbArc
 50
270.0
 51
0.0
  0
LINE
  5
E771
330
DBF1
100
AcDbEntity
  8
0
  6
Continuous
 62
     7
370
    25
100
AcDbLine
 10
6766.827808668197
 20
7083.357290159753
 30
0.0
 11
6768.027808668196
 21
7083.357290159753
 31
0.0
  0
ARC
  5
E772
330
DBF1
100
AcDbEntity
  8
0
  6
Continuous
 62
     7
370
    25
100
AcDbCircle
 10
6766.827808668197
 20
7083.657290159753
 30
0.0
 40
0.3000000000001819
100
AcDbArc
 50
180.0
 51
270.0
  0
LINE
  5
E773
330
DBF1
100
AcDbEntity
  8
0
  6
Continuous
 62
     7
370
    25
100
AcDbLine
 10
6766.527808668196
 20
7084.057290159752
 30
0.0
 11
6766.527808668196
 21
7083.657290159753
 31
0.0
  0
ARC
  5
E774
330
DBF1
100
AcDbEntity
  8
0
  6
Continuous
 62
     7
370
    25
100
AcDbCircle
 10
6766.227808668196
 20
7084.057290159752
 30
0.0
 40
0.3000000000001819
100
AcDbArc
 50
0.0
 51
90.0
  0
LINE
  5
E775
330
DBF1
100
AcDbEntity
  8
0
  6
Continuous
 62
     7
370
    25
100
AcDbLine
 10
6764.127808668196
 20
7084.357290159754
 30
0.0
 11
6766.227808668196
 21
7084.357290159754
 31
0.0
  0
ARC
  5
E776
330
DBF1
100
AcDbEntity
  8
0
  6
Continuous
 62
     7
370
    25
100
AcDbCircle
 10
6764.127808668196
 20
7084.057290159752
 30
0.0
 40
0.3000000000001819
100
AcDbArc
 50
90.0
 51
180.0
  0
LINE
  5
E777
330
DBF1
100
AcDbEntity
  8
0
  6
Continuous
 62
     7
370
    25
100
AcDbLine
 10
6763.827808668196
 20
7078.657290159753
 30
0.0
 11
6763.827808668196
 21
7084.057290159752
 31
0.0
  0
ARC
  5
E778
330
DBF1
100
AcDbEntity
  8
0
  6
Continuous
 62
     7
370
    25
100
AcDbCircle
 10
6764.127808668196
 20
7078.657290159753
 30
0.0
 40
0.3000000000001819
100
AcDbArc
 50
180.0
 51
270.0
  0
LINE
  5
E779
330
DBF1
100
AcDbEntity
  8
0
  6
Continuous
 62
     7
370
    25
100
AcDbLine
 10
6766.227808668196
 20
7078.357290159753
 30
0.0
 11
6764.127808668196
 21
7078.357290159753
 31
0.0
  0
ARC
  5
E77A
330
DBF1
100
AcDbEntity
  8
0
  6
Continuous
 62
     7
370
    25
100
AcDbCircle
 10
6766.227808668196
 20
7078.657290159753
 30
0.0
 40
0.3000000000001819
100
AcDbArc
 50
270.0
 51
0.0
  0
LINE
  5
E77B
330
DBF1
100
AcDbEntity
  8
0
  6
Continuous
 62
     7
370
    25
100
AcDbLine
 10
6766.527808668196
 20
7079.057290159753
 30
0.0
 11
6766.527808668196
 21
7078.657290159753
 31
0.0
  0
ARC
  5
E77C
330
DBF1
100
AcDbEntity
  8
0
  6
Continuous
 62
     7
370
    25
100
AcDbCircle
 10
6766.827808668196
 20
7079.057290159753
 30
0.0
 40
0.2999999999999332
100
AcDbArc
 50
90.0
 51
180.0
  0
LINE
  5
E77D
330
DBF1
100
AcDbEntity
  8
0
  6
Continuous
 62
     7
370
    25
100
AcDbLine
 10
6768.027808668196
 20
7079.357290159753
 30
0.0
 11
6766.827808668196
 21
7079.357290159753
 31
0.0
  0
ARC
  5
E77E
330
DBF1
100
AcDbEntity
  8
0
  6
Continuous
 62
     7
370
    25
100
AcDbCircle
 10
6768.027808668196
 20
7079.057290159753
 30
0.0
 40
0.3000000000000824
100
AcDbArc
 50
0.0
 51
90.0
  0
LINE
  5
E77F
330
DBF1
100
AcDbEntity
  8
0
  6
Continuous
 62
     7
370
    25
100
AcDbLine
 10
6768.327808668196
 20
7071.65729015975
 30
0.0
 11
6768.327808668196
 21
7079.057290159753
 31
0.0
  0
ARC
  5
E780
330
DBF1
100
AcDbEntity
  8
0
  6
Continuous
 62
     7
370
    25
100
AcDbCircle
 10
6768.627808668193
 20
7071.65729015975
 30
0.0
 40
0.2999999999975387
100
AcDbArc
 50
180.0
 51
270.0
  0
LINE
  5
E781
330
DBF1
100
AcDbEntity
  8
0
  6
Continuous
 62
     7
370
    25
100
AcDbLine
 10
6777.577808668196
 20
7071.357290159754
 30
0.0
 11
6768.627808668193
 21
7071.357290159753
 31
0.0
  0
ARC
  5
E782
330
DBF1
100
AcDbEntity
  8
0
  6
Continuous
 62
     7
370
    25
100
AcDbCircle
 10
6777.577808668196
 20
7071.057290159753
 30
0.0
 40
0.3000000000001819
100
AcDbArc
 50
0.0
 51
90.0
  0
LINE
  5
E783
330
DBF1
100
AcDbEntity
  8
0
  6
Continuous
 62
     7
370
    25
100
AcDbLine
 10
6777.877808668196
 20
7070.657551086501
 30
0.0
 11
6777.877808668196
 21
7071.057290159753
 31
0.0
  0
LINE
  5
E784
330
DBF1
100
AcDbEntity
  8
0
  6
Continuous
 62
     7
370
    25
100
AcDbLine
 10
6778.527808668196
 20
7070.657551086501
 30
0.0
 11
6777.877808668196
 21
7070.657551086501
 31
0.0
  0
ARC
  5
E785
330
DBF1
100
AcDbEntity
  8
0
  6
Continuous
 62
     7
370
    25
100
AcDbCircle
 10
6778.527808668196
 20
7070.157420623127
 30
0.0
 40
0.5001304633749157
100
AcDbArc
 50
270.0
 51
90.0
  0
LINE
  5
E786
330
DBF1
100
AcDbEntity
  8
0
  6
Continuous
 62
     7
370
    25
100
AcDbLine
 10
6777.877808668196
 20
7069.657290159753
 30
0.0
 11
6778.527808668196
 21
7069.657290159753
 31
0.0
  0
LINE
  5
E787
330
DBF1
100
AcDbEntity
  8
0
  6
Continuous
 62
     7
370
    25
100
AcDbLine
 10
6777.877808668196
 20
7068.857290159753
 30
0.0
 11
6777.877808668196
 21
7069.657290159753
 31
0.0
  0
LINE
  5
E788
330
DBF1
100
AcDbEntity
  8
0
  6
Continuous
 62
     7
370
    25
100
AcDbLine
 10
6768.627808668196
 20
7068.857290159753
 30
0.0
 11
6777.877808668196
 21
7068.857290159753
 31
0.0
  0
LINE
  5
E789
330
DBF1
100
AcDbEntity
  8
0
  6
Continuous
 62
     7
370
    25
100
AcDbLine
 10
6768.627808668196
 20
7061.957290159753
 30
0.0
 11
6768.627808668196
 21
7068.857290159753
 31
0.0
  0
LINE
  5
E78A
330
DBF1
100
AcDbEntity
  8
0
  6
Continuous
 62
     7
370
    25
100
AcDbLine
 10
6786.127806078199
 20
7061.957290159753
 30
0.0
 11
6768.627808668196
 21
7061.957290159753
 31
0.0
  0
LINE
  5
E78B
330
DBF1
100
AcDbEntity
  8
0
  6
Continuous
 62
     7
370
    25
100
AcDbLine
 10
6786.627806078199
 20
7061.457290159753
 30
0.0
 11
6786.127806078199
 21
7061.957290159753
 31
0.0
  0
LINE
  5
E78C
330
DBF1
100
AcDbEntity
  8
0
  6
Continuous
 62
     7
370
    25
100
AcDbLine
 10
6787.1278060782
 20
7061.957290159753
 30
0.0
 11
6786.627806078199
 21
7061.457290159753
 31
0.0
  0
LINE
  5
E78D
330
DBF1
100
AcDbEntity
  8
0
  6
Continuous
 62
     7
370
    25
100
AcDbLine
 10
6804.627808668196
 20
7061.957290159753
 30
0.0
 11
6787.1278060782
 21
7061.957290159753
 31
0.0
  0
LINE
  5
E78E
330
DBF1
100
AcDbEntity
  8
0
  6
Continuous
 62
     7
370
    25
100
AcDbLine
 10
6804.627808668196
 20
7068.857290159753
 30
0.0
 11
6804.627808668196
 21
7061.957290159753
 31
0.0
  0
LINE
  5
E78F
330
DBF1
100
AcDbEntity
  8
0
  6
Continuous
 62
     7
370
    25
100
AcDbLine
 10
6794.777808668196
 20
7068.857290159753
 30
0.0
 11
6804.627808668196
 21
7068.857290159753
 31
0.0
  0
LINE
  5
E790
330
DBF1
100
AcDbEntity
  8
0
  6
Continuous
 62
     7
370
    25
100
AcDbLine
 10
6794.777808668196
 20
7069.657290159753
 30
0.0
 11
6794.777808668196
 21
7068.857290159753
 31
0.0
  0
LINE
  5
E791
330
DBF1
100
AcDbEntity
  8
0
  6
Continuous
 62
     7
370
    25
100
AcDbLine
 10
6794.127808668196
 20
7069.657290159753
 30
0.0
 11
6794.777808668196
 21
7069.657290159753
 31
0.0
  0
ARC
  5
E792
330
DBF1
100
AcDbEntity
  8
0
  6
Continuous
 62
     7
370
    25
100
AcDbCircle
 10
6794.127808668196
 20
7070.157420623127
 30
0.0
 40
0.5001304633749157
100
AcDbArc
 50
90.0
 51
270.0
  0
LINE
  5
E793
330
DBF1
100
AcDbEntity
  8
0
  6
Continuous
 62
     7
370
    25
100
AcDbLine
 10
6794.777808668196
 20
7070.657551086501
 30
0.0
 11
6794.127808668196
 21
7070.657551086501
 31
0.0
  0
LINE
  5
E794
330
DBF1
100
AcDbEntity
  8
0
  6
Continuous
 62
     7
370
    25
100
AcDbLine
 10
6794.777808668196
 20
7071.057290159753
 30
0.0
 11
6794.777808668196
 21
7070.657551086501
 31
0.0
  0
ARC
  5
E795
330
DBF1
100
AcDbEntity
  8
0
  6
Continuous
 62
     7
370
    25
100
AcDbCircle
 10
6795.077808668196
 20
7071.057290159753
 30
0.0
 40
0.3000000000000398
100
AcDbArc
 50
90.0
 51
180.0
  0
LINE
  5
E796
330
DBF1
100
AcDbEntity
  8
0
  6
Continuous
 62
     7
370
    25
100
AcDbLine
 10
6812.3278060782
 20
7071.357290159753
 30
0.0
 11
6795.077808668196
 21
7071.357290159753
 31
0.0
  0
LINE
  5
E797
330
DBF1
100
AcDbEntity
  8
0
  6
Continuous
 62
     7
370
    25
100
AcDbLine
 10
6812.3278060782
 20
7050.157290159753
 30
0.0
 11
6812.3278060782
 21
7071.357290159753
 31
0.0
  0
ARC
  5
E798
330
DBF1
100
AcDbEntity
  8
0
  6
Continuous
 62
     7
370
    25
100
AcDbCircle
 10
6812.027806078199
 20
7050.157290159753
 30
0.0
 40
0.3000000000001819
100
AcDbArc
 50
270.0
 51
0.0
  0
ARC
  5
E799
330
DBF1
100
AcDbEntity
  8
0
  6
Continuous
 62
     7
370
    25
100
AcDbCircle
 10
6810.627806078199
 20
7056.557290159753
 30
0.0
 40
0.2000000000004434
100
AcDbArc
 50
270.0
 51
0.0
  0
LINE
  5
E79A
330
DBF1
100
AcDbEntity
  8
0
  6
Continuous
 62
     7
370
    25
100
AcDbLine
 10
6810.8278060782
 20
7056.557290159753
 30
0.0
 11
6810.8278060782
 21
7069.357290159753
 31
0.0
  0
LINE
  5
E79B
330
DBF1
100
AcDbEntity
  8
0
  6
Continuous
 62
     7
370
    25
100
AcDbLine
 10
6810.8278060782
 20
7069.357290159753
 30
0.0
 11
6806.327808668196
 21
7069.357290159753
 31
0.0
  0
LINE
  5
E79C
330
DBF1
100
AcDbEntity
  8
0
  6
Continuous
 62
     7
370
    25
100
AcDbLine
 10
6806.327808668196
 20
7069.357290159753
 30
0.0
 11
6806.327808668196
 21
7061.67453680322
 31
0.0
  0
LINE
  5
E79D
330
DBF1
100
AcDbEntity
  8
0
  6
Continuous
 62
     7
370
    25
100
AcDbLine
 10
6806.327808668196
 20
7061.67453680322
 30
0.0
 11
6808.64237182785
 21
7056.475942831137
 31
0.0
  0
ARC
  5
E79E
330
DBF1
100
AcDbEntity
  8
0
  6
Continuous
 62
     7
370
    25
100
AcDbCircle
 10
6808.825080919379
 20
7056.557290159753
 30
0.0
 40
0.2000000000004434
100
AcDbArc
 50
204.0000000002654
 51
270.0
  0
LINE
  5
E79F
330
DBF1
100
AcDbEntity
  8
0
  6
Continuous
 62
     7
370
    25
100
AcDbLine
 10
6808.825080919379
 20
7056.357290159753
 30
0.0
 11
6810.627806078199
 21
7056.357290159753
 31
0.0
  0
LINE
  5
E7A0
330
DBF1
100
AcDbEntity
  8
0
  6
Continuous
 62
     7
370
    25
100
AcDbLine
 10
6766.927808668196
 20
7074.857290159753
 30
0.0
 11
6766.927808668196
 21
7058.530091136998
 31
0.0
  0
LINE
  5
E7A1
330
DBF1
100
AcDbEntity
  8
0
  6
Continuous
 62
     7
370
    25
100
AcDbLine
 10
6766.927808668196
 20
7074.857290159753
 30
0.0
 11
6763.527808668196
 21
7074.857290159753
 31
0.0
  0
LINE
  5
E7A2
330
DBF1
100
AcDbEntity
  8
0
  6
Continuous
 62
     7
370
    25
100
AcDbLine
 10
6763.527808668196
 20
7056.357290159753
 30
0.0
 11
6763.527808668196
 21
7074.857290159753
 31
0.0
  0
LINE
  5
E7A3
330
DBF1
100
AcDbEntity
  8
0
  6
Continuous
 62
     7
370
    25
100
AcDbLine
 10
6763.527808668196
 20
7056.357290159753
 30
0.0
 11
6765.960415345656
 21
7056.357290159753
 31
0.0
  0
LINE
  5
E7A4
330
DBF1
100
AcDbEntity
  8
0
  6
Continuous
 62
     7
370
    25
100
AcDbLine
 10
6766.927808668196
 20
7058.530091136998
 30
0.0
 11
6765.960415345656
 21
7056.357290159753
 31
0.0
  0
LINE
  5
E7A5
330
DBF1
100
AcDbEntity
  8
0
  6
Continuous
 62
     7
370
    25
100
AcDbLine
 10
6762.327808668196
 20
7087.857290159753
 30
0.0
 11
6762.327808668196
 21
7050.157290159753
 31
0.0
  0
ARC
  5
E7A6
330
DBF1
100
AcDbEntity
  8
0
  6
Continuous
 62
     7
370
    25
100
AcDbCircle
 10
6762.627808668196
 20
7050.157290159753
 30
0.0
 40
0.3000000000001819
100
AcDbArc
 50
180.0
 51
270.0
  0
ARC
  5
E7A7
330
DBF1
100
AcDbEntity
  8
0
  6
Continuous
 62
     7
370
    25
100
AcDbCircle
 10
6793.485097249016
 20
7096.68144146848
 30
0.0
 40
0.1999999999999176
100
AcDbArc
 50
180.0
 51
270.0
  0
LINE
  5
E7A8
330
DBF1
100
AcDbEntity
  8
0
  6
Continuous
 62
     7
370
    25
100
AcDbLine
 10
6795.285097249016
 20
7096.481441468481
 30
0.0
 11
6793.485097249016
 21
7096.481441468481
 31
0.0
  0
ARC
  5
E7A9
330
DBF1
100
AcDbEntity
  8
0
  6
Continuous
 62
     7
370
    25
100
AcDbCircle
 10
6795.285097249016
 20
7096.68144146848
 30
0.0
 40
0.2000000000000739
100
AcDbArc
 50
270.0
 51
0.0
  0
LINE
  5
E7AA
330
DBF1
100
AcDbEntity
  8
0
  6
Continuous
 62
     7
370
    25
100
AcDbLine
 10
6795.485097249016
 20
7098.731441468481
 30
0.0
 11
6795.485097249016
 21
7096.68144146848
 31
0.0
  0
ARC
  5
E7AB
330
DBF1
100
AcDbEntity
  8
0
  6
Continuous
 62
     7
370
    25
100
AcDbCircle
 10
6795.685097249017
 20
7098.731441468481
 30
0.0
 40
0.2000000000005855
100
AcDbArc
 50
90.0
 51
180.0
  0
LINE
  5
E7AC
330
DBF1
100
AcDbEntity
  8
0
  6
Continuous
 62
     7
370
    25
100
AcDbLine
 10
6797.734799639491
 20
7098.931441468481
 30
0.0
 11
6795.685097249017
 21
7098.931441468481
 31
0.0
  0
ARC
  5
E7AD
330
DBF1
100
AcDbEntity
  8
0
  6
Continuous
 62
     7
370
    25
100
AcDbCircle
 10
6797.734799639491
 20
7094.681143848481
 30
0.0
 40
4.250297620000225
100
AcDbArc
 50
270.9589127250939
 51
90.0
  0
LINE
  5
E7AE
330
DBF1
100
AcDbEntity
  8
0
  6
Continuous
 62
     7
370
    25
100
AcDbLine
 10
6795.685097249017
 20
7090.431441468481
 30
0.0
 11
6797.805930083043
 21
7090.431441468481
 31
0.0
  0
ARC
  5
E7AF
330
DBF1
100
AcDbEntity
  8
0
  6
Continuous
 62
     7
370
    25
100
AcDbCircle
 10
6795.685097249017
 20
7090.631441468481
 30
0.0
 40
0.2000000000000171
100
AcDbArc
 50
180.0
 51
270.0
  0
LINE
  5
E7B0
330
DBF1
100
AcDbEntity
  8
0
  6
Continuous
 62
     7
370
    25
100
AcDbLine
 10
6795.485097249016
 20
7092.681441468481
 30
0.0
 11
6795.485097249016
 21
7090.631441468481
 31
0.0
  0
ARC
  5
E7B1
330
DBF1
100
AcDbEntity
  8
0
  6
Continuous
 62
     7
370
    25
100
AcDbCircle
 10
6795.285097249016
 20
7092.681441468481
 30
0.0
 40
0.2000000000003865
100
AcDbArc
 50
0.0
 51
90.0
  0
LINE
  5
E7B2
330
DBF1
100
AcDbEntity
  8
0
  6
Continuous
 62
     7
370
    25
100
AcDbLine
 10
6793.4869431918
 20
7092.881441468481
 30
0.0
 11
6795.285097249016
 21
7092.881441468481
 31
0.0
  0
ARC
  5
E7B3
330
DBF1
100
AcDbEntity
  8
0
  6
Continuous
 62
     7
370
    25
100
AcDbCircle
 10
6793.4869431918
 20
7092.681441468481
 30
0.0
 40
0.2000000000000455
100
AcDbArc
 50
90.0
 51
180.0
  0
LINE
  5
E7B4
330
DBF1
100
AcDbEntity
  8
0
  6
Continuous
 62
     7
370
    25
100
AcDbLine
 10
6793.2869431918
 20
7092.331173165999
 30
0.0
 11
6793.2869431918
 21
7092.681441468481
 31
0.0
  0
ARC
  5
E7B5
330
DBF1
100
AcDbEntity
  8
0
  6
Continuous
 62
     7
370
    25
100
AcDbCircle
 10
6792.990643785278
 20
7092.331173165999
 30
0.0
 40
0.2962994065222537
100
AcDbArc
 50
308.3069243358473
 51
0.0
  0
ARC
  5
E7B6
330
DBF1
100
AcDbEntity
  8
0
  6
Continuous
 62
     7
370
    25
100
AcDbCircle
 10
6792.985061271805
 20
7092.331441468481
 30
0.0
 40
0.300000000000041
100
AcDbArc
 50
222.2090464123453
 51
309.1118214452122
  0
LINE
  5
E7B7
330
DBF1
100
AcDbEntity
  8
0
  6
Continuous
 62
     7
370
    25
100
AcDbLine
 10
6791.714153153403
 20
7093.419769649286
 30
0.0
 11
6792.762851713013
 21
7092.129890204576
 31
0.0
  0
ARC
  5
E7B8
330
DBF1
100
AcDbEntity
  8
0
  6
Continuous
 62
     7
370
    25
100
AcDbCircle
 10
6793.265985689681
 20
7094.68144146848
 30
0.0
 40
1.999999999999946
100
AcDbArc
 50
140.8881786095407
 51
219.1118213904795
  0
LINE
  5
E7B9
330
DBF1
100
AcDbEntity
  8
0
  6
Continuous
 62
     7
370
    25
100
AcDbLine
 10
6792.762851713013
 20
7097.232992732386
 30
0.0
 11
6791.714153153403
 21
7095.943113287675
 31
0.0
  0
ARC
  5
E7BA
330
DBF1
100
AcDbEntity
  8
0
  6
Continuous
 62
     7
370
    25
100
AcDbCircle
 10
6792.985061271805
 20
7097.031441468481
 30
0.0
 40
0.2999999999998814
100
AcDbArc
 50
50.88817854529199
 51
137.7909535876547
  0
ARC
  5
E7BB
330
DBF1
100
AcDbEntity
  8
0
  6
Continuous
 62
     7
370
    25
100
AcDbCircle
 10
6792.984347690927
 20
7097.031055801247
 30
0.0
 40
0.3007495580891089
100
AcDbArc
 50
0.0
 51
50.8290468659508
  0
LINE
  5
E7BC
330
DBF1
100
AcDbEntity
  8
0
  6
Continuous
 62
     7
370
    25
100
AcDbLine
 10
6793.285097249016
 20
7097.031055801247
 30
0.0
 11
6793.285097249016
 21
7096.68144146848
 31
0.0
  0
LINE
  5
E7BD
330
DBF1
100
AcDbEntity
  8
0
  6
Continuous
 62
     7
370
    25
100
AcDbLine
 10
6795.485097249016
 20
7095.181441468481
 30
0.0
 11
6795.485097249016
 21
7094.18144146849
 31
0.0
  0
ARC
  5
E7BE
330
DBF1
100
AcDbEntity
  8
0
  6
Continuous
 62
     7
370
    25
100
AcDbCircle
 10
6795.285097249016
 20
7095.181441468481
 30
0.0
 40
0.2000000000000313
100
AcDbArc
 50
0.0
 51
90.0
  0
LINE
  5
E7BF
330
DBF1
100
AcDbEntity
  8
0
  6
Continuous
 62
     7
370
    25
100
AcDbLine
 10
6795.285097249016
 20
7095.381441468481
 30
0.0
 11
6792.934323210668
 21
7095.381441468481
 31
0.0
  0
ARC
  5
E7C0
330
DBF1
100
AcDbEntity
  8
0
  6
Continuous
 62
     7
370
    25
100
AcDbCircle
 10
6792.934323210668
 20
7095.181441468481
 30
0.0
 40
0.1999999999996191
100
AcDbArc
 50
90.0
 51
123.5573097600228
  0
ARC
  5
E7C1
330
DBF1
100
AcDbEntity
  8
0
  6
Continuous
 62
     7
370
    25
100
AcDbCircle
 10
6793.265985689681
 20
7094.68144146848
 30
0.0
 40
0.7999999999883591
100
AcDbArc
 50
123.5573097601297
 51
236.4426902380817
  0
ARC
  5
E7C2
330
DBF1
100
AcDbEntity
  8
0
  6
Continuous
 62
     7
370
    25
100
AcDbCircle
 10
6792.934323210648
 20
7094.181441468486
 30
0.0
 40
0.1999999999942618
100
AcDbArc
 50
236.4426902381736
 51
270.0
  0
LINE
  5
E7C3
330
DBF1
100
AcDbEntity
  8
0
  6
Continuous
 62
     7
370
    25
100
AcDbLine
 10
6792.934323210648
 20
7093.981441468492
 30
0.0
 11
6795.285097249016
 21
7093.981441468492
 31
0.0
  0
ARC
  5
E7C4
330
DBF1
100
AcDbEntity
  8
0
  6
Continuous
 62
     7
370
    25
100
AcDbCircle
 10
6795.285097249016
 20
7094.18144146849
 30
0.0
 40
0.1999999999996049
100
AcDbArc
 50
270.0
 51
0.0
  0
LINE
  5
E7C5
330
DBF1
100
AcDbEntity
  8
0
  6
Continuous
 62
     7
370
    25
100
AcDbLine
 10
6796.485097249016
 20
7098.131441468481
 30
0.0
 11
6796.485097249016
 21
7091.231441468481
 31
0.0
  0
ARC
  5
E7C6
330
DBF1
100
AcDbEntity
  8
0
  6
Continuous
 62
     7
370
    25
100
AcDbCircle
 10
6796.685097249016
 20
7091.231441468481
 30
0.0
 40
0.1999999999998181
100
AcDbArc
 50
180.0
 51
270.0
  0
LINE
  5
E7C7
330
DBF1
100
AcDbEntity
  8
0
  6
Continuous
 62
     7
370
    25
100
AcDbLine
 10
6796.685097249016
 20
7091.031441468481
 30
0.0
 11
6797.734815558451
 21
7091.031441468481
 31
0.0
  0
ARC
  5
E7C8
330
DBF1
100
AcDbEntity
  8
0
  6
Continuous
 62
     7
370
    25
100
AcDbCircle
 10
6797.734815558451
 20
7094.68144146848
 30
0.0
 40
3.650000000000091
100
AcDbArc
 50
270.0
 51
89.99999997044709
  0
LINE
  5
E7C9
330
DBF1
100
AcDbEntity
  8
0
  6
Continuous
 62
     7
370
    25
100
AcDbLine
 10
6797.734807599702
 20
7098.331441468481
 30
0.0
 11
6796.685097249016
 21
7098.331441468481
 31
0.0
  0
ARC
  5
E7CA
330
DBF1
100
AcDbEntity
  8
0
  6
Continuous
 62
     7
370
    25
100
AcDbCircle
 10
6796.685097249016
 20
7098.131441468481
 30
0.0
 40
0.1999999999999886
100
AcDbArc
 50
90.0
 51
180.0
  0
LINE
  5
E7CB
330
DBF1
100
AcDbEntity
  8
0
100
AcDbLine
 10
6769.993984013233
 20
7081.48309186696
 30
0.0
 11
6788.979611962379
 21
7093.295121879524
 31
0.0
  0
LINE
  5
E7CC
330
DBF1
100
AcDbEntity
  8
0
100
AcDbLine
 10
6785.993827567596
 20
7069.360259276605
 30
0.0
 11
6795.429464455658
 21
7082.06207816438
 31
0.0
  0
LINE
  5
E7CD
330
DBF1
100
AcDbEntity
  8
0
  6
Continuous
 62
     7
370
    25
100
AcDbLine
 10
6763.863826763541
 20
7029.530530267884
 30
0.0
 11
6764.48335514949
 21
7027.868545618878
 31
0.0
  0
LINE
  5
E7CE
330
DBF1
100
AcDbEntity
  8
0
  6
Continuous
 62
     7
370
    25
100
AcDbLine
 10
6763.302728778827
 20
7029.491241712566
 30
0.0
 11
6763.863826763541
 21
7029.530530267884
 31
0.0
  0
ARC
  5
E7CF
330
DBF1
100
AcDbEntity
  8
0
  6
Continuous
 62
     7
370
    25
100
AcDbCircle
 10
6763.260818886281
 20
7030.089776223606
 30
0.0
 40
0.6000000000001487
100
AcDbArc
 50
184.0053614764099
 51
274.0053614764965
  0
LINE
  5
E7D0
330
DBF1
100
AcDbEntity
  8
0
  6
Continuous
 62
     7
370
    25
100
AcDbLine
 10
6762.648314411058
 20
7030.24737783474
 30
0.0
 11
6762.66228437524
 21
7030.047866331061
 31
0.0
  0
ARC
  5
E7D1
330
DBF1
100
AcDbEntity
  8
0
  6
Continuous
 62
     7
370
    25
100
AcDbCircle
 10
6762.847825914739
 20
7030.261347798923
 30
0.0
 40
0.2000000000000125
100
AcDbArc
 50
94.00536147649049
 51
184.0053614764905
  0
LINE
  5
E7D2
330
DBF1
100
AcDbEntity
  8
0
  6
Continuous
 62
     7
370
    25
100
AcDbLine
 10
6763.499655198312
 20
7030.507479128889
 30
0.0
 11
6762.833855950556
 21
7030.460859302603
 31
0.0
  0
LINE
  5
E7D3
330
DBF1
100
AcDbEntity
  8
0
  6
Continuous
 62
     7
370
    25
100
AcDbLine
 10
6762.159787750975
 20
7034.143419070792
 30
0.0
 11
6763.499655198312
 21
7030.507479128889
 31
0.0
  0
ARC
  5
E7D4
330
DBF1
100
AcDbEntity
  8
0
  6
Continuous
 62
     7
370
    25
100
AcDbCircle
 10
6761.978195874074
 20
7034.0596074353
 30
0.0
 40
0.199999999999917
100
AcDbArc
 50
24.77514056892291
 51
90.0
  0
LINE
  5
E7D5
330
DBF1
100
AcDbEntity
  8
0
  6
Continuous
 62
     7
370
    25
100
AcDbLine
 10
6760.877418872318
 20
7034.2596074353
 30
0.0
 11
6761.978195874074
 21
7034.2596074353
 31
0.0
  0
ARC
  5
E7D6
330
DBF1
100
AcDbEntity
  8
0
  6
Continuous
 62
     7
370
    25
100
AcDbCircle
 10
6760.877418872318
 20
7034.0596074353
 30
0.0
 40
0.2000000000000313
100
AcDbArc
 50
90.0
 51
155.2248594310771
  0
LINE
  5
E7D7
330
DBF1
100
AcDbEntity
  8
0
  6
Continuous
 62
     7
370
    25
100
AcDbLine
 10
6759.35595954808
 20
7030.507479128889
 30
0.0
 11
6760.695826995418
 21
7034.143419070792
 31
0.0
  0
LINE
  5
E7D8
330
DBF1
100
AcDbEntity
  8
0
  6
Continuous
 62
     7
370
    25
100
AcDbLine
 10
6760.021758795837
 20
7030.460859302603
 30
0.0
 11
6759.35595954808
 21
7030.507479128889
 31
0.0
  0
ARC
  5
E7D9
330
DBF1
100
AcDbEntity
  8
0
  6
Continuous
 62
     7
370
    25
100
AcDbCircle
 10
6760.007788831655
 20
7030.261347798923
 30
0.0
 40
0.2000000000001309
100
AcDbArc
 50
355.9946385235095
 51
85.99463852350951
  0
LINE
  5
E7DA
330
DBF1
100
AcDbEntity
  8
0
  6
Continuous
 62
     7
370
    25
100
AcDbLine
 10
6760.193330371153
 20
7030.047866331061
 30
0.0
 11
6760.207300335335
 21
7030.24737783474
 31
0.0
  0
ARC
  5
E7DB
330
DBF1
100
AcDbEntity
  8
0
  6
Continuous
 62
     7
370
    25
100
AcDbCircle
 10
6759.594795860112
 20
7030.089776223606
 30
0.0
 40
0.6000000000000172
100
AcDbArc
 50
265.9946385235901
 51
355.9946385235901
  0
LINE
  5
E7DC
330
DBF1
100
AcDbEntity
  8
0
  6
Continuous
 62
     7
370
    25
100
AcDbLine
 10
6758.991787982853
 20
7029.530530267884
 30
0.0
 11
6759.552885967566
 21
7029.491241712566
 31
0.0
  0
LINE
  5
E7DD
330
DBF1
100
AcDbEntity
  8
0
  6
Continuous
 62
     7
370
    25
100
AcDbLine
 10
6758.372259596902
 20
7027.868545618878
 30
0.0
 11
6758.991787982853
 21
7029.530530267884
 31
0.0
  0
ARC
  5
E7DE
330
DBF1
100
AcDbEntity
  8
0
  6
Continuous
 62
     7
370
    25
100
AcDbCircle
 10
6758.012345509541
 20
7028.04307885273
 30
0.0
 40
0.4000000000000919
100
AcDbArc
 50
265.9946385236303
 51
334.1298495010611
  0
LINE
  5
E7DF
330
DBF1
100
AcDbEntity
  8
0
  6
Continuous
 62
     7
370
    25
100
AcDbLine
 10
6757.557096409651
 20
7027.673976394866
 30
0.0
 11
6757.984405581177
 21
7027.64405584537
 31
0.0
  0
ARC
  5
E7E0
330
DBF1
100
AcDbEntity
  8
0
  6
Continuous
 62
     7
370
    25
100
AcDbCircle
 10
6757.585036338014
 20
7028.072999402227
 30
0.0
 40
0.3999999999999915
100
AcDbArc
 50
154.3680198667636
 51
265.9946385236303
  0
LINE
  5
E7E1
330
DBF1
100
AcDbEntity
  8
0
  6
Continuous
 62
     7
370
    25
100
AcDbLine
 10
6759.390991126997
 20
7034.179838901867
 30
0.0
 11
6757.224399852594
 21
7028.246035021054
 31
0.0
  0
ARC
  5
E7E2
330
DBF1
100
AcDbEntity
  8
0
  6
Continuous
 62
     7
370
    25
100
AcDbCircle
 10
6759.027807373196
 20
7034.347462172851
 30
0.0
 40
0.3999999999999572
100
AcDbArc
 50
335.22485943125
 51
0.0
  0
LINE
  5
E7E3
330
DBF1
100
AcDbEntity
  8
0
  6
Continuous
 62
     7
370
    25
100
AcDbLine
 10
6759.427807373197
 20
7035.0596074353
 30
0.0
 11
6759.427807373197
 21
7034.347462172851
 31
0.0
  0
ARC
  5
E7E4
330
DBF1
100
AcDbEntity
  8
0
  6
Continuous
 62
     7
370
    25
100
AcDbCircle
 10
6759.627807373196
 20
7035.0596074353
 30
0.0
 40
0.2000000000000739
100
AcDbArc
 50
90.0
 51
180.0
  0
LINE
  5
E7E5
330
DBF1
100
AcDbEntity
  8
0
  6
Continuous
 62
     7
370
    25
100
AcDbLine
 10
6763.227807373197
 20
7035.2596074353
 30
0.0
 11
6759.627807373196
 21
7035.2596074353
 31
0.0
  0
ARC
  5
E7E6
330
DBF1
100
AcDbEntity
  8
0
  6
Continuous
 62
     7
370
    25
100
AcDbCircle
 10
6763.227807373197
 20
7035.0596074353
 30
0.0
 40
0.1999999999999886
100
AcDbArc
 50
0.0
 51
90.0
  0
LINE
  5
E7E7
330
DBF1
100
AcDbEntity
  8
0
  6
Continuous
 62
     7
370
    25
100
AcDbLine
 10
6763.427807373197
 20
7034.347462172851
 30
0.0
 11
6763.427807373197
 21
7035.0596074353
 31
0.0
  0
ARC
  5
E7E8
330
DBF1
100
AcDbEntity
  8
0
  6
Continuous
 62
     7
370
    25
100
AcDbCircle
 10
6763.827807373196
 20
7034.347462172851
 30
0.0
 40
0.4000000000000098
100
AcDbArc
 50
180.0
 51
204.77514056875
  0
LINE
  5
E7E9
330
DBF1
100
AcDbEntity
  8
0
  6
Continuous
 62
     7
370
    25
100
AcDbLine
 10
6765.6312148938
 20
7028.246035021054
 30
0.0
 11
6763.464623619397
 21
7034.179838901867
 31
0.0
  0
ARC
  5
E7EA
330
DBF1
100
AcDbEntity
  8
0
  6
Continuous
 62
     7
370
    25
100
AcDbCircle
 10
6765.270578408379
 20
7028.072999402227
 30
0.0
 40
0.4000000000000346
100
AcDbArc
 50
274.0053614763697
 51
25.63198013323641
  0
LINE
  5
E7EB
330
DBF1
100
AcDbEntity
  8
0
  6
Continuous
 62
     7
370
    25
100
AcDbLine
 10
6764.871209165216
 20
7027.64405584537
 30
0.0
 11
6765.298518336743
 21
7027.673976394866
 31
0.0
  0
ARC
  5
E7EC
330
DBF1
100
AcDbEntity
  8
0
  6
Continuous
 62
     7
370
    25
100
AcDbCircle
 10
6764.843269236851
 20
7028.043078852731
 30
0.0
 40
0.4000000000002021
100
AcDbArc
 50
205.8701504990561
 51
274.0053614764996
  0
LINE
  5
E7EE
330
DBF1
100
AcDbEntity
  8
0
  6
Continuous
 62
     7
370
    25
100
AcDbLine
 10
6810.791787982856
 20
7029.530530267884
 30
0.0
 11
6810.172259596906
 21
7027.868545618878
 31
0.0
  0
LINE
  5
E7EF
330
DBF1
100
AcDbEntity
  8
0
  6
Continuous
 62
     7
370
    25
100
AcDbLine
 10
6811.352885967569
 20
7029.491241712566
 30
0.0
 11
6810.791787982856
 21
7029.530530267884
 31
0.0
  0
ARC
  5
E7F0
330
DBF1
100
AcDbEntity
  8
0
  6
Continuous
 62
     7
370
    25
100
AcDbCircle
 10
6811.394795860116
 20
7030.089776223606
 30
0.0
 40
0.6000000000001487
100
AcDbArc
 50
265.9946385235035
 51
355.9946385235901
  0
LINE
  5
E7F1
330
DBF1
100
AcDbEntity
  8
0
  6
Continuous
 62
     7
370
    25
100
AcDbLine
 10
6812.007300335338
 20
7030.24737783474
 30
0.0
 11
6811.993330371156
 21
7030.047866331061
 31
0.0
  0
ARC
  5
E7F2
330
DBF1
100
AcDbEntity
  8
0
  6
Continuous
 62
     7
370
    25
100
AcDbCircle
 10
6811.807788831657
 20
7030.261347798923
 30
0.0
 40
0.2000000000000125
100
AcDbArc
 50
355.9946385235095
 51
85.99463852350951
  0
LINE
  5
E7F3
330
DBF1
100
AcDbEntity
  8
0
  6
Continuous
 62
     7
370
    25
100
AcDbLine
 10
6811.155959548084
 20
7030.507479128889
 30
0.0
 11
6811.82175879584
 21
7030.460859302603
 31
0.0
  0
LINE
  5
E7F4
330
DBF1
100
AcDbEntity
  8
0
  6
Continuous
 62
     7
370
    25
100
AcDbLine
 10
6812.495826995421
 20
7034.143419070792
 30
0.0
 11
6811.155959548084
 21
7030.507479128889
 31
0.0
  0
ARC
  5
E7F5
330
DBF1
100
AcDbEntity
  8
0
  6
Continuous
 62
     7
370
    25
100
AcDbCircle
 10
6812.677418872322
 20
7034.0596074353
 30
0.0
 40
0.199999999999917
100
AcDbArc
 50
90.0
 51
155.2248594310771
  0
LINE
  5
E7F6
330
DBF1
100
AcDbEntity
  8
0
  6
Continuous
 62
     7
370
    25
100
AcDbLine
 10
6813.778195874078
 20
7034.2596074353
 30
0.0
 11
6812.677418872322
 21
7034.2596074353
 31
0.0
  0
ARC
  5
E7F7
330
DBF1
100
AcDbEntity
  8
0
  6
Continuous
 62
     7
370
    25
100
AcDbCircle
 10
6813.778195874078
 20
7034.0596074353
 30
0.0
 40
0.2000000000000313
100
AcDbArc
 50
24.77514056892291
 51
90.0
  0
LINE
  5
E7F8
330
DBF1
100
AcDbEntity
  8
0
  6
Continuous
 62
     7
370
    25
100
AcDbLine
 10
6815.299655198316
 20
7030.507479128889
 30
0.0
 11
6813.959787750978
 21
7034.143419070792
 31
0.0
  0
LINE
  5
E7F9
330
DBF1
100
AcDbEntity
  8
0
  6
Continuous
 62
     7
370
    25
100
AcDbLine
 10
6814.633855950559
 20
7030.460859302603
 30
0.0
 11
6815.299655198316
 21
7030.507479128889
 31
0.0
  0
ARC
  5
E7FA
330
DBF1
100
AcDbEntity
  8
0
  6
Continuous
 62
     7
370
    25
100
AcDbCircle
 10
6814.647825914742
 20
7030.261347798923
 30
0.0
 40
0.2000000000001309
100
AcDbArc
 50
94.00536147649049
 51
184.0053614764905
  0
LINE
  5
E7FB
330
DBF1
100
AcDbEntity
  8
0
  6
Continuous
 62
     7
370
    25
100
AcDbLine
 10
6814.462284375243
 20
7030.047866331061
 30
0.0
 11
6814.448314411061
 21
7030.24737783474
 31
0.0
  0
ARC
  5
E7FC
330
DBF1
100
AcDbEntity
  8
0
  6
Continuous
 62
     7
370
    25
100
AcDbCircle
 10
6815.060818886284
 20
7030.089776223606
 30
0.0
 40
0.6000000000000172
100
AcDbArc
 50
184.0053614764099
 51
274.0053614764099
  0
LINE
  5
E7FD
330
DBF1
100
AcDbEntity
  8
0
  6
Continuous
 62
     7
370
    25
100
AcDbLine
 10
6815.663826763544
 20
7029.530530267884
 30
0.0
 11
6815.10272877883
 21
7029.491241712566
 31
0.0
  0
LINE
  5
E7FE
330
DBF1
100
AcDbEntity
  8
0
  6
Continuous
 62
     7
370
    25
100
AcDbLine
 10
6816.283355149494
 20
7027.868545618878
 30
0.0
 11
6815.663826763544
 21
7029.530530267884
 31
0.0
  0
ARC
  5
E7FF
330
DBF1
100
AcDbEntity
  8
0
  6
Continuous
 62
     7
370
    25
100
AcDbCircle
 10
6816.643269236855
 20
7028.04307885273
 30
0.0
 40
0.4000000000000919
100
AcDbArc
 50
205.8701504989388
 51
274.0053614763697
  0
LINE
  5
E800
330
DBF1
100
AcDbEntity
  8
0
  6
Continuous
 62
     7
370
    25
100
AcDbLine
 10
6817.098518336746
 20
7027.673976394866
 30
0.0
 11
6816.671209165219
 21
7027.64405584537
 31
0.0
  0
ARC
  5
E801
330
DBF1
100
AcDbEntity
  8
0
  6
Continuous
 62
     7
370
    25
100
AcDbCircle
 10
6817.070578408382
 20
7028.072999402227
 30
0.0
 40
0.3999999999999915
100
AcDbArc
 50
274.0053614763697
 51
25.63198013323641
  0
LINE
  5
E802
330
DBF1
100
AcDbEntity
  8
0
  6
Continuous
 62
     7
370
    25
100
AcDbLine
 10
6815.2646236194
 20
7034.179838901867
 30
0.0
 11
6817.431214893802
 21
7028.246035021054
 31
0.0
  0
ARC
  5
E803
330
DBF1
100
AcDbEntity
  8
0
  6
Continuous
 62
     7
370
    25
100
AcDbCircle
 10
6815.6278073732
 20
7034.347462172851
 30
0.0
 40
0.3999999999999572
100
AcDbArc
 50
180.0
 51
204.77514056875
  0
LINE
  5
E804
330
DBF1
100
AcDbEntity
  8
0
  6
Continuous
 62
     7
370
    25
100
AcDbLine
 10
6815.2278073732
 20
7035.0596074353
 30
0.0
 11
6815.2278073732
 21
7034.347462172851
 31
0.0
  0
ARC
  5
E805
330
DBF1
100
AcDbEntity
  8
0
  6
Continuous
 62
     7
370
    25
100
AcDbCircle
 10
6815.0278073732
 20
7035.0596074353
 30
0.0
 40
0.2000000000000739
100
AcDbArc
 50
0.0
 51
90.0
  0
LINE
  5
E806
330
DBF1
100
AcDbEntity
  8
0
  6
Continuous
 62
     7
370
    25
100
AcDbLine
 10
6811.427807373199
 20
7035.2596074353
 30
0.0
 11
6815.0278073732
 21
7035.2596074353
 31
0.0
  0
ARC
  5
E807
330
DBF1
100
AcDbEntity
  8
0
  6
Continuous
 62
     7
370
    25
100
AcDbCircle
 10
6811.427807373199
 20
7035.0596074353
 30
0.0
 40
0.1999999999999886
100
AcDbArc
 50
90.0
 51
180.0
  0
LINE
  5
E808
330
DBF1
100
AcDbEntity
  8
0
  6
Continuous
 62
     7
370
    25
100
AcDbLine
 10
6811.2278073732
 20
7034.347462172851
 30
0.0
 11
6811.2278073732
 21
7035.0596074353
 31
0.0
  0
ARC
  5
E809
330
DBF1
100
AcDbEntity
  8
0
  6
Continuous
 62
     7
370
    25
100
AcDbCircle
 10
6810.8278073732
 20
7034.347462172851
 30
0.0
 40
0.4000000000000098
100
AcDbArc
 50
335.22485943125
 51
0.0
  0
LINE
  5
E80A
330
DBF1
100
AcDbEntity
  8
0
  6
Continuous
 62
     7
370
    25
100
AcDbLine
 10
6809.024399852597
 20
7028.246035021054
 30
0.0
 11
6811.190991127
 21
7034.179838901867
 31
0.0
  0
ARC
  5
E80B
330
DBF1
100
AcDbEntity
  8
0
  6
Continuous
 62
     7
370
    25
100
AcDbCircle
 10
6809.385036338017
 20
7028.072999402227
 30
0.0
 40
0.4000000000000346
100
AcDbArc
 50
154.3680198667636
 51
265.9946385236303
  0
LINE
  5
E80C
330
DBF1
100
AcDbEntity
  8
0
  6
Continuous
 62
     7
370
    25
100
AcDbLine
 10
6809.78440558118
 20
7027.64405584537
 30
0.0
 11
6809.357096409653
 21
7027.673976394866
 31
0.0
  0
ARC
  5
E80D
330
DBF1
100
AcDbEntity
  8
0
  6
Continuous
 62
     7
370
    25
100
AcDbCircle
 10
6809.812345509545
 20
7028.043078852731
 30
0.0
 40
0.4000000000002021
100
AcDbArc
 50
265.9946385235004
 51
334.1298495009439
  0
INSERT
  5
E887
330
DBF1
100
AcDbEntity
  8
0
100
AcDbBlockReference
  2
A$C17531
 10
6758.877807373196
 20
7011.698285158632
 30
0.0
 50
180.0
  0
INSERT
  5
E888
330
DBF1
100
AcDbEntity
  8
0
100
AcDbBlockReference
  2
A$C17531
 10
6815.777807373195
 20
7011.698285158631
 30
0.0
 41
-1.0
 50
179.9999999999933
  0
LINE
  5
E889
330
DBF1
100
AcDbEntity
  8
0
100
AcDbLine
 10
6762.057858313194
 20
7037.76565423343
 30
0.0
 11
6771.25155579387
 21
7049.741654899047
 31
0.0
  0
LINE
  5
E88A
330
DBF1
100
AcDbEntity
  8
0
100
AcDbLine
 10
6752.985130536212
 20
7013.692683198503
 30
0.0
 11
6760.485252165184
 21
7026.515471789971
 31
0.0
  0
LINE
  5
E88B
330
DBF1
100
AcDbEntity
  8
0
100
AcDbLine
 10
6821.670484210182
 20
7013.692683198502
 30
0.0
 11
6814.170362581211
 21
7026.515471789971
 31
0.0
  0
LINE
  5
E88C
330
DBF1
100
AcDbEntity
  8
0
100
AcDbLine
 10
6812.597756433201
 20
7037.76565423343
 30
0.0
 11
6803.404058952526
 21
7049.741654899047
 31
0.0
  0
ENDSEC
  0
SECTION
  2
OBJECTS
  0
DICTIONARY
  5
DBE1
330
0
100
AcDbDictionary
281
     1
  3
ACAD_DETAILVIEWSTYLE
350
E3B5
  3
ACAD_GROUP
350
DBE2
  3
ACAD_LAYOUT
350
DBEE
  3
ACAD_MLINESTYLE
350
DBEB
  3
ACAD_PLOTSETTINGS
350
DBED
  3
ACAD_PLOTSTYLENAME
350
DBE3
  3
ACAD_SCALELIST
350
DDD7
  3
ACAD_SECTIONVIEWSTYLE
350
E3B6
  3
AcDbVariableDictionary
350
E3B0
  3
APPDATA
350
DE16
  3
DWGPROPS
350
E88D
  0
DICTIONARY
  5
E3B5
102
{ACAD_REACTORS
330
DBE1
102
}
330
DBE1
100
AcDbDictionary
281
     1
  0
DICTIONARY
  5
DBE2
102
{ACAD_REACTORS
330
DBE1
102
}
330
DBE1
100
AcDbDictionary
281
     1
  0
DICTIONARY
  5
DBEE
102
{ACAD_REACTORS
330
DBE1
102
}
330
DBE1
100
AcDbDictionary
281
     1
  3
Foglio 1
350
DBF0
  3
Model
350
DBF2
  0
DICTIONARY
  5
DBEB
102
{ACAD_REACTORS
330
DBE1
102
}
330
DBE1
100
AcDbDictionary
281
     1
  3
Standard
350
DBEC
  0
DICTIONARY
  5
DBED
102
{ACAD_REACTORS
330
DBE1
102
}
330
DBE1
100
AcDbDictionary
281
     1
  0
ACDBDICTIONARYWDFLT
  5
DBE3
102
{ACAD_REACTORS
330
DBE1
102
}
330
DBE1
100
AcDbDictionary
281
     1
  3
Normal
350
DBE4
100
AcDbDictionaryWithDefault
340
DBE4
  0
DICTIONARY
  5
DDD7
102
{ACAD_REACTORS
330
DBE1
102
}
330
DBE1
100
AcDbDictionary
281
     1
  3
A0
350
DDD8
  3
A1
350
DDD9
  3
A2
350
DDDA
  3
A3
350
DDDB
  3
A4
350
DDDC
  3
A5
350
DDDD
  3
A6
350
DDDE
  3
A7
350
DDDF
  3
A8
350
DDE0
  3
A9
350
DDE1
  3
B0
350
DDE2
  3
B1
350
DDE3
  3
B2
350
DDE4
  3
B3
350
DDE5
  3
B4
350
DDE6
  3
B5
350
DDE7
  3
B6
350
DDE8
  3
B7
350
DDE9
  3
B8
350
DDEA
  3
B9
350
DDEB
  3
C0
350
DDEC
  3
C1
350
DDED
  3
C2
350
DDEE
  3
C3
350
DDEF
  3
C4
350
DDF0
  3
C5
350
DDF1
  3
C6
350
DDF2
  3
C7
350
DDF3
  3
C8
350
DDF4
  3
C9
350
DDF5
  3
D0
350
DDF6
  3
D1
350
DDF7
  3
D2
350
DDF8
  0
DICTIONARY
  5
E3B6
102
{ACAD_REACTORS
330
DBE1
102
}
330
DBE1
100
AcDbDictionary
281
     1
  0
DICTIONARY
  5
E3B0
102
{ACAD_REACTORS
330
DBE1
102
}
330
DBE1
100
AcDbDictionary
281
     1
  0
DICTIONARY
  5
DE16
102
{ACAD_REACTORS
330
DBE1
102
}
330
DBE1
100
AcDbDictionary
281
     1
  0
XRECORD
  5
E88D
102
{ACAD_REACTORS
330
DBE1
102
}
330
DBE1
100
AcDbXrecord
280
     1
  1
DWGPROPS COOKIE
  2

  3

  4

  6

  7

  8
simone.danesi
  9

300
=
301
=
302
=
303
=
304
=
305
=
306
=
307
=
308
=
309
=
 40
0.0
 41
2457771.371419132
 42
2458788.387295671
  1

 90
        0
  0
LAYOUT
  5
DBF0
102
{ACAD_REACTORS
330
DBEE
102
}
330
DBEE
100
AcDbPlotSettings
  1

  2
none_device
  4

  6

 40
0.0
 41
0.0
 42
0.0
 43
0.0
 44
0.0
 45
0.0
 46
0.0
 47
0.0
 48
0.0
 49
0.0
140
0.0
141
0.0
142
1.0
143
1.0
 70
   688
 72
     0
 73
     0
 74
     5
  7

 75
    16
147
1.0
148
0.0
149
0.0
100
AcDbLayout
  1
Foglio 1
 70
     1
 71
     1
 10
0.0
 20
0.0
 11
0.0
 21
0.0
 12
0.0
 22
0.0
 32
0.0
 14
1.000000000000000E+20
 24
1.000000000000000E+20
 34
1.000000000000000E+20
 15
-1.000000000000000E+20
 25
-1.000000000000000E+20
 35
-1.000000000000000E+20
146
0.0
 13
0.0
 23
0.0
 33
0.0
 16
1.0
 26
0.0
 36
0.0
 17
0.0
 27
1.0
 37
0.0
 76
     0
330
DBEF
  0
LAYOUT
  5
DBF2
102
{ACAD_REACTORS
330
DBEE
102
}
330
DBEE
100
AcDbPlotSettings
  1

  2
none_device
  4
Letter_(8.50_x_11.00_Inches)
  6

 40
6.35
 41
6.35
 42
6.35
 43
6.35
 44
215.9
 45
279.4
 46
0.0
 47
0.0
 48
0.0
 49
0.0
140
0.0
141
0.0
142
1.0
143
1.0
 70
  1712
 72
     0
 73
     0
 74
     0
  7

 75
     0
147
1.0
148
0.0
149
0.0
100
AcDbLayout
  1
Model
 70
     1
 71
     0
 10
0.0
 20
0.0
 11
12.0
 21
9.0
 12
0.0
 22
0.0
 32
0.0
 14
6149.776737613125
 24
6853.652039192996
 34
0.0
 15
6869.652158372332
 25
7207.153040835108
 35
0.0
146
0.0
 13
0.0
 23
0.0
 33
0.0
 16
1.0
 26
0.0
 36
0.0
 17
0.0
 27
1.0
 37
0.0
 76
     0
330
DBF1
331
DBF4
  0
MLINESTYLE
  5
DBEC
102
{ACAD_REACTORS
330
DBEB
102
}
330
DBEB
100
AcDbMlineStyle
  2
Standard
 70
     0
  3

 62
   256
 51
90.0
 52
90.0
 71
     2
 49
0.5
 62
   256
  6
BYLAYER
 49
-0.5
 62
   256
  6
BYLAYER
  0
ACDBPLACEHOLDER
  5
DBE4
102
{ACAD_REACTORS
330
DBE3
102
}
330
DBE3
  0
SCALE
  5
DDD8
102
{ACAD_REACTORS
330
DDD7
102
}
330
DDD7
100
AcDbScale
 70
     0
300
1:1
140
1.0
141
1.0
290
     1
  0
SCALE
  5
DDD9
102
{ACAD_REACTORS
330
DDD7
102
}
330
DDD7
100
AcDbScale
 70
     0
300
1:2
140
1.0
141
2.0
290
     0
  0
SCALE
  5
DDDA
102
{ACAD_REACTORS
330
DDD7
102
}
330
DDD7
100
AcDbScale
 70
     0
300
1:4
140
1.0
141
4.0
290
     0
  0
SCALE
  5
DDDB
102
{ACAD_REACTORS
330
DDD7
102
}
330
DDD7
100
AcDbScale
 70
     0
300
1:5
140
1.0
141
5.0
290
     0
  0
SCALE
  5
DDDC
102
{ACAD_REACTORS
330
DDD7
102
}
330
DDD7
100
AcDbScale
 70
     0
300
1:8
140
1.0
141
8.0
290
     0
  0
SCALE
  5
DDDD
102
{ACAD_REACTORS
330
DDD7
102
}
330
DDD7
100
AcDbScale
 70
     0
300
1:10
140
1.0
141
10.0
290
     0
  0
SCALE
  5
DDDE
102
{ACAD_REACTORS
330
DDD7
102
}
330
DDD7
100
AcDbScale
 70
     0
300
1:16
140
1.0
141
16.0
290
     0
  0
SCALE
  5
DDDF
102
{ACAD_REACTORS
330
DDD7
102
}
330
DDD7
100
AcDbScale
 70
     0
300
1:20
140
1.0
141
20.0
290
     0
  0
SCALE
  5
DDE0
102
{ACAD_REACTORS
330
DDD7
102
}
330
DDD7
100
AcDbScale
 70
     0
300
1:30
140
1.0
141
30.0
290
     0
  0
SCALE
  5
DDE1
102
{ACAD_REACTORS
330
DDD7
102
}
330
DDD7
100
AcDbScale
 70
     0
300
1:40
140
1.0
141
40.0
290
     0
  0
SCALE
  5
DDE2
102
{ACAD_REACTORS
330
DDD7
102
}
330
DDD7
100
AcDbScale
 70
     0
300
1:50
140
1.0
141
50.0
290
     0
  0
SCALE
  5
DDE3
102
{ACAD_REACTORS
330
DDD7
102
}
330
DDD7
100
AcDbScale
 70
     0
300
1:100
140
1.0
141
100.0
290
     0
  0
SCALE
  5
DDE4
102
{ACAD_REACTORS
330
DDD7
102
}
330
DDD7
100
AcDbScale
 70
     0
300
2:1
140
2.0
141
1.0
290
     0
  0
SCALE
  5
DDE5
102
{ACAD_REACTORS
330
DDD7
102
}
330
DDD7
100
AcDbScale
 70
     0
300
4:1
140
4.0
141
1.0
290
     0
  0
SCALE
  5
DDE6
102
{ACAD_REACTORS
330
DDD7
102
}
330
DDD7
100
AcDbScale
 70
     0
300
8:1
140
8.0
141
1.0
290
     0
  0
SCALE
  5
DDE7
102
{ACAD_REACTORS
330
DDD7
102
}
330
DDD7
100
AcDbScale
 70
     0
300
10:1
140
10.0
141
1.0
290
     0
  0
SCALE
  5
DDE8
102
{ACAD_REACTORS
330
DDD7
102
}
330
DDD7
100
AcDbScale
 70
     0
300
100:1
140
100.0
141
1.0
290
     0
  0
SCALE
  5
DDE9
102
{ACAD_REACTORS
330
DDD7
102
}
330
DDD7
100
AcDbScale
 70
     0
300
1/128" = 1'-0"
140
0.0078125
141
12.0
290
     0
  0
SCALE
  5
DDEA
102
{ACAD_REACTORS
330
DDD7
102
}
330
DDD7
100
AcDbScale
 70
     0
300
1/64" = 1'-0"
140
0.015625
141
12.0
290
     0
  0
SCALE
  5
DDEB
102
{ACAD_REACTORS
330
DDD7
102
}
330
DDD7
100
AcDbScale
 70
     0
300
1/32" = 1'-0"
140
0.03125
141
12.0
290
     0
  0
SCALE
  5
DDEC
102
{ACAD_REACTORS
330
DDD7
102
}
330
DDD7
100
AcDbScale
 70
     0
300
1/16" = 1'-0"
140
0.0625
141
12.0
290
     0
  0
SCALE
  5
DDED
102
{ACAD_REACTORS
330
DDD7
102
}
330
DDD7
100
AcDbScale
 70
     0
300
3/32" = 1'-0"
140
0.09375
141
12.0
290
     0
  0
SCALE
  5
DDEE
102
{ACAD_REACTORS
330
DDD7
102
}
330
DDD7
100
AcDbScale
 70
     0
300
1/8" = 1'-0"
140
0.125
141
12.0
290
     0
  0
SCALE
  5
DDEF
102
{ACAD_REACTORS
330
DDD7
102
}
330
DDD7
100
AcDbScale
 70
     0
300
3/16" = 1'-0"
140
0.1875
141
12.0
290
     0
  0
SCALE
  5
DDF0
102
{ACAD_REACTORS
330
DDD7
102
}
330
DDD7
100
AcDbScale
 70
     0
300
1/4" = 1'-0"
140
0.25
141
12.0
290
     0
  0
SCALE
  5
DDF1
102
{ACAD_REACTORS
330
DDD7
102
}
330
DDD7
100
AcDbScale
 70
     0
300
3/8" = 1'-0"
140
0.375
141
12.0
290
     0
  0
SCALE
  5
DDF2
102
{ACAD_REACTORS
330
DDD7
102
}
330
DDD7
100
AcDbScale
 70
     0
300
1/2" = 1'-0"
140
0.5
141
12.0
290
     0
  0
SCALE
  5
DDF3
102
{ACAD_REACTORS
330
DDD7
102
}
330
DDD7
100
AcDbScale
 70
     0
300
3/4" = 1'-0"
140
0.75
141
12.0
290
     0
  0
SCALE
  5
DDF4
102
{ACAD_REACTORS
330
DDD7
102
}
330
DDD7
100
AcDbScale
 70
     0
300
1" = 1'-0"
140
1.0
141
12.0
290
     0
  0
SCALE
  5
DDF5
102
{ACAD_REACTORS
330
DDD7
102
}
330
DDD7
100
AcDbScale
 70
     0
300
1-1/2" = 1'-0"
140
1.5
141
12.0
290
     0
  0
SCALE
  5
DDF6
102
{ACAD_REACTORS
330
DDD7
102
}
330
DDD7
100
AcDbScale
 70
     0
300
3" = 1'-0"
140
3.0
141
12.0
290
     0
  0
SCALE
  5
DDF7
102
{ACAD_REACTORS
330
DDD7
102
}
330
DDD7
100
AcDbScale
 70
     0
300
6" = 1'-0"
140
6.0
141
12.0
290
     0
  0
SCALE
  5
DDF8
102
{ACAD_REACTORS
330
DDD7
102
}
330
DDD7
100
AcDbScale
 70
     0
300
1'-0" = 1'-0"
140
12.0
141
12.0
290
     0
  0
ENDSEC
  0
EOF
