  0
SECTION
  2
HEADER
  9
$ACADVER
  1
AC1015
  9
$ACADMAINTVER
 70
     6
  9
$DWGCODEPAGE
  3
ANSI_1252
  9
$INSBASE
 10
0.0
 20
0.0
 30
0.0
  9
$EXTMIN
 10
-31.3422140046244
 20
-364.6861020594021
 30
0.0
  9
$EXTMAX
 10
644.3497801065246
 20
61.58091282650281
 30
0.0
  9
$LIMMIN
 10
-20.0
 20
-575.8499999999997
  9
$LIMMAX
 10
1785.35
 20
579.8499999999997
  9
$ORTHOMODE
 70
     1
  9
$REGENMODE
 70
     1
  9
$FILLMODE
 70
     1
  9
$QTEXTMODE
 70
     0
  9
$MIRRTEXT
 70
     1
  9
$LTSCALE
 40
10.0
  9
$ATTMODE
 70
     1
  9
$TEXTSIZE
 40
0.0
  9
$TRACEWID
 40
0.05
  9
$TEXTSTYLE
  7
Standard
  9
$CLAYER
  8
0
  9
$CELTYPE
  6
Continuous
  9
$CECOLOR
 62
   256
  9
$CELTSCALE
 40
1.0
  9
$DISPSILH
 70
     0
  9
$DIMSCALE
 40
1.0
  9
$DIMASZ
 40
1.25
  9
$DIMEXO
 40
0.0
  9
$DIMDLI
 40
0.38
  9
$DIMRND
 40
0.0
  9
$DIMDLE
 40
0.0
  9
$DIMEXE
 40
0.75
  9
$DIMTP
 40
0.0
  9
$DIMTM
 40
0.0
  9
$DIMTXT
 40
2.5
  9
$DIMCEN
 40
0.09
  9
$DIMTSZ
 40
0.0
  9
$DIMTOL
 70
     0
  9
$DIMLIM
 70
     0
  9
$DIMTIH
 70
     0
  9
$DIMTOH
 70
     0
  9
$DIMSE1
 70
     0
  9
$DIMSE2
 70
     0
  9
$DIMTAD
 70
     1
  9
$DIMZIN
 70
     0
  9
$DIMBLK
  1

  9
$DIMASO
 70
     1
  9
$DIMSHO
 70
     1
  9
$DIMPOST
  1

  9
$DIMAPOST
  1

  9
$DIMALT
 70
     0
  9
$DIMALTD
 70
     2
  9
$DIMALTF
 40
25.4
  9
$DIMLFAC
 40
1.0
  9
$DIMTOFL
 70
     0
  9
$DIMTVP
 40
0.0
  9
$DIMTIX
 70
     0
  9
$DIMSOXD
 70
     0
  9
$DIMSAH
 70
     0
  9
$DIMBLK1
  1

  9
$DIMBLK2
  1

  9
$DIMSTYLE
  2
Standard
  9
$DIMCLRD
 70
     7
  9
$DIMCLRE
 70
     7
  9
$DIMCLRT
 70
     7
  9
$DIMTFAC
 40
0.8
  9
$DIMGAP
 40
1.25
  9
$DIMJUST
 70
     0
  9
$DIMSD1
 70
     0
  9
$DIMSD2
 70
     0
  9
$DIMTOLJ
 70
     1
  9
$DIMTZIN
 70
     0
  9
$DIMALTZ
 70
     0
  9
$DIMALTTZ
 70
     0
  9
$DIMUPT
 70
     0
  9
$DIMDEC
 70
     2
  9
$DIMTDEC
 70
     4
  9
$DIMALTU
 70
     2
  9
$DIMALTTD
 70
     2
  9
$DIMTXSTY
  7
Standard
  9
$DIMAUNIT
 70
     0
  9
$DIMADEC
 70
     0
  9
$DIMALTRND
 40
0.0
  9
$DIMAZIN
 70
     0
  9
$DIMDSEP
 70
    46
  9
$DIMATFIT
 70
     3
  9
$DIMFRAC
 70
     0
  9
$DIMLDRBLK
  1

  9
$DIMLUNIT
 70
     2
  9
$DIMLWD
 70
     0
  9
$DIMLWE
 70
     0
  9
$DIMTMOVE
 70
     0
  9
$LUNITS
 70
     2
  9
$LUPREC
 70
     4
  9
$SKETCHINC
 40
0.1
  9
$FILLETRAD
 40
0.0
  9
$AUNITS
 70
     0
  9
$AUPREC
 70
     0
  9
$MENU
  1
acad
  9
$ELEVATION
 40
0.0
  9
$PELEVATION
 40
0.0
  9
$THICKNESS
 40
0.0
  9
$LIMCHECK
 70
     0
  9
$CHAMFERA
 40
0.0
  9
$CHAMFERB
 40
0.0
  9
$CHAMFERC
 40
0.0
  9
$CHAMFERD
 40
0.0
  9
$SKPOLY
 70
     0
  9
$TDCREATE
 40
2455301.760694421
  9
$TDUCREATE
 40
2455301.719027755
  9
$TDUPDATE
 40
2458788.367137129
  9
$TDUUPDATE
 40
2458788.325470463
  9
$TDINDWG
 40
0.1987271991
  9
$TDUSRTIMER
 40
0.00041875
  9
$USRTIMER
 70
     1
  9
$ANGBASE
 50
0.0
  9
$ANGDIR
 70
     0
  9
$PDMODE
 70
     0
  9
$PDSIZE
 40
0.0
  9
$PLINEWID
 40
0.0
  9
$SPLFRAME
 70
     0
  9
$SPLINETYPE
 70
     6
  9
$SPLINESEGS
 70
     8
  9
$HANDSEED
  5
E659
  9
$SURFTAB1
 70
     6
  9
$SURFTAB2
 70
     6
  9
$SURFTYPE
 70
     6
  9
$SURFU
 70
     6
  9
$SURFV
 70
     6
  9
$UCSBASE
  2

  9
$UCSNAME
  2

  9
$UCSORG
 10
0.0
 20
0.0
 30
0.0
  9
$UCSXDIR
 10
1.0
 20
0.0
 30
0.0
  9
$UCSYDIR
 10
0.0
 20
1.0
 30
0.0
  9
$UCSORTHOREF
  2

  9
$UCSORTHOVIEW
 70
     0
  9
$UCSORGTOP
 10
0.0
 20
0.0
 30
0.0
  9
$UCSORGBOTTOM
 10
0.0
 20
0.0
 30
0.0
  9
$UCSORGLEFT
 10
0.0
 20
0.0
 30
0.0
  9
$UCSORGRIGHT
 10
0.0
 20
0.0
 30
0.0
  9
$UCSORGFRONT
 10
0.0
 20
0.0
 30
0.0
  9
$UCSORGBACK
 10
0.0
 20
0.0
 30
0.0
  9
$PUCSBASE
  2

  9
$PUCSNAME
  2

  9
$PUCSORG
 10
0.0
 20
0.0
 30
0.0
  9
$PUCSXDIR
 10
1.0
 20
0.0
 30
0.0
  9
$PUCSYDIR
 10
0.0
 20
1.0
 30
0.0
  9
$PUCSORTHOREF
  2

  9
$PUCSORTHOVIEW
 70
     0
  9
$PUCSORGTOP
 10
0.0
 20
0.0
 30
0.0
  9
$PUCSORGBOTTOM
 10
0.0
 20
0.0
 30
0.0
  9
$PUCSORGLEFT
 10
0.0
 20
0.0
 30
0.0
  9
$PUCSORGRIGHT
 10
0.0
 20
0.0
 30
0.0
  9
$PUCSORGFRONT
 10
0.0
 20
0.0
 30
0.0
  9
$PUCSORGBACK
 10
0.0
 20
0.0
 30
0.0
  9
$USERI1
 70
     0
  9
$USERI2
 70
     0
  9
$USERI3
 70
     0
  9
$USERI4
 70
     0
  9
$USERI5
 70
     0
  9
$USERR1
 40
0.0
  9
$USERR2
 40
0.0
  9
$USERR3
 40
0.0
  9
$USERR4
 40
0.0
  9
$USERR5
 40
0.0
  9
$WORLDVIEW
 70
     1
  9
$SHADEDGE
 70
     3
  9
$SHADEDIF
 70
    70
  9
$TILEMODE
 70
     1
  9
$MAXACTVP
 70
    16
  9
$PINSBASE
 10
0.0
 20
0.0
 30
0.0
  9
$PLIMCHECK
 70
     0
  9
$PEXTMIN
 10
1.000000000000000E+20
 20
1.000000000000000E+20
 30
1.000000000000000E+20
  9
$PEXTMAX
 10
-1.000000000000000E+20
 20
-1.000000000000000E+20
 30
-1.000000000000000E+20
  9
$PLIMMIN
 10
0.0
 20
0.0
  9
$PLIMMAX
 10
0.0
 20
0.0
  9
$UNITMODE
 70
     0
  9
$VISRETAIN
 70
     0
  9
$PLINEGEN
 70
     1
  9
$PSLTSCALE
 70
     0
  9
$TREEDEPTH
 70
  3020
  9
$CMLSTYLE
  2
Standard
  9
$CMLJUST
 70
     0
  9
$CMLSCALE
 40
1.0
  9
$PROXYGRAPHICS
 70
     0
  9
$MEASUREMENT
 70
     1
  9
$CELWEIGHT
370
     0
  9
$ENDCAPS
280
     0
  9
$JOINSTYLE
280
     0
  9
$LWDISPLAY
290
     0
  9
$INSUNITS
 70
     0
  9
$HYPERLINKBASE
  1

  9
$STYLESHEET
  1

  9
$XEDIT
290
     1
  9
$CEPSNTYPE
380
     0
  9
$PSTYLEMODE
290
     1
  9
$FINGERPRINTGUID
  2

  9
$VERSIONGUID
  2
{5E121C10-90A5-4320-A687-250F4DE980B5}
  9
$EXTNAMES
290
     1
  9
$PSVPSCALE
 40
0.0
  9
$OLESTARTUP
290
     0
  0
ENDSEC
  0
SECTION
  2
CLASSES
  0
CLASS
  1
IMAGE
  2
AcDbRasterImage
  3
ISM
 90
      127
280
     0
281
     1
  0
CLASS
  1
DICTIONARYVAR
  2
AcDbDictionaryVar
  3
ObjectDBX Classes
 90
        0
280
     0
281
     0
  0
CLASS
  1
RASTERVARIABLES
  2
AcDbRasterVariables
  3
ISM
 90
        0
280
     0
281
     0
  0
CLASS
  1
IMAGEDEF
  2
AcDbRasterImageDef
  3
ISM
 90
        0
280
     0
281
     0
  0
CLASS
  1
IMAGEDEF_REACTOR
  2
AcDbRasterImageDefReactor
  3
ISM
 90
        1
280
     0
281
     0
  0
CLASS
  1
IDBUFFER
  2
AcDbIdBuffer
  3
ObjectDBX Classes
 90
        0
280
     0
281
     0
  0
CLASS
  1
SPATIAL_FILTER
  2
AcDbSpatialFilter
  3
ObjectDBX Classes
 90
        0
280
     0
281
     0
  0
CLASS
  1
SORTENTSTABLE
  2
AcDbSortentsTable
  3
ObjectDBX Classes
 90
        0
280
     0
281
     0
  0
CLASS
  1
LAYER_INDEX
  2
AcDbLayerIndex
  3
ObjectDBX Classes
 90
        0
280
     0
281
     0
  0
CLASS
  1
SPATIAL_INDEX
  2
AcDbSpatialIndex
  3
AutoCAD 2000
 90
        0
280
     0
281
     0
  0
CLASS
  1
OBJECT_PTR
  2
CAseDLPNTableRecord
  3
ASE-LPNTableRecord
 90
        1
280
     0
281
     0
  0
CLASS
  1
LAYOUT
  2
AcDbLayout
  3
ObjectDBX Classes
 90
        0
280
     0
281
     0
  0
CLASS
  1
PLOTSETTINGS
  2
AcDbPlotSettings
  3
ObjectDBX Classes
 90
        0
280
     0
281
     0
  0
CLASS
  1
ACDBDICTIONARYWDFLT
  2
AcDbDictionaryWithDefault
  3
ObjectDBX Classes
 90
        0
280
     0
281
     0
  0
CLASS
  1
ACDBPLACEHOLDER
  2
AcDbPlaceHolder
  3
ObjectDBX Classes
 90
        0
280
     0
281
     0
  0
CLASS
  1
VBA_PROJECT
  2
AcDbVbaProject
  3
ObjectDBX Classes
 90
        0
280
     0
281
     0
  0
CLASS
  1
WIPEOUT
  2
AcDbWipeout
  3
WipeOut|AutoCAD Express Tool|expresstools@autodesk.com
 90
      127
280
     0
281
     1
  0
CLASS
  1
WIPEOUTVARIABLES
  2
AcDbWipeoutVariables
  3
WipeOut|AutoCAD Express Tool|expresstools@autodesk.com
 90
        0
280
     0
281
     0
  0
CLASS
  1
RTEXT
  2
RText
  3
RText|AutoCAD Express Tool|expresstools@autodesk.com
 90
        0
280
     0
281
     1
  0
CLASS
  1
ARCALIGNEDTEXT
  2
AcDbArcAlignedText
  3
ATEXT|AutoCAD Express Tool|expresstools@autodesk.com
 90
        0
280
     0
281
     1
  0
CLASS
  1
MATERIAL
  2
AcDbMaterial
  3
ObjectDBX Classes
 90
     1153
280
     0
281
     0
  0
CLASS
  1
VISUALSTYLE
  2
AcDbVisualStyle
  3
ObjectDBX Classes
 90
     4095
280
     0
281
     0
  0
CLASS
  1
TABLESTYLE
  2
AcDbTableStyle
  3
ObjectDBX Classes
 90
     4095
280
     0
281
     0
  0
CLASS
  1
SCALE
  2
AcDbScale
  3
ObjectDBX Classes
 90
     1153
280
     0
281
     0
  0
CLASS
  1
MLEADERSTYLE
  2
AcDbMLeaderStyle
  3
ACDB_MLEADERSTYLE_CLASS
 90
     4095
280
     0
281
     0
  0
CLASS
  1
CELLSTYLEMAP
  2
AcDbCellStyleMap
  3
ObjectDBX Classes
 90
     1152
280
     0
281
     0
  0
CLASS
  1
SUN
  2
AcDbSun
  3
SCENEOE
 90
     1153
280
     0
281
     0
  0
ENDSEC
  0
SECTION
  2
TABLES
  0
TABLE
  2
VPORT
  5
7
330
0
100
AcDbSymbolTable
 70
     1
  0
VPORT
  5
15
330
7
100
AcDbSymbolTableRecord
100
AcDbViewportTableRecord
  2
*ACTIVE
 70
     0
 10
0.0
 20
0.0
 11
1.0
 21
1.0
 12
306.5037830509501
 22
-151.5525946164497
 13
0.0
 23
0.0
 14
1.0
 24
1.0
 15
0.0
 25
0.0
 16
0.0
 26
0.0
 36
1.0
 17
0.0
 27
0.0
 37
0.0
 40
434.792355183623
 41
2.584131326949384
 42
50.0
 43
0.0
 44
0.0
 50
0.0
 51
0.0
 71
    16
 72
   100
 73
     1
 74
     1
 75
     0
 76
     0
 77
     0
 78
     0
281
     0
 65
     0
110
0.0
120
0.0
130
0.0
111
1.0
121
0.0
131
0.0
112
0.0
122
1.0
132
0.0
 79
     0
146
0.0
  0
ENDTAB
  0
TABLE
  2
LTYPE
  5
4
330
0
100
AcDbSymbolTable
 70
     4
  0
LTYPE
  5
11
330
4
100
AcDbSymbolTableRecord
100
AcDbLinetypeTableRecord
  2
ByBlock
 70
     0
  3

 72
    65
 73
     0
 40
0.0
  0
LTYPE
  5
12
330
4
100
AcDbSymbolTableRecord
100
AcDbLinetypeTableRecord
  2
ByLayer
 70
     0
  3

 72
    65
 73
     0
 40
0.0
  0
LTYPE
  5
13
330
4
100
AcDbSymbolTableRecord
100
AcDbLinetypeTableRecord
  2
Continuous
 70
     0
  3
Solid line
 72
    65
 73
     0
 40
0.0
  0
LTYPE
  5
108
330
4
100
AcDbSymbolTableRecord
100
AcDbLinetypeTableRecord
  2
CENTER
 70
     0
  3
____ _ ____ _ ____ _ ____ _ ____ _ ____ _ ____
 72
    65
 73
     4
 40
2.0
 49
1.25
 74
     0
 49
-0.25
 74
     0
 49
0.25
 74
     0
 49
-0.25
 74
     0
  0
LTYPE
  5
B663
330
4
100
AcDbSymbolTableRecord
100
AcDbLinetypeTableRecord
  2
HIDDEN
 70
     0
  3
Hidden __ __ __ __ __ __ __ __ __ __ __ __ __ __
 72
    65
 73
     2
 40
1.905
 49
1.27
 74
     0
 49
-0.635
 74
     0
  0
LTYPE
  5
B664
330
4
100
AcDbSymbolTableRecord
100
AcDbLinetypeTableRecord
  2
CENTERX2
 70
     0
  3
Center (2x) ________  __  ________  __  _____
 72
    65
 73
     4
 40
20.32
 49
12.7
 74
     0
 49
-2.54
 74
     0
 49
2.54
 74
     0
 49
-2.54
 74
     0
  0
ENDTAB
  0
TABLE
  2
LAYER
  5
2
330
0
100
AcDbSymbolTable
 70
     3
  0
LAYER
  5
14
102
{ACAD_XDICTIONARY
360
5858
102
}
330
2
100
AcDbSymbolTableRecord
100
AcDbLayerTableRecord
  2
0
 70
     0
 62
     7
  6
Continuous
370
    -3
390
1D
  0
LAYER
  5
BA64
330
2
100
AcDbSymbolTableRecord
100
AcDbLayerTableRecord
  2
Defpoints
 70
     0
 62
     7
  6
Continuous
290
     0
370
    -3
390
1D
  0
LAYER
  5
C7B3
330
2
100
AcDbSymbolTableRecord
100
AcDbLayerTableRecord
  2
ASSI
 70
     0
 62
     1
  6
CENTERX2
370
    -3
390
1D
  0
ENDTAB
  0
TABLE
  2
STYLE
  5
3
330
0
100
AcDbSymbolTable
 70
    10
  0
STYLE
  5
17
330
3
100
AcDbSymbolTableRecord
100
AcDbTextStyleTableRecord
  2
Standard
 70
     0
 40
0.0
 41
1.0
 50
0.0
 71
     0
 42
0.0
  3
I011000D.TTF
  4

1001
ACAD
1000
IsonormD
1071
        0
  0
STYLE
  5
BA69
330
3
100
AcDbSymbolTableRecord
100
AcDbTextStyleTableRecord
  2
SLDTEXTSTYLE5
 70
     0
 40
0.0
 41
0.75
 50
0.0
 71
     0
 42
0.2
  3
TXT
  4

  0
STYLE
  5
BA6B
330
3
100
AcDbSymbolTableRecord
100
AcDbTextStyleTableRecord
  2
SLDTEXTSTYLE0
 70
     0
 40
0.0
 41
0.605
 50
0.0
 71
     0
 42
0.2
  3
TXT
  4

  0
STYLE
  5
BA6C
330
3
100
AcDbSymbolTableRecord
100
AcDbTextStyleTableRecord
  2
SLDTEXTSTYLE1
 70
     0
 40
0.0
 41
0.4577022077749198
 50
0.0
 71
     0
 42
0.2
  3
TXT
  4

  0
STYLE
  5
BA6D
330
3
100
AcDbSymbolTableRecord
100
AcDbTextStyleTableRecord
  2
SLDTEXTSTYLE2
 70
     0
 40
0.0
 41
0.609090909090909
 50
0.0
 71
     0
 42
0.2
  3
TXT
  4

  0
STYLE
  5
BA6E
330
3
100
AcDbSymbolTableRecord
100
AcDbTextStyleTableRecord
  2
SLDTEXTSTYLE3
 70
     0
 40
0.0
 41
0.7
 50
0.0
 71
     0
 42
0.2
  3
TXT
  4

  0
STYLE
  5
BA6F
330
3
100
AcDbSymbolTableRecord
100
AcDbTextStyleTableRecord
  2
SLDTEXTSTYLE4
 70
     0
 40
0.0
 41
0.57
 50
0.0
 71
     0
 42
0.2
  3
TXT
  4

  0
STYLE
  5
BA70
330
3
100
AcDbSymbolTableRecord
100
AcDbTextStyleTableRecord
  2
SLDTEXTSTYLE6
 70
     0
 40
0.0
 41
0.5053081188670516
 50
0.0
 71
     0
 42
0.2
  3
TXT
  4

  0
STYLE
  5
BA71
330
3
100
AcDbSymbolTableRecord
100
AcDbTextStyleTableRecord
  2
SLDTEXTSTYLE7
 70
     0
 40
0.0
 41
0.7
 50
0.0
 71
     0
 42
0.2
  3
TXT
  4
bigfont
  0
STYLE
  5
C58B
330
3
100
AcDbSymbolTableRecord
100
AcDbTextStyleTableRecord
  2
stile3
 70
     0
 40
2.0
 41
1.0
 50
0.0
 71
     0
 42
2.0
  3
romans.shx
  4

  0
ENDTAB
  0
TABLE
  2
VIEW
  5
5
330
0
100
AcDbSymbolTable
 70
     0
  0
ENDTAB
  0
TABLE
  2
UCS
  5
6
330
0
100
AcDbSymbolTable
 70
     0
  0
ENDTAB
  0
TABLE
  2
APPID
  5
8
330
0
100
AcDbSymbolTable
 70
     6
  0
APPID
  5
16
330
8
100
AcDbSymbolTableRecord
100
AcDbRegAppTableRecord
  2
ACAD
 70
     0
  0
APPID
  5
26
330
8
100
AcDbSymbolTableRecord
100
AcDbRegAppTableRecord
  2
TopSolid'Draft
 70
     0
  0
APPID
  5
5850
330
8
100
AcDbSymbolTableRecord
100
AcDbRegAppTableRecord
  2
ACAD_MLEADERVER
 70
     0
  0
APPID
  5
5856
330
8
100
AcDbSymbolTableRecord
100
AcDbRegAppTableRecord
  2
DCO15
 70
     0
  0
APPID
  5
B63D
330
8
100
AcDbSymbolTableRecord
100
AcDbRegAppTableRecord
  2
ACAD_EXEMPT_FROM_CAD_STANDARDS
 70
     0
  0
APPID
  5
C58A
330
8
100
AcDbSymbolTableRecord
100
AcDbRegAppTableRecord
  2
ACAD_PSEXT
 70
     0
  0
ENDTAB
  0
TABLE
  2
DIMSTYLE
  5
9
330
0
100
AcDbSymbolTable
 70
     4
100
AcDbDimStyleTable
  0
DIMSTYLE
105
18
330
9
100
AcDbSymbolTableRecord
100
AcDbDimStyleTableRecord
  2
Standard
 70
     0
 41
1.25
 42
0.0
 44
0.75
 73
     0
 74
     0
 77
     1
140
2.5
146
0.8
147
1.25
176
     7
177
     7
271
     2
178
     7
271
     2
340
17
  0
DIMSTYLE
105
B665
330
9
100
AcDbSymbolTableRecord
100
AcDbDimStyleTableRecord
  2
ISO-25
 70
     0
 41
2.5
 42
0.625
 43
3.75
 44
1.25
 73
     0
 74
     0
 77
     1
 78
     8
140
2.5
141
2.5
143
0.0393700787
147
0.625
171
     3
172
     1
178
     0
271
     2
272
     2
274
     3
278
    44
283
     0
284
     8
340
17
  0
DIMSTYLE
105
BA68
330
9
100
AcDbSymbolTableRecord
100
AcDbDimStyleTableRecord
  2
SLDDIMSTYLE0
 70
     0
 41
3.2
 44
0.0
 45
0.000000001
 73
     0
 74
     0
 77
     1
 78
    12
 79
     3
140
3.2
147
0.8
173
     1
178
     0
271
     2
272
     2
276
     2
284
    12
340
BA69
  0
DIMSTYLE
105
BA6A
330
9
100
AcDbSymbolTableRecord
100
AcDbDimStyleTableRecord
  2
SLDDIMSTYLE1
 70
     0
 41
3.2
 44
0.0
 45
0.000000001
 73
     0
 74
     0
 77
     1
 78
    12
 79
     3
140
3.2
147
0.8
172
     1
173
     1
178
     0
271
     2
272
     2
276
     2
284
    12
289
     0
340
BA69
  0
ENDTAB
  0
TABLE
  2
BLOCK_RECORD
  5
1
330
0
100
AcDbSymbolTable
 70
    19
  0
BLOCK_RECORD
  5
A
102
{ACAD_XDICTIONARY
360
5864
102
}
330
1
100
AcDbSymbolTableRecord
100
AcDbBlockTableRecord
  2
*MODEL_SPACE
340
20
  0
BLOCK_RECORD
  5
B
330
1
100
AcDbSymbolTableRecord
100
AcDbBlockTableRecord
  2
*PAPER_SPACE
340
21
  0
BLOCK_RECORD
  5
B68D
330
1
100
AcDbSymbolTableRecord
100
AcDbBlockTableRecord
  2
SW_CENTERMARKSYMBOL_0
340
0
102
{BLKREFS
331
D0B8
102
}
  0
BLOCK_RECORD
  5
B70F
330
1
100
AcDbSymbolTableRecord
100
AcDbBlockTableRecord
  2
SW_CENTERMARKSYMBOL_1
340
0
  0
BLOCK_RECORD
  5
BAF0
330
1
100
AcDbSymbolTableRecord
100
AcDbBlockTableRecord
  2
SW_NOTE_0
340
0
  0
BLOCK_RECORD
  5
BAFC
330
1
100
AcDbSymbolTableRecord
100
AcDbBlockTableRecord
  2
SW_NOTE_1
340
0
  0
BLOCK_RECORD
  5
BB18
330
1
100
AcDbSymbolTableRecord
100
AcDbBlockTableRecord
  2
SW_NOTE_2
340
0
  0
BLOCK_RECORD
  5
BB25
330
1
100
AcDbSymbolTableRecord
100
AcDbBlockTableRecord
  2
SW_NOTE_3
340
0
  0
BLOCK_RECORD
  5
BB2C
330
1
100
AcDbSymbolTableRecord
100
AcDbBlockTableRecord
  2
SW_NOTE_4
340
0
  0
BLOCK_RECORD
  5
BB33
330
1
100
AcDbSymbolTableRecord
100
AcDbBlockTableRecord
  2
SW_NOTE_5
340
0
  0
BLOCK_RECORD
  5
BB9B
330
1
100
AcDbSymbolTableRecord
100
AcDbBlockTableRecord
  2
_D
340
0
  0
BLOCK_RECORD
  5
BBA8
330
1
100
AcDbSymbolTableRecord
100
AcDbBlockTableRecord
  2
_D_1
340
0
  0
BLOCK_RECORD
  5
BBB8
330
1
100
AcDbSymbolTableRecord
100
AcDbBlockTableRecord
  2
_D_2
340
0
  0
BLOCK_RECORD
  5
BC1D
330
1
100
AcDbSymbolTableRecord
100
AcDbBlockTableRecord
  2
_D_3
340
0
  0
BLOCK_RECORD
  5
BC2A
330
1
100
AcDbSymbolTableRecord
100
AcDbBlockTableRecord
  2
_D_4
340
0
  0
BLOCK_RECORD
  5
BC3A
330
1
100
AcDbSymbolTableRecord
100
AcDbBlockTableRecord
  2
_D_5
340
0
  0
BLOCK_RECORD
  5
D0D7
330
1
100
AcDbSymbolTableRecord
100
AcDbBlockTableRecord
  2
*D14
340
0
  0
BLOCK_RECORD
  5
DF0D
102
{ACAD_XDICTIONARY
360
DF0E
102
}
330
1
100
AcDbSymbolTableRecord
100
AcDbBlockTableRecord
  2
A$C13380
340
0
  0
BLOCK_RECORD
  5
DFD3
330
1
100
AcDbSymbolTableRecord
100
AcDbBlockTableRecord
  2
A$C23850
340
0
  0
BLOCK_RECORD
  5
E052
102
{ACAD_XDICTIONARY
360
E053
102
}
330
1
100
AcDbSymbolTableRecord
100
AcDbBlockTableRecord
  2
A$C13358
340
0
  0
ENDTAB
  0
ENDSEC
  0
SECTION
  2
BLOCKS
  0
BLOCK
  5
D
330
A
100
AcDbEntity
  8
0
100
AcDbBlockBegin
  2
*MODEL_SPACE
 70
     0
 10
0.0
 20
0.0
 30
0.0
  3
*MODEL_SPACE
  1
*MODEL_SPACE
  0
ENDBLK
  5
E
330
A
100
AcDbEntity
  8
0
100
AcDbBlockEnd
  0
BLOCK
  5
F
330
B
100
AcDbEntity
 67
     1
  8
0
100
AcDbBlockBegin
  2
*PAPER_SPACE
 70
     0
 10
0.0
 20
0.0
 30
0.0
  3
*PAPER_SPACE
  1
*PAPER_SPACE
  0
ENDBLK
  5
10
330
B
100
AcDbEntity
 67
     1
  8
0
100
AcDbBlockEnd
  0
BLOCK
  5
B68E
330
B68D
100
AcDbEntity
  8
0
100
AcDbBlockBegin
  2
SW_CENTERMARKSYMBOL_0
 70
     0
 10
0.0
 20
0.0
 30
0.0
  3
SW_CENTERMARKSYMBOL_0
  1
SW_CENTERMARKSYMBOL_0
  0
LINE
  5
B68F
330
B68D
100
AcDbEntity
  8
0
  6
Continuous
 62
     0
370
     0
100
AcDbLine
 10
0.0
 20
0.0
 30
0.0
 11
0.0
 21
5.0
 31
0.0
  0
LINE
  5
B690
330
B68D
100
AcDbEntity
  8
0
  6
Continuous
 62
     0
370
     0
100
AcDbLine
 10
0.0
 20
0.0
 30
0.0
 11
-5.0
 21
0.0
 31
0.0
  0
LINE
  5
B691
330
B68D
100
AcDbEntity
  8
0
  6
Continuous
 62
     0
370
     0
100
AcDbLine
 10
0.0
 20
0.0
 30
0.0
 11
0.0
 21
-5.0
 31
0.0
  0
LINE
  5
B692
330
B68D
100
AcDbEntity
  8
0
  6
Continuous
 62
     0
370
     0
100
AcDbLine
 10
0.0
 20
0.0
 30
0.0
 11
5.0
 21
0.0
 31
0.0
  0
LINE
  5
B693
330
B68D
100
AcDbEntity
  8
0
  6
Continuous
 62
     0
370
     0
100
AcDbLine
 10
0.0
 20
10.0
 30
0.0
 11
0.0
 21
14.9999999999
 31
0.0
  0
LINE
  5
B694
330
B68D
100
AcDbEntity
  8
0
  6
Continuous
 62
     0
370
     0
100
AcDbLine
 10
-10.0
 20
0.0
 30
0.0
 11
-14.9999999999
 21
0.0
 31
0.0
  0
LINE
  5
B695
330
B68D
100
AcDbEntity
  8
0
  6
Continuous
 62
     0
370
     0
100
AcDbLine
 10
0.0
 20
-10.0
 30
0.0
 11
0.0
 21
-14.9999999999
 31
0.0
  0
LINE
  5
B696
330
B68D
100
AcDbEntity
  8
0
  6
Continuous
 62
     0
370
     0
100
AcDbLine
 10
10.0
 20
0.0
 30
0.0
 11
14.9999999999
 21
0.0
 31
0.0
  0
ENDBLK
  5
B697
330
B68D
100
AcDbEntity
  8
0
100
AcDbBlockEnd
  0
BLOCK
  5
B710
330
B70F
100
AcDbEntity
  8
0
100
AcDbBlockBegin
  2
SW_CENTERMARKSYMBOL_1
 70
     0
 10
0.0
 20
0.0
 30
0.0
  3
SW_CENTERMARKSYMBOL_1
  1
SW_CENTERMARKSYMBOL_1
  0
LINE
  5
B711
330
B70F
100
AcDbEntity
  8
0
  6
Continuous
 62
     0
370
     0
100
AcDbLine
 10
0.0
 20
0.0
 30
0.0
 11
0.0
 21
5.0
 31
0.0
  0
LINE
  5
B712
330
B70F
100
AcDbEntity
  8
0
  6
Continuous
 62
     0
370
     0
100
AcDbLine
 10
0.0
 20
0.0
 30
0.0
 11
-5.0
 21
0.0
 31
0.0
  0
LINE
  5
B713
330
B70F
100
AcDbEntity
  8
0
  6
Continuous
 62
     0
370
     0
100
AcDbLine
 10
0.0
 20
0.0
 30
0.0
 11
0.0
 21
-5.0
 31
0.0
  0
LINE
  5
B714
330
B70F
100
AcDbEntity
  8
0
  6
Continuous
 62
     0
370
     0
100
AcDbLine
 10
0.0
 20
0.0
 30
0.0
 11
5.0
 21
0.0
 31
0.0
  0
LINE
  5
B715
330
B70F
100
AcDbEntity
  8
0
  6
Continuous
 62
     0
370
     0
100
AcDbLine
 10
0.0
 20
5.0
 30
0.0
 11
0.0
 21
9.3
 31
0.0
  0
LINE
  5
B716
330
B70F
100
AcDbEntity
  8
0
  6
Continuous
 62
     0
370
     0
100
AcDbLine
 10
-5.0
 20
0.0
 30
0.0
 11
-9.3
 21
0.0
 31
0.0
  0
LINE
  5
B717
330
B70F
100
AcDbEntity
  8
0
  6
Continuous
 62
     0
370
     0
100
AcDbLine
 10
0.0
 20
-5.0
 30
0.0
 11
0.0
 21
-9.3
 31
0.0
  0
LINE
  5
B718
330
B70F
100
AcDbEntity
  8
0
  6
Continuous
 62
     0
370
     0
100
AcDbLine
 10
5.0
 20
0.0
 30
0.0
 11
9.3
 21
0.0
 31
0.0
  0
ENDBLK
  5
B719
330
B70F
100
AcDbEntity
  8
0
100
AcDbBlockEnd
  0
BLOCK
  5
BAF1
330
BAF0
100
AcDbEntity
  8
0
100
AcDbBlockBegin
  2
SW_NOTE_0
 70
     0
 10
0.0
 20
0.0
 30
0.0
  3
SW_NOTE_0
  1
SW_NOTE_0
  0
MTEXT
  5
BAF2
330
BAF0
100
AcDbEntity
  8
0
  6
Continuous
 62
     0
370
     0
100
AcDbMText
 10
0.0
 20
2.387460876369325
 30
0.0
 40
1.852083333333333
 41
0.0
 71
     1
 72
     1
  1
FINITURA
  7
SLDTEXTSTYLE0
 73
     1
 44
1.0
  0
MTEXT
  5
BAF3
330
BAF0
100
AcDbEntity
  8
0
  6
Continuous
 62
     0
370
     0
100
AcDbMText
 10
0.0
 20
-0.0819835382314046
 30
0.0
 40
1.852083333333333
 41
0.0
 71
     1
 72
     1
  1
SPECIFICA:
  7
SLDTEXTSTYLE0
 73
     1
 44
1.0
  0
ENDBLK
  5
BAF4
330
BAF0
100
AcDbEntity
  8
0
100
AcDbBlockEnd
  0
BLOCK
  5
BAFD
330
BAFC
100
AcDbEntity
  8
0
100
AcDbBlockBegin
  2
SW_NOTE_1
 70
     0
 10
0.0
 20
0.0
 30
0.0
  3
SW_NOTE_1
  1
SW_NOTE_1
  0
MTEXT
  5
BAFE
330
BAFC
100
AcDbEntity
  8
0
  6
Continuous
 62
     0
370
     0
100
AcDbMText
 10
0.0
 20
2.387460876369325
 30
0.0
 40
1.852083333333333
 41
0.0
 71
     1
 72
     1
  1
CROMATURA
  7
SLDTEXTSTYLE0
 73
     1
 44
1.0
  0
MTEXT
  5
BAFF
330
BAFC
100
AcDbEntity
  8
0
  6
Continuous
 62
     0
370
     0
100
AcDbMText
 10
0.0
 20
-0.0819835382314046
 30
0.0
 40
1.852083333333333
 41
0.0
 71
     1
 72
     1
  1
A KANBAN
  7
SLDTEXTSTYLE0
 73
     1
 44
1.0
  0
ENDBLK
  5
BB00
330
BAFC
100
AcDbEntity
  8
0
100
AcDbBlockEnd
  0
BLOCK
  5
BB19
330
BB18
100
AcDbEntity
  8
0
100
AcDbBlockBegin
  2
SW_NOTE_2
 70
     0
 10
0.0
 20
0.0
 30
0.0
  3
SW_NOTE_2
  1
SW_NOTE_2
  0
LINE
  5
BB1A
330
BB18
100
AcDbEntity
  8
0
  6
Continuous
 62
     0
370
     0
100
AcDbLine
 10
-3.046602633579976
 20
-18.97455793511649
 30
0.0
 11
-3.046602633579976
 21
3.709527575572358
 31
0.0
  0
LINE
  5
BB1B
330
BB18
100
AcDbEntity
  8
0
  6
Continuous
 62
     0
370
     0
100
AcDbLine
 10
-3.046602633579976
 20
3.709527575572358
 30
0.0
 11
25.45696031178818
 21
3.709527575572358
 31
0.0
  0
LINE
  5
BB1C
330
BB18
100
AcDbEntity
  8
0
  6
Continuous
 62
     0
370
     0
100
AcDbLine
 10
25.45696031178818
 20
3.709527575572358
 30
0.0
 11
25.45696031178818
 21
-18.97455793511649
 31
0.0
  0
LINE
  5
BB1D
330
BB18
100
AcDbEntity
  8
0
  6
Continuous
 62
     0
370
     0
100
AcDbLine
 10
25.45696031178818
 20
-18.97455793511649
 30
0.0
 11
-3.046602633579976
 21
-18.97455793511649
 31
0.0
  0
MTEXT
  5
BB1E
330
BB18
100
AcDbEntity
  8
0
  6
Continuous
 62
     0
370
     0
100
AcDbMText
 10
10.54374999999999
 20
3.609389671361485
 30
0.0
 40
2.8
 41
0.0
 71
     2
 72
     1
  1
VALIDO PER
  7
SLDTEXTSTYLE5
 73
     1
 44
1.0
  0
MTEXT
  5
BB1F
330
BB18
100
AcDbEntity
  8
0
  6
Continuous
 62
     0
370
     0
100
AcDbMText
 10
11.19027741849421
 20
-0.1906105673364911
 30
0.0
 40
2.8
 41
0.0
 71
     2
 72
     1
  1
PRODUZIONE
  7
SLDTEXTSTYLE5
 73
     1
 44
1.0
  0
MTEXT
  5
BB20
330
BB18
100
AcDbEntity
  8
0
  6
Continuous
 62
     0
370
     0
100
AcDbMText
 10
10.97444543242454
 20
-3.990610631411484
 30
0.0
 40
2.8
 41
0.0
 71
     2
 72
     1
  1
12/02/2013
  7
SLDTEXTSTYLE5
 73
     1
 44
1.0
  0
ENDBLK
  5
BB21
330
BB18
100
AcDbEntity
  8
0
100
AcDbBlockEnd
  0
BLOCK
  5
BB26
330
BB25
100
AcDbEntity
  8
0
100
AcDbBlockBegin
  2
SW_NOTE_3
 70
     0
 10
0.0
 20
0.0
 30
0.0
  3
SW_NOTE_3
  1
SW_NOTE_3
  0
MTEXT
  5
BB27
330
BB25
100
AcDbEntity
  8
0
  6
Continuous
 62
     0
370
     0
100
AcDbMText
 10
0.0
 20
2.728526715850658
 30
0.0
 40
2.116666666666666
 41
0.0
 71
     1
 72
     1
  1
Approvato:
  7
SLDTEXTSTYLE0
 73
     1
 44
1.0
  0
MTEXT
  5
BB28
330
BB25
100
AcDbEntity
  8
0
  6
Continuous
 62
     0
370
     0
100
AcDbMText
 10
15.84560198038817
 20
2.728526715850658
 30
0.0
 40
2.116666666666666
 41
0.0
 71
     1
 72
     1
  1
A. Biasotti
  7
SLDTEXTSTYLE0
 73
     1
 44
1.0
  0
ENDBLK
  5
BB29
330
BB25
100
AcDbEntity
  8
0
100
AcDbBlockEnd
  0
BLOCK
  5
BB2D
330
BB2C
100
AcDbEntity
  8
0
100
AcDbBlockBegin
  2
SW_NOTE_4
 70
     0
 10
0.0
 20
0.0
 30
0.0
  3
SW_NOTE_4
  1
SW_NOTE_4
  0
MTEXT
  5
BB2E
330
BB2C
100
AcDbEntity
  8
0
  6
Continuous
 62
     0
370
     0
100
AcDbMText
 10
0.0
 20
2.449228705566728
 30
0.0
 40
1.9
 41
0.0
 71
     1
 72
     1
  1
Dimensioni in mm   -
  7
SLDTEXTSTYLE0
 73
     1
 44
1.0
  0
MTEXT
  5
BB2F
330
BB2C
100
AcDbEntity
  8
0
  6
Continuous
 62
     0
370
     0
100
AcDbMText
 10
25.96666663885117
 20
2.449228705566728
 30
0.0
 40
1.9
 41
0.0
 71
     1
 72
     1
  1
NB
  7
SLDTEXTSTYLE0
 73
     1
 44
1.0
  0
MTEXT
  5
BB30
330
BB2C
100
AcDbEntity
  8
0
  6
Continuous
 62
     0
370
     0
100
AcDbMText
 10
29.73500080406666
 20
2.449228705566728
 30
0.0
 40
1.9
 41
0.0
 71
     1
 72
     1
  1
:  LE QUOTE INDICATE A DISEGNO SI RIFERISCONO ALLA LAVORAZIONE MECCANICA. - PRIMA DEI TRATTAMENTI SUPERFICIALI
  7
SLDTEXTSTYLE0
 73
     1
 44
1.0
  0
ENDBLK
  5
BB31
330
BB2C
100
AcDbEntity
  8
0
100
AcDbBlockEnd
  0
BLOCK
  5
BB34
330
BB33
100
AcDbEntity
  8
0
100
AcDbBlockBegin
  2
SW_NOTE_5
 70
     0
 10
0.0
 20
0.0
 30
0.0
  3
SW_NOTE_5
  1
SW_NOTE_5
  0
MTEXT
  5
BB35
330
BB33
100
AcDbEntity
  8
0
  6
Continuous
 62
     0
370
     0
100
AcDbMText
 10
0.0
 20
6.139185110663983
 30
0.0
 40
4.762499999999999
 41
0.0
 71
     1
 72
     1
  1
Lo studio di fattibilità fa riferimento alla sola possibilità da parte di Colcom
  7
SLDTEXTSTYLE3
 73
     1
 44
1.0
  0
MTEXT
  5
BB36
330
BB33
100
AcDbEntity
  8
0
  6
Continuous
 62
     0
370
     0
100
AcDbMText
 10
0.0
 20
-0.2108148125950365
 30
0.0
 40
4.762499999999999
 41
0.0
 71
     1
 72
     1
  1
per quanto riguarda la realizzazione.
  7
SLDTEXTSTYLE3
 73
     1
 44
1.0
  0
MTEXT
  5
BB37
330
BB33
100
AcDbEntity
  8
0
  6
Continuous
 62
     0
370
     0
100
AcDbMText
 10
0.0
 20
-6.560814735854057
 30
0.0
 40
4.762499999999999
 41
0.0
 71
     1
 72
     1
  1
Non è stata considerata nello studio la struttura portante e l\M+18166 applicazione in
  7
SLDTEXTSTYLE7
 73
     1
 44
1.0
  0
MTEXT
  5
BB38
330
BB33
100
AcDbEntity
  8
0
  6
Continuous
 62
     0
370
     0
100
AcDbMText
 10
0.0
 20
-12.91081465911308
 30
0.0
 40
4.762499999999999
 41
0.0
 71
     1
 72
     1
  1
cui viene impiegato il prodotto, che resta a carico del cliente.
  7
SLDTEXTSTYLE3
 73
     1
 44
1.0
  0
ENDBLK
  5
BB39
330
BB33
100
AcDbEntity
  8
0
100
AcDbBlockEnd
  0
BLOCK
  5
BB9C
330
BB9B
100
AcDbEntity
  8
0
100
AcDbBlockBegin
  2
_D
 70
     0
 10
0.0
 20
0.0
 30
0.0
  3
_D
  1
_D
  0
LINE
  5
BB9D
330
BB9B
100
AcDbEntity
  8
0
  6
Continuous
 62
     0
370
    -2
100
AcDbLine
 10
-446.0124629378164
 20
279.6134080272748
 30
0.0
 11
-454.5617019061538
 21
279.6134080272748
 31
0.0
  0
LINE
  5
BB9E
330
BB9B
100
AcDbEntity
  8
0
  6
Continuous
 62
     0
370
    -2
100
AcDbLine
 10
-443.5124629378164
 20
306.6134080272748
 30
0.0
 11
-454.5617019061539
 21
306.6134080272747
 31
0.0
  0
LINE
  5
BB9F
330
BB9B
100
AcDbEntity
  8
0
  6
Continuous
 62
     0
370
    -2
100
AcDbLine
 10
-454.5617019061538
 20
282.8134080272748
 30
0.0
 11
-454.5617019061539
 21
303.4134080272747
 31
0.0
  0
SOLID
  5
BBA0
330
BB9B
100
AcDbEntity
  8
0
 62
     0
100
AcDbTrace
 10
-455.0950352394871
 20
282.8134080272748
 30
0.0
 11
-454.0283685728204
 21
282.8134080272748
 31
0.0
 12
-454.5617019061538
 22
279.6134080272748
 32
0.0
 13
-454.5617019061538
 23
279.6134080272748
 33
0.0
  0
SOLID
  5
BBA1
330
BB9B
100
AcDbEntity
  8
0
 62
     0
100
AcDbTrace
 10
-454.0283685728205
 20
303.4134080272747
 30
0.0
 11
-455.0950352394872
 21
303.4134080272747
 31
0.0
 12
-454.5617019061539
 22
306.6134080272747
 32
0.0
 13
-454.5617019061539
 23
306.6134080272747
 33
0.0
  0
MTEXT
  5
BBA2
330
BB9B
100
AcDbEntity
  8
0
  6
Continuous
 62
     0
370
     0
100
AcDbMText
 10
-458.5617019061539
 20
294.2973324769394
 30
0.0
 40
3.2
 41
0.0
 71
     2
 72
     1
  1
\A1;27
  7
SLDTEXTSTYLE5
 11
-4.210623619319121E-15
 21
1.0
 31
0.0
 73
     1
 44
1.0
  0
POINT
  5
BBA3
330
BB9B
100
AcDbEntity
  8
Defpoints
 62
     0
100
AcDbPoint
 10
-445.9499629378164
 20
279.6134080272748
 30
0.0
  0
POINT
  5
BBA4
330
BB9B
100
AcDbEntity
  8
Defpoints
 62
     0
100
AcDbPoint
 10
-443.4499629378164
 20
306.6134080272748
 30
0.0
  0
POINT
  5
BBA5
330
BB9B
100
AcDbEntity
  8
Defpoints
 62
     0
100
AcDbPoint
 10
-454.5617019061539
 20
306.6134080272747
 30
0.0
  0
ENDBLK
  5
BBA6
330
BB9B
100
AcDbEntity
  8
0
100
AcDbBlockEnd
  0
BLOCK
  5
BBA9
330
BBA8
100
AcDbEntity
  8
0
100
AcDbBlockBegin
  2
_D_1
 70
     0
 10
0.0
 20
0.0
 30
0.0
  3
_D_1
  1
_D_1
  0
LINE
  5
BBAA
330
BBA8
100
AcDbEntity
  8
0
  6
Continuous
 62
     0
370
    -2
100
AcDbLine
 10
-441.4499629378164
 20
332.3759080272748
 30
0.0
 11
-441.4499629378164
 21
343.1134080272748
 31
0.0
  0
LINE
  5
BBAB
330
BBA8
100
AcDbEntity
  8
0
  6
Continuous
 62
     0
370
    -2
100
AcDbLine
 10
-431.4499629378164
 20
332.3759080272748
 30
0.0
 11
-431.4499629378164
 21
343.1134080272748
 31
0.0
  0
LINE
  5
BBAC
330
BBA8
100
AcDbEntity
  8
0
  6
Continuous
 62
     0
370
    -2
100
AcDbLine
 10
-431.4499629378164
 20
343.1134080272748
 30
0.0
 11
-415.8499629378164
 21
343.1134080272748
 31
0.0
  0
LINE
  5
BBAD
330
BBA8
100
AcDbEntity
  8
0
  6
Continuous
 62
     0
370
    -2
100
AcDbLine
 10
-441.4499629378164
 20
343.1134080272748
 30
0.0
 11
-431.4499629378164
 21
343.1134080272748
 31
0.0
  0
LINE
  5
BBAE
330
BBA8
100
AcDbEntity
  8
0
  6
Continuous
 62
     0
370
    -2
100
AcDbLine
 10
-441.4499629378164
 20
343.1134080272748
 30
0.0
 11
-447.8499629378164
 21
343.1134080272748
 31
0.0
  0
LINE
  5
BBAF
330
BBA8
100
AcDbEntity
  8
0
  6
Continuous
 62
     0
370
    -2
100
AcDbLine
 10
-431.4499629378164
 20
343.1134080272748
 30
0.0
 11
-425.0499629378164
 21
343.1134080272748
 31
0.0
  0
SOLID
  5
BBB0
330
BBA8
100
AcDbEntity
  8
0
 62
     0
100
AcDbTrace
 10
-444.6499629378164
 20
342.5800746939415
 30
0.0
 11
-444.6499629378164
 21
343.6467413606082
 31
0.0
 12
-441.4499629378164
 22
343.1134080272748
 32
0.0
 13
-441.4499629378164
 23
343.1134080272748
 33
0.0
  0
SOLID
  5
BBB1
330
BBA8
100
AcDbEntity
  8
0
 62
     0
100
AcDbTrace
 10
-428.2499629378164
 20
343.6467413606082
 30
0.0
 11
-428.2499629378164
 21
342.5800746939415
 31
0.0
 12
-431.4499629378164
 22
343.1134080272748
 32
0.0
 13
-431.4499629378164
 23
343.1134080272748
 33
0.0
  0
MTEXT
  5
BBB2
330
BBA8
100
AcDbEntity
  8
0
  6
Continuous
 62
     0
370
     0
100
AcDbMText
 10
-420.4499629378164
 20
347.1134080272749
 30
0.0
 40
3.2
 41
0.0
 71
     2
 72
     1
  1
\A1;8÷10
  7
SLDTEXTSTYLE5
 73
     1
 44
1.0
  0
POINT
  5
BBB3
330
BBA8
100
AcDbEntity
  8
Defpoints
 62
     0
100
AcDbPoint
 10
-441.4499629378164
 20
332.3134080272748
 30
0.0
  0
POINT
  5
BBB4
330
BBA8
100
AcDbEntity
  8
Defpoints
 62
     0
100
AcDbPoint
 10
-431.4499629378164
 20
332.3134080272748
 30
0.0
  0
POINT
  5
BBB5
330
BBA8
100
AcDbEntity
  8
Defpoints
 62
     0
100
AcDbPoint
 10
-431.4499629378164
 20
343.1134080272748
 30
0.0
  0
ENDBLK
  5
BBB6
330
BBA8
100
AcDbEntity
  8
0
100
AcDbBlockEnd
  0
BLOCK
  5
BBB9
330
BBB8
100
AcDbEntity
  8
0
100
AcDbBlockBegin
  2
_D_2
 70
     0
 10
0.0
 20
0.0
 30
0.0
  3
_D_2
  1
_D_2
  0
LINE
  5
BBBA
330
BBB8
100
AcDbEntity
  8
0
  6
Continuous
 62
     0
370
    -2
100
AcDbLine
 10
-421.9499629378164
 20
280.0509080272748
 30
0.0
 11
-421.9499629378164
 21
270.1314537932682
 31
0.0
  0
LINE
  5
BBBB
330
BBB8
100
AcDbEntity
  8
0
  6
Continuous
 62
     0
370
    -2
100
AcDbLine
 10
-446.4499629378164
 20
280.0509080272748
 30
0.0
 11
-446.4499629378164
 21
270.1314537932682
 31
0.0
  0
LINE
  5
BBBC
330
BBB8
100
AcDbEntity
  8
0
  6
Continuous
 62
     0
370
    -2
100
AcDbLine
 10
-425.1499629378164
 20
270.1314537932682
 30
0.0
 11
-443.2499629378164
 21
270.1314537932682
 31
0.0
  0
SOLID
  5
BBBD
330
BBB8
100
AcDbEntity
  8
0
 62
     0
100
AcDbTrace
 10
-425.1499629378164
 20
269.5981204599348
 30
0.0
 11
-425.1499629378164
 21
270.6647871266015
 31
0.0
 12
-421.9499629378164
 22
270.1314537932682
 32
0.0
 13
-421.9499629378164
 23
270.1314537932682
 33
0.0
  0
SOLID
  5
BBBE
330
BBB8
100
AcDbEntity
  8
0
 62
     0
100
AcDbTrace
 10
-443.2499629378164
 20
270.6647871266015
 30
0.0
 11
-443.2499629378164
 21
269.5981204599348
 31
0.0
 12
-446.4499629378164
 22
270.1314537932682
 32
0.0
 13
-446.4499629378164
 23
270.1314537932682
 33
0.0
  0
MTEXT
  5
BBBF
330
BBB8
100
AcDbEntity
  8
0
  6
Continuous
 62
     0
370
     0
100
AcDbMText
 10
-434.4904613911724
 20
274.1314537932682
 30
0.0
 40
3.2
 41
0.0
 71
     2
 72
     1
  1
\A1;24.5
  7
SLDTEXTSTYLE5
 73
     1
 44
1.0
  0
POINT
  5
BBC0
330
BBB8
100
AcDbEntity
  8
Defpoints
 62
     0
100
AcDbPoint
 10
-421.9499629378164
 20
280.1134080272748
 30
0.0
  0
POINT
  5
BBC1
330
BBB8
100
AcDbEntity
  8
Defpoints
 62
     0
100
AcDbPoint
 10
-446.4499629378164
 20
280.1134080272748
 30
0.0
  0
POINT
  5
BBC2
330
BBB8
100
AcDbEntity
  8
Defpoints
 62
     0
100
AcDbPoint
 10
-446.4499629378164
 20
270.1314537932682
 30
0.0
  0
ENDBLK
  5
BBC3
330
BBB8
100
AcDbEntity
  8
0
100
AcDbBlockEnd
  0
BLOCK
  5
BC1E
330
BC1D
100
AcDbEntity
  8
0
100
AcDbBlockBegin
  2
_D_3
 70
     0
 10
0.0
 20
0.0
 30
0.0
  3
_D_3
  1
_D_3
  0
LINE
  5
BC1F
330
BC1D
100
AcDbEntity
  8
0
  6
Continuous
 62
     0
370
    -2
100
AcDbLine
 10
-391.095042145525
 20
279.6134080272748
 30
0.0
 11
-398.1152715411484
 21
279.6134080272748
 31
0.0
  0
LINE
  5
BC20
330
BC1D
100
AcDbEntity
  8
0
  6
Continuous
 62
     0
370
    -2
100
AcDbLine
 10
-388.595042145525
 20
306.6134080272748
 30
0.0
 11
-398.1152715411486
 21
306.6134080272748
 31
0.0
  0
LINE
  5
BC21
330
BC1D
100
AcDbEntity
  8
0
  6
Continuous
 62
     0
370
    -2
100
AcDbLine
 10
-398.1152715411484
 20
282.8134080272748
 30
0.0
 11
-398.1152715411486
 21
303.4134080272748
 31
0.0
  0
SOLID
  5
BC22
330
BC1D
100
AcDbEntity
  8
0
 62
     0
100
AcDbTrace
 10
-398.6486048744818
 20
282.8134080272748
 30
0.0
 11
-397.5819382078151
 21
282.8134080272748
 31
0.0
 12
-398.1152715411484
 22
279.6134080272748
 32
0.0
 13
-398.1152715411484
 23
279.6134080272748
 33
0.0
  0
SOLID
  5
BC23
330
BC1D
100
AcDbEntity
  8
0
 62
     0
100
AcDbTrace
 10
-397.5819382078152
 20
303.4134080272748
 30
0.0
 11
-398.6486048744819
 21
303.4134080272748
 31
0.0
 12
-398.1152715411486
 22
306.6134080272748
 32
0.0
 13
-398.1152715411486
 23
306.6134080272748
 33
0.0
  0
MTEXT
  5
BC24
330
BC1D
100
AcDbEntity
  8
0
  6
Continuous
 62
     0
370
     0
100
AcDbMText
 10
-402.1152715411486
 20
293.1287707561901
 30
0.0
 40
3.2
 41
0.0
 71
     2
 72
     1
  1
\A1;27
  7
SLDTEXTSTYLE5
 11
-4.210623619319130E-15
 21
1.0
 31
0.0
 73
     1
 44
1.0
  0
POINT
  5
BC25
330
BC1D
100
AcDbEntity
  8
Defpoints
 62
     0
100
AcDbPoint
 10
-391.032542145525
 20
279.6134080272748
 30
0.0
  0
POINT
  5
BC26
330
BC1D
100
AcDbEntity
  8
Defpoints
 62
     0
100
AcDbPoint
 10
-388.532542145525
 20
306.6134080272748
 30
0.0
  0
POINT
  5
BC27
330
BC1D
100
AcDbEntity
  8
Defpoints
 62
     0
100
AcDbPoint
 10
-398.1152715411486
 20
306.6134080272747
 30
0.0
  0
ENDBLK
  5
BC28
330
BC1D
100
AcDbEntity
  8
0
100
AcDbBlockEnd
  0
BLOCK
  5
BC2B
330
BC2A
100
AcDbEntity
  8
0
100
AcDbBlockBegin
  2
_D_4
 70
     0
 10
0.0
 20
0.0
 30
0.0
  3
_D_4
  1
_D_4
  0
LINE
  5
BC2C
330
BC2A
100
AcDbEntity
  8
0
  6
Continuous
 62
     0
370
    -2
100
AcDbLine
 10
-386.532542145525
 20
332.3759080272748
 30
0.0
 11
-386.532542145525
 21
343.1134080272748
 31
0.0
  0
LINE
  5
BC2D
330
BC2A
100
AcDbEntity
  8
0
  6
Continuous
 62
     0
370
    -2
100
AcDbLine
 10
-373.032542145525
 20
332.3759080272748
 30
0.0
 11
-373.032542145525
 21
343.1134080272748
 31
0.0
  0
LINE
  5
BC2E
330
BC2A
100
AcDbEntity
  8
0
  6
Continuous
 62
     0
370
    -2
100
AcDbLine
 10
-373.032542145525
 20
343.1134080272748
 30
0.0
 11
-349.432542145525
 21
343.1134080272748
 31
0.0
  0
LINE
  5
BC2F
330
BC2A
100
AcDbEntity
  8
0
  6
Continuous
 62
     0
370
    -2
100
AcDbLine
 10
-386.532542145525
 20
343.1134080272748
 30
0.0
 11
-373.032542145525
 21
343.1134080272748
 31
0.0
  0
LINE
  5
BC30
330
BC2A
100
AcDbEntity
  8
0
  6
Continuous
 62
     0
370
    -2
100
AcDbLine
 10
-386.532542145525
 20
343.1134080272748
 30
0.0
 11
-392.932542145525
 21
343.1134080272748
 31
0.0
  0
LINE
  5
BC31
330
BC2A
100
AcDbEntity
  8
0
  6
Continuous
 62
     0
370
    -2
100
AcDbLine
 10
-373.032542145525
 20
343.1134080272748
 30
0.0
 11
-366.6325421455251
 21
343.1134080272748
 31
0.0
  0
SOLID
  5
BC32
330
BC2A
100
AcDbEntity
  8
0
 62
     0
100
AcDbTrace
 10
-389.732542145525
 20
342.5800746939415
 30
0.0
 11
-389.732542145525
 21
343.6467413606082
 31
0.0
 12
-386.532542145525
 22
343.1134080272748
 32
0.0
 13
-386.532542145525
 23
343.1134080272748
 33
0.0
  0
SOLID
  5
BC33
330
BC2A
100
AcDbEntity
  8
0
 62
     0
100
AcDbTrace
 10
-369.8325421455251
 20
343.6467413606082
 30
0.0
 11
-369.8325421455251
 21
342.5800746939415
 31
0.0
 12
-373.032542145525
 22
343.1134080272748
 32
0.0
 13
-373.032542145525
 23
343.1134080272748
 33
0.0
  0
MTEXT
  5
BC34
330
BC2A
100
AcDbEntity
  8
0
  6
Continuous
 62
     0
370
     0
100
AcDbMText
 10
-358.032542145525
 20
347.6467413606082
 30
0.0
 40
3.2
 41
0.0
 71
     2
 72
     1
  1
\A1;12÷13,52
  7
SLDTEXTSTYLE5
 73
     1
 44
1.0
  0
POINT
  5
BC35
330
BC2A
100
AcDbEntity
  8
Defpoints
 62
     0
100
AcDbPoint
 10
-386.532542145525
 20
332.3134080272748
 30
0.0
  0
POINT
  5
BC36
330
BC2A
100
AcDbEntity
  8
Defpoints
 62
     0
100
AcDbPoint
 10
-373.032542145525
 20
332.3134080272748
 30
0.0
  0
POINT
  5
BC37
330
BC2A
100
AcDbEntity
  8
Defpoints
 62
     0
100
AcDbPoint
 10
-373.032542145525
 20
343.1134080272748
 30
0.0
  0
ENDBLK
  5
BC38
330
BC2A
100
AcDbEntity
  8
0
100
AcDbBlockEnd
  0
BLOCK
  5
BC3B
330
BC3A
100
AcDbEntity
  8
0
100
AcDbBlockBegin
  2
_D_5
 70
     0
 10
0.0
 20
0.0
 30
0.0
  3
_D_5
  1
_D_5
  0
LINE
  5
BC3C
330
BC3A
100
AcDbEntity
  8
0
  6
Continuous
 62
     0
370
    -2
100
AcDbLine
 10
-391.532542145525
 20
280.0509080272748
 30
0.0
 11
-391.532542145525
 21
270.490192072367
 31
0.0
  0
LINE
  5
BC3D
330
BC3A
100
AcDbEntity
  8
0
  6
Continuous
 62
     0
370
    -2
100
AcDbLine
 10
-367.032542145525
 20
280.0509080272748
 30
0.0
 11
-367.032542145525
 21
270.490192072367
 31
0.0
  0
LINE
  5
BC3E
330
BC3A
100
AcDbEntity
  8
0
  6
Continuous
 62
     0
370
    -2
100
AcDbLine
 10
-388.3325421455251
 20
270.490192072367
 30
0.0
 11
-370.232542145525
 21
270.490192072367
 31
0.0
  0
SOLID
  5
BC3F
330
BC3A
100
AcDbEntity
  8
0
 62
     0
100
AcDbTrace
 10
-388.3325421455251
 20
271.0235254057004
 30
0.0
 11
-388.3325421455251
 21
269.9568587390336
 31
0.0
 12
-391.532542145525
 22
270.490192072367
 32
0.0
 13
-391.532542145525
 23
270.490192072367
 33
0.0
  0
SOLID
  5
BC40
330
BC3A
100
AcDbEntity
  8
0
 62
     0
100
AcDbTrace
 10
-370.232542145525
 20
269.9568587390336
 30
0.0
 11
-370.232542145525
 21
271.0235254057004
 31
0.0
 12
-367.032542145525
 22
270.490192072367
 32
0.0
 13
-367.032542145525
 23
270.490192072367
 33
0.0
  0
MTEXT
  5
BC41
330
BC3A
100
AcDbEntity
  8
0
  6
Continuous
 62
     0
370
     0
100
AcDbMText
 10
-378.8472034448416
 20
274.4901920723671
 30
0.0
 40
3.2
 41
0.0
 71
     2
 72
     1
  1
\A1;24.5
  7
SLDTEXTSTYLE5
 73
     1
 44
1.0
  0
POINT
  5
BC42
330
BC3A
100
AcDbEntity
  8
Defpoints
 62
     0
100
AcDbPoint
 10
-391.532542145525
 20
280.1134080272748
 30
0.0
  0
POINT
  5
BC43
330
BC3A
100
AcDbEntity
  8
Defpoints
 62
     0
100
AcDbPoint
 10
-367.032542145525
 20
280.1134080272748
 30
0.0
  0
POINT
  5
BC44
330
BC3A
100
AcDbEntity
  8
Defpoints
 62
     0
100
AcDbPoint
 10
-367.032542145525
 20
270.490192072367
 30
0.0
  0
ENDBLK
  5
BC45
330
BC3A
100
AcDbEntity
  8
0
100
AcDbBlockEnd
  0
BLOCK
  5
D0D8
330
D0D7
100
AcDbEntity
  8
0
100
AcDbBlockBegin
  2
*D14
 70
     1
 10
0.0
 20
0.0
 30
0.0
  3
*D14
  1
*D15
  0
LINE
  5
D0DA
330
D0D7
100
AcDbEntity
  8
0
  6
Continuous
 62
     7
370
     0
100
AcDbLine
 10
480.1896421169536
 20
-238.5545964369207
 30
0.0
 11
502.266392178242
 21
-238.5545964369207
 31
0.0
  0
LINE
  5
D0DB
330
D0D7
100
AcDbEntity
  8
0
  6
Continuous
 62
     7
370
     0
100
AcDbLine
 10
480.1896421169536
 20
-252.5545964369207
 30
0.0
 11
502.266392178242
 21
-252.5545964369207
 31
0.0
  0
LINE
  5
D0DC
330
D0D7
100
AcDbEntity
  8
0
  6
Continuous
 62
     7
370
     0
100
AcDbLine
 10
501.516392178242
 20
-239.8045964369207
 30
0.0
 11
501.516392178242
 21
-251.3045964369207
 31
0.0
  0
SOLID
  5
D0DD
330
D0D7
100
AcDbEntity
  8
0
 62
     7
100
AcDbTrace
 10
501.7247255115753
 20
-239.8045964369207
 30
0.0
 11
501.3080588449087
 21
-239.8045964369207
 31
0.0
 12
501.516392178242
 22
-238.5545964369207
 32
0.0
 13
501.516392178242
 23
-238.5545964369207
 33
0.0
  0
SOLID
  5
D0DE
330
D0D7
100
AcDbEntity
  8
0
 62
     7
100
AcDbTrace
 10
501.3080588449087
 20
-251.3045964369207
 30
0.0
 11
501.7247255115753
 21
-251.3045964369207
 31
0.0
 12
501.516392178242
 22
-252.5545964369207
 32
0.0
 13
501.516392178242
 23
-252.5545964369207
 33
0.0
  0
MTEXT
  5
D0DF
330
D0D7
100
AcDbEntity
  8
0
  6
Continuous
 62
     7
370
     0
100
AcDbMText
 10
499.0113871732369
 20
-245.5545964369207
 30
0.0
 40
2.5
 41
0.0
 71
     5
 72
     1
  1
\A1;14.00
 11
0.0
 21
1.0
 31
0.0
 73
     1
 44
1.0
  0
POINT
  5
D0E0
330
D0D7
100
AcDbEntity
  8
Defpoints
 62
     0
100
AcDbPoint
 10
480.1896421169536
 20
-238.5545964369207
 30
0.0
  0
POINT
  5
D0E1
330
D0D7
100
AcDbEntity
  8
Defpoints
 62
     0
100
AcDbPoint
 10
480.1896421169536
 20
-252.5545964369207
 30
0.0
  0
POINT
  5
D0E2
330
D0D7
100
AcDbEntity
  8
Defpoints
 62
     0
100
AcDbPoint
 10
501.516392178242
 20
-252.5545964369207
 30
0.0
  0
ENDBLK
  5
D0D9
330
D0D7
100
AcDbEntity
  8
0
100
AcDbBlockEnd
  0
BLOCK
  5
DF10
330
DF0D
100
AcDbEntity
  8
0
100
AcDbBlockBegin
  2
A$C13380
 70
     0
 10
0.0
 20
0.0
 30
0.0
  3
A$C13380
  1

  0
LINE
  5
DF11
330
DF0D
100
AcDbEntity
  8
0
  6
Continuous
 62
     7
370
    25
100
AcDbLine
 10
74.89802625257849
 20
108.4445422083842
 30
0.0
 11
194.4813777006506
 21
39.41054284740564
 31
0.0
  0
LINE
  5
DF12
330
DF0D
100
AcDbEntity
  8
0
  6
Continuous
 62
     7
370
    25
100
AcDbLine
 10
197.8926224469332
 20
43.89010356806627
 30
0.0
 11
78.30927099886063
 21
112.9241029290458
 31
0.0
  0
LINE
  5
DF13
330
DF0D
100
AcDbEntity
  8
0
  6
Continuous
 62
     7
370
    25
100
AcDbLine
 10
195.0641948585716
 20
36.74563607335473
 30
0.0
 11
75.48084341049903
 21
105.7796354343343
 31
0.0
  0
LINE
  5
DF14
330
DF0D
100
AcDbEntity
  8
0
  6
Continuous
 62
     7
370
    25
100
AcDbLine
 10
74.89802625257849
 20
102.9328912049575
 30
0.0
 11
194.4813777006506
 21
33.89889184397795
 31
0.0
  0
LINE
  5
DF15
330
DF0D
100
AcDbEntity
  8
0
  6
Continuous
 62
     7
370
    25
100
AcDbLine
 10
192.09434615421
 20
16.29156679070799
 30
0.0
 11
191.8907768759021
 21
16.40908483363252
 31
0.0
  0
LINE
  5
DF16
330
DF0D
100
AcDbEntity
  8
0
  6
Continuous
 62
     7
370
    25
100
AcDbLine
 10
190.0055720496129
 20
15.32083719847994
 30
0.0
 11
191.2993960051998
 21
14.57392852731824
 31
0.0
  0
LINE
  5
DF17
330
DF0D
100
AcDbEntity
  8
0
  6
Continuous
 62
     7
370
    25
100
AcDbLine
 10
195.4663416478169
 20
14.14137602769075
 30
0.0
 11
195.5420373877422
 21
14.09767780717426
 31
0.0
  0
LINE
  5
DF18
330
DF0D
100
AcDbEntity
  8
0
  6
Continuous
 62
     7
370
    25
100
AcDbLine
 10
174.5580981356733
 20
30.41936941581459
 30
0.0
 11
54.97474668760075
 21
99.45336877679411
 31
0.0
  0
LINE
  5
DF19
330
DF0D
100
AcDbEntity
  8
0
  6
Continuous
 62
     7
370
    25
100
AcDbLine
 10
172.8905886966594
 20
28.19880357119906
 30
0.0
 11
173.9752799899355
 21
27.57262461618463
 31
0.0
  0
LINE
  5
DF1A
330
DF0D
100
AcDbEntity
  8
0
  6
Continuous
 62
     7
370
    25
100
AcDbLine
 10
174.5580981356733
 20
24.90771841238781
 30
0.0
 11
172.8524151764376
 21
25.89238822546828
 31
0.0
  0
LINE
  5
DF1B
330
DF0D
100
AcDbEntity
  8
0
  6
Continuous
 62
     7
370
    25
100
AcDbLine
 10
51.56350129820854
 20
69.04863684058064
 30
0.0
 11
171.1468527462815
 21
0.014637479601106
 31
0.0
  0
LINE
  5
DF1C
330
DF0D
100
AcDbEntity
  8
0
  6
Continuous
 62
     7
370
    25
100
AcDbLine
 10
173.1438846707646
 20
2.493805498265615
 30
0.0
 11
172.3221054184995
 21
2.968208562646183
 31
0.0
  0
LINE
  5
DF1D
330
DF0D
100
AcDbEntity
  8
0
  6
Continuous
 62
     7
370
    25
100
AcDbLine
 10
193.6085507123051
 20
18.91426578271764
 30
0.0
 11
174.620215346389
 21
29.87599846242098
 31
0.0
  0
LINE
  5
DF1E
330
DF0D
100
AcDbEntity
  8
0
  6
Continuous
 62
     7
370
    25
100
AcDbLine
 10
192.1564864139831
 20
16.05271041254379
 30
0.0
 11
192.360055692291
 21
15.93519236961926
 31
0.0
  0
LINE
  5
DF1F
330
DF0D
100
AcDbEntity
  8
0
  6
Continuous
 62
     7
370
    25
100
AcDbLine
 10
195.4177489656612
 20
15.10727144869976
 30
0.0
 11
195.3556245109565
 21
15.14313513302092
 31
0.0
  0
ARC
  5
DF20
330
DF0D
100
AcDbEntity
  8
0
  6
Continuous
 62
     7
370
    25
100
AcDbCircle
 10
195.6092144319426
 20
14.21405260470398
 30
0.0
 40
0.1310129770828172
100
AcDbArc
 50
170.7860915356403
 51
309.2035995481193
  0
LINE
  5
DF21
330
DF0D
100
AcDbEntity
  8
0
  6
Continuous
 62
     7
370
    25
100
AcDbLine
 10
195.4798918596128
 20
15.21487948183473
 30
0.0
 11
195.4798918596128
 21
14.23503050856085
 31
0.0
  0
LINE
  5
DF22
330
DF0D
100
AcDbEntity
  8
0
  6
Continuous
 62
     7
370
    25
100
AcDbLine
 10
194.5606532885221
 20
14.68421435026882
 30
0.0
 11
195.4798918596128
 21
15.21487948183473
 31
0.0
  0
LINE
  5
DF23
330
DF0D
100
AcDbEntity
  8
0
  6
Continuous
 62
     7
370
    25
100
AcDbLine
 10
191.3597331701102
 20
14.5599778774265
 30
0.0
 11
194.5606532885221
 21
14.68421435026882
 31
0.0
  0
ARC
  5
DF24
330
DF0D
100
AcDbEntity
  8
0
  6
Continuous
 62
     7
370
    25
100
AcDbCircle
 10
191.3639091665572
 20
14.68858506227276
 30
0.0
 40
0.1286749662537557
100
AcDbArc
 50
169.8404006853298
 51
268.14020551203
  0
LINE
  5
DF25
330
DF0D
100
AcDbEntity
  8
0
  6
Continuous
 62
     7
370
    25
100
AcDbLine
 10
191.2372517941593
 20
15.11381110966501
 30
0.0
 11
191.2372517941593
 21
14.71128213163026
 31
0.0
  0
ARC
  5
DF26
330
DF0D
100
AcDbEntity
  8
0
  6
Continuous
 62
     7
370
    25
100
AcDbCircle
 10
191.6698431604449
 20
15.09903263758567
 30
0.0
 40
0.4328437286386661
100
AcDbArc
 50
148.8562499148604
 51
178.0433846670789
  0
LINE
  5
DF27
330
DF0D
100
AcDbEntity
  8
0
  6
Continuous
 62
     7
370
    25
100
AcDbLine
 10
191.7408052180107
 20
16.08745788395733
 30
0.0
 11
191.2993841513984
 21
15.32289379106693
 31
0.0
  0
ARC
  5
DF28
330
DF0D
100
AcDbEntity
  8
0
  6
Continuous
 62
     7
370
    25
100
AcDbCircle
 10
192.1198593340677
 20
15.87859097320576
 30
0.0
 40
0.4327902601801736
100
AcDbArc
 50
121.9548808010991
 51
151.1442973855996
  0
LINE
  5
DF29
330
DF0D
100
AcDbEntity
  8
0
  6
Continuous
 62
     7
370
    25
100
AcDbLine
 10
191.9443586912497
 20
16.27671457543853
 30
0.0
 11
191.8908045347715
 21
16.24579841897209
 31
0.0
  0
ARC
  5
DF2A
330
DF0D
100
AcDbEntity
  8
0
  6
Continuous
 62
     7
370
    25
100
AcDbCircle
 10
192.0271680571472
 20
16.17519143832011
 30
0.0
 40
0.1310127415586084
100
AcDbArc
 50
350.7860048469094
 51
129.2030893669977
  0
LINE
  5
DF2B
330
DF0D
100
AcDbEntity
  8
0
  6
Continuous
 62
     7
370
    25
100
AcDbLine
 10
192.1564903652505
 20
15.74594290364691
 30
0.0
 11
192.1564903652505
 21
16.15421337651038
 31
0.0
  0
LINE
  5
DF2C
330
DF0D
100
AcDbEntity
  8
0
  6
Continuous
 62
     7
370
    25
100
AcDbLine
 10
195.4798918596128
 20
17.66450174866965
 30
0.0
 11
192.1564903652505
 21
15.74594290364691
 31
0.0
  0
ARC
  5
DF2D
330
DF0D
100
AcDbEntity
  8
0
  6
Continuous
 62
     7
370
    25
100
AcDbCircle
 10
194.6517777658645
 20
18.95911196618341
 30
0.0
 40
1.53681116847733
100
AcDbArc
 50
302.6055379095132
 51
357.3944003258209
  0
LINE
  5
DF2E
330
DF0D
100
AcDbEntity
  8
0
  6
Continuous
 62
     7
370
    25
100
AcDbLine
 10
196.1870000737921
 20
34.56683191040862
 30
0.0
 11
196.1870000737921
 21
18.88924757755719
 31
0.0
  0
ARC
  5
DF2F
330
DF0D
100
AcDbEntity
  8
0
  6
Continuous
 62
     7
370
    25
100
AcDbCircle
 10
196.0576773977695
 20
34.58780928019293
 30
0.0
 40
0.1310129939233479
100
AcDbArc
 50
350.7863293486296
 51
129.2035350198676
  0
LINE
  5
DF30
330
DF0D
100
AcDbEntity
  8
0
  6
Continuous
 62
     7
370
    25
100
AcDbLine
 10
194.6313651636113
 20
33.91374481971049
 30
0.0
 11
195.9748670827024
 21
34.68933196876584
 31
0.0
  0
ARC
  5
DF31
330
DF0D
100
AcDbEntity
  8
0
  6
Continuous
 62
     7
370
    25
100
AcDbCircle
 10
194.5485548485439
 20
34.01526750828249
 30
0.0
 40
0.1310129939229099
100
AcDbArc
 50
170.7863293482075
 51
309.2035350204926
  0
LINE
  5
DF32
330
DF0D
100
AcDbEntity
  8
0
  6
Continuous
 62
     7
370
    25
100
AcDbLine
 10
194.4192321725217
 20
36.20007815610531
 30
0.0
 11
194.4192321725217
 21
34.03624487806771
 31
0.0
  0
ARC
  5
DF33
330
DF0D
100
AcDbEntity
  8
0
  6
Continuous
 62
     7
370
    25
100
AcDbCircle
 10
194.8797959271818
 20
36.179120018576
 30
0.0
 40
0.4610403622627259
100
AcDbArc
 50
122.6052643528205
 51
177.3945301048207
  0
LINE
  5
DF34
330
DF0D
100
AcDbEntity
  8
0
  6
Continuous
 62
     7
370
    25
100
AcDbLine
 10
194.9142073956112
 20
36.7307830976231
 30
0.0
 11
194.6313651636113
 21
36.56750175262984
 31
0.0
  0
ARC
  5
DF35
330
DF0D
100
AcDbEntity
  8
0
  6
Continuous
 62
     7
370
    25
100
AcDbCircle
 10
194.9970170050982
 20
36.62925918719863
 30
0.0
 40
0.1310134947681949
100
AcDbArc
 50
350.7869062107234
 51
129.2029581582713
  0
LINE
  5
DF36
330
DF0D
100
AcDbEntity
  8
0
  6
Continuous
 62
     7
370
    25
100
AcDbLine
 10
195.1263403867014
 20
35.42429859191522
 30
0.0
 11
195.1263403867014
 21
36.60828303926588
 31
0.0
  0
LINE
  5
DF37
330
DF0D
100
AcDbEntity
  8
0
  6
Continuous
 62
     7
370
    25
100
AcDbLine
 10
195.9748670827024
 20
35.9141426268932
 30
0.0
 11
195.1263403867014
 21
35.42429859191522
 31
0.0
  0
ARC
  5
DF38
330
DF0D
100
AcDbEntity
  8
0
  6
Continuous
 62
     7
370
    25
100
AcDbCircle
 10
195.726434290303
 20
36.30252553229708
 30
0.0
 40
0.4610424422432325
100
AcDbArc
 50
302.6053983095949
 51
357.3943961479483
  0
LINE
  5
DF39
330
DF0D
100
AcDbEntity
  8
0
  6
Continuous
 62
     7
370
    25
100
AcDbLine
 10
196.1870000737921
 20
41.50742766770215
 30
0.0
 11
196.1870000737921
 21
36.28156622341773
 31
0.0
  0
ARC
  5
DF3A
330
DF0D
100
AcDbEntity
  8
0
  6
Continuous
 62
     7
370
    25
100
AcDbCircle
 10
196.0576774007581
 20
41.52840630313109
 30
0.0
 40
0.1310131936299916
100
AcDbArc
 50
350.7857827783544
 51
129.2034654672667
  0
LINE
  5
DF3B
330
DF0D
100
AcDbEntity
  8
0
  6
Continuous
 62
     7
370
    25
100
AcDbLine
 10
195.3384707436124
 20
41.26254546041106
 30
0.0
 11
195.9748670827024
 21
41.62992924698371
 31
0.0
  0
ARC
  5
DF3C
330
DF0D
100
AcDbEntity
  8
0
  6
Continuous
 62
     7
370
    25
100
AcDbCircle
 10
195.5868997061092
 20
40.87416806813395
 30
0.0
 40
0.4610357342326826
100
AcDbArc
 50
122.6053665486909
 51
177.395044100862
  0
LINE
  5
DF3D
330
DF0D
100
AcDbEntity
  8
0
  6
Continuous
 62
     7
370
    25
100
AcDbLine
 10
195.1263403867014
 20
39.9560992437289
 30
0.0
 11
195.1263403867014
 21
40.89512186363915
 31
0.0
  0
ARC
  5
DF3E
330
DF0D
100
AcDbEntity
  8
0
  6
Continuous
 62
     7
370
    25
100
AcDbCircle
 10
194.6657668121728
 20
39.97706465849366
 30
0.0
 40
0.4610505028413556
100
AcDbArc
 50
302.6059069034813
 51
357.3936821558701
  0
LINE
  5
DF3F
330
DF0D
100
AcDbEntity
  8
0
  6
Continuous
 62
     7
370
    25
100
AcDbLine
 10
194.6313651636113
 20
39.42539582313817
 30
0.0
 11
194.9142073956112
 21
39.58867716813053
 31
0.0
  0
ARC
  5
DF40
330
DF0D
100
AcDbEntity
  8
0
  6
Continuous
 62
     7
370
    25
100
AcDbCircle
 10
194.5485548515315
 20
39.52691825644048
 30
0.0
 40
0.1310127942251174
100
AcDbArc
 50
170.7868759255842
 51
309.2036045713165
  0
LINE
  5
DF41
330
DF0D
100
AcDbEntity
  8
0
  6
Continuous
 62
     7
370
    25
100
AcDbLine
 10
194.4192321725217
 20
41.71172763860683
 30
0.0
 11
194.4192321725217
 21
39.54789436056832
 31
0.0
  0
ARC
  5
DF42
330
DF0D
100
AcDbEntity
  8
0
  6
Continuous
 62
     7
370
    25
100
AcDbCircle
 10
194.8797976644727
 20
41.69077010572961
 30
0.0
 40
0.4610420702716487
100
AcDbArc
 50
122.6053848700512
 51
177.394614984489
  0
LINE
  5
DF43
330
DF0D
100
AcDbEntity
  8
0
  6
Continuous
 62
     7
370
    25
100
AcDbLine
 10
197.7426349839733
 20
43.87525059233464
 30
0.0
 11
194.6313651636113
 21
42.07915275605752
 31
0.0
  0
ARC
  5
DF44
330
DF0D
100
AcDbEntity
  8
0
  6
Continuous
 62
     7
370
    25
100
AcDbCircle
 10
197.8254431126778
 20
43.7737263776951
 30
0.0
 40
0.1310127945570498
100
AcDbArc
 50
350.7856437526616
 51
129.2023722408481
  0
LINE
  5
DF45
330
DF0D
100
AcDbEntity
  8
0
  6
Continuous
 62
     7
370
    25
100
AcDbLine
 10
197.9547653408844
 20
15.66374455826532
 30
0.0
 11
197.9547653408844
 21
43.75274749237339
 31
0.0
  0
ARC
  5
DF46
330
DF0D
100
AcDbEntity
  8
0
  6
Continuous
 62
     7
370
    25
100
AcDbCircle
 10
197.4941994818327
 20
15.6847032849271
 30
0.0
 40
0.4610424912609985
100
AcDbArc
 50
302.6057941656281
 51
357.3944688549009
  0
LINE
  5
DF47
330
DF0D
100
AcDbEntity
  8
0
  6
Continuous
 62
     7
370
    25
100
AcDbLine
 10
195.6920248507025
 20
14.11253002244372
 30
0.0
 11
197.7426349839733
 21
15.29632205465965
 31
0.0
  0
LINE
  5
DF48
330
DF0D
100
AcDbEntity
  8
0
  6
Continuous
 62
     7
370
    25
100
AcDbLine
 10
194.4192321725217
 20
41.71172763860683
 30
0.0
 11
74.83588072444869
 21
110.7457269995854
 31
0.0
  0
ARC
  5
DF49
330
DF0D
100
AcDbEntity
  8
0
  6
Continuous
 62
     7
370
    25
100
AcDbCircle
 10
75.29644621640014
 20
110.7247694667091
 30
0.0
 40
0.461042070271948
100
AcDbArc
 50
122.6053848701568
 51
177.3946149846038
  0
LINE
  5
DF4A
330
DF0D
100
AcDbEntity
  8
0
  6
Continuous
 62
     7
370
    25
100
AcDbLine
 10
75.04801371553836
 20
111.1131521170361
 30
0.0
 11
194.6313651636113
 21
42.07915275605752
 31
0.0
  0
LINE
  5
DF4B
330
DF0D
100
AcDbEntity
  8
0
  6
Continuous
 62
     7
370
    25
100
AcDbLine
 10
74.83588072444869
 20
108.5818937215478
 30
0.0
 11
194.4192321725217
 21
39.54789436056832
 31
0.0
  0
LINE
  5
DF4C
330
DF0D
100
AcDbEntity
  8
0
  6
Continuous
 62
     7
370
    25
100
AcDbLine
 10
74.83588072444869
 20
110.7457269995854
 30
0.0
 11
74.83588072444869
 21
108.5818937215478
 31
0.0
  0
LINE
  5
DF4D
330
DF0D
100
AcDbEntity
  8
0
  6
Continuous
 62
     7
370
    25
100
AcDbLine
 10
78.15928353590076
 20
112.9092499533132
 30
0.0
 11
75.04801371553836
 21
111.1131521170361
 31
0.0
  0
LINE
  5
DF4E
330
DF0D
100
AcDbEntity
  8
0
  6
Continuous
 62
     7
370
    25
100
AcDbLine
 10
197.7426349839733
 20
43.87525059233464
 30
0.0
 11
78.15928353590076
 21
112.9092499533132
 31
0.0
  0
ARC
  5
DF4F
330
DF0D
100
AcDbEntity
  8
0
  6
Continuous
 62
     7
370
    25
100
AcDbCircle
 10
74.98288082776176
 20
108.5656699952076
 30
0.0
 40
0.1478926626658066
100
AcDbArc
 50
173.702016311873
 51
234.9873104588815
  0
LINE
  5
DF50
330
DF0D
100
AcDbEntity
  8
0
  6
Continuous
 62
     7
370
    25
100
AcDbLine
 10
76.60364862571956
 20
105.3155655843972
 30
0.0
 11
196.1870000737921
 21
36.28156622341773
 31
0.0
  0
LINE
  5
DF51
330
DF0D
100
AcDbEntity
  8
0
  6
Continuous
 62
     7
370
    25
100
AcDbLine
 10
76.60364862571956
 20
107.4599066776079
 30
0.0
 11
76.60364862571956
 21
105.3155655843972
 31
0.0
  0
ARC
  5
DF52
330
DF0D
100
AcDbEntity
  8
0
  6
Continuous
 62
     7
370
    25
100
AcDbCircle
 10
78.24716050918428
 20
112.7865796317835
 30
0.0
 40
0.1508985427952517
100
AcDbArc
 50
65.69434541833954
 51
125.6165631346094
  0
LINE
  5
DF53
330
DF0D
100
AcDbEntity
  8
0
  6
Continuous
 62
     7
370
    25
100
AcDbLine
 10
194.4192321725217
 20
36.20007815610531
 30
0.0
 11
74.83588072444869
 21
105.2340775170848
 31
0.0
  0
ARC
  5
DF54
330
DF0D
100
AcDbEntity
  8
0
  6
Continuous
 62
     7
370
    25
100
AcDbCircle
 10
75.29644447911247
 20
105.2131193795537
 30
0.0
 40
0.4610403622665317
100
AcDbArc
 50
122.6052643529897
 51
177.3945301045027
  0
LINE
  5
DF55
330
DF0D
100
AcDbEntity
  8
0
  6
Continuous
 62
     7
370
    25
100
AcDbLine
 10
75.04801371553836
 20
105.6015011136094
 30
0.0
 11
194.6313651636113
 21
36.56750175262984
 31
0.0
  0
LINE
  5
DF56
330
DF0D
100
AcDbEntity
  8
0
  6
Continuous
 62
     7
370
    25
100
AcDbLine
 10
74.83588072444869
 20
103.0702442390463
 30
0.0
 11
194.4192321725217
 21
34.03624487806771
 31
0.0
  0
LINE
  5
DF57
330
DF0D
100
AcDbEntity
  8
0
  6
Continuous
 62
     7
370
    25
100
AcDbLine
 10
74.83588072444869
 20
105.2340775170848
 30
0.0
 11
74.83588072444869
 21
103.0702442390463
 31
0.0
  0
LINE
  5
DF58
330
DF0D
100
AcDbEntity
  8
0
  6
Continuous
 62
     7
370
    25
100
AcDbLine
 10
75.33085594753916
 20
105.7647824586017
 30
0.0
 11
75.04801371553836
 21
105.6015011136094
 31
0.0
  0
LINE
  5
DF59
330
DF0D
100
AcDbEntity
  8
0
  6
Continuous
 62
     7
370
    25
100
AcDbLine
 10
194.9142073956112
 20
36.7307830976231
 30
0.0
 11
75.33085594753916
 21
105.7647824586017
 31
0.0
  0
ARC
  5
DF5A
330
DF0D
100
AcDbEntity
  8
0
  6
Continuous
 62
     7
370
    25
100
AcDbCircle
 10
75.41873188085097
 20
105.6421226388581
 30
0.0
 40
0.1508894000085085
100
AcDbArc
 50
65.69234415081706
 51
125.618564402398
  0
ARC
  5
DF5B
330
DF0D
100
AcDbEntity
  8
0
  6
Continuous
 62
     7
370
    25
100
AcDbCircle
 10
74.98288120255589
 20
103.0540193410122
 30
0.0
 40
0.1478931637362942
100
AcDbArc
 50
173.7015810503512
 51
234.9872691639258
  0
ARC
  5
DF5C
330
DF0D
100
AcDbEntity
  8
0
  6
Continuous
 62
     7
370
    25
100
AcDbCircle
 10
76.18765790885178
 20
105.3278510456455
 30
0.0
 40
0.4161720907010107
100
AcDbArc
 50
335.226229848009
 51
358.3083744205791
  0
LINE
  5
DF5D
330
DF0D
100
AcDbEntity
  8
0
  6
Continuous
 62
     7
370
    25
100
AcDbLine
 10
76.60364862571956
 20
87.9232469385358
 30
0.0
 11
196.1870000737921
 21
18.88924757755719
 31
0.0
  0
LINE
  5
DF5E
330
DF0D
100
AcDbEntity
  8
0
  6
Continuous
 62
     7
370
    25
100
AcDbLine
 10
76.60364862571956
 20
101.9482556741802
 30
0.0
 11
76.60364862571956
 21
87.9232469385358
 31
0.0
  0
ARC
  5
DF5F
330
DF0D
100
AcDbEntity
  8
0
  6
Continuous
 62
     7
370
    25
100
AcDbCircle
 10
75.11659528524902
 20
87.9819395695783
 30
0.0
 40
1.488211161880049
100
AcDbArc
 50
324.7869287638832
 51
357.7397613347899
  0
ARC
  5
DF60
330
DF0D
100
AcDbEntity
  8
0
  6
Continuous
 62
     7
370
    25
100
AcDbCircle
 10
192.4272342035914
 20
16.05156824423717
 30
0.0
 40
0.1310131277141528
100
AcDbArc
 50
170.786095153453
 51
309.2034611535025
  0
LINE
  5
DF61
330
DF0D
100
AcDbEntity
  8
0
  6
Continuous
 62
     7
370
    25
100
AcDbLine
 10
192.2979114812505
 20
16.39916231419899
 30
0.0
 11
192.2979114812505
 21
16.07254616404749
 31
0.0
  0
ARC
  5
DF62
330
DF0D
100
AcDbEntity
  8
0
  6
Continuous
 62
     7
370
    25
100
AcDbCircle
 10
192.1685897521032
 20
16.42014137856837
 30
0.0
 40
0.1310123306090305
100
AcDbArc
 50
350.7855315112341
 51
129.2035627026337
  0
LINE
  5
DF63
330
DF0D
100
AcDbEntity
  8
0
  6
Continuous
 62
     7
370
    25
100
AcDbLine
 10
188.4088242057982
 20
14.3990022265241
 30
0.0
 11
192.0857798072506
 21
16.52166351312623
 31
0.0
  0
ARC
  5
DF64
330
DF0D
100
AcDbEntity
  8
0
  6
Continuous
 62
     7
370
    25
100
AcDbCircle
 10
188.8228791872024
 20
13.75169991786585
 30
0.0
 40
0.7684021124515102
100
AcDbArc
 50
122.6055206765797
 51
177.3945407968216
  0
LINE
  5
DF65
330
DF0D
100
AcDbEntity
  8
0
  6
Continuous
 62
     7
370
    25
100
AcDbLine
 10
188.0552714157969
 20
11.3370078055848
 30
0.0
 11
188.0552714157969
 21
13.78663007241973
 31
0.0
  0
ARC
  5
DF66
330
DF0D
100
AcDbEntity
  8
0
  6
Continuous
 62
     7
370
    25
100
AcDbCircle
 10
188.2708083875676
 20
11.30204390331325
 30
0.0
 40
0.2183544381553478
100
AcDbArc
 50
170.785875411117
 51
309.2031879966877
  0
LINE
  5
DF67
330
DF0D
100
AcDbEntity
  8
0
  6
Continuous
 62
     7
370
    25
100
AcDbLine
 10
195.2677615027013
 20
15.09241923343031
 30
0.0
 11
188.4088242057982
 21
11.13283901396223
 31
0.0
  0
ARC
  5
DF68
330
DF0D
100
AcDbEntity
  8
0
  6
Continuous
 62
     7
370
    25
100
AcDbCircle
 10
195.3505697257773
 20
14.99089537755096
 30
0.0
 40
0.1310125761964359
100
AcDbArc
 50
350.785974695022
 51
129.2025033913995
  0
LINE
  5
DF69
330
DF0D
100
AcDbEntity
  8
0
  6
Continuous
 62
     7
370
    25
100
AcDbLine
 10
195.4798918596128
 20
14.23503050856085
 30
0.0
 11
195.4798918596128
 21
14.96991727416368
 31
0.0
  0
ARC
  5
DF6A
330
DF0D
100
AcDbEntity
  8
0
  6
Continuous
 62
     7
370
    25
100
AcDbCircle
 10
195.0193260005593
 20
14.25598923522354
 30
0.0
 40
0.4610424912624185
100
AcDbArc
 50
302.605794165653
 51
357.3944688546826
  0
LINE
  5
DF6B
330
DF0D
100
AcDbEntity
  8
0
  6
Continuous
 62
     7
370
    25
100
AcDbLine
 10
186.8178346751619
 20
8.989569079393519
 30
0.0
 11
195.2677615027013
 21
13.86760800495519
 31
0.0
  0
LWPOLYLINE
  5
DF6C
330
DF0D
100
AcDbEntity
  8
0
  6
Continuous
 62
     7
370
    25
100
AcDbPolyline
 90
       10
 70
   128
 43
0.0
 10
182.2216405026187
 20
6.336242661225484
 10
182.3602325114124
 20
7.323888726459487
 10
182.7592933610925
 20
8.35242553602599
 10
183.3706887164821
 20
9.297795595391804
 10
184.1206773977541
 20
10.04597450844246
 10
184.9187977800256
 20
10.50671959789248
 10
185.6687864612981
 20
10.62445918464506
 10
186.2801818166876
 20
10.38499117706466
 10
186.6792426663673
 20
9.817200217287578
 10
186.8178346751619
 20
8.989569079393519
  0
LINE
  5
DF6D
330
DF0D
100
AcDbEntity
  8
0
  6
Continuous
 62
     7
370
    25
100
AcDbLine
 10
180.2770968648923
 20
5.213681513552515
 30
0.0
 11
182.2216405026187
 21
6.336242661225484
 31
0.0
  0
LINE
  5
DF6E
330
DF0D
100
AcDbEntity
  8
0
  6
Continuous
 62
     7
370
    25
100
AcDbLine
 10
180.2770968648923
 20
6.438492742026725
 30
0.0
 11
180.2770968648923
 21
5.213681513552515
 31
0.0
  0
ARC
  5
DF6F
330
DF0D
100
AcDbEntity
  8
0
  6
Continuous
 62
     7
370
    25
100
AcDbCircle
 10
180.7376605868143
 20
6.417535112151896
 30
0.0
 40
0.4610403064815798
100
AcDbArc
 50
122.6054582603275
 51
177.3945929434081
  0
LINE
  5
DF70
330
DF0D
100
AcDbEntity
  8
0
  6
Continuous
 62
     7
370
    25
100
AcDbLine
 10
180.9488478244378
 20
7.071248524226363
 30
0.0
 11
180.4892285388927
 21
6.805915958443407
 31
0.0
  0
ARC
  5
DF71
330
DF0D
100
AcDbEntity
  8
0
  6
Continuous
 62
     7
370
    25
100
AcDbCircle
 10
180.7004148919035
 20
7.459630685048765
 30
0.0
 40
0.4610418905183038
100
AcDbArc
 50
302.6054628413843
 51
357.3944856636915
  0
LINE
  5
DF72
330
DF0D
100
AcDbEntity
  8
0
  6
Continuous
 62
     7
370
    25
100
AcDbLine
 10
181.1609801569829
 20
9.561678237495258
 30
0.0
 11
181.1609801569829
 21
7.43867212081274
 31
0.0
  0
ARC
  5
DF73
330
DF0D
100
AcDbEntity
  8
0
  6
Continuous
 62
     7
370
    25
100
AcDbCircle
 10
181.0316577376701
 20
9.582656236829976
 30
0.0
 40
0.131012841328991
100
AcDbArc
 50
350.7860396040838
 51
129.2033626724125
  0
LINE
  5
DF74
330
DF0D
100
AcDbEntity
  8
0
  6
Continuous
 62
     7
370
    25
100
AcDbLine
 10
172.5342774283507
 20
4.826550964113054
 30
0.0
 11
180.9488478244378
 21
9.684179056252802
 31
0.0
  0
ARC
  5
DF75
330
DF0D
100
AcDbEntity
  8
0
  6
Continuous
 62
     7
370
    25
100
AcDbCircle
 10
172.7827096842315
 20
4.438169595857076
 30
0.0
 40
0.4610408582440177
100
AcDbArc
 50
122.6054450777386
 51
177.3945547766234
  0
LINE
  5
DF76
330
DF0D
100
AcDbEntity
  8
0
  6
Continuous
 62
     7
370
    25
100
AcDbLine
 10
172.3221454250782
 20
2.336121440928551
 30
0.0
 11
172.3221454250782
 21
4.459127557611978
 31
0.0
  0
ARC
  5
DF77
330
DF0D
100
AcDbEntity
  8
0
  6
Continuous
 62
     7
370
    25
100
AcDbCircle
 10
172.4514676761931
 20
2.315143215382491
 30
0.0
 40
0.1310127115227384
100
AcDbArc
 50
170.7859301732715
 51
309.2033180721776
  0
LINE
  5
DF78
330
DF0D
100
AcDbEntity
  8
0
  6
Continuous
 62
     7
370
    25
100
AcDbLine
 10
172.9938968785326
 20
2.478953092911766
 30
0.0
 11
172.5342774283507
 21
2.213620432086614
 31
0.0
  0
ARC
  5
DF79
330
DF0D
100
AcDbEntity
  8
0
  6
Continuous
 62
     7
370
    25
100
AcDbCircle
 10
173.0767065664003
 20
2.37743019828828
 30
0.0
 40
0.1310127571567846
100
AcDbArc
 50
350.7859827339693
 51
129.2032655110596
  0
LINE
  5
DF7A
330
DF0D
100
AcDbEntity
  8
0
  6
Continuous
 62
     7
370
    25
100
AcDbLine
 10
173.2060288818051
 20
1.131640855594711
 30
0.0
 11
173.2060288818051
 21
2.356452084069829
 31
0.0
  0
LINE
  5
DF7B
330
DF0D
100
AcDbEntity
  8
0
  6
Continuous
 62
     7
370
    25
100
AcDbLine
 10
171.2968405642381
 20
0.0294898998051991
 30
0.0
 11
173.2060288818051
 21
1.131640855594711
 31
0.0
  0
ARC
  5
DF7C
330
DF0D
100
AcDbEntity
  8
0
  6
Continuous
 62
     7
370
    25
100
AcDbCircle
 10
171.2140308294273
 20
0.1310127606609655
 30
0.0
 40
0.131012760660981
100
AcDbArc
 50
170.7859574908443
 51
309.2032907539541
  0
LINE
  5
DF7D
330
DF0D
100
AcDbEntity
  8
0
  6
Continuous
 62
     7
370
    25
100
AcDbLine
 10
171.084708519806
 20
28.24099386652485
 30
0.0
 11
171.084708519806
 21
0.1519909324167799
 31
0.0
  0
ARC
  5
DF7E
330
DF0D
100
AcDbEntity
  8
0
  6
Continuous
 62
     7
370
    25
100
AcDbCircle
 10
171.545273699125
 20
28.2200365765582
 30
0.0
 40
0.4610417469209337
100
AcDbArc
 50
122.6055041083923
 51
177.3946433747985
  0
LINE
  5
DF7F
330
DF0D
100
AcDbEntity
  8
0
  6
Continuous
 62
     7
370
    25
100
AcDbLine
 10
174.4081103434413
 20
30.40451624999766
 30
0.0
 11
171.2968405642381
 21
28.60841843748109
 31
0.0
  0
ARC
  5
DF80
330
DF0D
100
AcDbEntity
  8
0
  6
Continuous
 62
     7
370
    25
100
AcDbCircle
 10
174.4909199852353
 20
30.30299308024384
 30
0.0
 40
0.1310129412351539
100
AcDbArc
 50
350.785612308044
 51
129.2031738444237
  0
LINE
  5
DF81
330
DF0D
100
AcDbEntity
  8
0
  6
Continuous
 62
     7
370
    25
100
AcDbLine
 10
174.6202423467138
 20
28.11818082242259
 30
0.0
 11
174.6202423467138
 21
30.2820141004611
 31
0.0
  0
ARC
  5
DF82
330
DF0D
100
AcDbEntity
  8
0
  6
Continuous
 62
     7
370
    25
100
AcDbCircle
 10
174.1596768597545
 20
28.1391415026617
 30
0.0
 40
0.461042208365783
100
AcDbArc
 50
302.6055188829291
 51
357.3942242238586
  0
LINE
  5
DF83
330
DF0D
100
AcDbEntity
  8
0
  6
Continuous
 62
     7
370
    25
100
AcDbLine
 10
174.1252677821684
 20
27.58747778200156
 30
0.0
 11
174.4081103434413
 21
27.75075931707921
 31
0.0
  0
ARC
  5
DF84
330
DF0D
100
AcDbEntity
  8
0
  6
Continuous
 62
     7
370
    25
100
AcDbCircle
 10
174.0424581463498
 20
27.68900044120052
 30
0.0
 40
0.1310125418242315
100
AcDbArc
 50
170.7867054549121
 51
309.2033129495092
  0
LINE
  5
DF85
330
DF0D
100
AcDbEntity
  8
0
  6
Continuous
 62
     7
370
    25
100
AcDbLine
 10
173.9131357788955
 20
28.64899950959695
 30
0.0
 11
173.9131357788955
 21
27.7099768896867
 31
0.0
  0
ARC
  5
DF86
330
DF0D
100
AcDbEntity
  8
0
  6
Continuous
 62
     7
370
    25
100
AcDbCircle
 10
173.783813229048
 20
28.66997819571294
 30
0.0
 40
0.1310130801497868
100
AcDbArc
 50
350.7857522710401
 51
129.203110897392
  0
LINE
  5
DF87
330
DF0D
100
AcDbEntity
  8
0
  6
Continuous
 62
     7
370
    25
100
AcDbLine
 10
173.0646074365326
 20
28.40411787256086
 30
0.0
 11
173.7010036109867
 21
28.77150156409131
 31
0.0
  0
ARC
  5
DF88
330
DF0D
100
AcDbEntity
  8
0
  6
Continuous
 62
     7
370
    25
100
AcDbCircle
 10
173.3130409838694
 20
28.01573582374819
 30
0.0
 40
0.4610421274487917
100
AcDbArc
 50
122.6055347051912
 51
177.3946191966953
  0
LINE
  5
DF89
330
DF0D
100
AcDbEntity
  8
0
  6
Continuous
 62
     7
370
    25
100
AcDbLine
 10
172.8524754332597
 20
22.81083188108074
 30
0.0
 11
172.8524754332597
 21
28.03669332536516
 31
0.0
  0
ARC
  5
DF8A
330
DF0D
100
AcDbEntity
  8
0
  6
Continuous
 62
     7
370
    25
100
AcDbCircle
 10
172.981797894004
 20
22.78985433366303
 30
0.0
 40
0.1310128098647255
100
AcDbArc
 50
170.7862375919521
 51
309.2031646849318
  0
LINE
  5
DF8B
330
DF0D
100
AcDbEntity
  8
0
  6
Continuous
 62
     7
370
    25
100
AcDbLine
 10
173.7010036109867
 20
23.0557149440008
 30
0.0
 11
173.0646074365326
 21
22.68833125247035
 31
0.0
  0
ARC
  5
DF8C
330
DF0D
100
AcDbEntity
  8
0
  6
Continuous
 62
     7
370
    25
100
AcDbCircle
 10
173.4525695139163
 20
23.44409759790848
 30
0.0
 40
0.4610429334059782
100
AcDbArc
 50
302.6055517356317
 51
357.3943710946973
  0
LINE
  5
DF8D
330
DF0D
100
AcDbEntity
  8
0
  6
Continuous
 62
     7
370
    25
100
AcDbLine
 10
173.9131357788955
 20
24.36216068522369
 30
0.0
 11
173.9131357788955
 21
23.42313806531253
 31
0.0
  0
ARC
  5
DF8E
330
DF0D
100
AcDbEntity
  8
0
  6
Continuous
 62
     7
370
    25
100
AcDbCircle
 10
174.3736989454618
 20
24.34120295235586
 30
0.0
 40
0.4610397563817595
100
AcDbArc
 50
122.6053714853544
 51
177.3945770198503
  0
LINE
  5
DF8F
330
DF0D
100
AcDbEntity
  8
0
  6
Continuous
 62
     7
370
    25
100
AcDbLine
 10
174.4081103434413
 20
24.89286524657088
 30
0.0
 11
174.1252677821684
 21
24.72958371149322
 31
0.0
  0
ARC
  5
DF90
330
DF0D
100
AcDbEntity
  8
0
  6
Continuous
 62
     7
370
    25
100
AcDbCircle
 10
174.4909203053284
 20
24.79134289157243
 30
0.0
 40
0.1310125121967023
100
AcDbArc
 50
350.7858947367952
 51
129.2035075397169
  0
LINE
  5
DF91
330
DF0D
100
AcDbEntity
  8
0
  6
Continuous
 62
     7
370
    25
100
AcDbLine
 10
174.6202423467138
 20
22.60653133992106
 30
0.0
 11
174.6202423467138
 21
24.77036461795957
 31
0.0
  0
ARC
  5
DF92
330
DF0D
100
AcDbEntity
  8
0
  6
Continuous
 62
     7
370
    25
100
AcDbCircle
 10
174.1596771513208
 20
22.6274902441353
 30
0.0
 40
0.4610418363594687
100
AcDbArc
 50
302.6055054419954
 51
357.3944430630319
  0
LINE
  5
DF93
330
DF0D
100
AcDbEntity
  8
0
  6
Continuous
 62
     7
370
    25
100
AcDbLine
 10
173.0646074365326
 20
21.46352059434209
 30
0.0
 11
174.4081103434413
 21
22.23910831365153
 31
0.0
  0
ARC
  5
DF94
330
DF0D
100
AcDbEntity
  8
0
  6
Continuous
 62
     7
370
    25
100
AcDbCircle
 10
173.3130412754134
 20
21.07513829045071
 30
0.0
 40
0.4610424994262757
100
AcDbArc
 50
122.6055481451008
 51
177.3944003598729
  0
LINE
  5
DF95
330
DF0D
100
AcDbEntity
  8
0
  6
Continuous
 62
     7
370
    25
100
AcDbLine
 10
172.8524754332597
 20
7.868136072401981
 30
0.0
 11
172.8524754332597
 21
21.09609756807255
 31
0.0
  0
ARC
  5
DF96
330
DF0D
100
AcDbEntity
  8
0
  6
Continuous
 62
     7
370
    25
100
AcDbCircle
 10
173.2835499528563
 20
7.798208690072684
 30
0.0
 40
0.4367093773265395
100
AcDbArc
 50
170.7859421921978
 51
309.2032598436713
  0
LINE
  5
DF97
330
DF0D
100
AcDbEntity
  8
0
  6
Continuous
 62
     7
370
    25
100
AcDbLine
 10
181.6913100005285
 20
12.15414533128457
 30
0.0
 11
173.5595823303501
 21
7.459798869264674
 31
0.0
  0
LINE
  5
DF98
330
DF0D
100
AcDbEntity
  8
0
  6
Continuous
 62
     7
370
    25
100
AcDbLine
 10
183.4590772432547
 20
11.13330365425078
 30
0.0
 11
181.6913100005285
 21
12.15414533128457
 31
0.0
  0
LINE
  5
DF99
330
DF0D
100
AcDbEntity
  8
0
  6
Continuous
 62
     7
370
    25
100
AcDbLine
 10
184.1661841403446
 20
11.54150777707288
 30
0.0
 11
183.4590772432547
 21
11.13330365425078
 31
0.0
  0
LINE
  5
DF9A
330
DF0D
100
AcDbEntity
  8
0
  6
Continuous
 62
     7
370
    25
100
AcDbLine
 10
184.5197369303454
 20
11.3373389854503
 30
0.0
 11
184.1661841403446
 21
11.54150777707288
 31
0.0
  0
LINE
  5
DF9B
330
DF0D
100
AcDbEntity
  8
0
  6
Continuous
 62
     7
370
    25
100
AcDbLine
 10
184.8732910374355
 20
11.94971189989316
 30
0.0
 11
184.5197369303454
 21
11.3373389854503
 31
0.0
  0
LINE
  5
DF9C
330
DF0D
100
AcDbEntity
  8
0
  6
Continuous
 62
     7
370
    25
100
AcDbLine
 10
185.5803979345254
 20
12.35791602271526
 30
0.0
 11
184.8732910374355
 21
11.94971189989316
 31
0.0
  0
LINE
  5
DF9D
330
DF0D
100
AcDbEntity
  8
0
  6
Continuous
 62
     7
370
    25
100
AcDbLine
 10
187.3481645187074
 20
15.4197779336853
 30
0.0
 11
185.5803979345254
 21
12.35791602271526
 31
0.0
  0
LINE
  5
DF9E
330
DF0D
100
AcDbEntity
  8
0
  6
Continuous
 62
     7
370
    25
100
AcDbLine
 10
193.3585724854305
 20
18.88951259749571
 30
0.0
 11
187.3481645187074
 21
15.4197779336853
 31
0.0
  0
ARC
  5
DF9F
330
DF0D
100
AcDbEntity
  8
0
  6
Continuous
 62
     7
370
    25
100
AcDbCircle
 10
193.4965887492161
 20
18.72030728458755
 30
0.0
 40
0.2183550479968198
100
AcDbArc
 50
350.7863171567867
 51
129.2032083445515
  0
LINE
  5
DFA0
330
DF0D
100
AcDbEntity
  8
0
  6
Continuous
 62
     7
370
    25
100
AcDbLine
 10
193.7121265925206
 20
17.46053352785272
 30
0.0
 11
193.7121265925206
 21
18.68534494644315
 31
0.0
  0
ARC
  5
DFA1
330
DF0D
100
AcDbEntity
  8
0
  6
Continuous
 62
     7
370
    25
100
AcDbCircle
 10
192.1769042845953
 20
17.53039791647804
 30
0.0
 40
1.536811168475471
100
AcDbArc
 50
302.6055379094342
 51
357.3944003258517
  0
LINE
  5
DFA2
330
DF0D
100
AcDbEntity
  8
0
  6
Continuous
 62
     7
370
    25
100
AcDbLine
 10
192.5100444723402
 20
15.95004534522811
 30
0.0
 11
193.0050183783409
 21
16.23578769896518
 31
0.0
  0
LINE
  5
DFA3
330
DF0D
100
AcDbEntity
  8
0
  6
Continuous
 62
     7
370
    25
100
AcDbLine
 10
171.084708519806
 20
28.24099386652485
 30
0.0
 11
51.50135707173346
 21
97.27499322750437
 31
0.0
  0
ARC
  5
DFA4
330
DF0D
100
AcDbEntity
  8
0
  6
Continuous
 62
     7
370
    25
100
AcDbCircle
 10
51.9619222510502
 20
97.25403593753863
 30
0.0
 40
0.4610417469186623
100
AcDbArc
 50
122.6055041082888
 51
177.3946433747857
  0
LINE
  5
DFA5
330
DF0D
100
AcDbEntity
  8
0
  6
Continuous
 62
     7
370
    25
100
AcDbLine
 10
51.71348911616511
 20
97.6424177984597
 30
0.0
 11
171.2968405642381
 21
28.60841843748109
 31
0.0
  0
LINE
  5
DFA6
330
DF0D
100
AcDbEntity
  8
0
  6
Continuous
 62
     7
370
    25
100
AcDbLine
 10
51.50135707173346
 20
69.18599029339539
 30
0.0
 11
171.084708519806
 21
0.1519909324167656
 31
0.0
  0
LINE
  5
DFA7
330
DF0D
100
AcDbEntity
  8
0
  6
Continuous
 62
     7
370
    25
100
AcDbLine
 10
51.50135707173346
 20
97.27499322750437
 30
0.0
 11
51.50135707173346
 21
69.18599029339539
 31
0.0
  0
LINE
  5
DFA8
330
DF0D
100
AcDbEntity
  8
0
  6
Continuous
 62
     7
370
    25
100
AcDbLine
 10
54.82475889536833
 20
99.43851561097627
 30
0.0
 11
51.71348911616511
 21
97.6424177984597
 31
0.0
  0
LINE
  5
DFA9
330
DF0D
100
AcDbEntity
  8
0
  6
Continuous
 62
     7
370
    25
100
AcDbLine
 10
174.4081103434413
 20
30.40451624999766
 30
0.0
 11
54.82475889536833
 21
99.43851561097627
 31
0.0
  0
ARC
  5
DFAA
330
DF0D
100
AcDbEntity
  8
0
  6
Continuous
 62
     7
370
    25
100
AcDbCircle
 10
54.91263556721166
 20
99.31585147027245
 30
0.0
 40
0.1508933426925979
100
AcDbArc
 50
65.69319086211452
 51
125.6178368364214
  0
LINE
  5
DFAB
330
DF0D
100
AcDbEntity
  8
0
  6
Continuous
 62
     7
370
    25
100
AcDbLine
 10
181.6913100005285
 20
12.15414533128457
 30
0.0
 11
172.8524415182177
 21
17.25671549486266
 31
0.0
  0
ARC
  5
DFAC
330
DF0D
100
AcDbEntity
  8
0
  6
Continuous
 62
     7
370
    25
100
AcDbCircle
 10
51.6483377662718
 20
69.16975527106634
 30
0.0
 40
0.1478746107922691
100
AcDbArc
 50
173.6968410047471
 51
234.9909765893564
  0
LINE
  5
DFAD
330
DF0D
100
AcDbEntity
  8
0
  6
Continuous
 62
     7
370
    25
100
AcDbLine
 10
180.2770968648923
 20
5.213681513552515
 30
0.0
 11
176.7409762748283
 21
7.255040478648667
 31
0.0
  0
LINE
  5
DFAE
330
DF0D
100
AcDbEntity
  8
0
  6
Continuous
 62
     7
370
    25
100
AcDbLine
 10
186.8178346751619
 20
8.989569079393519
 30
0.0
 11
184.5193141447711
 21
10.31647673756449
 31
0.0
  0
LINE
  5
DFAF
330
DF0D
100
AcDbEntity
  8
0
  6
Continuous
 62
     7
370
    25
100
AcDbLine
 10
184.1661841403446
 20
11.54150777707288
 30
0.0
 11
172.852452713474
 21
18.07278590764032
 31
0.0
  0
LINE
  5
DFB0
330
DF0D
100
AcDbEntity
  8
0
  6
Continuous
 62
     7
370
    25
100
AcDbLine
 10
187.3481645187074
 20
15.4197779336853
 30
0.0
 11
174.6202377369026
 21
22.76745366514548
 31
0.0
  0
LINE
  5
DFB1
330
DF0D
100
AcDbEntity
  8
0
  6
Continuous
 62
     7
370
    25
100
AcDbLine
 10
185.5803979345254
 20
12.35791602271526
 30
0.0
 11
172.8524711527206
 21
19.70559175417544
 31
0.0
  0
LINE
  5
DFB2
330
DF0D
100
AcDbEntity
  8
0
  6
Continuous
 62
     7
370
    25
100
AcDbLine
 10
184.8732910374355
 20
11.94971189989316
 30
0.0
 11
172.8524197862492
 21
18.88921316176562
 31
0.0
  0
LINE
  5
DFB3
330
DF0D
100
AcDbEntity
  8
0
  6
Continuous
 62
     8
370
    25
100
AcDbLine
 10
196.1870000737921
 20
41.50742766770215
 30
0.0
 11
195.9748328383884
 21
41.62990920560675
 31
0.0
  0
LINE
  5
DFB4
330
DF0D
100
AcDbEntity
  8
0
  6
Continuous
 62
     8
370
    25
100
AcDbLine
 10
195.9748670827024
 20
35.9141426268932
 30
0.0
 11
195.1262824347845
 21
36.40402011680159
 31
0.0
  0
LINE
  5
DFB5
330
DF0D
100
AcDbEntity
  8
0
  6
Continuous
 62
     8
370
    25
100
AcDbLine
 10
196.1870000737921
 20
34.56683191040862
 30
0.0
 11
195.9748328383884
 21
34.68931344831414
 31
0.0
  0
LINE
  5
DFB6
330
DF0D
100
AcDbEntity
  8
0
  6
Continuous
 62
     8
370
    25
100
AcDbLine
 10
191.7408052180107
 20
16.08745788395733
 30
0.0
 11
191.5371516460058
 21
16.20502458859734
 31
0.0
  0
LINE
  5
DFB7
330
DF0D
100
AcDbEntity
  8
0
  6
Continuous
 62
     8
370
    25
100
AcDbLine
 10
190.6542844880913
 20
15.69530189976446
 30
0.0
 11
191.2993841513984
 21
15.32289379106693
 31
0.0
  0
LINE
  5
DFB8
330
DF0D
100
AcDbEntity
  8
0
  6
Continuous
 62
     8
370
    25
100
AcDbLine
 10
191.2372517941593
 20
15.11381110966501
 30
0.0
 11
190.4421093501531
 21
15.5728370719478
 31
0.0
  0
LINE
  5
DFB9
330
DF0D
100
AcDbEntity
  8
0
  6
Continuous
 62
     8
370
    25
100
AcDbLine
 10
191.7493597111687
 20
16.32745277757546
 30
0.0
 11
191.8908045347715
 21
16.24579841897209
 31
0.0
  0
LINE
  5
DFBA
330
DF0D
100
AcDbEntity
  8
0
  6
Continuous
 62
     8
370
    25
100
AcDbLine
 10
190.093470619271
 20
15.3715729492085
 30
0.0
 11
191.2372517941593
 21
14.71128213163026
 31
0.0
  0
LINE
  5
DFBB
330
DF0D
100
AcDbEntity
  8
0
  6
Continuous
 62
     8
370
    25
100
AcDbLine
 10
191.9443586912497
 20
16.27671457543853
 30
0.0
 11
191.8029138676474
 21
16.35836893404191
 31
0.0
  0
LINE
  5
DFBC
330
DF0D
100
AcDbEntity
  8
0
  6
Continuous
 62
     8
370
    25
100
AcDbLine
 10
195.4798918596128
 20
17.66450174866965
 30
0.0
 11
193.7120844456721
 21
18.68503524607128
 31
0.0
  0
LINE
  5
DFBD
330
DF0D
100
AcDbEntity
  8
0
  6
Continuous
 62
     8
370
    25
100
AcDbLine
 10
173.9131357788955
 20
28.64899950959695
 30
0.0
 11
173.7009685434917
 21
28.77148104750246
 31
0.0
  0
LINE
  5
DFBE
330
DF0D
100
AcDbEntity
  8
0
  6
Continuous
 62
     8
370
    25
100
AcDbLine
 10
172.9332215510175
 20
28.2756693323379
 30
0.0
 11
173.9131357788955
 21
27.7099768896867
 31
0.0
  0
LINE
  5
DFBF
330
DF0D
100
AcDbEntity
  8
0
  6
Continuous
 62
     8
370
    25
100
AcDbLine
 10
172.8524402011288
 20
22.81081279037586
 30
0.0
 11
173.0646074365326
 21
22.68833125247035
 31
0.0
  0
LINE
  5
DFC0
330
DF0D
100
AcDbEntity
  8
0
  6
Continuous
 62
     8
370
    25
100
AcDbLine
 10
173.9131357788955
 20
24.36216068522369
 30
0.0
 11
172.8524681892703
 21
24.9744710513212
 31
0.0
  0
LINE
  5
DFC1
330
DF0D
100
AcDbEntity
  8
0
  6
Continuous
 62
     8
370
    25
100
AcDbLine
 10
172.8524329571395
 20
25.46437561549716
 30
0.0
 11
174.1252677821684
 21
24.72958371149322
 31
0.0
  0
LINE
  5
DFC2
330
DF0D
100
AcDbEntity
  8
0
  6
Continuous
 62
     8
370
    25
100
AcDbLine
 10
172.8524681892703
 20
24.03544843141096
 30
0.0
 11
173.9131357788955
 21
23.42313806531253
 31
0.0
  0
LINE
  5
DFC3
330
DF0D
100
AcDbEntity
  8
0
  6
Continuous
 62
     8
370
    25
100
AcDbLine
 10
174.4081103434413
 20
24.89286524657088
 30
0.0
 11
172.8524701649038
 21
25.79091720606699
 31
0.0
  0
LINE
  5
DFC4
330
DF0D
100
AcDbEntity
  8
0
  6
Continuous
 62
     8
370
    25
100
AcDbLine
 10
173.7010036109867
 20
23.0557149440008
 30
0.0
 11
172.8524189630683
 21
23.54559243390828
 31
0.0
  0
LINE
  5
DFC5
330
DF0D
100
AcDbEntity
  8
0
  6
Continuous
 62
     8
370
    25
100
AcDbLine
 10
172.8524425060344
 20
7.868022000568786
 30
0.0
 11
173.5595823303501
 21
7.459798869264674
 31
0.0
  0
LINE
  5
DFC6
330
DF0D
100
AcDbEntity
  8
0
  6
Continuous
 62
     8
370
    25
100
AcDbLine
 10
172.322110192947
 20
2.336101969992129
 30
0.0
 11
172.5342774283507
 21
2.213620432086614
 31
0.0
  0
LINE
  5
DFC7
330
DF0D
100
AcDbEntity
  8
0
  6
Continuous
 62
     8
370
    25
100
AcDbLine
 10
172.9938968785326
 20
2.478953092911766
 30
0.0
 11
172.3220761132692
 21
2.866786965422548
 31
0.0
  0
LINE
  5
DFC8
330
DF0D
100
AcDbEntity
  8
0
  6
Continuous
 62
     8
370
    25
100
AcDbLine
 10
181.1609801569829
 20
9.561678237495258
 30
0.0
 11
180.9488129215787
 21
9.684159775400772
 31
0.0
  0
LINE
  5
DFC9
330
DF0D
100
AcDbEntity
  8
0
  6
Continuous
 62
     8
370
    25
100
AcDbLine
 10
179.110030214746
 20
8.622660320568471
 30
0.0
 11
181.1609801569829
 21
7.43867212081274
 31
0.0
  0
LINE
  5
DFCA
330
DF0D
100
AcDbEntity
  8
0
  6
Continuous
 62
     8
370
    25
100
AcDbLine
 10
180.2770968648923
 20
6.438492742026725
 30
0.0
 11
177.8018124518475
 21
7.867444017594394
 31
0.0
  0
LINE
  5
DFCB
330
DF0D
100
AcDbEntity
  8
0
  6
Continuous
 62
     8
370
    25
100
AcDbLine
 10
178.226111361252
 20
8.112385696105562
 30
0.0
 11
180.4892285388927
 21
6.805915958443407
 31
0.0
  0
LINE
  5
DFCC
330
DF0D
100
AcDbEntity
  8
0
  6
Continuous
 62
     8
370
    25
100
AcDbLine
 10
180.9488478244378
 20
7.071248524226363
 30
0.0
 11
178.6857306467972
 21
8.377718261888518
 31
0.0
  0
LINE
  5
DFCD
330
DF0D
100
AcDbEntity
  8
0
  6
Continuous
 62
     8
370
    25
100
AcDbLine
 10
193.3585724854305
 20
18.88951259749571
 30
0.0
 11
174.6201679311843
 21
29.70696329074941
 31
0.0
  0
LINE
  5
DFCE
330
DF0D
100
AcDbEntity
  8
0
  6
Continuous
 62
     8
370
    25
100
AcDbLine
 10
188.0552121467916
 20
11.33697491047202
 30
0.0
 11
188.4088242057982
 21
11.13283901396223
 31
0.0
  0
LINE
  5
DFCF
330
DF0D
100
AcDbEntity
  8
0
  6
Continuous
 62
     8
370
    25
100
AcDbLine
 10
192.2979114812505
 20
16.39916231419899
 30
0.0
 11
192.0857442458467
 21
16.5216438521045
 31
0.0
  0
LINE
  5
DFD0
330
DF0D
100
AcDbEntity
  8
0
  6
Continuous
 62
     8
370
    25
100
AcDbLine
 10
192.1564666576477
 20
16.15420052265087
 30
0.0
 11
192.2979114812505
 21
16.07254616404749
 31
0.0
  0
ENDBLK
  5
DFD1
330
DF0D
100
AcDbEntity
  8
0
100
AcDbBlockEnd
  0
BLOCK
  5
DFD4
330
DFD3
100
AcDbEntity
  8
0
100
AcDbBlockBegin
  2
A$C23850
 70
     0
 10
0.0
 20
0.0
 30
0.0
  3
A$C23850
  1

  0
LINE
  5
DFD5
330
DFD3
100
AcDbEntity
  8
0
  6
Continuous
 62
     7
370
    25
100
AcDbLine
 10
7.499999832361937
 20
11.50000002235174
 30
0.0
 11
7.499999832361937
 21
9.49999969452665
 31
0.0
  0
LINE
  5
DFD6
330
DFD3
100
AcDbEntity
  8
0
  6
Continuous
 62
     7
370
    25
100
AcDbLine
 10
30.50000034272671
 20
11.50000002235174
 30
0.0
 11
7.499999832361937
 21
11.50000002235174
 31
0.0
  0
LINE
  5
DFD7
330
DFD3
100
AcDbEntity
  8
0
  6
Continuous
 62
     7
370
    25
100
AcDbLine
 10
30.50000034272671
 20
9.49999969452665
 30
0.0
 11
30.50000034272671
 21
11.50000002235174
 31
0.0
  0
LINE
  5
DFD8
330
DFD3
100
AcDbEntity
  8
0
  6
Continuous
 62
     7
370
    25
100
AcDbLine
 10
30.50000034272671
 20
9.49999969452665
 30
0.0
 11
7.499999832361937
 21
9.49999969452665
 31
0.0
  0
LINE
  5
DFD9
330
DFD3
100
AcDbEntity
  8
0
  6
Continuous
 62
     7
370
    25
100
AcDbLine
 10
32.4999988079071
 20
11.50000002235174
 30
0.0
 11
32.4999988079071
 21
9.49999969452665
 31
0.0
  0
LINE
  5
DFDA
330
DFD3
100
AcDbEntity
  8
0
  6
Continuous
 62
     7
370
    25
100
AcDbLine
 10
30.50000034272671
 20
11.50000002235174
 30
0.0
 11
32.4999988079071
 21
11.50000002235174
 31
0.0
  0
LINE
  5
DFDB
330
DFD3
100
AcDbEntity
  8
0
  6
Continuous
 62
     7
370
    25
100
AcDbLine
 10
32.4999988079071
 20
9.49999969452665
 30
0.0
 11
30.50000034272671
 21
9.49999969452665
 31
0.0
  0
LINE
  5
DFDC
330
DFD3
100
AcDbEntity
  8
0
  6
Continuous
 62
     7
370
    25
100
AcDbLine
 10
5.499999970197678
 20
9.49999969452665
 30
0.0
 11
5.499999970197678
 21
11.50000002235174
 31
0.0
  0
LINE
  5
DFDD
330
DFD3
100
AcDbEntity
  8
0
  6
Continuous
 62
     7
370
    25
100
AcDbLine
 10
5.499999970197678
 20
11.50000002235174
 30
0.0
 11
7.499999832361937
 21
11.50000002235174
 31
0.0
  0
LINE
  5
DFDE
330
DFD3
100
AcDbEntity
  8
0
  6
Continuous
 62
     7
370
    25
100
AcDbLine
 10
7.499999832361937
 20
9.49999969452665
 30
0.0
 11
5.499999970197678
 21
9.49999969452665
 31
0.0
  0
LINE
  5
DFDF
330
DFD3
100
AcDbEntity
  8
0
  6
Continuous
 62
     7
370
    25
100
AcDbLine
 10
7.499999832361937
 20
9.49999969452665
 30
0.0
 11
7.499999832361937
 21
7.499999832361937
 31
0.0
  0
LINE
  5
DFE0
330
DFD3
100
AcDbEntity
  8
0
  6
Continuous
 62
     7
370
    25
100
AcDbLine
 10
30.50000034272671
 20
7.499999832361937
 30
0.0
 11
30.50000034272671
 21
9.49999969452665
 31
0.0
  0
LINE
  5
DFE1
330
DFD3
100
AcDbEntity
  8
0
  6
Continuous
 62
     7
370
    25
100
AcDbLine
 10
30.50000034272671
 20
7.499999832361937
 30
0.0
 11
7.499999832361937
 21
7.499999832361937
 31
0.0
  0
LINE
  5
DFE2
330
DFD3
100
AcDbEntity
  8
0
  6
Continuous
 62
     7
370
    25
100
AcDbLine
 10
32.4999988079071
 20
9.49999969452665
 30
0.0
 11
32.4999988079071
 21
7.499999832361937
 31
0.0
  0
LINE
  5
DFE3
330
DFD3
100
AcDbEntity
  8
0
  6
Continuous
 62
     7
370
    25
100
AcDbLine
 10
32.4999988079071
 20
7.499999832361937
 30
0.0
 11
31.50000050663948
 21
7.499999832361937
 31
0.0
  0
LINE
  5
DFE4
330
DFD3
100
AcDbEntity
  8
0
  6
Continuous
 62
     7
370
    25
100
AcDbLine
 10
5.499999970197678
 20
7.499999832361937
 30
0.0
 11
5.499999970197678
 21
9.49999969452665
 31
0.0
  0
ARC
  5
DFE5
330
DFD3
100
AcDbEntity
  8
0
  6
Continuous
 62
     7
370
    25
100
AcDbCircle
 10
34.80000000000018
 20
0.3000000000001819
 30
0.0
 40
0.3000000000001819
100
AcDbArc
 50
180.0
 51
270.0
  0
ARC
  5
DFE6
330
DFD3
100
AcDbEntity
  8
0
  6
Continuous
 62
     7
370
    25
100
AcDbCircle
 10
28.79999999999973
 20
3.882767071570925
 30
0.0
 40
0.2999999999997272
100
AcDbArc
 50
180.0
 51
245.0000000000333
  0
ARC
  5
DFE7
330
DFD3
100
AcDbEntity
  8
0
  6
Continuous
 62
     7
370
    25
100
AcDbCircle
 10
28.79999999999973
 20
4.375735931288091
 30
0.0
 40
0.2999999999997934
100
AcDbArc
 50
135.0
 51
180.0
  0
ARC
  5
DFE8
330
DFD3
100
AcDbEntity
  8
0
  6
Continuous
 62
     7
370
    25
100
AcDbCircle
 10
29.42426406871209
 20
5.000000000000455
 30
0.0
 40
0.2999999999997272
100
AcDbArc
 50
90.0
 51
135.0000000000614
  0
ARC
  5
DFE9
330
DFD3
100
AcDbEntity
  8
0
  6
Continuous
 62
     7
370
    25
100
AcDbCircle
 10
29.5
 20
5.000000000000455
 30
0.0
 40
0.3000000000001819
100
AcDbArc
 50
0.0
 51
90.0
  0
ARC
  5
DFEA
330
DFD3
100
AcDbEntity
  8
0
  6
Continuous
 62
     7
370
    25
100
AcDbCircle
 10
34.5
 20
5.500000000000455
 30
0.0
 40
1.0
100
AcDbArc
 50
270.0
 51
0.0
  0
ARC
  5
DFEB
330
DFD3
100
AcDbEntity
  8
0
  6
Continuous
 62
     7
370
    25
100
AcDbCircle
 10
35.20000000000027
 20
24.70000000000027
 30
0.0
 40
0.3000000000001819
100
AcDbArc
 50
0.0
 51
90.0
  0
ARC
  5
DFEC
330
DFD3
100
AcDbEntity
  8
0
  6
Continuous
 62
     7
370
    25
100
AcDbCircle
 10
33.29999999999973
 20
25.30000000000018
 30
0.0
 40
0.2999999999997272
100
AcDbArc
 50
180.0
 51
270.0
  0
ARC
  5
DFED
330
DFD3
100
AcDbEntity
  8
0
  6
Continuous
 62
     7
370
    25
100
AcDbCircle
 10
33.29999999999973
 20
27.95000000000027
 30
0.0
 40
0.2999999999997272
100
AcDbArc
 50
90.0
 51
180.0
  0
ARC
  5
DFEE
330
DFD3
100
AcDbEntity
  8
0
  6
Continuous
 62
     7
370
    25
100
AcDbCircle
 10
33.70000000000027
 20
27.95000000000027
 30
0.0
 40
0.2999999999997272
100
AcDbArc
 50
0.0
 51
90.0
  0
ARC
  5
DFEF
330
DFD3
100
AcDbEntity
  8
0
  6
Continuous
 62
     7
370
    25
100
AcDbCircle
 10
35.20000000000027
 20
26.80000000000018
 30
0.0
 40
0.3000000000001819
100
AcDbArc
 50
270.0
 51
0.0
  0
ARC
  5
DFF0
330
DFD3
100
AcDbEntity
  8
0
  6
Continuous
 62
     7
370
    25
100
AcDbCircle
 10
35.20000000000027
 20
33.20000000000027
 30
0.0
 40
0.2999999999997272
100
AcDbArc
 50
0.0
 51
90.0
  0
ARC
  5
DFF1
330
DFD3
100
AcDbEntity
  8
0
  6
Continuous
 62
     7
370
    25
100
AcDbCircle
 10
34.29999999999973
 20
33.20000000000027
 30
0.0
 40
0.2999999999997272
100
AcDbArc
 50
90.0
 51
180.0
  0
ARC
  5
DFF2
330
DFD3
100
AcDbEntity
  8
0
  6
Continuous
 62
     7
370
    25
100
AcDbCircle
 10
33.70000000000027
 20
32.04999999999973
 30
0.0
 40
0.2999999999997272
100
AcDbArc
 50
270.0
 51
0.0
  0
ARC
  5
DFF3
330
DFD3
100
AcDbEntity
  8
0
  6
Continuous
 62
     7
370
    25
100
AcDbCircle
 10
33.29999999999973
 20
32.04999999999973
 30
0.0
 40
0.2999999999997272
100
AcDbArc
 50
180.0
 51
270.0
  0
ARC
  5
DFF4
330
DFD3
100
AcDbEntity
  8
0
  6
Continuous
 62
     7
370
    25
100
AcDbCircle
 10
33.29999999999973
 20
34.70000000000027
 30
0.0
 40
0.3000000000001819
100
AcDbArc
 50
90.0
 51
180.0
  0
ARC
  5
DFF5
330
DFD3
100
AcDbEntity
  8
0
  6
Continuous
 62
     7
370
    25
100
AcDbCircle
 10
37.69999999999982
 20
34.70000000000027
 30
0.0
 40
0.3000000000001819
100
AcDbArc
 50
0.0
 51
90.0
  0
ARC
  5
DFF6
330
DFD3
100
AcDbEntity
  8
0
  6
Continuous
 62
     7
370
    25
100
AcDbCircle
 10
37.69999999999982
 20
0.3000000000001819
 30
0.0
 40
0.3000000000001819
100
AcDbArc
 50
270.0
 51
0.0
  0
LINE
  5
DFF7
330
DFD3
100
AcDbEntity
  8
0
  6
Continuous
 62
     7
370
    25
100
AcDbLine
 10
33.19999948143959
 20
1.500000013038516
 30
0.0
 11
34.4999991357322
 21
1.500000013038516
 31
0.0
  0
LINE
  5
DFF8
330
DFD3
100
AcDbEntity
  8
0
  6
Continuous
 62
     7
370
    25
100
AcDbLine
 10
28.67321483790874
 20
3.610874759033322
 30
0.0
 11
33.19999948143959
 21
1.500000013038516
 31
0.0
  0
LINE
  5
DFF9
330
DFD3
100
AcDbEntity
  8
0
  6
Continuous
 62
     7
370
    25
100
AcDbLine
 10
28.50000001490071
 20
4.375735763460398
 30
0.0
 11
28.50000001490071
 21
3.882767166942813
 31
0.0
  0
LINE
  5
DFFA
330
DFD3
100
AcDbEntity
  8
0
  6
Continuous
 62
     7
370
    25
100
AcDbLine
 10
29.21213209629059
 20
5.212131887674332
 30
0.0
 11
28.58786843717098
 21
4.587867762893438
 31
0.0
  0
LINE
  5
DFFB
330
DFD3
100
AcDbEntity
  8
0
  6
Continuous
 62
     7
370
    25
100
AcDbLine
 10
29.50000017881393
 20
5.299999844282866
 30
0.0
 11
29.4242631644006
 21
5.299999844282866
 31
0.0
  0
LINE
  5
DFFC
330
DFD3
100
AcDbEntity
  8
0
  6
Continuous
 62
     7
370
    25
100
AcDbLine
 10
29.79999966919422
 20
4.499999806284904
 30
0.0
 11
29.79999966919422
 21
4.999999888241291
 31
0.0
  0
LINE
  5
DFFD
330
DFD3
100
AcDbEntity
  8
0
  6
Continuous
 62
     7
370
    25
100
AcDbLine
 10
34.4999991357322
 20
4.499999806284904
 30
0.0
 11
29.79999966919422
 21
4.499999806284904
 31
0.0
  0
LINE
  5
DFFE
330
DFD3
100
AcDbEntity
  8
0
  6
Continuous
 62
     7
370
    25
100
AcDbLine
 10
35.50000116229057
 20
24.70000088214874
 30
0.0
 11
35.50000116229057
 21
5.499999970198132
 31
0.0
  0
LINE
  5
DFFF
330
DFD3
100
AcDbEntity
  8
0
  6
Continuous
 62
     7
370
    25
100
AcDbLine
 10
33.3000011742115
 20
25.00000037252903
 30
0.0
 11
35.19999980926468
 21
25.00000037252903
 31
0.0
  0
LINE
  5
E000
330
DFD3
100
AcDbEntity
  8
0
  6
Continuous
 62
     7
370
    25
100
AcDbLine
 10
32.99999982118607
 20
27.95000001788139
 30
0.0
 11
32.99999982118607
 21
25.29999986290932
 31
0.0
  0
LINE
  5
E001
330
DFD3
100
AcDbEntity
  8
0
  6
Continuous
 62
     7
370
    25
100
AcDbLine
 10
33.70000049471855
 20
28.24999950826168
 30
0.0
 11
33.3000011742115
 21
28.24999950826168
 31
0.0
  0
LINE
  5
E002
330
DFD3
100
AcDbEntity
  8
0
  6
Continuous
 62
     7
370
    25
100
AcDbLine
 10
34.00000184774399
 20
26.49999968707561
 30
0.0
 11
34.00000184774399
 21
27.95000001788139
 31
0.0
  0
LINE
  5
E003
330
DFD3
100
AcDbEntity
  8
0
  6
Continuous
 62
     7
370
    25
100
AcDbLine
 10
35.19999980926468
 20
26.49999968707561
 30
0.0
 11
34.00000184774399
 21
26.49999968707561
 31
0.0
  0
LINE
  5
E004
330
DFD3
100
AcDbEntity
  8
0
  6
Continuous
 62
     7
370
    25
100
AcDbLine
 10
35.50000116229057
 20
33.19999948143959
 30
0.0
 11
35.50000116229057
 21
26.79999917745636
 31
0.0
  0
LINE
  5
E005
330
DFD3
100
AcDbEntity
  8
0
  6
Continuous
 62
     7
370
    25
100
AcDbLine
 10
34.29999947547913
 20
33.50000083446548
 30
0.0
 11
35.19999980926468
 21
33.50000083446548
 31
0.0
  0
LINE
  5
E006
330
DFD3
100
AcDbEntity
  8
0
  6
Continuous
 62
     7
370
    25
100
AcDbLine
 10
34.00000184774399
 20
32.0499986410141
 30
0.0
 11
34.00000184774399
 21
33.19999948143959
 31
0.0
  0
LINE
  5
E007
330
DFD3
100
AcDbEntity
  8
0
  6
Continuous
 62
     7
370
    25
100
AcDbLine
 10
33.3000011742115
 20
31.75000101327896
 30
0.0
 11
33.70000049471855
 21
31.75000101327896
 31
0.0
  0
LINE
  5
E008
330
DFD3
100
AcDbEntity
  8
0
  6
Continuous
 62
     7
370
    25
100
AcDbLine
 10
32.99999982118607
 20
34.69999879598663
 30
0.0
 11
32.99999982118607
 21
32.0499986410141
 31
0.0
  0
LINE
  5
E009
330
DFD3
100
AcDbEntity
  8
0
  6
Continuous
 62
     7
370
    25
100
AcDbLine
 10
37.70000115036964
 20
35.00000014901161
 30
0.0
 11
33.3000011742115
 21
35.00000014901161
 31
0.0
  0
LINE
  5
E00A
330
DFD3
100
AcDbEntity
  8
0
  6
Continuous
 62
     7
370
    25
100
AcDbLine
 10
37.99999877810478
 20
0.3000000142492354
 30
0.0
 11
37.99999877810478
 21
34.69999879598663
 31
0.0
  0
LINE
  5
E00B
330
DFD3
100
AcDbEntity
  8
0
  6
Continuous
 62
     7
370
    25
100
AcDbLine
 10
34.80000048875809
 20
0.0000000000004547
 30
0.0
 11
37.70000115036964
 21
0.0000000000004547
 31
0.0
  0
LINE
  5
E00C
330
DFD3
100
AcDbEntity
  8
0
  6
Continuous
 62
     7
370
    25
100
AcDbLine
 10
34.4999991357322
 20
1.500000013038516
 30
0.0
 11
34.4999991357322
 21
0.3000000142492354
 31
0.0
  0
ARC
  5
E00D
330
DFD3
100
AcDbEntity
  8
0
  6
Continuous
 62
     7
370
    25
100
AcDbCircle
 10
30.30000000000018
 20
4.800000000000182
 30
0.0
 40
0.3000000000001819
100
AcDbArc
 50
180.0
 51
270.0
  0
ARC
  5
E00E
330
DFD3
100
AcDbEntity
  8
0
  6
Continuous
 62
     7
370
    25
100
AcDbCircle
 10
34.20000000000027
 20
0.3000000000001819
 30
0.0
 40
0.2999999999997272
100
AcDbArc
 50
270.0
 51
0.0
  0
ARC
  5
E00F
330
DFD3
100
AcDbEntity
  8
0
  6
Continuous
 62
     7
370
    25
100
AcDbCircle
 10
13.95000000000027
 20
2.100000000000364
 30
0.0
 40
0.3000000000006366
100
AcDbArc
 50
270.0
 51
0.0
  0
ARC
  5
E010
330
DFD3
100
AcDbEntity
  8
0
  6
Continuous
 62
     7
370
    25
100
AcDbCircle
 10
2.050000000000182
 20
2.100000000000364
 30
0.0
 40
0.3000000000006366
100
AcDbArc
 50
180.0
 51
270.0
  0
ARC
  5
E011
330
DFD3
100
AcDbEntity
  8
0
  6
Continuous
 62
     7
370
    25
100
AcDbCircle
 10
0.3000000000001819
 20
0.3000000000001819
 30
0.0
 40
0.3000000000001819
100
AcDbArc
 50
180.0
 51
270.0
  0
ARC
  5
E012
330
DFD3
100
AcDbEntity
  8
0
  6
Continuous
 62
     7
370
    25
100
AcDbCircle
 10
0.3000000000001819
 20
34.70000000000027
 30
0.0
 40
0.3000000000001819
100
AcDbArc
 50
90.0
 51
180.0
  0
ARC
  5
E013
330
DFD3
100
AcDbEntity
  8
0
  6
Continuous
 62
     7
370
    25
100
AcDbCircle
 10
4.700000000000273
 20
34.70000000000027
 30
0.0
 40
0.3000000000001819
100
AcDbArc
 50
0.0
 51
90.0
  0
ARC
  5
E014
330
DFD3
100
AcDbEntity
  8
0
  6
Continuous
 62
     7
370
    25
100
AcDbCircle
 10
4.700000000000273
 20
32.04999999999973
 30
0.0
 40
0.2999999999997272
100
AcDbArc
 50
270.0
 51
0.0
  0
ARC
  5
E015
330
DFD3
100
AcDbEntity
  8
0
  6
Continuous
 62
     7
370
    25
100
AcDbCircle
 10
4.299999999999727
 20
32.04999999999973
 30
0.0
 40
0.2999999999997272
100
AcDbArc
 50
180.0
 51
270.0
  0
ARC
  5
E016
330
DFD3
100
AcDbEntity
  8
0
  6
Continuous
 62
     7
370
    25
100
AcDbCircle
 10
3.700000000000273
 20
33.20000000000027
 30
0.0
 40
0.2999999999997272
100
AcDbArc
 50
0.0
 51
90.0
  0
ARC
  5
E017
330
DFD3
100
AcDbEntity
  8
0
  6
Continuous
 62
     7
370
    25
100
AcDbCircle
 10
2.799999999999727
 20
33.20000000000027
 30
0.0
 40
0.2999999999997272
100
AcDbArc
 50
90.0
 51
180.0
  0
ARC
  5
E018
330
DFD3
100
AcDbEntity
  8
0
  6
Continuous
 62
     7
370
    25
100
AcDbCircle
 10
2.799999999999727
 20
26.80000000000018
 30
0.0
 40
0.3000000000001819
100
AcDbArc
 50
180.0
 51
270.0
  0
ARC
  5
E019
330
DFD3
100
AcDbEntity
  8
0
  6
Continuous
 62
     7
370
    25
100
AcDbCircle
 10
4.700000000000273
 20
27.95000000000027
 30
0.0
 40
0.2999999999997272
100
AcDbArc
 50
0.0
 51
90.0
  0
ARC
  5
E01A
330
DFD3
100
AcDbEntity
  8
0
  6
Continuous
 62
     7
370
    25
100
AcDbCircle
 10
4.700000000000273
 20
25.30000000000018
 30
0.0
 40
0.2999999999997272
100
AcDbArc
 50
270.0
 51
0.0
  0
ARC
  5
E01B
330
DFD3
100
AcDbEntity
  8
0
  6
Continuous
 62
     7
370
    25
100
AcDbCircle
 10
2.799999999999727
 20
24.70000000000027
 30
0.0
 40
0.3000000000001819
100
AcDbArc
 50
90.0
 51
180.0
  0
ARC
  5
E01C
330
DFD3
100
AcDbEntity
  8
0
  6
Continuous
 62
     7
370
    25
100
AcDbCircle
 10
3.5
 20
8.5
 30
0.0
 40
1.0
100
AcDbArc
 50
180.0
 51
270.0
  0
ARC
  5
E01D
330
DFD3
100
AcDbEntity
  8
0
  6
Continuous
 62
     7
370
    25
100
AcDbCircle
 10
31.49999999999955
 20
7.0
 30
0.0
 40
0.5000000000004547
100
AcDbArc
 50
0.0
 51
90.0
  0
ARC
  5
E01E
330
DFD3
100
AcDbEntity
  8
0
  6
Continuous
 62
     7
370
    25
100
AcDbCircle
 10
24.5
 20
2.0
 30
0.0
 40
0.5
100
AcDbArc
 50
180.0
 51
270.0
  0
ARC
  5
E01F
330
DFD3
100
AcDbEntity
  8
0
  6
Continuous
 62
     7
370
    25
100
AcDbCircle
 10
2.699999999999818
 20
1.5
 30
0.0
 40
0.3000000000001819
100
AcDbArc
 50
0.0
 51
90.0
  0
ARC
  5
E020
330
DFD3
100
AcDbEntity
  8
0
  6
Continuous
 62
     7
370
    25
100
AcDbCircle
 10
31.0
 20
5.500000000000455
 30
0.0
 40
1.0
100
AcDbArc
 50
270.0
 51
0.0
  0
LINE
  5
E021
330
DFD3
100
AcDbEntity
  8
0
  6
Continuous
 62
     7
370
    25
100
AcDbLine
 10
4.000000189989805
 20
33.19999948143959
 30
0.0
 11
4.000000189989805
 21
32.0499986410141
 31
0.0
  0
LINE
  5
E022
330
DFD3
100
AcDbEntity
  8
0
  6
Continuous
 62
     7
370
    25
100
AcDbLine
 10
2.799999900161765
 20
33.50000083446548
 30
0.0
 11
3.700000001117587
 21
33.50000083446548
 31
0.0
  0
LINE
  5
E023
330
DFD3
100
AcDbEntity
  8
0
  6
Continuous
 62
     7
370
    25
100
AcDbLine
 10
2.499999944120191
 20
26.79999917745636
 30
0.0
 11
2.499999944120191
 21
33.19999948143959
 31
0.0
  0
LINE
  5
E024
330
DFD3
100
AcDbEntity
  8
0
  6
Continuous
 62
     7
370
    25
100
AcDbLine
 10
3.700000001117587
 20
26.49999968707561
 30
0.0
 11
2.799999900161765
 21
26.49999968707561
 31
0.0
  0
LINE
  5
E025
330
DFD3
100
AcDbEntity
  8
0
  6
Continuous
 62
     7
370
    25
100
AcDbLine
 10
4.000000189989805
 20
27.95000001788139
 30
0.0
 11
4.000000189989805
 21
26.79999917745636
 31
0.0
  0
ARC
  5
E026
330
DFD3
100
AcDbEntity
  8
0
  6
Continuous
 62
     7
370
    25
100
AcDbCircle
 10
29.70000000000027
 20
5.199999999999818
 30
0.0
 40
0.3000000000006366
100
AcDbArc
 50
0.0
 51
90.0
  0
LINE
  5
E027
330
DFD3
100
AcDbEntity
  8
0
  6
Continuous
 62
     7
370
    25
100
AcDbLine
 10
4.999999888241291
 20
25.29999986290932
 30
0.0
 11
4.999999888241291
 21
27.95000001788139
 31
0.0
  0
LINE
  5
E028
330
DFD3
100
AcDbEntity
  8
0
  6
Continuous
 62
     7
370
    25
100
AcDbLine
 10
2.799999900161765
 20
25.00000037252903
 30
0.0
 11
4.699999932199717
 21
25.00000037252903
 31
0.0
  0
LINE
  5
E029
330
DFD3
100
AcDbEntity
  8
0
  6
Continuous
 62
     7
370
    25
100
AcDbLine
 10
2.499999944120191
 20
8.500000461935997
 30
0.0
 11
2.499999944120191
 21
24.70000088214874
 31
0.0
  0
LINE
  5
E02A
330
DFD3
100
AcDbEntity
  8
0
  6
Continuous
 62
     7
370
    25
100
AcDbLine
 10
14.99999966472342
 20
7.499999832361937
 30
0.0
 11
3.500000108033419
 21
7.499999832361937
 31
0.0
  0
LINE
  5
E02B
330
DFD3
100
AcDbEntity
  8
0
  6
Continuous
 62
     7
370
    25
100
AcDbLine
 10
17.50000007450535
 20
4.999999888241291
 30
0.0
 11
14.99999966472342
 21
7.499999832361937
 31
0.0
  0
LINE
  5
E02C
330
DFD3
100
AcDbEntity
  8
0
  6
Continuous
 62
     7
370
    25
100
AcDbLine
 10
18.50000023841858
 20
4.999999888241291
 30
0.0
 11
17.50000007450535
 21
4.999999888241291
 31
0.0
  0
LINE
  5
E02D
330
DFD3
100
AcDbEntity
  8
0
  6
Continuous
 62
     7
370
    25
100
AcDbLine
 10
18.99999938905239
 20
4.499999806284904
 30
0.0
 11
18.50000023841858
 21
4.999999888241291
 31
0.0
  0
ARC
  5
E02E
330
DFD3
100
AcDbEntity
  8
0
  6
Continuous
 62
     7
370
    25
100
AcDbCircle
 10
4.299999999999727
 20
27.95000000000027
 30
0.0
 40
0.2999999999997272
100
AcDbArc
 50
90.0
 51
180.0
  0
ARC
  5
E02F
330
DFD3
100
AcDbEntity
  8
0
  6
Continuous
 62
     7
370
    25
100
AcDbCircle
 10
3.700000000000273
 20
26.80000000000018
 30
0.0
 40
0.3000000000001819
100
AcDbArc
 50
270.0
 51
0.0
  0
LINE
  5
E030
330
DFD3
100
AcDbEntity
  8
0
  6
Continuous
 62
     7
370
    25
100
AcDbLine
 10
23.00000004470303
 20
7.499999832361937
 30
0.0
 11
20.50000056624413
 21
4.999999888241291
 31
0.0
  0
LINE
  5
E031
330
DFD3
100
AcDbEntity
  8
0
  6
Continuous
 62
     7
370
    25
100
AcDbLine
 10
31.50000050663948
 20
7.499999832361937
 30
0.0
 11
23.00000004470303
 21
7.499999832361937
 31
0.0
  0
LINE
  5
E032
330
DFD3
100
AcDbEntity
  8
0
  6
Continuous
 62
     7
370
    25
100
AcDbLine
 10
32.00000151991844
 20
5.499999970198132
 30
0.0
 11
32.00000151991844
 21
7.000000216066837
 31
0.0
  0
LINE
  5
E033
330
DFD3
100
AcDbEntity
  8
0
  6
Continuous
 62
     7
370
    25
100
AcDbLine
 10
30.30000068247318
 20
4.499999806284904
 30
0.0
 11
30.99999949336052
 21
4.499999806284904
 31
0.0
  0
ARC
  5
E034
330
DFD3
100
AcDbEntity
  8
0
  6
Continuous
 62
     7
370
    25
100
AcDbCircle
 10
13.95000000000027
 20
4.700000000000273
 30
0.0
 40
0.3000000000001819
100
AcDbArc
 50
0.0
 51
90.0
  0
ARC
  5
E035
330
DFD3
100
AcDbEntity
  8
0
  6
Continuous
 62
     7
370
    25
100
AcDbCircle
 10
2.050000000000182
 20
4.700000000000273
 30
0.0
 40
0.3000000000001819
100
AcDbArc
 50
90.0
 51
180.0
  0
LINE
  5
E036
330
DFD3
100
AcDbEntity
  8
0
  6
Continuous
 62
     7
370
    25
100
AcDbLine
 10
4.699999932199717
 20
28.24999950826168
 30
0.0
 11
4.30000014603138
 21
28.24999950826168
 31
0.0
  0
LINE
  5
E037
330
DFD3
100
AcDbEntity
  8
0
  6
Continuous
 62
     7
370
    25
100
AcDbLine
 10
34.20000150799706
 20
1.500000013038516
 30
0.0
 11
24.49999935925007
 21
1.500000013038516
 31
0.0
  0
ARC
  5
E038
330
DFD3
100
AcDbEntity
  8
0
  6
Continuous
 62
     7
370
    25
100
AcDbCircle
 10
34.20000000000027
 20
1.200000000000273
 30
0.0
 40
0.2999999999997272
100
AcDbArc
 50
0.0
 51
90.0
  0
ARC
  5
E039
330
DFD3
100
AcDbEntity
  8
0
  6
Continuous
 62
     7
370
    25
100
AcDbCircle
 10
24.5
 20
5.000000000000455
 30
0.0
 40
0.5
100
AcDbArc
 50
90.0
 51
180.0
  0
ARC
  5
E03A
330
DFD3
100
AcDbEntity
  8
0
  6
Continuous
 62
     7
370
    25
100
AcDbCircle
 10
19.0
 20
0.0000000000004547
 30
0.0
 40
3.25
100
AcDbArc
 50
0.0
 51
180.0
  0
LINE
  5
E03B
330
DFD3
100
AcDbEntity
  8
0
  6
Continuous
 62
     7
370
    25
100
AcDbLine
 10
13.0000002682209
 20
0.0000000000004547
 30
0.0
 11
15.75000025331974
 21
0.0000000000004547
 31
0.0
  0
LINE
  5
E03C
330
DFD3
100
AcDbEntity
  8
0
  6
Continuous
 62
     7
370
    25
100
AcDbLine
 10
13.0000002682209
 20
1.500000013038516
 30
0.0
 11
13.0000002682209
 21
0.0000000000004547
 31
0.0
  0
LINE
  5
E03D
330
DFD3
100
AcDbEntity
  8
0
  6
Continuous
 62
     7
370
    25
100
AcDbLine
 10
13.94999958574772
 20
1.799999969080091
 30
0.0
 11
13.29999975860119
 21
1.799999969080091
 31
0.0
  0
LINE
  5
E03E
330
DFD3
100
AcDbEntity
  8
0
  6
Continuous
 62
     7
370
    25
100
AcDbLine
 10
4.699999932199717
 20
35.00000014901161
 30
0.0
 11
0.3000000142492354
 21
35.00000014901161
 31
0.0
  0
LINE
  5
E03F
330
DFD3
100
AcDbEntity
  8
0
  6
Continuous
 62
     7
370
    25
100
AcDbLine
 10
4.999999888241291
 20
32.0499986410141
 30
0.0
 11
4.999999888241291
 21
34.69999879598663
 31
0.0
  0
LINE
  5
E040
330
DFD3
100
AcDbEntity
  8
0
  6
Continuous
 62
     7
370
    25
100
AcDbLine
 10
4.30000014603138
 20
31.75000101327896
 30
0.0
 11
4.699999932199717
 21
31.75000101327896
 31
0.0
  0
LINE
  5
E041
330
DFD3
100
AcDbEntity
  8
0
  6
Continuous
 62
     7
370
    25
100
AcDbLine
 10
2.700000070035458
 20
1.799999969080091
 30
0.0
 11
2.050000010057829
 21
1.799999969080091
 31
0.0
  0
LINE
  5
E042
330
DFD3
100
AcDbEntity
  8
0
  6
Continuous
 62
     7
370
    25
100
AcDbLine
 10
3.000000026077032
 20
0.0000000000004547
 30
0.0
 11
3.000000026077032
 21
1.500000013038516
 31
0.0
  0
LINE
  5
E043
330
DFD3
100
AcDbEntity
  8
0
  6
Continuous
 62
     7
370
    25
100
AcDbLine
 10
0.3000000142492354
 20
0.0000000000004547
 30
0.0
 11
3.000000026077032
 21
0.0000000000004547
 31
0.0
  0
LINE
  5
E044
330
DFD3
100
AcDbEntity
  8
0
  6
Continuous
 62
     7
370
    25
100
AcDbLine
 10
0.0
 20
34.69999879598663
 30
0.0
 11
0.0
 21
0.3000000142492354
 31
0.0
  0
ARC
  5
E045
330
DFD3
100
AcDbEntity
  8
0
  6
Continuous
 62
     7
370
    25
100
AcDbCircle
 10
13.29999999999973
 20
1.5
 30
0.0
 40
0.2999999999997272
100
AcDbArc
 50
90.0
 51
180.0
  0
LINE
  5
E046
330
DFD3
100
AcDbEntity
  8
0
  6
Continuous
 62
     7
370
    25
100
AcDbLine
 10
19.50000040233135
 20
4.999999888241291
 30
0.0
 11
18.99999938905239
 21
4.499999806284904
 31
0.0
  0
LINE
  5
E047
330
DFD3
100
AcDbEntity
  8
0
  6
Continuous
 62
     7
370
    25
100
AcDbLine
 10
20.50000056624413
 20
4.999999888241291
 30
0.0
 11
19.50000040233135
 21
4.999999888241291
 31
0.0
  0
LINE
  5
E048
330
DFD3
100
AcDbEntity
  8
0
  6
Continuous
 62
     7
370
    25
100
AcDbLine
 10
29.99999932944775
 20
5.200000014156558
 30
0.0
 11
29.99999932944775
 21
4.800000227987766
 31
0.0
  0
LINE
  5
E049
330
DFD3
100
AcDbEntity
  8
0
  6
Continuous
 62
     7
370
    25
100
AcDbLine
 10
24.49999935925007
 20
5.499999970198132
 30
0.0
 11
29.699999839067
 21
5.499999970198132
 31
0.0
  0
LINE
  5
E04A
330
DFD3
100
AcDbEntity
  8
0
  6
Continuous
 62
     7
370
    25
100
AcDbLine
 10
24.00000020861626
 20
2.000000094995357
 30
0.0
 11
24.00000020861626
 21
4.999999888241291
 31
0.0
  0
LINE
  5
E04B
330
DFD3
100
AcDbEntity
  8
0
  6
Continuous
 62
     7
370
    25
100
AcDbLine
 10
34.4999991357322
 20
0.3000000142492354
 30
0.0
 11
34.4999991357322
 21
1.200000056996942
 31
0.0
  0
LINE
  5
E04C
330
DFD3
100
AcDbEntity
  8
0
  6
Continuous
 62
     7
370
    25
100
AcDbLine
 10
22.25000038743019
 20
0.0000000000004547
 30
0.0
 11
34.20000150799706
 21
0.0000000000004547
 31
0.0
  0
LINE
  5
E04D
330
DFD3
100
AcDbEntity
  8
0
  6
Continuous
 62
     7
370
    25
100
AcDbLine
 10
14.25000000745058
 20
4.699999932199717
 30
0.0
 11
14.25000000745058
 21
2.099999925121665
 31
0.0
  0
LINE
  5
E04E
330
DFD3
100
AcDbEntity
  8
0
  6
Continuous
 62
     7
370
    25
100
AcDbLine
 10
2.050000010057829
 20
4.999999888241291
 30
0.0
 11
13.94999958574772
 21
4.999999888241291
 31
0.0
  0
LINE
  5
E04F
330
DFD3
100
AcDbEntity
  8
0
  6
Continuous
 62
     7
370
    25
100
AcDbLine
 10
1.750000054016255
 20
2.099999925121665
 30
0.0
 11
1.750000054016255
 21
4.699999932199717
 31
0.0
  0
ENDBLK
  5
E050
330
DFD3
100
AcDbEntity
  8
0
100
AcDbBlockEnd
  0
BLOCK
  5
E055
330
E052
100
AcDbEntity
  8
0
100
AcDbBlockBegin
  2
A$C13358
 70
     0
 10
0.0
 20
0.0
 30
0.0
  3
A$C13358
  1

  0
LINE
  5
E056
330
E052
100
AcDbEntity
  8
0
  6
Continuous
 62
     7
370
    25
100
AcDbLine
 10
32.99999982118608
 20
123.7746988819824
 30
0.0
 11
33.30000117421152
 21
123.7746988819824
 31
0.0
  0
LINE
  5
E057
330
E052
100
AcDbEntity
  8
0
  6
Continuous
 62
     7
370
    25
100
AcDbLine
 10
37.70000115036966
 20
123.7746988819824
 30
0.0
 11
33.30000117421152
 21
123.7746988819824
 31
0.0
  0
LINE
  5
E058
330
E052
100
AcDbEntity
  8
0
  6
Continuous
 62
     7
370
    25
100
AcDbLine
 10
37.70000115036966
 20
123.7746988819824
 30
0.0
 11
37.9999987781048
 21
123.7746988819824
 31
0.0
  0
LINE
  5
E059
330
E052
100
AcDbEntity
  8
0
  6
Continuous
 62
     7
370
    25
100
AcDbLine
 10
32.99999982118608
 20
123.7746988819824
 30
0.0
 11
32.00000151991846
 21
123.7746988819824
 31
0.0
  0
LINE
  5
E05A
330
E052
100
AcDbEntity
  8
0
  6
Continuous
 62
     7
370
    25
100
AcDbLine
 10
4.699999932199731
 20
123.7746988819824
 30
0.0
 11
0.3000000142492496
 21
123.7746988819824
 31
0.0
  0
LINE
  5
E05B
330
E052
100
AcDbEntity
  8
0
  6
Continuous
 62
     7
370
    25
100
AcDbLine
 10
4.699999932199731
 20
123.7746988819824
 30
0.0
 11
4.999999888241305
 21
123.7746988819824
 31
0.0
  0
LINE
  5
E05C
330
E052
100
AcDbEntity
  8
0
  6
Continuous
 62
     7
370
    25
100
AcDbLine
 10
0.0000000000000142
 20
123.7746988819824
 30
0.0
 11
0.3000000142492496
 21
123.7746988819824
 31
0.0
  0
LINE
  5
E05D
330
E052
100
AcDbEntity
  8
0
  6
Continuous
 62
     7
370
    25
100
AcDbLine
 10
31.50000050663949
 20
123.7746988819824
 30
0.0
 11
23.00000004470304
 21
123.7746988819824
 31
0.0
  0
LINE
  5
E05E
330
E052
100
AcDbEntity
  8
0
  6
Continuous
 62
     7
370
    25
100
AcDbLine
 10
31.50000050663949
 20
123.7746988819824
 30
0.0
 11
32.00000151991846
 21
123.7746988819824
 31
0.0
  0
LINE
  5
E05F
330
E052
100
AcDbEntity
  8
0
  6
Continuous
 62
     7
370
    25
100
AcDbLine
 10
14.99999966472343
 20
123.7746988819824
 30
0.0
 11
4.999999888241305
 21
123.7746988819824
 31
0.0
  0
LINE
  5
E060
330
E052
100
AcDbEntity
  8
0
  6
Continuous
 62
     7
370
    25
100
AcDbLine
 10
23.00000004470304
 20
123.7746988819824
 30
0.0
 11
20.50000056624414
 21
123.7746988819824
 31
0.0
  0
LINE
  5
E061
330
E052
100
AcDbEntity
  8
0
  6
Continuous
 62
     7
370
    25
100
AcDbLine
 10
17.50000007450537
 20
123.7746988819824
 30
0.0
 11
14.99999966472343
 21
123.7746988819824
 31
0.0
  0
LINE
  5
E062
330
E052
100
AcDbEntity
  8
0
  6
Continuous
 62
     7
370
    25
100
AcDbLine
 10
19.50000040233137
 20
123.7746988819824
 30
0.0
 11
18.99999938905241
 21
123.7746988819824
 31
0.0
  0
LINE
  5
E063
330
E052
100
AcDbEntity
  8
0
  6
Continuous
 62
     7
370
    25
100
AcDbLine
 10
18.50000023841859
 20
123.7746988819824
 30
0.0
 11
17.50000007450537
 21
123.7746988819824
 31
0.0
  0
LINE
  5
E064
330
E052
100
AcDbEntity
  8
0
  6
Continuous
 62
     7
370
    25
100
AcDbLine
 10
18.99999938905241
 20
123.7746988819824
 30
0.0
 11
18.50000023841859
 21
123.7746988819824
 31
0.0
  0
LINE
  5
E065
330
E052
100
AcDbEntity
  8
0
  6
Continuous
 62
     7
370
    25
100
AcDbLine
 10
20.50000056624414
 20
123.7746988819824
 30
0.0
 11
19.50000040233137
 21
123.7746988819824
 31
0.0
  0
LINE
  5
E066
330
E052
100
AcDbEntity
  8
0
  6
Continuous
 62
     7
370
    25
100
AcDbLine
 10
4.999999888241305
 20
123.7746988819824
 30
0.0
 11
4.999999888241305
 21
0.0
 31
0.0
  0
LINE
  5
E067
330
E052
100
AcDbEntity
  8
0
  6
Continuous
 62
     7
370
    25
100
AcDbLine
 10
0.0000000000000142
 20
0.0
 30
0.0
 11
0.0000000000000142
 21
123.7746988819824
 31
0.0
  0
LINE
  5
E068
330
E052
100
AcDbEntity
  8
0
  6
Continuous
 62
     7
370
    25
100
AcDbLine
 10
23.00000004470304
 20
0.0000000000000284
 30
0.0
 11
23.00000004470304
 21
123.7746988819824
 31
0.0
  0
LINE
  5
E069
330
E052
100
AcDbEntity
  8
0
  6
Continuous
 62
     7
370
    25
100
AcDbLine
 10
32.00000151991846
 20
123.7746988819824
 30
0.0
 11
32.00000151991846
 21
0.0
 31
0.0
  0
LINE
  5
E06A
330
E052
100
AcDbEntity
  8
0
  6
Continuous
 62
     7
370
    25
100
AcDbLine
 10
14.99999966472343
 20
0.0000000000000284
 30
0.0
 11
14.99999966472343
 21
123.7746988819824
 31
0.0
  0
LINE
  5
E06B
330
E052
100
AcDbEntity
  8
0
  6
Continuous
 62
     7
370
    25
100
AcDbLine
 10
20.50000056624414
 20
0.0000000000000284
 30
0.0
 11
20.50000056624414
 21
123.7746988819824
 31
0.0
  0
LINE
  5
E06C
330
E052
100
AcDbEntity
  8
0
  6
Continuous
 62
     7
370
    25
100
AcDbLine
 10
17.50000007450537
 20
0.0000000000000284
 30
0.0
 11
17.50000007450537
 21
123.7746988819824
 31
0.0
  0
LINE
  5
E06D
330
E052
100
AcDbEntity
  8
0
  6
Continuous
 62
     7
370
    25
100
AcDbLine
 10
4.699999932199731
 20
0.0
 30
0.0
 11
4.699999932199731
 21
123.7746988819824
 31
0.0
  0
LINE
  5
E06E
330
E052
100
AcDbEntity
  8
0
  6
Continuous
 62
     7
370
    25
100
AcDbLine
 10
19.50000040233137
 20
0.0000000000000284
 30
0.0
 11
19.50000040233137
 21
123.7746988819824
 31
0.0
  0
LINE
  5
E06F
330
E052
100
AcDbEntity
  8
0
  6
Continuous
 62
     7
370
    25
100
AcDbLine
 10
18.99999938905241
 20
0.0000000000000284
 30
0.0
 11
18.99999938905241
 21
123.7746988819824
 31
0.0
  0
LINE
  5
E070
330
E052
100
AcDbEntity
  8
0
  6
Continuous
 62
     7
370
    25
100
AcDbLine
 10
18.50000023841859
 20
0.0000000000000284
 30
0.0
 11
18.50000023841859
 21
123.7746988819824
 31
0.0
  0
LINE
  5
E071
330
E052
100
AcDbEntity
  8
0
  6
Continuous
 62
     8
370
    25
100
AcDbLine
 10
31.50000050663949
 20
0.0000000000000284
 30
0.0
 11
31.50000050663949
 21
123.7746988819824
 31
0.0
  0
LINE
  5
E072
330
E052
100
AcDbEntity
  8
0
  6
Continuous
 62
     7
370
    25
100
AcDbLine
 10
37.9999987781048
 20
123.7746988819824
 30
0.0
 11
37.9999987781048
 21
0.0
 31
0.0
  0
LINE
  5
E073
330
E052
100
AcDbEntity
  8
0
  6
Continuous
 62
     7
370
    25
100
AcDbLine
 10
37.70000115036966
 20
0.0
 30
0.0
 11
37.70000115036966
 21
123.7746988819824
 31
0.0
  0
LINE
  5
E074
330
E052
100
AcDbEntity
  8
0
  6
Continuous
 62
     7
370
    25
100
AcDbLine
 10
0.3000000142492496
 20
123.7746988819824
 30
0.0
 11
0.3000000142492496
 21
0.0
 31
0.0
  0
LINE
  5
E075
330
E052
100
AcDbEntity
  8
0
  6
Continuous
 62
     7
370
    25
100
AcDbLine
 10
33.30000117421152
 20
123.7746988819824
 30
0.0
 11
33.30000117421152
 21
0.0
 31
0.0
  0
LINE
  5
E076
330
E052
100
AcDbEntity
  8
0
  6
Continuous
 62
     7
370
    25
100
AcDbLine
 10
32.99999982118608
 20
0.0
 30
0.0
 11
32.99999982118608
 21
123.7746988819824
 31
0.0
  0
LINE
  5
E077
330
E052
100
AcDbEntity
  8
0
  6
Continuous
370
     0
100
AcDbLine
 10
37.9999987781048
 20
0.0000000000000142
 30
0.0
 11
0.0000000000000142
 21
0.0000000000000142
 31
0.0
  0
ENDBLK
  5
E078
330
E052
100
AcDbEntity
  8
0
100
AcDbBlockEnd
  0
ENDSEC
  0
SECTION
  2
ENTITIES
  0
TEXT
  5
C334
330
A
100
AcDbEntity
  8
0
  6
Continuous
 62
     7
370
     0
100
AcDbText
 10
274.1000148357213
 20
-208.2990257821266
 30
0.0
 40
10.0
  1
P20EP61
100
AcDbText
  0
LWPOLYLINE
  5
C57D
330
A
100
AcDbEntity
  8
0
  6
Continuous
370
     0
100
AcDbPolyline
 90
        4
 70
     1
 43
0.0
 10
-31.3422140046244
 20
61.58091282650281
 10
-31.3422140046244
 20
-149.0525946164497
 10
190.5551173657586
 20
-149.0525946164497
 10
190.5551173657586
 20
61.58091282650281
  0
LWPOLYLINE
  5
C57F
330
A
100
AcDbEntity
  8
0
  6
Continuous
370
     0
100
AcDbPolyline
 90
        4
 70
     1
 43
0.0
 10
195.5551173657586
 20
61.58091282650281
 10
195.5551173657586
 20
-149.0525946164497
 10
417.4524487361416
 20
-149.0525946164497
 10
417.4524487361416
 20
61.58091282650281
  0
LWPOLYLINE
  5
C582
330
A
100
AcDbEntity
  8
0
  6
Continuous
370
     0
100
AcDbPolyline
 90
        4
 70
     1
 43
0.0
 10
-31.3422140046244
 20
-154.0525946164497
 10
-31.3422140046244
 20
-364.6861020594021
 10
190.5551173657586
 20
-364.6861020594021
 10
190.5551173657586
 20
-154.0525946164497
  0
LWPOLYLINE
  5
C583
330
A
100
AcDbEntity
  8
0
  6
Continuous
370
     0
100
AcDbPolyline
 90
        4
 70
     1
 43
0.0
 10
195.5551173657586
 20
-154.0525946164497
 10
195.5551173657586
 20
-364.6861020594021
 10
417.4524487361416
 20
-364.6861020594021
 10
417.4524487361416
 20
-154.0525946164497
  0
LINE
  5
CF10
330
A
100
AcDbEntity
  8
0
100
AcDbLine
 10
405.7996412027933
 20
-118.1946540393526
 30
0.0
 11
289.3055473283595
 21
-50.94404511510271
 31
0.0
  0
LINE
  5
CF11
330
A
100
AcDbEntity
  8
0
100
AcDbLine
 10
413.4521686756635
 20
-111.1608106181561
 30
0.0
 11
296.9580748012214
 21
-43.91020169390151
 31
0.0
  0
LINE
  5
CF12
330
A
100
AcDbEntity
  8
0
100
AcDbLine
 10
291.8004626288749
 20
-54.88438965748492
 30
0.0
 11
408.2945565033133
 21
-122.1349985817378
 31
0.0
  0
LINE
  5
CF13
330
A
100
AcDbEntity
  8
0
100
AcDbLine
 10
292.2047821952847
 20
-55.72261808181838
 30
0.0
 11
408.6988760697205
 21
-122.9732270060695
 31
0.0
  0
LINE
  5
CF14
330
A
100
AcDbEntity
  8
0
100
AcDbLine
 10
414.3006968130867
 20
-113.4809673425596
 30
0.0
 11
413.5039555293807
 21
-113.0210183897643
 31
0.0
  0
LINE
  5
CF15
330
A
100
AcDbEntity
  8
0
100
AcDbLine
 10
385.0787065691484
 20
-125.8270101711048
 30
0.0
 11
268.5846126947613
 21
-58.57640124688191
 31
0.0
  0
LINE
  5
CF16
330
A
100
AcDbEntity
  8
0
100
AcDbLine
 10
384.5130211441993
 20
-128.941237490686
 30
0.0
 11
383.5045864197692
 21
-128.3590805158321
 31
0.0
  0
LINE
  5
CF17
330
A
100
AcDbEntity
  8
0
100
AcDbLine
 10
379.7330641785284
 20
-136.1318442895817
 30
0.0
 11
380.9292822187199
 21
-136.8224062651593
 31
0.0
  0
LINE
  5
CF18
330
A
100
AcDbEntity
  8
0
100
AcDbLine
 10
384.5130211441993
 20
-130.5743191144575
 30
0.0
 11
383.7195664725887
 21
-130.11626748244
 31
0.0
  0
LINE
  5
CF19
330
A
100
AcDbEntity
  8
0
100
AcDbLine
 10
384.5130211441993
 20
-132.2074007382291
 30
0.0
 11
383.7195664725887
 21
-131.7493491062114
 31
0.0
  0
LINE
  5
CF1A
330
A
100
AcDbEntity
  8
0
100
AcDbLine
 10
385.0787065691484
 20
-134.668501568352
 30
0.0
 11
383.5045760995009
 21
-133.7597753910047
 31
0.0
  0
LINE
  5
CF1B
330
A
100
AcDbEntity
  8
0
100
AcDbLine
 10
379.9271844372307
 20
-130.7600882419531
 30
0.0
 11
263.4330905627934
 21
-63.50947931770122
 31
0.0
  0
LINE
  5
CF1C
330
A
100
AcDbEntity
  8
0
100
AcDbLine
 10
262.808842747555
 20
-69.08172024870419
 30
0.0
 11
379.3029366219908
 21
-136.3323291729553
 31
0.0
  0
LINE
  5
CF1D
330
A
100
AcDbEntity
  8
0
100
AcDbLine
 10
413.7029449716193
 20
-115.0435614979569
 30
0.0
 11
414.3111257766123
 21
-115.5294403965258
 31
0.0
  0
LWPOLYLINE
  5
CF1E
330
A
100
AcDbEntity
  8
0
100
AcDbPolyline
 90
        9
 70
   128
 43
0.0
 10
414.3111257766123
 20
-115.5294403965258
 10
414.3375127099535
 20
-115.5632083460389
 10
414.35097131767
 20
-115.6110086437207
 10
414.3504262530869
 20
-115.6690220318656
 10
414.3359210670215
 20
-115.7326132238657
 10
414.3086147280665
 20
-115.7967012649606
 10
414.2706890206555
 20
-115.8561655020026
 10
414.225174219856
 20
-115.9062547251344
 10
414.1757069715077
 20
-115.9429667908403
  0
LINE
  5
CF1F
330
A
100
AcDbEntity
  8
0
100
AcDbLine
 10
414.1757069715077
 20
-115.9429667908403
 30
0.0
 11
413.5071752301802
 21
-116.3289019502479
 31
0.0
  0
ARC
  5
CF20
330
A
100
AcDbEntity
  8
0
100
AcDbCircle
 10
402.656126102208
 20
-113.8219576460972
 30
0.0
 40
11.13687734159698
100
AcDbArc
 50
305.2231066836192
 51
346.9910660301457
  0
LWPOLYLINE
  5
CF21
330
A
100
AcDbEntity
  8
0
100
AcDbPolyline
 90
        9
 70
   128
 43
0.0
 10
409.0794516775769
 20
-122.9198104408279
 10
408.9342683946189
 20
-122.9891916058734
 10
408.7990157950699
 20
-123.0046462499208
 10
408.6854163414437
 20
-122.9648349052918
 10
408.6033157989314
 20
-122.8732080564614
 10
408.5598298942196
 20
-122.7377070835166
 10
408.5587275891567
 20
-122.5700759757124
 10
408.6001044215009
 20
-122.3848434695306
 10
408.6803742245684
 20
-122.1980638302293
  0
LINE
  5
CF22
330
A
100
AcDbEntity
  8
0
100
AcDbLine
 10
408.6803742245684
 20
-122.1980638302293
 30
0.0
 11
408.5209412918112
 21
-122.0271700780445
 31
0.0
  0
LWPOLYLINE
  5
CF23
330
A
100
AcDbEntity
  8
0
100
AcDbPolyline
 90
        9
 70
   128
 43
0.0
 10
408.5209412918112
 20
-122.0271700780445
 10
408.4907425737675
 20
-122.0642329526383
 10
408.4578078245759
 20
-122.0956948676487
 10
408.4234027081775
 20
-122.1203467593259
 10
408.3888493939003
 20
-122.1372412692979
 10
408.3554757462353
 20
-122.1457291510205
 10
408.3245642957446
 20
-122.1454842199594
 10
408.2973029521364
 20
-122.1365158886783
 10
408.2747393535574
 20
-122.1191688051183
  0
LINE
  5
CF24
330
A
100
AcDbEntity
  8
0
100
AcDbLine
 10
408.2747393535574
 20
-122.1191688051183
 30
0.0
 11
405.3140069035472
 21
-118.9456044175806
 31
0.0
  0
LWPOLYLINE
  5
CF25
330
A
100
AcDbEntity
  8
0
100
AcDbPolyline
 90
        9
 70
   128
 43
0.0
 10
405.3140069035472
 20
-118.9456044175806
 10
405.2640040007646
 20
-118.8432429230086
 10
405.2612955798059
 20
-118.701471290218
 10
405.3062939732127
 20
-118.5418729651383
 10
405.3921485834972
 20
-118.3887453460002
 10
405.5057888245202
 20
-118.2654007247127
 10
405.6299139997364
 20
-118.1906172017443
 10
405.7456271764159
 20
-118.1757798905533
 10
405.8353120723532
 20
-118.2231476372674
  0
LINE
  5
CF26
330
A
100
AcDbEntity
  8
0
100
AcDbLine
 10
405.8353120723532
 20
-118.2231476372674
 30
0.0
 11
408.7960445223635
 21
-121.3967120248053
 31
0.0
  0
ARC
  5
CF27
330
A
100
AcDbEntity
  8
0
100
AcDbCircle
 10
408.5547124059322
 20
-121.5205758986915
 30
0.0
 40
0.2712626949568926
100
AcDbArc
 50
316.8549744016188
 51
27.16919317550213
  0
LINE
  5
CF28
330
A
100
AcDbEntity
  8
0
100
AcDbLine
 10
408.7526324779465
 20
-121.7060781756829
 30
0.0
 11
408.8741598279067
 21
-121.8363415062804
 31
0.0
  0
LINE
  5
CF29
330
A
100
AcDbEntity
  8
0
100
AcDbLine
 10
408.8741598279067
 20
-121.8363415062804
 30
0.0
 11
409.8774313657778
 21
-120.098624234
 31
0.0
  0
ARC
  5
CF2A
330
A
100
AcDbEntity
  8
0
100
AcDbCircle
 10
406.172856259097
 20
-117.8600237206897
 30
0.0
 40
4.328418761999785
100
AcDbArc
 50
328.8562722006309
 51
358.0435013569535
  0
LINE
  5
CF2B
330
A
100
AcDbEntity
  8
0
100
AcDbLine
 10
410.4987517093378
 20
-118.007798998794
 30
0.0
 11
410.4987517093378
 21
-115.2604980661931
 31
0.0
  0
ARC
  5
CF2C
330
A
100
AcDbEntity
  8
0
100
AcDbCircle
 10
408.496113415873
 20
-115.0634184931487
 30
0.0
 40
2.01231222541732
100
AcDbArc
 50
354.3796210363378
 51
54.30196147125285
  0
LINE
  5
CF2D
330
A
100
AcDbEntity
  8
0
100
AcDbLine
 10
409.6703245845911
 20
-113.4292126848675
 30
0.0
 11
408.4249179917452
 21
-112.7100210415085
 31
0.0
  0
LWPOLYLINE
  5
CF2E
330
A
100
AcDbEntity
  8
0
100
AcDbPolyline
 90
        9
 70
   128
 43
0.0
 10
408.4249179917452
 20
-112.7100210415085
 10
408.3685230138099
 20
-112.6495286748245
 10
408.343130056448
 20
-112.5544645337743
 10
408.3518095112568
 20
-112.4363233070615
 10
408.3935119012231
 20
-112.309390051166
 10
408.4631947783128
 20
-112.1890129115247
 10
408.5524324315157
 20
-112.0897473002196
 10
408.6504346824004
 20
-112.0235959270874
 10
408.7453515804646
 20
-111.9985574910395
  0
LINE
  5
CF2F
330
A
100
AcDbEntity
  8
0
100
AcDbLine
 10
408.7453515804646
 20
-111.9985574910395
 30
0.0
 11
413.4024498270338
 21
-111.1491644650189
 31
0.0
  0
ARC
  5
CF30
330
A
100
AcDbEntity
  8
0
100
AcDbCircle
 10
413.3983120904186
 20
-111.2564004002552
 30
0.0
 40
0.1073157335636668
100
AcDbArc
 50
349.8719016858664
 51
87.79031819355055
  0
LINE
  5
CF31
330
A
100
AcDbEntity
  8
0
100
AcDbLine
 10
413.5039555293807
 20
-111.2752718197735
 30
0.0
 11
413.5039555293807
 21
-113.881138208299
 31
0.0
  0
LINE
  5
CF32
330
A
100
AcDbEntity
  8
0
100
AcDbLine
 10
413.5039555293807
 20
-113.881138208299
 30
0.0
 11
414.1757069715077
 21
-113.4933443551831
 31
0.0
  0
LWPOLYLINE
  5
CF33
330
A
100
AcDbEntity
  8
0
100
AcDbPolyline
 90
        9
 70
   128
 43
0.0
 10
414.1757069715077
 20
-113.4933443551831
 10
414.225174219856
 20
-113.4729427516447
 10
414.2706890206555
 20
-113.4704817043375
 10
414.3086147280665
 20
-113.4861578516586
 10
414.3359210670215
 20
-113.5187186648716
 10
414.3504262530869
 20
-113.5655625255181
 10
414.35097131767
 20
-113.6229465954902
 10
414.3375127099535
 20
-113.6862858708853
 10
414.3111257766123
 20
-113.7505195251531
  0
LINE
  5
CF34
330
A
100
AcDbEntity
  8
0
100
AcDbLine
 10
414.3111257766123
 20
-113.7505195251531
 30
0.0
 11
413.7029449716193
 21
-114.9385890346202
 31
0.0
  0
ARC
  5
CF35
330
A
100
AcDbEntity
  8
0
100
AcDbCircle
 10
413.7751776438382
 20
-114.9910752662886
 30
0.0
 40
0.0892880924350562
100
AcDbArc
 50
143.9968210869027
 51
216.0031789130973
  0
LWPOLYLINE
  5
CF36
330
A
100
AcDbEntity
  8
0
100
AcDbPolyline
 90
        9
 70
   128
 43
0.0
 10
291.9308241173085
 20
-45.45941211725767
 10
291.8744291393733
 20
-45.3989197505739
 10
291.8490361820105
 20
-45.30385560952345
 10
291.8577156368202
 20
-45.18571438281106
 10
291.8994180267865
 20
-45.05878112691516
 10
291.9691009038771
 20
-44.93840398727434
 10
292.0583385570799
 20
-44.83913837596856
 10
292.1563408079647
 20
-44.772987002837
 10
292.251257706027
 20
-44.74794856678909
  0
LINE
  5
CF37
330
A
100
AcDbEntity
  8
0
100
AcDbLine
 10
292.2512577060316
 20
-44.74794856678955
 30
0.0
 11
408.7453515804646
 21
-111.9985574910393
 31
0.0
  0
LINE
  5
CF38
330
A
100
AcDbEntity
  8
0
100
AcDbLine
 10
292.251257706027
 20
-44.74794856678909
 30
0.0
 11
296.9083559525962
 21
-43.89855554076803
 31
0.0
  0
LINE
  5
CF39
330
A
100
AcDbEntity
  8
0
100
AcDbLine
 10
296.908355952598
 20
-43.89855554076803
 30
0.0
 11
413.4024498270338
 21
-111.1491644650191
 31
0.0
  0
LINE
  5
CF3A
330
A
100
AcDbEntity
  8
0
100
AcDbLine
 10
293.1762307101554
 20
-46.17860376061708
 30
0.0
 11
291.9308241173085
 21
-45.45941211725767
 31
0.0
  0
LWPOLYLINE
  5
CF3B
330
A
100
AcDbEntity
  8
0
100
AcDbPolyline
 90
        9
 70
   128
 43
0.0
 10
288.8199130291105
 20
-51.69499549332977
 10
288.7699101263279
 20
-51.59263399875817
 10
288.7672017053692
 20
-51.45086236596717
 10
288.8122000987751
 20
-51.29126404088765
 10
288.8980547090605
 20
-51.13813642174955
 10
289.0116949500835
 20
-51.01479180046181
 10
289.1358201252997
 20
-50.94000827749369
 10
289.2515333019792
 20
-50.92517096630263
 10
289.3055473283567
 20
-50.94404511510174
  0
LINE
  5
CF3C
330
A
100
AcDbEntity
  8
0
100
AcDbLine
 10
291.7806454791217
 20
-54.86855988086745
 30
0.0
 11
288.8199130291105
 21
-51.69499549332977
 31
0.0
  0
ARC
  5
CF3D
330
A
100
AcDbEntity
  8
0
100
AcDbCircle
 10
292.0020195414373
 20
-47.81280956889668
 30
0.0
 40
2.01231222541536
100
AcDbArc
 50
354.3796210362932
 51
54.3019614712509
  0
LINE
  5
CF3E
330
A
100
AcDbEntity
  8
0
100
AcDbLine
 10
294.0046578349002
 20
-50.75719007454336
 30
0.0
 11
294.0046578349002
 21
-48.00988914194249
 31
0.0
  0
ARC
  5
CF3F
330
A
100
AcDbEntity
  8
0
100
AcDbCircle
 10
296.9132804895181
 20
-43.98948308377476
 30
0.0
 40
0.091060799146578
100
AcDbArc
 50
60.53337290134205
 51
93.10004851625382
  0
ARC
  5
CF40
330
A
100
AcDbEntity
  8
0
100
AcDbCircle
 10
289.6787623846749
 20
-50.60941479644407
 30
0.0
 40
4.32841876198424
100
AcDbArc
 50
328.8562722005897
 51
358.0435013570126
  0
LINE
  5
CF41
330
A
100
AcDbEntity
  8
0
100
AcDbLine
 10
293.188438408306
 20
-53.18559042292372
 30
0.0
 11
293.3833374913411
 21
-52.84801530974937
 31
0.0
  0
LINE
  5
CF42
330
A
100
AcDbEntity
  8
0
100
AcDbLine
 10
291.8004626288758
 20
-54.88438965748674
 30
0.0
 11
291.7806454791217
 21
-54.86855988086745
 31
0.0
  0
LINE
  5
CF43
330
A
100
AcDbEntity
  8
0
100
AcDbLine
 10
408.4755209089145
 20
-122.0798045283225
 30
0.0
 11
408.6803742245684
 21
-122.1980638302293
 31
0.0
  0
ARC
  5
CF44
330
A
100
AcDbEntity
  8
0
100
AcDbCircle
 10
292.5753708210059
 20
-55.34958091839098
 30
0.0
 40
0.5258256886204078
100
AcDbArc
 50
148.3183334819556
 51
225.1886572138319
  0
LWPOLYLINE
  5
CF45
330
A
100
AcDbEntity
  8
0
100
AcDbPolyline
 90
        9
 70
   128
 43
0.0
 10
384.460794283451
 20
-132.1958670638173
 10
384.5033760672268
 20
-132.2026324660962
 10
384.5365452738334
 20
-132.2274552086801
 10
384.5575951682231
 20
-132.2683096601418
 10
384.5648079979165
 20
-132.3218619398463
 10
384.5575951682231
 20
-132.3837419754536
 10
384.5365452738334
 20
-132.4489001176592
 10
384.5033760672268
 20
-132.5120192110296
 10
384.460794283451
 20
-132.5679484943739
  0
LINE
  5
CF46
330
A
100
AcDbEntity
  8
0
100
AcDbLine
 10
383.6085898139664
 20
-133.5043750441209
 30
0.0
 11
384.460794283451
 21
-132.5679484943739
 31
0.0
  0
ARC
  5
CF47
330
A
100
AcDbEntity
  8
0
100
AcDbCircle
 10
383.8927544628478
 20
-133.7695083559888
 30
0.0
 40
0.3886453662867436
100
AcDbArc
 50
136.9843133837996
 51
177.1909194816136
  0
LINE
  5
CF48
330
A
100
AcDbEntity
  8
0
100
AcDbLine
 10
383.5045760995009
 20
-134.2403860857801
 30
0.0
 11
383.5045760995009
 21
-133.7504615986486
 31
0.0
  0
ARC
  5
CF49
330
A
100
AcDbEntity
  8
0
100
AcDbCircle
 10
383.6163299484761
 20
-134.2568466733007
 30
0.0
 40
0.1129596109339391
100
AcDbArc
 50
171.6209670479452
 51
252.6462612421006
  0
LINE
  5
CF4A
330
A
100
AcDbEntity
  8
0
100
AcDbLine
 10
385.0524320631076
 20
-134.6586843273749
 30
0.0
 11
383.5826374592589
 21
-134.3646645283745
 31
0.0
  0
LWPOLYLINE
  5
CF4B
330
A
100
AcDbEntity
  8
0
100
AcDbPolyline
 90
        9
 70
   128
 43
0.0
 10
385.0524320631076
 20
-134.6586843273749
 10
385.0972572008823
 20
-134.6830010642545
 10
385.124174703321
 20
-134.732520240796
 10
385.1298264317266
 20
-134.801064008095
 10
385.113507295132
 20
-134.8800810721432
 10
385.0772532151159
 20
-134.9597135250235
 10
385.0255871309537
 20
-135.0300266849404
 10
384.9649547326536
 20
-135.0822485143062
 10
384.902920317958
 20
-135.1098639901786
  0
LINE
  5
CF4C
330
A
100
AcDbEntity
  8
0
100
AcDbLine
 10
383.362726469899
 20
-135.4654312705529
 30
0.0
 11
384.902920317958
 21
-135.1098639901786
 31
0.0
  0
LINE
  5
CF4D
330
A
100
AcDbEntity
  8
0
100
AcDbLine
 10
381.0292740919832
 20
-136.8125046550604
 30
0.0
 11
383.362726469899
 21
-135.4654312705529
 31
0.0
  0
ARC
  5
CF4E
330
A
100
AcDbEntity
  8
0
100
AcDbCircle
 10
380.9740676092316
 20
-136.7448227432455
 30
0.0
 40
0.0873418394857582
100
AcDbArc
 50
170.7859630094826
 51
309.2032852353834
  0
LINE
  5
CF4F
330
A
100
AcDbEntity
  8
0
100
AcDbLine
 10
380.8878527357465
 20
-134.0362526246424
 30
0.0
 11
380.8878527357465
 21
-136.7308373038654
 31
0.0
  0
LINE
  5
CF50
330
A
100
AcDbEntity
  8
0
100
AcDbLine
 10
379.9686139202041
 20
-134.5669178973274
 30
0.0
 11
380.8878527357465
 21
-134.0362526246424
 31
0.0
  0
LINE
  5
CF51
330
A
100
AcDbEntity
  8
0
100
AcDbLine
 10
379.9686139202041
 20
-134.5669178973274
 30
0.0
 11
379.9686139202041
 21
-132.11729546167
 31
0.0
  0
LINE
  5
CF52
330
A
100
AcDbEntity
  8
0
100
AcDbLine
 10
380.8878527357465
 20
-131.5866301889853
 30
0.0
 11
379.9686139202041
 21
-132.11729546167
 31
0.0
  0
LINE
  5
CF53
330
A
100
AcDbEntity
  8
0
100
AcDbLine
 10
380.8878527357465
 20
-128.8920455097623
 30
0.0
 11
380.8878527357465
 21
-131.5866301889853
 31
0.0
  0
ARC
  5
CF54
330
A
100
AcDbEntity
  8
0
100
AcDbCircle
 10
381.1948959560214
 20
-128.9060176802152
 30
0.0
 40
0.3073609615161421
100
AcDbArc
 50
122.6054783402876
 51
177.3945215142112
  0
LINE
  5
CF55
330
A
100
AcDbEntity
  8
0
100
AcDbLine
 10
383.362726469899
 20
-127.3000231516953
 30
0.0
 11
381.0292740919832
 21
-128.6470965362028
 31
0.0
  0
LINE
  5
CF56
330
A
100
AcDbEntity
  8
0
100
AcDbLine
 10
384.902920317958
 20
-125.8773204666413
 30
0.0
 11
383.362726469899
 21
-127.3000231516953
 31
0.0
  0
LWPOLYLINE
  5
CF57
330
A
100
AcDbEntity
  8
0
100
AcDbPolyline
 90
        9
 70
   128
 43
0.0
 10
384.902920317958
 20
-125.8773204666413
 10
384.9649547326536
 20
-125.8333125318534
 10
385.0255871309537
 20
-125.8155296842335
 10
385.0772532151159
 20
-125.8261904531139
 10
385.113507295132
 20
-125.8639648361816
 10
385.1298264317266
 20
-125.9241402261739
 10
385.124174703321
 20
-125.9992093401943
 10
385.0972572008823
 20
-126.079806803531
 10
385.0524320631076
 20
-126.1558775428714
  0
LINE
  5
CF58
330
A
100
AcDbEntity
  8
0
100
AcDbLine
 10
383.5826374592589
 20
-128.1468860700536
 30
0.0
 11
385.0524320631076
 21
-126.1558775428714
 31
0.0
  0
ARC
  5
CF59
330
A
100
AcDbEntity
  8
0
100
AcDbCircle
 10
383.8832515619707
 20
-128.3777475999643
 30
0.0
 40
0.3790328280531969
100
AcDbArc
 50
142.4769483584961
 51
177.5117746654975
  0
LINE
  5
CF5A
330
A
100
AcDbEntity
  8
0
100
AcDbLine
 10
383.5045760995009
 20
-128.8512167273341
 30
0.0
 11
383.5045760995009
 21
-128.3612922402028
 31
0.0
  0
ARC
  5
CF5B
330
A
100
AcDbEntity
  8
0
100
AcDbCircle
 10
383.6098121273608
 20
-128.8702713961713
 30
0.0
 40
0.1069471924092839
100
AcDbArc
 50
169.7368756233477
 51
269.3451448145324
  0
LINE
  5
CF5C
330
A
100
AcDbEntity
  8
0
100
AcDbLine
 10
384.460794283451
 20
-128.9297038162742
 30
0.0
 11
383.6085898139664
 21
-128.977211603363
 31
0.0
  0
LWPOLYLINE
  5
CF5D
330
A
100
AcDbEntity
  8
0
100
AcDbPolyline
 90
        9
 70
   128
 43
0.0
 10
384.460794283451
 20
-128.9297038162742
 10
384.5033760672268
 20
-128.9364692185532
 10
384.5365452738334
 20
-128.961291961137
 10
384.5575951682231
 20
-129.0021464125989
 10
384.5648079979165
 20
-129.0556986923034
 10
384.5575951682231
 20
-129.1175787279108
 10
384.5365452738334
 20
-129.1827368701161
 10
384.5033760672268
 20
-129.2458559634867
 10
384.460794283451
 20
-129.3017852468308
  0
LINE
  5
CF5E
330
A
100
AcDbEntity
  8
0
100
AcDbLine
 10
383.6085898139664
 20
-130.2382117965781
 30
0.0
 11
384.460794283451
 21
-129.3017852468308
 31
0.0
  0
LWPOLYLINE
  5
CF5F
330
A
100
AcDbEntity
  8
0
100
AcDbPolyline
 90
        9
 70
   128
 43
0.0
 10
383.6085898139664
 20
-130.6102932271344
 10
383.5660080301905
 20
-130.6035278248557
 10
383.532838823584
 20
-130.5787050822719
 10
383.5117889291942
 20
-130.53785063081
 10
383.5045760995009
 20
-130.4842983511055
 10
383.5117889291942
 20
-130.4224183154981
 10
383.532838823584
 20
-130.3572601732928
 10
383.5660080301905
 20
-130.2941410799222
 10
383.6085898139664
 20
-130.2382117965781
  0
LINE
  5
CF60
330
A
100
AcDbEntity
  8
0
100
AcDbLine
 10
384.460794283451
 20
-130.5627854400459
 30
0.0
 11
383.6085898139664
 21
-130.6102932271344
 31
0.0
  0
LWPOLYLINE
  5
CF61
330
A
100
AcDbEntity
  8
0
100
AcDbPolyline
 90
        9
 70
   128
 43
0.0
 10
384.460794283451
 20
-130.5627854400459
 10
384.5033760672268
 20
-130.5695508423246
 10
384.5365452738334
 20
-130.5943735849085
 10
384.5575951682231
 20
-130.6352280363703
 10
384.5648079979165
 20
-130.6887803160748
 10
384.5575951682231
 20
-130.7506603516822
 10
384.5365452738334
 20
-130.8158184938875
 10
384.5033760672268
 20
-130.8789375872582
 10
384.460794283451
 20
-130.9348668706023
  0
LINE
  5
CF62
330
A
100
AcDbEntity
  8
0
100
AcDbLine
 10
383.6085898139664
 20
-131.8712934203495
 30
0.0
 11
384.460794283451
 21
-130.9348668706023
 31
0.0
  0
LWPOLYLINE
  5
CF63
330
A
100
AcDbEntity
  8
0
100
AcDbPolyline
 90
        9
 70
   128
 43
0.0
 10
383.6085898139664
 20
-132.2433748509061
 10
383.5660080301905
 20
-132.2366094486272
 10
383.532838823584
 20
-132.2117867060433
 10
383.5117889291942
 20
-132.1709322545814
 10
383.5045760995009
 20
-132.1173799748769
 10
383.5117889291942
 20
-132.0554999392696
 10
383.532838823584
 20
-131.9903417970643
 10
383.5660080301896
 20
-131.9272227036936
 10
383.6085898139664
 20
-131.8712934203495
  0
LINE
  5
CF64
330
A
100
AcDbEntity
  8
0
100
AcDbLine
 10
384.460794283451
 20
-132.1958670638173
 30
0.0
 11
383.6085898139664
 21
-132.2433748509061
 31
0.0
  0
ARC
  5
CF65
330
A
100
AcDbEntity
  8
0
100
AcDbCircle
 10
264.7008020815802
 20
-61.65540875596116
 30
0.0
 40
0.3073609615102366
100
AcDbArc
 50
122.6054783397404
 51
177.3945215147977
  0
LINE
  5
CF66
330
A
100
AcDbEntity
  8
0
100
AcDbLine
 10
379.9686139202041
 20
-131.0559649163006
 30
0.0
 11
380.8878527357465
 21
-131.5866301889853
 31
0.0
  0
LINE
  5
CF67
330
A
100
AcDbEntity
  8
0
100
AcDbLine
 10
264.3937588613108
 20
-61.64143658551166
 30
0.0
 11
264.3937588613108
 21
-64.0640613218261
 31
0.0
  0
LINE
  5
CF68
330
A
100
AcDbEntity
  8
0
100
AcDbLine
 10
266.8686325954632
 20
-60.04941422744469
 30
0.0
 11
264.5351802175474
 21
-61.39648761195213
 31
0.0
  0
LINE
  5
CF69
330
A
100
AcDbEntity
  8
0
100
AcDbLine
 10
266.8686325954641
 20
-60.04941422744469
 30
0.0
 11
383.362726469899
 21
-127.3000231516953
 31
0.0
  0
LINE
  5
CF6A
330
A
100
AcDbEntity
  8
0
100
AcDbLine
 10
268.4088264435223
 20
-58.62671154239069
 30
0.0
 11
266.8686325954632
 21
-60.04941422744469
 31
0.0
  0
LWPOLYLINE
  5
CF6B
330
A
100
AcDbEntity
  8
0
100
AcDbPolyline
 90
        5
 70
   128
 43
0.0
 10
268.4088264435223
 20
-58.62671154239069
 10
268.4708608582169
 20
-58.58270360760253
 10
268.5314932565171
 20
-58.56492075998267
 10
268.5831593406793
 20
-58.57558152886304
 10
268.5846126947118
 20
-58.57640124685395
  0
ARC
  5
CF6C
330
A
100
AcDbEntity
  8
0
100
AcDbCircle
 10
379.8823990467191
 20
-130.8376717638666
 30
0.0
 40
0.0873418394854382
100
AcDbArc
 50
350.7859630093731
 51
129.2032852362475
  0
LINE
  5
CF6D
330
A
100
AcDbEntity
  8
0
100
AcDbLine
 10
379.9686139202041
 20
-130.851657203247
 30
0.0
 11
379.9686139202041
 21
-135.8325561557501
 31
0.0
  0
ARC
  5
CF6E
330
A
100
AcDbEntity
  8
0
100
AcDbCircle
 10
379.661570699931
 20
-135.8185839852986
 30
0.0
 40
0.3073609615134575
100
AcDbArc
 50
302.605478339984
 51
357.3945215144427
  0
LINE
  5
CF6F
330
A
100
AcDbEntity
  8
0
100
AcDbLine
 10
379.8271925639665
 20
-136.0775051293097
 30
0.0
 11
379.4029284952549
 21
-136.3224275628563
 31
0.0
  0
ARC
  5
CF70
330
A
100
AcDbEntity
  8
0
100
AcDbCircle
 10
379.3477220125024
 20
-136.2547456510417
 30
0.0
 40
0.0873418394857019
100
AcDbArc
 50
170.7859630094706
 51
309.2032852361178
  0
LINE
  5
CF71
330
A
100
AcDbEntity
  8
0
100
AcDbLine
 10
379.2615071390174
 20
-136.2407602116616
 30
0.0
 11
379.2615071390174
 21
-131.2598612591585
 31
0.0
  0
ARC
  5
CF72
330
A
100
AcDbEntity
  8
0
100
AcDbCircle
 10
379.5685503592904
 20
-131.2738334296105
 30
0.0
 40
0.3073609615141174
100
AcDbArc
 50
122.6054783399277
 51
177.3945215143638
  0
LINE
  5
CF73
330
A
100
AcDbEntity
  8
0
100
AcDbLine
 10
379.4029284952549
 20
-131.0149122855992
 30
0.0
 11
379.8271925639665
 21
-130.7699898520523
 31
0.0
  0
ARC
  5
CF74
330
A
100
AcDbEntity
  8
0
100
AcDbCircle
 10
263.0744564848565
 20
-64.02322450536167
 30
0.0
 40
0.307360961517498
100
AcDbArc
 50
122.6054783401485
 51
177.3945215140106
  0
LINE
  5
CF75
330
A
100
AcDbEntity
  8
0
100
AcDbLine
 10
262.7674132645798
 20
-68.99015128741075
 30
0.0
 11
262.7674132645798
 21
-64.00925233490761
 31
0.0
  0
LINE
  5
CF76
330
A
100
AcDbEntity
  8
0
100
AcDbLine
 10
262.9088346208183
 20
-63.76430336134808
 30
0.0
 11
263.3330986895299
 21
-63.51938092780119
 31
0.0
  0
ARC
  5
CF77
330
A
100
AcDbEntity
  8
0
100
AcDbCircle
 10
263.3916827005006
 20
-63.60115719362557
 30
0.0
 40
0.1005954471809536
100
AcDbArc
 50
65.69288095464938
 51
125.6175774752327
  0
ARC
  5
CF78
330
A
100
AcDbEntity
  8
0
100
AcDbCircle
 10
262.8654136451087
 20
-69.00096863485487
 30
0.0
 40
0.0985955860545853
100
AcDbArc
 50
173.7011525003573
 51
234.9866671065396
  0
LINE
  5
CF79
330
A
100
AcDbEntity
  8
0
  6
Continuous
 62
     8
370
     0
100
AcDbLine
 10
291.9308241173085
 20
-45.45941211725722
 30
0.0
 11
408.4249179917452
 21
-112.7100210415088
 31
0.0
  0
LINE
  5
CF7A
330
A
100
AcDbEntity
  8
0
  6
Continuous
 62
     8
370
     0
100
AcDbLine
 10
293.1762307053578
 20
-46.17860375784676
 30
0.0
 11
409.6703245845911
 21
-113.4292126848673
 31
0.0
  0
LINE
  5
CF7B
330
A
100
AcDbEntity
  8
0
  6
Continuous
 62
     8
370
     0
100
AcDbLine
 10
288.8199130291096
 20
-51.69499549332841
 30
0.0
 11
405.3140069035472
 21
-118.9456044175809
 31
0.0
  0
LINE
  5
CF7C
330
A
100
AcDbEntity
  8
0
  6
Continuous
 62
     8
370
     0
100
AcDbLine
 10
291.7806454791235
 20
-54.86855988086836
 30
0.0
 11
408.2747393535574
 21
-122.1191688051185
 31
0.0
  0
LINE
  5
CF7D
330
A
100
AcDbEntity
  8
0
  6
Continuous
 62
     8
370
     0
100
AcDbLine
 10
294.0046578349002
 20
-48.00988914194113
 30
0.0
 11
410.4987517093378
 21
-115.2604980661931
 31
0.0
  0
LINE
  5
CF7E
330
A
100
AcDbEntity
  8
0
  6
Continuous
 62
     8
370
     0
100
AcDbLine
 10
294.0046578348993
 20
-50.75719007454109
 30
0.0
 11
410.4987517093378
 21
-118.007798998794
 31
0.0
  0
LINE
  5
CF7F
330
A
100
AcDbEntity
  8
0
  6
Continuous
 62
     8
370
     0
100
AcDbLine
 10
293.3833374913411
 20
-52.84801530974846
 30
0.0
 11
409.8774313657778
 21
-120.098624234
 31
0.0
  0
LINE
  5
CF80
330
A
100
AcDbEntity
  8
0
  6
Continuous
 62
     8
370
     0
100
AcDbLine
 10
413.5039555293807
 20
-113.1055505020677
 30
0.0
 11
414.1757069715077
 21
-113.4933443551831
 31
0.0
  0
LINE
  5
CF81
330
A
100
AcDbEntity
  8
0
  6
Continuous
 62
     8
370
     0
100
AcDbLine
 10
264.3937588613117
 20
-61.64143658551166
 30
0.0
 11
380.8878527357465
 21
-128.8920455097623
 31
0.0
  0
LINE
  5
CF82
330
A
100
AcDbEntity
  8
0
  6
Continuous
 62
     8
370
     0
100
AcDbLine
 10
264.5351802175483
 20
-61.39648761195213
 30
0.0
 11
381.0292740919832
 21
-128.6470965362028
 31
0.0
  0
LINE
  5
CF83
330
A
100
AcDbEntity
  8
0
  6
Continuous
 62
     8
370
     0
100
AcDbLine
 10
268.4088264435232
 20
-58.62671154239069
 30
0.0
 11
384.902920317958
 21
-125.8773204666413
 31
0.0
  0
LINE
  5
CF84
330
A
100
AcDbEntity
  8
0
  6
Continuous
 62
     8
370
     0
100
AcDbLine
 10
383.5202573648313
 20
-128.9262183658989
 30
0.0
 11
383.6085898139664
 21
-128.977211603363
 31
0.0
  0
LINE
  5
CF85
330
A
100
AcDbEntity
  8
0
  6
Continuous
 62
     8
370
     0
100
AcDbLine
 10
383.5045760995
 20
-128.3776908086068
 30
0.0
 11
384.460794283451
 21
-128.9297038162742
 31
0.0
  0
LINE
  5
CF86
330
A
100
AcDbEntity
  8
0
  6
Continuous
 62
     8
370
     0
100
AcDbLine
 10
379.7916590770847
 20
-136.098018174654
 30
0.0
 11
380.8878527357465
 21
-136.7308373038654
 31
0.0
  0
LINE
  5
CF87
330
A
100
AcDbEntity
  8
0
  6
Continuous
 62
     8
370
     0
100
AcDbLine
 10
383.5202573648313
 20
-130.5592999896703
 30
0.0
 11
383.6085898139664
 21
-130.6102932271344
 31
0.0
  0
LINE
  5
CF88
330
A
100
AcDbEntity
  8
0
  6
Continuous
 62
     8
370
     0
100
AcDbLine
 10
383.7084596945961
 20
-130.1284719265229
 30
0.0
 11
384.460794283451
 21
-130.5627854400459
 31
0.0
  0
LINE
  5
CF89
330
A
100
AcDbEntity
  8
0
  6
Continuous
 62
     8
370
     0
100
AcDbLine
 10
383.5202573648313
 20
-132.192381613442
 30
0.0
 11
383.6085898139664
 21
-132.2433748509061
 31
0.0
  0
LINE
  5
CF8A
330
A
100
AcDbEntity
  8
0
  6
Continuous
 62
     8
370
     0
100
AcDbLine
 10
383.708459694597
 20
-131.7615535502948
 30
0.0
 11
384.460794283451
 21
-132.1958670638173
 31
0.0
  0
LINE
  5
CF8B
330
A
100
AcDbEntity
  8
0
  6
Continuous
 62
     8
370
     0
100
AcDbLine
 10
383.5347220455961
 20
-134.3370035488472
 30
0.0
 11
383.5826374592589
 21
-134.3646645283745
 31
0.0
  0
LINE
  5
CF8C
330
A
100
AcDbEntity
  8
0
  6
Continuous
 62
     8
370
     0
100
AcDbLine
 10
383.5045760995009
 20
-133.7651260995067
 30
0.0
 11
385.0524320631076
 21
-134.6586843273749
 31
0.0
  0
LINE
  5
CF8D
330
A
100
AcDbEntity
  8
0
  6
Continuous
 62
     8
370
     0
100
AcDbLine
 10
262.7674132645807
 20
-64.00925233490716
 30
0.0
 11
379.2615071390174
 21
-131.2598612591587
 31
0.0
  0
LINE
  5
CF8E
330
A
100
AcDbEntity
  8
0
  6
Continuous
 62
     8
370
     0
100
AcDbLine
 10
262.9088346208192
 20
-63.76430336134808
 30
0.0
 11
379.4029284952549
 21
-131.0149122855992
 31
0.0
  0
LINE
  5
CF8F
330
A
100
AcDbEntity
  8
0
  6
Continuous
 62
     8
370
     0
100
AcDbLine
 10
262.7674132645798
 20
-68.99015128740984
 30
0.0
 11
379.2615071390174
 21
-136.2407602116618
 31
0.0
  0
LINE
  5
CF90
330
A
100
AcDbEntity
  8
0
  6
Continuous
 62
     8
370
     0
100
AcDbLine
 10
263.3330986895317
 20
-63.51938092780165
 30
0.0
 11
379.8271925639665
 21
-130.7699898520523
 31
0.0
  0
LINE
  5
CFD3
330
A
100
AcDbEntity
  8
0
100
AcDbLine
 10
631.8237829368207
 20
-112.263336698872
 30
0.0
 11
515.3296890623857
 21
-45.0127277746214
 31
0.0
  0
LINE
  5
CFD4
330
A
100
AcDbEntity
  8
0
100
AcDbLine
 10
638.0620968473175
 20
-106.0459013894983
 30
0.0
 11
521.5680029728809
 21
-38.7952924652468
 31
0.0
  0
LINE
  5
CFD5
330
A
100
AcDbEntity
  8
0
100
AcDbLine
 10
638.9106249847408
 20
-108.3660581139015
 30
0.0
 11
638.1138837010338
 21
-107.9061091611063
 31
0.0
  0
LINE
  5
CFD6
330
A
100
AcDbEntity
  8
0
100
AcDbLine
 10
517.8246043629032
 20
-48.95307231700525
 30
0.0
 11
634.3186982373398
 21
-116.2036812412568
 31
0.0
  0
LINE
  5
CFD7
330
A
100
AcDbEntity
  8
0
100
AcDbLine
 10
518.2289239293071
 20
-49.79130074133462
 30
0.0
 11
634.7230178037483
 21
-117.0419096655889
 31
0.0
  0
LINE
  5
CFD8
330
A
100
AcDbEntity
  8
0
100
AcDbLine
 10
611.9427771624468
 20
-119.4108122211409
 30
0.0
 11
495.4486832880216
 21
-52.16020329689599
 31
0.0
  0
LINE
  5
CFD9
330
A
100
AcDbEntity
  8
0
100
AcDbLine
 10
611.3770917374976
 20
-122.5250395407222
 30
0.0
 11
610.3686570129802
 21
-121.942882565818
 31
0.0
  0
LINE
  5
CFDA
330
A
100
AcDbEntity
  8
0
100
AcDbLine
 10
611.3770917374976
 20
-124.1581211644934
 30
0.0
 11
610.5836370658634
 21
-123.7000695324625
 31
0.0
  0
LINE
  5
CFDB
330
A
100
AcDbEntity
  8
0
100
AcDbLine
 10
608.0113483342001
 20
-128.8992382277951
 30
0.0
 11
609.2075663743916
 21
-129.5898002033727
 31
0.0
  0
LINE
  5
CFDC
330
A
100
AcDbEntity
  8
0
100
AcDbLine
 10
611.3770917374976
 20
-125.791202788265
 30
0.0
 11
610.5836370658634
 21
-125.3331511562341
 31
0.0
  0
LINE
  5
CFDD
330
A
100
AcDbEntity
  8
0
100
AcDbLine
 10
611.9427771624468
 20
-128.2523036183881
 30
0.0
 11
610.3686466927119
 21
-127.3435774409906
 31
0.0
  0
LINE
  5
CFDE
330
A
100
AcDbEntity
  8
0
100
AcDbLine
 10
608.2054685929014
 20
-123.5274821801665
 30
0.0
 11
491.7113747184649
 21
-56.27687325591506
 31
0.0
  0
LINE
  5
CFDF
330
A
100
AcDbEntity
  8
0
100
AcDbLine
 10
491.0871269032262
 20
-61.84911418691689
 30
0.0
 11
607.5812207776629
 21
-129.0997231111684
 31
0.0
  0
LINE
  5
CFE0
330
A
100
AcDbEntity
  8
0
100
AcDbLine
 10
636.3461167480681
 20
-112.3826678752627
 30
0.0
 11
636.3461167480681
 21
-109.390404699096
 31
0.0
  0
ARC
  5
CFE1
330
A
100
AcDbEntity
  8
0
100
AcDbCircle
 10
634.3434784546033
 20
-109.1933251260518
 30
0.0
 40
2.012312225417694
100
AcDbArc
 50
354.379621036342
 51
54.30196147126087
  0
LINE
  5
CFE2
330
A
100
AcDbEntity
  8
0
100
AcDbLine
 10
635.5176896233214
 20
-107.5591193177704
 30
0.0
 11
634.3076383695351
 21
-106.86034451221
 31
0.0
  0
LWPOLYLINE
  5
CFE3
330
A
100
AcDbEntity
  8
0
100
AcDbPolyline
 90
        9
 70
   128
 43
0.0
 10
634.3076383695351
 20
-106.86034451221
 10
634.2512433915998
 20
-106.7998521455262
 10
634.225850434237
 20
-106.704788004476
 10
634.2345298890467
 20
-106.5866467777632
 10
634.2762322790121
 20
-106.4597135218675
 10
634.3459151561027
 20
-106.3393363822265
 10
634.4351528093056
 20
-106.2400707709211
 10
634.5331550601903
 20
-106.1739193977893
 10
634.6280719582545
 20
-106.1488809617412
  0
LINE
  5
CFE4
330
A
100
AcDbEntity
  8
0
100
AcDbLine
 10
634.6280719582545
 20
-106.1488809617412
 30
0.0
 11
638.0123779986869
 21
-106.034255236361
 31
0.0
  0
ARC
  5
CFE5
330
A
100
AcDbEntity
  8
0
100
AcDbCircle
 10
638.0082402620727
 20
-106.1414911715974
 30
0.0
 40
0.1073157335636119
100
AcDbArc
 50
349.8719016858664
 51
87.7903181940352
  0
LINE
  5
CFE6
330
A
100
AcDbEntity
  8
0
100
AcDbLine
 10
638.1138837010338
 20
-106.1603625911156
 30
0.0
 11
638.1138837010338
 21
-108.7662289796412
 31
0.0
  0
LINE
  5
CFE7
330
A
100
AcDbEntity
  8
0
100
AcDbLine
 10
638.1138837010338
 20
-108.7662289796412
 30
0.0
 11
638.7856351431618
 21
-108.3784351265253
 31
0.0
  0
LWPOLYLINE
  5
CFE8
330
A
100
AcDbEntity
  8
0
100
AcDbPolyline
 90
        9
 70
   128
 43
0.0
 10
638.7856351431618
 20
-108.3784351265253
 10
638.8351023915101
 20
-108.3580335229864
 10
638.8806171923087
 20
-108.3555724756797
 10
638.9185428997197
 20
-108.3712486230008
 10
638.9458492386756
 20
-108.4038094362135
 10
638.960354424741
 20
-108.4506532968603
 10
638.9608994893241
 20
-108.5080373668322
 10
638.9474408816076
 20
-108.5713766422272
 10
638.9210539482664
 20
-108.635610296495
  0
LINE
  5
CFE9
330
A
100
AcDbEntity
  8
0
100
AcDbLine
 10
638.9210539482664
 20
-108.635610296495
 30
0.0
 11
638.3128731432724
 21
-109.8236798059624
 31
0.0
  0
ARC
  5
CFEA
330
A
100
AcDbEntity
  8
0
100
AcDbCircle
 10
638.3851058154913
 20
-109.8761660376308
 30
0.0
 40
0.0892880924347803
100
AcDbArc
 50
143.9968210869202
 51
216.0031789129927
  0
LINE
  5
CFEB
330
A
100
AcDbEntity
  8
0
100
AcDbLine
 10
638.3128731432724
 20
-109.9286522692989
 30
0.0
 11
638.9210539482664
 21
-110.4145311678678
 31
0.0
  0
LWPOLYLINE
  5
CFEC
330
A
100
AcDbEntity
  8
0
100
AcDbPolyline
 90
        9
 70
   128
 43
0.0
 10
638.9210539482664
 20
-110.4145311678678
 10
638.9474408816067
 20
-110.4482991173808
 10
638.9608994893241
 20
-110.4960994150628
 10
638.960354424741
 20
-110.5541128032077
 10
638.9458492386756
 20
-110.6177039952078
 10
638.9185428997197
 20
-110.6817920363027
 10
638.8806171923087
 20
-110.7412562733447
 10
638.8351023915101
 20
-110.7913454964766
 10
638.7856351431618
 20
-110.8280575621824
  0
LINE
  5
CFED
330
A
100
AcDbEntity
  8
0
100
AcDbLine
 10
638.7856351431618
 20
-110.8280575621824
 30
0.0
 11
638.1138837010338
 21
-111.2158514152983
 31
0.0
  0
ARC
  5
CFEE
330
A
100
AcDbEntity
  8
0
100
AcDbCircle
 10
630.3082640180609
 20
-110.8206644093054
 30
0.0
 40
7.815617148052333
100
AcDbArc
 50
308.3120741802429
 51
357.1016739184459
  0
LWPOLYLINE
  5
CFEF
330
A
100
AcDbEntity
  8
0
100
AcDbPolyline
 90
        9
 70
   128
 43
0.0
 10
635.1535120800662
 20
-116.9531551449335
 10
635.001587603232
 20
-117.0424951271181
 10
634.8563903532203
 20
-117.0746626572104
 10
634.7316003132227
 20
-117.0466270216741
 10
634.6389747696156
 20
-116.961029641217
 10
634.5872405810686
 20
-116.8259352052591
 10
634.5812719640652
 20
-116.6540718447602
 10
634.6216312610776
 20
-116.4616319317017
 10
634.7045159585949
 20
-116.2667464897488
  0
LINE
  5
CFF0
330
A
100
AcDbEntity
  8
0
100
AcDbLine
 10
634.7045159585949
 20
-116.2667464897488
 30
0.0
 11
634.5450830258377
 21
-116.0958527375639
 31
0.0
  0
LWPOLYLINE
  5
CFF1
330
A
100
AcDbEntity
  8
0
100
AcDbPolyline
 90
        9
 70
   128
 43
0.0
 10
634.5450830258377
 20
-116.0958527375639
 10
634.514884307794
 20
-116.1329156121578
 10
634.4819495586024
 20
-116.1643775271681
 10
634.447544442204
 20
-116.1890294188453
 10
634.4129911279277
 20
-116.2059239288173
 10
634.3796174802618
 20
-116.21441181054
 10
634.348706029772
 20
-116.2141668794788
 10
634.3214446861638
 20
-116.2051985481978
 10
634.2988810875839
 20
-116.1878514646377
  0
LINE
  5
CFF2
330
A
100
AcDbEntity
  8
0
100
AcDbLine
 10
634.2988810875839
 20
-116.1878514646377
 30
0.0
 11
631.3381486375737
 21
-113.0142870771001
 31
0.0
  0
LWPOLYLINE
  5
CFF3
330
A
100
AcDbEntity
  8
0
100
AcDbPolyline
 90
        9
 70
   128
 43
0.0
 10
631.3381486375737
 20
-113.0142870771001
 10
631.2881457347911
 20
-112.9119255825278
 10
631.2854373138333
 20
-112.7701539497374
 10
631.3304357072392
 20
-112.6105556246577
 10
631.4162903175246
 20
-112.4574280055196
 10
631.5299305585476
 20
-112.3340833842321
 10
631.6540557337629
 20
-112.2592998612637
 10
631.7697689104433
 20
-112.2444625500727
 10
631.8594538063797
 20
-112.2918302967868
  0
LINE
  5
CFF4
330
A
100
AcDbEntity
  8
0
100
AcDbLine
 10
631.8594538063797
 20
-112.2918302967868
 30
0.0
 11
634.82018625639
 21
-115.4653946843247
 31
0.0
  0
ARC
  5
CFF5
330
A
100
AcDbEntity
  8
0
100
AcDbCircle
 10
634.5788541399587
 20
-115.5892585582109
 30
0.0
 40
0.2712626949567915
100
AcDbArc
 50
316.8549744018362
 51
27.16919317548625
  0
LINE
  5
CFF6
330
A
100
AcDbEntity
  8
0
100
AcDbLine
 10
634.7767742119739
 20
-115.7747608352024
 30
0.0
 11
634.8983015619341
 21
-115.9050241657998
 31
0.0
  0
LINE
  5
CFF7
330
A
100
AcDbEntity
  8
0
100
AcDbLine
 10
634.8983015619341
 20
-115.9050241657998
 30
0.0
 11
635.7247964045081
 21
-114.4734931104685
 31
0.0
  0
ARC
  5
CFF8
330
A
100
AcDbEntity
  8
0
100
AcDbCircle
 10
632.0202212978282
 20
-112.2348925971582
 30
0.0
 40
4.328418761999644
100
AcDbArc
 50
328.8562722006281
 51
358.0435013569503
  0
LWPOLYLINE
  5
CFF9
330
A
100
AcDbEntity
  8
0
100
AcDbPolyline
 90
        9
 70
   128
 43
0.0
 10
517.8135444950984
 20
-39.60973558795894
 10
517.7571495171636
 20
-39.54924322127516
 10
517.7317565598013
 20
-39.45417908022563
 10
517.74043601461
 20
-39.33603785351187
 10
517.7821384045764
 20
-39.20910459761734
 10
517.851821281666
 20
-39.08872745797515
 10
517.9410589348689
 20
-38.98946184667028
 10
518.0390611857541
 20
-38.92331047353827
 10
518.1339780838174
 20
-38.8982720374899
  0
LINE
  5
CFFA
330
A
100
AcDbEntity
  8
0
100
AcDbLine
 10
518.1339780838174
 20
-38.8982720374899
 30
0.0
 11
521.5182841242507
 21
-38.78364631210997
 31
0.0
  0
LINE
  5
CFFB
330
A
100
AcDbEntity
  8
0
100
AcDbLine
 10
519.0235957488857
 20
-40.30851039351973
 30
0.0
 11
517.8135444950984
 21
-39.60973558795894
 31
0.0
  0
LWPOLYLINE
  5
CFFC
330
A
100
AcDbEntity
  8
0
100
AcDbPolyline
 90
        9
 70
   128
 43
0.0
 10
514.8440547631384
 20
-45.76367815284965
 10
514.7940518603544
 20
-45.66131665827714
 10
514.7913434393967
 20
-45.51954502548659
 10
514.836341832803
 20
-45.35994670040753
 10
514.922196443088
 20
-45.20681908126897
 10
515.0358366841109
 20
-45.08347445998169
 10
515.1599618593272
 20
-45.00869093701266
 10
515.2756750360066
 20
-44.9938536258216
 10
515.3296890623836
 20
-45.01272777462071
  0
LINE
  5
CFFD
330
A
100
AcDbEntity
  8
0
100
AcDbLine
 10
517.8047872131482
 20
-48.93724254038733
 30
0.0
 11
514.8440547631384
 21
-45.76367815284965
 31
0.0
  0
ARC
  5
CFFE
330
A
100
AcDbEntity
  8
0
100
AcDbCircle
 10
517.8493845801653
 20
-41.9427162018016
 30
0.0
 40
2.012312225419152
100
AcDbArc
 50
354.3796210363558
 51
54.3019614712147
  0
ARC
  5
CFFF
330
A
100
AcDbEntity
  8
0
100
AcDbCircle
 10
521.523208661173
 20
-38.87457385511351
 30
0.0
 40
0.0910607991429945
100
AcDbArc
 50
60.53337290076301
 51
93.10004851666334
  0
LINE
  5
D000
330
A
100
AcDbEntity
  8
0
100
AcDbLine
 10
519.8520228736314
 20
-45.13205895101163
 30
0.0
 11
519.8520228736314
 21
-42.1397957748456
 31
0.0
  0
ARC
  5
D001
330
A
100
AcDbEntity
  8
0
100
AcDbCircle
 10
515.5261274233961
 20
-44.98428367291007
 30
0.0
 40
4.328418761994338
100
AcDbArc
 50
328.8562722006225
 51
358.0435013569931
  0
LINE
  5
D002
330
A
100
AcDbEntity
  8
0
100
AcDbLine
 10
519.2125801423339
 20
-47.25427308244269
 30
0.0
 11
519.2307025300719
 21
-47.2228841862181
 31
0.0
  0
LINE
  5
D003
330
A
100
AcDbEntity
  8
0
100
AcDbLine
 10
517.8246043629041
 20
-48.95307231700662
 30
0.0
 11
517.8047872131482
 21
-48.93724254038733
 31
0.0
  0
LINE
  5
D004
330
A
100
AcDbEntity
  8
0
100
AcDbLine
 10
634.499662642941
 20
-116.1484871878419
 30
0.0
 11
634.7045159585949
 21
-116.2667464897488
 31
0.0
  0
LWPOLYLINE
  5
D005
330
A
100
AcDbEntity
  8
0
100
AcDbPolyline
 90
        6
 70
   128
 43
0.0
 10
518.2289239293117
 20
-49.79130074133826
 10
518.1448808951794
 20
-49.7104207169661
 10
518.0931467066324
 20
-49.57532628100824
 10
518.087178089629
 20
-49.40346292050907
 10
518.1275373866409
 20
-49.21102300745059
 10
518.1520458279928
 20
-49.14210025122946
  0
LINE
  5
D006
330
A
100
AcDbEntity
  8
0
100
AcDbLine
 10
611.7669909112564
 20
-128.6936660402147
 30
0.0
 11
610.2267970631973
 21
-129.0492333205891
 31
0.0
  0
LINE
  5
D007
330
A
100
AcDbEntity
  8
0
100
AcDbLine
 10
610.2267970631973
 20
-129.0492333205891
 30
0.0
 11
609.3075582476548
 21
-129.5798985932735
 31
0.0
  0
ARC
  5
D008
330
A
100
AcDbEntity
  8
0
100
AcDbCircle
 10
609.2523517649032
 20
-129.5122166814592
 30
0.0
 40
0.0873418394856262
100
AcDbArc
 50
170.785963009391
 51
309.2032852354251
  0
LINE
  5
D009
330
A
100
AcDbEntity
  8
0
100
AcDbLine
 10
609.1661368914182
 20
-129.4982312420788
 30
0.0
 11
609.1661368914182
 21
-126.8036465628558
 31
0.0
  0
LINE
  5
D00A
330
A
100
AcDbEntity
  8
0
100
AcDbLine
 10
609.1661368914182
 20
-126.8036465628558
 30
0.0
 11
608.2468980758757
 21
-127.3343118355405
 31
0.0
  0
LINE
  5
D00B
330
A
100
AcDbEntity
  8
0
100
AcDbLine
 10
608.2468980758757
 20
-127.3343118355405
 30
0.0
 11
608.2468980758757
 21
-124.8846893998834
 31
0.0
  0
LINE
  5
D00C
330
A
100
AcDbEntity
  8
0
100
AcDbLine
 10
608.2468980758757
 20
-124.8846893998834
 30
0.0
 11
609.1661368914182
 21
-124.3540241271984
 31
0.0
  0
LINE
  5
D00D
330
A
100
AcDbEntity
  8
0
100
AcDbLine
 10
609.1661368914182
 20
-124.3540241271984
 30
0.0
 11
609.1661368914182
 21
-121.6594394479757
 31
0.0
  0
ARC
  5
D00E
330
A
100
AcDbEntity
  8
0
100
AcDbCircle
 10
609.4731801116922
 20
-121.6734116184281
 30
0.0
 40
0.3073609615153357
100
AcDbArc
 50
122.605478340173
 51
177.3945215142892
  0
LINE
  5
D00F
330
A
100
AcDbEntity
  8
0
100
AcDbLine
 10
609.3075582476548
 20
-121.4144904744164
 30
0.0
 11
610.2267970631973
 21
-120.8838252017314
 31
0.0
  0
LINE
  5
D010
330
A
100
AcDbEntity
  8
0
100
AcDbLine
 10
610.2267970631973
 20
-120.8838252017314
 30
0.0
 11
611.7669909112564
 21
-119.4611225166774
 31
0.0
  0
LWPOLYLINE
  5
D011
330
A
100
AcDbEntity
  8
0
100
AcDbPolyline
 90
        9
 70
   128
 43
0.0
 10
611.7669909112564
 20
-119.4611225166774
 10
611.8290253259528
 20
-119.4171145818891
 10
611.889657724253
 20
-119.3993317342697
 10
611.9413238084152
 20
-119.4099925031505
 10
611.9775778884313
 20
-119.4477668862195
 10
611.9938970250249
 20
-119.5079422762132
 10
611.9882452966175
 20
-119.5830113902352
 10
611.9613277941779
 20
-119.6636088535726
 10
611.9165026564013
 20
-119.7396795929128
  0
LINE
  5
D012
330
A
100
AcDbEntity
  8
0
100
AcDbLine
 10
611.9165026564013
 20
-119.7396795929128
 30
0.0
 11
610.4467080524745
 21
-121.7306881201345
 31
0.0
  0
ARC
  5
D013
330
A
100
AcDbEntity
  8
0
100
AcDbCircle
 10
610.7473221551835
 20
-121.9615496500507
 30
0.0
 40
0.3790328280542214
100
AcDbArc
 50
142.4769483575991
 51
177.5117746655045
  0
LINE
  5
D014
330
A
100
AcDbEntity
  8
0
100
AcDbLine
 10
610.3686466927119
 20
-121.9450942902892
 30
0.0
 11
610.3686466927119
 21
-122.4350187774207
 31
0.0
  0
ARC
  5
D015
330
A
100
AcDbEntity
  8
0
100
AcDbCircle
 10
610.47388272057
 20
-122.4540734462589
 30
0.0
 40
0.1069471924080608
100
AcDbArc
 50
169.7368756226726
 51
269.3451448184232
  0
LINE
  5
D016
330
A
100
AcDbEntity
  8
0
100
AcDbLine
 10
610.4726604071828
 20
-122.5610136534494
 30
0.0
 11
611.3248648767429
 21
-122.5135058663106
 31
0.0
  0
LWPOLYLINE
  5
D017
330
A
100
AcDbEntity
  8
0
100
AcDbPolyline
 90
        9
 70
   128
 43
0.0
 10
611.3248648767429
 20
-122.5135058663106
 10
611.3674466605215
 20
-122.5202712685875
 10
611.4006158671299
 20
-122.5450940111709
 10
611.4216657615206
 20
-122.5859484626334
 10
611.4288785912148
 20
-122.6395007423395
 10
611.4216657615206
 20
-122.7013807779489
 10
611.4006158671299
 20
-122.7665389201563
 10
611.3674466605215
 20
-122.8296580135288
 10
611.3248648767429
 20
-122.8855872968736
  0
LINE
  5
D018
330
A
100
AcDbEntity
  8
0
100
AcDbLine
 10
611.3248648767429
 20
-122.8855872968736
 30
0.0
 11
610.4726604071828
 21
-123.8220138466579
 31
0.0
  0
LWPOLYLINE
  5
D019
330
A
100
AcDbEntity
  8
0
100
AcDbPolyline
 90
        9
 70
   128
 43
0.0
 10
610.4726604071828
 20
-124.1940952772208
 10
610.4300786234043
 20
-124.1873298749439
 10
610.3969094167959
 20
-124.1625071323605
 10
610.3758595224052
 20
-124.1216526808982
 10
610.3686466927119
 20
-124.0681004011921
 10
610.3758595224052
 20
-124.0062203655827
 10
610.3969094167959
 20
-123.9410622233751
 10
610.4300786234043
 20
-123.8779431300026
 10
610.4726604071828
 20
-123.8220138466579
  0
LINE
  5
D01A
330
A
100
AcDbEntity
  8
0
100
AcDbLine
 10
610.4726604071828
 20
-124.1940952772208
 30
0.0
 11
611.3248648767429
 21
-124.1465874900823
 31
0.0
  0
LWPOLYLINE
  5
D01B
330
A
100
AcDbEntity
  8
0
100
AcDbPolyline
 90
        9
 70
   128
 43
0.0
 10
611.3248648767429
 20
-124.1465874900823
 10
611.3674466605215
 20
-124.1533528923589
 10
611.4006158671299
 20
-124.1781756349425
 10
611.4216657615206
 20
-124.2190300864049
 10
611.4288785912148
 20
-124.272582366111
 10
611.4216657615206
 20
-124.3344624017204
 10
611.4006158671299
 20
-124.3996205439279
 10
611.3674466605215
 20
-124.4627396373002
 10
611.3248648767429
 20
-124.5186689206452
  0
LINE
  5
D01C
330
A
100
AcDbEntity
  8
0
100
AcDbLine
 10
611.3248648767429
 20
-124.5186689206452
 30
0.0
 11
610.4726604071828
 21
-125.4550954704293
 31
0.0
  0
LWPOLYLINE
  5
D01D
330
A
100
AcDbEntity
  8
0
100
AcDbPolyline
 90
        9
 70
   128
 43
0.0
 10
610.4726604071828
 20
-125.8271769009925
 10
610.4300786234043
 20
-125.8204114987156
 10
610.3969094167959
 20
-125.7955887561322
 10
610.3758595224052
 20
-125.7547343046696
 10
610.3686466927119
 20
-125.7011820249635
 10
610.3758595224052
 20
-125.6393019893541
 10
610.3969094167959
 20
-125.5741438471466
 10
610.4300786234043
 20
-125.5110247537743
 10
610.4726604071828
 20
-125.4550954704293
  0
LINE
  5
D01E
330
A
100
AcDbEntity
  8
0
100
AcDbLine
 10
610.4726604071828
 20
-125.8271769009925
 30
0.0
 11
611.3248648767429
 21
-125.7796691138537
 31
0.0
  0
LWPOLYLINE
  5
D01F
330
A
100
AcDbEntity
  8
0
100
AcDbPolyline
 90
        9
 70
   128
 43
0.0
 10
611.3248648767429
 20
-125.7796691138537
 10
611.3674466605215
 20
-125.7864345161306
 10
611.4006158671299
 20
-125.811257258714
 10
611.4216657615206
 20
-125.8521117101763
 10
611.4288785912148
 20
-125.9056639898824
 10
611.4216657615206
 20
-125.9675440254918
 10
611.4006158671299
 20
-126.0327021676994
 10
611.3674466605215
 20
-126.0958212610719
 10
611.3248648767429
 20
-126.1517505444166
  0
LINE
  5
D020
330
A
100
AcDbEntity
  8
0
100
AcDbLine
 10
611.3248648767429
 20
-126.1517505444166
 30
0.0
 11
610.4726604071828
 21
-127.0881770942009
 31
0.0
  0
ARC
  5
D021
330
A
100
AcDbEntity
  8
0
100
AcDbCircle
 10
610.7568250560597
 20
-127.3533104060757
 30
0.0
 40
0.3886453662876093
100
AcDbArc
 50
136.9843133826389
 51
177.1909194815528
  0
LINE
  5
D022
330
A
100
AcDbEntity
  8
0
100
AcDbLine
 10
610.3686466927119
 20
-127.334263648735
 30
0.0
 11
610.3686466927119
 21
-127.8241881358665
 31
0.0
  0
ARC
  5
D023
330
A
100
AcDbEntity
  8
0
100
AcDbCircle
 10
610.4804005416853
 20
-127.8406487233883
 30
0.0
 40
0.1129596109321419
100
AcDbArc
 50
171.6209670472277
 51
252.6462612452001
  0
LINE
  5
D024
330
A
100
AcDbEntity
  8
0
100
AcDbLine
 10
610.4467080524745
 20
-127.948466578462
 30
0.0
 11
611.9165026564013
 21
-128.2424863774101
 31
0.0
  0
LWPOLYLINE
  5
D025
330
A
100
AcDbEntity
  8
0
100
AcDbPolyline
 90
        9
 70
   128
 43
0.0
 10
611.7669909112564
 20
-128.6936660402147
 10
611.8290253259528
 20
-128.6660505643419
 10
611.889657724253
 20
-128.6138287349751
 10
611.9413238084152
 20
-128.5435155750574
 10
611.9775778884313
 20
-128.4638831221761
 10
611.9938970250249
 20
-128.3848660581272
 10
611.9882452966175
 20
-128.3163222908285
 10
611.9613277941779
 20
-128.2668031142882
 10
611.9165026564013
 20
-128.2424863774101
  0
ARC
  5
D026
330
A
100
AcDbEntity
  8
0
100
AcDbCircle
 10
492.979086237255
 20
-54.42280269417705
 30
0.0
 40
0.3073609615148711
100
AcDbArc
 50
122.6054783399245
 51
177.3945215143277
  0
LINE
  5
D027
330
A
100
AcDbEntity
  8
0
100
AcDbLine
 10
608.2468980758748
 20
-123.8233588545135
 30
0.0
 11
609.1661368914182
 21
-124.3540241271984
 31
0.0
  0
LINE
  5
D028
330
A
100
AcDbEntity
  8
0
100
AcDbLine
 10
492.6720430169811
 20
-56.83145526003926
 30
0.0
 11
492.6720430169811
 21
-54.40883052372482
 31
0.0
  0
LINE
  5
D029
330
A
100
AcDbEntity
  8
0
100
AcDbLine
 10
492.8134643732191
 20
-54.16388155016529
 30
0.0
 11
493.7327031887611
 21
-53.63321627748081
 31
0.0
  0
LINE
  5
D02A
330
A
100
AcDbEntity
  8
0
100
AcDbLine
 10
493.7327031887593
 20
-53.63321627747854
 30
0.0
 11
610.2267970631978
 21
-120.8838252017314
 31
0.0
  0
LINE
  5
D02B
330
A
100
AcDbEntity
  8
0
100
AcDbLine
 10
493.7327031887611
 20
-53.63321627748081
 30
0.0
 11
495.2728970368202
 21
-52.21051359242682
 31
0.0
  0
LWPOLYLINE
  5
D02C
330
A
100
AcDbEntity
  8
0
100
AcDbPolyline
 90
        5
 70
   128
 43
0.0
 10
495.2728970368202
 20
-52.21051359242682
 10
495.3349314515157
 20
-52.1665056576382
 10
495.3955638498168
 20
-52.1487228100188
 10
495.447229933979
 20
-52.15938357889962
 10
495.448683288011
 20
-52.16020329689007
  0
ARC
  5
D02D
330
A
100
AcDbEntity
  8
0
100
AcDbCircle
 10
607.6260061681741
 20
-129.0221395892551
 30
0.0
 40
0.0873418394856138
100
AcDbArc
 50
170.785963009391
 51
309.2032852354251
  0
LINE
  5
D02E
330
A
100
AcDbEntity
  8
0
100
AcDbLine
 10
607.539791294689
 20
-124.0272551973716
 30
0.0
 11
607.539791294689
 21
-129.0081541498748
 31
0.0
  0
ARC
  5
D02F
330
A
100
AcDbEntity
  8
0
100
AcDbCircle
 10
607.8468345149603
 20
-124.0412273678225
 30
0.0
 40
0.3073609615122703
100
AcDbArc
 50
122.6054783399358
 51
177.3945215145605
  0
LINE
  5
D030
330
A
100
AcDbEntity
  8
0
100
AcDbLine
 10
608.1054767196382
 20
-123.5373837902654
 30
0.0
 11
607.6812126509257
 21
-123.7823062238123
 31
0.0
  0
ARC
  5
D031
330
A
100
AcDbEntity
  8
0
100
AcDbCircle
 10
608.1606832023898
 20
-123.6050657020803
 30
0.0
 40
0.0873418394857021
100
AcDbArc
 50
350.7859630096238
 51
129.203285235378
  0
LINE
  5
D032
330
A
100
AcDbEntity
  8
0
100
AcDbLine
 10
608.2468980758757
 20
-128.5999500939635
 30
0.0
 11
608.2468980758757
 21
-123.6190511414604
 31
0.0
  0
ARC
  5
D033
330
A
100
AcDbEntity
  8
0
100
AcDbCircle
 10
607.9398548556
 20
-128.5859779235106
 30
0.0
 40
0.3073609615159545
100
AcDbArc
 50
302.6054783402986
 51
357.3945215142093
  0
LINE
  5
D034
330
A
100
AcDbEntity
  8
0
100
AcDbLine
 10
607.6812126509257
 20
-129.0898215010697
 30
0.0
 11
608.1054767196382
 21
-128.844899067523
 31
0.0
  0
ARC
  5
D035
330
A
100
AcDbEntity
  8
0
100
AcDbCircle
 10
491.3527406405323
 20
-56.79061844357756
 30
0.0
 40
0.3073609615216188
100
AcDbArc
 50
122.6054783406302
 51
177.3945215135362
  0
LINE
  5
D036
330
A
100
AcDbEntity
  8
0
100
AcDbLine
 10
491.0456974202519
 20
-56.77664627312123
 30
0.0
 11
491.0456974202519
 21
-61.75754522562391
 31
0.0
  0
LINE
  5
D037
330
A
100
AcDbEntity
  8
0
100
AcDbLine
 10
491.6113828452015
 20
-56.28677486601481
 30
0.0
 11
491.1871187764895
 21
-56.5316972995617
 31
0.0
  0
ARC
  5
D038
330
A
100
AcDbEntity
  8
0
100
AcDbCircle
 10
491.6699668561708
 20
-56.36855113183645
 30
0.0
 40
0.1005954471790188
100
AcDbArc
 50
65.69288095330154
 51
125.6175774754225
  0
ARC
  5
D039
330
A
100
AcDbEntity
  8
0
100
AcDbCircle
 10
491.1436978007822
 20
-61.76836257306758
 30
0.0
 40
0.0985955860563434
100
AcDbArc
 50
173.7011525007359
 51
234.9866671061963
  0
LINE
  5
D03A
330
A
100
AcDbEntity
  8
0
  6
Continuous
 62
     8
370
     0
100
AcDbLine
 10
517.8135444950984
 20
-39.60973558795848
 30
0.0
 11
634.3076383695351
 21
-106.86034451221
 31
0.0
  0
LINE
  5
D03B
330
A
100
AcDbEntity
  8
0
  6
Continuous
 62
     8
370
     0
100
AcDbLine
 10
518.1339780838192
 20
-38.89827203749036
 30
0.0
 11
634.628071958254
 21
-106.148880961741
 31
0.0
  0
LINE
  5
D03C
330
A
100
AcDbEntity
  8
0
  6
Continuous
 62
     8
370
     0
100
AcDbLine
 10
521.5182841242525
 20
-38.78364631211042
 30
0.0
 11
638.0123779986874
 21
-106.034255236361
 31
0.0
  0
LINE
  5
D03D
330
A
100
AcDbEntity
  8
0
  6
Continuous
 62
     8
370
     0
100
AcDbLine
 10
519.0235957479389
 20
-40.30851039297312
 30
0.0
 11
635.5176896233214
 21
-107.5591193177704
 31
0.0
  0
LINE
  5
D03E
330
A
100
AcDbEntity
  8
0
  6
Continuous
 62
     8
370
     0
100
AcDbLine
 10
514.8440547631393
 20
-45.76367815284965
 30
0.0
 11
631.3381486375732
 21
-113.0142870770998
 31
0.0
  0
LINE
  5
D03F
330
A
100
AcDbEntity
  8
0
  6
Continuous
 62
     8
370
     0
100
AcDbLine
 10
517.8047872131473
 20
-48.93724254038551
 30
0.0
 11
634.2988810875839
 21
-116.1878514646375
 31
0.0
  0
LINE
  5
D040
330
A
100
AcDbEntity
  8
0
  6
Continuous
 62
     8
370
     0
100
AcDbLine
 10
519.8520228736323
 20
-42.13979577484469
 30
0.0
 11
636.3461167480681
 21
-109.3904046990958
 31
0.0
  0
LINE
  5
D041
330
A
100
AcDbEntity
  8
0
  6
Continuous
 62
     8
370
     0
100
AcDbLine
 10
519.8520228736314
 20
-45.13205895101117
 30
0.0
 11
636.3461167480681
 21
-112.3826678752627
 31
0.0
  0
LINE
  5
D042
330
A
100
AcDbEntity
  8
0
  6
Continuous
 62
     8
370
     0
100
AcDbLine
 10
519.2307025300728
 20
-47.22288418621719
 30
0.0
 11
635.7247964045085
 21
-114.4734931104683
 31
0.0
  0
LINE
  5
D043
330
A
100
AcDbEntity
  8
0
  6
Continuous
 62
     8
370
     0
100
AcDbLine
 10
638.1138837010348
 20
-107.9906412734096
 30
0.0
 11
638.7856351431618
 21
-108.3784351265253
 31
0.0
  0
LINE
  5
D044
330
A
100
AcDbEntity
  8
0
  6
Continuous
 62
     8
370
     0
100
AcDbLine
 10
492.672043016982
 20
-54.40883052372482
 30
0.0
 11
609.1661368914178
 21
-121.6594394479759
 31
0.0
  0
LINE
  5
D045
330
A
100
AcDbEntity
  8
0
  6
Continuous
 62
     8
370
     0
100
AcDbLine
 10
492.81346437322
 20
-54.16388155016574
 30
0.0
 11
609.3075582476548
 21
-121.4144904744164
 31
0.0
  0
LINE
  5
D046
330
A
100
AcDbEntity
  8
0
  6
Continuous
 62
     8
370
     0
100
AcDbLine
 10
495.272897036822
 20
-52.21051359242682
 30
0.0
 11
611.7669909112568
 21
-119.4611225166774
 31
0.0
  0
LINE
  5
D047
330
A
100
AcDbEntity
  8
0
  6
Continuous
 62
     8
370
     0
100
AcDbLine
 10
610.3843279580386
 20
-122.51002041598
 30
0.0
 11
610.4726604071828
 21
-122.5610136534494
 31
0.0
  0
LINE
  5
D048
330
A
100
AcDbEntity
  8
0
  6
Continuous
 62
     8
370
     0
100
AcDbLine
 10
610.3686466927128
 20
-121.961492858597
 30
0.0
 11
611.3248648767429
 21
-122.5135058663106
 31
0.0
  0
LINE
  5
D049
330
A
100
AcDbEntity
  8
0
  6
Continuous
 62
     8
370
     0
100
AcDbLine
 10
610.3843279580386
 20
-124.1431020397515
 30
0.0
 11
610.4726604071828
 21
-124.1940952772208
 31
0.0
  0
LINE
  5
D04A
330
A
100
AcDbEntity
  8
0
  6
Continuous
 62
     8
370
     0
100
AcDbLine
 10
610.5725302878672
 20
-123.7122739765475
 30
0.0
 11
611.3248648767429
 21
-124.1465874900823
 31
0.0
  0
LINE
  5
D04B
330
A
100
AcDbEntity
  8
0
  6
Continuous
 62
     8
370
     0
100
AcDbLine
 10
608.0699432327573
 20
-128.8654121128681
 30
0.0
 11
609.1661368914182
 21
-129.4982312420788
 31
0.0
  0
LINE
  5
D04C
330
A
100
AcDbEntity
  8
0
  6
Continuous
 62
     8
370
     0
100
AcDbLine
 10
610.3843279580386
 20
-125.7761836635229
 30
0.0
 11
610.4726604071828
 21
-125.8271769009925
 31
0.0
  0
LINE
  5
D04D
330
A
100
AcDbEntity
  8
0
  6
Continuous
 62
     8
370
     0
100
AcDbLine
 10
610.5725302878672
 20
-125.3453556003189
 30
0.0
 11
611.3248648767429
 21
-125.7796691138537
 31
0.0
  0
LINE
  5
D04E
330
A
100
AcDbEntity
  8
0
  6
Continuous
 62
     8
370
     0
100
AcDbLine
 10
610.3987926388044
 20
-127.9208055989306
 30
0.0
 11
610.4467080524745
 21
-127.948466578462
 31
0.0
  0
LINE
  5
D04F
330
A
100
AcDbEntity
  8
0
  6
Continuous
 62
     8
370
     0
100
AcDbLine
 10
610.368646692711
 20
-127.3489281494932
 30
0.0
 11
611.9165026564013
 21
-128.2424863774101
 31
0.0
  0
LINE
  5
D050
330
A
100
AcDbEntity
  8
0
  6
Continuous
 62
     8
370
     0
100
AcDbLine
 10
491.0456974202519
 20
-56.77664627311987
 30
0.0
 11
607.5397912946886
 21
-124.0272551973714
 31
0.0
  0
LINE
  5
D051
330
A
100
AcDbEntity
  8
0
  6
Continuous
 62
     8
370
     0
100
AcDbLine
 10
491.1871187764904
 20
-56.53169729956124
 30
0.0
 11
607.6812126509261
 21
-123.7823062238123
 31
0.0
  0
LINE
  5
D052
330
A
100
AcDbEntity
  8
0
  6
Continuous
 62
     8
370
     0
100
AcDbLine
 10
491.0456974202528
 20
-61.75754522562391
 30
0.0
 11
607.5397912946886
 21
-129.008154149875
 31
0.0
  0
LINE
  5
D053
330
A
100
AcDbEntity
  8
0
  6
Continuous
 62
     8
370
     0
100
AcDbLine
 10
491.6113828452034
 20
-56.28677486601481
 30
0.0
 11
608.1054767196382
 21
-123.5373837902654
 31
0.0
  0
LINE
  5
D084
330
A
100
AcDbEntity
  8
0
100
AcDbLine
 10
288.2989961543181
 20
-271.3185594873868
 30
0.0
 11
285.7989961543181
 21
-271.3185594873868
 31
0.0
  0
LINE
  5
D085
330
A
100
AcDbEntity
  8
0
100
AcDbLine
 10
285.7989961543181
 20
-271.3185594873868
 30
0.0
 11
285.7989961543181
 21
-267.3185594873868
 31
0.0
  0
LINE
  5
D086
330
A
100
AcDbEntity
  8
0
100
AcDbLine
 10
288.2989961543181
 20
-267.3185594873868
 30
0.0
 11
288.2989961543181
 21
-271.3185594873868
 31
0.0
  0
ARC
  5
D087
330
A
100
AcDbEntity
  8
0
100
AcDbCircle
 10
289.2989961543181
 20
-257.8185594873868
 30
0.0
 40
1.0
100
AcDbArc
 50
90.0
 51
180.0
  0
ARC
  5
D088
330
A
100
AcDbEntity
  8
0
100
AcDbCircle
 10
287.7989961543181
 20
-256.3185594873868
 30
0.0
 40
2.0
100
AcDbArc
 50
90.0
 51
180.0
  0
LINE
  5
D089
330
A
100
AcDbEntity
  8
0
100
AcDbLine
 10
287.7989961543181
 20
-254.3185594873868
 30
0.0
 11
306.7989961543181
 21
-254.3185594873868
 31
0.0
  0
LINE
  5
D08A
330
A
100
AcDbEntity
  8
0
100
AcDbLine
 10
306.7989961543181
 20
-256.8185594873868
 30
0.0
 11
289.2989961543181
 21
-256.8185594873868
 31
0.0
  0
LINE
  5
D08B
330
A
100
AcDbEntity
  8
0
100
AcDbLine
 10
288.2989961543181
 20
-257.8185594873868
 30
0.0
 11
288.2989961543181
 21
-267.3185594873868
 31
0.0
  0
LINE
  5
D08C
330
A
100
AcDbEntity
  8
0
100
AcDbLine
 10
285.7989961543181
 20
-267.3185594873868
 30
0.0
 11
285.7989961543181
 21
-256.3185594873868
 31
0.0
  0
LINE
  5
D08D
330
A
100
AcDbEntity
  8
0
100
AcDbLine
 10
310.7989961543181
 20
-254.3185594873868
 30
0.0
 11
310.7989961543181
 21
-256.8185594873868
 31
0.0
  0
LINE
  5
D08E
330
A
100
AcDbEntity
  8
0
100
AcDbLine
 10
310.7989961543181
 20
-256.8185594873868
 30
0.0
 11
306.7989961543181
 21
-256.8185594873868
 31
0.0
  0
LINE
  5
D08F
330
A
100
AcDbEntity
  8
0
100
AcDbLine
 10
306.7989961543181
 20
-254.3185594873868
 30
0.0
 11
310.7989961543181
 21
-254.3185594873868
 31
0.0
  0
LINE
  5
D090
330
A
100
AcDbEntity
  8
0
  6
Continuous
 62
     8
370
     0
100
AcDbLine
 10
285.7989961543181
 20
-267.3185594873868
 30
0.0
 11
288.2989961543181
 21
-267.3185594873868
 31
0.0
  0
LINE
  5
D091
330
A
100
AcDbEntity
  8
0
  6
Continuous
 62
     8
370
     0
100
AcDbLine
 10
306.7989961543181
 20
-256.8185594873868
 30
0.0
 11
306.7989961543181
 21
-254.3185594873868
 31
0.0
  0
LINE
  5
D092
330
A
100
AcDbEntity
  8
0
100
AcDbLine
 10
268.6326307594118
 20
-254.3185594873868
 30
0.0
 11
268.6326307594118
 21
-256.8185594873868
 31
0.0
  0
LINE
  5
D093
330
A
100
AcDbEntity
  8
0
100
AcDbLine
 10
268.6326307594118
 20
-256.8185594873868
 30
0.0
 11
264.6326307594118
 21
-256.8185594873868
 31
0.0
  0
LINE
  5
D094
330
A
100
AcDbEntity
  8
0
100
AcDbLine
 10
264.6326307594118
 20
-254.3185594873868
 30
0.0
 11
268.6326307594118
 21
-254.3185594873868
 31
0.0
  0
LINE
  5
D095
330
A
100
AcDbEntity
  8
0
100
AcDbLine
 10
264.6326307594118
 20
-256.8185594873868
 30
0.0
 11
258.6326307594118
 21
-256.8185594873868
 31
0.0
  0
LINE
  5
D096
330
A
100
AcDbEntity
  8
0
100
AcDbLine
 10
264.6326307594118
 20
-254.3185594873868
 30
0.0
 11
258.6326307594118
 21
-254.3185594873868
 31
0.0
  0
LINE
  5
D097
330
A
100
AcDbEntity
  8
0
100
AcDbLine
 10
254.6326307594118
 20
-256.8185594873868
 30
0.0
 11
254.6326307594118
 21
-254.3185594873868
 31
0.0
  0
LINE
  5
D098
330
A
100
AcDbEntity
  8
0
100
AcDbLine
 10
258.6326307594118
 20
-256.8185594873868
 30
0.0
 11
254.6326307594118
 21
-256.8185594873868
 31
0.0
  0
LINE
  5
D099
330
A
100
AcDbEntity
  8
0
100
AcDbLine
 10
254.6326307594118
 20
-254.3185594873868
 30
0.0
 11
258.6326307594118
 21
-254.3185594873868
 31
0.0
  0
LINE
  5
D09A
330
A
100
AcDbEntity
  8
0
100
AcDbLine
 10
254.6326307594118
 20
-257.8185594873868
 30
0.0
 11
254.6326307594118
 21
-256.8185594873868
 31
0.0
  0
LINE
  5
D09B
330
A
100
AcDbEntity
  8
0
100
AcDbLine
 10
268.6326307594118
 20
-256.8185594873868
 30
0.0
 11
268.6326307594118
 21
-257.8185594873868
 31
0.0
  0
ARC
  5
D09C
330
A
100
AcDbEntity
  8
0
100
AcDbCircle
 10
264.6326307594118
 20
-267.3185594873868
 30
0.0
 40
4.0
100
AcDbArc
 50
270.0
 51
0.0
  0
LINE
  5
D09D
330
A
100
AcDbEntity
  8
0
100
AcDbLine
 10
264.6326307594118
 20
-271.3185594873868
 30
0.0
 11
258.6326307594118
 21
-271.3185594873868
 31
0.0
  0
ARC
  5
D09E
330
A
100
AcDbEntity
  8
0
100
AcDbCircle
 10
258.6326307594118
 20
-267.3185594873868
 30
0.0
 40
4.0
100
AcDbArc
 50
180.0
 51
270.0
  0
LINE
  5
D09F
330
A
100
AcDbEntity
  8
0
100
AcDbLine
 10
254.6326307594118
 20
-257.8185594873868
 30
0.0
 11
254.6326307594118
 21
-267.3185594873868
 31
0.0
  0
LINE
  5
D0A0
330
A
100
AcDbEntity
  8
0
100
AcDbLine
 10
268.6326307594118
 20
-257.8185594873868
 30
0.0
 11
268.6326307594118
 21
-267.3185594873868
 31
0.0
  0
LINE
  5
D0A1
330
A
100
AcDbEntity
  8
0
  6
Continuous
 62
     8
370
     0
100
AcDbLine
 10
264.6326307594118
 20
-256.8185594873868
 30
0.0
 11
264.6326307594118
 21
-254.3185594873868
 31
0.0
  0
LINE
  5
D0A2
330
A
100
AcDbEntity
  8
0
  6
Continuous
 62
     8
370
     0
100
AcDbLine
 10
258.6326307594118
 20
-254.3185594873868
 30
0.0
 11
258.6326307594118
 21
-256.8185594873868
 31
0.0
  0
LINE
  5
D0A3
330
A
100
AcDbEntity
  8
0
  6
Continuous
 62
     8
370
     0
100
AcDbLine
 10
268.6326307594118
 20
-257.8185594873868
 30
0.0
 11
254.6326307594118
 21
-257.8185594873868
 31
0.0
  0
LINE
  5
D0A4
330
A
100
AcDbEntity
  8
0
100
AcDbLine
 10
288.2989961543181
 20
-241.0717722009844
 30
0.0
 11
285.7989961543181
 21
-241.0717722009844
 31
0.0
  0
LINE
  5
D0A5
330
A
100
AcDbEntity
  8
0
100
AcDbLine
 10
285.7989961543181
 20
-241.0717722009844
 30
0.0
 11
285.7989961543181
 21
-237.0717722009844
 31
0.0
  0
LINE
  5
D0A6
330
A
100
AcDbEntity
  8
0
100
AcDbLine
 10
288.2989961543181
 20
-237.0717722009844
 30
0.0
 11
288.2989961543181
 21
-241.0717722009844
 31
0.0
  0
LINE
  5
D0A7
330
A
100
AcDbEntity
  8
0
100
AcDbLine
 10
288.2989961543181
 20
-237.0717722009844
 30
0.0
 11
288.2989961543181
 21
-231.0717722009844
 31
0.0
  0
LINE
  5
D0A8
330
A
100
AcDbEntity
  8
0
100
AcDbLine
 10
285.7989961543181
 20
-237.0717722009844
 30
0.0
 11
285.7989961543181
 21
-231.0717722009844
 31
0.0
  0
LINE
  5
D0A9
330
A
100
AcDbEntity
  8
0
100
AcDbLine
 10
285.7989961543181
 20
-227.0717722009844
 30
0.0
 11
288.2989961543181
 21
-227.0717722009844
 31
0.0
  0
LINE
  5
D0AA
330
A
100
AcDbEntity
  8
0
100
AcDbLine
 10
288.2989961543181
 20
-227.0717722009844
 30
0.0
 11
288.2989961543181
 21
-231.0717722009844
 31
0.0
  0
LINE
  5
D0AB
330
A
100
AcDbEntity
  8
0
100
AcDbLine
 10
285.7989961543181
 20
-231.0717722009844
 30
0.0
 11
285.7989961543181
 21
-227.0717722009844
 31
0.0
  0
LINE
  5
D0AC
330
A
100
AcDbEntity
  8
0
100
AcDbLine
 10
288.2989961543181
 20
-227.0717722009846
 30
0.0
 11
289.2989961543181
 21
-227.0717722009846
 31
0.0
  0
LINE
  5
D0AD
330
A
100
AcDbEntity
  8
0
100
AcDbLine
 10
289.2989961543181
 20
-241.0717722009846
 30
0.0
 11
288.2989961543181
 21
-241.0717722009846
 31
0.0
  0
ARC
  5
D0AE
330
A
100
AcDbEntity
  8
0
100
AcDbCircle
 10
306.7989961543181
 20
-237.0717722009846
 30
0.0
 40
4.0
100
AcDbArc
 50
270.0
 51
0.0
  0
ARC
  5
D0AF
330
A
100
AcDbEntity
  8
0
100
AcDbCircle
 10
306.7989961543181
 20
-231.0717722009846
 30
0.0
 40
4.0
100
AcDbArc
 50
0.0
 51
90.0
  0
LINE
  5
D0B0
330
A
100
AcDbEntity
  8
0
100
AcDbLine
 10
310.7989961543181
 20
-237.0717722009846
 30
0.0
 11
310.7989961543181
 21
-231.0717722009846
 31
0.0
  0
CIRCLE
  5
D0B1
330
A
100
AcDbEntity
  8
0
100
AcDbCircle
 10
300.7989961543181
 20
-234.0717722009846
 30
0.0
 40
5.19999999999996
  0
LINE
  5
D0B2
330
A
100
AcDbEntity
  8
0
100
AcDbLine
 10
306.7989961543181
 20
-227.0717722009846
 30
0.0
 11
289.2989961543181
 21
-227.0717722009846
 31
0.0
  0
LINE
  5
D0B3
330
A
100
AcDbEntity
  8
0
100
AcDbLine
 10
306.7989961543181
 20
-241.0717722009846
 30
0.0
 11
289.2989961543181
 21
-241.0717722009846
 31
0.0
  0
CIRCLE
  5
D0B4
330
A
100
AcDbEntity
  8
0
100
AcDbCircle
 10
300.7989961543181
 20
-234.0717722009846
 30
0.0
 40
2.699999999999989
  0
LINE
  5
D0B5
330
A
100
AcDbEntity
  8
0
  6
Continuous
 62
     8
370
     0
100
AcDbLine
 10
285.7989961543181
 20
-237.0717722009844
 30
0.0
 11
288.2989961543181
 21
-237.0717722009844
 31
0.0
  0
LINE
  5
D0B6
330
A
100
AcDbEntity
  8
0
  6
Continuous
 62
     8
370
     0
100
AcDbLine
 10
288.2989961543181
 20
-231.0717722009844
 30
0.0
 11
285.7989961543181
 21
-231.0717722009844
 31
0.0
  0
LINE
  5
D0B7
330
A
100
AcDbEntity
  8
0
  6
Continuous
 62
     8
370
     0
100
AcDbLine
 10
289.2989961543181
 20
-227.0717722009846
 30
0.0
 11
289.2989961543181
 21
-241.0717722009846
 31
0.0
  0
INSERT
  5
D0B8
330
A
100
AcDbEntity
  8
ASSI
100
AcDbBlockReference
  2
SW_CENTERMARKSYMBOL_0
 10
300.7989961543181
 20
-234.0717722009846
 30
0.0
  0
LINE
  5
D0B9
330
A
100
AcDbEntity
  8
0
100
AcDbLine
 10
340.5303346483807
 20
-278.6963882441833
 30
0.0
 11
340.5303346483807
 21
-276.2815736784606
 31
0.0
  0
LINE
  5
D0BA
330
A
100
AcDbEntity
  8
0
100
AcDbLine
 10
321.2577221241318
 20
-273.0330583702347
 30
0.0
 11
314.2577221241318
 21
-276.1710725228229
 31
0.0
  0
LINE
  5
D0BB
330
A
100
AcDbEntity
  8
0
100
AcDbLine
 10
314.7526477124757
 20
-291.4219486894199
 30
0.0
 11
316.9177112219368
 21
-291.745472495798
 31
0.0
  0
LINE
  5
D0BC
330
A
100
AcDbEntity
  8
0
100
AcDbLine
 10
322.0758519764759
 20
-272.9262172778186
 30
0.0
 11
338.5303346483807
 21
-275.3849982062925
 31
0.0
  0
LWPOLYLINE
  5
D0BD
330
A
100
AcDbEntity
  8
0
100
AcDbPolyline
 90
       18
 70
   128
 43
0.0
 10
339.9944362635188
 20
-276.7992117686657
 10
340.1641957356588
 20
-276.7142780678779
 10
340.3029523862661
 20
-276.6256526858068
 10
340.4095223925206
 20
-276.5340917429641
 10
340.4829965367053
 20
-276.4403764050302
 10
340.5227479633286
 20
-276.3453062182256
 10
340.5284375272341
 20
-276.249692287863
 10
340.5000166870687
 20
-276.1543503582841
 10
340.4377279194187
 20
-276.0600938532152
 10
340.3421026500892
 20
-275.9677269359238
 10
340.2139567201603
 20
-275.8780376483803
 10
340.0543834255241
 20
-275.7917911879628
 10
339.8647441892654
 20
-275.7097233790618
 10
339.6466569464838
 20
-275.6325343952864
 10
339.4019823406389
 20
-275.5608827858304
 10
339.1328078491979
 20
-275.4953798569617
 10
338.8414299740135
 20
-275.4365844565739
 10
338.5303346483807
 20
-275.3849982062925
  0
LINE
  5
D0BE
330
A
100
AcDbEntity
  8
0
100
AcDbLine
 10
339.9944362635188
 20
-276.7992117686657
 30
0.0
 11
336.9944362635188
 21
-278.1440749769178
 31
0.0
  0
ARC
  5
D0BF
330
A
100
AcDbEntity
  8
0
100
AcDbCircle
 10
333.4812078671376
 20
-267.0693244910368
 30
0.0
 40
11.61864329815048
100
AcDbArc
 50
260.3337417038048
 51
287.6005198978708
  0
LINE
  5
D0C0
330
A
100
AcDbEntity
  8
0
100
AcDbLine
 10
315.0758519764759
 20
-276.0642314304068
 30
0.0
 11
331.5303346483807
 21
-278.5230123588808
 31
0.0
  0
LWPOLYLINE
  5
D0C1
330
A
100
AcDbEntity
  8
0
100
AcDbPolyline
 90
       59
 70
   128
 43
0.0
 10
331.1841822256739
 20
-275.5723597035657
 10
331.4290797726181
 20
-275.6136847466454
 10
331.655278604053
 20
-275.6616205725522
 10
331.8601267454961
 20
-275.7156051775557
 10
332.0412225397832
 20
-275.7750056415208
 10
332.196442804303
 20
-275.8391255483177
 10
332.3239677233742
 20
-275.9072131506647
 10
332.4223021839171
 20
-275.9784701836774
 10
332.4902933042904
 20
-276.0520612237946
 10
332.5271439507724
 20
-276.1271234833558
 10
332.5324220832263
 20
-276.2027769259979
 10
332.5060658203739
 20
-276.2781345842764
 10
332.448384165301
 20
-276.3523129585481
 10
332.360053382673
 20
-276.4244423751966
 10
332.2421090701555
 20
-276.4936771827604
 10
332.0959340169748
 20
-276.5592056664227
 10
331.9232419919809
 20
-276.6202595646258
 10
331.7260576512718
 20
-276.6761230762355
 10
331.5066928009565
 20
-276.7261412526545
 10
331.2677192933371
 20
-276.7697276764966
 10
331.0119388742942
 20
-276.8063713367934
 10
330.7423503353794
 20
-276.8356426201317
 10
330.4621143557243
 20
-276.8571983474773
 10
330.174516445969
 20
-276.8707857976357
 10
329.8829284286504
 20
-276.8762456701768
 10
329.5907689066717
 20
-276.8735139530872
 10
329.301463183303
 20
-276.8626226732522
 10
329.0184031036361
 20
-276.8436995209697
 10
328.7449072883019
 20
-276.8169663528987
 10
328.484182225674
 20
-276.7827365909925
 10
328.2392846787298
 20
-276.7414115479128
 10
328.0130858472949
 20
-276.6934757220059
 10
327.8082377058518
 20
-276.6394911170024
 10
327.6271419115647
 20
-276.5800906530374
 10
327.4719216470449
 20
-276.5159707462404
 10
327.3443967279737
 20
-276.4478831438934
 10
327.2460622674308
 20
-276.3766261108807
 10
327.1780711470574
 20
-276.3030350707636
 10
327.1412205005755
 20
-276.2279728112023
 10
327.1359423681216
 20
-276.1523193685603
 10
327.162298630974
 20
-276.0769617102818
 10
327.2199802860469
 20
-276.0027833360101
 10
327.3083110686749
 20
-275.9306539193616
 10
327.4262553811923
 20
-275.8614191117978
 10
327.5724304343731
 20
-275.7958906281355
 10
327.745122459367
 20
-275.7348367299323
 10
327.9423068000761
 20
-275.6789732183227
 10
328.1616716503914
 20
-275.6289550419036
 10
328.4006451580117
 20
-275.5853686180616
 10
328.6564255770537
 20
-275.5487249577648
 10
328.9260141159685
 20
-275.5194536744265
 10
329.2062500956236
 20
-275.4978979470809
 10
329.4938480053789
 20
-275.4843104969225
 10
329.7854360226975
 20
-275.4788506243814
 10
330.0775955446762
 20
-275.4815823414709
 10
330.3669012680448
 20
-275.492473621306
 10
330.6499613477118
 20
-275.5113967735884
 10
330.9234571630469
 20
-275.5381299416595
 10
331.1841822256739
 20
-275.5723597035657
  0
ARC
  5
D0C2
330
A
100
AcDbEntity
  8
0
100
AcDbCircle
 10
333.4737729012286
 20
-269.376930290444
 30
0.0
 40
11.7231089403943
100
AcDbArc
 50
260.4575436697127
 51
287.4767179319636
  0
ARC
  5
D0C3
330
A
100
AcDbEntity
  8
0
100
AcDbCircle
 10
316.2829143557793
 20
-279.444485889219
 30
0.0
 40
0.7767900165078594
100
AcDbArc
 50
83.19994756579682
 51
184.8141068254638
  0
LINE
  5
D0C4
330
A
100
AcDbEntity
  8
0
100
AcDbLine
 10
315.5088646783689
 20
-279.5096765836942
 30
0.0
 11
315.5088646783689
 21
-288.6859719334403
 31
0.0
  0
LINE
  5
D0C5
330
A
100
AcDbEntity
  8
0
100
AcDbLine
 10
313.3438011689078
 20
-288.3624481270622
 30
0.0
 11
313.3438011689078
 21
-277.7372640378824
 31
0.0
  0
ARC
  5
D0C6
330
A
100
AcDbEntity
  8
0
100
AcDbCircle
 10
314.8919005237295
 20
-277.6068826489321
 30
0.0
 40
1.55358003301578
100
AcDbArc
 50
83.19994756583066
 51
184.8141068254595
  0
LINE
  5
D0C7
330
A
100
AcDbEntity
  8
0
100
AcDbLine
 10
331.5303346483807
 20
-280.9378269246034
 30
0.0
 11
316.3748900821529
 21
-278.6731602799564
 31
0.0
  0
LINE
  5
D0C8
330
A
100
AcDbEntity
  8
0
100
AcDbLine
 10
339.9944362635188
 20
-279.2140263343883
 30
0.0
 11
336.9944362635188
 21
-280.5588895426404
 31
0.0
  0
ARC
  5
D0C9
330
A
100
AcDbEntity
  8
0
100
AcDbCircle
 10
339.8281395392478
 20
-278.505642835284
 30
0.0
 40
0.7276412456056032
100
AcDbArc
 50
283.2112596026469
 51
344.802794788634
  0
ARC
  5
D0CA
330
A
100
AcDbEntity
  8
0
100
AcDbCircle
 10
321.8481744091824
 20
-274.3686016560183
 30
0.0
 40
1.460243051386813
100
AcDbArc
 50
81.02998306980705
 51
113.8505302221839
  0
LINE
  5
D0CB
330
A
100
AcDbEntity
  8
0
100
AcDbLine
 10
322.5088646783689
 20
-279.5897554749345
 30
0.0
 11
322.5088646783689
 21
-285.5479577808521
 31
0.0
  0
ARC
  5
D0CC
330
A
100
AcDbEntity
  8
0
100
AcDbCircle
 10
317.0133609198775
 20
-286.0393406622671
 30
0.0
 40
5.517428630778523
100
AcDbArc
 50
309.3116758613164
 51
5.109539065322813
  0
LINE
  5
D0CD
330
A
100
AcDbEntity
  8
0
100
AcDbLine
 10
320.5088646783689
 20
-290.3082365581764
 30
0.0
 11
317.5088646783689
 21
-291.6530997664286
 31
0.0
  0
LWPOLYLINE
  5
D0CE
330
A
100
AcDbEntity
  8
0
100
AcDbPolyline
 90
       18
 70
   128
 43
0.0
 10
315.5088646783689
 20
-288.6859719334403
 10
315.5173963257785
 20
-289.0386448659575
 10
315.542918479001
 20
-289.3806596515586
 10
315.5852133920226
 20
-289.7090983406837
 10
315.6439202195598
 20
-290.0211588102416
 10
315.7185380956581
 20
-290.3141786703352
 10
315.8084304069089
 20
-290.5856579788342
 10
315.9128302238078
 20
-290.8332805699995
 10
316.0308468439271
 20
-291.0549338151924
 10
316.1614733910756
 20
-291.2487266470777
 10
316.3035954056095
 20
-291.4130056935431
 10
316.456000352614
 20
-291.5463693836875
 10
316.6173879668159
 20
-291.6476799055291
 10
316.7863813459945
 20
-291.7160729134168
 10
316.9615386982242
 20
-291.7509649023219
 10
317.1413656427349
 20
-291.7520581860977
 10
317.3243279594417
 20
-291.7193434372324
 10
317.5088646783689
 20
-291.6530997664286
  0
LWPOLYLINE
  5
D0CF
330
A
100
AcDbEntity
  8
0
100
AcDbPolyline
 90
       15
 70
   128
 43
0.0
 10
314.7526477124757
 20
-291.4219486894199
 10
314.6213178365334
 20
-291.3925491070387
 10
314.4523244573548
 20
-291.324156099151
 10
314.2909368431529
 20
-291.2228455773093
 10
314.1385318961493
 20
-291.089481887165
 10
313.9964098816145
 20
-290.9252028406995
 10
313.865783334466
 20
-290.7314100088142
 10
313.7477667143467
 20
-290.5097567636213
 10
313.6433668974478
 20
-290.2621341724561
 10
313.553474586197
 20
-289.990654863957
 10
313.4788567100987
 20
-289.6976350038634
 10
313.4201498825615
 20
-289.3855745343055
 10
313.3778549695399
 20
-289.0571358451805
 10
313.3523328163174
 20
-288.7151210595794
 10
313.3438011689078
 20
-288.3624481270622
  0
LINE
  5
D0D0
330
A
100
AcDbEntity
  8
0
  6
Continuous
 62
     8
370
     0
100
AcDbLine
 10
322.0758519764759
 20
-272.9262172778186
 30
0.0
 11
315.0758519764759
 21
-276.0642314304068
 31
0.0
  0
LINE
  5
D0D1
330
A
100
AcDbEntity
  8
0
  6
Continuous
 62
     8
370
     0
100
AcDbLine
 10
336.9944362635188
 20
-278.1440749769178
 30
0.0
 11
336.9944362635188
 21
-280.5588895426404
 31
0.0
  0
LINE
  5
D0D2
330
A
100
AcDbEntity
  8
0
  6
Continuous
 62
     8
370
     0
100
AcDbLine
 10
331.5303346483807
 20
-280.9378269246034
 30
0.0
 11
331.5303346483807
 21
-278.5230123588808
 31
0.0
  0
LINE
  5
D0D3
330
A
100
AcDbEntity
  8
0
  6
Continuous
 62
     8
370
     0
100
AcDbLine
 10
313.3438011689078
 20
-288.3624481270622
 30
0.0
 11
315.5088646783689
 21
-288.6859719334403
 31
0.0
  0
LINE
  5
D0D4
330
A
100
AcDbEntity
  8
0
  6
Continuous
 62
     8
370
     0
100
AcDbLine
 10
339.9944362635188
 20
-279.2140263343883
 30
0.0
 11
339.9944362635188
 21
-276.7992117686657
 31
0.0
  0
LINE
  5
D0D5
330
A
100
AcDbEntity
  8
0
  6
Continuous
 62
     8
370
     0
100
AcDbLine
 10
317.1248900821529
 20
-278.7852322139773
 30
0.0
 11
315.5088646783689
 21
-279.5096765836942
 31
0.0
  0
LINE
  5
DBC6
330
A
100
AcDbEntity
  8
0
100
AcDbLine
 10
258.0740672319201
 20
13.82886558893902
 30
0.0
 11
257.2139696891235
 21
12.80384125232909
 31
0.0
  0
ARC
  5
DBC7
330
A
100
AcDbEntity
  8
0
100
AcDbCircle
 10
257.8825561211405
 20
13.9895624913605
 30
0.0
 40
0.25
100
AcDbArc
 50
320.0000000001194
 51
90.0
  0
LINE
  5
DBC8
330
A
100
AcDbEntity
  8
0
100
AcDbLine
 10
256.9325561211407
 20
14.2395624913605
 30
0.0
 11
257.8825561211405
 21
14.2395624913605
 31
0.0
  0
LINE
  5
DBC9
330
A
100
AcDbEntity
  8
0
100
AcDbLine
 10
256.9325561211407
 20
17.43091110565352
 30
0.0
 11
256.9325561211407
 21
14.2395624913605
 31
0.0
  0
ARC
  5
DBCA
330
A
100
AcDbEntity
  8
0
100
AcDbCircle
 10
256.6825561211407
 20
17.43091110565352
 30
0.0
 40
0.2500000000000126
100
AcDbArc
 50
0.0
 51
64.79887635459912
  0
LINE
  5
DBCB
330
A
100
AcDbEntity
  8
0
100
AcDbLine
 10
250.2028738786215
 20
19.90941295842809
 30
0.0
 11
256.7890053802229
 21
17.65711578120396
 31
0.0
  0
ARC
  5
DBCC
330
A
100
AcDbEntity
  8
0
100
AcDbCircle
 10
250.0325550640895
 20
19.5474854775474
 30
0.0
 40
0.4000000000000244
100
AcDbArc
 50
64.79887635458495
 51
224.9999999999201
  0
LINE
  5
DBCD
330
A
100
AcDbEntity
  8
0
100
AcDbLine
 10
251.5109832458869
 20
17.50337187080082
 30
0.0
 11
249.7497123516149
 21
19.26464276507328
 31
0.0
  0
ARC
  5
DBCE
330
A
100
AcDbEntity
  8
0
100
AcDbCircle
 10
248.6825561211407
 20
14.67494474605506
 30
0.0
 40
3.999999999999992
100
AcDbArc
 50
0.0
 51
44.99999999999935
  0
LINE
  5
DBCF
330
A
100
AcDbEntity
  8
0
100
AcDbLine
 10
252.6825561211407
 20
11.31038428243743
 30
0.0
 11
252.6825561211407
 21
14.67494474605506
 31
0.0
  0
ARC
  5
DBD0
330
A
100
AcDbEntity
  8
0
100
AcDbCircle
 10
249.6825561211407
 20
11.31038428243743
 30
0.0
 40
3.000000000000024
100
AcDbArc
 50
314.9999999999968
 51
0.0
  0
LINE
  5
DBD1
330
A
100
AcDbEntity
  8
0
100
AcDbLine
 10
250.3850362491002
 20
7.770223723277795
 30
0.0
 11
251.8038764647002
 21
9.189063938877425
 31
0.0
  0
LINE
  5
DBD2
330
A
100
AcDbEntity
  8
0
100
AcDbLine
 10
250.2131706225867
 20
8.01567327521012
 30
0.0
 11
250.3850362491002
 21
7.770223723277795
 31
0.0
  0
ARC
  5
DBD3
330
A
100
AcDbEntity
  8
0
100
AcDbCircle
 10
250.0697765134991
 20
8.220461286282315
 30
0.0
 40
0.2500000000000308
100
AcDbArc
 50
304.9999999999761
 51
34.99999999984902
  0
LINE
  5
DBD4
330
A
100
AcDbEntity
  8
0
100
AcDbLine
 10
246.0874565392086
 20
14.34366531867896
 30
0.0
 11
250.2745645245712
 21
8.363855395369555
 31
0.0
  0
ARC
  5
DBD5
330
A
100
AcDbEntity
  8
0
100
AcDbCircle
 10
245.7188381192785
 20
14.08555592232175
 30
0.0
 40
0.4500000000000666
100
AcDbArc
 50
34.99999999990996
 51
215.0000000000136
  0
LINE
  5
DBD6
330
A
100
AcDbEntity
  8
0
100
AcDbLine
 10
249.5373276847112
 20
7.847636602654219
 30
0.0
 11
245.3502196993485
 21
13.82744652596362
 31
0.0
  0
ARC
  5
DBD7
330
A
100
AcDbEntity
  8
0
100
AcDbCircle
 10
249.7421156957834
 20
7.991030711741459
 30
0.0
 40
0.2499999999999982
100
AcDbArc
 50
214.9999999998826
 51
304.9999999999815
  0
LINE
  5
DBD8
330
A
100
AcDbEntity
  8
0
100
AcDbLine
 10
250.1109820206656
 20
7.464235005107057
 30
0.0
 11
249.885509804871
 21
7.786242700669263
 31
0.0
  0
ARC
  5
DBD9
330
A
100
AcDbEntity
  8
0
100
AcDbCircle
 10
250.6320821025473
 20
6.996843622364267
 30
0.0
 40
0.700000000000017
100
AcDbArc
 50
138.1100510348248
 51
273.5448316290647
  0
ARC
  5
DBDA
330
A
100
AcDbEntity
  8
0
100
AcDbCircle
 10
250.2425561211406
 20
13.28478998900924
 30
0.0
 40
6.999999999999995
100
AcDbArc
 50
273.544831629061
 51
343.0117635657764
  0
LINE
  5
DBDB
330
A
100
AcDbEntity
  8
0
100
AcDbLine
 10
257.8825561211405
 20
11.2395624913605
 30
0.0
 11
256.937109465678
 21
11.2395624913605
 31
0.0
  0
ARC
  5
DBDC
330
A
100
AcDbEntity
  8
0
100
AcDbCircle
 10
257.8825561211405
 20
11.4895624913605
 30
0.0
 40
0.2500000000000074
100
AcDbArc
 50
270.0
 51
40.00000000004148
  0
LINE
  5
DBDD
330
A
100
AcDbEntity
  8
0
100
AcDbLine
 10
257.2139696891235
 20
12.67528373039191
 30
0.0
 11
258.0740672319201
 21
11.65025939378198
 31
0.0
  0
ARC
  5
DBDE
330
A
100
AcDbEntity
  8
0
100
AcDbCircle
 10
257.2905741334351
 20
12.7395624913605
 30
0.0
 40
0.0999999999999957
100
AcDbArc
 50
139.9999999998554
 51
220.0000000001446
  0
ARC
  5
DBDF
330
A
100
AcDbEntity
  8
0
100
AcDbCircle
 10
215.7564211986281
 20
12.11534599396678
 30
0.0
 40
0.2500000000000326
100
AcDbArc
 50
294.3059861089643
 51
65.69401389115015
  0
LINE
  5
DBE0
330
A
100
AcDbEntity
  8
0
100
AcDbLine
 10
214.6541244742979
 20
11.34318606340445
 30
0.0
 11
215.8593235929583
 21
11.88750592453003
 31
0.0
  0
ARC
  5
DBE1
330
A
100
AcDbEntity
  8
0
100
AcDbCircle
 10
214.757026868628
 20
11.11534599396678
 30
0.0
 40
0.2500000000000042
100
AcDbArc
 50
114.3059861087386
 51
180.0
  0
LINE
  5
DBE2
330
A
100
AcDbEntity
  8
0
100
AcDbLine
 10
214.507026868628
 20
10.51534599396733
 30
0.0
 11
214.507026868628
 21
11.11534599396678
 31
0.0
  0
ARC
  5
DBE3
330
A
100
AcDbEntity
  8
0
100
AcDbCircle
 10
214.7570268686285
 20
10.51534599396733
 30
0.0
 40
0.2500000000000568
100
AcDbArc
 50
180.0
 51
236.0535193174138
  0
LINE
  5
DBE4
330
A
100
AcDbEntity
  8
0
100
AcDbLine
 10
216.6960257649606
 20
8.908743543278305
 30
0.0
 11
214.6174223022962
 21
10.30795610737901
 31
0.0
  0
ARC
  5
DBE5
330
A
100
AcDbEntity
  8
0
100
AcDbCircle
 10
216.5564211986283
 20
8.701353656689989
 30
0.0
 40
0.2500000000000357
100
AcDbArc
 50
253.3007557660656
 51
56.0535193175362
  0
LINE
  5
DBE6
330
A
100
AcDbEntity
  8
0
100
AcDbLine
 10
214.3064211986283
 20
9.115345993966784
 30
0.0
 11
216.4845842272365
 21
8.46189708538428
 31
0.0
  0
LINE
  5
DBE7
330
A
100
AcDbEntity
  8
0
100
AcDbLine
 10
211.0064211986281
 20
9.115345993966784
 30
0.0
 11
214.3064211986283
 21
9.115345993966784
 31
0.0
  0
ARC
  5
DBE8
330
A
100
AcDbEntity
  8
0
100
AcDbCircle
 10
211.0064211986281
 20
9.315345993967512
 30
0.0
 40
0.2000000000000455
100
AcDbArc
 50
180.0
 51
270.0
  0
LINE
  5
DBE9
330
A
100
AcDbEntity
  8
0
100
AcDbLine
 10
210.8064211986283
 20
12.61534599396678
 30
0.0
 11
210.8064211986283
 21
9.315345993967512
 31
0.0
  0
LINE
  5
DBEA
330
A
100
AcDbEntity
  8
0
100
AcDbLine
 10
209.5064211986281
 20
12.61534599396678
 30
0.0
 11
210.8064211986283
 21
12.61534599396678
 31
0.0
  0
LINE
  5
DBEB
330
A
100
AcDbEntity
  8
0
100
AcDbLine
 10
209.5064211986281
 20
12.61534599396678
 30
0.0
 11
209.5064211986281
 21
15.61534599396678
 31
0.0
  0
LINE
  5
DBEC
330
A
100
AcDbEntity
  8
0
100
AcDbLine
 10
210.8064211986283
 20
15.61534599396678
 30
0.0
 11
209.5064211986281
 21
15.61534599396678
 31
0.0
  0
LINE
  5
DBED
330
A
100
AcDbEntity
  8
0
100
AcDbLine
 10
210.8064211986283
 20
18.91534599396697
 30
0.0
 11
210.8064211986283
 21
15.61534599396678
 31
0.0
  0
ARC
  5
DBEE
330
A
100
AcDbEntity
  8
0
100
AcDbCircle
 10
211.0064211986281
 20
18.91534599396697
 30
0.0
 40
0.2000000000000455
100
AcDbArc
 50
90.0
 51
180.0
  0
LINE
  5
DBEF
330
A
100
AcDbEntity
  8
0
100
AcDbLine
 10
214.3064211986283
 20
19.11534599396678
 30
0.0
 11
211.0064211986281
 21
19.11534599396678
 31
0.0
  0
LINE
  5
DBF0
330
A
100
AcDbEntity
  8
0
100
AcDbLine
 10
216.4845842272365
 20
19.76879490254929
 30
0.0
 11
214.3064211986283
 21
19.11534599396678
 31
0.0
  0
ARC
  5
DBF1
330
A
100
AcDbEntity
  8
0
100
AcDbCircle
 10
216.5564211986283
 20
19.52933833124449
 30
0.0
 40
0.2500000000000357
100
AcDbArc
 50
303.9464806824638
 51
106.6992442340431
  0
LINE
  5
DBF2
330
A
100
AcDbEntity
  8
0
100
AcDbLine
 10
214.6174223022962
 20
17.92273588055546
 30
0.0
 11
216.6960257649606
 21
19.32194844465617
 31
0.0
  0
ARC
  5
DBF3
330
A
100
AcDbEntity
  8
0
100
AcDbCircle
 10
214.7570268686285
 20
17.71534599396715
 30
0.0
 40
0.2500000000000568
100
AcDbArc
 50
123.9464806825862
 51
180.0
  0
LINE
  5
DBF4
330
A
100
AcDbEntity
  8
0
100
AcDbLine
 10
214.507026868628
 20
17.11534599396678
 30
0.0
 11
214.507026868628
 21
17.71534599396715
 31
0.0
  0
ARC
  5
DBF5
330
A
100
AcDbEntity
  8
0
100
AcDbCircle
 10
214.757026868628
 20
17.11534599396678
 30
0.0
 40
0.2500000000000042
100
AcDbArc
 50
180.0
 51
245.6940138911469
  0
LINE
  5
DBF6
330
A
100
AcDbEntity
  8
0
100
AcDbLine
 10
215.8593235929583
 20
16.34318606340445
 30
0.0
 11
214.6541244742979
 21
16.88750592453003
 31
0.0
  0
ARC
  5
DBF7
330
A
100
AcDbEntity
  8
0
100
AcDbCircle
 10
215.7564211986281
 20
16.11534599396678
 30
0.0
 40
0.2500000000000326
100
AcDbArc
 50
294.3059861089643
 51
65.69401389115
  0
LINE
  5
DBF8
330
A
100
AcDbEntity
  8
0
100
AcDbLine
 10
214.6541244742979
 20
15.34318606340445
 30
0.0
 11
215.8593235929583
 21
15.88750592453003
 31
0.0
  0
ARC
  5
DBF9
330
A
100
AcDbEntity
  8
0
100
AcDbCircle
 10
214.757026868628
 20
15.11534599396678
 30
0.0
 40
0.250000000000056
100
AcDbArc
 50
114.3059861087333
 51
245.6940138911525
  0
LINE
  5
DBFA
330
A
100
AcDbEntity
  8
0
100
AcDbLine
 10
215.8593235929583
 20
14.34318606340445
 30
0.0
 11
214.6541244742979
 21
14.88750592453003
 31
0.0
  0
ARC
  5
DBFB
330
A
100
AcDbEntity
  8
0
100
AcDbCircle
 10
215.7564211986281
 20
14.11534599396678
 30
0.0
 40
0.2500000000000844
100
AcDbArc
 50
294.3059861089589
 51
65.69401389115552
  0
LINE
  5
DBFC
330
A
100
AcDbEntity
  8
0
100
AcDbLine
 10
214.6541244742979
 20
13.34318606340445
 30
0.0
 11
215.8593235929583
 21
13.88750592453003
 31
0.0
  0
ARC
  5
DBFD
330
A
100
AcDbEntity
  8
0
100
AcDbCircle
 10
214.757026868628
 20
13.11534599396678
 30
0.0
 40
0.2500000000000326
100
AcDbArc
 50
114.3059861087356
 51
245.6940138911501
  0
LINE
  5
DBFE
330
A
100
AcDbEntity
  8
0
100
AcDbLine
 10
215.8593235929583
 20
12.34318606340445
 30
0.0
 11
214.6541244742979
 21
12.88750592453003
 31
0.0
  0
ARC
  5
DBFF
330
A
100
AcDbEntity
  8
0
100
AcDbCircle
 10
208.7064211986284
 20
11.06534599396751
 30
0.0
 40
0.2000000000000455
100
AcDbArc
 50
180.0
 51
270.0
  0
LINE
  5
DC00
330
A
100
AcDbEntity
  8
0
100
AcDbLine
 10
209.3064211986283
 20
10.86534599396678
 30
0.0
 11
208.7064211986284
 21
10.86534599396678
 31
0.0
  0
ARC
  5
DC01
330
A
100
AcDbEntity
  8
0
100
AcDbCircle
 10
209.3064211986283
 20
11.06534599396751
 30
0.0
 40
0.2000000000000455
100
AcDbArc
 50
270.0
 51
0.0
  0
LINE
  5
DC02
330
A
100
AcDbEntity
  8
0
100
AcDbLine
 10
209.5064211986281
 20
17.16534599396697
 30
0.0
 11
209.5064211986281
 21
11.06534599396751
 31
0.0
  0
ARC
  5
DC03
330
A
100
AcDbEntity
  8
0
100
AcDbCircle
 10
209.3064211986283
 20
17.16534599396697
 30
0.0
 40
0.2000000000000455
100
AcDbArc
 50
0.0
 51
90.0
  0
LINE
  5
DC04
330
A
100
AcDbEntity
  8
0
100
AcDbLine
 10
208.7064211986284
 20
17.36534599396678
 30
0.0
 11
209.3064211986283
 21
17.36534599396678
 31
0.0
  0
ARC
  5
DC05
330
A
100
AcDbEntity
  8
0
100
AcDbCircle
 10
208.7064211986284
 20
17.16534599396697
 30
0.0
 40
0.2000000000000455
100
AcDbArc
 50
90.0
 51
180.0
  0
LINE
  5
DC06
330
A
100
AcDbEntity
  8
0
100
AcDbLine
 10
208.5064211986281
 20
11.06534599396751
 30
0.0
 11
208.5064211986281
 21
17.16534599396697
 31
0.0
  0
LINE
  5
DC08
330
A
100
AcDbEntity
  8
0
100
AcDbLine
 10
478.8912752150221
 20
7.77022372327734
 30
0.0
 11
480.0601154306222
 21
8.93906393887788
 31
0.0
  0
LINE
  5
DC09
330
A
100
AcDbEntity
  8
0
100
AcDbLine
 10
478.7194095885092
 20
8.015673275209664
 30
0.0
 11
478.8912752150221
 21
7.77022372327734
 31
0.0
  0
ARC
  5
DC0A
330
A
100
AcDbEntity
  8
0
100
AcDbCircle
 10
478.576015479421
 20
8.22046128628186
 30
0.0
 40
0.2500000000000774
100
AcDbArc
 50
305.0000000000959
 51
35.00000000004718
  0
LINE
  5
DC0B
330
A
100
AcDbEntity
  8
0
100
AcDbLine
 10
474.5936955051305
 20
14.34366531867941
 30
0.0
 11
478.7808034904932
 21
8.36385539537001
 31
0.0
  0
ARC
  5
DC0C
330
A
100
AcDbEntity
  8
0
100
AcDbCircle
 10
474.225077085201
 20
14.08555592232129
 30
0.0
 40
0.4500000000000806
100
AcDbArc
 50
35.00000000001968
 51
214.9999999999137
  0
LINE
  5
DC0D
330
A
100
AcDbEntity
  8
0
100
AcDbLine
 10
478.0435666506331
 20
7.847636602653765
 30
0.0
 11
473.8564586652705
 21
13.82744652596408
 31
0.0
  0
ARC
  5
DC0E
330
A
100
AcDbEntity
  8
0
100
AcDbCircle
 10
478.2483546617053
 20
7.991030711741914
 30
0.0
 40
0.2499999999999516
100
AcDbArc
 50
215.0000000001857
 51
305.0000000001161
  0
LINE
  5
DC0F
330
A
100
AcDbEntity
  8
0
100
AcDbLine
 10
478.6172209865875
 20
7.464235005107511
 30
0.0
 11
478.3917487707935
 21
7.786242700669717
 31
0.0
  0
ARC
  5
DC10
330
A
100
AcDbEntity
  8
0
100
AcDbCircle
 10
479.1383210684693
 20
6.996843622364722
 30
0.0
 40
0.7000000000000407
100
AcDbArc
 50
138.1100510348224
 51
279.3625141373649
  0
ARC
  5
DC11
330
A
100
AcDbEntity
  8
0
100
AcDbCircle
 10
478.4387950870627
 20
11.23956249136096
 30
0.0
 40
5.000000000000114
100
AcDbArc
 50
279.3625141373404
 51
0.0
  0
LINE
  5
DC12
330
A
100
AcDbEntity
  8
0
100
AcDbLine
 10
484.3887950870625
 20
11.23956249136096
 30
0.0
 11
483.4387950870627
 21
11.23956249136096
 31
0.0
  0
ARC
  5
DC13
330
A
100
AcDbEntity
  8
0
100
AcDbCircle
 10
484.3887950870625
 20
11.48956249136096
 30
0.0
 40
0.2500000000000074
100
AcDbArc
 50
270.0
 51
39.99999999988156
  0
LINE
  5
DC14
330
A
100
AcDbEntity
  8
0
100
AcDbLine
 10
483.7202086550454
 20
12.67528373039237
 30
0.0
 11
484.5803061978426
 21
11.65025939378243
 31
0.0
  0
ARC
  5
DC15
330
A
100
AcDbEntity
  8
0
100
AcDbCircle
 10
483.7968130993576
 20
12.73956249136096
 30
0.0
 40
0.0999999999999957
100
AcDbArc
 50
140.0000000002039
 51
219.9999999997961
  0
LINE
  5
DC16
330
A
100
AcDbEntity
  8
0
100
AcDbLine
 10
484.5803061978426
 20
13.82886558893857
 30
0.0
 11
483.7202086550454
 21
12.80384125232955
 31
0.0
  0
ARC
  5
DC17
330
A
100
AcDbEntity
  8
0
100
AcDbCircle
 10
484.3887950870625
 20
13.98956249136096
 30
0.0
 40
0.2500000000000568
100
AcDbArc
 50
319.9999999997822
 51
90.0
  0
LINE
  5
DC18
330
A
100
AcDbEntity
  8
0
100
AcDbLine
 10
483.4387950870627
 20
14.23956249136096
 30
0.0
 11
484.3887950870625
 21
14.23956249136096
 31
0.0
  0
LINE
  5
DC19
330
A
100
AcDbEntity
  8
0
100
AcDbLine
 10
483.4387950870627
 20
17.43091110565398
 30
0.0
 11
483.4387950870627
 21
14.23956249136096
 31
0.0
  0
ARC
  5
DC1A
330
A
100
AcDbEntity
  8
0
100
AcDbCircle
 10
483.1887950870627
 20
17.43091110565398
 30
0.0
 40
0.2500000000000883
100
AcDbArc
 50
0.0
 51
64.798876354492
  0
LINE
  5
DC1B
330
A
100
AcDbEntity
  8
0
100
AcDbLine
 10
478.5091128445432
 20
19.90941295842855
 30
0.0
 11
483.2952443461453
 21
17.65711578120441
 31
0.0
  0
ARC
  5
DC1C
330
A
100
AcDbEntity
  8
0
100
AcDbCircle
 10
478.3387940300116
 20
19.54748547754785
 30
0.0
 40
0.4000000000000595
100
AcDbArc
 50
64.79887635458735
 51
224.9999999999248
  0
LINE
  5
DC1D
330
A
100
AcDbEntity
  8
0
100
AcDbLine
 10
479.7672222118089
 20
17.55337187080146
 30
0.0
 11
478.0559513175371
 21
19.26464276507373
 31
0.0
  0
ARC
  5
DC1E
330
A
100
AcDbEntity
  8
0
100
AcDbCircle
 10
476.9387950870627
 20
14.72494474605479
 30
0.0
 40
4.0
100
AcDbArc
 50
0.0
 51
45.00000000000878
  0
LINE
  5
DC1F
330
A
100
AcDbEntity
  8
0
100
AcDbLine
 10
480.9387950870627
 20
11.06038428243788
 30
0.0
 11
480.9387950870627
 21
14.72494474605479
 31
0.0
  0
ARC
  5
DC20
330
A
100
AcDbEntity
  8
0
100
AcDbCircle
 10
477.9387950870627
 20
11.06038428243788
 30
0.0
 40
3.000000000000024
100
AcDbArc
 50
314.9999999999968
 51
0.0
  0
LINE
  5
DC21
330
A
100
AcDbEntity
  8
0
100
AcDbLine
 10
446.1786619773687
 20
8.461897085384734
 30
0.0
 11
444.0004989487605
 21
9.115345993967239
 31
0.0
  0
LINE
  5
DC22
330
A
100
AcDbEntity
  8
0
100
AcDbLine
 10
444.0004989487605
 20
9.115345993967239
 30
0.0
 11
442.7004989487604
 21
9.115345993967239
 31
0.0
  0
ARC
  5
DC23
330
A
100
AcDbEntity
  8
0
100
AcDbCircle
 10
442.7004989487604
 20
9.315345993967057
 30
0.0
 40
0.2000000000001592
100
AcDbArc
 50
180.0
 51
270.0
  0
LINE
  5
DC24
330
A
100
AcDbEntity
  8
0
100
AcDbLine
 10
442.5004989487601
 20
9.315345993967057
 30
0.0
 11
442.5004989487601
 21
12.61534599396724
 31
0.0
  0
LINE
  5
DC25
330
A
100
AcDbEntity
  8
0
100
AcDbLine
 10
442.5004989487601
 20
12.61534599396724
 30
0.0
 11
441.2004989487604
 21
12.61534599396724
 31
0.0
  0
LINE
  5
DC26
330
A
100
AcDbEntity
  8
0
100
AcDbLine
 10
441.2004989487604
 20
12.61534599396724
 30
0.0
 11
441.2004989487604
 21
15.61534599396724
 31
0.0
  0
LINE
  5
DC27
330
A
100
AcDbEntity
  8
0
100
AcDbLine
 10
441.2004989487604
 20
15.61534599396724
 30
0.0
 11
442.5004989487601
 21
15.61534599396724
 31
0.0
  0
LINE
  5
DC28
330
A
100
AcDbEntity
  8
0
100
AcDbLine
 10
442.5004989487601
 20
15.61534599396724
 30
0.0
 11
442.5004989487601
 21
18.91534599396742
 31
0.0
  0
ARC
  5
DC29
330
A
100
AcDbEntity
  8
0
100
AcDbCircle
 10
442.7004989487604
 20
18.91534599396742
 30
0.0
 40
0.2000000000001592
100
AcDbArc
 50
90.0
 51
180.0
  0
LINE
  5
DC2A
330
A
100
AcDbEntity
  8
0
100
AcDbLine
 10
442.7004989487604
 20
19.11534599396724
 30
0.0
 11
444.0004989487605
 21
19.11534599396724
 31
0.0
  0
LINE
  5
DC2B
330
A
100
AcDbEntity
  8
0
100
AcDbLine
 10
444.0004989487605
 20
19.11534599396724
 30
0.0
 11
446.1786619773687
 21
19.76879490254974
 31
0.0
  0
ARC
  5
DC2C
330
A
100
AcDbEntity
  8
0
100
AcDbCircle
 10
446.2504989487601
 20
19.52933833124494
 30
0.0
 40
0.2500000000000205
100
AcDbArc
 50
303.9464806808329
 51
106.6992442339353
  0
LINE
  5
DC2D
330
A
100
AcDbEntity
  8
0
100
AcDbLine
 10
446.3901035150869
 20
19.32194844465208
 30
0.0
 11
444.3115000523102
 21
17.92273588055956
 31
0.0
  0
ARC
  5
DC2E
330
A
100
AcDbEntity
  8
0
100
AcDbCircle
 10
444.4511046186366
 20
17.7153459939676
 30
0.0
 40
0.2500000000000042
100
AcDbArc
 50
123.9464806809607
 51
180.0
  0
LINE
  5
DC2F
330
A
100
AcDbEntity
  8
0
100
AcDbLine
 10
444.2011046186366
 20
17.7153459939676
 30
0.0
 11
444.2011046186366
 21
17.11534599396724
 31
0.0
  0
ARC
  5
DC30
330
A
100
AcDbEntity
  8
0
100
AcDbCircle
 10
444.4511046186366
 20
17.11534599396724
 30
0.0
 40
0.25
100
AcDbArc
 50
180.0
 51
245.6940138933196
  0
LINE
  5
DC31
330
A
100
AcDbEntity
  8
0
100
AcDbLine
 10
444.3482022243151
 20
16.88750592452594
 30
0.0
 11
445.5534013430819
 21
16.34318606340854
 31
0.0
  0
ARC
  5
DC32
330
A
100
AcDbEntity
  8
0
100
AcDbCircle
 10
445.4504989487604
 20
16.11534599396724
 30
0.0
 40
0.2499999999999756
100
AcDbArc
 50
294.3059861066831
 51
65.69401389331694
  0
LINE
  5
DC33
330
A
100
AcDbEntity
  8
0
100
AcDbLine
 10
445.5534013430819
 20
15.88750592452594
 30
0.0
 11
444.3482022243151
 21
15.34318606340854
 31
0.0
  0
ARC
  5
DC34
330
A
100
AcDbEntity
  8
0
100
AcDbCircle
 10
444.4511046186366
 20
15.11534599396724
 30
0.0
 40
0.2499999999999806
100
AcDbArc
 50
114.3059861065681
 51
245.6940138933174
  0
LINE
  5
DC35
330
A
100
AcDbEntity
  8
0
100
AcDbLine
 10
444.3482022243151
 20
14.88750592452594
 30
0.0
 11
445.5534013430819
 21
14.34318606340854
 31
0.0
  0
ARC
  5
DC36
330
A
100
AcDbEntity
  8
0
100
AcDbCircle
 10
445.4504989487604
 20
14.11534599396724
 30
0.0
 40
0.2499999999999756
100
AcDbArc
 50
294.3059861066831
 51
65.69401389331694
  0
LINE
  5
DC37
330
A
100
AcDbEntity
  8
0
100
AcDbLine
 10
445.5534013430819
 20
13.88750592452594
 30
0.0
 11
444.3482022243151
 21
13.34318606340854
 31
0.0
  0
ARC
  5
DC38
330
A
100
AcDbEntity
  8
0
100
AcDbCircle
 10
444.4511046186366
 20
13.11534599396724
 30
0.0
 40
0.2499999999999806
100
AcDbArc
 50
114.3059861065681
 51
245.6940138933174
  0
LINE
  5
DC39
330
A
100
AcDbEntity
  8
0
100
AcDbLine
 10
444.3482022243151
 20
12.88750592452594
 30
0.0
 11
445.5534013430819
 21
12.34318606340854
 31
0.0
  0
ARC
  5
DC3A
330
A
100
AcDbEntity
  8
0
100
AcDbCircle
 10
445.4504989487604
 20
12.11534599396724
 30
0.0
 40
0.2499999999999756
100
AcDbArc
 50
294.3059861066831
 51
65.69401389331694
  0
LINE
  5
DC3B
330
A
100
AcDbEntity
  8
0
100
AcDbLine
 10
445.5534013430819
 20
11.88750592452594
 30
0.0
 11
444.3482022243151
 21
11.34318606340854
 31
0.0
  0
ARC
  5
DC3C
330
A
100
AcDbEntity
  8
0
100
AcDbCircle
 10
444.4511046186366
 20
11.11534599396724
 30
0.0
 40
0.25
100
AcDbArc
 50
114.3059861065661
 51
180.0
  0
LINE
  5
DC3D
330
A
100
AcDbEntity
  8
0
100
AcDbLine
 10
444.2011046186366
 20
11.11534599396724
 30
0.0
 11
444.2011046186366
 21
10.51534599396687
 31
0.0
  0
ARC
  5
DC3E
330
A
100
AcDbEntity
  8
0
100
AcDbCircle
 10
444.4511046186366
 20
10.51534599396687
 30
0.0
 40
0.2500000000000042
100
AcDbArc
 50
180.0
 51
236.0535193190391
  0
LINE
  5
DC3F
330
A
100
AcDbEntity
  8
0
100
AcDbLine
 10
444.3115000523102
 20
10.30795610737492
 30
0.0
 11
446.3901035150869
 21
8.908743543282398
 31
0.0
  0
ARC
  5
DC40
330
A
100
AcDbEntity
  8
0
100
AcDbCircle
 10
446.2504989487601
 20
8.701353656690443
 30
0.0
 40
0.2500000000000677
100
AcDbArc
 50
253.3007557660679
 51
56.05351931904883
  0
ARC
  5
DC41
330
A
100
AcDbEntity
  8
0
100
AcDbCircle
 10
441.0004989487605
 20
17.16534599396742
 30
0.0
 40
0.2000000000000455
100
AcDbArc
 50
0.0
 51
90.0
  0
LINE
  5
DC42
330
A
100
AcDbEntity
  8
0
100
AcDbLine
 10
441.0004989487605
 20
17.36534599396724
 30
0.0
 11
440.4004989487602
 21
17.36534599396724
 31
0.0
  0
ARC
  5
DC43
330
A
100
AcDbEntity
  8
0
100
AcDbCircle
 10
440.4004989487602
 20
17.16534599396742
 30
0.0
 40
0.1999999999999886
100
AcDbArc
 50
90.0
 51
180.0
  0
LINE
  5
DC44
330
A
100
AcDbEntity
  8
0
100
AcDbLine
 10
440.2004989487604
 20
17.16534599396742
 30
0.0
 11
440.2004989487604
 21
11.06534599396706
 31
0.0
  0
ARC
  5
DC45
330
A
100
AcDbEntity
  8
0
100
AcDbCircle
 10
440.4004989487602
 20
11.06534599396706
 30
0.0
 40
0.1999999999999886
100
AcDbArc
 50
180.0
 51
270.0
  0
LINE
  5
DC46
330
A
100
AcDbEntity
  8
0
100
AcDbLine
 10
440.4004989487602
 20
10.86534599396724
 30
0.0
 11
441.0004989487605
 21
10.86534599396724
 31
0.0
  0
ARC
  5
DC47
330
A
100
AcDbEntity
  8
0
100
AcDbCircle
 10
441.0004989487605
 20
11.06534599396706
 30
0.0
 40
0.1999999999999318
100
AcDbArc
 50
270.0
 51
0.0
  0
LINE
  5
DC48
330
A
100
AcDbEntity
  8
0
100
AcDbLine
 10
441.2004989487604
 20
11.06534599396706
 30
0.0
 11
441.2004989487604
 21
17.16534599396742
 31
0.0
  0
LINE
  5
DCC8
330
A
100
AcDbEntity
  8
0
100
AcDbLine
 10
249.6325550640894
 20
-9.012928351511164
 30
0.0
 11
249.6325550640894
 21
-133.6948765665637
 31
0.0
  0
LINE
  5
DCC9
330
A
100
AcDbEntity
  8
0
100
AcDbLine
 10
245.2688381192787
 20
-9.012928351511164
 30
0.0
 11
245.2688381192787
 21
-133.6948765665637
 31
0.0
  0
LINE
  5
DCCA
330
A
100
AcDbEntity
  8
0
100
AcDbLine
 10
258.1325561211405
 20
-133.6948765665637
 30
0.0
 11
258.1325561211405
 21
-9.012928351511164
 31
0.0
  0
LINE
  5
DCCB
330
A
100
AcDbEntity
  8
0
100
AcDbLine
 10
216.8064211986283
 20
-133.6948765665637
 30
0.0
 11
216.8064211986283
 21
-9.012928351511164
 31
0.0
  0
LINE
  5
DCCC
330
A
100
AcDbEntity
  8
0
100
AcDbLine
 10
250.2028738786215
 20
-9.012928351511164
 30
0.0
 11
250.2028738786215
 21
-133.6948765665637
 31
0.0
  0
LINE
  5
DCCD
330
A
100
AcDbEntity
  8
0
100
AcDbLine
 10
249.6325550640894
 20
-133.6948765665637
 30
0.0
 11
250.2028738786215
 21
-133.6948765665637
 31
0.0
  0
LINE
  5
DCCE
330
A
100
AcDbEntity
  8
0
100
AcDbLine
 10
249.6325550640894
 20
-9.012928351511164
 30
0.0
 11
250.2028738786215
 21
-9.012928351511164
 31
0.0
  0
LINE
  5
DCCF
330
A
100
AcDbEntity
  8
0
100
AcDbLine
 10
256.7890053802229
 20
-9.012928351511164
 30
0.0
 11
256.7890053802229
 21
-133.6948765665637
 31
0.0
  0
LINE
  5
DCD0
330
A
100
AcDbEntity
  8
0
100
AcDbLine
 10
250.2028738786215
 20
-133.6948765665637
 30
0.0
 11
256.7890053802229
 21
-133.6948765665637
 31
0.0
  0
LINE
  5
DCD1
330
A
100
AcDbEntity
  8
0
100
AcDbLine
 10
250.2028738786215
 20
-9.012928351511164
 30
0.0
 11
256.7890053802229
 21
-9.012928351511164
 31
0.0
  0
LINE
  5
DCD2
330
A
100
AcDbEntity
  8
0
100
AcDbLine
 10
256.9325561211407
 20
-9.012928351511164
 30
0.0
 11
256.9325561211407
 21
-133.6948765665637
 31
0.0
  0
LINE
  5
DCD3
330
A
100
AcDbEntity
  8
0
100
AcDbLine
 10
256.7890053802229
 20
-133.6948765665637
 30
0.0
 11
256.9325561211407
 21
-133.6948765665637
 31
0.0
  0
LINE
  5
DCD4
330
A
100
AcDbEntity
  8
0
100
AcDbLine
 10
256.7890053802229
 20
-9.012928351511164
 30
0.0
 11
256.9325561211407
 21
-9.012928351511164
 31
0.0
  0
LINE
  5
DCD5
330
A
100
AcDbEntity
  8
0
100
AcDbLine
 10
245.2688381192787
 20
-133.6948765665637
 30
0.0
 11
246.0874565392086
 21
-133.6948765665637
 31
0.0
  0
LINE
  5
DCD6
330
A
100
AcDbEntity
  8
0
100
AcDbLine
 10
245.2688381192787
 20
-9.012928351511164
 30
0.0
 11
246.0874565392086
 21
-9.012928351511164
 31
0.0
  0
LINE
  5
DCD7
330
A
100
AcDbEntity
  8
0
100
AcDbLine
 10
246.0874565392086
 20
-133.6948765665637
 30
0.0
 11
249.6325550640894
 21
-133.6948765665637
 31
0.0
  0
LINE
  5
DCD8
330
A
100
AcDbEntity
  8
0
100
AcDbLine
 10
246.0874565392086
 20
-9.012928351511164
 30
0.0
 11
249.6325550640894
 21
-9.012928351511164
 31
0.0
  0
LINE
  5
DCD9
330
A
100
AcDbEntity
  8
0
100
AcDbLine
 10
256.9325561211407
 20
-133.6948765665637
 30
0.0
 11
257.8825561211405
 21
-133.6948765665637
 31
0.0
  0
LINE
  5
DCDA
330
A
100
AcDbEntity
  8
0
100
AcDbLine
 10
256.9325561211407
 20
-9.012928351511164
 30
0.0
 11
257.8825561211405
 21
-9.012928351511164
 31
0.0
  0
LINE
  5
DCDB
330
A
100
AcDbEntity
  8
0
100
AcDbLine
 10
257.8825561211405
 20
-133.6948765665637
 30
0.0
 11
258.1325561211405
 21
-133.6948765665637
 31
0.0
  0
LINE
  5
DCDC
330
A
100
AcDbEntity
  8
0
100
AcDbLine
 10
257.8825561211405
 20
-9.012928351511164
 30
0.0
 11
258.1325561211405
 21
-9.012928351511164
 31
0.0
  0
LINE
  5
DCDD
330
A
100
AcDbEntity
  8
0
100
AcDbLine
 10
216.4845842272365
 20
-133.6948765665637
 30
0.0
 11
216.8064211986283
 21
-133.6948765665637
 31
0.0
  0
LINE
  5
DCDE
330
A
100
AcDbEntity
  8
0
100
AcDbLine
 10
216.4845842272365
 20
-9.012928351511164
 30
0.0
 11
216.8064211986283
 21
-9.012928351511164
 31
0.0
  0
LINE
  5
DCDF
330
A
100
AcDbEntity
  8
0
100
AcDbLine
 10
214.3064211986283
 20
-9.012928351511164
 30
0.0
 11
214.3064211986283
 21
-133.6948765665637
 31
0.0
  0
LINE
  5
DCE0
330
A
100
AcDbEntity
  8
0
100
AcDbLine
 10
216.4845842272365
 20
-133.6948765665637
 30
0.0
 11
214.3064211986283
 21
-133.6948765665637
 31
0.0
  0
LINE
  5
DCE1
330
A
100
AcDbEntity
  8
0
100
AcDbLine
 10
216.4845842272365
 20
-9.012928351511164
 30
0.0
 11
214.3064211986283
 21
-9.012928351511164
 31
0.0
  0
LINE
  5
DCE2
330
A
100
AcDbEntity
  8
0
100
AcDbLine
 10
214.3064211986283
 20
-133.6948765665637
 30
0.0
 11
211.0064211986281
 21
-133.6948765665637
 31
0.0
  0
LINE
  5
DCE3
330
A
100
AcDbEntity
  8
0
100
AcDbLine
 10
214.3064211986283
 20
-9.012928351511164
 30
0.0
 11
211.0064211986281
 21
-9.012928351511164
 31
0.0
  0
LINE
  5
DCE4
330
A
100
AcDbEntity
  8
0
100
AcDbLine
 10
210.8064211986283
 20
-9.012928351511164
 30
0.0
 11
210.8064211986283
 21
-133.6948765665637
 31
0.0
  0
LINE
  5
DCE5
330
A
100
AcDbEntity
  8
0
100
AcDbLine
 10
210.8064211986283
 20
-133.6948765665637
 30
0.0
 11
211.0064211986281
 21
-133.6948765665637
 31
0.0
  0
LINE
  5
DCE6
330
A
100
AcDbEntity
  8
0
100
AcDbLine
 10
210.8064211986283
 20
-9.012928351511164
 30
0.0
 11
211.0064211986281
 21
-9.012928351511164
 31
0.0
  0
LINE
  5
DCE7
330
A
100
AcDbEntity
  8
0
100
AcDbLine
 10
210.8064211986283
 20
-133.6948765665637
 30
0.0
 11
209.5064211986281
 21
-133.6948765665637
 31
0.0
  0
LINE
  5
DCE8
330
A
100
AcDbEntity
  8
0
100
AcDbLine
 10
210.8064211986283
 20
-9.012928351511164
 30
0.0
 11
209.5064211986281
 21
-9.012928351511164
 31
0.0
  0
LINE
  5
DCE9
330
A
100
AcDbEntity
  8
0
100
AcDbLine
 10
208.7064211986284
 20
-133.6948765665637
 30
0.0
 11
209.3064211986283
 21
-133.6948765665637
 31
0.0
  0
LINE
  5
DCEA
330
A
100
AcDbEntity
  8
0
100
AcDbLine
 10
208.7064211986284
 20
-9.012928351511164
 30
0.0
 11
209.3064211986283
 21
-9.012928351511164
 31
0.0
  0
LINE
  5
DCEB
330
A
100
AcDbEntity
  8
0
100
AcDbLine
 10
209.5064211986281
 20
-9.012928351511164
 30
0.0
 11
209.5064211986281
 21
-133.6948765665637
 31
0.0
  0
LINE
  5
DCEC
330
A
100
AcDbEntity
  8
0
100
AcDbLine
 10
209.3064211986283
 20
-133.6948765665637
 30
0.0
 11
209.5064211986281
 21
-133.6948765665637
 31
0.0
  0
LINE
  5
DCED
330
A
100
AcDbEntity
  8
0
100
AcDbLine
 10
209.3064211986283
 20
-9.012928351511164
 30
0.0
 11
209.5064211986281
 21
-9.012928351511164
 31
0.0
  0
LINE
  5
DCEE
330
A
100
AcDbEntity
  8
0
100
AcDbLine
 10
208.5064211986281
 20
-9.012928351511164
 30
0.0
 11
208.5064211986281
 21
-133.6948765665637
 31
0.0
  0
LINE
  5
DCEF
330
A
100
AcDbEntity
  8
0
100
AcDbLine
 10
208.5064211986281
 20
-133.6948765665637
 30
0.0
 11
208.7064211986284
 21
-133.6948765665637
 31
0.0
  0
LINE
  5
DCF0
330
A
100
AcDbEntity
  8
0
100
AcDbLine
 10
208.5064211986281
 20
-9.012928351511164
 30
0.0
 11
208.7064211986284
 21
-9.012928351511164
 31
0.0
  0
LINE
  5
DCF1
330
A
100
AcDbEntity
  8
0
  6
Continuous
 62
     8
370
     0
100
AcDbLine
 10
246.0874565392086
 20
-9.012928351511164
 30
0.0
 11
246.0874565392086
 21
-133.6948765665637
 31
0.0
  0
LINE
  5
DCF2
330
A
100
AcDbEntity
  8
0
  6
Continuous
 62
     8
370
     0
100
AcDbLine
 10
257.8825561211405
 20
-9.012928351511164
 30
0.0
 11
257.8825561211405
 21
-133.6948765665637
 31
0.0
  0
LINE
  5
DCF3
330
A
100
AcDbEntity
  8
0
  6
Continuous
 62
     8
370
     0
100
AcDbLine
 10
216.4845842272365
 20
-9.012928351511164
 30
0.0
 11
216.4845842272365
 21
-133.6948765665637
 31
0.0
  0
LINE
  5
DCF4
330
A
100
AcDbEntity
  8
0
  6
Continuous
 62
     8
370
     0
100
AcDbLine
 10
211.0064211986281
 20
-9.012928351511164
 30
0.0
 11
211.0064211986281
 21
-133.6948765665637
 31
0.0
  0
LINE
  5
DCF5
330
A
100
AcDbEntity
  8
0
  6
Continuous
 62
     8
370
     0
100
AcDbLine
 10
208.7064211986284
 20
-9.012928351511164
 30
0.0
 11
208.7064211986284
 21
-133.6948765665637
 31
0.0
  0
LINE
  5
DCF6
330
A
100
AcDbEntity
  8
0
  6
Continuous
 62
     8
370
     0
100
AcDbLine
 10
209.3064211986283
 20
-9.012928351511164
 30
0.0
 11
209.3064211986283
 21
-133.6948765665637
 31
0.0
  0
LINE
  5
DCF7
330
A
100
AcDbEntity
  8
0
100
AcDbLine
 10
477.9387940300115
 20
-9.012928351511164
 30
0.0
 11
477.9387940300115
 21
-133.6948765665637
 31
0.0
  0
LINE
  5
DCF8
330
A
100
AcDbEntity
  8
0
100
AcDbLine
 10
473.7750770852007
 20
-9.012928351511164
 30
0.0
 11
473.7750770852007
 21
-133.6948765665637
 31
0.0
  0
LINE
  5
DCF9
330
A
100
AcDbEntity
  8
0
100
AcDbLine
 10
484.6387950870625
 20
-133.6948765665637
 30
0.0
 11
484.6387950870625
 21
-9.012928351511164
 31
0.0
  0
LINE
  5
DCFA
330
A
100
AcDbEntity
  8
0
100
AcDbLine
 10
446.5004989487601
 20
-133.6948765665637
 30
0.0
 11
446.5004989487601
 21
-9.012928351511164
 31
0.0
  0
LINE
  5
DCFB
330
A
100
AcDbEntity
  8
0
100
AcDbLine
 10
477.9387940300115
 20
-133.6948765665637
 30
0.0
 11
478.5091128445432
 21
-133.6948765665637
 31
0.0
  0
LINE
  5
DCFC
330
A
100
AcDbEntity
  8
0
100
AcDbLine
 10
477.9387940300115
 20
-9.012928351511164
 30
0.0
 11
478.5091128445432
 21
-9.012928351511164
 31
0.0
  0
LINE
  5
DCFD
330
A
100
AcDbEntity
  8
0
100
AcDbLine
 10
478.5091128445432
 20
-133.6948765665637
 30
0.0
 11
483.2952443461453
 21
-133.6948765665637
 31
0.0
  0
LINE
  5
DCFE
330
A
100
AcDbEntity
  8
0
100
AcDbLine
 10
478.5091128445432
 20
-9.012928351511164
 30
0.0
 11
483.2952443461453
 21
-9.012928351511164
 31
0.0
  0
LINE
  5
DCFF
330
A
100
AcDbEntity
  8
0
100
AcDbLine
 10
483.4387950870627
 20
-9.012928351511164
 30
0.0
 11
483.4387950870627
 21
-133.6948765665637
 31
0.0
  0
LINE
  5
DD00
330
A
100
AcDbEntity
  8
0
100
AcDbLine
 10
483.2952443461453
 20
-133.6948765665637
 30
0.0
 11
483.4387950870627
 21
-133.6948765665637
 31
0.0
  0
LINE
  5
DD01
330
A
100
AcDbEntity
  8
0
100
AcDbLine
 10
483.2952443461453
 20
-9.012928351511164
 30
0.0
 11
483.4387950870627
 21
-9.012928351511164
 31
0.0
  0
LINE
  5
DD02
330
A
100
AcDbEntity
  8
0
100
AcDbLine
 10
473.7750770852007
 20
-133.6948765665637
 30
0.0
 11
474.5936955051305
 21
-133.6948765665637
 31
0.0
  0
LINE
  5
DD03
330
A
100
AcDbEntity
  8
0
100
AcDbLine
 10
473.7750770852007
 20
-9.012928351511164
 30
0.0
 11
474.5936955051305
 21
-9.012928351511164
 31
0.0
  0
LINE
  5
DD04
330
A
100
AcDbEntity
  8
0
100
AcDbLine
 10
474.5936955051305
 20
-133.6948765665637
 30
0.0
 11
477.9387940300115
 21
-133.6948765665637
 31
0.0
  0
LINE
  5
DD05
330
A
100
AcDbEntity
  8
0
100
AcDbLine
 10
474.5936955051305
 20
-9.012928351511164
 30
0.0
 11
477.9387940300115
 21
-9.012928351511164
 31
0.0
  0
LINE
  5
DD06
330
A
100
AcDbEntity
  8
0
100
AcDbLine
 10
483.4387950870627
 20
-133.6948765665637
 30
0.0
 11
484.3887950870625
 21
-133.6948765665637
 31
0.0
  0
LINE
  5
DD07
330
A
100
AcDbEntity
  8
0
100
AcDbLine
 10
483.4387950870627
 20
-9.012928351511164
 30
0.0
 11
484.3887950870625
 21
-9.012928351511164
 31
0.0
  0
LINE
  5
DD08
330
A
100
AcDbEntity
  8
0
100
AcDbLine
 10
484.3887950870625
 20
-133.6948765665637
 30
0.0
 11
484.6387950870625
 21
-133.6948765665637
 31
0.0
  0
LINE
  5
DD09
330
A
100
AcDbEntity
  8
0
100
AcDbLine
 10
484.3887950870625
 20
-9.012928351511164
 30
0.0
 11
484.6387950870625
 21
-9.012928351511164
 31
0.0
  0
LINE
  5
DD0A
330
A
100
AcDbEntity
  8
0
100
AcDbLine
 10
446.1786619773687
 20
-133.6948765665637
 30
0.0
 11
446.5004989487601
 21
-133.6948765665637
 31
0.0
  0
LINE
  5
DD0B
330
A
100
AcDbEntity
  8
0
100
AcDbLine
 10
446.1786619773687
 20
-9.012928351511164
 30
0.0
 11
446.5004989487601
 21
-9.012928351511164
 31
0.0
  0
LINE
  5
DD0C
330
A
100
AcDbEntity
  8
0
100
AcDbLine
 10
444.0004989487605
 20
-9.012928351511164
 30
0.0
 11
444.0004989487605
 21
-133.6948765665637
 31
0.0
  0
LINE
  5
DD0D
330
A
100
AcDbEntity
  8
0
100
AcDbLine
 10
444.0004989487605
 20
-133.6948765665637
 30
0.0
 11
446.1786619773687
 21
-133.6948765665637
 31
0.0
  0
LINE
  5
DD0E
330
A
100
AcDbEntity
  8
0
100
AcDbLine
 10
444.0004989487605
 20
-9.012928351511164
 30
0.0
 11
446.1786619773687
 21
-9.012928351511164
 31
0.0
  0
LINE
  5
DD0F
330
A
100
AcDbEntity
  8
0
100
AcDbLine
 10
442.5004989487601
 20
-9.012928351511164
 30
0.0
 11
442.5004989487601
 21
-133.6948765665637
 31
0.0
  0
LINE
  5
DD10
330
A
100
AcDbEntity
  8
0
100
AcDbLine
 10
442.5004989487601
 20
-133.6948765665637
 30
0.0
 11
442.7004989487604
 21
-133.6948765665637
 31
0.0
  0
LINE
  5
DD11
330
A
100
AcDbEntity
  8
0
100
AcDbLine
 10
442.5004989487601
 20
-9.012928351511164
 30
0.0
 11
442.7004989487604
 21
-9.012928351511164
 31
0.0
  0
LINE
  5
DD12
330
A
100
AcDbEntity
  8
0
100
AcDbLine
 10
442.7004989487604
 20
-133.6948765665637
 30
0.0
 11
444.0004989487605
 21
-133.6948765665637
 31
0.0
  0
LINE
  5
DD13
330
A
100
AcDbEntity
  8
0
100
AcDbLine
 10
442.7004989487604
 20
-9.012928351511164
 30
0.0
 11
444.0004989487605
 21
-9.012928351511164
 31
0.0
  0
LINE
  5
DD14
330
A
100
AcDbEntity
  8
0
100
AcDbLine
 10
441.2004989487604
 20
-133.6948765665637
 30
0.0
 11
442.5004989487601
 21
-133.6948765665637
 31
0.0
  0
LINE
  5
DD15
330
A
100
AcDbEntity
  8
0
100
AcDbLine
 10
441.2004989487604
 20
-9.012928351511164
 30
0.0
 11
442.5004989487601
 21
-9.012928351511164
 31
0.0
  0
LINE
  5
DD16
330
A
100
AcDbEntity
  8
0
100
AcDbLine
 10
441.0004989487605
 20
-133.6948765665637
 30
0.0
 11
440.4004989487602
 21
-133.6948765665637
 31
0.0
  0
LINE
  5
DD17
330
A
100
AcDbEntity
  8
0
100
AcDbLine
 10
441.0004989487605
 20
-9.012928351511164
 30
0.0
 11
440.4004989487602
 21
-9.012928351511164
 31
0.0
  0
LINE
  5
DD18
330
A
100
AcDbEntity
  8
0
100
AcDbLine
 10
441.2004989487604
 20
-9.012928351511164
 30
0.0
 11
441.2004989487604
 21
-133.6948765665637
 31
0.0
  0
LINE
  5
DD19
330
A
100
AcDbEntity
  8
0
100
AcDbLine
 10
441.0004989487605
 20
-133.6948765665637
 30
0.0
 11
441.2004989487604
 21
-133.6948765665637
 31
0.0
  0
LINE
  5
DD1A
330
A
100
AcDbEntity
  8
0
100
AcDbLine
 10
441.0004989487605
 20
-9.012928351511164
 30
0.0
 11
441.2004989487604
 21
-9.012928351511164
 31
0.0
  0
LINE
  5
DD1B
330
A
100
AcDbEntity
  8
0
100
AcDbLine
 10
440.2004989487604
 20
-9.012928351511164
 30
0.0
 11
440.2004989487604
 21
-133.6948765665637
 31
0.0
  0
LINE
  5
DD1C
330
A
100
AcDbEntity
  8
0
100
AcDbLine
 10
440.2004989487604
 20
-133.6948765665637
 30
0.0
 11
440.4004989487602
 21
-133.6948765665637
 31
0.0
  0
LINE
  5
DD1D
330
A
100
AcDbEntity
  8
0
100
AcDbLine
 10
440.2004989487604
 20
-9.012928351511164
 30
0.0
 11
440.4004989487602
 21
-9.012928351511164
 31
0.0
  0
LINE
  5
DD1E
330
A
100
AcDbEntity
  8
0
  6
Continuous
 62
     8
370
     0
100
AcDbLine
 10
478.5091128445432
 20
-9.012928351511164
 30
0.0
 11
478.5091128445432
 21
-133.6948765665637
 31
0.0
  0
LINE
  5
DD1F
330
A
100
AcDbEntity
  8
0
  6
Continuous
 62
     8
370
     0
100
AcDbLine
 10
483.2952443461453
 20
-9.012928351511164
 30
0.0
 11
483.2952443461453
 21
-133.6948765665637
 31
0.0
  0
LINE
  5
DD20
330
A
100
AcDbEntity
  8
0
  6
Continuous
 62
     8
370
     0
100
AcDbLine
 10
474.5936955051305
 20
-9.012928351511164
 30
0.0
 11
474.5936955051305
 21
-133.6948765665637
 31
0.0
  0
LINE
  5
DD21
330
A
100
AcDbEntity
  8
0
  6
Continuous
 62
     8
370
     0
100
AcDbLine
 10
484.3887950870625
 20
-9.012928351511164
 30
0.0
 11
484.3887950870625
 21
-133.6948765665637
 31
0.0
  0
LINE
  5
DD22
330
A
100
AcDbEntity
  8
0
  6
Continuous
 62
     8
370
     0
100
AcDbLine
 10
446.1786619773687
 20
-9.012928351511164
 30
0.0
 11
446.1786619773687
 21
-133.6948765665637
 31
0.0
  0
LINE
  5
DD23
330
A
100
AcDbEntity
  8
0
  6
Continuous
 62
     8
370
     0
100
AcDbLine
 10
442.7004989487604
 20
-9.012928351511164
 30
0.0
 11
442.7004989487604
 21
-133.6948765665637
 31
0.0
  0
LINE
  5
DD24
330
A
100
AcDbEntity
  8
0
  6
Continuous
 62
     8
370
     0
100
AcDbLine
 10
440.4004989487602
 20
-9.012928351511164
 30
0.0
 11
440.4004989487602
 21
-133.6948765665637
 31
0.0
  0
LINE
  5
DD25
330
A
100
AcDbEntity
  8
0
  6
Continuous
 62
     8
370
     0
100
AcDbLine
 10
441.0004989487605
 20
-9.012928351511164
 30
0.0
 11
441.0004989487605
 21
-133.6948765665637
 31
0.0
  0
LWPOLYLINE
  5
DD2C
330
A
100
AcDbEntity
  8
0
  6
Continuous
370
     0
100
AcDbPolyline
 90
        4
 70
     1
 43
0.0
 10
422.4524487361416
 20
61.58091282650281
 10
422.4524487361416
 20
-149.0525946164497
 10
644.3497801065246
 20
-149.0525946164497
 10
644.3497801065246
 20
61.58091282650281
  0
TEXT
  5
DD70
330
A
100
AcDbEntity
  8
0
  6
Continuous
 62
     7
370
     0
100
AcDbText
 10
312.5061995162933
 20
49.12577783212321
 30
0.0
 40
10.0
  1
P20EJ0810/6
100
AcDbText
  0
TEXT
  5
DD72
330
A
100
AcDbEntity
  8
0
  6
Continuous
 62
     7
370
     0
100
AcDbText
 10
539.4035308866763
 20
49.12577783212321
 30
0.0
 40
10.0
  1
P20EJ1113/6
100
AcDbText
  0
TEXT
  5
E234
330
A
100
AcDbEntity
  8
0
  6
Continuous
 62
     7
370
     0
100
AcDbText
 10
55.63153960724276
 20
-208.2989799703909
 30
0.0
 40
10.0
  1
P25EP60
100
AcDbText
  0
ARC
  5
E236
330
A
100
AcDbEntity
  8
0
  6
Continuous
 62
     7
370
    25
100
AcDbCircle
 10
63.60591229186247
 20
-240.2261225861435
 30
0.0
 40
0.5
100
AcDbArc
 50
90.0
 51
180.0
  0
ARC
  5
E237
330
A
100
AcDbEntity
  8
0
  6
Continuous
 62
     7
370
    25
100
AcDbCircle
 10
100.6059122918625
 20
-240.2261225861435
 30
0.0
 40
0.5
100
AcDbArc
 50
0.0
 51
90.0
  0
LINE
  5
E238
330
A
100
AcDbEntity
  8
0
  6
Continuous
 62
     7
370
    25
100
AcDbLine
 10
100.1059122918625
 20
-274.7261225861435
 30
0.0
 11
101.1059122918625
 21
-273.7261225861435
 31
0.0
  0
LINE
  5
E239
330
A
100
AcDbEntity
  8
0
  6
Continuous
 62
     7
370
    25
100
AcDbLine
 10
63.10591229186247
 20
-273.7261225861435
 30
0.0
 11
64.10591229186247
 21
-274.7261225861435
 31
0.0
  0
LINE
  5
E23A
330
A
100
AcDbEntity
  8
0
  6
Continuous
 62
     7
370
    25
100
AcDbLine
 10
64.10591229186247
 20
-274.7261225861435
 30
0.0
 11
100.1059122918625
 21
-274.7261225861435
 31
0.0
  0
LINE
  5
E23B
330
A
100
AcDbEntity
  8
0
  6
Continuous
 62
     7
370
    25
100
AcDbLine
 10
63.10591229186247
 20
-240.2261225861435
 30
0.0
 11
63.10591229186247
 21
-273.7261225861435
 31
0.0
  0
LINE
  5
E23C
330
A
100
AcDbEntity
  8
0
  6
Continuous
 62
     7
370
    25
100
AcDbLine
 10
100.6059122918625
 20
-239.7261225861435
 30
0.0
 11
63.60591229186247
 21
-239.7261225861435
 31
0.0
  0
LINE
  5
E23D
330
A
100
AcDbEntity
  8
0
  6
Continuous
 62
     7
370
    25
100
AcDbLine
 10
101.1059122918625
 20
-273.7261225861435
 30
0.0
 11
101.1059122918625
 21
-240.2261225861435
 31
0.0
  0
LINE
  5
E23E
330
A
100
AcDbEntity
  8
0
  6
Continuous
 62
     7
370
    25
100
AcDbLine
 10
100.1059122918625
 20
-228.7930875666883
 30
0.0
 11
100.1059122918625
 21
-228.2930875666883
 31
0.0
  0
LINE
  5
E23F
330
A
100
AcDbEntity
  8
0
  6
Continuous
 62
     7
370
    25
100
AcDbLine
 10
64.10591229186247
 20
-228.2930875666883
 30
0.0
 11
64.10591229186247
 21
-228.7930875666883
 31
0.0
  0
LINE
  5
E240
330
A
100
AcDbEntity
  8
0
  6
Continuous
 62
     7
370
    25
100
AcDbLine
 10
64.10591229186247
 20
-228.2930875666883
 30
0.0
 11
100.1059122918625
 21
-228.2930875666883
 31
0.0
  0
LINE
  5
E241
330
A
100
AcDbEntity
  8
0
  6
Continuous
 62
     7
370
    25
100
AcDbLine
 10
64.10591229186247
 20
-228.7930875666883
 30
0.0
 11
100.1059122918625
 21
-228.7930875666883
 31
0.0
  0
LINE
  5
E242
330
A
100
AcDbEntity
  8
0
  6
Continuous
 62
     7
370
    25
100
AcDbLine
 10
101.1059122918625
 20
-228.2930875666883
 30
0.0
 11
101.1059122918625
 21
-228.7930875666883
 31
0.0
  0
LINE
  5
E243
330
A
100
AcDbEntity
  8
0
  6
Continuous
 62
     7
370
    25
100
AcDbLine
 10
100.1059122918625
 20
-228.2930875666883
 30
0.0
 11
101.1059122918625
 21
-228.2930875666883
 31
0.0
  0
LINE
  5
E244
330
A
100
AcDbEntity
  8
0
  6
Continuous
 62
     7
370
    25
100
AcDbLine
 10
101.1059122918625
 20
-228.7930875666883
 30
0.0
 11
100.1059122918625
 21
-228.7930875666883
 31
0.0
  0
LINE
  5
E245
330
A
100
AcDbEntity
  8
0
  6
Continuous
 62
     7
370
    25
100
AcDbLine
 10
63.10591229186247
 20
-228.7930875666883
 30
0.0
 11
63.10591229186247
 21
-228.2930875666883
 31
0.0
  0
LINE
  5
E246
330
A
100
AcDbEntity
  8
0
  6
Continuous
 62
     7
370
    25
100
AcDbLine
 10
63.10591229186247
 20
-228.2930875666883
 30
0.0
 11
64.10591229186247
 21
-228.2930875666883
 31
0.0
  0
LINE
  5
E247
330
A
100
AcDbEntity
  8
0
  6
Continuous
 62
     7
370
    25
100
AcDbLine
 10
64.10591229186247
 20
-228.7930875666883
 30
0.0
 11
63.10591229186247
 21
-228.7930875666883
 31
0.0
  0
LINE
  5
E248
330
A
100
AcDbEntity
  8
0
  6
Continuous
 62
     7
370
    25
100
AcDbLine
 10
47.77910295334107
 20
-240.2261225861435
 30
0.0
 11
47.27910295334107
 21
-240.2261225861435
 31
0.0
  0
LINE
  5
E249
330
A
100
AcDbEntity
  8
0
  6
Continuous
 62
     7
370
    25
100
AcDbLine
 10
47.77910295334107
 20
-273.7261225861435
 30
0.0
 11
47.77910295334107
 21
-240.2261225861435
 31
0.0
  0
LINE
  5
E24A
330
A
100
AcDbEntity
  8
0
  6
Continuous
 62
     7
370
    25
100
AcDbLine
 10
47.27910295334107
 20
-273.7261225861435
 30
0.0
 11
47.77910295334107
 21
-273.7261225861435
 31
0.0
  0
LINE
  5
E24B
330
A
100
AcDbEntity
  8
0
  6
Continuous
 62
     7
370
    25
100
AcDbLine
 10
47.27910295334107
 20
-273.7261225861435
 30
0.0
 11
47.27910295334107
 21
-240.2261225861435
 31
0.0
  0
LINE
  5
E24C
330
A
100
AcDbEntity
  8
0
  6
Continuous
 62
     7
370
    25
100
AcDbLine
 10
47.27910295334107
 20
-239.7261225861435
 30
0.0
 11
47.77910295334107
 21
-239.7261225861435
 31
0.0
  0
LINE
  5
E24D
330
A
100
AcDbEntity
  8
0
  6
Continuous
 62
     7
370
    25
100
AcDbLine
 10
47.77910295334107
 20
-239.7261225861435
 30
0.0
 11
47.77910295334107
 21
-240.2261225861435
 31
0.0
  0
LINE
  5
E24E
330
A
100
AcDbEntity
  8
0
  6
Continuous
 62
     7
370
    25
100
AcDbLine
 10
47.27910295334107
 20
-240.2261225861435
 30
0.0
 11
47.27910295334107
 21
-239.7261225861435
 31
0.0
  0
LINE
  5
E24F
330
A
100
AcDbEntity
  8
0
  6
Continuous
 62
     7
370
    25
100
AcDbLine
 10
47.77910295334107
 20
-273.7261225861435
 30
0.0
 11
47.77910295334107
 21
-274.7261225861435
 31
0.0
  0
LINE
  5
E250
330
A
100
AcDbEntity
  8
0
  6
Continuous
 62
     7
370
    25
100
AcDbLine
 10
47.77910295334107
 20
-274.7261225861435
 30
0.0
 11
47.27910295334107
 21
-274.7261225861435
 31
0.0
  0
LINE
  5
E251
330
A
100
AcDbEntity
  8
0
  6
Continuous
 62
     7
370
    25
100
AcDbLine
 10
47.27910295334107
 20
-274.7261225861435
 30
0.0
 11
47.27910295334107
 21
-273.7261225861435
 31
0.0
  0
LINE
  5
E252
330
A
100
AcDbEntity
  8
0
  6
Continuous
 62
     7
370
    25
100
AcDbLine
 10
112.0890558061682
 20
-274.232900860532
 30
0.0
 11
111.9122791109121
 21
-274.3888032516156
 31
0.0
  0
ARC
  5
E253
330
A
100
AcDbEntity
  8
0
  6
Continuous
 62
     7
370
    25
100
AcDbCircle
 10
112.1821325231585
 20
-274.6947882598569
 30
0.0
 40
0.4069667583223995
100
AcDbArc
 50
81.3986348258898
 51
181.4206093965269
  0
LINE
  5
E254
330
A
100
AcDbEntity
  8
0
  6
Continuous
 62
     7
370
    25
100
AcDbLine
 10
146.8533288535929
 20
-278.6528905460858
 30
0.0
 11
112.2429980247997
 21
-274.2923987308066
 31
0.0
  0
ARC
  5
E255
330
A
100
AcDbEntity
  8
0
  6
Continuous
 62
     7
370
    25
100
AcDbCircle
 10
146.7750732086329
 20
-279.1933100586432
 30
0.0
 40
0.5460560369787685
100
AcDbArc
 50
1.058709042476795
 51
81.76053517936809
  0
LINE
  5
E256
330
A
100
AcDbEntity
  8
0
  6
Continuous
 62
     7
370
    25
100
AcDbLine
 10
147.321036026955
 20
-310.7673235259007
 30
0.0
 11
147.321036026955
 21
-279.1832206319622
 31
0.0
  0
LINE
  5
E257
330
A
100
AcDbEntity
  8
0
  6
Continuous
 62
     7
370
    25
100
AcDbLine
 10
146.3856216802308
 20
-311.5922814373681
 30
0.0
 11
147.321036026955
 21
-310.7673235259007
 31
0.0
  0
LINE
  5
E258
330
A
100
AcDbEntity
  8
0
  6
Continuous
 62
     7
370
    25
100
AcDbLine
 10
112.7107051981617
 20
-307.3496407522316
 30
0.0
 11
146.3856216802308
 21
-311.5922814373681
 31
0.0
  0
LINE
  5
E259
330
A
100
AcDbEntity
  8
0
  6
Continuous
 62
     7
370
    25
100
AcDbLine
 10
111.7752908514376
 20
-306.2889805804788
 30
0.0
 11
112.7107051981617
 21
-307.3496407522316
 31
0.0
  0
LINE
  5
E25A
330
A
100
AcDbEntity
  8
0
  6
Continuous
 62
     7
370
    25
100
AcDbLine
 10
111.7752908514376
 20
-274.7048776865403
 30
0.0
 11
111.7752908514376
 21
-306.2889805804788
 31
0.0
  0
LINE
  5
E25B
330
A
100
AcDbEntity
  8
0
  6
Continuous
 62
     7
370
    25
100
AcDbLine
 10
146.8533288535929
 20
-278.6528905460858
 30
0.0
 11
147.030105548849
 21
-278.4969881550022
 31
0.0
  0
ARC
  5
E25C
330
A
100
AcDbEntity
  8
0
  6
Continuous
 62
     7
370
    25
100
AcDbCircle
 10
146.9518499038889
 20
-279.0374076675598
 30
0.0
 40
0.5460560369789187
100
AcDbArc
 50
1.05870904249441
 51
81.76053517936477
  0
LINE
  5
E25D
330
A
100
AcDbEntity
  8
0
  6
Continuous
 62
     7
370
    25
100
AcDbLine
 10
147.4978127222111
 20
-279.0273182408786
 30
0.0
 11
147.321036026955
 21
-279.1832206319622
 31
0.0
  0
LINE
  5
E25E
330
A
100
AcDbEntity
  8
0
  6
Continuous
 62
     7
370
    25
100
AcDbLine
 10
147.4978127222111
 20
-310.6114211348171
 30
0.0
 11
147.4978127222111
 21
-279.0273182408786
 31
0.0
  0
LINE
  5
E25F
330
A
100
AcDbEntity
  8
0
  6
Continuous
 62
     7
370
    25
100
AcDbLine
 10
147.321036026955
 20
-310.7673235259007
 30
0.0
 11
147.4978127222111
 21
-310.6114211348171
 31
0.0
  0
LINE
  5
E260
330
A
100
AcDbEntity
  8
0
  6
Continuous
 62
     7
370
    25
100
AcDbLine
 10
112.4197747200558
 20
-274.136496339723
 30
0.0
 11
112.2429980247997
 21
-274.2923987308066
 31
0.0
  0
LINE
  5
E261
330
A
100
AcDbEntity
  8
0
  6
Continuous
 62
     7
370
    25
100
AcDbLine
 10
147.030105548849
 20
-278.4969881550022
 30
0.0
 11
112.4197747200558
 21
-274.136496339723
 31
0.0
  0
ARC
  5
E262
330
A
100
AcDbEntity
  8
0
  6
Continuous
 62
     7
370
    25
100
AcDbCircle
 10
112.3606282142015
 20
-274.5490656602019
 30
0.0
 40
0.4167874198619598
100
AcDbArc
 50
81.84158697327499
 51
130.6612067915242
  0
TEXT
  5
E521
330
A
100
AcDbEntity
  8
0
  6
Continuous
 62
     7
370
     0
100
AcDbText
 10
76.10743586322195
 20
49.12577783212322
 30
0.0
 40
10.0
  1
P25EC29 2,9m
100
AcDbText
  0
TEXT
  5
E522
330
A
100
AcDbEntity
  8
0
  6
Continuous
 62
     7
370
     0
100
AcDbText
 10
76.10743586322195
 20
31.07477813323166
 30
0.0
 40
10.0
  1
P25EC58 5,8m
100
AcDbText
  0
LINE
  5
E523
330
A
100
AcDbEntity
  8
0
  6
Continuous
 62
     7
370
    25
100
AcDbLine
 10
-2.480372180492054
 20
24.76483576524205
 30
0.0
 11
-2.480372209646362
 21
22.76483576524205
 31
0.0
  0
LINE
  5
E524
330
A
100
AcDbEntity
  8
0
  6
Continuous
 62
     7
370
    25
100
AcDbLine
 10
20.51962781950795
 20
24.76483542996593
 30
0.0
 11
-2.480372180492054
 21
24.76483576524205
 31
0.0
  0
LINE
  5
E525
330
A
100
AcDbEntity
  8
0
  6
Continuous
 62
     7
370
    25
100
AcDbLine
 10
20.51962779035364
 20
22.76483542996593
 30
0.0
 11
20.51962781950795
 21
24.76483542996593
 31
0.0
  0
LINE
  5
E526
330
A
100
AcDbEntity
  8
0
  6
Continuous
 62
     7
370
    25
100
AcDbLine
 10
20.51962779035364
 20
22.76483542996593
 30
0.0
 11
-2.480372209646362
 21
22.76483576524205
 31
0.0
  0
LINE
  5
E527
330
A
100
AcDbEntity
  8
0
  6
Continuous
 62
     7
370
    25
100
AcDbLine
 10
22.51962781950795
 20
24.76483540081117
 30
0.0
 11
22.51962779035364
 21
22.76483540081207
 31
0.0
  0
LINE
  5
E528
330
A
100
AcDbEntity
  8
0
  6
Continuous
 62
     7
370
    25
100
AcDbLine
 10
20.51962781950795
 20
24.76483542996593
 30
0.0
 11
22.51962781950795
 21
24.76483540081117
 31
0.0
  0
LINE
  5
E529
330
A
100
AcDbEntity
  8
0
  6
Continuous
 62
     7
370
    25
100
AcDbLine
 10
22.51962779035364
 20
22.76483540081207
 30
0.0
 11
20.51962779035364
 21
22.76483542996593
 31
0.0
  0
LINE
  5
E52A
330
A
100
AcDbEntity
  8
0
  6
Continuous
 62
     7
370
    25
100
AcDbLine
 10
-4.480372209646362
 20
22.76483579439591
 30
0.0
 11
-4.480372180492054
 21
24.76483579439591
 31
0.0
  0
LINE
  5
E52B
330
A
100
AcDbEntity
  8
0
  6
Continuous
 62
     7
370
    25
100
AcDbLine
 10
-4.480372180492054
 20
24.76483579439591
 30
0.0
 11
-2.480372180492054
 21
24.76483576524205
 31
0.0
  0
LINE
  5
E52C
330
A
100
AcDbEntity
  8
0
  6
Continuous
 62
     7
370
    25
100
AcDbLine
 10
-2.480372209646362
 20
22.76483576524205
 30
0.0
 11
-4.480372209646362
 21
22.76483579439591
 31
0.0
  0
LINE
  5
E52D
330
A
100
AcDbEntity
  8
0
  6
Continuous
 62
     7
370
    25
100
AcDbLine
 10
-2.480372209646362
 20
22.76483576524205
 30
0.0
 11
-2.480372238801124
 21
20.76483576524114
 31
0.0
  0
LINE
  5
E52E
330
A
100
AcDbEntity
  8
0
  6
Continuous
 62
     7
370
    25
100
AcDbLine
 10
20.51962776119888
 20
20.76483542996593
 30
0.0
 11
20.51962779035364
 21
22.76483542996593
 31
0.0
  0
LINE
  5
E52F
330
A
100
AcDbEntity
  8
0
  6
Continuous
 62
     7
370
    25
100
AcDbLine
 10
20.51962776119888
 20
20.76483542996593
 30
0.0
 11
-2.480372238801124
 21
20.76483576524114
 31
0.0
  0
LINE
  5
E530
330
A
100
AcDbEntity
  8
0
  6
Continuous
 62
     7
370
    25
100
AcDbLine
 10
22.51962779035364
 20
22.76483540081117
 30
0.0
 11
22.51962776119888
 21
20.76483540081117
 31
0.0
  0
LINE
  5
E531
330
A
100
AcDbEntity
  8
0
  6
Continuous
 62
     7
370
    25
100
AcDbLine
 10
-4.480372238800669
 20
20.76483579439591
 30
0.0
 11
-4.480372209646362
 21
22.76483579439591
 31
0.0
  0
LINE
  5
E532
330
A
100
AcDbEntity
  8
0
  6
Continuous
 62
     7
370
    25
100
AcDbLine
 10
4.269627787277273
 20
17.96483582355049
 30
0.0
 11
4.269627787277273
 21
15.36483582355103
 31
0.0
  0
ARC
  5
E533
330
A
100
AcDbEntity
  8
0
  6
Continuous
 62
     7
370
    25
100
AcDbCircle
 10
-7.930372212723455
 20
17.96483582355049
 30
0.0
 40
0.3000000000001819
100
AcDbArc
 50
90.0
 51
180.0
  0
LINE
  5
E534
330
A
100
AcDbEntity
  8
0
  6
Continuous
 62
     7
370
    25
100
AcDbLine
 10
-8.230372212723637
 20
15.36483582355103
 30
0.0
 11
-8.230372212723637
 21
17.96483582355049
 31
0.0
  0
ARC
  5
E535
330
A
100
AcDbEntity
  8
0
  6
Continuous
 62
     7
370
    25
100
AcDbCircle
 10
-9.680372238799123
 20
13.56483582355085
 30
0.0
 40
0.3000000000001819
100
AcDbArc
 50
180.0
 51
270.0
  0
LINE
  5
E536
330
A
100
AcDbEntity
  8
0
  6
Continuous
 62
     7
370
    25
100
AcDbLine
 10
3.969627787277091
 20
15.06483582355085
 30
0.0
 11
3.319627545878006
 21
15.06483582355085
 31
0.0
  0
ARC
  5
E537
330
A
100
AcDbEntity
  8
0
  6
Continuous
 62
     7
370
    25
100
AcDbCircle
 10
3.969627787277091
 20
15.36483582355103
 30
0.0
 40
0.3000000000001819
100
AcDbArc
 50
270.0
 51
0.0
  0
ARC
  5
E538
330
A
100
AcDbEntity
  8
0
  6
Continuous
 62
     7
370
    25
100
AcDbCircle
 10
-5.280372238798577
 20
47.96483582355049
 30
0.0
 40
0.3000000000001819
100
AcDbArc
 50
0.0
 51
90.0
  0
ARC
  5
E539
330
A
100
AcDbEntity
  8
0
  6
Continuous
 62
     7
370
    25
100
AcDbCircle
 10
3.969627787277091
 20
17.96483582355049
 30
0.0
 40
0.3000000000001819
100
AcDbArc
 50
0.0
 51
90.0
  0
LINE
  5
E53A
330
A
100
AcDbEntity
  8
0
  6
Continuous
 62
     7
370
    25
100
AcDbLine
 10
-7.930372212723455
 20
18.26483582355067
 30
0.0
 11
3.969627787277091
 21
18.26483582355067
 31
0.0
  0
LINE
  5
E53B
330
A
100
AcDbEntity
  8
0
  6
Continuous
 62
     7
370
    25
100
AcDbLine
 10
-5.680372238799578
 20
45.01483582355067
 30
0.0
 11
-5.280372306599588
 21
45.01483683682963
 31
0.0
  0
ARC
  5
E53C
330
A
100
AcDbEntity
  8
0
  6
Continuous
 62
     7
370
    25
100
AcDbCircle
 10
-5.680372238799578
 20
45.31483582354994
 30
0.0
 40
0.3000000000001819
100
AcDbArc
 50
180.0
 51
270.0
  0
LINE
  5
E53D
330
A
100
AcDbEntity
  8
0
  6
Continuous
 62
     7
370
    25
100
AcDbLine
 10
-5.98037223879976
 20
46.46483582355049
 30
0.0
 11
-5.98037223879976
 21
45.31483582354994
 31
0.0
  0
ARC
  5
E53E
330
A
100
AcDbEntity
  8
0
  6
Continuous
 62
     7
370
    25
100
AcDbCircle
 10
-6.280372238799941
 20
46.46483582355049
 30
0.0
 40
0.3000000000001819
100
AcDbArc
 50
0.0
 51
90.0
  0
ARC
  5
E53F
330
A
100
AcDbEntity
  8
0
  6
Continuous
 62
     7
370
    25
100
AcDbCircle
 10
-7.280372212722
 20
14.76483582355067
 30
0.0
 40
0.3000000000001819
100
AcDbArc
 50
0.0
 51
90.0
  0
LINE
  5
E540
330
A
100
AcDbEntity
  8
0
  6
Continuous
 62
     7
370
    25
100
AcDbLine
 10
-6.980372212722273
 20
13.26483582355067
 30
0.0
 11
-6.980372212722273
 21
14.76483582355067
 31
0.0
  0
LINE
  5
E541
330
A
100
AcDbEntity
  8
0
  6
Continuous
 62
     7
370
    25
100
AcDbLine
 10
-9.680372238799123
 20
13.26483582355067
 30
0.0
 11
-6.980372212722273
 21
13.26483582355067
 31
0.0
  0
ARC
  5
E542
330
A
100
AcDbEntity
  8
0
  6
Continuous
 62
     7
370
    25
100
AcDbCircle
 10
-7.180372238800487
 20
40.06483582354994
 30
0.0
 40
0.3000000000001819
100
AcDbArc
 50
180.0
 51
270.0
  0
LINE
  5
E543
330
A
100
AcDbEntity
  8
0
  6
Continuous
 62
     7
370
    25
100
AcDbLine
 10
-6.280372238800396
 20
39.76483582355067
 30
0.0
 11
-7.180372238800487
 21
39.76483582355067
 31
0.0
  0
ARC
  5
E544
330
A
100
AcDbEntity
  8
0
  6
Continuous
 62
     7
370
    25
100
AcDbCircle
 10
-6.280372238800396
 20
40.06483582354994
 30
0.0
 40
0.3000000000001819
100
AcDbArc
 50
270.0
 51
0.0
  0
LINE
  5
E545
330
A
100
AcDbEntity
  8
0
  6
Continuous
 62
     7
370
    25
100
AcDbLine
 10
-5.980372238800214
 20
41.21483582355049
 30
0.0
 11
-5.980372238800214
 21
40.06483582354994
 31
0.0
  0
ARC
  5
E546
330
A
100
AcDbEntity
  8
0
  6
Continuous
 62
     7
370
    25
100
AcDbCircle
 10
-5.680372238800487
 20
41.21483533181217
 30
0.0
 40
0.3000000000002175
100
AcDbArc
 50
89.99997210983508
 51
179.9999060848989
  0
LINE
  5
E547
330
A
100
AcDbEntity
  8
0
  6
Continuous
 62
     7
370
    25
100
AcDbLine
 10
-5.280372238798577
 20
41.51483582355067
 30
0.0
 11
-5.680372092767925
 21
41.51483533181235
 31
0.0
  0
ARC
  5
E548
330
A
100
AcDbEntity
  8
0
  6
Continuous
 62
     7
370
    25
100
AcDbCircle
 10
-5.280372350558196
 20
41.21483582355049
 30
0.0
 40
0.3000000000002027
100
AcDbArc
 50
0.0000034151293251
 51
89.99997865548515
  0
LINE
  5
E549
330
A
100
AcDbEntity
  8
0
  6
Continuous
 62
     7
370
    25
100
AcDbLine
 10
-4.980372238797486
 20
38.56483582355085
 30
0.0
 11
-4.980372350558014
 21
41.21483584143206
 31
0.0
  0
ARC
  5
E54A
330
A
100
AcDbEntity
  8
0
  6
Continuous
 62
     7
370
    25
100
AcDbCircle
 10
-5.280372238798122
 20
38.56483619607988
 30
0.0
 40
0.300000000000868
100
AcDbArc
 50
269.9999870508739
 51
359.9999288521961
  0
ARC
  5
E54B
330
A
100
AcDbEntity
  8
0
  6
Continuous
 62
     7
370
    25
100
AcDbCircle
 10
-7.930372212723455
 20
15.36483582355103
 30
0.0
 40
0.3000000000001819
100
AcDbArc
 50
180.0
 51
270.0
  0
LINE
  5
E54C
330
A
100
AcDbEntity
  8
0
  6
Continuous
 62
     7
370
    25
100
AcDbLine
 10
-7.280372212722
 20
15.06483582355085
 30
0.0
 11
-7.930372212723455
 21
15.06483582355085
 31
0.0
  0
LINE
  5
E54D
330
A
100
AcDbEntity
  8
0
  6
Continuous
 62
     7
370
    25
100
AcDbLine
 10
-7.48037223879976
 20
21.76483582355067
 30
0.0
 11
-7.48037223879976
 21
37.96483582355049
 31
0.0
  0
ARC
  5
E54E
330
A
100
AcDbEntity
  8
0
  6
Continuous
 62
     7
370
    25
100
AcDbCircle
 10
-6.480372238799305
 20
21.76483582355067
 30
0.0
 40
1.000000000000455
100
AcDbArc
 50
180.0
 51
270.0
  0
LINE
  5
E54F
330
A
100
AcDbEntity
  8
0
  6
Continuous
 62
     7
370
    25
100
AcDbLine
 10
5.019627425924568
 20
20.76483565591261
 30
0.0
 11
-6.480372238799305
 21
20.76483582355067
 31
0.0
  0
LINE
  5
E550
330
A
100
AcDbEntity
  8
0
  6
Continuous
 62
     7
370
    25
100
AcDbLine
 10
7.519627835706501
 20
18.26483571179196
 30
0.0
 11
5.019627425924568
 21
20.76483565591261
 31
0.0
  0
LINE
  5
E551
330
A
100
AcDbEntity
  8
0
  6
Continuous
 62
     7
370
    25
100
AcDbLine
 10
-9.980372238799305
 20
47.96483582355049
 30
0.0
 11
-9.98037223879885
 21
13.56483582355085
 31
0.0
  0
ARC
  5
E552
330
A
100
AcDbEntity
  8
0
  6
Continuous
 62
     7
370
    25
100
AcDbCircle
 10
-9.680372238799123
 20
47.9648359725621
 30
0.0
 40
0.3000000000002189
100
AcDbArc
 50
89.99999727863126
 51
180.0000284591216
  0
LINE
  5
E553
330
A
100
AcDbEntity
  8
0
  6
Continuous
 62
     7
370
    25
100
AcDbLine
 10
-5.280372238798577
 20
48.26483582355067
 30
0.0
 11
-9.68037222455007
 21
48.26483597256228
 31
0.0
  0
LINE
  5
E554
330
A
100
AcDbEntity
  8
0
  6
Continuous
 62
     7
370
    25
100
AcDbLine
 10
10.51962832744482
 20
18.26483571179196
 30
0.0
 11
9.519628163532047
 21
18.26483571179196
 31
0.0
  0
LINE
  5
E555
330
A
100
AcDbEntity
  8
0
  6
Continuous
 62
     7
370
    25
100
AcDbLine
 10
-4.98037223879885
 20
45.31483582354994
 30
0.0
 11
-4.98037223879885
 21
47.96483582355049
 31
0.0
  0
ARC
  5
E556
330
A
100
AcDbEntity
  8
0
  6
Continuous
 62
     7
370
    25
100
AcDbCircle
 10
-5.280372238795849
 20
45.3148368368289
 30
0.0
 40
0.2999999999992801
100
AcDbArc
 50
269.9999870504396
 51
359.9998064779735
  0
ARC
  5
E557
330
A
100
AcDbEntity
  8
0
  6
Continuous
 62
     7
370
    25
100
AcDbCircle
 10
24.51962653930548
 20
21.76483582355067
 30
0.0
 40
1.0
100
AcDbArc
 50
270.0
 51
0.0
  0
LINE
  5
E558
330
A
100
AcDbEntity
  8
0
  6
Continuous
 62
     7
370
    25
100
AcDbLine
 10
25.51962786923502
 20
37.9648358235514
 30
0.0
 11
25.51962653930548
 21
21.76483582355067
 31
0.0
  0
ARC
  5
E559
330
A
100
AcDbEntity
  8
0
  6
Continuous
 62
     7
370
    25
100
AcDbCircle
 10
25.21962786923484
 20
37.9648358235514
 30
0.0
 40
0.3000000000001819
100
AcDbArc
 50
0.0
 51
90.0
  0
LINE
  5
E55A
330
A
100
AcDbEntity
  8
0
  6
Continuous
 62
     7
370
    25
100
AcDbLine
 10
23.3196278692343
 20
38.26483582355067
 30
0.0
 11
25.21962786923484
 21
38.26483582355067
 31
0.0
  0
LINE
  5
E55B
330
A
100
AcDbEntity
  8
0
  6
Continuous
 62
     7
370
    25
100
AcDbLine
 10
-7.180372238800487
 20
46.76483582355067
 30
0.0
 11
-6.280372238799941
 21
46.76483582355067
 31
0.0
  0
ARC
  5
E55C
330
A
100
AcDbEntity
  8
0
  6
Continuous
 62
     7
370
    25
100
AcDbCircle
 10
-7.180372238800487
 20
46.46483582355049
 30
0.0
 40
0.3000000000001819
100
AcDbArc
 50
90.0
 51
180.0
  0
LINE
  5
E55D
330
A
100
AcDbEntity
  8
0
  6
Continuous
 62
     7
370
    25
100
AcDbLine
 10
-7.480372238800669
 20
40.06483582354994
 30
0.0
 11
-7.480372238800669
 21
46.46483582355049
 31
0.0
  0
LINE
  5
E55E
330
A
100
AcDbEntity
  8
0
  6
Continuous
 62
     7
370
    25
100
AcDbLine
 10
23.7196278692353
 20
41.51483582354976
 30
0.0
 11
23.31962793703531
 21
41.51483533181144
 31
0.0
  0
ARC
  5
E55F
330
A
100
AcDbEntity
  8
0
  6
Continuous
 62
     7
370
    25
100
AcDbCircle
 10
23.7196278692353
 20
41.21483582354958
 30
0.0
 40
0.3000000000001819
100
AcDbArc
 50
0.0
 51
90.0
  0
LINE
  5
E560
330
A
100
AcDbEntity
  8
0
  6
Continuous
 62
     7
370
    25
100
AcDbLine
 10
24.01962767924522
 20
39.76483575370602
 30
0.0
 11
24.01962786923502
 21
41.21483582354958
 31
0.0
  0
LINE
  5
E561
330
A
100
AcDbEntity
  8
0
  6
Continuous
 62
     7
370
    25
100
AcDbLine
 10
25.21962921904458
 20
39.76483600321953
 30
0.0
 11
24.01962767924522
 21
39.76483575370602
 31
0.0
  0
ARC
  5
E562
330
A
100
AcDbEntity
  8
0
  6
Continuous
 62
     7
370
    25
100
AcDbCircle
 10
25.21962923489752
 20
40.0648360032188
 30
0.0
 40
0.300000000000637
100
AcDbArc
 50
269.99999697231
 51
359.9999969723969
  0
LINE
  5
E563
330
A
100
AcDbEntity
  8
0
  6
Continuous
 62
     7
370
    25
100
AcDbLine
 10
25.5196295730974
 20
46.46483598736594
 30
0.0
 11
25.51962923489816
 21
40.06483598736631
 31
0.0
  0
ARC
  5
E564
330
A
100
AcDbEntity
  8
0
  6
Continuous
 62
     7
370
    25
100
AcDbCircle
 10
25.21962957309722
 20
46.46483600321844
 30
0.0
 40
0.3000000000001823
100
AcDbArc
 50
359.9999969723969
 51
89.99999697231009
  0
LINE
  5
E565
330
A
100
AcDbEntity
  8
0
  6
Continuous
 62
     7
370
    25
100
AcDbLine
 10
24.31962958895053
 20
46.76483600321862
 30
0.0
 11
25.21962958895017
 21
46.76483600321862
 31
0.0
  0
ARC
  5
E566
330
A
100
AcDbEntity
  8
0
  6
Continuous
 62
     7
370
    25
100
AcDbCircle
 10
24.31962957309759
 20
46.46483600321844
 30
0.0
 40
0.3000000000001823
100
AcDbArc
 50
89.99999697231009
 51
179.9999969722232
  0
LINE
  5
E567
330
A
100
AcDbEntity
  8
0
  6
Continuous
 62
     7
370
    25
100
AcDbLine
 10
24.0196295730974
 20
45.31483601907129
 30
0.0
 11
24.0196295730974
 21
46.46483601907184
 31
0.0
  0
ARC
  5
E568
330
A
100
AcDbEntity
  8
0
  6
Continuous
 62
     7
370
    25
100
AcDbCircle
 10
23.71962957309904
 20
45.31483704820366
 30
0.0
 40
0.3000000000002256
100
AcDbArc
 50
269.9999690819715
 51
359.9998034501967
  0
LINE
  5
E569
330
A
100
AcDbEntity
  8
0
  6
Continuous
 62
     7
370
    25
100
AcDbLine
 10
23.31962955724418
 20
45.01483605606208
 30
0.0
 11
23.71962941121262
 21
45.01483704820347
 31
0.0
  0
ARC
  5
E56A
330
A
100
AcDbEntity
  8
0
  6
Continuous
 62
     7
370
    25
100
AcDbCircle
 10
23.31962957309759
 20
45.31483605606226
 30
0.0
 40
0.3000000000001823
100
AcDbArc
 50
179.9999969722232
 51
269.9999969722232
  0
LINE
  5
E56B
330
A
100
AcDbEntity
  8
0
  6
Continuous
 62
     7
370
    25
100
AcDbLine
 10
23.01962971313321
 20
47.9648360719153
 30
0.0
 11
23.0196295730974
 21
45.31483607191566
 31
0.0
  0
ARC
  5
E56C
330
A
100
AcDbEntity
  8
0
  6
Continuous
 62
     7
370
    25
100
AcDbCircle
 10
23.31962971313339
 20
47.96483620507442
 30
0.0
 40
0.3000000000002115
100
AcDbArc
 50
89.99998402344453
 51
180.0000254315185
  0
LINE
  5
E56D
330
A
100
AcDbEntity
  8
0
  6
Continuous
 62
     7
370
    25
100
AcDbLine
 10
27.71962972898598
 20
48.26483582355067
 30
0.0
 11
23.31962979678644
 21
48.26483620507369
 31
0.0
  0
ARC
  5
E56E
330
A
100
AcDbEntity
  8
0
  6
Continuous
 62
     7
370
    25
100
AcDbCircle
 10
27.71962971313303
 20
47.96483582355049
 30
0.0
 40
0.3000000000001823
100
AcDbArc
 50
359.9999969722232
 51
89.99999697231009
  0
LINE
  5
E56F
330
A
100
AcDbEntity
  8
0
  6
Continuous
 62
     7
370
    25
100
AcDbLine
 10
28.01962789531069
 20
13.56483580769745
 30
0.0
 11
28.01962971313276
 21
47.96483580769709
 31
0.0
  0
ARC
  5
E570
330
A
100
AcDbEntity
  8
0
  6
Continuous
 62
     7
370
    25
100
AcDbCircle
 10
27.71962789531051
 20
13.56483582355085
 30
0.0
 40
0.3000000000001823
100
AcDbArc
 50
269.9999969722232
 51
359.9999969722232
  0
LINE
  5
E571
330
A
100
AcDbEntity
  8
0
  6
Continuous
 62
     7
370
    25
100
AcDbLine
 10
25.01962648528831
 20
13.26483582355067
 30
0.0
 11
27.71962787945711
 21
13.26483582355067
 31
0.0
  0
LINE
  5
E572
330
A
100
AcDbEntity
  8
0
  6
Continuous
 62
     7
370
    25
100
AcDbLine
 10
25.01962648528831
 20
14.76483571179287
 30
0.0
 11
25.01962648528831
 21
13.26483582355067
 31
0.0
  0
ARC
  5
E573
330
A
100
AcDbEntity
  8
0
  6
Continuous
 62
     7
370
    25
100
AcDbCircle
 10
25.3196264852885
 20
14.76483571179287
 30
0.0
 40
0.3000000000001819
100
AcDbArc
 50
90.0
 51
180.0
  0
LINE
  5
E574
330
A
100
AcDbEntity
  8
0
  6
Continuous
 62
     7
370
    25
100
AcDbLine
 10
25.96962647523094
 20
15.06483571179214
 30
0.0
 11
25.3196264852885
 21
15.06483571179214
 31
0.0
  0
ARC
  5
E575
330
A
100
AcDbEntity
  8
0
  6
Continuous
 62
     7
370
    25
100
AcDbCircle
 10
25.96962648528859
 20
15.36483571179323
 30
0.0
 40
0.3000000000010916
100
AcDbArc
 50
269.9999980791309
 51
0.00000590530246
  0
LINE
  5
E576
330
A
100
AcDbEntity
  8
0
  6
Continuous
 62
     7
370
    25
100
AcDbLine
 10
26.26962648528877
 20
17.96483567491268
 30
0.0
 11
26.26962648528877
 21
15.36483574271332
 31
0.0
  0
ARC
  5
E577
330
A
100
AcDbEntity
  8
0
  6
Continuous
 62
     7
370
    25
100
AcDbCircle
 10
25.96962648528859
 20
17.96483574271278
 30
0.0
 40
0.3000000000001896
100
AcDbArc
 50
359.9999870511344
 51
89.9999896836553
  0
LINE
  5
E578
330
A
100
AcDbEntity
  8
0
  6
Continuous
 62
     7
370
    25
100
AcDbLine
 10
14.0696269535573
 20
18.26483574271296
 30
0.0
 11
25.96962653930484
 21
18.26483574271296
 31
0.0
  0
ARC
  5
E579
330
A
100
AcDbEntity
  8
0
  6
Continuous
 62
     7
370
    25
100
AcDbCircle
 10
14.06962653930339
 20
17.96483574271278
 30
0.0
 40
0.3000000000004679
100
AcDbArc
 50
89.99992088332947
 51
179.9999786556589
  0
LINE
  5
E57A
330
A
100
AcDbEntity
  8
0
  6
Continuous
 62
     7
370
    25
100
AcDbLine
 10
13.7696265393032
 20
15.36483577959334
 30
0.0
 11
13.7696265393032
 21
17.96483585447149
 31
0.0
  0
ARC
  5
E57B
330
A
100
AcDbEntity
  8
0
  6
Continuous
 62
     7
370
    25
100
AcDbCircle
 10
14.06962653930339
 20
15.36483585447112
 30
0.0
 40
0.3000000000001913
100
AcDbArc
 50
180.0000143006043
 51
270.0000014226086
  0
LINE
  5
E57C
330
A
100
AcDbEntity
  8
0
  6
Continuous
 62
     7
370
    25
100
AcDbLine
 10
14.7196265467536
 20
15.06483585447094
 30
0.0
 11
14.06962654675215
 21
15.06483585447094
 31
0.0
  0
ARC
  5
E57D
330
A
100
AcDbEntity
  8
0
  6
Continuous
 62
     7
370
    25
100
AcDbCircle
 10
14.7196265467536
 20
14.76483585447076
 30
0.0
 40
0.3000000000001819
100
AcDbArc
 50
0.0
 51
90.0
  0
LINE
  5
E57E
330
A
100
AcDbEntity
  8
0
  6
Continuous
 62
     7
370
    25
100
AcDbLine
 10
15.01962627853243
 20
13.26483585447076
 30
0.0
 11
15.01962654675333
 21
14.76483585447076
 31
0.0
  0
LINE
  5
E57F
330
A
100
AcDbEntity
  8
0
  6
Continuous
 62
     7
370
    25
100
AcDbLine
 10
12.26962817470701
 20
13.26483585447076
 30
0.0
 11
15.01962627853243
 21
13.26483585447076
 31
0.0
  0
ARC
  5
E580
330
A
100
AcDbEntity
  8
0
  6
Continuous
 62
     7
370
    25
100
AcDbCircle
 10
9.019627980991459
 20
13.26371373675883
 30
0.0
 40
3.250000387430634
100
AcDbArc
 50
0.0197823392687809
 51
179.9802176607312
  0
LINE
  5
E581
330
A
100
AcDbEntity
  8
0
  6
Continuous
 62
     7
370
    25
100
AcDbLine
 10
3.019628055497719
 20
13.26483585447076
 30
0.0
 11
5.769627787276363
 21
13.26483585447076
 31
0.0
  0
LINE
  5
E582
330
A
100
AcDbEntity
  8
0
  6
Continuous
 62
     7
370
    25
100
AcDbLine
 10
3.019627787276818
 20
14.76483585446985
 30
0.0
 11
3.019628055497719
 21
13.26483585447076
 31
0.0
  0
ARC
  5
E583
330
A
100
AcDbEntity
  8
0
  6
Continuous
 62
     7
370
    25
100
AcDbCircle
 10
3.319627787277
 20
14.76483582355067
 30
0.0
 40
0.300000000000279
100
AcDbArc
 50
90.00004610381166
 51
179.9999940948712
  0
LINE
  5
E584
330
A
100
AcDbEntity
  8
0
  6
Continuous
 62
     7
370
    25
100
AcDbLine
 10
-7.180372238799578
 20
38.26483582355067
 30
0.0
 11
-5.280372306599588
 21
38.2648361960797
 31
0.0
  0
ARC
  5
E585
330
A
100
AcDbEntity
  8
0
  6
Continuous
 62
     7
370
    25
100
AcDbCircle
 10
-7.180372238799578
 20
37.96483582355049
 30
0.0
 40
0.3000000000001819
100
AcDbArc
 50
90.0
 51
180.0
  0
LINE
  5
E586
330
A
100
AcDbEntity
  8
0
  6
Continuous
 62
     7
370
    25
100
AcDbLine
 10
8.51962799961882
 20
18.26483571179196
 30
0.0
 11
7.519627835706501
 21
18.26483571179196
 31
0.0
  0
LINE
  5
E587
330
A
100
AcDbEntity
  8
0
  6
Continuous
 62
     7
370
    25
100
AcDbLine
 10
9.019627150252632
 20
17.76483562983557
 30
0.0
 11
8.51962799961882
 21
18.26483571179196
 31
0.0
  0
LINE
  5
E588
330
A
100
AcDbEntity
  8
0
  6
Continuous
 62
     7
370
    25
100
AcDbLine
 10
9.519628163532047
 20
18.26483571179196
 30
0.0
 11
9.019627150252632
 21
17.76483562983557
 31
0.0
  0
LINE
  5
E589
330
A
100
AcDbEntity
  8
0
  6
Continuous
 62
     7
370
    25
100
AcDbLine
 10
13.01962780590418
 20
20.76483565591261
 30
0.0
 11
10.51962832744482
 21
18.26483571179196
 31
0.0
  0
LINE
  5
E58A
330
A
100
AcDbEntity
  8
0
  6
Continuous
 62
     7
370
    25
100
AcDbLine
 10
24.51962653930548
 20
20.76483582355067
 30
0.0
 11
13.01962780590418
 21
20.76483565591261
 31
0.0
  0
ARC
  5
E58B
330
A
100
AcDbEntity
  8
0
  6
Continuous
 62
     7
370
    25
100
AcDbCircle
 10
23.319627980993
 20
38.56483582354994
 30
0.0
 40
0.2999999999997585
100
AcDbArc
 50
180.0000261822528
 51
269.9999786556588
  0
LINE
  5
E58C
330
A
100
AcDbEntity
  8
0
  6
Continuous
 62
     7
370
    25
100
AcDbLine
 10
23.01962786923502
 20
41.21483582355049
 30
0.0
 11
23.01962798099328
 21
38.56483568645999
 31
0.0
  0
ARC
  5
E58D
330
A
100
AcDbEntity
  8
0
  6
Continuous
 62
     7
370
    25
100
AcDbCircle
 10
23.31962786923475
 20
41.21483533181217
 30
0.0
 40
0.3000000000001302
100
AcDbArc
 50
89.9999870510476
 51
179.9999060848989
  0
LINE
  5
E58E
330
A
100
AcDbEntity
  8
0
  6
Continuous
 62
     7
370
    25
100
AcDbLine
 10
23.31962979678667
 20
-121.6079175132681
 30
0.0
 11
23.31962979678667
 21
2.16678136871451
 31
0.0
  0
LINE
  5
E58F
330
A
100
AcDbEntity
  8
0
  6
Continuous
 62
     7
370
    25
100
AcDbLine
 10
23.01962971313344
 20
-121.6079175132681
 30
0.0
 11
23.01962971313344
 21
2.16678136871451
 31
0.0
  0
LINE
  5
E590
330
A
100
AcDbEntity
  8
0
  6
Continuous
 62
     7
370
    25
100
AcDbLine
 10
23.31962979678667
 20
2.16678136871451
 30
0.0
 11
23.01962971313344
 21
2.16678136871451
 31
0.0
  0
LINE
  5
E591
330
A
100
AcDbEntity
  8
0
  6
Continuous
 62
     7
370
    25
100
AcDbLine
 10
27.71962972898621
 20
-121.6079175132681
 30
0.0
 11
27.71962972898621
 21
2.16678136871451
 31
0.0
  0
LINE
  5
E592
330
A
100
AcDbEntity
  8
0
  6
Continuous
 62
     7
370
    25
100
AcDbLine
 10
27.71962972898621
 20
2.16678136871451
 30
0.0
 11
23.31962979678667
 21
2.16678136871451
 31
0.0
  0
LINE
  5
E593
330
A
100
AcDbEntity
  8
0
  6
Continuous
 62
     7
370
    25
100
AcDbLine
 10
-5.28037223879835
 20
-121.6079175132681
 30
0.0
 11
-5.28037223879835
 21
2.16678136871451
 31
0.0
  0
LINE
  5
E594
330
A
100
AcDbEntity
  8
0
  6
Continuous
 62
     7
370
    25
100
AcDbLine
 10
-9.680372224549842
 20
-121.6079175132681
 30
0.0
 11
-9.680372224549842
 21
2.16678136871451
 31
0.0
  0
LINE
  5
E595
330
A
100
AcDbEntity
  8
0
  6
Continuous
 62
     7
370
    25
100
AcDbLine
 10
-5.28037223879835
 20
2.16678136871451
 30
0.0
 11
-9.680372224549842
 21
2.16678136871451
 31
0.0
  0
LINE
  5
E596
330
A
100
AcDbEntity
  8
0
  6
Continuous
 62
     7
370
    25
100
AcDbLine
 10
-9.980372238799077
 20
-121.6079175132681
 30
0.0
 11
-9.980372238799077
 21
2.16678136871451
 31
0.0
  0
LINE
  5
E597
330
A
100
AcDbEntity
  8
0
  6
Continuous
 62
     7
370
    25
100
AcDbLine
 10
-9.680372224549842
 20
2.16678136871451
 30
0.0
 11
-9.980372238799077
 21
2.16678136871451
 31
0.0
  0
LINE
  5
E598
330
A
100
AcDbEntity
  8
0
  6
Continuous
 62
     7
370
    25
100
AcDbLine
 10
-4.980372238798623
 20
-121.6079175132681
 30
0.0
 11
-4.980372238798623
 21
2.16678136871451
 31
0.0
  0
LINE
  5
E599
330
A
100
AcDbEntity
  8
0
  6
Continuous
 62
     7
370
    25
100
AcDbLine
 10
-4.980372238798623
 20
2.16678136871451
 30
0.0
 11
-5.28037223879835
 21
2.16678136871451
 31
0.0
  0
LINE
  5
E59A
330
A
100
AcDbEntity
  8
0
  6
Continuous
 62
     7
370
    25
100
AcDbLine
 10
28.01962971313299
 20
-121.6079175132681
 30
0.0
 11
28.01962971313299
 21
2.16678136871451
 31
0.0
  0
LINE
  5
E59B
330
A
100
AcDbEntity
  8
0
  6
Continuous
 62
     7
370
    25
100
AcDbLine
 10
28.01962971313299
 20
2.16678136871451
 30
0.0
 11
27.71962972898621
 21
2.16678136871451
 31
0.0
  0
LINE
  5
E59C
330
A
100
AcDbEntity
  8
0
  6
Continuous
 62
     7
370
    25
100
AcDbLine
 10
23.01962957309763
 20
-121.6079175132681
 30
0.0
 11
23.01962957309763
 21
2.16678136871451
 31
0.0
  0
LINE
  5
E59D
330
A
100
AcDbEntity
  8
0
  6
Continuous
 62
     7
370
    25
100
AcDbLine
 10
13.01962780590441
 20
-121.6079175132677
 30
0.0
 11
13.01962780590441
 21
2.16678136871451
 31
0.0
  0
LINE
  5
E59E
330
A
100
AcDbEntity
  8
0
  6
Continuous
 62
     7
370
    25
100
AcDbLine
 10
23.01962786923525
 20
2.16678136871451
 30
0.0
 11
13.01962780590441
 21
2.16678136871451
 31
0.0
  0
LINE
  5
E59F
330
A
100
AcDbEntity
  8
0
  6
Continuous
 62
     7
370
    25
100
AcDbLine
 10
5.019627425924796
 20
-121.6079175132677
 30
0.0
 11
5.019627425924796
 21
2.16678136871451
 31
0.0
  0
LINE
  5
E5A0
330
A
100
AcDbEntity
  8
0
  6
Continuous
 62
     7
370
    25
100
AcDbLine
 10
5.019627425924796
 20
2.16678136871451
 30
0.0
 11
-4.980372238797258
 21
2.166781368715419
 31
0.0
  0
LINE
  5
E5A1
330
A
100
AcDbEntity
  8
0
  6
Continuous
 62
     7
370
    25
100
AcDbLine
 10
7.519627835706729
 20
-121.6079175132677
 30
0.0
 11
7.519627835706729
 21
2.16678136871451
 31
0.0
  0
LINE
  5
E5A2
330
A
100
AcDbEntity
  8
0
  6
Continuous
 62
     7
370
    25
100
AcDbLine
 10
7.519627835706729
 20
2.16678136871451
 30
0.0
 11
5.019627425924796
 21
2.16678136871451
 31
0.0
  0
LINE
  5
E5A3
330
A
100
AcDbEntity
  8
0
  6
Continuous
 62
     7
370
    25
100
AcDbLine
 10
10.51962832744505
 20
-121.6079175132677
 30
0.0
 11
10.51962832744505
 21
2.16678136871451
 31
0.0
  0
LINE
  5
E5A4
330
A
100
AcDbEntity
  8
0
  6
Continuous
 62
     7
370
    25
100
AcDbLine
 10
13.01962780590441
 20
2.16678136871451
 30
0.0
 11
10.51962832744505
 21
2.16678136871451
 31
0.0
  0
LINE
  5
E5A5
330
A
100
AcDbEntity
  8
0
  6
Continuous
 62
     7
370
    25
100
AcDbLine
 10
9.519628163532275
 20
-121.6079175132677
 30
0.0
 11
9.519628163532275
 21
2.16678136871451
 31
0.0
  0
LINE
  5
E5A6
330
A
100
AcDbEntity
  8
0
  6
Continuous
 62
     7
370
    25
100
AcDbLine
 10
10.51962832744505
 20
2.16678136871451
 30
0.0
 11
9.519628163532275
 21
2.16678136871451
 31
0.0
  0
LINE
  5
E5A7
330
A
100
AcDbEntity
  8
0
  6
Continuous
 62
     7
370
    25
100
AcDbLine
 10
8.519627999619047
 20
-121.6079175132677
 30
0.0
 11
8.519627999619047
 21
2.16678136871451
 31
0.0
  0
LINE
  5
E5A8
330
A
100
AcDbEntity
  8
0
  6
Continuous
 62
     7
370
    25
100
AcDbLine
 10
8.519627999619047
 20
2.16678136871451
 30
0.0
 11
7.519627835706729
 21
2.16678136871451
 31
0.0
  0
LINE
  5
E5A9
330
A
100
AcDbEntity
  8
0
  6
Continuous
 62
     7
370
    25
100
AcDbLine
 10
9.019627150252859
 20
-121.6079175132677
 30
0.0
 11
9.019627150252859
 21
2.16678136871451
 31
0.0
  0
LINE
  5
E5AA
330
A
100
AcDbEntity
  8
0
  6
Continuous
 62
     7
370
    25
100
AcDbLine
 10
9.519628163532275
 20
2.16678136871451
 30
0.0
 11
9.019627150252859
 21
2.16678136871451
 31
0.0
  0
LINE
  5
E5AB
330
A
100
AcDbEntity
  8
0
  6
Continuous
 62
     7
370
    25
100
AcDbLine
 10
9.019627150252859
 20
2.16678136871451
 30
0.0
 11
8.519627999619047
 21
2.16678136871451
 31
0.0
  0
LINE
  5
E5AC
330
A
100
AcDbEntity
  8
0
  6
Continuous
370
     0
100
AcDbLine
 10
-9.980372238799077
 20
-121.6079175132681
 30
0.0
 11
28.01962971313299
 21
-121.6079175132681
 31
0.0
  0
LINE
  5
E5AD
330
A
100
AcDbEntity
  8
0
  6
Continuous
 62
     7
370
    25
100
AcDbLine
 10
160.2529701400244
 20
-98.22541391125858
 30
0.0
 11
40.66961808286737
 21
-29.19141509175165
 31
0.0
  0
LINE
  5
E5AE
330
A
100
AcDbEntity
  8
0
  6
Continuous
 62
     7
370
    25
100
AcDbLine
 10
158.5854665485522
 20
-100.4459825309298
 30
0.0
 11
159.670151807758
 21
-101.0721580025495
 31
0.0
  0
LINE
  5
E5AF
330
A
100
AcDbEntity
  8
0
  6
Continuous
 62
     7
370
    25
100
AcDbLine
 10
160.2529700609975
 20
-103.7370644371083
 30
0.0
 11
158.547347411517
 21
-102.7524294401076
 31
0.0
  0
LINE
  5
E5B0
330
A
100
AcDbEntity
  8
0
  6
Continuous
 62
     7
370
    25
100
AcDbLine
 10
37.2583726258556
 20
-59.59614618405999
 30
0.0
 11
156.8417246830122
 21
-128.6301450035669
 31
0.0
  0
LINE
  5
E5B1
330
A
100
AcDbEntity
  8
0
  6
Continuous
 62
     7
370
    25
100
AcDbLine
 10
158.8387565960902
 20
-126.1509769670436
 30
0.0
 11
158.0170173440656
 21
-125.6765969943115
 31
0.0
  0
LINE
  5
E5B2
330
A
100
AcDbEntity
  8
0
  6
Continuous
 62
     7
370
    25
100
AcDbLine
 10
60.59289768621579
 20
-20.20024063213327
 30
0.0
 11
180.176249743372
 21
-89.23423945164066
 31
0.0
  0
LINE
  5
E5B3
330
A
100
AcDbEntity
  8
0
  6
Continuous
 62
     7
370
    25
100
AcDbLine
 10
183.5874952994036
 20
-84.75467926939726
 30
0.0
 11
64.00414324224789
 21
-15.72068044988987
 31
0.0
  0
LINE
  5
E5B4
330
A
100
AcDbEntity
  8
0
  6
Continuous
 62
     7
370
    25
100
AcDbLine
 10
180.7590668708253
 20
-91.89914672595867
 30
0.0
 11
61.17571481366872
 21
-22.86514790645174
 31
0.0
  0
LINE
  5
E5B5
330
A
100
AcDbEntity
  8
0
  6
Continuous
 62
     7
370
    25
100
AcDbLine
 10
60.5928965604287
 20
-25.71189195212105
 30
0.0
 11
180.1762486175849
 21
-94.74589077162844
 31
0.0
  0
LINE
  5
E5B6
330
A
100
AcDbEntity
  8
0
  6
Continuous
 62
     7
370
    25
100
AcDbLine
 10
174.3951049050102
 20
-117.1704882181332
 30
0.0
 11
173.5733656477196
 21
-116.6961082423611
 31
0.0
  0
LINE
  5
E5B7
330
A
100
AcDbEntity
  8
0
  6
Continuous
 62
     7
370
    25
100
AcDbLine
 10
166.6437200745422
 20
-121.5735337531894
 30
0.0
 11
166.1841004960761
 21
-121.838866488072
 31
0.0
  0
ARC
  5
E5B8
330
A
100
AcDbEntity
  8
0
  6
Continuous
 62
     7
370
    25
100
AcDbCircle
 10
166.3952872784894
 20
-121.1851520371713
 30
0.0
 40
0.4610414422711306
100
AcDbArc
 50
302.6054783398512
 51
357.3945215143458
  0
LINE
  5
E5B9
330
A
100
AcDbEntity
  8
0
  6
Continuous
 62
     7
370
    25
100
AcDbLine
 10
166.8558521088989
 20
-119.0831041819477
 30
0.0
 11
166.8558521088989
 21
-121.2061102928499
 31
0.0
  0
ARC
  5
E5BA
330
A
100
AcDbEntity
  8
0
  6
Continuous
 62
     7
370
    25
100
AcDbCircle
 10
166.7265297986696
 20
-119.0621260228779
 30
0.0
 40
0.1310127592297981
100
AcDbArc
 50
350.785963009838
 51
129.2032852354602
  0
LINE
  5
E5BB
330
A
100
AcDbEntity
  8
0
  6
Continuous
 62
     7
370
    25
100
AcDbLine
 10
158.2291493784223
 20
-123.8182314205003
 30
0.0
 11
166.6437200745422
 21
-118.9606031551555
 31
0.0
  0
ARC
  5
E5BC
330
A
100
AcDbEntity
  8
0
  6
Continuous
 62
     7
370
    25
100
AcDbCircle
 10
158.4775821744788
 20
-124.2066131365202
 30
0.0
 40
0.4610414422750063
100
AcDbArc
 50
122.6054783400798
 51
177.3945215140866
  0
LINE
  5
E5BD
330
A
100
AcDbEntity
  8
0
  6
Continuous
 62
     7
370
    25
100
AcDbLine
 10
158.0170173440656
 20
-126.308660991743
 30
0.0
 11
158.0170173440656
 21
-124.1856548808398
 31
0.0
  0
ARC
  5
E5BE
330
A
100
AcDbEntity
  8
0
  6
Continuous
 62
     7
370
    25
100
AcDbCircle
 10
158.146339654294
 20
-126.3296391508127
 30
0.0
 40
0.1310127592290049
100
AcDbArc
 50
170.78596300977
 51
309.2032852357294
  0
LINE
  5
E5BF
330
A
100
AcDbEntity
  8
0
  6
Continuous
 62
     7
370
    25
100
AcDbLine
 10
158.6887687861945
 20
-126.1658293821918
 30
0.0
 11
158.2291493784223
 21
-126.4311620185352
 31
0.0
  0
ARC
  5
E5C0
330
A
100
AcDbEntity
  8
0
  6
Continuous
 62
     7
370
    25
100
AcDbCircle
 10
158.7715785103219
 20
-126.2673522499147
 30
0.0
 40
0.1310127592291348
100
AcDbArc
 50
350.7859630097842
 51
129.2032852351698
  0
LINE
  5
E5C1
330
A
100
AcDbEntity
  8
0
  6
Continuous
 62
     7
370
    25
100
AcDbLine
 10
158.9009008205503
 20
-127.513141626813
 30
0.0
 11
158.9009008205503
 21
-126.2883304089844
 31
0.0
  0
LINE
  5
E5C2
330
A
100
AcDbEntity
  8
0
  6
Continuous
 62
     7
370
    25
100
AcDbLine
 10
156.991712492907
 20
-128.6152925884187
 30
0.0
 11
158.9009008205503
 21
-127.513141626813
 31
0.0
  0
ARC
  5
E5C3
330
A
100
AcDbEntity
  8
0
  6
Continuous
 62
     7
370
    25
100
AcDbCircle
 10
156.9089027687796
 20
-128.5137697206954
 30
0.0
 40
0.1310127592291348
100
AcDbArc
 50
170.7859630099803
 51
309.2032852351698
  0
LINE
  5
E5C4
330
A
100
AcDbEntity
  8
0
  6
Continuous
 62
     7
370
    25
100
AcDbLine
 10
156.7795804585512
 20
-100.4037876327568
 30
0.0
 11
156.7795804585512
 21
-128.4927915616261
 31
0.0
  0
ARC
  5
E5C5
330
A
100
AcDbEntity
  8
0
  6
Continuous
 62
     7
370
    25
100
AcDbCircle
 10
157.2401452576332
 20
-100.4247457423965
 30
0.0
 40
0.4610414043371057
100
AcDbArc
 50
122.6054752474221
 51
177.394539467493
  0
LINE
  5
E5C6
330
A
100
AcDbEntity
  8
0
  6
Continuous
 62
     7
370
    25
100
AcDbLine
 10
160.1029823301287
 20
-98.24026632640724
 30
0.0
 11
156.9917125029833
 21
-100.0363640449266
 31
0.0
  0
ARC
  5
E5C7
330
A
100
AcDbEntity
  8
0
  6
Continuous
 62
     7
370
    25
100
AcDbCircle
 10
160.185792054257
 20
-98.34178919412923
 30
0.0
 40
0.1310127592290049
100
AcDbArc
 50
350.78596300958
 51
129.2032852357295
  0
LINE
  5
E5C8
330
A
100
AcDbEntity
  8
0
  6
Continuous
 62
     7
370
    25
100
AcDbLine
 10
160.3151143644845
 20
-100.5266005046977
 30
0.0
 11
160.3151143644845
 21
-98.36276735319942
 31
0.0
  0
ARC
  5
E5C9
330
A
100
AcDbEntity
  8
0
  6
Continuous
 62
     7
370
    25
100
AcDbCircle
 10
159.8545493587353
 20
-100.5056412700449
 30
0.0
 40
0.461041661933224
100
AcDbArc
 50
302.605479672329
 51
357.3944009689666
  0
LINE
  5
E5CA
330
A
100
AcDbEntity
  8
0
  6
Continuous
 62
     7
370
    25
100
AcDbLine
 10
159.8201396176528
 20
-101.0573055874009
 30
0.0
 11
160.1029822821856
 21
-100.8940231653285
 31
0.0
  0
ARC
  5
E5CB
330
A
100
AcDbEntity
  8
0
  6
Continuous
 62
     7
370
    25
100
AcDbCircle
 10
159.7373298935254
 20
-100.955782719678
 30
0.0
 40
0.1310127592289003
100
AcDbArc
 50
170.7859630097744
 51
309.2032852352698
  0
LINE
  5
E5CC
330
A
100
AcDbEntity
  8
0
  6
Continuous
 62
     7
370
    25
100
AcDbLine
 10
159.608007583297
 20
-99.99578262693947
 30
0.0
 11
159.608007583297
 21
-100.9348045606082
 31
0.0
  0
ARC
  5
E5CD
330
A
100
AcDbEntity
  8
0
  6
Continuous
 62
     7
370
    25
100
AcDbCircle
 10
159.4786852730695
 20
-99.97480446786929
 30
0.0
 40
0.1310127592283001
100
AcDbArc
 50
350.7859630097264
 51
129.2032852359808
  0
LINE
  5
E5CE
330
A
100
AcDbEntity
  8
0
  6
Continuous
 62
     7
370
    25
100
AcDbLine
 10
158.7594794458728
 20
-100.2406652504681
 30
0.0
 11
159.3958755489411
 21
-99.87328160014775
 31
0.0
  0
ARC
  5
E5CF
330
A
100
AcDbEntity
  8
0
  6
Continuous
 62
     7
370
    25
100
AcDbCircle
 10
159.0079122419238
 20
-100.6290469664825
 30
0.0
 40
0.4610414422680838
100
AcDbArc
 50
122.6054783398293
 51
177.3945215146715
  0
LINE
  5
E5D0
330
A
100
AcDbEntity
  8
0
  6
Continuous
 62
     7
370
    25
100
AcDbLine
 10
158.547347411517
 20
-105.8339499068759
 30
0.0
 11
158.547347411517
 21
-100.6080887108072
 31
0.0
  0
ARC
  5
E5D1
330
A
100
AcDbEntity
  8
0
  6
Continuous
 62
     7
370
    25
100
AcDbCircle
 10
158.6766697217445
 20
-105.8549280659466
 30
0.0
 40
0.1310127592286525
100
AcDbArc
 50
170.7859630093723
 51
309.2032852358551
  0
LINE
  5
E5D2
330
A
100
AcDbEntity
  8
0
  6
Continuous
 62
     7
370
    25
100
AcDbLine
 10
159.3958755489402
 20
-105.5890672833482
 30
0.0
 11
158.7594794458728
 21
-105.9564509336685
 31
0.0
  0
ARC
  5
E5D3
330
A
100
AcDbEntity
  8
0
  6
Continuous
 62
     7
370
    25
100
AcDbCircle
 10
159.1474427528874
 20
-105.200685567331
 30
0.0
 40
0.4610414422709335
100
AcDbArc
 50
302.6054783398712
 51
357.3945215143482
  0
LINE
  5
E5D4
330
A
100
AcDbEntity
  8
0
  6
Continuous
 62
     7
370
    25
100
AcDbLine
 10
159.608007583297
 20
-104.2826218893399
 30
0.0
 11
159.608007583297
 21
-105.2216438230091
 31
0.0
  0
ARC
  5
E5D5
330
A
100
AcDbEntity
  8
0
  6
Continuous
 62
     7
370
    25
100
AcDbCircle
 10
160.0685724729001
 20
-104.3035806104292
 30
0.0
 40
0.461041522560423
100
AcDbArc
 50
122.6054654565647
 51
177.3944640697281
  0
LINE
  5
E5D6
330
A
100
AcDbEntity
  8
0
  6
Continuous
 62
     7
370
    25
100
AcDbLine
 10
160.1029823301287
 20
-103.7519168066358
 30
0.0
 11
159.8201397209132
 21
-103.9151987709145
 31
0.0
  0
ARC
  5
E5D7
330
A
100
AcDbEntity
  8
0
  6
Continuous
 62
     7
370
    25
100
AcDbCircle
 10
160.1857919899239
 20
-103.8534397076467
 30
0.0
 40
0.1310127443614204
100
AcDbArc
 50
350.7859629602013
 51
129.2032542320758
  0
LINE
  5
E5D8
330
A
100
AcDbEntity
  8
0
  6
Continuous
 62
     7
370
    25
100
AcDbLine
 10
160.3151143644845
 20
-106.0382509849253
 30
0.0
 11
160.3151142854585
 21
-103.8744178644477
 31
0.0
  0
ARC
  5
E5D9
330
A
100
AcDbEntity
  8
0
  6
Continuous
 62
     7
370
    25
100
AcDbCircle
 10
159.8545494794298
 20
-106.0172923730004
 30
0.0
 40
0.4610415130545095
100
AcDbArc
 50
302.6054737018704
 51
357.3944775963732
  0
LINE
  5
E5DA
330
A
100
AcDbEntity
  8
0
  6
Continuous
 62
     7
370
    25
100
AcDbLine
 10
158.7594794458728
 20
-107.1812621514967
 30
0.0
 11
160.1029822821856
 21
-106.4056741687562
 31
0.0
  0
ARC
  5
E5DB
330
A
100
AcDbEntity
  8
0
  6
Continuous
 62
     7
370
    25
100
AcDbCircle
 10
159.0079122419311
 20
-107.5696438675152
 30
0.0
 40
0.4610414422755176
100
AcDbArc
 50
122.6054783403161
 51
177.394521514261
  0
LINE
  5
E5DC
330
A
100
AcDbEntity
  8
0
  6
Continuous
 62
     7
370
    25
100
AcDbLine
 10
158.547347411517
 20
-120.7766467643853
 30
0.0
 11
158.547347411517
 21
-107.5486856118362
 31
0.0
  0
ARC
  5
E5DD
330
A
100
AcDbEntity
  8
0
  6
Continuous
 62
     7
370
    25
100
AcDbCircle
 10
158.9784217789438
 20
-120.8465739612855
 30
0.0
 40
0.4367091974286407
100
AcDbArc
 50
170.7859630096115
 51
309.2032852356713
  0
LINE
  5
E5DE
330
A
100
AcDbEntity
  8
0
  6
Continuous
 62
     7
370
    25
100
AcDbLine
 10
167.3861819392732
 20
-116.4906371511231
 30
0.0
 11
159.2544541927036
 21
-121.1849835203591
 31
0.0
  0
LINE
  5
E5DF
330
A
100
AcDbEntity
  8
0
  6
Continuous
 62
     7
370
    25
100
AcDbLine
 10
169.1539491819995
 20
-117.5114788281565
 30
0.0
 11
167.3861819392732
 21
-116.4906371511231
 31
0.0
  0
LINE
  5
E5E0
330
A
100
AcDbEntity
  8
0
  6
Continuous
 62
     7
370
    25
100
AcDbLine
 10
169.8610560790894
 20
-117.1032747053348
 30
0.0
 11
169.1539491819995
 21
-117.5114788281565
 31
0.0
  0
LINE
  5
E5E1
330
A
100
AcDbEntity
  8
0
  6
Continuous
 62
     7
370
    25
100
AcDbLine
 10
170.2146088690906
 20
-117.3074434969579
 30
0.0
 11
169.8610560790894
 21
-117.1032747053348
 31
0.0
  0
LINE
  5
E5E2
330
A
100
AcDbEntity
  8
0
  6
Continuous
 62
     7
370
    25
100
AcDbLine
 10
170.5681629761802
 20
-116.6950705825141
 30
0.0
 11
170.2146088690906
 21
-117.3074434969579
 31
0.0
  0
LINE
  5
E5E3
330
A
100
AcDbEntity
  8
0
  6
Continuous
 62
     7
370
    25
100
AcDbLine
 10
171.2752698732702
 20
-116.2868664596924
 30
0.0
 11
170.5681629761802
 21
-116.6950705825141
 31
0.0
  0
LINE
  5
E5E4
330
A
100
AcDbEntity
  8
0
  6
Continuous
 62
     7
370
    25
100
AcDbLine
 10
173.0430364574522
 20
-113.2250045487229
 30
0.0
 11
171.2752698732702
 21
-116.2868664596924
 31
0.0
  0
LINE
  5
E5E5
330
A
100
AcDbEntity
  8
0
  6
Continuous
 62
     7
370
    25
100
AcDbLine
 10
181.1747635454767
 20
-108.5306582858896
 30
0.0
 11
173.0430364574522
 21
-113.2250045487229
 31
0.0
  0
ARC
  5
E5E6
330
A
100
AcDbEntity
  8
0
  6
Continuous
 62
     7
370
    25
100
AcDbCircle
 10
180.3466542252982
 20
-107.2360525658344
 30
0.0
 40
1.53680480756878
100
AcDbArc
 50
302.605478339999
 51
357.39452151442
  0
LINE
  5
E5E7
330
A
100
AcDbEntity
  8
0
  6
Continuous
 62
     7
370
    25
100
AcDbLine
 10
181.8818712670654
 20
-94.07795172266086
 30
0.0
 11
181.8818703266625
 21
-107.3059134180928
 31
0.0
  0
ARC
  5
E5E8
330
A
100
AcDbEntity
  8
0
  6
Continuous
 62
     7
370
    25
100
AcDbCircle
 10
181.752548956837
 20
-94.05697356359022
 30
0.0
 40
0.131012759229046
100
AcDbArc
 50
350.7859630093818
 51
129.2032852356691
  0
LINE
  5
E5E9
330
A
100
AcDbEntity
  8
0
  6
Continuous
 62
     7
370
    25
100
AcDbLine
 10
180.3262363484546
 20
-94.7310384021005
 30
0.0
 11
181.6697392327096
 21
-93.95545069586822
 31
0.0
  0
ARC
  5
E5EA
330
A
100
AcDbEntity
  8
0
  6
Continuous
 62
     7
370
    25
100
AcDbCircle
 10
180.2434266875807
 20
-94.62951551962558
 30
0.0
 40
0.1310127306793453
100
AcDbArc
 50
170.7859969032336
 51
309.2032597214529
  0
LINE
  5
E5EB
330
A
100
AcDbEntity
  8
0
  6
Continuous
 62
     7
370
    25
100
AcDbLine
 10
180.1141043140988
 20
-92.44470422381053
 30
0.0
 11
180.1141043931248
 21
-94.60853744162821
 31
0.0
  0
ARC
  5
E5EC
330
A
100
AcDbEntity
  8
0
  6
Continuous
 62
     7
370
    25
100
AcDbCircle
 10
180.5746692216162
 20
-92.4656629515969
 30
0.0
 40
0.4610415407615026
100
AcDbArc
 50
122.605474813269
 51
177.3944633395242
  0
LINE
  5
E5ED
330
A
100
AcDbEntity
  8
0
  6
Continuous
 62
     7
370
    25
100
AcDbLine
 10
180.6090790609296
 20
-91.91399914110778
 30
0.0
 11
180.3262363963968
 21
-92.07728113732017
 31
0.0
  0
ARC
  5
E5EE
330
A
100
AcDbEntity
  8
0
  6
Continuous
 62
     7
370
    25
100
AcDbCircle
 10
180.6918887850579
 20
-92.01552200883023
 30
0.0
 40
0.1310127592290049
100
AcDbArc
 50
350.7859630097701
 51
129.2032852357295
  0
LINE
  5
E5EF
330
A
100
AcDbEntity
  8
0
  6
Continuous
 62
     7
370
    25
100
AcDbLine
 10
180.8212109609422
 20
-93.22048447971909
 30
0.0
 11
180.8212110952863
 21
-92.03650016789996
 31
0.0
  0
LINE
  5
E5F0
330
A
100
AcDbEntity
  8
0
  6
Continuous
 62
     7
370
    25
100
AcDbLine
 10
181.6697401871688
 20
-92.7306387803358
 30
0.0
 11
180.8212109609422
 21
-93.22048447971909
 31
0.0
  0
ARC
  5
E5F1
330
A
100
AcDbEntity
  8
0
  6
Continuous
 62
     7
370
    25
100
AcDbCircle
 10
181.4213074029658
 20
-92.34225705673933
 30
0.0
 40
0.461041442270101
100
AcDbArc
 50
302.6054765918018
 51
357.3945197662101
  0
LINE
  5
E5F2
330
A
100
AcDbEntity
  8
0
  6
Continuous
 62
     7
370
    25
100
AcDbLine
 10
181.8818724718776
 20
-87.13735399234682
 30
0.0
 11
181.8818722327351
 21
-92.3632153264696
 31
0.0
  0
ARC
  5
E5F3
330
A
100
AcDbEntity
  8
0
  6
Continuous
 62
     7
370
    25
100
AcDbCircle
 10
181.7525501635673
 20
-87.11637582144138
 30
0.0
 40
0.1310127592306955
100
AcDbArc
 50
350.7859577661337
 51
129.2032799913881
  0
LINE
  5
E5F4
330
A
100
AcDbEntity
  8
0
  6
Continuous
 62
     7
370
    25
100
AcDbLine
 10
181.0333443456639
 20
-87.38223659645817
 30
0.0
 11
181.6697404487313
 21
-87.01485294613829
 31
0.0
  0
ARC
  5
E5F5
330
A
100
AcDbEntity
  8
0
  6
Continuous
 62
     7
370
    25
100
AcDbCircle
 10
181.2817771298733
 20
-87.77061832005828
 30
0.0
 40
0.4610414422767461
100
AcDbArc
 50
122.6054765922084
 51
177.3945197657384
  0
LINE
  5
E5F6
330
A
100
AcDbEntity
  8
0
  6
Continuous
 62
     7
370
    25
100
AcDbLine
 10
180.8212123000976
 20
-88.68868198399312
 30
0.0
 11
180.8212123000976
 21
-87.74966005032437
 31
0.0
  0
ARC
  5
E5F7
330
A
100
AcDbEntity
  8
0
  6
Continuous
 62
     7
370
    25
100
AcDbCircle
 10
180.3606473129048
 20
-88.66772274198573
 30
0.0
 40
0.4610416437301932
100
AcDbArc
 50
302.605468567509
 51
357.3943999510807
  0
LINE
  5
E5F8
330
A
100
AcDbEntity
  8
0
  6
Continuous
 62
     7
370
    25
100
AcDbLine
 10
180.3262375420582
 20
-89.21938704296352
 30
0.0
 11
180.6090801512719
 21
-89.05610467008572
 31
0.0
  0
ARC
  5
E5F9
330
A
100
AcDbEntity
  8
0
  6
Continuous
 62
     7
370
    25
100
AcDbCircle
 10
180.2434278272221
 20
-89.11786416765952
 30
0.0
 40
0.131012759230586
100
AcDbArc
 50
170.7859577667183
 51
309.2032799909285
  0
LINE
  5
E5FA
330
A
100
AcDbEntity
  8
0
  6
Continuous
 62
     7
370
    25
100
AcDbLine
 10
180.1141056179322
 20
-86.93305278809501
 30
0.0
 11
180.1141055189119
 21
-89.09688599675545
 31
0.0
  0
ARC
  5
E5FB
330
A
100
AcDbEntity
  8
0
  6
Continuous
 62
     7
370
    25
100
AcDbCircle
 10
180.5746704041057
 20
-86.95401090720114
 30
0.0
 40
0.4610413918728001
100
AcDbArc
 50
122.6054670941243
 51
177.3945382193482
  0
LINE
  5
E5FC
330
A
100
AcDbEntity
  8
0
  6
Continuous
 62
     7
370
    25
100
AcDbLine
 10
183.4375075007183
 20
-84.76953167807486
 30
0.0
 11
180.3262377114397
 21
-86.56562918487842
 31
0.0
  0
ARC
  5
E5FD
330
A
100
AcDbEntity
  8
0
  6
Continuous
 62
     7
370
    25
100
AcDbCircle
 10
183.5203172155552
 20
-84.87105455337795
 30
0.0
 40
0.1310127592304561
100
AcDbArc
 50
350.7859577661158
 51
129.2032799914881
  0
LINE
  5
E5FE
330
A
100
AcDbEntity
  8
0
  6
Continuous
 62
     7
370
    25
100
AcDbLine
 10
183.6496382384703
 20
-112.9810373951953
 30
0.0
 11
183.6496395238646
 21
-84.89203272428338
 31
0.0
  0
ARC
  5
E5FF
330
A
100
AcDbEntity
  8
0
  6
Continuous
 62
     7
370
    25
100
AcDbCircle
 10
183.1890734086983
 20
-112.9600791254641
 30
0.0
 40
0.4610414422729773
100
AcDbArc
 50
302.6054765921054
 51
357.3945197661698
  0
LINE
  5
E600
330
A
100
AcDbEntity
  8
0
  6
Continuous
 62
     7
370
    25
100
AcDbLine
 10
181.528316897874
 20
-114.4506123691274
 30
0.0
 11
183.437506192904
 21
-113.3484608490615
 31
0.0
  0
LINE
  5
E601
330
A
100
AcDbEntity
  8
0
  6
Continuous
 62
     7
370
    25
100
AcDbLine
 10
181.528316897874
 20
-113.2258012425534
 30
0.0
 11
181.528316897874
 21
-114.4506123691274
 31
0.0
  0
ARC
  5
E602
330
A
100
AcDbEntity
  8
0
  6
Continuous
 62
     7
370
    25
100
AcDbCircle
 10
181.9888817282863
 20
-113.246759498232
 30
0.0
 40
0.4610414422736798
100
AcDbArc
 50
122.6054783401893
 51
177.3945215143071
  0
LINE
  5
E603
330
A
100
AcDbEntity
  8
0
  6
Continuous
 62
     7
370
    25
100
AcDbLine
 10
182.2000683328897
 20
-112.5930451499774
 30
0.0
 11
181.7404489322298
 21
-112.8583777822144
 31
0.0
  0
ARC
  5
E604
330
A
100
AcDbEntity
  8
0
  6
Continuous
 62
     7
370
    25
100
AcDbCircle
 10
181.9516355520773
 20
-112.2046634355209
 30
0.0
 40
0.4610414327440328
100
AcDbArc
 50
302.6054768488645
 51
357.3945253063541
  0
LINE
  5
E605
330
A
100
AcDbEntity
  8
0
  6
Continuous
 62
     7
370
    25
100
AcDbLine
 10
182.4122003743569
 20
-110.102615604744
 30
0.0
 11
182.4122003743569
 21
-112.2256216602848
 31
0.0
  0
ARC
  5
E606
330
A
100
AcDbEntity
  8
0
  6
Continuous
 62
     7
370
    25
100
AcDbCircle
 10
182.2828780705404
 20
-110.0816373962369
 30
0.0
 40
0.1310127608162252
100
AcDbArc
 50
350.7859412192889
 51
129.2032667317545
  0
LINE
  5
E607
330
A
100
AcDbEntity
  8
0
  6
Continuous
 62
     7
370
    25
100
AcDbLine
 10
173.7854979749973
 20
-114.8377425967858
 30
0.0
 11
182.2000683781962
 21
-109.9801145005406
 31
0.0
  0
ARC
  5
E608
330
A
100
AcDbEntity
  8
0
  6
Continuous
 62
     7
370
    25
100
AcDbCircle
 10
174.0339304043418
 20
-115.2261244638196
 30
0.0
 40
0.4610413718862053
100
AcDbArc
 50
122.6054298365995
 51
177.3945120134664
  0
LINE
  5
E609
330
A
100
AcDbEntity
  8
0
  6
Continuous
 62
     7
370
    25
100
AcDbLine
 10
173.5733656477196
 20
-117.3281723070138
 30
0.0
 11
173.5733656477196
 21
-115.2051661349695
 31
0.0
  0
ARC
  5
E60A
330
A
100
AcDbEntity
  8
0
  6
Continuous
 62
     7
370
    25
100
AcDbCircle
 10
173.7026879582399
 20
-117.3491504159481
 30
0.0
 40
0.1310127514892522
100
AcDbArc
 50
170.7859846730342
 51
309.2032908043548
  0
LINE
  5
E60B
330
A
100
AcDbEntity
  8
0
  6
Continuous
 62
     7
370
    25
100
AcDbLine
 10
174.2451170951144
 20
-117.1853406332823
 30
0.0
 11
173.7854976873432
 21
-117.4506732696248
 31
0.0
  0
ARC
  5
E60C
330
A
100
AcDbEntity
  8
0
  6
Continuous
 62
     7
370
    25
100
AcDbCircle
 10
174.3279268192427
 20
-117.2868635010043
 30
0.0
 40
0.1310127592297981
100
AcDbArc
 50
350.785963009838
 51
129.2032852359416
  0
LINE
  5
E60D
330
A
100
AcDbEntity
  8
0
  6
Continuous
 62
     7
370
    25
100
AcDbLine
 10
174.4572489398097
 20
-118.5326529873917
 30
0.0
 11
174.4572491294712
 21
-117.307841660074
 31
0.0
  0
LINE
  5
E60E
330
A
100
AcDbEntity
  8
0
  6
Continuous
 62
     7
370
    25
100
AcDbLine
 10
172.5127066323448
 20
-119.6552133671219
 30
0.0
 11
174.4572489398097
 21
-118.5326529873917
 31
0.0
  0
LWPOLYLINE
  5
E60F
330
A
100
AcDbEntity
  8
0
  6
Continuous
 62
     7
370
    25
100
AcDbPolyline
 90
       10
 70
   128
 43
0.0
 10
167.9165122806771
 20
-122.3085398886963
 10
168.0553155196867
 20
-121.3210184308416
 10
168.4544481595403
 20
-120.2927197296638
 10
169.0657898590389
 20
-119.347617821398
 10
169.815635868852
 20
-118.5996563472138
 10
170.6135830441708
 20
-118.1390112480097
 10
171.363429053984
 20
-118.0212189473498
 10
171.9747707534825
 20
-118.2604807536038
 10
172.3739033933361
 20
-118.8279507178225
 10
172.5127066323448
 20
-119.6552133671219
  0
LINE
  5
E610
330
A
100
AcDbEntity
  8
0
  6
Continuous
 62
     7
370
    25
100
AcDbLine
 10
165.9719688220757
 20
-123.4311009329633
 30
0.0
 11
167.9165122806771
 21
-122.3085398886963
 31
0.0
  0
LINE
  5
E611
330
A
100
AcDbEntity
  8
0
  6
Continuous
 62
     7
370
    25
100
AcDbLine
 10
165.9719686324152
 20
-122.2062898246243
 30
0.0
 11
165.9719688220757
 21
-123.4311009329633
 31
0.0
  0
ARC
  5
E612
330
A
100
AcDbEntity
  8
0
  6
Continuous
 62
     7
370
    25
100
AcDbCircle
 10
166.4325335239191
 20
-122.2272481310072
 30
0.0
 40
0.4610415056071392
100
AcDbArc
 50
122.6055074997485
 51
177.3945155646852
  0
LINE
  5
E613
330
A
100
AcDbEntity
  8
0
  6
Continuous
 62
     7
370
    25
100
AcDbLine
 10
156.9917125029833
 20
-100.0363640449266
 30
0.0
 11
37.40836044582625
 21
-31.00236522541923
 31
0.0
  0
LINE
  5
E614
330
A
100
AcDbEntity
  8
0
  6
Continuous
 62
     7
370
    25
100
AcDbLine
 10
156.7795804585512
 20
-100.4037876327568
 30
0.0
 11
37.19622840139505
 21
-31.36978881324899
 31
0.0
  0
ARC
  5
E615
330
A
100
AcDbEntity
  8
0
  6
Continuous
 62
     7
370
    25
100
AcDbCircle
 10
37.65679320047525
 20
-31.39074692288818
 30
0.0
 40
0.4610414043351861
100
AcDbArc
 50
122.6054752474441
 51
177.3945394674821
  0
LINE
  5
E616
330
A
100
AcDbEntity
  8
0
  6
Continuous
 62
     7
370
    25
100
AcDbLine
 10
156.7795804585512
 20
-128.4927915616261
 30
0.0
 11
37.19622840139505
 21
-59.4587927421187
 31
0.0
  0
LINE
  5
E617
330
A
100
AcDbEntity
  8
0
  6
Continuous
 62
     7
370
    25
100
AcDbLine
 10
37.19622840139505
 20
-31.36978881324899
 30
0.0
 11
37.19622840139505
 21
-59.4587927421187
 31
0.0
  0
LINE
  5
E618
330
A
100
AcDbEntity
  8
0
  6
Continuous
 62
     7
370
    25
100
AcDbLine
 10
160.1029823301287
 20
-98.24026632640724
 30
0.0
 11
40.51963027297211
 21
-29.20626750689985
 31
0.0
  0
LINE
  5
E619
330
A
100
AcDbEntity
  8
0
  6
Continuous
 62
     7
370
    25
100
AcDbLine
 10
40.51963027297211
 20
-29.20626750689985
 30
0.0
 11
37.40836044582625
 21
-31.00236522541923
 31
0.0
  0
ARC
  5
E61A
330
A
100
AcDbEntity
  8
0
  6
Continuous
 62
     7
370
    25
100
AcDbCircle
 10
40.60750628942674
 20
-29.32893190563368
 30
0.0
 40
0.1508931707688491
100
AcDbArc
 50
65.69288095345131
 51
125.6175774754091
  0
LINE
  5
E61B
330
A
100
AcDbEntity
  8
0
  6
Continuous
 62
     7
370
    25
100
AcDbLine
 10
167.3861819392732
 20
-116.4906371511231
 30
0.0
 11
158.547347411517
 21
-111.3880865890917
 31
0.0
  0
LINE
  5
E61C
330
A
100
AcDbEntity
  8
0
  6
Continuous
 62
     7
370
    25
100
AcDbLine
 10
180.3262377114397
 20
-86.56562918487842
 30
0.0
 11
60.74288565428355
 21
-17.53163036537148
 31
0.0
  0
LINE
  5
E61D
330
A
100
AcDbEntity
  8
0
  6
Continuous
 62
     7
370
    25
100
AcDbLine
 10
180.1141056179322
 20
-86.93305278809501
 30
0.0
 11
60.53075356077557
 21
-17.89905396858762
 31
0.0
  0
ARC
  5
E61E
330
A
100
AcDbEntity
  8
0
  6
Continuous
 62
     7
370
    25
100
AcDbCircle
 10
60.99131834695004
 20
-17.9200120876942
 30
0.0
 40
0.4610413918732498
100
AcDbArc
 50
122.6054670941559
 51
177.3945382192907
  0
LINE
  5
E61F
330
A
100
AcDbEntity
  8
0
  6
Continuous
 62
     7
370
    25
100
AcDbLine
 10
180.1141055189119
 20
-89.09688599675545
 30
0.0
 11
60.53075346175478
 21
-20.06288717724806
 31
0.0
  0
LINE
  5
E620
330
A
100
AcDbEntity
  8
0
  6
Continuous
 62
     7
370
    25
100
AcDbLine
 10
60.53075356077557
 20
-17.89905396858762
 30
0.0
 11
60.53075346175478
 21
-20.06288717724806
 31
0.0
  0
LINE
  5
E621
330
A
100
AcDbEntity
  8
0
  6
Continuous
 62
     7
370
    25
100
AcDbLine
 10
183.4375075007183
 20
-84.76953167807486
 30
0.0
 11
63.85415544356169
 21
-15.73553285856747
 31
0.0
  0
LINE
  5
E622
330
A
100
AcDbEntity
  8
0
  6
Continuous
 62
     7
370
    25
100
AcDbLine
 10
63.85415544356169
 20
-15.73553285856747
 30
0.0
 11
60.74288565428355
 21
-17.53163036537148
 31
0.0
  0
ARC
  5
E623
330
A
100
AcDbEntity
  8
0
  6
Continuous
 62
     7
370
    25
100
AcDbCircle
 10
37.33893406879974
 20
-59.47696195041203
 30
0.0
 40
0.1438576645142463
100
AcDbArc
 50
172.7441705825614
 51
235.9436490240709
  0
ARC
  5
E624
330
A
100
AcDbEntity
  8
0
  6
Continuous
 62
     7
370
    25
100
AcDbCircle
 10
60.67345913267923
 20
-20.08105639518021
 30
0.0
 40
0.1438576692233129
100
AcDbArc
 50
172.7441669514139
 51
235.9436485999805
  0
LINE
  5
E625
330
A
100
AcDbEntity
  8
0
  6
Continuous
 62
     7
370
    25
100
AcDbLine
 10
181.8818722327351
 20
-92.3632153264696
 30
0.0
 11
62.29852017557891
 21
-23.32921650696221
 31
0.0
  0
LINE
  5
E626
330
A
100
AcDbEntity
  8
0
  6
Continuous
 62
     7
370
    25
100
AcDbLine
 10
62.29852027370703
 20
-21.18487559334767
 30
0.0
 11
62.29852017557891
 21
-23.32921650696221
 31
0.0
  0
ARC
  5
E627
330
A
100
AcDbEntity
  8
0
  6
Continuous
 62
     7
370
    25
100
AcDbCircle
 10
63.94203144922835
 20
-15.85819725514762
 30
0.0
 40
0.1508931627357552
100
AcDbArc
 50
65.69287975120064
 51
125.6175746215984
  0
LINE
  5
E628
330
A
100
AcDbEntity
  8
0
  6
Continuous
 62
     7
370
    25
100
AcDbLine
 10
180.3262363963968
 20
-92.07728113732017
 30
0.0
 11
60.74288433924107
 21
-23.04328231781278
 31
0.0
  0
LINE
  5
E629
330
A
100
AcDbEntity
  8
0
  6
Continuous
 62
     7
370
    25
100
AcDbLine
 10
180.1141043140988
 20
-92.44470422381053
 30
0.0
 11
60.53075225694261
 21
-23.41070540430314
 31
0.0
  0
ARC
  5
E62A
330
A
100
AcDbEntity
  8
0
  6
Continuous
 62
     7
370
    25
100
AcDbCircle
 10
60.99131716445777
 20
-23.43166413208769
 30
0.0
 40
0.4610415407583112
100
AcDbArc
 50
122.6054748131202
 51
177.3944633397325
  0
LINE
  5
E62B
330
A
100
AcDbEntity
  8
0
  6
Continuous
 62
     7
370
    25
100
AcDbLine
 10
180.1141043931248
 20
-94.60853744162821
 30
0.0
 11
60.53075233596769
 21
-25.57453862212083
 31
0.0
  0
LINE
  5
E62C
330
A
100
AcDbEntity
  8
0
  6
Continuous
 62
     7
370
    25
100
AcDbLine
 10
60.53075225694261
 20
-23.41070540430314
 30
0.0
 11
60.53075233596769
 21
-25.57453862212083
 31
0.0
  0
LINE
  5
E62D
330
A
100
AcDbEntity
  8
0
  6
Continuous
 62
     7
370
    25
100
AcDbLine
 10
180.6090790609296
 20
-91.91399914110778
 30
0.0
 11
61.02572700377345
 21
-22.88000032159994
 31
0.0
  0
LINE
  5
E62E
330
A
100
AcDbEntity
  8
0
  6
Continuous
 62
     7
370
    25
100
AcDbLine
 10
61.02572700377345
 20
-22.88000032159994
 30
0.0
 11
60.74288433924107
 21
-23.04328231781278
 31
0.0
  0
ARC
  5
E62F
330
A
100
AcDbEntity
  8
0
  6
Continuous
 62
     7
370
    25
100
AcDbCircle
 10
61.11360302022808
 20
-23.00266472033513
 30
0.0
 40
0.1508931707702938
100
AcDbArc
 50
65.69288095369896
 51
125.6175774750163
  0
ARC
  5
E630
330
A
100
AcDbEntity
  8
0
  6
Continuous
 62
     7
370
    25
100
AcDbCircle
 10
60.67345796447012
 20
-25.59270775088112
 30
0.0
 40
0.1438576158785207
100
AcDbArc
 50
172.744200048516
 51
235.9436546326801
  0
ARC
  5
E631
330
A
100
AcDbEntity
  8
0
  6
Continuous
 62
     7
370
    25
100
AcDbCircle
 10
61.8826319611278
 20
-23.31695568032478
 30
0.0
 40
0.4160689062998439
100
AcDbArc
 50
335.2232034406379
 51
358.311348624024
  0
LINE
  5
E632
330
A
100
AcDbEntity
  8
0
  6
Continuous
 62
     7
370
    25
100
AcDbLine
 10
181.8818703266625
 20
-107.3059134180928
 30
0.0
 11
62.29851826950676
 21
-38.27191459858545
 31
0.0
  0
LINE
  5
E633
330
A
100
AcDbEntity
  8
0
  6
Continuous
 62
     7
370
    25
100
AcDbLine
 10
62.29851909242393
 20
-26.6965268812985
 30
0.0
 11
62.29851826950676
 21
-38.27191459858545
 31
0.0
  0
LINE
  5
E634
330
A
100
AcDbEntity
  8
0
  6
Continuous
 62
     7
370
    25
100
AcDbLine
 10
165.9719688220757
 20
-123.4311009329633
 30
0.0
 11
162.4358602676148
 21
-121.3897489158733
 31
0.0
  0
LINE
  5
E635
330
A
100
AcDbEntity
  8
0
  6
Continuous
 62
     7
370
    25
100
AcDbLine
 10
169.8610560790894
 20
-117.1032747053348
 30
0.0
 11
158.547347411517
 21
-110.5720097134297
 31
0.0
  0
LINE
  5
E636
330
A
100
AcDbEntity
  8
0
  6
Continuous
 62
     7
370
    25
100
AcDbLine
 10
172.5127066323448
 20
-119.6552133671219
 30
0.0
 11
170.2150294081221
 21
-118.3287925392395
 31
0.0
  0
LINE
  5
E637
330
A
100
AcDbEntity
  8
0
  6
Continuous
 62
     7
370
    25
100
AcDbLine
 10
173.0430364574522
 20
-113.2250045487229
 30
0.0
 11
160.3151143586083
 21
-105.8773315206784
 31
0.0
  0
LINE
  5
E638
330
A
100
AcDbEntity
  8
0
  6
Continuous
 62
     7
370
    25
100
AcDbLine
 10
171.2752698732702
 20
-116.2868664596924
 30
0.0
 11
158.547347411517
 21
-108.939193222145
 31
0.0
  0
LINE
  5
E639
330
A
100
AcDbEntity
  8
0
  6
Continuous
 62
     7
370
    25
100
AcDbLine
 10
170.5681629761802
 20
-116.6950705825141
 30
0.0
 11
158.547347411517
 21
-109.7556014677873
 31
0.0
  0
LINE
  5
E63A
330
A
100
AcDbEntity
  8
0
  6
Continuous
 62
     7
370
    25
100
AcDbLine
 10
181.1747635454767
 20
-108.5306582858896
 30
0.0
 11
61.59141148832055
 21
-39.49665946638265
 31
0.0
  0
LINE
  5
E63B
330
A
100
AcDbEntity
  8
0
  6
Continuous
 62
     7
370
    25
100
AcDbLine
 10
61.59141148832055
 20
-39.49665946638265
 30
0.0
 11
60.05608533277041
 21
-40.38298441586926
 31
0.0
  0
ARC
  5
E63C
330
A
100
AcDbEntity
  8
0
  6
Continuous
 62
     7
370
    25
100
AcDbCircle
 10
60.76330216813517
 20
-38.20205374632246
 30
0.0
 40
1.536804807576812
100
AcDbArc
 50
302.6054783401285
 51
357.3945215142639
  0
LINE
  5
E63D
330
A
100
AcDbEntity
  8
0
  6
Continuous
 62
     7
370
    25
100
AcDbLine
 10
181.528316897874
 20
-114.4506123691274
 30
0.0
 11
177.9922083787169
 21
-112.4092603724169
 31
0.0
  0
LINE
  5
E63E
330
A
100
AcDbEntity
  8
0
  6
Continuous
 62
     8
370
    25
100
AcDbLine
 10
159.608007583297
 20
-99.99578262693947
 30
0.0
 11
159.3958410687173
 21
-99.87330150515643
 31
0.0
  0
LINE
  5
E63F
330
A
100
AcDbEntity
  8
0
  6
Continuous
 62
     8
370
    25
100
AcDbLine
 10
159.608007583297
 20
-100.9348045606082
 30
0.0
 11
158.6281133725752
 21
-100.3691236736147
 31
0.0
  0
LINE
  5
E640
330
A
100
AcDbEntity
  8
0
  6
Continuous
 62
     8
370
    25
100
AcDbLine
 10
158.7594794458728
 20
-105.9564509336685
 30
0.0
 11
158.5473474143182
 21
-105.8339897185126
 31
0.0
  0
LINE
  5
E641
330
A
100
AcDbEntity
  8
0
  6
Continuous
 62
     8
370
    25
100
AcDbLine
 10
159.8201397209132
 20
-103.9151987709145
 30
0.0
 11
158.547347411517
 21
-103.1804314106633
 31
0.0
  0
LINE
  5
E642
330
A
100
AcDbEntity
  8
0
  6
Continuous
 62
     8
370
    25
100
AcDbLine
 10
159.608007583297
 20
-104.2826218893399
 30
0.0
 11
158.547347411517
 21
-103.6703158054727
 31
0.0
  0
LINE
  5
E643
330
A
100
AcDbEntity
  8
0
  6
Continuous
 62
     8
370
    25
100
AcDbLine
 10
159.608007583297
 20
-105.2216438230091
 30
0.0
 11
158.547347411517
 21
-104.6093377391419
 31
0.0
  0
LINE
  5
E644
330
A
100
AcDbEntity
  8
0
  6
Continuous
 62
     8
370
    25
100
AcDbLine
 10
160.1029823301287
 20
-103.7519168066358
 30
0.0
 11
158.547347411517
 21
-102.8538678836301
 31
0.0
  0
LINE
  5
E645
330
A
100
AcDbEntity
  8
0
  6
Continuous
 62
     8
370
    25
100
AcDbLine
 10
159.3958755489402
 20
-105.5890672833482
 30
0.0
 11
158.547347411517
 21
-105.0992224162544
 31
0.0
  0
LINE
  5
E646
330
A
100
AcDbEntity
  8
0
  6
Continuous
 62
     8
370
    25
100
AcDbLine
 10
159.2544541927036
 20
-121.1849835203591
 30
0.0
 11
158.5473474208566
 21
-120.7767794698391
 31
0.0
  0
LINE
  5
E647
330
A
100
AcDbEntity
  8
0
  6
Continuous
 62
     8
370
    25
100
AcDbLine
 10
158.2291493784223
 20
-126.4311620185352
 30
0.0
 11
158.0170173468678
 21
-126.3087008033788
 31
0.0
  0
LINE
  5
E648
330
A
100
AcDbEntity
  8
0
  6
Continuous
 62
     8
370
    25
100
AcDbLine
 10
158.6887687861945
 20
-126.1658293821918
 30
0.0
 11
158.0170173440656
 21
-125.7780355290759
 31
0.0
  0
LINE
  5
E649
330
A
100
AcDbEntity
  8
0
  6
Continuous
 62
     8
370
    25
100
AcDbLine
 10
181.8818724718776
 20
-87.13735399234682
 30
0.0
 11
181.6697059460867
 21
-87.01487286409181
 31
0.0
  0
LINE
  5
E64A
330
A
100
AcDbEntity
  8
0
  6
Continuous
 62
     8
370
    25
100
AcDbLine
 10
181.6697401871688
 20
-92.7306387803358
 30
0.0
 11
180.8212110721051
 21
-92.24079334886281
 31
0.0
  0
LINE
  5
E64B
330
A
100
AcDbEntity
  8
0
  6
Continuous
 62
     8
370
    25
100
AcDbLine
 10
166.8558521088989
 20
-119.0831041819477
 30
0.0
 11
166.6436855943184
 21
-118.9606230601646
 31
0.0
  0
LINE
  5
E64C
330
A
100
AcDbEntity
  8
0
  6
Continuous
 62
     8
370
    25
100
AcDbLine
 10
166.8558521088989
 20
-121.2061102928499
 30
0.0
 11
164.8049091346284
 21
-120.0221261156155
 31
0.0
  0
LINE
  5
E64D
330
A
100
AcDbEntity
  8
0
  6
Continuous
 62
     8
370
    25
100
AcDbLine
 10
181.8818712670654
 20
-94.07795172266086
 30
0.0
 11
181.6697047524867
 21
-93.95547060087827
 31
0.0
  0
LINE
  5
E64E
330
A
100
AcDbEntity
  8
0
  6
Continuous
 62
     8
370
    25
100
AcDbLine
 10
166.1841004960761
 20
-121.838866488072
 30
0.0
 11
163.9209910072268
 21
-120.532401189055
 31
0.0
  0
LINE
  5
E64F
330
A
100
AcDbEntity
  8
0
  6
Continuous
 62
     8
370
    25
100
AcDbLine
 10
165.9719686324152
 20
-122.2062898246243
 30
0.0
 11
163.4966926508523
 21
-120.7773434164476
 31
0.0
  0
LINE
  5
E650
330
A
100
AcDbEntity
  8
0
  6
Continuous
 62
     8
370
    25
100
AcDbLine
 10
166.6437200745422
 20
-121.5735337531894
 30
0.0
 11
164.3806105856929
 21
-120.267068454172
 31
0.0
  0
LINE
  5
E651
330
A
100
AcDbEntity
  8
0
  6
Continuous
 62
     8
370
    25
100
AcDbLine
 10
173.7854976873432
 20
-117.4506732696248
 30
0.0
 11
173.5733656505208
 21
-117.3282120514271
 31
0.0
  0
LINE
  5
E652
330
A
100
AcDbEntity
  8
0
  6
Continuous
 62
     8
370
    25
100
AcDbLine
 10
174.2451170951144
 20
-117.1853406332823
 30
0.0
 11
173.5733656477196
 21
-116.7975467771246
 31
0.0
  0
LINE
  5
E653
330
A
100
AcDbEntity
  8
0
  6
Continuous
 62
     8
370
    25
100
AcDbLine
 10
182.4122003743569
 20
-110.102615604744
 30
0.0
 11
182.2000338118278
 21
-109.98013445528
 31
0.0
  0
LINE
  5
E654
330
A
100
AcDbEntity
  8
0
  6
Continuous
 62
     8
370
    25
100
AcDbLine
 10
182.4122003743569
 20
-112.2256216602848
 30
0.0
 11
180.3612574000872
 21
-111.0416374830509
 31
0.0
  0
LINE
  5
E655
330
A
100
AcDbEntity
  8
0
  6
Continuous
 62
     8
370
    25
100
AcDbLine
 10
181.7404489322298
 20
-112.8583777822144
 30
0.0
 11
179.4773394215126
 21
-111.5519124705732
 31
0.0
  0
LINE
  5
E656
330
A
100
AcDbEntity
  8
0
  6
Continuous
 62
     8
370
    25
100
AcDbLine
 10
181.528316897874
 20
-113.2258012425534
 30
0.0
 11
179.0530408725781
 21
-111.7968548091297
 31
0.0
  0
LINE
  5
E657
330
A
100
AcDbEntity
  8
0
  6
Continuous
 62
     8
370
    25
100
AcDbLine
 10
182.2000683328897
 20
-112.5930451499774
 30
0.0
 11
179.9369588221725
 21
-111.2865798383366
 31
0.0
  0
ENDSEC
  0
SECTION
  2
OBJECTS
  0
DICTIONARY
  5
19
330
0
100
AcDbDictionary
281
     1
  3
ACAD_DETAILVIEWSTYLE
350
D18E
  3
ACAD_GROUP
350
1A
  3
ACAD_IMAGE_VARS
350
B65E
  3
ACAD_LAYOUT
350
1E
  3
ACAD_MLINESTYLE
350
1B
  3
ACAD_PLOTSETTINGS
350
22
  3
ACAD_PLOTSTYLENAME
350
1F
  3
ACAD_SCALELIST
350
582C
  3
ACAD_SECTIONVIEWSTYLE
350
D18F
  3
ACAD_WIPEOUT_VARS
350
23
  3
AcDbVariableDictionary
350
AB91
  3
APPDATA
350
B65D
  3
ASE_INDEX_DICTIONARY
350
B60C
  3
DWGPROPS
350
E658
  0
DICTIONARY
  5
5858
330
14
100
AcDbDictionary
280
     1
281
     1
  3
ADSK_XREC_LAYER_RECONCILED
360
5859
  0
DICTIONARY
  5
5864
330
A
100
AcDbDictionary
280
     1
281
     1
  3
ACAD_SORTENTS
360
5865
  0
DICTIONARY
  5
DF0E
330
DF0D
100
AcDbDictionary
280
     1
281
     1
  3
ACAD_SORTENTS
360
DF0F
  0
DICTIONARY
  5
E053
330
E052
100
AcDbDictionary
280
     1
281
     1
  3
ACAD_SORTENTS
360
E054
  0
DICTIONARY
  5
D18E
102
{ACAD_REACTORS
330
19
102
}
330
19
100
AcDbDictionary
281
     1
  0
DICTIONARY
  5
1A
102
{ACAD_REACTORS
330
19
102
}
330
19
100
AcDbDictionary
281
     1
  0
RASTERVARIABLES
  5
B65E
102
{ACAD_REACTORS
330
19
102
}
330
19
100
AcDbRasterVariables
 90
        0
 70
     1
 71
     1
 72
     0
  0
DICTIONARY
  5
1E
102
{ACAD_REACTORS
330
19
102
}
330
19
100
AcDbDictionary
281
     1
  3
Layout1
350
21
  3
Model
350
20
  0
DICTIONARY
  5
1B
102
{ACAD_REACTORS
330
19
102
}
330
19
100
AcDbDictionary
281
     1
  3
Standard
350
1C
  0
DICTIONARY
  5
22
102
{ACAD_REACTORS
330
19
102
}
330
19
100
AcDbDictionary
281
     1
  0
ACDBDICTIONARYWDFLT
  5
1F
102
{ACAD_REACTORS
330
19
102
}
330
19
100
AcDbDictionary
281
     1
  3
Normal
350
1D
100
AcDbDictionaryWithDefault
340
1D
  0
DICTIONARY
  5
582C
102
{ACAD_REACTORS
330
19
102
}
330
19
100
AcDbDictionary
281
     1
  3
A0
350
582D
  3
A1
350
582E
  3
A2
350
582F
  3
A3
350
5830
  3
A4
350
5831
  3
A5
350
5832
  3
A6
350
5833
  3
A7
350
5834
  3
A8
350
5835
  3
A9
350
5836
  3
B0
350
5837
  3
B1
350
5838
  3
B2
350
5839
  3
B3
350
583A
  3
B4
350
583B
  3
B5
350
583C
  3
B6
350
583D
  3
B7
350
583E
  3
B8
350
583F
  3
B9
350
5840
  3
C0
350
5841
  3
C1
350
5842
  3
C2
350
5843
  3
C3
350
5844
  3
C4
350
5845
  3
C5
350
5846
  3
C6
350
5847
  3
C7
350
5848
  3
C8
350
5849
  3
C9
350
584A
  3
D0
350
584B
  3
D1
350
584C
  3
D2
350
584D
  0
DICTIONARY
  5
D18F
102
{ACAD_REACTORS
330
19
102
}
330
19
100
AcDbDictionary
281
     1
  0
WIPEOUTVARIABLES
  5
23
330
19
100
AcDbWipeoutVariables
 70
     1
  0
DICTIONARY
  5
AB91
102
{ACAD_REACTORS
330
19
102
}
330
19
100
AcDbDictionary
281
     1
  3
DIMASSOC
350
B616
  3
INDEXCTL
350
B615
  3
SORTENTS
350
B614
  0
DICTIONARY
  5
B65D
102
{ACAD_REACTORS
330
19
102
}
330
19
100
AcDbDictionary
281
     1
  0
DICTIONARY
  5
B60C
102
{ACAD_REACTORS
330
19
102
}
330
19
100
AcDbDictionary
281
     1
  3
ASEBlockHierarchyIndexRecord
350
B60D
1001
DCO15
1040
1684839347.122
  0
XRECORD
  5
E658
102
{ACAD_REACTORS
330
19
102
}
330
19
100
AcDbXrecord
280
     1
  1
DWGPROPS COOKIE
  2

  3

  4

  6

  7

  8
simone.danesi
  9

300
=
301
=
302
=
303
=
304
=
305
=
306
=
307
=
308
=
309
=
 40
0.0
 41
2455301.719027755
 42
2458788.325470463
  1

 90
        0
  0
XRECORD
  5
5859
102
{ACAD_REACTORS
330
5858
102
}
330
5858
100
AcDbXrecord
280
     1
290
     1
  0
SORTENTSTABLE
  5
5865
102
{ACAD_REACTORS
330
5864
102
}
330
5864
100
AcDbSortentsTable
330
A
331
0
  5
5EEA
  0
SORTENTSTABLE
  5
DF0F
102
{ACAD_REACTORS
330
DF0E
102
}
330
DF0E
100
AcDbSortentsTable
330
DF0D
  0
SORTENTSTABLE
  5
E054
102
{ACAD_REACTORS
330
E053
102
}
330
E053
100
AcDbSortentsTable
330
E052
  0
LAYOUT
  5
21
102
{ACAD_REACTORS
330
1E
102
}
330
1E
100
AcDbPlotSettings
  1

  2

  4

  6

 40
0.0
 41
0.0
 42
0.0
 43
0.0
 44
0.0
 45
0.0
 46
0.0
 47
0.0
 48
0.0
 49
0.0
140
0.0
141
0.0
142
1.0
143
1.0
 70
     0
 72
     0
 73
     0
 74
     0
  7

 75
     0
147
1.0
148
0.0
149
0.0
100
AcDbLayout
  1
Layout1
 70
     0
 71
     1
 10
0.0
 20
0.0
 11
12.0
 21
9.0
 12
0.0
 22
0.0
 32
0.0
 14
1.000000000000000E+20
 24
1.000000000000000E+20
 34
1.000000000000000E+20
 15
-1.000000000000000E+20
 25
-1.000000000000000E+20
 35
-1.000000000000000E+20
146
0.0
 13
0.0
 23
0.0
 33
0.0
 16
1.0
 26
0.0
 36
0.0
 17
0.0
 27
1.0
 37
0.0
 76
     0
330
B
  0
LAYOUT
  5
20
102
{ACAD_REACTORS
330
1E
102
}
330
1E
100
AcDbPlotSettings
  1

  2

  4

  6

 40
0.0
 41
0.0
 42
0.0
 43
0.0
 44
0.0
 45
0.0
 46
0.0
 47
0.0
 48
0.0
 49
0.0
140
0.0
141
0.0
142
1.0
143
1.0
 70
  1024
 72
     0
 73
     0
 74
     0
  7

 75
     0
147
1.0
148
0.0
149
0.0
100
AcDbLayout
  1
Model
 70
     0
 71
     0
 10
0.0
 20
0.0
 11
0.0
 21
0.0
 12
0.0
 22
0.0
 32
0.0
 14
-31.3422140046244
 24
-364.6861020594021
 34
0.0
 15
644.3497801065246
 25
61.58091282650281
 35
0.0
146
0.0
 13
0.0
 23
0.0
 33
0.0
 16
0.0
 26
0.0
 36
0.0
 17
0.0
 27
0.0
 37
0.0
 76
     0
330
A
331
15
  0
MLINESTYLE
  5
1C
102
{ACAD_REACTORS
330
1B
102
}
330
1B
100
AcDbMlineStyle
  2
STANDARD
 70
     0
  3

 62
     0
 51
90.0
 52
90.0
 71
     2
 49
0.5
 62
   256
  6
BYLAYER
 49
-0.5
 62
   256
  6
BYLAYER
  0
ACDBPLACEHOLDER
  5
1D
102
{ACAD_REACTORS
330
1F
102
}
330
1F
  0
SCALE
  5
582D
102
{ACAD_REACTORS
330
582C
102
}
330
582C
100
AcDbScale
 70
     0
300
1:1
140
1.0
141
1.0
290
     1
  0
SCALE
  5
582E
102
{ACAD_REACTORS
330
582C
102
}
330
582C
100
AcDbScale
 70
     0
300
1:2
140
1.0
141
2.0
290
     0
  0
SCALE
  5
582F
102
{ACAD_REACTORS
330
582C
102
}
330
582C
100
AcDbScale
 70
     0
300
1:4
140
1.0
141
4.0
290
     0
  0
SCALE
  5
5830
102
{ACAD_REACTORS
330
582C
102
}
330
582C
100
AcDbScale
 70
     0
300
1:5
140
1.0
141
5.0
290
     0
  0
SCALE
  5
5831
102
{ACAD_REACTORS
330
582C
102
}
330
582C
100
AcDbScale
 70
     0
300
1:8
140
1.0
141
8.0
290
     0
  0
SCALE
  5
5832
102
{ACAD_REACTORS
330
582C
102
}
330
582C
100
AcDbScale
 70
     0
300
1:10
140
1.0
141
10.0
290
     0
  0
SCALE
  5
5833
102
{ACAD_REACTORS
330
582C
102
}
330
582C
100
AcDbScale
 70
     0
300
1:16
140
1.0
141
16.0
290
     0
  0
SCALE
  5
5834
102
{ACAD_REACTORS
330
582C
102
}
330
582C
100
AcDbScale
 70
     0
300
1:20
140
1.0
141
20.0
290
     0
  0
SCALE
  5
5835
102
{ACAD_REACTORS
330
582C
102
}
330
582C
100
AcDbScale
 70
     0
300
1:30
140
1.0
141
30.0
290
     0
  0
SCALE
  5
5836
102
{ACAD_REACTORS
330
582C
102
}
330
582C
100
AcDbScale
 70
     0
300
1:40
140
1.0
141
40.0
290
     0
  0
SCALE
  5
5837
102
{ACAD_REACTORS
330
582C
102
}
330
582C
100
AcDbScale
 70
     0
300
1:50
140
1.0
141
50.0
290
     0
  0
SCALE
  5
5838
102
{ACAD_REACTORS
330
582C
102
}
330
582C
100
AcDbScale
 70
     0
300
1:100
140
1.0
141
100.0
290
     0
  0
SCALE
  5
5839
102
{ACAD_REACTORS
330
582C
102
}
330
582C
100
AcDbScale
 70
     0
300
2:1
140
2.0
141
1.0
290
     0
  0
SCALE
  5
583A
102
{ACAD_REACTORS
330
582C
102
}
330
582C
100
AcDbScale
 70
     0
300
4:1
140
4.0
141
1.0
290
     0
  0
SCALE
  5
583B
102
{ACAD_REACTORS
330
582C
102
}
330
582C
100
AcDbScale
 70
     0
300
8:1
140
8.0
141
1.0
290
     0
  0
SCALE
  5
583C
102
{ACAD_REACTORS
330
582C
102
}
330
582C
100
AcDbScale
 70
     0
300
10:1
140
10.0
141
1.0
290
     0
  0
SCALE
  5
583D
102
{ACAD_REACTORS
330
582C
102
}
330
582C
100
AcDbScale
 70
     0
300
100:1
140
100.0
141
1.0
290
     0
  0
SCALE
  5
583E
102
{ACAD_REACTORS
330
582C
102
}
330
582C
100
AcDbScale
 70
     0
300
1/128" = 1'-0"
140
0.0078125
141
12.0
290
     0
  0
SCALE
  5
583F
102
{ACAD_REACTORS
330
582C
102
}
330
582C
100
AcDbScale
 70
     0
300
1/64" = 1'-0"
140
0.015625
141
12.0
290
     0
  0
SCALE
  5
5840
102
{ACAD_REACTORS
330
582C
102
}
330
582C
100
AcDbScale
 70
     0
300
1/32" = 1'-0"
140
0.03125
141
12.0
290
     0
  0
SCALE
  5
5841
102
{ACAD_REACTORS
330
582C
102
}
330
582C
100
AcDbScale
 70
     0
300
1/16" = 1'-0"
140
0.0625
141
12.0
290
     0
  0
SCALE
  5
5842
102
{ACAD_REACTORS
330
582C
102
}
330
582C
100
AcDbScale
 70
     0
300
3/32" = 1'-0"
140
0.09375
141
12.0
290
     0
  0
SCALE
  5
5843
102
{ACAD_REACTORS
330
582C
102
}
330
582C
100
AcDbScale
 70
     0
300
1/8" = 1'-0"
140
0.125
141
12.0
290
     0
  0
SCALE
  5
5844
102
{ACAD_REACTORS
330
582C
102
}
330
582C
100
AcDbScale
 70
     0
300
3/16" = 1'-0"
140
0.1875
141
12.0
290
     0
  0
SCALE
  5
5845
102
{ACAD_REACTORS
330
582C
102
}
330
582C
100
AcDbScale
 70
     0
300
1/4" = 1'-0"
140
0.25
141
12.0
290
     0
  0
SCALE
  5
5846
102
{ACAD_REACTORS
330
582C
102
}
330
582C
100
AcDbScale
 70
     0
300
3/8" = 1'-0"
140
0.375
141
12.0
290
     0
  0
SCALE
  5
5847
102
{ACAD_REACTORS
330
582C
102
}
330
582C
100
AcDbScale
 70
     0
300
1/2" = 1'-0"
140
0.5
141
12.0
290
     0
  0
SCALE
  5
5848
102
{ACAD_REACTORS
330
582C
102
}
330
582C
100
AcDbScale
 70
     0
300
3/4" = 1'-0"
140
0.75
141
12.0
290
     0
  0
SCALE
  5
5849
102
{ACAD_REACTORS
330
582C
102
}
330
582C
100
AcDbScale
 70
     0
300
1" = 1'-0"
140
1.0
141
12.0
290
     0
  0
SCALE
  5
584A
102
{ACAD_REACTORS
330
582C
102
}
330
582C
100
AcDbScale
 70
     0
300
1-1/2" = 1'-0"
140
1.5
141
12.0
290
     0
  0
SCALE
  5
584B
102
{ACAD_REACTORS
330
582C
102
}
330
582C
100
AcDbScale
 70
     0
300
3" = 1'-0"
140
3.0
141
12.0
290
     0
  0
SCALE
  5
584C
102
{ACAD_REACTORS
330
582C
102
}
330
582C
100
AcDbScale
 70
     0
300
6" = 1'-0"
140
6.0
141
12.0
290
     0
  0
SCALE
  5
584D
102
{ACAD_REACTORS
330
582C
102
}
330
582C
100
AcDbScale
 70
     0
300
1'-0" = 1'-0"
140
12.0
141
12.0
290
     0
  0
DICTIONARYVAR
  5
B616
102
{ACAD_REACTORS
330
AB91
102
}
330
AB91
100
DictionaryVariables
280
     0
  1
1
  0
DICTIONARYVAR
  5
B615
102
{ACAD_REACTORS
330
AB91
102
}
330
AB91
100
DictionaryVariables
280
     0
  1
0
  0
DICTIONARYVAR
  5
B614
102
{ACAD_REACTORS
330
AB91
102
}
330
AB91
100
DictionaryVariables
280
     0
  1
127
  0
XRECORD
  5
B60D
102
{ACAD_REACTORS
330
B60C
102
}
330
B60C
100
AcDbXrecord
280
     1
  0
ENDSEC
  0
EOF
