  0
SECTION
  2
HEADER
  9
$ACADVER
  1
AC1015
  9
$ACADMAINTVER
 70
     6
  9
$DWGCODEPAGE
  3
ANSI_1252
  9
$INSBASE
 10
0.0
 20
0.0
 30
0.0
  9
$EXTMIN
 10
-31.3422140046244
 20
-364.6861020594021
 30
0.0
  9
$EXTMAX
 10
644.3497801065246
 20
61.58091282650281
 30
0.0
  9
$LIMMIN
 10
-20.0
 20
-575.8499999999997
  9
$LIMMAX
 10
1785.35
 20
579.8499999999997
  9
$ORTHOMODE
 70
     1
  9
$REGENMODE
 70
     1
  9
$FILLMODE
 70
     1
  9
$QTEXTMODE
 70
     0
  9
$MIRRTEXT
 70
     1
  9
$LTSCALE
 40
10.0
  9
$ATTMODE
 70
     1
  9
$TEXTSIZE
 40
0.0
  9
$TRACEWID
 40
0.05
  9
$TEXTSTYLE
  7
Standard
  9
$CLAYER
  8
0
  9
$CELTYPE
  6
Continuous
  9
$CECOLOR
 62
   256
  9
$CELTSCALE
 40
1.0
  9
$DISPSILH
 70
     0
  9
$DIMSCALE
 40
1.0
  9
$DIMASZ
 40
1.25
  9
$DIMEXO
 40
0.0
  9
$DIMDLI
 40
0.38
  9
$DIMRND
 40
0.0
  9
$DIMDLE
 40
0.0
  9
$DIMEXE
 40
0.75
  9
$DIMTP
 40
0.0
  9
$DIMTM
 40
0.0
  9
$DIMTXT
 40
2.5
  9
$DIMCEN
 40
0.09
  9
$DIMTSZ
 40
0.0
  9
$DIMTOL
 70
     0
  9
$DIMLIM
 70
     0
  9
$DIMTIH
 70
     0
  9
$DIMTOH
 70
     0
  9
$DIMSE1
 70
     0
  9
$DIMSE2
 70
     0
  9
$DIMTAD
 70
     1
  9
$DIMZIN
 70
     0
  9
$DIMBLK
  1

  9
$DIMASO
 70
     1
  9
$DIMSHO
 70
     1
  9
$DIMPOST
  1

  9
$DIMAPOST
  1

  9
$DIMALT
 70
     0
  9
$DIMALTD
 70
     2
  9
$DIMALTF
 40
25.4
  9
$DIMLFAC
 40
1.0
  9
$DIMTOFL
 70
     0
  9
$DIMTVP
 40
0.0
  9
$DIMTIX
 70
     0
  9
$DIMSOXD
 70
     0
  9
$DIMSAH
 70
     0
  9
$DIMBLK1
  1

  9
$DIMBLK2
  1

  9
$DIMSTYLE
  2
Standard
  9
$DIMCLRD
 70
     7
  9
$DIMCLRE
 70
     7
  9
$DIMCLRT
 70
     7
  9
$DIMTFAC
 40
0.8
  9
$DIMGAP
 40
1.25
  9
$DIMJUST
 70
     0
  9
$DIMSD1
 70
     0
  9
$DIMSD2
 70
     0
  9
$DIMTOLJ
 70
     1
  9
$DIMTZIN
 70
     0
  9
$DIMALTZ
 70
     0
  9
$DIMALTTZ
 70
     0
  9
$DIMUPT
 70
     0
  9
$DIMDEC
 70
     2
  9
$DIMTDEC
 70
     4
  9
$DIMALTU
 70
     2
  9
$DIMALTTD
 70
     2
  9
$DIMTXSTY
  7
Standard
  9
$DIMAUNIT
 70
     0
  9
$DIMADEC
 70
     0
  9
$DIMALTRND
 40
0.0
  9
$DIMAZIN
 70
     0
  9
$DIMDSEP
 70
    46
  9
$DIMATFIT
 70
     3
  9
$DIMFRAC
 70
     0
  9
$DIMLDRBLK
  1

  9
$DIMLUNIT
 70
     2
  9
$DIMLWD
 70
     0
  9
$DIMLWE
 70
     0
  9
$DIMTMOVE
 70
     0
  9
$LUNITS
 70
     2
  9
$LUPREC
 70
     4
  9
$SKETCHINC
 40
0.1
  9
$FILLETRAD
 40
0.0
  9
$AUNITS
 70
     0
  9
$AUPREC
 70
     0
  9
$MENU
  1
acad
  9
$ELEVATION
 40
0.0
  9
$PELEVATION
 40
0.0
  9
$THICKNESS
 40
0.0
  9
$LIMCHECK
 70
     0
  9
$CHAMFERA
 40
0.0
  9
$CHAMFERB
 40
0.0
  9
$CHAMFERC
 40
0.0
  9
$CHAMFERD
 40
0.0
  9
$SKPOLY
 70
     0
  9
$TDCREATE
 40
2455301.760694421
  9
$TDUCREATE
 40
2455301.719027755
  9
$TDUPDATE
 40
2458788.35923287
  9
$TDUUPDATE
 40
2458788.317566204
  9
$TDINDWG
 40
0.1983068403
  9
$TDUSRTIMER
 40
0.0000292824
  9
$USRTIMER
 70
     1
  9
$ANGBASE
 50
0.0
  9
$ANGDIR
 70
     0
  9
$PDMODE
 70
     0
  9
$PDSIZE
 40
0.0
  9
$PLINEWID
 40
0.0
  9
$SPLFRAME
 70
     0
  9
$SPLINETYPE
 70
     6
  9
$SPLINESEGS
 70
     8
  9
$HANDSEED
  5
E16E
  9
$SURFTAB1
 70
     6
  9
$SURFTAB2
 70
     6
  9
$SURFTYPE
 70
     6
  9
$SURFU
 70
     6
  9
$SURFV
 70
     6
  9
$UCSBASE
  2

  9
$UCSNAME
  2

  9
$UCSORG
 10
0.0
 20
0.0
 30
0.0
  9
$UCSXDIR
 10
1.0
 20
0.0
 30
0.0
  9
$UCSYDIR
 10
0.0
 20
1.0
 30
0.0
  9
$UCSORTHOREF
  2

  9
$UCSORTHOVIEW
 70
     0
  9
$UCSORGTOP
 10
0.0
 20
0.0
 30
0.0
  9
$UCSORGBOTTOM
 10
0.0
 20
0.0
 30
0.0
  9
$UCSORGLEFT
 10
0.0
 20
0.0
 30
0.0
  9
$UCSORGRIGHT
 10
0.0
 20
0.0
 30
0.0
  9
$UCSORGFRONT
 10
0.0
 20
0.0
 30
0.0
  9
$UCSORGBACK
 10
0.0
 20
0.0
 30
0.0
  9
$PUCSBASE
  2

  9
$PUCSNAME
  2

  9
$PUCSORG
 10
0.0
 20
0.0
 30
0.0
  9
$PUCSXDIR
 10
1.0
 20
0.0
 30
0.0
  9
$PUCSYDIR
 10
0.0
 20
1.0
 30
0.0
  9
$PUCSORTHOREF
  2

  9
$PUCSORTHOVIEW
 70
     0
  9
$PUCSORGTOP
 10
0.0
 20
0.0
 30
0.0
  9
$PUCSORGBOTTOM
 10
0.0
 20
0.0
 30
0.0
  9
$PUCSORGLEFT
 10
0.0
 20
0.0
 30
0.0
  9
$PUCSORGRIGHT
 10
0.0
 20
0.0
 30
0.0
  9
$PUCSORGFRONT
 10
0.0
 20
0.0
 30
0.0
  9
$PUCSORGBACK
 10
0.0
 20
0.0
 30
0.0
  9
$USERI1
 70
     0
  9
$USERI2
 70
     0
  9
$USERI3
 70
     0
  9
$USERI4
 70
     0
  9
$USERI5
 70
     0
  9
$USERR1
 40
0.0
  9
$USERR2
 40
0.0
  9
$USERR3
 40
0.0
  9
$USERR4
 40
0.0
  9
$USERR5
 40
0.0
  9
$WORLDVIEW
 70
     1
  9
$SHADEDGE
 70
     3
  9
$SHADEDIF
 70
    70
  9
$TILEMODE
 70
     1
  9
$MAXACTVP
 70
    16
  9
$PINSBASE
 10
0.0
 20
0.0
 30
0.0
  9
$PLIMCHECK
 70
     0
  9
$PEXTMIN
 10
1.000000000000000E+20
 20
1.000000000000000E+20
 30
1.000000000000000E+20
  9
$PEXTMAX
 10
-1.000000000000000E+20
 20
-1.000000000000000E+20
 30
-1.000000000000000E+20
  9
$PLIMMIN
 10
0.0
 20
0.0
  9
$PLIMMAX
 10
0.0
 20
0.0
  9
$UNITMODE
 70
     0
  9
$VISRETAIN
 70
     0
  9
$PLINEGEN
 70
     1
  9
$PSLTSCALE
 70
     0
  9
$TREEDEPTH
 70
  3020
  9
$CMLSTYLE
  2
Standard
  9
$CMLJUST
 70
     0
  9
$CMLSCALE
 40
1.0
  9
$PROXYGRAPHICS
 70
     0
  9
$MEASUREMENT
 70
     1
  9
$CELWEIGHT
370
     0
  9
$ENDCAPS
280
     0
  9
$JOINSTYLE
280
     0
  9
$LWDISPLAY
290
     0
  9
$INSUNITS
 70
     0
  9
$HYPERLINKBASE
  1

  9
$STYLESHEET
  1

  9
$XEDIT
290
     1
  9
$CEPSNTYPE
380
     0
  9
$PSTYLEMODE
290
     1
  9
$FINGERPRINTGUID
  2

  9
$VERSIONGUID
  2
{5E121C10-90A5-4320-A687-250F4DE980B5}
  9
$EXTNAMES
290
     1
  9
$PSVPSCALE
 40
0.0
  9
$OLESTARTUP
290
     0
  0
ENDSEC
  0
SECTION
  2
CLASSES
  0
CLASS
  1
IMAGE
  2
AcDbRasterImage
  3
ISM
 90
      127
280
     0
281
     1
  0
CLASS
  1
DICTIONARYVAR
  2
AcDbDictionaryVar
  3
ObjectDBX Classes
 90
        0
280
     0
281
     0
  0
CLASS
  1
RASTERVARIABLES
  2
AcDbRasterVariables
  3
ISM
 90
        0
280
     0
281
     0
  0
CLASS
  1
IMAGEDEF
  2
AcDbRasterImageDef
  3
ISM
 90
        0
280
     0
281
     0
  0
CLASS
  1
IMAGEDEF_REACTOR
  2
AcDbRasterImageDefReactor
  3
ISM
 90
        1
280
     0
281
     0
  0
CLASS
  1
IDBUFFER
  2
AcDbIdBuffer
  3
ObjectDBX Classes
 90
        0
280
     0
281
     0
  0
CLASS
  1
SPATIAL_FILTER
  2
AcDbSpatialFilter
  3
ObjectDBX Classes
 90
        0
280
     0
281
     0
  0
CLASS
  1
SORTENTSTABLE
  2
AcDbSortentsTable
  3
ObjectDBX Classes
 90
        0
280
     0
281
     0
  0
CLASS
  1
LAYER_INDEX
  2
AcDbLayerIndex
  3
ObjectDBX Classes
 90
        0
280
     0
281
     0
  0
CLASS
  1
SPATIAL_INDEX
  2
AcDbSpatialIndex
  3
AutoCAD 2000
 90
        0
280
     0
281
     0
  0
CLASS
  1
OBJECT_PTR
  2
CAseDLPNTableRecord
  3
ASE-LPNTableRecord
 90
        1
280
     0
281
     0
  0
CLASS
  1
LAYOUT
  2
AcDbLayout
  3
ObjectDBX Classes
 90
        0
280
     0
281
     0
  0
CLASS
  1
PLOTSETTINGS
  2
AcDbPlotSettings
  3
ObjectDBX Classes
 90
        0
280
     0
281
     0
  0
CLASS
  1
ACDBDICTIONARYWDFLT
  2
AcDbDictionaryWithDefault
  3
ObjectDBX Classes
 90
        0
280
     0
281
     0
  0
CLASS
  1
ACDBPLACEHOLDER
  2
AcDbPlaceHolder
  3
ObjectDBX Classes
 90
        0
280
     0
281
     0
  0
CLASS
  1
VBA_PROJECT
  2
AcDbVbaProject
  3
ObjectDBX Classes
 90
        0
280
     0
281
     0
  0
CLASS
  1
WIPEOUT
  2
AcDbWipeout
  3
WipeOut|AutoCAD Express Tool|expresstools@autodesk.com
 90
      127
280
     0
281
     1
  0
CLASS
  1
WIPEOUTVARIABLES
  2
AcDbWipeoutVariables
  3
WipeOut|AutoCAD Express Tool|expresstools@autodesk.com
 90
        0
280
     0
281
     0
  0
CLASS
  1
RTEXT
  2
RText
  3
RText|AutoCAD Express Tool|expresstools@autodesk.com
 90
        0
280
     0
281
     1
  0
CLASS
  1
ARCALIGNEDTEXT
  2
AcDbArcAlignedText
  3
ATEXT|AutoCAD Express Tool|expresstools@autodesk.com
 90
        0
280
     0
281
     1
  0
CLASS
  1
MATERIAL
  2
AcDbMaterial
  3
ObjectDBX Classes
 90
     1153
280
     0
281
     0
  0
CLASS
  1
VISUALSTYLE
  2
AcDbVisualStyle
  3
ObjectDBX Classes
 90
     4095
280
     0
281
     0
  0
CLASS
  1
TABLESTYLE
  2
AcDbTableStyle
  3
ObjectDBX Classes
 90
     4095
280
     0
281
     0
  0
CLASS
  1
SCALE
  2
AcDbScale
  3
ObjectDBX Classes
 90
     1153
280
     0
281
     0
  0
CLASS
  1
MLEADERSTYLE
  2
AcDbMLeaderStyle
  3
ACDB_MLEADERSTYLE_CLASS
 90
     4095
280
     0
281
     0
  0
CLASS
  1
CELLSTYLEMAP
  2
AcDbCellStyleMap
  3
ObjectDBX Classes
 90
     1152
280
     0
281
     0
  0
CLASS
  1
SUN
  2
AcDbSun
  3
SCENEOE
 90
     1153
280
     0
281
     0
  0
ENDSEC
  0
SECTION
  2
TABLES
  0
TABLE
  2
VPORT
  5
7
330
0
100
AcDbSymbolTable
 70
     1
  0
VPORT
  5
15
330
7
100
AcDbSymbolTableRecord
100
AcDbViewportTableRecord
  2
*ACTIVE
 70
     0
 10
0.0
 20
0.0
 11
1.0
 21
1.0
 12
306.5037830509501
 22
-151.5525946164497
 13
0.0
 23
0.0
 14
1.0
 24
1.0
 15
0.0
 25
0.0
 16
0.0
 26
0.0
 36
1.0
 17
0.0
 27
0.0
 37
0.0
 40
434.792355183623
 41
2.584131326949384
 42
50.0
 43
0.0
 44
0.0
 50
0.0
 51
0.0
 71
    16
 72
   100
 73
     1
 74
     1
 75
     0
 76
     0
 77
     0
 78
     0
281
     0
 65
     0
110
0.0
120
0.0
130
0.0
111
1.0
121
0.0
131
0.0
112
0.0
122
1.0
132
0.0
 79
     0
146
0.0
  0
ENDTAB
  0
TABLE
  2
LTYPE
  5
4
330
0
100
AcDbSymbolTable
 70
     4
  0
LTYPE
  5
11
330
4
100
AcDbSymbolTableRecord
100
AcDbLinetypeTableRecord
  2
ByBlock
 70
     0
  3

 72
    65
 73
     0
 40
0.0
  0
LTYPE
  5
12
330
4
100
AcDbSymbolTableRecord
100
AcDbLinetypeTableRecord
  2
ByLayer
 70
     0
  3

 72
    65
 73
     0
 40
0.0
  0
LTYPE
  5
13
330
4
100
AcDbSymbolTableRecord
100
AcDbLinetypeTableRecord
  2
Continuous
 70
     0
  3
Solid line
 72
    65
 73
     0
 40
0.0
  0
LTYPE
  5
108
330
4
100
AcDbSymbolTableRecord
100
AcDbLinetypeTableRecord
  2
CENTER
 70
     0
  3
____ _ ____ _ ____ _ ____ _ ____ _ ____ _ ____
 72
    65
 73
     4
 40
2.0
 49
1.25
 74
     0
 49
-0.25
 74
     0
 49
0.25
 74
     0
 49
-0.25
 74
     0
  0
LTYPE
  5
B663
330
4
100
AcDbSymbolTableRecord
100
AcDbLinetypeTableRecord
  2
HIDDEN
 70
     0
  3
Hidden __ __ __ __ __ __ __ __ __ __ __ __ __ __
 72
    65
 73
     2
 40
1.905
 49
1.27
 74
     0
 49
-0.635
 74
     0
  0
LTYPE
  5
B664
330
4
100
AcDbSymbolTableRecord
100
AcDbLinetypeTableRecord
  2
CENTERX2
 70
     0
  3
Center (2x) ________  __  ________  __  _____
 72
    65
 73
     4
 40
20.32
 49
12.7
 74
     0
 49
-2.54
 74
     0
 49
2.54
 74
     0
 49
-2.54
 74
     0
  0
ENDTAB
  0
TABLE
  2
LAYER
  5
2
330
0
100
AcDbSymbolTable
 70
     3
  0
LAYER
  5
14
102
{ACAD_XDICTIONARY
360
5858
102
}
330
2
100
AcDbSymbolTableRecord
100
AcDbLayerTableRecord
  2
0
 70
     0
 62
     7
  6
Continuous
370
    -3
390
1D
  0
LAYER
  5
BA64
330
2
100
AcDbSymbolTableRecord
100
AcDbLayerTableRecord
  2
Defpoints
 70
     0
 62
     7
  6
Continuous
290
     0
370
    -3
390
1D
  0
LAYER
  5
C7B3
330
2
100
AcDbSymbolTableRecord
100
AcDbLayerTableRecord
  2
ASSI
 70
     0
 62
     1
  6
CENTERX2
370
    -3
390
1D
  0
ENDTAB
  0
TABLE
  2
STYLE
  5
3
330
0
100
AcDbSymbolTable
 70
    10
  0
STYLE
  5
17
330
3
100
AcDbSymbolTableRecord
100
AcDbTextStyleTableRecord
  2
Standard
 70
     0
 40
0.0
 41
1.0
 50
0.0
 71
     0
 42
0.0
  3
I011000D.TTF
  4

1001
ACAD
1000
IsonormD
1071
        0
  0
STYLE
  5
BA69
330
3
100
AcDbSymbolTableRecord
100
AcDbTextStyleTableRecord
  2
SLDTEXTSTYLE5
 70
     0
 40
0.0
 41
0.75
 50
0.0
 71
     0
 42
0.2
  3
TXT
  4

  0
STYLE
  5
BA6B
330
3
100
AcDbSymbolTableRecord
100
AcDbTextStyleTableRecord
  2
SLDTEXTSTYLE0
 70
     0
 40
0.0
 41
0.605
 50
0.0
 71
     0
 42
0.2
  3
TXT
  4

  0
STYLE
  5
BA6C
330
3
100
AcDbSymbolTableRecord
100
AcDbTextStyleTableRecord
  2
SLDTEXTSTYLE1
 70
     0
 40
0.0
 41
0.4577022077749198
 50
0.0
 71
     0
 42
0.2
  3
TXT
  4

  0
STYLE
  5
BA6D
330
3
100
AcDbSymbolTableRecord
100
AcDbTextStyleTableRecord
  2
SLDTEXTSTYLE2
 70
     0
 40
0.0
 41
0.609090909090909
 50
0.0
 71
     0
 42
0.2
  3
TXT
  4

  0
STYLE
  5
BA6E
330
3
100
AcDbSymbolTableRecord
100
AcDbTextStyleTableRecord
  2
SLDTEXTSTYLE3
 70
     0
 40
0.0
 41
0.7
 50
0.0
 71
     0
 42
0.2
  3
TXT
  4

  0
STYLE
  5
BA6F
330
3
100
AcDbSymbolTableRecord
100
AcDbTextStyleTableRecord
  2
SLDTEXTSTYLE4
 70
     0
 40
0.0
 41
0.57
 50
0.0
 71
     0
 42
0.2
  3
TXT
  4

  0
STYLE
  5
BA70
330
3
100
AcDbSymbolTableRecord
100
AcDbTextStyleTableRecord
  2
SLDTEXTSTYLE6
 70
     0
 40
0.0
 41
0.5053081188670516
 50
0.0
 71
     0
 42
0.2
  3
TXT
  4

  0
STYLE
  5
BA71
330
3
100
AcDbSymbolTableRecord
100
AcDbTextStyleTableRecord
  2
SLDTEXTSTYLE7
 70
     0
 40
0.0
 41
0.7
 50
0.0
 71
     0
 42
0.2
  3
TXT
  4
bigfont
  0
STYLE
  5
C58B
330
3
100
AcDbSymbolTableRecord
100
AcDbTextStyleTableRecord
  2
stile3
 70
     0
 40
2.0
 41
1.0
 50
0.0
 71
     0
 42
2.0
  3
romans.shx
  4

  0
ENDTAB
  0
TABLE
  2
VIEW
  5
5
330
0
100
AcDbSymbolTable
 70
     0
  0
ENDTAB
  0
TABLE
  2
UCS
  5
6
330
0
100
AcDbSymbolTable
 70
     0
  0
ENDTAB
  0
TABLE
  2
APPID
  5
8
330
0
100
AcDbSymbolTable
 70
     6
  0
APPID
  5
16
330
8
100
AcDbSymbolTableRecord
100
AcDbRegAppTableRecord
  2
ACAD
 70
     0
  0
APPID
  5
26
330
8
100
AcDbSymbolTableRecord
100
AcDbRegAppTableRecord
  2
TopSolid'Draft
 70
     0
  0
APPID
  5
5850
330
8
100
AcDbSymbolTableRecord
100
AcDbRegAppTableRecord
  2
ACAD_MLEADERVER
 70
     0
  0
APPID
  5
5856
330
8
100
AcDbSymbolTableRecord
100
AcDbRegAppTableRecord
  2
DCO15
 70
     0
  0
APPID
  5
B63D
330
8
100
AcDbSymbolTableRecord
100
AcDbRegAppTableRecord
  2
ACAD_EXEMPT_FROM_CAD_STANDARDS
 70
     0
  0
APPID
  5
C58A
330
8
100
AcDbSymbolTableRecord
100
AcDbRegAppTableRecord
  2
ACAD_PSEXT
 70
     0
  0
ENDTAB
  0
TABLE
  2
DIMSTYLE
  5
9
330
0
100
AcDbSymbolTable
 70
     4
100
AcDbDimStyleTable
  0
DIMSTYLE
105
18
330
9
100
AcDbSymbolTableRecord
100
AcDbDimStyleTableRecord
  2
Standard
 70
     0
 41
1.25
 42
0.0
 44
0.75
 73
     0
 74
     0
 77
     1
140
2.5
146
0.8
147
1.25
176
     7
177
     7
271
     2
178
     7
271
     2
340
17
  0
DIMSTYLE
105
B665
330
9
100
AcDbSymbolTableRecord
100
AcDbDimStyleTableRecord
  2
ISO-25
 70
     0
 41
2.5
 42
0.625
 43
3.75
 44
1.25
 73
     0
 74
     0
 77
     1
 78
     8
140
2.5
141
2.5
143
0.0393700787
147
0.625
171
     3
172
     1
178
     0
271
     2
272
     2
274
     3
278
    44
283
     0
284
     8
340
17
  0
DIMSTYLE
105
BA68
330
9
100
AcDbSymbolTableRecord
100
AcDbDimStyleTableRecord
  2
SLDDIMSTYLE0
 70
     0
 41
3.2
 44
0.0
 45
0.000000001
 73
     0
 74
     0
 77
     1
 78
    12
 79
     3
140
3.2
147
0.8
173
     1
178
     0
271
     2
272
     2
276
     2
284
    12
340
BA69
  0
DIMSTYLE
105
BA6A
330
9
100
AcDbSymbolTableRecord
100
AcDbDimStyleTableRecord
  2
SLDDIMSTYLE1
 70
     0
 41
3.2
 44
0.0
 45
0.000000001
 73
     0
 74
     0
 77
     1
 78
    12
 79
     3
140
3.2
147
0.8
172
     1
173
     1
178
     0
271
     2
272
     2
276
     2
284
    12
289
     0
340
BA69
  0
ENDTAB
  0
TABLE
  2
BLOCK_RECORD
  5
1
330
0
100
AcDbSymbolTable
 70
    16
  0
BLOCK_RECORD
  5
A
102
{ACAD_XDICTIONARY
360
5864
102
}
330
1
100
AcDbSymbolTableRecord
100
AcDbBlockTableRecord
  2
*MODEL_SPACE
340
20
  0
BLOCK_RECORD
  5
B
330
1
100
AcDbSymbolTableRecord
100
AcDbBlockTableRecord
  2
*PAPER_SPACE
340
21
  0
BLOCK_RECORD
  5
B68D
330
1
100
AcDbSymbolTableRecord
100
AcDbBlockTableRecord
  2
SW_CENTERMARKSYMBOL_0
340
0
102
{BLKREFS
331
D0B8
102
}
  0
BLOCK_RECORD
  5
B70F
330
1
100
AcDbSymbolTableRecord
100
AcDbBlockTableRecord
  2
SW_CENTERMARKSYMBOL_1
340
0
  0
BLOCK_RECORD
  5
BAF0
330
1
100
AcDbSymbolTableRecord
100
AcDbBlockTableRecord
  2
SW_NOTE_0
340
0
  0
BLOCK_RECORD
  5
BAFC
330
1
100
AcDbSymbolTableRecord
100
AcDbBlockTableRecord
  2
SW_NOTE_1
340
0
  0
BLOCK_RECORD
  5
BB18
330
1
100
AcDbSymbolTableRecord
100
AcDbBlockTableRecord
  2
SW_NOTE_2
340
0
  0
BLOCK_RECORD
  5
BB25
330
1
100
AcDbSymbolTableRecord
100
AcDbBlockTableRecord
  2
SW_NOTE_3
340
0
  0
BLOCK_RECORD
  5
BB2C
330
1
100
AcDbSymbolTableRecord
100
AcDbBlockTableRecord
  2
SW_NOTE_4
340
0
  0
BLOCK_RECORD
  5
BB33
330
1
100
AcDbSymbolTableRecord
100
AcDbBlockTableRecord
  2
SW_NOTE_5
340
0
  0
BLOCK_RECORD
  5
BB9B
330
1
100
AcDbSymbolTableRecord
100
AcDbBlockTableRecord
  2
_D
340
0
  0
BLOCK_RECORD
  5
BBA8
330
1
100
AcDbSymbolTableRecord
100
AcDbBlockTableRecord
  2
_D_1
340
0
  0
BLOCK_RECORD
  5
BBB8
330
1
100
AcDbSymbolTableRecord
100
AcDbBlockTableRecord
  2
_D_2
340
0
  0
BLOCK_RECORD
  5
BC1D
330
1
100
AcDbSymbolTableRecord
100
AcDbBlockTableRecord
  2
_D_3
340
0
  0
BLOCK_RECORD
  5
BC2A
330
1
100
AcDbSymbolTableRecord
100
AcDbBlockTableRecord
  2
_D_4
340
0
  0
BLOCK_RECORD
  5
BC3A
330
1
100
AcDbSymbolTableRecord
100
AcDbBlockTableRecord
  2
_D_5
340
0
  0
BLOCK_RECORD
  5
D0D7
330
1
100
AcDbSymbolTableRecord
100
AcDbBlockTableRecord
  2
*D14
340
0
  0
ENDTAB
  0
ENDSEC
  0
SECTION
  2
BLOCKS
  0
BLOCK
  5
D
330
A
100
AcDbEntity
  8
0
100
AcDbBlockBegin
  2
*MODEL_SPACE
 70
     0
 10
0.0
 20
0.0
 30
0.0
  3
*MODEL_SPACE
  1
*MODEL_SPACE
  0
ENDBLK
  5
E
330
A
100
AcDbEntity
  8
0
100
AcDbBlockEnd
  0
BLOCK
  5
F
330
B
100
AcDbEntity
 67
     1
  8
0
100
AcDbBlockBegin
  2
*PAPER_SPACE
 70
     0
 10
0.0
 20
0.0
 30
0.0
  3
*PAPER_SPACE
  1
*PAPER_SPACE
  0
ENDBLK
  5
10
330
B
100
AcDbEntity
 67
     1
  8
0
100
AcDbBlockEnd
  0
BLOCK
  5
B68E
330
B68D
100
AcDbEntity
  8
0
100
AcDbBlockBegin
  2
SW_CENTERMARKSYMBOL_0
 70
     0
 10
0.0
 20
0.0
 30
0.0
  3
SW_CENTERMARKSYMBOL_0
  1
SW_CENTERMARKSYMBOL_0
  0
LINE
  5
B68F
330
B68D
100
AcDbEntity
  8
0
  6
Continuous
 62
     0
370
     0
100
AcDbLine
 10
0.0
 20
0.0
 30
0.0
 11
0.0
 21
5.0
 31
0.0
  0
LINE
  5
B690
330
B68D
100
AcDbEntity
  8
0
  6
Continuous
 62
     0
370
     0
100
AcDbLine
 10
0.0
 20
0.0
 30
0.0
 11
-5.0
 21
0.0
 31
0.0
  0
LINE
  5
B691
330
B68D
100
AcDbEntity
  8
0
  6
Continuous
 62
     0
370
     0
100
AcDbLine
 10
0.0
 20
0.0
 30
0.0
 11
0.0
 21
-5.0
 31
0.0
  0
LINE
  5
B692
330
B68D
100
AcDbEntity
  8
0
  6
Continuous
 62
     0
370
     0
100
AcDbLine
 10
0.0
 20
0.0
 30
0.0
 11
5.0
 21
0.0
 31
0.0
  0
LINE
  5
B693
330
B68D
100
AcDbEntity
  8
0
  6
Continuous
 62
     0
370
     0
100
AcDbLine
 10
0.0
 20
10.0
 30
0.0
 11
0.0
 21
14.9999999999
 31
0.0
  0
LINE
  5
B694
330
B68D
100
AcDbEntity
  8
0
  6
Continuous
 62
     0
370
     0
100
AcDbLine
 10
-10.0
 20
0.0
 30
0.0
 11
-14.9999999999
 21
0.0
 31
0.0
  0
LINE
  5
B695
330
B68D
100
AcDbEntity
  8
0
  6
Continuous
 62
     0
370
     0
100
AcDbLine
 10
0.0
 20
-10.0
 30
0.0
 11
0.0
 21
-14.9999999999
 31
0.0
  0
LINE
  5
B696
330
B68D
100
AcDbEntity
  8
0
  6
Continuous
 62
     0
370
     0
100
AcDbLine
 10
10.0
 20
0.0
 30
0.0
 11
14.9999999999
 21
0.0
 31
0.0
  0
ENDBLK
  5
B697
330
B68D
100
AcDbEntity
  8
0
100
AcDbBlockEnd
  0
BLOCK
  5
B710
330
B70F
100
AcDbEntity
  8
0
100
AcDbBlockBegin
  2
SW_CENTERMARKSYMBOL_1
 70
     0
 10
0.0
 20
0.0
 30
0.0
  3
SW_CENTERMARKSYMBOL_1
  1
SW_CENTERMARKSYMBOL_1
  0
LINE
  5
B711
330
B70F
100
AcDbEntity
  8
0
  6
Continuous
 62
     0
370
     0
100
AcDbLine
 10
0.0
 20
0.0
 30
0.0
 11
0.0
 21
5.0
 31
0.0
  0
LINE
  5
B712
330
B70F
100
AcDbEntity
  8
0
  6
Continuous
 62
     0
370
     0
100
AcDbLine
 10
0.0
 20
0.0
 30
0.0
 11
-5.0
 21
0.0
 31
0.0
  0
LINE
  5
B713
330
B70F
100
AcDbEntity
  8
0
  6
Continuous
 62
     0
370
     0
100
AcDbLine
 10
0.0
 20
0.0
 30
0.0
 11
0.0
 21
-5.0
 31
0.0
  0
LINE
  5
B714
330
B70F
100
AcDbEntity
  8
0
  6
Continuous
 62
     0
370
     0
100
AcDbLine
 10
0.0
 20
0.0
 30
0.0
 11
5.0
 21
0.0
 31
0.0
  0
LINE
  5
B715
330
B70F
100
AcDbEntity
  8
0
  6
Continuous
 62
     0
370
     0
100
AcDbLine
 10
0.0
 20
5.0
 30
0.0
 11
0.0
 21
9.3
 31
0.0
  0
LINE
  5
B716
330
B70F
100
AcDbEntity
  8
0
  6
Continuous
 62
     0
370
     0
100
AcDbLine
 10
-5.0
 20
0.0
 30
0.0
 11
-9.3
 21
0.0
 31
0.0
  0
LINE
  5
B717
330
B70F
100
AcDbEntity
  8
0
  6
Continuous
 62
     0
370
     0
100
AcDbLine
 10
0.0
 20
-5.0
 30
0.0
 11
0.0
 21
-9.3
 31
0.0
  0
LINE
  5
B718
330
B70F
100
AcDbEntity
  8
0
  6
Continuous
 62
     0
370
     0
100
AcDbLine
 10
5.0
 20
0.0
 30
0.0
 11
9.3
 21
0.0
 31
0.0
  0
ENDBLK
  5
B719
330
B70F
100
AcDbEntity
  8
0
100
AcDbBlockEnd
  0
BLOCK
  5
BAF1
330
BAF0
100
AcDbEntity
  8
0
100
AcDbBlockBegin
  2
SW_NOTE_0
 70
     0
 10
0.0
 20
0.0
 30
0.0
  3
SW_NOTE_0
  1
SW_NOTE_0
  0
MTEXT
  5
BAF2
330
BAF0
100
AcDbEntity
  8
0
  6
Continuous
 62
     0
370
     0
100
AcDbMText
 10
0.0
 20
2.387460876369325
 30
0.0
 40
1.852083333333333
 41
0.0
 71
     1
 72
     1
  1
FINITURA
  7
SLDTEXTSTYLE0
 73
     1
 44
1.0
  0
MTEXT
  5
BAF3
330
BAF0
100
AcDbEntity
  8
0
  6
Continuous
 62
     0
370
     0
100
AcDbMText
 10
0.0
 20
-0.0819835382314046
 30
0.0
 40
1.852083333333333
 41
0.0
 71
     1
 72
     1
  1
SPECIFICA:
  7
SLDTEXTSTYLE0
 73
     1
 44
1.0
  0
ENDBLK
  5
BAF4
330
BAF0
100
AcDbEntity
  8
0
100
AcDbBlockEnd
  0
BLOCK
  5
BAFD
330
BAFC
100
AcDbEntity
  8
0
100
AcDbBlockBegin
  2
SW_NOTE_1
 70
     0
 10
0.0
 20
0.0
 30
0.0
  3
SW_NOTE_1
  1
SW_NOTE_1
  0
MTEXT
  5
BAFE
330
BAFC
100
AcDbEntity
  8
0
  6
Continuous
 62
     0
370
     0
100
AcDbMText
 10
0.0
 20
2.387460876369325
 30
0.0
 40
1.852083333333333
 41
0.0
 71
     1
 72
     1
  1
CROMATURA
  7
SLDTEXTSTYLE0
 73
     1
 44
1.0
  0
MTEXT
  5
BAFF
330
BAFC
100
AcDbEntity
  8
0
  6
Continuous
 62
     0
370
     0
100
AcDbMText
 10
0.0
 20
-0.0819835382314046
 30
0.0
 40
1.852083333333333
 41
0.0
 71
     1
 72
     1
  1
A KANBAN
  7
SLDTEXTSTYLE0
 73
     1
 44
1.0
  0
ENDBLK
  5
BB00
330
BAFC
100
AcDbEntity
  8
0
100
AcDbBlockEnd
  0
BLOCK
  5
BB19
330
BB18
100
AcDbEntity
  8
0
100
AcDbBlockBegin
  2
SW_NOTE_2
 70
     0
 10
0.0
 20
0.0
 30
0.0
  3
SW_NOTE_2
  1
SW_NOTE_2
  0
LINE
  5
BB1A
330
BB18
100
AcDbEntity
  8
0
  6
Continuous
 62
     0
370
     0
100
AcDbLine
 10
-3.046602633579976
 20
-18.97455793511649
 30
0.0
 11
-3.046602633579976
 21
3.709527575572358
 31
0.0
  0
LINE
  5
BB1B
330
BB18
100
AcDbEntity
  8
0
  6
Continuous
 62
     0
370
     0
100
AcDbLine
 10
-3.046602633579976
 20
3.709527575572358
 30
0.0
 11
25.45696031178818
 21
3.709527575572358
 31
0.0
  0
LINE
  5
BB1C
330
BB18
100
AcDbEntity
  8
0
  6
Continuous
 62
     0
370
     0
100
AcDbLine
 10
25.45696031178818
 20
3.709527575572358
 30
0.0
 11
25.45696031178818
 21
-18.97455793511649
 31
0.0
  0
LINE
  5
BB1D
330
BB18
100
AcDbEntity
  8
0
  6
Continuous
 62
     0
370
     0
100
AcDbLine
 10
25.45696031178818
 20
-18.97455793511649
 30
0.0
 11
-3.046602633579976
 21
-18.97455793511649
 31
0.0
  0
MTEXT
  5
BB1E
330
BB18
100
AcDbEntity
  8
0
  6
Continuous
 62
     0
370
     0
100
AcDbMText
 10
10.54374999999999
 20
3.609389671361485
 30
0.0
 40
2.8
 41
0.0
 71
     2
 72
     1
  1
VALIDO PER
  7
SLDTEXTSTYLE5
 73
     1
 44
1.0
  0
MTEXT
  5
BB1F
330
BB18
100
AcDbEntity
  8
0
  6
Continuous
 62
     0
370
     0
100
AcDbMText
 10
11.19027741849421
 20
-0.1906105673364911
 30
0.0
 40
2.8
 41
0.0
 71
     2
 72
     1
  1
PRODUZIONE
  7
SLDTEXTSTYLE5
 73
     1
 44
1.0
  0
MTEXT
  5
BB20
330
BB18
100
AcDbEntity
  8
0
  6
Continuous
 62
     0
370
     0
100
AcDbMText
 10
10.97444543242454
 20
-3.990610631411484
 30
0.0
 40
2.8
 41
0.0
 71
     2
 72
     1
  1
12/02/2013
  7
SLDTEXTSTYLE5
 73
     1
 44
1.0
  0
ENDBLK
  5
BB21
330
BB18
100
AcDbEntity
  8
0
100
AcDbBlockEnd
  0
BLOCK
  5
BB26
330
BB25
100
AcDbEntity
  8
0
100
AcDbBlockBegin
  2
SW_NOTE_3
 70
     0
 10
0.0
 20
0.0
 30
0.0
  3
SW_NOTE_3
  1
SW_NOTE_3
  0
MTEXT
  5
BB27
330
BB25
100
AcDbEntity
  8
0
  6
Continuous
 62
     0
370
     0
100
AcDbMText
 10
0.0
 20
2.728526715850658
 30
0.0
 40
2.116666666666666
 41
0.0
 71
     1
 72
     1
  1
Approvato:
  7
SLDTEXTSTYLE0
 73
     1
 44
1.0
  0
MTEXT
  5
BB28
330
BB25
100
AcDbEntity
  8
0
  6
Continuous
 62
     0
370
     0
100
AcDbMText
 10
15.84560198038817
 20
2.728526715850658
 30
0.0
 40
2.116666666666666
 41
0.0
 71
     1
 72
     1
  1
A. Biasotti
  7
SLDTEXTSTYLE0
 73
     1
 44
1.0
  0
ENDBLK
  5
BB29
330
BB25
100
AcDbEntity
  8
0
100
AcDbBlockEnd
  0
BLOCK
  5
BB2D
330
BB2C
100
AcDbEntity
  8
0
100
AcDbBlockBegin
  2
SW_NOTE_4
 70
     0
 10
0.0
 20
0.0
 30
0.0
  3
SW_NOTE_4
  1
SW_NOTE_4
  0
MTEXT
  5
BB2E
330
BB2C
100
AcDbEntity
  8
0
  6
Continuous
 62
     0
370
     0
100
AcDbMText
 10
0.0
 20
2.449228705566728
 30
0.0
 40
1.9
 41
0.0
 71
     1
 72
     1
  1
Dimensioni in mm   -
  7
SLDTEXTSTYLE0
 73
     1
 44
1.0
  0
MTEXT
  5
BB2F
330
BB2C
100
AcDbEntity
  8
0
  6
Continuous
 62
     0
370
     0
100
AcDbMText
 10
25.96666663885117
 20
2.449228705566728
 30
0.0
 40
1.9
 41
0.0
 71
     1
 72
     1
  1
NB
  7
SLDTEXTSTYLE0
 73
     1
 44
1.0
  0
MTEXT
  5
BB30
330
BB2C
100
AcDbEntity
  8
0
  6
Continuous
 62
     0
370
     0
100
AcDbMText
 10
29.73500080406666
 20
2.449228705566728
 30
0.0
 40
1.9
 41
0.0
 71
     1
 72
     1
  1
:  LE QUOTE INDICATE A DISEGNO SI RIFERISCONO ALLA LAVORAZIONE MECCANICA. - PRIMA DEI TRATTAMENTI SUPERFICIALI
  7
SLDTEXTSTYLE0
 73
     1
 44
1.0
  0
ENDBLK
  5
BB31
330
BB2C
100
AcDbEntity
  8
0
100
AcDbBlockEnd
  0
BLOCK
  5
BB34
330
BB33
100
AcDbEntity
  8
0
100
AcDbBlockBegin
  2
SW_NOTE_5
 70
     0
 10
0.0
 20
0.0
 30
0.0
  3
SW_NOTE_5
  1
SW_NOTE_5
  0
MTEXT
  5
BB35
330
BB33
100
AcDbEntity
  8
0
  6
Continuous
 62
     0
370
     0
100
AcDbMText
 10
0.0
 20
6.139185110663983
 30
0.0
 40
4.762499999999999
 41
0.0
 71
     1
 72
     1
  1
Lo studio di fattibilità fa riferimento alla sola possibilità da parte di Colcom
  7
SLDTEXTSTYLE3
 73
     1
 44
1.0
  0
MTEXT
  5
BB36
330
BB33
100
AcDbEntity
  8
0
  6
Continuous
 62
     0
370
     0
100
AcDbMText
 10
0.0
 20
-0.2108148125950365
 30
0.0
 40
4.762499999999999
 41
0.0
 71
     1
 72
     1
  1
per quanto riguarda la realizzazione.
  7
SLDTEXTSTYLE3
 73
     1
 44
1.0
  0
MTEXT
  5
BB37
330
BB33
100
AcDbEntity
  8
0
  6
Continuous
 62
     0
370
     0
100
AcDbMText
 10
0.0
 20
-6.560814735854057
 30
0.0
 40
4.762499999999999
 41
0.0
 71
     1
 72
     1
  1
Non è stata considerata nello studio la struttura portante e l\M+18166 applicazione in
  7
SLDTEXTSTYLE7
 73
     1
 44
1.0
  0
MTEXT
  5
BB38
330
BB33
100
AcDbEntity
  8
0
  6
Continuous
 62
     0
370
     0
100
AcDbMText
 10
0.0
 20
-12.91081465911308
 30
0.0
 40
4.762499999999999
 41
0.0
 71
     1
 72
     1
  1
cui viene impiegato il prodotto, che resta a carico del cliente.
  7
SLDTEXTSTYLE3
 73
     1
 44
1.0
  0
ENDBLK
  5
BB39
330
BB33
100
AcDbEntity
  8
0
100
AcDbBlockEnd
  0
BLOCK
  5
BB9C
330
BB9B
100
AcDbEntity
  8
0
100
AcDbBlockBegin
  2
_D
 70
     0
 10
0.0
 20
0.0
 30
0.0
  3
_D
  1
_D
  0
LINE
  5
BB9D
330
BB9B
100
AcDbEntity
  8
0
  6
Continuous
 62
     0
370
    -2
100
AcDbLine
 10
-446.0124629378164
 20
279.6134080272748
 30
0.0
 11
-454.5617019061538
 21
279.6134080272748
 31
0.0
  0
LINE
  5
BB9E
330
BB9B
100
AcDbEntity
  8
0
  6
Continuous
 62
     0
370
    -2
100
AcDbLine
 10
-443.5124629378164
 20
306.6134080272748
 30
0.0
 11
-454.5617019061539
 21
306.6134080272747
 31
0.0
  0
LINE
  5
BB9F
330
BB9B
100
AcDbEntity
  8
0
  6
Continuous
 62
     0
370
    -2
100
AcDbLine
 10
-454.5617019061538
 20
282.8134080272748
 30
0.0
 11
-454.5617019061539
 21
303.4134080272747
 31
0.0
  0
SOLID
  5
BBA0
330
BB9B
100
AcDbEntity
  8
0
 62
     0
100
AcDbTrace
 10
-455.0950352394871
 20
282.8134080272748
 30
0.0
 11
-454.0283685728204
 21
282.8134080272748
 31
0.0
 12
-454.5617019061538
 22
279.6134080272748
 32
0.0
 13
-454.5617019061538
 23
279.6134080272748
 33
0.0
  0
SOLID
  5
BBA1
330
BB9B
100
AcDbEntity
  8
0
 62
     0
100
AcDbTrace
 10
-454.0283685728205
 20
303.4134080272747
 30
0.0
 11
-455.0950352394872
 21
303.4134080272747
 31
0.0
 12
-454.5617019061539
 22
306.6134080272747
 32
0.0
 13
-454.5617019061539
 23
306.6134080272747
 33
0.0
  0
MTEXT
  5
BBA2
330
BB9B
100
AcDbEntity
  8
0
  6
Continuous
 62
     0
370
     0
100
AcDbMText
 10
-458.5617019061539
 20
294.2973324769394
 30
0.0
 40
3.2
 41
0.0
 71
     2
 72
     1
  1
\A1;27
  7
SLDTEXTSTYLE5
 11
-4.210623619319121E-15
 21
1.0
 31
0.0
 73
     1
 44
1.0
  0
POINT
  5
BBA3
330
BB9B
100
AcDbEntity
  8
Defpoints
 62
     0
100
AcDbPoint
 10
-445.9499629378164
 20
279.6134080272748
 30
0.0
  0
POINT
  5
BBA4
330
BB9B
100
AcDbEntity
  8
Defpoints
 62
     0
100
AcDbPoint
 10
-443.4499629378164
 20
306.6134080272748
 30
0.0
  0
POINT
  5
BBA5
330
BB9B
100
AcDbEntity
  8
Defpoints
 62
     0
100
AcDbPoint
 10
-454.5617019061539
 20
306.6134080272747
 30
0.0
  0
ENDBLK
  5
BBA6
330
BB9B
100
AcDbEntity
  8
0
100
AcDbBlockEnd
  0
BLOCK
  5
BBA9
330
BBA8
100
AcDbEntity
  8
0
100
AcDbBlockBegin
  2
_D_1
 70
     0
 10
0.0
 20
0.0
 30
0.0
  3
_D_1
  1
_D_1
  0
LINE
  5
BBAA
330
BBA8
100
AcDbEntity
  8
0
  6
Continuous
 62
     0
370
    -2
100
AcDbLine
 10
-441.4499629378164
 20
332.3759080272748
 30
0.0
 11
-441.4499629378164
 21
343.1134080272748
 31
0.0
  0
LINE
  5
BBAB
330
BBA8
100
AcDbEntity
  8
0
  6
Continuous
 62
     0
370
    -2
100
AcDbLine
 10
-431.4499629378164
 20
332.3759080272748
 30
0.0
 11
-431.4499629378164
 21
343.1134080272748
 31
0.0
  0
LINE
  5
BBAC
330
BBA8
100
AcDbEntity
  8
0
  6
Continuous
 62
     0
370
    -2
100
AcDbLine
 10
-431.4499629378164
 20
343.1134080272748
 30
0.0
 11
-415.8499629378164
 21
343.1134080272748
 31
0.0
  0
LINE
  5
BBAD
330
BBA8
100
AcDbEntity
  8
0
  6
Continuous
 62
     0
370
    -2
100
AcDbLine
 10
-441.4499629378164
 20
343.1134080272748
 30
0.0
 11
-431.4499629378164
 21
343.1134080272748
 31
0.0
  0
LINE
  5
BBAE
330
BBA8
100
AcDbEntity
  8
0
  6
Continuous
 62
     0
370
    -2
100
AcDbLine
 10
-441.4499629378164
 20
343.1134080272748
 30
0.0
 11
-447.8499629378164
 21
343.1134080272748
 31
0.0
  0
LINE
  5
BBAF
330
BBA8
100
AcDbEntity
  8
0
  6
Continuous
 62
     0
370
    -2
100
AcDbLine
 10
-431.4499629378164
 20
343.1134080272748
 30
0.0
 11
-425.0499629378164
 21
343.1134080272748
 31
0.0
  0
SOLID
  5
BBB0
330
BBA8
100
AcDbEntity
  8
0
 62
     0
100
AcDbTrace
 10
-444.6499629378164
 20
342.5800746939415
 30
0.0
 11
-444.6499629378164
 21
343.6467413606082
 31
0.0
 12
-441.4499629378164
 22
343.1134080272748
 32
0.0
 13
-441.4499629378164
 23
343.1134080272748
 33
0.0
  0
SOLID
  5
BBB1
330
BBA8
100
AcDbEntity
  8
0
 62
     0
100
AcDbTrace
 10
-428.2499629378164
 20
343.6467413606082
 30
0.0
 11
-428.2499629378164
 21
342.5800746939415
 31
0.0
 12
-431.4499629378164
 22
343.1134080272748
 32
0.0
 13
-431.4499629378164
 23
343.1134080272748
 33
0.0
  0
MTEXT
  5
BBB2
330
BBA8
100
AcDbEntity
  8
0
  6
Continuous
 62
     0
370
     0
100
AcDbMText
 10
-420.4499629378164
 20
347.1134080272749
 30
0.0
 40
3.2
 41
0.0
 71
     2
 72
     1
  1
\A1;8÷10
  7
SLDTEXTSTYLE5
 73
     1
 44
1.0
  0
POINT
  5
BBB3
330
BBA8
100
AcDbEntity
  8
Defpoints
 62
     0
100
AcDbPoint
 10
-441.4499629378164
 20
332.3134080272748
 30
0.0
  0
POINT
  5
BBB4
330
BBA8
100
AcDbEntity
  8
Defpoints
 62
     0
100
AcDbPoint
 10
-431.4499629378164
 20
332.3134080272748
 30
0.0
  0
POINT
  5
BBB5
330
BBA8
100
AcDbEntity
  8
Defpoints
 62
     0
100
AcDbPoint
 10
-431.4499629378164
 20
343.1134080272748
 30
0.0
  0
ENDBLK
  5
BBB6
330
BBA8
100
AcDbEntity
  8
0
100
AcDbBlockEnd
  0
BLOCK
  5
BBB9
330
BBB8
100
AcDbEntity
  8
0
100
AcDbBlockBegin
  2
_D_2
 70
     0
 10
0.0
 20
0.0
 30
0.0
  3
_D_2
  1
_D_2
  0
LINE
  5
BBBA
330
BBB8
100
AcDbEntity
  8
0
  6
Continuous
 62
     0
370
    -2
100
AcDbLine
 10
-421.9499629378164
 20
280.0509080272748
 30
0.0
 11
-421.9499629378164
 21
270.1314537932682
 31
0.0
  0
LINE
  5
BBBB
330
BBB8
100
AcDbEntity
  8
0
  6
Continuous
 62
     0
370
    -2
100
AcDbLine
 10
-446.4499629378164
 20
280.0509080272748
 30
0.0
 11
-446.4499629378164
 21
270.1314537932682
 31
0.0
  0
LINE
  5
BBBC
330
BBB8
100
AcDbEntity
  8
0
  6
Continuous
 62
     0
370
    -2
100
AcDbLine
 10
-425.1499629378164
 20
270.1314537932682
 30
0.0
 11
-443.2499629378164
 21
270.1314537932682
 31
0.0
  0
SOLID
  5
BBBD
330
BBB8
100
AcDbEntity
  8
0
 62
     0
100
AcDbTrace
 10
-425.1499629378164
 20
269.5981204599348
 30
0.0
 11
-425.1499629378164
 21
270.6647871266015
 31
0.0
 12
-421.9499629378164
 22
270.1314537932682
 32
0.0
 13
-421.9499629378164
 23
270.1314537932682
 33
0.0
  0
SOLID
  5
BBBE
330
BBB8
100
AcDbEntity
  8
0
 62
     0
100
AcDbTrace
 10
-443.2499629378164
 20
270.6647871266015
 30
0.0
 11
-443.2499629378164
 21
269.5981204599348
 31
0.0
 12
-446.4499629378164
 22
270.1314537932682
 32
0.0
 13
-446.4499629378164
 23
270.1314537932682
 33
0.0
  0
MTEXT
  5
BBBF
330
BBB8
100
AcDbEntity
  8
0
  6
Continuous
 62
     0
370
     0
100
AcDbMText
 10
-434.4904613911724
 20
274.1314537932682
 30
0.0
 40
3.2
 41
0.0
 71
     2
 72
     1
  1
\A1;24.5
  7
SLDTEXTSTYLE5
 73
     1
 44
1.0
  0
POINT
  5
BBC0
330
BBB8
100
AcDbEntity
  8
Defpoints
 62
     0
100
AcDbPoint
 10
-421.9499629378164
 20
280.1134080272748
 30
0.0
  0
POINT
  5
BBC1
330
BBB8
100
AcDbEntity
  8
Defpoints
 62
     0
100
AcDbPoint
 10
-446.4499629378164
 20
280.1134080272748
 30
0.0
  0
POINT
  5
BBC2
330
BBB8
100
AcDbEntity
  8
Defpoints
 62
     0
100
AcDbPoint
 10
-446.4499629378164
 20
270.1314537932682
 30
0.0
  0
ENDBLK
  5
BBC3
330
BBB8
100
AcDbEntity
  8
0
100
AcDbBlockEnd
  0
BLOCK
  5
BC1E
330
BC1D
100
AcDbEntity
  8
0
100
AcDbBlockBegin
  2
_D_3
 70
     0
 10
0.0
 20
0.0
 30
0.0
  3
_D_3
  1
_D_3
  0
LINE
  5
BC1F
330
BC1D
100
AcDbEntity
  8
0
  6
Continuous
 62
     0
370
    -2
100
AcDbLine
 10
-391.095042145525
 20
279.6134080272748
 30
0.0
 11
-398.1152715411484
 21
279.6134080272748
 31
0.0
  0
LINE
  5
BC20
330
BC1D
100
AcDbEntity
  8
0
  6
Continuous
 62
     0
370
    -2
100
AcDbLine
 10
-388.595042145525
 20
306.6134080272748
 30
0.0
 11
-398.1152715411486
 21
306.6134080272748
 31
0.0
  0
LINE
  5
BC21
330
BC1D
100
AcDbEntity
  8
0
  6
Continuous
 62
     0
370
    -2
100
AcDbLine
 10
-398.1152715411484
 20
282.8134080272748
 30
0.0
 11
-398.1152715411486
 21
303.4134080272748
 31
0.0
  0
SOLID
  5
BC22
330
BC1D
100
AcDbEntity
  8
0
 62
     0
100
AcDbTrace
 10
-398.6486048744818
 20
282.8134080272748
 30
0.0
 11
-397.5819382078151
 21
282.8134080272748
 31
0.0
 12
-398.1152715411484
 22
279.6134080272748
 32
0.0
 13
-398.1152715411484
 23
279.6134080272748
 33
0.0
  0
SOLID
  5
BC23
330
BC1D
100
AcDbEntity
  8
0
 62
     0
100
AcDbTrace
 10
-397.5819382078152
 20
303.4134080272748
 30
0.0
 11
-398.6486048744819
 21
303.4134080272748
 31
0.0
 12
-398.1152715411486
 22
306.6134080272748
 32
0.0
 13
-398.1152715411486
 23
306.6134080272748
 33
0.0
  0
MTEXT
  5
BC24
330
BC1D
100
AcDbEntity
  8
0
  6
Continuous
 62
     0
370
     0
100
AcDbMText
 10
-402.1152715411486
 20
293.1287707561901
 30
0.0
 40
3.2
 41
0.0
 71
     2
 72
     1
  1
\A1;27
  7
SLDTEXTSTYLE5
 11
-4.210623619319130E-15
 21
1.0
 31
0.0
 73
     1
 44
1.0
  0
POINT
  5
BC25
330
BC1D
100
AcDbEntity
  8
Defpoints
 62
     0
100
AcDbPoint
 10
-391.032542145525
 20
279.6134080272748
 30
0.0
  0
POINT
  5
BC26
330
BC1D
100
AcDbEntity
  8
Defpoints
 62
     0
100
AcDbPoint
 10
-388.532542145525
 20
306.6134080272748
 30
0.0
  0
POINT
  5
BC27
330
BC1D
100
AcDbEntity
  8
Defpoints
 62
     0
100
AcDbPoint
 10
-398.1152715411486
 20
306.6134080272747
 30
0.0
  0
ENDBLK
  5
BC28
330
BC1D
100
AcDbEntity
  8
0
100
AcDbBlockEnd
  0
BLOCK
  5
BC2B
330
BC2A
100
AcDbEntity
  8
0
100
AcDbBlockBegin
  2
_D_4
 70
     0
 10
0.0
 20
0.0
 30
0.0
  3
_D_4
  1
_D_4
  0
LINE
  5
BC2C
330
BC2A
100
AcDbEntity
  8
0
  6
Continuous
 62
     0
370
    -2
100
AcDbLine
 10
-386.532542145525
 20
332.3759080272748
 30
0.0
 11
-386.532542145525
 21
343.1134080272748
 31
0.0
  0
LINE
  5
BC2D
330
BC2A
100
AcDbEntity
  8
0
  6
Continuous
 62
     0
370
    -2
100
AcDbLine
 10
-373.032542145525
 20
332.3759080272748
 30
0.0
 11
-373.032542145525
 21
343.1134080272748
 31
0.0
  0
LINE
  5
BC2E
330
BC2A
100
AcDbEntity
  8
0
  6
Continuous
 62
     0
370
    -2
100
AcDbLine
 10
-373.032542145525
 20
343.1134080272748
 30
0.0
 11
-349.432542145525
 21
343.1134080272748
 31
0.0
  0
LINE
  5
BC2F
330
BC2A
100
AcDbEntity
  8
0
  6
Continuous
 62
     0
370
    -2
100
AcDbLine
 10
-386.532542145525
 20
343.1134080272748
 30
0.0
 11
-373.032542145525
 21
343.1134080272748
 31
0.0
  0
LINE
  5
BC30
330
BC2A
100
AcDbEntity
  8
0
  6
Continuous
 62
     0
370
    -2
100
AcDbLine
 10
-386.532542145525
 20
343.1134080272748
 30
0.0
 11
-392.932542145525
 21
343.1134080272748
 31
0.0
  0
LINE
  5
BC31
330
BC2A
100
AcDbEntity
  8
0
  6
Continuous
 62
     0
370
    -2
100
AcDbLine
 10
-373.032542145525
 20
343.1134080272748
 30
0.0
 11
-366.6325421455251
 21
343.1134080272748
 31
0.0
  0
SOLID
  5
BC32
330
BC2A
100
AcDbEntity
  8
0
 62
     0
100
AcDbTrace
 10
-389.732542145525
 20
342.5800746939415
 30
0.0
 11
-389.732542145525
 21
343.6467413606082
 31
0.0
 12
-386.532542145525
 22
343.1134080272748
 32
0.0
 13
-386.532542145525
 23
343.1134080272748
 33
0.0
  0
SOLID
  5
BC33
330
BC2A
100
AcDbEntity
  8
0
 62
     0
100
AcDbTrace
 10
-369.8325421455251
 20
343.6467413606082
 30
0.0
 11
-369.8325421455251
 21
342.5800746939415
 31
0.0
 12
-373.032542145525
 22
343.1134080272748
 32
0.0
 13
-373.032542145525
 23
343.1134080272748
 33
0.0
  0
MTEXT
  5
BC34
330
BC2A
100
AcDbEntity
  8
0
  6
Continuous
 62
     0
370
     0
100
AcDbMText
 10
-358.032542145525
 20
347.6467413606082
 30
0.0
 40
3.2
 41
0.0
 71
     2
 72
     1
  1
\A1;12÷13,52
  7
SLDTEXTSTYLE5
 73
     1
 44
1.0
  0
POINT
  5
BC35
330
BC2A
100
AcDbEntity
  8
Defpoints
 62
     0
100
AcDbPoint
 10
-386.532542145525
 20
332.3134080272748
 30
0.0
  0
POINT
  5
BC36
330
BC2A
100
AcDbEntity
  8
Defpoints
 62
     0
100
AcDbPoint
 10
-373.032542145525
 20
332.3134080272748
 30
0.0
  0
POINT
  5
BC37
330
BC2A
100
AcDbEntity
  8
Defpoints
 62
     0
100
AcDbPoint
 10
-373.032542145525
 20
343.1134080272748
 30
0.0
  0
ENDBLK
  5
BC38
330
BC2A
100
AcDbEntity
  8
0
100
AcDbBlockEnd
  0
BLOCK
  5
BC3B
330
BC3A
100
AcDbEntity
  8
0
100
AcDbBlockBegin
  2
_D_5
 70
     0
 10
0.0
 20
0.0
 30
0.0
  3
_D_5
  1
_D_5
  0
LINE
  5
BC3C
330
BC3A
100
AcDbEntity
  8
0
  6
Continuous
 62
     0
370
    -2
100
AcDbLine
 10
-391.532542145525
 20
280.0509080272748
 30
0.0
 11
-391.532542145525
 21
270.490192072367
 31
0.0
  0
LINE
  5
BC3D
330
BC3A
100
AcDbEntity
  8
0
  6
Continuous
 62
     0
370
    -2
100
AcDbLine
 10
-367.032542145525
 20
280.0509080272748
 30
0.0
 11
-367.032542145525
 21
270.490192072367
 31
0.0
  0
LINE
  5
BC3E
330
BC3A
100
AcDbEntity
  8
0
  6
Continuous
 62
     0
370
    -2
100
AcDbLine
 10
-388.3325421455251
 20
270.490192072367
 30
0.0
 11
-370.232542145525
 21
270.490192072367
 31
0.0
  0
SOLID
  5
BC3F
330
BC3A
100
AcDbEntity
  8
0
 62
     0
100
AcDbTrace
 10
-388.3325421455251
 20
271.0235254057004
 30
0.0
 11
-388.3325421455251
 21
269.9568587390336
 31
0.0
 12
-391.532542145525
 22
270.490192072367
 32
0.0
 13
-391.532542145525
 23
270.490192072367
 33
0.0
  0
SOLID
  5
BC40
330
BC3A
100
AcDbEntity
  8
0
 62
     0
100
AcDbTrace
 10
-370.232542145525
 20
269.9568587390336
 30
0.0
 11
-370.232542145525
 21
271.0235254057004
 31
0.0
 12
-367.032542145525
 22
270.490192072367
 32
0.0
 13
-367.032542145525
 23
270.490192072367
 33
0.0
  0
MTEXT
  5
BC41
330
BC3A
100
AcDbEntity
  8
0
  6
Continuous
 62
     0
370
     0
100
AcDbMText
 10
-378.8472034448416
 20
274.4901920723671
 30
0.0
 40
3.2
 41
0.0
 71
     2
 72
     1
  1
\A1;24.5
  7
SLDTEXTSTYLE5
 73
     1
 44
1.0
  0
POINT
  5
BC42
330
BC3A
100
AcDbEntity
  8
Defpoints
 62
     0
100
AcDbPoint
 10
-391.532542145525
 20
280.1134080272748
 30
0.0
  0
POINT
  5
BC43
330
BC3A
100
AcDbEntity
  8
Defpoints
 62
     0
100
AcDbPoint
 10
-367.032542145525
 20
280.1134080272748
 30
0.0
  0
POINT
  5
BC44
330
BC3A
100
AcDbEntity
  8
Defpoints
 62
     0
100
AcDbPoint
 10
-367.032542145525
 20
270.490192072367
 30
0.0
  0
ENDBLK
  5
BC45
330
BC3A
100
AcDbEntity
  8
0
100
AcDbBlockEnd
  0
BLOCK
  5
D0D8
330
D0D7
100
AcDbEntity
  8
0
100
AcDbBlockBegin
  2
*D14
 70
     1
 10
0.0
 20
0.0
 30
0.0
  3
*D14
  1
*D15
  0
LINE
  5
D0DA
330
D0D7
100
AcDbEntity
  8
0
  6
Continuous
 62
     7
370
     0
100
AcDbLine
 10
480.1896421169536
 20
-238.5545964369207
 30
0.0
 11
502.266392178242
 21
-238.5545964369207
 31
0.0
  0
LINE
  5
D0DB
330
D0D7
100
AcDbEntity
  8
0
  6
Continuous
 62
     7
370
     0
100
AcDbLine
 10
480.1896421169536
 20
-252.5545964369207
 30
0.0
 11
502.266392178242
 21
-252.5545964369207
 31
0.0
  0
LINE
  5
D0DC
330
D0D7
100
AcDbEntity
  8
0
  6
Continuous
 62
     7
370
     0
100
AcDbLine
 10
501.516392178242
 20
-239.8045964369207
 30
0.0
 11
501.516392178242
 21
-251.3045964369207
 31
0.0
  0
SOLID
  5
D0DD
330
D0D7
100
AcDbEntity
  8
0
 62
     7
100
AcDbTrace
 10
501.7247255115753
 20
-239.8045964369207
 30
0.0
 11
501.3080588449087
 21
-239.8045964369207
 31
0.0
 12
501.516392178242
 22
-238.5545964369207
 32
0.0
 13
501.516392178242
 23
-238.5545964369207
 33
0.0
  0
SOLID
  5
D0DE
330
D0D7
100
AcDbEntity
  8
0
 62
     7
100
AcDbTrace
 10
501.3080588449087
 20
-251.3045964369207
 30
0.0
 11
501.7247255115753
 21
-251.3045964369207
 31
0.0
 12
501.516392178242
 22
-252.5545964369207
 32
0.0
 13
501.516392178242
 23
-252.5545964369207
 33
0.0
  0
MTEXT
  5
D0DF
330
D0D7
100
AcDbEntity
  8
0
  6
Continuous
 62
     7
370
     0
100
AcDbMText
 10
499.0113871732369
 20
-245.5545964369207
 30
0.0
 40
2.5
 41
0.0
 71
     5
 72
     1
  1
\A1;14.00
 11
0.0
 21
1.0
 31
0.0
 73
     1
 44
1.0
  0
POINT
  5
D0E0
330
D0D7
100
AcDbEntity
  8
Defpoints
 62
     0
100
AcDbPoint
 10
480.1896421169536
 20
-238.5545964369207
 30
0.0
  0
POINT
  5
D0E1
330
D0D7
100
AcDbEntity
  8
Defpoints
 62
     0
100
AcDbPoint
 10
480.1896421169536
 20
-252.5545964369207
 30
0.0
  0
POINT
  5
D0E2
330
D0D7
100
AcDbEntity
  8
Defpoints
 62
     0
100
AcDbPoint
 10
501.516392178242
 20
-252.5545964369207
 30
0.0
  0
ENDBLK
  5
D0D9
330
D0D7
100
AcDbEntity
  8
0
100
AcDbBlockEnd
  0
ENDSEC
  0
SECTION
  2
ENTITIES
  0
TEXT
  5
C334
330
A
100
AcDbEntity
  8
0
  6
Continuous
 62
     7
370
     0
100
AcDbText
 10
274.1000148357213
 20
-208.2990257821266
 30
0.0
 40
10.0
  1
P20EP61
100
AcDbText
  0
TEXT
  5
C35B
330
A
100
AcDbEntity
  8
0
  6
Continuous
 62
     7
370
     0
100
AcDbText
 10
55.63153960724276
 20
-208.2989799703909
 30
0.0
 40
10.0
  1
P20EP60
100
AcDbText
  0
LWPOLYLINE
  5
C57D
330
A
100
AcDbEntity
  8
0
  6
Continuous
370
     0
100
AcDbPolyline
 90
        4
 70
     1
 43
0.0
 10
-31.3422140046244
 20
61.58091282650281
 10
-31.3422140046244
 20
-149.0525946164497
 10
190.5551173657586
 20
-149.0525946164497
 10
190.5551173657586
 20
61.58091282650281
  0
LWPOLYLINE
  5
C57F
330
A
100
AcDbEntity
  8
0
  6
Continuous
370
     0
100
AcDbPolyline
 90
        4
 70
     1
 43
0.0
 10
195.5551173657586
 20
61.58091282650281
 10
195.5551173657586
 20
-149.0525946164497
 10
417.4524487361416
 20
-149.0525946164497
 10
417.4524487361416
 20
61.58091282650281
  0
LWPOLYLINE
  5
C582
330
A
100
AcDbEntity
  8
0
  6
Continuous
370
     0
100
AcDbPolyline
 90
        4
 70
     1
 43
0.0
 10
-31.3422140046244
 20
-154.0525946164497
 10
-31.3422140046244
 20
-364.6861020594021
 10
190.5551173657586
 20
-364.6861020594021
 10
190.5551173657586
 20
-154.0525946164497
  0
LWPOLYLINE
  5
C583
330
A
100
AcDbEntity
  8
0
  6
Continuous
370
     0
100
AcDbPolyline
 90
        4
 70
     1
 43
0.0
 10
195.5551173657586
 20
-154.0525946164497
 10
195.5551173657586
 20
-364.6861020594021
 10
417.4524487361416
 20
-364.6861020594021
 10
417.4524487361416
 20
-154.0525946164497
  0
LINE
  5
CF10
330
A
100
AcDbEntity
  8
0
100
AcDbLine
 10
405.7996412027933
 20
-118.1946540393526
 30
0.0
 11
289.3055473283595
 21
-50.94404511510271
 31
0.0
  0
LINE
  5
CF11
330
A
100
AcDbEntity
  8
0
100
AcDbLine
 10
413.4521686756635
 20
-111.1608106181561
 30
0.0
 11
296.9580748012214
 21
-43.91020169390151
 31
0.0
  0
LINE
  5
CF12
330
A
100
AcDbEntity
  8
0
100
AcDbLine
 10
291.8004626288749
 20
-54.88438965748492
 30
0.0
 11
408.2945565033133
 21
-122.1349985817378
 31
0.0
  0
LINE
  5
CF13
330
A
100
AcDbEntity
  8
0
100
AcDbLine
 10
292.2047821952847
 20
-55.72261808181838
 30
0.0
 11
408.6988760697205
 21
-122.9732270060695
 31
0.0
  0
LINE
  5
CF14
330
A
100
AcDbEntity
  8
0
100
AcDbLine
 10
414.3006968130867
 20
-113.4809673425596
 30
0.0
 11
413.5039555293807
 21
-113.0210183897643
 31
0.0
  0
LINE
  5
CF15
330
A
100
AcDbEntity
  8
0
100
AcDbLine
 10
385.0787065691484
 20
-125.8270101711048
 30
0.0
 11
268.5846126947613
 21
-58.57640124688191
 31
0.0
  0
LINE
  5
CF16
330
A
100
AcDbEntity
  8
0
100
AcDbLine
 10
384.5130211441993
 20
-128.941237490686
 30
0.0
 11
383.5045864197692
 21
-128.3590805158321
 31
0.0
  0
LINE
  5
CF17
330
A
100
AcDbEntity
  8
0
100
AcDbLine
 10
379.7330641785284
 20
-136.1318442895817
 30
0.0
 11
380.9292822187199
 21
-136.8224062651593
 31
0.0
  0
LINE
  5
CF18
330
A
100
AcDbEntity
  8
0
100
AcDbLine
 10
384.5130211441993
 20
-130.5743191144575
 30
0.0
 11
383.7195664725887
 21
-130.11626748244
 31
0.0
  0
LINE
  5
CF19
330
A
100
AcDbEntity
  8
0
100
AcDbLine
 10
384.5130211441993
 20
-132.2074007382291
 30
0.0
 11
383.7195664725887
 21
-131.7493491062114
 31
0.0
  0
LINE
  5
CF1A
330
A
100
AcDbEntity
  8
0
100
AcDbLine
 10
385.0787065691484
 20
-134.668501568352
 30
0.0
 11
383.5045760995009
 21
-133.7597753910047
 31
0.0
  0
LINE
  5
CF1B
330
A
100
AcDbEntity
  8
0
100
AcDbLine
 10
379.9271844372307
 20
-130.7600882419531
 30
0.0
 11
263.4330905627934
 21
-63.50947931770122
 31
0.0
  0
LINE
  5
CF1C
330
A
100
AcDbEntity
  8
0
100
AcDbLine
 10
262.808842747555
 20
-69.08172024870419
 30
0.0
 11
379.3029366219908
 21
-136.3323291729553
 31
0.0
  0
LINE
  5
CF1D
330
A
100
AcDbEntity
  8
0
100
AcDbLine
 10
413.7029449716193
 20
-115.0435614979569
 30
0.0
 11
414.3111257766123
 21
-115.5294403965258
 31
0.0
  0
LWPOLYLINE
  5
CF1E
330
A
100
AcDbEntity
  8
0
100
AcDbPolyline
 90
        9
 70
   128
 43
0.0
 10
414.3111257766123
 20
-115.5294403965258
 10
414.3375127099535
 20
-115.5632083460389
 10
414.35097131767
 20
-115.6110086437207
 10
414.3504262530869
 20
-115.6690220318656
 10
414.3359210670215
 20
-115.7326132238657
 10
414.3086147280665
 20
-115.7967012649606
 10
414.2706890206555
 20
-115.8561655020026
 10
414.225174219856
 20
-115.9062547251344
 10
414.1757069715077
 20
-115.9429667908403
  0
LINE
  5
CF1F
330
A
100
AcDbEntity
  8
0
100
AcDbLine
 10
414.1757069715077
 20
-115.9429667908403
 30
0.0
 11
413.5071752301802
 21
-116.3289019502479
 31
0.0
  0
ARC
  5
CF20
330
A
100
AcDbEntity
  8
0
100
AcDbCircle
 10
402.656126102208
 20
-113.8219576460972
 30
0.0
 40
11.13687734159698
100
AcDbArc
 50
305.2231066836192
 51
346.9910660301457
  0
LWPOLYLINE
  5
CF21
330
A
100
AcDbEntity
  8
0
100
AcDbPolyline
 90
        9
 70
   128
 43
0.0
 10
409.0794516775769
 20
-122.9198104408279
 10
408.9342683946189
 20
-122.9891916058734
 10
408.7990157950699
 20
-123.0046462499208
 10
408.6854163414437
 20
-122.9648349052918
 10
408.6033157989314
 20
-122.8732080564614
 10
408.5598298942196
 20
-122.7377070835166
 10
408.5587275891567
 20
-122.5700759757124
 10
408.6001044215009
 20
-122.3848434695306
 10
408.6803742245684
 20
-122.1980638302293
  0
LINE
  5
CF22
330
A
100
AcDbEntity
  8
0
100
AcDbLine
 10
408.6803742245684
 20
-122.1980638302293
 30
0.0
 11
408.5209412918112
 21
-122.0271700780445
 31
0.0
  0
LWPOLYLINE
  5
CF23
330
A
100
AcDbEntity
  8
0
100
AcDbPolyline
 90
        9
 70
   128
 43
0.0
 10
408.5209412918112
 20
-122.0271700780445
 10
408.4907425737675
 20
-122.0642329526383
 10
408.4578078245759
 20
-122.0956948676487
 10
408.4234027081775
 20
-122.1203467593259
 10
408.3888493939003
 20
-122.1372412692979
 10
408.3554757462353
 20
-122.1457291510205
 10
408.3245642957446
 20
-122.1454842199594
 10
408.2973029521364
 20
-122.1365158886783
 10
408.2747393535574
 20
-122.1191688051183
  0
LINE
  5
CF24
330
A
100
AcDbEntity
  8
0
100
AcDbLine
 10
408.2747393535574
 20
-122.1191688051183
 30
0.0
 11
405.3140069035472
 21
-118.9456044175806
 31
0.0
  0
LWPOLYLINE
  5
CF25
330
A
100
AcDbEntity
  8
0
100
AcDbPolyline
 90
        9
 70
   128
 43
0.0
 10
405.3140069035472
 20
-118.9456044175806
 10
405.2640040007646
 20
-118.8432429230086
 10
405.2612955798059
 20
-118.701471290218
 10
405.3062939732127
 20
-118.5418729651383
 10
405.3921485834972
 20
-118.3887453460002
 10
405.5057888245202
 20
-118.2654007247127
 10
405.6299139997364
 20
-118.1906172017443
 10
405.7456271764159
 20
-118.1757798905533
 10
405.8353120723532
 20
-118.2231476372674
  0
LINE
  5
CF26
330
A
100
AcDbEntity
  8
0
100
AcDbLine
 10
405.8353120723532
 20
-118.2231476372674
 30
0.0
 11
408.7960445223635
 21
-121.3967120248053
 31
0.0
  0
ARC
  5
CF27
330
A
100
AcDbEntity
  8
0
100
AcDbCircle
 10
408.5547124059322
 20
-121.5205758986915
 30
0.0
 40
0.2712626949568926
100
AcDbArc
 50
316.8549744016188
 51
27.16919317550213
  0
LINE
  5
CF28
330
A
100
AcDbEntity
  8
0
100
AcDbLine
 10
408.7526324779465
 20
-121.7060781756829
 30
0.0
 11
408.8741598279067
 21
-121.8363415062804
 31
0.0
  0
LINE
  5
CF29
330
A
100
AcDbEntity
  8
0
100
AcDbLine
 10
408.8741598279067
 20
-121.8363415062804
 30
0.0
 11
409.8774313657778
 21
-120.098624234
 31
0.0
  0
ARC
  5
CF2A
330
A
100
AcDbEntity
  8
0
100
AcDbCircle
 10
406.172856259097
 20
-117.8600237206897
 30
0.0
 40
4.328418761999785
100
AcDbArc
 50
328.8562722006309
 51
358.0435013569535
  0
LINE
  5
CF2B
330
A
100
AcDbEntity
  8
0
100
AcDbLine
 10
410.4987517093378
 20
-118.007798998794
 30
0.0
 11
410.4987517093378
 21
-115.2604980661931
 31
0.0
  0
ARC
  5
CF2C
330
A
100
AcDbEntity
  8
0
100
AcDbCircle
 10
408.496113415873
 20
-115.0634184931487
 30
0.0
 40
2.01231222541732
100
AcDbArc
 50
354.3796210363378
 51
54.30196147125285
  0
LINE
  5
CF2D
330
A
100
AcDbEntity
  8
0
100
AcDbLine
 10
409.6703245845911
 20
-113.4292126848675
 30
0.0
 11
408.4249179917452
 21
-112.7100210415085
 31
0.0
  0
LWPOLYLINE
  5
CF2E
330
A
100
AcDbEntity
  8
0
100
AcDbPolyline
 90
        9
 70
   128
 43
0.0
 10
408.4249179917452
 20
-112.7100210415085
 10
408.3685230138099
 20
-112.6495286748245
 10
408.343130056448
 20
-112.5544645337743
 10
408.3518095112568
 20
-112.4363233070615
 10
408.3935119012231
 20
-112.309390051166
 10
408.4631947783128
 20
-112.1890129115247
 10
408.5524324315157
 20
-112.0897473002196
 10
408.6504346824004
 20
-112.0235959270874
 10
408.7453515804646
 20
-111.9985574910395
  0
LINE
  5
CF2F
330
A
100
AcDbEntity
  8
0
100
AcDbLine
 10
408.7453515804646
 20
-111.9985574910395
 30
0.0
 11
413.4024498270338
 21
-111.1491644650189
 31
0.0
  0
ARC
  5
CF30
330
A
100
AcDbEntity
  8
0
100
AcDbCircle
 10
413.3983120904186
 20
-111.2564004002552
 30
0.0
 40
0.1073157335636668
100
AcDbArc
 50
349.8719016858664
 51
87.79031819355055
  0
LINE
  5
CF31
330
A
100
AcDbEntity
  8
0
100
AcDbLine
 10
413.5039555293807
 20
-111.2752718197735
 30
0.0
 11
413.5039555293807
 21
-113.881138208299
 31
0.0
  0
LINE
  5
CF32
330
A
100
AcDbEntity
  8
0
100
AcDbLine
 10
413.5039555293807
 20
-113.881138208299
 30
0.0
 11
414.1757069715077
 21
-113.4933443551831
 31
0.0
  0
LWPOLYLINE
  5
CF33
330
A
100
AcDbEntity
  8
0
100
AcDbPolyline
 90
        9
 70
   128
 43
0.0
 10
414.1757069715077
 20
-113.4933443551831
 10
414.225174219856
 20
-113.4729427516447
 10
414.2706890206555
 20
-113.4704817043375
 10
414.3086147280665
 20
-113.4861578516586
 10
414.3359210670215
 20
-113.5187186648716
 10
414.3504262530869
 20
-113.5655625255181
 10
414.35097131767
 20
-113.6229465954902
 10
414.3375127099535
 20
-113.6862858708853
 10
414.3111257766123
 20
-113.7505195251531
  0
LINE
  5
CF34
330
A
100
AcDbEntity
  8
0
100
AcDbLine
 10
414.3111257766123
 20
-113.7505195251531
 30
0.0
 11
413.7029449716193
 21
-114.9385890346202
 31
0.0
  0
ARC
  5
CF35
330
A
100
AcDbEntity
  8
0
100
AcDbCircle
 10
413.7751776438382
 20
-114.9910752662886
 30
0.0
 40
0.0892880924350562
100
AcDbArc
 50
143.9968210869027
 51
216.0031789130973
  0
LWPOLYLINE
  5
CF36
330
A
100
AcDbEntity
  8
0
100
AcDbPolyline
 90
        9
 70
   128
 43
0.0
 10
291.9308241173085
 20
-45.45941211725767
 10
291.8744291393733
 20
-45.3989197505739
 10
291.8490361820105
 20
-45.30385560952345
 10
291.8577156368202
 20
-45.18571438281106
 10
291.8994180267865
 20
-45.05878112691516
 10
291.9691009038771
 20
-44.93840398727434
 10
292.0583385570799
 20
-44.83913837596856
 10
292.1563408079647
 20
-44.772987002837
 10
292.251257706027
 20
-44.74794856678909
  0
LINE
  5
CF37
330
A
100
AcDbEntity
  8
0
100
AcDbLine
 10
292.2512577060316
 20
-44.74794856678955
 30
0.0
 11
408.7453515804646
 21
-111.9985574910393
 31
0.0
  0
LINE
  5
CF38
330
A
100
AcDbEntity
  8
0
100
AcDbLine
 10
292.251257706027
 20
-44.74794856678909
 30
0.0
 11
296.9083559525962
 21
-43.89855554076803
 31
0.0
  0
LINE
  5
CF39
330
A
100
AcDbEntity
  8
0
100
AcDbLine
 10
296.908355952598
 20
-43.89855554076803
 30
0.0
 11
413.4024498270338
 21
-111.1491644650191
 31
0.0
  0
LINE
  5
CF3A
330
A
100
AcDbEntity
  8
0
100
AcDbLine
 10
293.1762307101554
 20
-46.17860376061708
 30
0.0
 11
291.9308241173085
 21
-45.45941211725767
 31
0.0
  0
LWPOLYLINE
  5
CF3B
330
A
100
AcDbEntity
  8
0
100
AcDbPolyline
 90
        9
 70
   128
 43
0.0
 10
288.8199130291105
 20
-51.69499549332977
 10
288.7699101263279
 20
-51.59263399875817
 10
288.7672017053692
 20
-51.45086236596717
 10
288.8122000987751
 20
-51.29126404088765
 10
288.8980547090605
 20
-51.13813642174955
 10
289.0116949500835
 20
-51.01479180046181
 10
289.1358201252997
 20
-50.94000827749369
 10
289.2515333019792
 20
-50.92517096630263
 10
289.3055473283567
 20
-50.94404511510174
  0
LINE
  5
CF3C
330
A
100
AcDbEntity
  8
0
100
AcDbLine
 10
291.7806454791217
 20
-54.86855988086745
 30
0.0
 11
288.8199130291105
 21
-51.69499549332977
 31
0.0
  0
ARC
  5
CF3D
330
A
100
AcDbEntity
  8
0
100
AcDbCircle
 10
292.0020195414373
 20
-47.81280956889668
 30
0.0
 40
2.01231222541536
100
AcDbArc
 50
354.3796210362932
 51
54.3019614712509
  0
LINE
  5
CF3E
330
A
100
AcDbEntity
  8
0
100
AcDbLine
 10
294.0046578349002
 20
-50.75719007454336
 30
0.0
 11
294.0046578349002
 21
-48.00988914194249
 31
0.0
  0
ARC
  5
CF3F
330
A
100
AcDbEntity
  8
0
100
AcDbCircle
 10
296.9132804895181
 20
-43.98948308377476
 30
0.0
 40
0.091060799146578
100
AcDbArc
 50
60.53337290134205
 51
93.10004851625382
  0
ARC
  5
CF40
330
A
100
AcDbEntity
  8
0
100
AcDbCircle
 10
289.6787623846749
 20
-50.60941479644407
 30
0.0
 40
4.32841876198424
100
AcDbArc
 50
328.8562722005897
 51
358.0435013570126
  0
LINE
  5
CF41
330
A
100
AcDbEntity
  8
0
100
AcDbLine
 10
293.188438408306
 20
-53.18559042292372
 30
0.0
 11
293.3833374913411
 21
-52.84801530974937
 31
0.0
  0
LINE
  5
CF42
330
A
100
AcDbEntity
  8
0
100
AcDbLine
 10
291.8004626288758
 20
-54.88438965748674
 30
0.0
 11
291.7806454791217
 21
-54.86855988086745
 31
0.0
  0
LINE
  5
CF43
330
A
100
AcDbEntity
  8
0
100
AcDbLine
 10
408.4755209089145
 20
-122.0798045283225
 30
0.0
 11
408.6803742245684
 21
-122.1980638302293
 31
0.0
  0
ARC
  5
CF44
330
A
100
AcDbEntity
  8
0
100
AcDbCircle
 10
292.5753708210059
 20
-55.34958091839098
 30
0.0
 40
0.5258256886204078
100
AcDbArc
 50
148.3183334819556
 51
225.1886572138319
  0
LWPOLYLINE
  5
CF45
330
A
100
AcDbEntity
  8
0
100
AcDbPolyline
 90
        9
 70
   128
 43
0.0
 10
384.460794283451
 20
-132.1958670638173
 10
384.5033760672268
 20
-132.2026324660962
 10
384.5365452738334
 20
-132.2274552086801
 10
384.5575951682231
 20
-132.2683096601418
 10
384.5648079979165
 20
-132.3218619398463
 10
384.5575951682231
 20
-132.3837419754536
 10
384.5365452738334
 20
-132.4489001176592
 10
384.5033760672268
 20
-132.5120192110296
 10
384.460794283451
 20
-132.5679484943739
  0
LINE
  5
CF46
330
A
100
AcDbEntity
  8
0
100
AcDbLine
 10
383.6085898139664
 20
-133.5043750441209
 30
0.0
 11
384.460794283451
 21
-132.5679484943739
 31
0.0
  0
ARC
  5
CF47
330
A
100
AcDbEntity
  8
0
100
AcDbCircle
 10
383.8927544628478
 20
-133.7695083559888
 30
0.0
 40
0.3886453662867436
100
AcDbArc
 50
136.9843133837996
 51
177.1909194816136
  0
LINE
  5
CF48
330
A
100
AcDbEntity
  8
0
100
AcDbLine
 10
383.5045760995009
 20
-134.2403860857801
 30
0.0
 11
383.5045760995009
 21
-133.7504615986486
 31
0.0
  0
ARC
  5
CF49
330
A
100
AcDbEntity
  8
0
100
AcDbCircle
 10
383.6163299484761
 20
-134.2568466733007
 30
0.0
 40
0.1129596109339391
100
AcDbArc
 50
171.6209670479452
 51
252.6462612421006
  0
LINE
  5
CF4A
330
A
100
AcDbEntity
  8
0
100
AcDbLine
 10
385.0524320631076
 20
-134.6586843273749
 30
0.0
 11
383.5826374592589
 21
-134.3646645283745
 31
0.0
  0
LWPOLYLINE
  5
CF4B
330
A
100
AcDbEntity
  8
0
100
AcDbPolyline
 90
        9
 70
   128
 43
0.0
 10
385.0524320631076
 20
-134.6586843273749
 10
385.0972572008823
 20
-134.6830010642545
 10
385.124174703321
 20
-134.732520240796
 10
385.1298264317266
 20
-134.801064008095
 10
385.113507295132
 20
-134.8800810721432
 10
385.0772532151159
 20
-134.9597135250235
 10
385.0255871309537
 20
-135.0300266849404
 10
384.9649547326536
 20
-135.0822485143062
 10
384.902920317958
 20
-135.1098639901786
  0
LINE
  5
CF4C
330
A
100
AcDbEntity
  8
0
100
AcDbLine
 10
383.362726469899
 20
-135.4654312705529
 30
0.0
 11
384.902920317958
 21
-135.1098639901786
 31
0.0
  0
LINE
  5
CF4D
330
A
100
AcDbEntity
  8
0
100
AcDbLine
 10
381.0292740919832
 20
-136.8125046550604
 30
0.0
 11
383.362726469899
 21
-135.4654312705529
 31
0.0
  0
ARC
  5
CF4E
330
A
100
AcDbEntity
  8
0
100
AcDbCircle
 10
380.9740676092316
 20
-136.7448227432455
 30
0.0
 40
0.0873418394857582
100
AcDbArc
 50
170.7859630094826
 51
309.2032852353834
  0
LINE
  5
CF4F
330
A
100
AcDbEntity
  8
0
100
AcDbLine
 10
380.8878527357465
 20
-134.0362526246424
 30
0.0
 11
380.8878527357465
 21
-136.7308373038654
 31
0.0
  0
LINE
  5
CF50
330
A
100
AcDbEntity
  8
0
100
AcDbLine
 10
379.9686139202041
 20
-134.5669178973274
 30
0.0
 11
380.8878527357465
 21
-134.0362526246424
 31
0.0
  0
LINE
  5
CF51
330
A
100
AcDbEntity
  8
0
100
AcDbLine
 10
379.9686139202041
 20
-134.5669178973274
 30
0.0
 11
379.9686139202041
 21
-132.11729546167
 31
0.0
  0
LINE
  5
CF52
330
A
100
AcDbEntity
  8
0
100
AcDbLine
 10
380.8878527357465
 20
-131.5866301889853
 30
0.0
 11
379.9686139202041
 21
-132.11729546167
 31
0.0
  0
LINE
  5
CF53
330
A
100
AcDbEntity
  8
0
100
AcDbLine
 10
380.8878527357465
 20
-128.8920455097623
 30
0.0
 11
380.8878527357465
 21
-131.5866301889853
 31
0.0
  0
ARC
  5
CF54
330
A
100
AcDbEntity
  8
0
100
AcDbCircle
 10
381.1948959560214
 20
-128.9060176802152
 30
0.0
 40
0.3073609615161421
100
AcDbArc
 50
122.6054783402876
 51
177.3945215142112
  0
LINE
  5
CF55
330
A
100
AcDbEntity
  8
0
100
AcDbLine
 10
383.362726469899
 20
-127.3000231516953
 30
0.0
 11
381.0292740919832
 21
-128.6470965362028
 31
0.0
  0
LINE
  5
CF56
330
A
100
AcDbEntity
  8
0
100
AcDbLine
 10
384.902920317958
 20
-125.8773204666413
 30
0.0
 11
383.362726469899
 21
-127.3000231516953
 31
0.0
  0
LWPOLYLINE
  5
CF57
330
A
100
AcDbEntity
  8
0
100
AcDbPolyline
 90
        9
 70
   128
 43
0.0
 10
384.902920317958
 20
-125.8773204666413
 10
384.9649547326536
 20
-125.8333125318534
 10
385.0255871309537
 20
-125.8155296842335
 10
385.0772532151159
 20
-125.8261904531139
 10
385.113507295132
 20
-125.8639648361816
 10
385.1298264317266
 20
-125.9241402261739
 10
385.124174703321
 20
-125.9992093401943
 10
385.0972572008823
 20
-126.079806803531
 10
385.0524320631076
 20
-126.1558775428714
  0
LINE
  5
CF58
330
A
100
AcDbEntity
  8
0
100
AcDbLine
 10
383.5826374592589
 20
-128.1468860700536
 30
0.0
 11
385.0524320631076
 21
-126.1558775428714
 31
0.0
  0
ARC
  5
CF59
330
A
100
AcDbEntity
  8
0
100
AcDbCircle
 10
383.8832515619707
 20
-128.3777475999643
 30
0.0
 40
0.3790328280531969
100
AcDbArc
 50
142.4769483584961
 51
177.5117746654975
  0
LINE
  5
CF5A
330
A
100
AcDbEntity
  8
0
100
AcDbLine
 10
383.5045760995009
 20
-128.8512167273341
 30
0.0
 11
383.5045760995009
 21
-128.3612922402028
 31
0.0
  0
ARC
  5
CF5B
330
A
100
AcDbEntity
  8
0
100
AcDbCircle
 10
383.6098121273608
 20
-128.8702713961713
 30
0.0
 40
0.1069471924092839
100
AcDbArc
 50
169.7368756233477
 51
269.3451448145324
  0
LINE
  5
CF5C
330
A
100
AcDbEntity
  8
0
100
AcDbLine
 10
384.460794283451
 20
-128.9297038162742
 30
0.0
 11
383.6085898139664
 21
-128.977211603363
 31
0.0
  0
LWPOLYLINE
  5
CF5D
330
A
100
AcDbEntity
  8
0
100
AcDbPolyline
 90
        9
 70
   128
 43
0.0
 10
384.460794283451
 20
-128.9297038162742
 10
384.5033760672268
 20
-128.9364692185532
 10
384.5365452738334
 20
-128.961291961137
 10
384.5575951682231
 20
-129.0021464125989
 10
384.5648079979165
 20
-129.0556986923034
 10
384.5575951682231
 20
-129.1175787279108
 10
384.5365452738334
 20
-129.1827368701161
 10
384.5033760672268
 20
-129.2458559634867
 10
384.460794283451
 20
-129.3017852468308
  0
LINE
  5
CF5E
330
A
100
AcDbEntity
  8
0
100
AcDbLine
 10
383.6085898139664
 20
-130.2382117965781
 30
0.0
 11
384.460794283451
 21
-129.3017852468308
 31
0.0
  0
LWPOLYLINE
  5
CF5F
330
A
100
AcDbEntity
  8
0
100
AcDbPolyline
 90
        9
 70
   128
 43
0.0
 10
383.6085898139664
 20
-130.6102932271344
 10
383.5660080301905
 20
-130.6035278248557
 10
383.532838823584
 20
-130.5787050822719
 10
383.5117889291942
 20
-130.53785063081
 10
383.5045760995009
 20
-130.4842983511055
 10
383.5117889291942
 20
-130.4224183154981
 10
383.532838823584
 20
-130.3572601732928
 10
383.5660080301905
 20
-130.2941410799222
 10
383.6085898139664
 20
-130.2382117965781
  0
LINE
  5
CF60
330
A
100
AcDbEntity
  8
0
100
AcDbLine
 10
384.460794283451
 20
-130.5627854400459
 30
0.0
 11
383.6085898139664
 21
-130.6102932271344
 31
0.0
  0
LWPOLYLINE
  5
CF61
330
A
100
AcDbEntity
  8
0
100
AcDbPolyline
 90
        9
 70
   128
 43
0.0
 10
384.460794283451
 20
-130.5627854400459
 10
384.5033760672268
 20
-130.5695508423246
 10
384.5365452738334
 20
-130.5943735849085
 10
384.5575951682231
 20
-130.6352280363703
 10
384.5648079979165
 20
-130.6887803160748
 10
384.5575951682231
 20
-130.7506603516822
 10
384.5365452738334
 20
-130.8158184938875
 10
384.5033760672268
 20
-130.8789375872582
 10
384.460794283451
 20
-130.9348668706023
  0
LINE
  5
CF62
330
A
100
AcDbEntity
  8
0
100
AcDbLine
 10
383.6085898139664
 20
-131.8712934203495
 30
0.0
 11
384.460794283451
 21
-130.9348668706023
 31
0.0
  0
LWPOLYLINE
  5
CF63
330
A
100
AcDbEntity
  8
0
100
AcDbPolyline
 90
        9
 70
   128
 43
0.0
 10
383.6085898139664
 20
-132.2433748509061
 10
383.5660080301905
 20
-132.2366094486272
 10
383.532838823584
 20
-132.2117867060433
 10
383.5117889291942
 20
-132.1709322545814
 10
383.5045760995009
 20
-132.1173799748769
 10
383.5117889291942
 20
-132.0554999392696
 10
383.532838823584
 20
-131.9903417970643
 10
383.5660080301896
 20
-131.9272227036936
 10
383.6085898139664
 20
-131.8712934203495
  0
LINE
  5
CF64
330
A
100
AcDbEntity
  8
0
100
AcDbLine
 10
384.460794283451
 20
-132.1958670638173
 30
0.0
 11
383.6085898139664
 21
-132.2433748509061
 31
0.0
  0
ARC
  5
CF65
330
A
100
AcDbEntity
  8
0
100
AcDbCircle
 10
264.7008020815802
 20
-61.65540875596116
 30
0.0
 40
0.3073609615102366
100
AcDbArc
 50
122.6054783397404
 51
177.3945215147977
  0
LINE
  5
CF66
330
A
100
AcDbEntity
  8
0
100
AcDbLine
 10
379.9686139202041
 20
-131.0559649163006
 30
0.0
 11
380.8878527357465
 21
-131.5866301889853
 31
0.0
  0
LINE
  5
CF67
330
A
100
AcDbEntity
  8
0
100
AcDbLine
 10
264.3937588613108
 20
-61.64143658551166
 30
0.0
 11
264.3937588613108
 21
-64.0640613218261
 31
0.0
  0
LINE
  5
CF68
330
A
100
AcDbEntity
  8
0
100
AcDbLine
 10
266.8686325954632
 20
-60.04941422744469
 30
0.0
 11
264.5351802175474
 21
-61.39648761195213
 31
0.0
  0
LINE
  5
CF69
330
A
100
AcDbEntity
  8
0
100
AcDbLine
 10
266.8686325954641
 20
-60.04941422744469
 30
0.0
 11
383.362726469899
 21
-127.3000231516953
 31
0.0
  0
LINE
  5
CF6A
330
A
100
AcDbEntity
  8
0
100
AcDbLine
 10
268.4088264435223
 20
-58.62671154239069
 30
0.0
 11
266.8686325954632
 21
-60.04941422744469
 31
0.0
  0
LWPOLYLINE
  5
CF6B
330
A
100
AcDbEntity
  8
0
100
AcDbPolyline
 90
        5
 70
   128
 43
0.0
 10
268.4088264435223
 20
-58.62671154239069
 10
268.4708608582169
 20
-58.58270360760253
 10
268.5314932565171
 20
-58.56492075998267
 10
268.5831593406793
 20
-58.57558152886304
 10
268.5846126947118
 20
-58.57640124685395
  0
ARC
  5
CF6C
330
A
100
AcDbEntity
  8
0
100
AcDbCircle
 10
379.8823990467191
 20
-130.8376717638666
 30
0.0
 40
0.0873418394854382
100
AcDbArc
 50
350.7859630093731
 51
129.2032852362475
  0
LINE
  5
CF6D
330
A
100
AcDbEntity
  8
0
100
AcDbLine
 10
379.9686139202041
 20
-130.851657203247
 30
0.0
 11
379.9686139202041
 21
-135.8325561557501
 31
0.0
  0
ARC
  5
CF6E
330
A
100
AcDbEntity
  8
0
100
AcDbCircle
 10
379.661570699931
 20
-135.8185839852986
 30
0.0
 40
0.3073609615134575
100
AcDbArc
 50
302.605478339984
 51
357.3945215144427
  0
LINE
  5
CF6F
330
A
100
AcDbEntity
  8
0
100
AcDbLine
 10
379.8271925639665
 20
-136.0775051293097
 30
0.0
 11
379.4029284952549
 21
-136.3224275628563
 31
0.0
  0
ARC
  5
CF70
330
A
100
AcDbEntity
  8
0
100
AcDbCircle
 10
379.3477220125024
 20
-136.2547456510417
 30
0.0
 40
0.0873418394857019
100
AcDbArc
 50
170.7859630094706
 51
309.2032852361178
  0
LINE
  5
CF71
330
A
100
AcDbEntity
  8
0
100
AcDbLine
 10
379.2615071390174
 20
-136.2407602116616
 30
0.0
 11
379.2615071390174
 21
-131.2598612591585
 31
0.0
  0
ARC
  5
CF72
330
A
100
AcDbEntity
  8
0
100
AcDbCircle
 10
379.5685503592904
 20
-131.2738334296105
 30
0.0
 40
0.3073609615141174
100
AcDbArc
 50
122.6054783399277
 51
177.3945215143638
  0
LINE
  5
CF73
330
A
100
AcDbEntity
  8
0
100
AcDbLine
 10
379.4029284952549
 20
-131.0149122855992
 30
0.0
 11
379.8271925639665
 21
-130.7699898520523
 31
0.0
  0
ARC
  5
CF74
330
A
100
AcDbEntity
  8
0
100
AcDbCircle
 10
263.0744564848565
 20
-64.02322450536167
 30
0.0
 40
0.307360961517498
100
AcDbArc
 50
122.6054783401485
 51
177.3945215140106
  0
LINE
  5
CF75
330
A
100
AcDbEntity
  8
0
100
AcDbLine
 10
262.7674132645798
 20
-68.99015128741075
 30
0.0
 11
262.7674132645798
 21
-64.00925233490761
 31
0.0
  0
LINE
  5
CF76
330
A
100
AcDbEntity
  8
0
100
AcDbLine
 10
262.9088346208183
 20
-63.76430336134808
 30
0.0
 11
263.3330986895299
 21
-63.51938092780119
 31
0.0
  0
ARC
  5
CF77
330
A
100
AcDbEntity
  8
0
100
AcDbCircle
 10
263.3916827005006
 20
-63.60115719362557
 30
0.0
 40
0.1005954471809536
100
AcDbArc
 50
65.69288095464938
 51
125.6175774752327
  0
ARC
  5
CF78
330
A
100
AcDbEntity
  8
0
100
AcDbCircle
 10
262.8654136451087
 20
-69.00096863485487
 30
0.0
 40
0.0985955860545853
100
AcDbArc
 50
173.7011525003573
 51
234.9866671065396
  0
LINE
  5
CF79
330
A
100
AcDbEntity
  8
0
  6
Continuous
 62
     8
370
     0
100
AcDbLine
 10
291.9308241173085
 20
-45.45941211725722
 30
0.0
 11
408.4249179917452
 21
-112.7100210415088
 31
0.0
  0
LINE
  5
CF7A
330
A
100
AcDbEntity
  8
0
  6
Continuous
 62
     8
370
     0
100
AcDbLine
 10
293.1762307053578
 20
-46.17860375784676
 30
0.0
 11
409.6703245845911
 21
-113.4292126848673
 31
0.0
  0
LINE
  5
CF7B
330
A
100
AcDbEntity
  8
0
  6
Continuous
 62
     8
370
     0
100
AcDbLine
 10
288.8199130291096
 20
-51.69499549332841
 30
0.0
 11
405.3140069035472
 21
-118.9456044175809
 31
0.0
  0
LINE
  5
CF7C
330
A
100
AcDbEntity
  8
0
  6
Continuous
 62
     8
370
     0
100
AcDbLine
 10
291.7806454791235
 20
-54.86855988086836
 30
0.0
 11
408.2747393535574
 21
-122.1191688051185
 31
0.0
  0
LINE
  5
CF7D
330
A
100
AcDbEntity
  8
0
  6
Continuous
 62
     8
370
     0
100
AcDbLine
 10
294.0046578349002
 20
-48.00988914194113
 30
0.0
 11
410.4987517093378
 21
-115.2604980661931
 31
0.0
  0
LINE
  5
CF7E
330
A
100
AcDbEntity
  8
0
  6
Continuous
 62
     8
370
     0
100
AcDbLine
 10
294.0046578348993
 20
-50.75719007454109
 30
0.0
 11
410.4987517093378
 21
-118.007798998794
 31
0.0
  0
LINE
  5
CF7F
330
A
100
AcDbEntity
  8
0
  6
Continuous
 62
     8
370
     0
100
AcDbLine
 10
293.3833374913411
 20
-52.84801530974846
 30
0.0
 11
409.8774313657778
 21
-120.098624234
 31
0.0
  0
LINE
  5
CF80
330
A
100
AcDbEntity
  8
0
  6
Continuous
 62
     8
370
     0
100
AcDbLine
 10
413.5039555293807
 20
-113.1055505020677
 30
0.0
 11
414.1757069715077
 21
-113.4933443551831
 31
0.0
  0
LINE
  5
CF81
330
A
100
AcDbEntity
  8
0
  6
Continuous
 62
     8
370
     0
100
AcDbLine
 10
264.3937588613117
 20
-61.64143658551166
 30
0.0
 11
380.8878527357465
 21
-128.8920455097623
 31
0.0
  0
LINE
  5
CF82
330
A
100
AcDbEntity
  8
0
  6
Continuous
 62
     8
370
     0
100
AcDbLine
 10
264.5351802175483
 20
-61.39648761195213
 30
0.0
 11
381.0292740919832
 21
-128.6470965362028
 31
0.0
  0
LINE
  5
CF83
330
A
100
AcDbEntity
  8
0
  6
Continuous
 62
     8
370
     0
100
AcDbLine
 10
268.4088264435232
 20
-58.62671154239069
 30
0.0
 11
384.902920317958
 21
-125.8773204666413
 31
0.0
  0
LINE
  5
CF84
330
A
100
AcDbEntity
  8
0
  6
Continuous
 62
     8
370
     0
100
AcDbLine
 10
383.5202573648313
 20
-128.9262183658989
 30
0.0
 11
383.6085898139664
 21
-128.977211603363
 31
0.0
  0
LINE
  5
CF85
330
A
100
AcDbEntity
  8
0
  6
Continuous
 62
     8
370
     0
100
AcDbLine
 10
383.5045760995
 20
-128.3776908086068
 30
0.0
 11
384.460794283451
 21
-128.9297038162742
 31
0.0
  0
LINE
  5
CF86
330
A
100
AcDbEntity
  8
0
  6
Continuous
 62
     8
370
     0
100
AcDbLine
 10
379.7916590770847
 20
-136.098018174654
 30
0.0
 11
380.8878527357465
 21
-136.7308373038654
 31
0.0
  0
LINE
  5
CF87
330
A
100
AcDbEntity
  8
0
  6
Continuous
 62
     8
370
     0
100
AcDbLine
 10
383.5202573648313
 20
-130.5592999896703
 30
0.0
 11
383.6085898139664
 21
-130.6102932271344
 31
0.0
  0
LINE
  5
CF88
330
A
100
AcDbEntity
  8
0
  6
Continuous
 62
     8
370
     0
100
AcDbLine
 10
383.7084596945961
 20
-130.1284719265229
 30
0.0
 11
384.460794283451
 21
-130.5627854400459
 31
0.0
  0
LINE
  5
CF89
330
A
100
AcDbEntity
  8
0
  6
Continuous
 62
     8
370
     0
100
AcDbLine
 10
383.5202573648313
 20
-132.192381613442
 30
0.0
 11
383.6085898139664
 21
-132.2433748509061
 31
0.0
  0
LINE
  5
CF8A
330
A
100
AcDbEntity
  8
0
  6
Continuous
 62
     8
370
     0
100
AcDbLine
 10
383.708459694597
 20
-131.7615535502948
 30
0.0
 11
384.460794283451
 21
-132.1958670638173
 31
0.0
  0
LINE
  5
CF8B
330
A
100
AcDbEntity
  8
0
  6
Continuous
 62
     8
370
     0
100
AcDbLine
 10
383.5347220455961
 20
-134.3370035488472
 30
0.0
 11
383.5826374592589
 21
-134.3646645283745
 31
0.0
  0
LINE
  5
CF8C
330
A
100
AcDbEntity
  8
0
  6
Continuous
 62
     8
370
     0
100
AcDbLine
 10
383.5045760995009
 20
-133.7651260995067
 30
0.0
 11
385.0524320631076
 21
-134.6586843273749
 31
0.0
  0
LINE
  5
CF8D
330
A
100
AcDbEntity
  8
0
  6
Continuous
 62
     8
370
     0
100
AcDbLine
 10
262.7674132645807
 20
-64.00925233490716
 30
0.0
 11
379.2615071390174
 21
-131.2598612591587
 31
0.0
  0
LINE
  5
CF8E
330
A
100
AcDbEntity
  8
0
  6
Continuous
 62
     8
370
     0
100
AcDbLine
 10
262.9088346208192
 20
-63.76430336134808
 30
0.0
 11
379.4029284952549
 21
-131.0149122855992
 31
0.0
  0
LINE
  5
CF8F
330
A
100
AcDbEntity
  8
0
  6
Continuous
 62
     8
370
     0
100
AcDbLine
 10
262.7674132645798
 20
-68.99015128740984
 30
0.0
 11
379.2615071390174
 21
-136.2407602116618
 31
0.0
  0
LINE
  5
CF90
330
A
100
AcDbEntity
  8
0
  6
Continuous
 62
     8
370
     0
100
AcDbLine
 10
263.3330986895317
 20
-63.51938092780165
 30
0.0
 11
379.8271925639665
 21
-130.7699898520523
 31
0.0
  0
LINE
  5
CFD3
330
A
100
AcDbEntity
  8
0
100
AcDbLine
 10
631.8237829368207
 20
-112.263336698872
 30
0.0
 11
515.3296890623857
 21
-45.0127277746214
 31
0.0
  0
LINE
  5
CFD4
330
A
100
AcDbEntity
  8
0
100
AcDbLine
 10
638.0620968473175
 20
-106.0459013894983
 30
0.0
 11
521.5680029728809
 21
-38.7952924652468
 31
0.0
  0
LINE
  5
CFD5
330
A
100
AcDbEntity
  8
0
100
AcDbLine
 10
638.9106249847408
 20
-108.3660581139015
 30
0.0
 11
638.1138837010338
 21
-107.9061091611063
 31
0.0
  0
LINE
  5
CFD6
330
A
100
AcDbEntity
  8
0
100
AcDbLine
 10
517.8246043629032
 20
-48.95307231700525
 30
0.0
 11
634.3186982373398
 21
-116.2036812412568
 31
0.0
  0
LINE
  5
CFD7
330
A
100
AcDbEntity
  8
0
100
AcDbLine
 10
518.2289239293071
 20
-49.79130074133462
 30
0.0
 11
634.7230178037483
 21
-117.0419096655889
 31
0.0
  0
LINE
  5
CFD8
330
A
100
AcDbEntity
  8
0
100
AcDbLine
 10
611.9427771624468
 20
-119.4108122211409
 30
0.0
 11
495.4486832880216
 21
-52.16020329689599
 31
0.0
  0
LINE
  5
CFD9
330
A
100
AcDbEntity
  8
0
100
AcDbLine
 10
611.3770917374976
 20
-122.5250395407222
 30
0.0
 11
610.3686570129802
 21
-121.942882565818
 31
0.0
  0
LINE
  5
CFDA
330
A
100
AcDbEntity
  8
0
100
AcDbLine
 10
611.3770917374976
 20
-124.1581211644934
 30
0.0
 11
610.5836370658634
 21
-123.7000695324625
 31
0.0
  0
LINE
  5
CFDB
330
A
100
AcDbEntity
  8
0
100
AcDbLine
 10
608.0113483342001
 20
-128.8992382277951
 30
0.0
 11
609.2075663743916
 21
-129.5898002033727
 31
0.0
  0
LINE
  5
CFDC
330
A
100
AcDbEntity
  8
0
100
AcDbLine
 10
611.3770917374976
 20
-125.791202788265
 30
0.0
 11
610.5836370658634
 21
-125.3331511562341
 31
0.0
  0
LINE
  5
CFDD
330
A
100
AcDbEntity
  8
0
100
AcDbLine
 10
611.9427771624468
 20
-128.2523036183881
 30
0.0
 11
610.3686466927119
 21
-127.3435774409906
 31
0.0
  0
LINE
  5
CFDE
330
A
100
AcDbEntity
  8
0
100
AcDbLine
 10
608.2054685929014
 20
-123.5274821801665
 30
0.0
 11
491.7113747184649
 21
-56.27687325591506
 31
0.0
  0
LINE
  5
CFDF
330
A
100
AcDbEntity
  8
0
100
AcDbLine
 10
491.0871269032262
 20
-61.84911418691689
 30
0.0
 11
607.5812207776629
 21
-129.0997231111684
 31
0.0
  0
LINE
  5
CFE0
330
A
100
AcDbEntity
  8
0
100
AcDbLine
 10
636.3461167480681
 20
-112.3826678752627
 30
0.0
 11
636.3461167480681
 21
-109.390404699096
 31
0.0
  0
ARC
  5
CFE1
330
A
100
AcDbEntity
  8
0
100
AcDbCircle
 10
634.3434784546033
 20
-109.1933251260518
 30
0.0
 40
2.012312225417694
100
AcDbArc
 50
354.379621036342
 51
54.30196147126087
  0
LINE
  5
CFE2
330
A
100
AcDbEntity
  8
0
100
AcDbLine
 10
635.5176896233214
 20
-107.5591193177704
 30
0.0
 11
634.3076383695351
 21
-106.86034451221
 31
0.0
  0
LWPOLYLINE
  5
CFE3
330
A
100
AcDbEntity
  8
0
100
AcDbPolyline
 90
        9
 70
   128
 43
0.0
 10
634.3076383695351
 20
-106.86034451221
 10
634.2512433915998
 20
-106.7998521455262
 10
634.225850434237
 20
-106.704788004476
 10
634.2345298890467
 20
-106.5866467777632
 10
634.2762322790121
 20
-106.4597135218675
 10
634.3459151561027
 20
-106.3393363822265
 10
634.4351528093056
 20
-106.2400707709211
 10
634.5331550601903
 20
-106.1739193977893
 10
634.6280719582545
 20
-106.1488809617412
  0
LINE
  5
CFE4
330
A
100
AcDbEntity
  8
0
100
AcDbLine
 10
634.6280719582545
 20
-106.1488809617412
 30
0.0
 11
638.0123779986869
 21
-106.034255236361
 31
0.0
  0
ARC
  5
CFE5
330
A
100
AcDbEntity
  8
0
100
AcDbCircle
 10
638.0082402620727
 20
-106.1414911715974
 30
0.0
 40
0.1073157335636119
100
AcDbArc
 50
349.8719016858664
 51
87.7903181940352
  0
LINE
  5
CFE6
330
A
100
AcDbEntity
  8
0
100
AcDbLine
 10
638.1138837010338
 20
-106.1603625911156
 30
0.0
 11
638.1138837010338
 21
-108.7662289796412
 31
0.0
  0
LINE
  5
CFE7
330
A
100
AcDbEntity
  8
0
100
AcDbLine
 10
638.1138837010338
 20
-108.7662289796412
 30
0.0
 11
638.7856351431618
 21
-108.3784351265253
 31
0.0
  0
LWPOLYLINE
  5
CFE8
330
A
100
AcDbEntity
  8
0
100
AcDbPolyline
 90
        9
 70
   128
 43
0.0
 10
638.7856351431618
 20
-108.3784351265253
 10
638.8351023915101
 20
-108.3580335229864
 10
638.8806171923087
 20
-108.3555724756797
 10
638.9185428997197
 20
-108.3712486230008
 10
638.9458492386756
 20
-108.4038094362135
 10
638.960354424741
 20
-108.4506532968603
 10
638.9608994893241
 20
-108.5080373668322
 10
638.9474408816076
 20
-108.5713766422272
 10
638.9210539482664
 20
-108.635610296495
  0
LINE
  5
CFE9
330
A
100
AcDbEntity
  8
0
100
AcDbLine
 10
638.9210539482664
 20
-108.635610296495
 30
0.0
 11
638.3128731432724
 21
-109.8236798059624
 31
0.0
  0
ARC
  5
CFEA
330
A
100
AcDbEntity
  8
0
100
AcDbCircle
 10
638.3851058154913
 20
-109.8761660376308
 30
0.0
 40
0.0892880924347803
100
AcDbArc
 50
143.9968210869202
 51
216.0031789129927
  0
LINE
  5
CFEB
330
A
100
AcDbEntity
  8
0
100
AcDbLine
 10
638.3128731432724
 20
-109.9286522692989
 30
0.0
 11
638.9210539482664
 21
-110.4145311678678
 31
0.0
  0
LWPOLYLINE
  5
CFEC
330
A
100
AcDbEntity
  8
0
100
AcDbPolyline
 90
        9
 70
   128
 43
0.0
 10
638.9210539482664
 20
-110.4145311678678
 10
638.9474408816067
 20
-110.4482991173808
 10
638.9608994893241
 20
-110.4960994150628
 10
638.960354424741
 20
-110.5541128032077
 10
638.9458492386756
 20
-110.6177039952078
 10
638.9185428997197
 20
-110.6817920363027
 10
638.8806171923087
 20
-110.7412562733447
 10
638.8351023915101
 20
-110.7913454964766
 10
638.7856351431618
 20
-110.8280575621824
  0
LINE
  5
CFED
330
A
100
AcDbEntity
  8
0
100
AcDbLine
 10
638.7856351431618
 20
-110.8280575621824
 30
0.0
 11
638.1138837010338
 21
-111.2158514152983
 31
0.0
  0
ARC
  5
CFEE
330
A
100
AcDbEntity
  8
0
100
AcDbCircle
 10
630.3082640180609
 20
-110.8206644093054
 30
0.0
 40
7.815617148052333
100
AcDbArc
 50
308.3120741802429
 51
357.1016739184459
  0
LWPOLYLINE
  5
CFEF
330
A
100
AcDbEntity
  8
0
100
AcDbPolyline
 90
        9
 70
   128
 43
0.0
 10
635.1535120800662
 20
-116.9531551449335
 10
635.001587603232
 20
-117.0424951271181
 10
634.8563903532203
 20
-117.0746626572104
 10
634.7316003132227
 20
-117.0466270216741
 10
634.6389747696156
 20
-116.961029641217
 10
634.5872405810686
 20
-116.8259352052591
 10
634.5812719640652
 20
-116.6540718447602
 10
634.6216312610776
 20
-116.4616319317017
 10
634.7045159585949
 20
-116.2667464897488
  0
LINE
  5
CFF0
330
A
100
AcDbEntity
  8
0
100
AcDbLine
 10
634.7045159585949
 20
-116.2667464897488
 30
0.0
 11
634.5450830258377
 21
-116.0958527375639
 31
0.0
  0
LWPOLYLINE
  5
CFF1
330
A
100
AcDbEntity
  8
0
100
AcDbPolyline
 90
        9
 70
   128
 43
0.0
 10
634.5450830258377
 20
-116.0958527375639
 10
634.514884307794
 20
-116.1329156121578
 10
634.4819495586024
 20
-116.1643775271681
 10
634.447544442204
 20
-116.1890294188453
 10
634.4129911279277
 20
-116.2059239288173
 10
634.3796174802618
 20
-116.21441181054
 10
634.348706029772
 20
-116.2141668794788
 10
634.3214446861638
 20
-116.2051985481978
 10
634.2988810875839
 20
-116.1878514646377
  0
LINE
  5
CFF2
330
A
100
AcDbEntity
  8
0
100
AcDbLine
 10
634.2988810875839
 20
-116.1878514646377
 30
0.0
 11
631.3381486375737
 21
-113.0142870771001
 31
0.0
  0
LWPOLYLINE
  5
CFF3
330
A
100
AcDbEntity
  8
0
100
AcDbPolyline
 90
        9
 70
   128
 43
0.0
 10
631.3381486375737
 20
-113.0142870771001
 10
631.2881457347911
 20
-112.9119255825278
 10
631.2854373138333
 20
-112.7701539497374
 10
631.3304357072392
 20
-112.6105556246577
 10
631.4162903175246
 20
-112.4574280055196
 10
631.5299305585476
 20
-112.3340833842321
 10
631.6540557337629
 20
-112.2592998612637
 10
631.7697689104433
 20
-112.2444625500727
 10
631.8594538063797
 20
-112.2918302967868
  0
LINE
  5
CFF4
330
A
100
AcDbEntity
  8
0
100
AcDbLine
 10
631.8594538063797
 20
-112.2918302967868
 30
0.0
 11
634.82018625639
 21
-115.4653946843247
 31
0.0
  0
ARC
  5
CFF5
330
A
100
AcDbEntity
  8
0
100
AcDbCircle
 10
634.5788541399587
 20
-115.5892585582109
 30
0.0
 40
0.2712626949567915
100
AcDbArc
 50
316.8549744018362
 51
27.16919317548625
  0
LINE
  5
CFF6
330
A
100
AcDbEntity
  8
0
100
AcDbLine
 10
634.7767742119739
 20
-115.7747608352024
 30
0.0
 11
634.8983015619341
 21
-115.9050241657998
 31
0.0
  0
LINE
  5
CFF7
330
A
100
AcDbEntity
  8
0
100
AcDbLine
 10
634.8983015619341
 20
-115.9050241657998
 30
0.0
 11
635.7247964045081
 21
-114.4734931104685
 31
0.0
  0
ARC
  5
CFF8
330
A
100
AcDbEntity
  8
0
100
AcDbCircle
 10
632.0202212978282
 20
-112.2348925971582
 30
0.0
 40
4.328418761999644
100
AcDbArc
 50
328.8562722006281
 51
358.0435013569503
  0
LWPOLYLINE
  5
CFF9
330
A
100
AcDbEntity
  8
0
100
AcDbPolyline
 90
        9
 70
   128
 43
0.0
 10
517.8135444950984
 20
-39.60973558795894
 10
517.7571495171636
 20
-39.54924322127516
 10
517.7317565598013
 20
-39.45417908022563
 10
517.74043601461
 20
-39.33603785351187
 10
517.7821384045764
 20
-39.20910459761734
 10
517.851821281666
 20
-39.08872745797515
 10
517.9410589348689
 20
-38.98946184667028
 10
518.0390611857541
 20
-38.92331047353827
 10
518.1339780838174
 20
-38.8982720374899
  0
LINE
  5
CFFA
330
A
100
AcDbEntity
  8
0
100
AcDbLine
 10
518.1339780838174
 20
-38.8982720374899
 30
0.0
 11
521.5182841242507
 21
-38.78364631210997
 31
0.0
  0
LINE
  5
CFFB
330
A
100
AcDbEntity
  8
0
100
AcDbLine
 10
519.0235957488857
 20
-40.30851039351973
 30
0.0
 11
517.8135444950984
 21
-39.60973558795894
 31
0.0
  0
LWPOLYLINE
  5
CFFC
330
A
100
AcDbEntity
  8
0
100
AcDbPolyline
 90
        9
 70
   128
 43
0.0
 10
514.8440547631384
 20
-45.76367815284965
 10
514.7940518603544
 20
-45.66131665827714
 10
514.7913434393967
 20
-45.51954502548659
 10
514.836341832803
 20
-45.35994670040753
 10
514.922196443088
 20
-45.20681908126897
 10
515.0358366841109
 20
-45.08347445998169
 10
515.1599618593272
 20
-45.00869093701266
 10
515.2756750360066
 20
-44.9938536258216
 10
515.3296890623836
 20
-45.01272777462071
  0
LINE
  5
CFFD
330
A
100
AcDbEntity
  8
0
100
AcDbLine
 10
517.8047872131482
 20
-48.93724254038733
 30
0.0
 11
514.8440547631384
 21
-45.76367815284965
 31
0.0
  0
ARC
  5
CFFE
330
A
100
AcDbEntity
  8
0
100
AcDbCircle
 10
517.8493845801653
 20
-41.9427162018016
 30
0.0
 40
2.012312225419152
100
AcDbArc
 50
354.3796210363558
 51
54.3019614712147
  0
ARC
  5
CFFF
330
A
100
AcDbEntity
  8
0
100
AcDbCircle
 10
521.523208661173
 20
-38.87457385511351
 30
0.0
 40
0.0910607991429945
100
AcDbArc
 50
60.53337290076301
 51
93.10004851666334
  0
LINE
  5
D000
330
A
100
AcDbEntity
  8
0
100
AcDbLine
 10
519.8520228736314
 20
-45.13205895101163
 30
0.0
 11
519.8520228736314
 21
-42.1397957748456
 31
0.0
  0
ARC
  5
D001
330
A
100
AcDbEntity
  8
0
100
AcDbCircle
 10
515.5261274233961
 20
-44.98428367291007
 30
0.0
 40
4.328418761994338
100
AcDbArc
 50
328.8562722006225
 51
358.0435013569931
  0
LINE
  5
D002
330
A
100
AcDbEntity
  8
0
100
AcDbLine
 10
519.2125801423339
 20
-47.25427308244269
 30
0.0
 11
519.2307025300719
 21
-47.2228841862181
 31
0.0
  0
LINE
  5
D003
330
A
100
AcDbEntity
  8
0
100
AcDbLine
 10
517.8246043629041
 20
-48.95307231700662
 30
0.0
 11
517.8047872131482
 21
-48.93724254038733
 31
0.0
  0
LINE
  5
D004
330
A
100
AcDbEntity
  8
0
100
AcDbLine
 10
634.499662642941
 20
-116.1484871878419
 30
0.0
 11
634.7045159585949
 21
-116.2667464897488
 31
0.0
  0
LWPOLYLINE
  5
D005
330
A
100
AcDbEntity
  8
0
100
AcDbPolyline
 90
        6
 70
   128
 43
0.0
 10
518.2289239293117
 20
-49.79130074133826
 10
518.1448808951794
 20
-49.7104207169661
 10
518.0931467066324
 20
-49.57532628100824
 10
518.087178089629
 20
-49.40346292050907
 10
518.1275373866409
 20
-49.21102300745059
 10
518.1520458279928
 20
-49.14210025122946
  0
LINE
  5
D006
330
A
100
AcDbEntity
  8
0
100
AcDbLine
 10
611.7669909112564
 20
-128.6936660402147
 30
0.0
 11
610.2267970631973
 21
-129.0492333205891
 31
0.0
  0
LINE
  5
D007
330
A
100
AcDbEntity
  8
0
100
AcDbLine
 10
610.2267970631973
 20
-129.0492333205891
 30
0.0
 11
609.3075582476548
 21
-129.5798985932735
 31
0.0
  0
ARC
  5
D008
330
A
100
AcDbEntity
  8
0
100
AcDbCircle
 10
609.2523517649032
 20
-129.5122166814592
 30
0.0
 40
0.0873418394856262
100
AcDbArc
 50
170.785963009391
 51
309.2032852354251
  0
LINE
  5
D009
330
A
100
AcDbEntity
  8
0
100
AcDbLine
 10
609.1661368914182
 20
-129.4982312420788
 30
0.0
 11
609.1661368914182
 21
-126.8036465628558
 31
0.0
  0
LINE
  5
D00A
330
A
100
AcDbEntity
  8
0
100
AcDbLine
 10
609.1661368914182
 20
-126.8036465628558
 30
0.0
 11
608.2468980758757
 21
-127.3343118355405
 31
0.0
  0
LINE
  5
D00B
330
A
100
AcDbEntity
  8
0
100
AcDbLine
 10
608.2468980758757
 20
-127.3343118355405
 30
0.0
 11
608.2468980758757
 21
-124.8846893998834
 31
0.0
  0
LINE
  5
D00C
330
A
100
AcDbEntity
  8
0
100
AcDbLine
 10
608.2468980758757
 20
-124.8846893998834
 30
0.0
 11
609.1661368914182
 21
-124.3540241271984
 31
0.0
  0
LINE
  5
D00D
330
A
100
AcDbEntity
  8
0
100
AcDbLine
 10
609.1661368914182
 20
-124.3540241271984
 30
0.0
 11
609.1661368914182
 21
-121.6594394479757
 31
0.0
  0
ARC
  5
D00E
330
A
100
AcDbEntity
  8
0
100
AcDbCircle
 10
609.4731801116922
 20
-121.6734116184281
 30
0.0
 40
0.3073609615153357
100
AcDbArc
 50
122.605478340173
 51
177.3945215142892
  0
LINE
  5
D00F
330
A
100
AcDbEntity
  8
0
100
AcDbLine
 10
609.3075582476548
 20
-121.4144904744164
 30
0.0
 11
610.2267970631973
 21
-120.8838252017314
 31
0.0
  0
LINE
  5
D010
330
A
100
AcDbEntity
  8
0
100
AcDbLine
 10
610.2267970631973
 20
-120.8838252017314
 30
0.0
 11
611.7669909112564
 21
-119.4611225166774
 31
0.0
  0
LWPOLYLINE
  5
D011
330
A
100
AcDbEntity
  8
0
100
AcDbPolyline
 90
        9
 70
   128
 43
0.0
 10
611.7669909112564
 20
-119.4611225166774
 10
611.8290253259528
 20
-119.4171145818891
 10
611.889657724253
 20
-119.3993317342697
 10
611.9413238084152
 20
-119.4099925031505
 10
611.9775778884313
 20
-119.4477668862195
 10
611.9938970250249
 20
-119.5079422762132
 10
611.9882452966175
 20
-119.5830113902352
 10
611.9613277941779
 20
-119.6636088535726
 10
611.9165026564013
 20
-119.7396795929128
  0
LINE
  5
D012
330
A
100
AcDbEntity
  8
0
100
AcDbLine
 10
611.9165026564013
 20
-119.7396795929128
 30
0.0
 11
610.4467080524745
 21
-121.7306881201345
 31
0.0
  0
ARC
  5
D013
330
A
100
AcDbEntity
  8
0
100
AcDbCircle
 10
610.7473221551835
 20
-121.9615496500507
 30
0.0
 40
0.3790328280542214
100
AcDbArc
 50
142.4769483575991
 51
177.5117746655045
  0
LINE
  5
D014
330
A
100
AcDbEntity
  8
0
100
AcDbLine
 10
610.3686466927119
 20
-121.9450942902892
 30
0.0
 11
610.3686466927119
 21
-122.4350187774207
 31
0.0
  0
ARC
  5
D015
330
A
100
AcDbEntity
  8
0
100
AcDbCircle
 10
610.47388272057
 20
-122.4540734462589
 30
0.0
 40
0.1069471924080608
100
AcDbArc
 50
169.7368756226726
 51
269.3451448184232
  0
LINE
  5
D016
330
A
100
AcDbEntity
  8
0
100
AcDbLine
 10
610.4726604071828
 20
-122.5610136534494
 30
0.0
 11
611.3248648767429
 21
-122.5135058663106
 31
0.0
  0
LWPOLYLINE
  5
D017
330
A
100
AcDbEntity
  8
0
100
AcDbPolyline
 90
        9
 70
   128
 43
0.0
 10
611.3248648767429
 20
-122.5135058663106
 10
611.3674466605215
 20
-122.5202712685875
 10
611.4006158671299
 20
-122.5450940111709
 10
611.4216657615206
 20
-122.5859484626334
 10
611.4288785912148
 20
-122.6395007423395
 10
611.4216657615206
 20
-122.7013807779489
 10
611.4006158671299
 20
-122.7665389201563
 10
611.3674466605215
 20
-122.8296580135288
 10
611.3248648767429
 20
-122.8855872968736
  0
LINE
  5
D018
330
A
100
AcDbEntity
  8
0
100
AcDbLine
 10
611.3248648767429
 20
-122.8855872968736
 30
0.0
 11
610.4726604071828
 21
-123.8220138466579
 31
0.0
  0
LWPOLYLINE
  5
D019
330
A
100
AcDbEntity
  8
0
100
AcDbPolyline
 90
        9
 70
   128
 43
0.0
 10
610.4726604071828
 20
-124.1940952772208
 10
610.4300786234043
 20
-124.1873298749439
 10
610.3969094167959
 20
-124.1625071323605
 10
610.3758595224052
 20
-124.1216526808982
 10
610.3686466927119
 20
-124.0681004011921
 10
610.3758595224052
 20
-124.0062203655827
 10
610.3969094167959
 20
-123.9410622233751
 10
610.4300786234043
 20
-123.8779431300026
 10
610.4726604071828
 20
-123.8220138466579
  0
LINE
  5
D01A
330
A
100
AcDbEntity
  8
0
100
AcDbLine
 10
610.4726604071828
 20
-124.1940952772208
 30
0.0
 11
611.3248648767429
 21
-124.1465874900823
 31
0.0
  0
LWPOLYLINE
  5
D01B
330
A
100
AcDbEntity
  8
0
100
AcDbPolyline
 90
        9
 70
   128
 43
0.0
 10
611.3248648767429
 20
-124.1465874900823
 10
611.3674466605215
 20
-124.1533528923589
 10
611.4006158671299
 20
-124.1781756349425
 10
611.4216657615206
 20
-124.2190300864049
 10
611.4288785912148
 20
-124.272582366111
 10
611.4216657615206
 20
-124.3344624017204
 10
611.4006158671299
 20
-124.3996205439279
 10
611.3674466605215
 20
-124.4627396373002
 10
611.3248648767429
 20
-124.5186689206452
  0
LINE
  5
D01C
330
A
100
AcDbEntity
  8
0
100
AcDbLine
 10
611.3248648767429
 20
-124.5186689206452
 30
0.0
 11
610.4726604071828
 21
-125.4550954704293
 31
0.0
  0
LWPOLYLINE
  5
D01D
330
A
100
AcDbEntity
  8
0
100
AcDbPolyline
 90
        9
 70
   128
 43
0.0
 10
610.4726604071828
 20
-125.8271769009925
 10
610.4300786234043
 20
-125.8204114987156
 10
610.3969094167959
 20
-125.7955887561322
 10
610.3758595224052
 20
-125.7547343046696
 10
610.3686466927119
 20
-125.7011820249635
 10
610.3758595224052
 20
-125.6393019893541
 10
610.3969094167959
 20
-125.5741438471466
 10
610.4300786234043
 20
-125.5110247537743
 10
610.4726604071828
 20
-125.4550954704293
  0
LINE
  5
D01E
330
A
100
AcDbEntity
  8
0
100
AcDbLine
 10
610.4726604071828
 20
-125.8271769009925
 30
0.0
 11
611.3248648767429
 21
-125.7796691138537
 31
0.0
  0
LWPOLYLINE
  5
D01F
330
A
100
AcDbEntity
  8
0
100
AcDbPolyline
 90
        9
 70
   128
 43
0.0
 10
611.3248648767429
 20
-125.7796691138537
 10
611.3674466605215
 20
-125.7864345161306
 10
611.4006158671299
 20
-125.811257258714
 10
611.4216657615206
 20
-125.8521117101763
 10
611.4288785912148
 20
-125.9056639898824
 10
611.4216657615206
 20
-125.9675440254918
 10
611.4006158671299
 20
-126.0327021676994
 10
611.3674466605215
 20
-126.0958212610719
 10
611.3248648767429
 20
-126.1517505444166
  0
LINE
  5
D020
330
A
100
AcDbEntity
  8
0
100
AcDbLine
 10
611.3248648767429
 20
-126.1517505444166
 30
0.0
 11
610.4726604071828
 21
-127.0881770942009
 31
0.0
  0
ARC
  5
D021
330
A
100
AcDbEntity
  8
0
100
AcDbCircle
 10
610.7568250560597
 20
-127.3533104060757
 30
0.0
 40
0.3886453662876093
100
AcDbArc
 50
136.9843133826389
 51
177.1909194815528
  0
LINE
  5
D022
330
A
100
AcDbEntity
  8
0
100
AcDbLine
 10
610.3686466927119
 20
-127.334263648735
 30
0.0
 11
610.3686466927119
 21
-127.8241881358665
 31
0.0
  0
ARC
  5
D023
330
A
100
AcDbEntity
  8
0
100
AcDbCircle
 10
610.4804005416853
 20
-127.8406487233883
 30
0.0
 40
0.1129596109321419
100
AcDbArc
 50
171.6209670472277
 51
252.6462612452001
  0
LINE
  5
D024
330
A
100
AcDbEntity
  8
0
100
AcDbLine
 10
610.4467080524745
 20
-127.948466578462
 30
0.0
 11
611.9165026564013
 21
-128.2424863774101
 31
0.0
  0
LWPOLYLINE
  5
D025
330
A
100
AcDbEntity
  8
0
100
AcDbPolyline
 90
        9
 70
   128
 43
0.0
 10
611.7669909112564
 20
-128.6936660402147
 10
611.8290253259528
 20
-128.6660505643419
 10
611.889657724253
 20
-128.6138287349751
 10
611.9413238084152
 20
-128.5435155750574
 10
611.9775778884313
 20
-128.4638831221761
 10
611.9938970250249
 20
-128.3848660581272
 10
611.9882452966175
 20
-128.3163222908285
 10
611.9613277941779
 20
-128.2668031142882
 10
611.9165026564013
 20
-128.2424863774101
  0
ARC
  5
D026
330
A
100
AcDbEntity
  8
0
100
AcDbCircle
 10
492.979086237255
 20
-54.42280269417705
 30
0.0
 40
0.3073609615148711
100
AcDbArc
 50
122.6054783399245
 51
177.3945215143277
  0
LINE
  5
D027
330
A
100
AcDbEntity
  8
0
100
AcDbLine
 10
608.2468980758748
 20
-123.8233588545135
 30
0.0
 11
609.1661368914182
 21
-124.3540241271984
 31
0.0
  0
LINE
  5
D028
330
A
100
AcDbEntity
  8
0
100
AcDbLine
 10
492.6720430169811
 20
-56.83145526003926
 30
0.0
 11
492.6720430169811
 21
-54.40883052372482
 31
0.0
  0
LINE
  5
D029
330
A
100
AcDbEntity
  8
0
100
AcDbLine
 10
492.8134643732191
 20
-54.16388155016529
 30
0.0
 11
493.7327031887611
 21
-53.63321627748081
 31
0.0
  0
LINE
  5
D02A
330
A
100
AcDbEntity
  8
0
100
AcDbLine
 10
493.7327031887593
 20
-53.63321627747854
 30
0.0
 11
610.2267970631978
 21
-120.8838252017314
 31
0.0
  0
LINE
  5
D02B
330
A
100
AcDbEntity
  8
0
100
AcDbLine
 10
493.7327031887611
 20
-53.63321627748081
 30
0.0
 11
495.2728970368202
 21
-52.21051359242682
 31
0.0
  0
LWPOLYLINE
  5
D02C
330
A
100
AcDbEntity
  8
0
100
AcDbPolyline
 90
        5
 70
   128
 43
0.0
 10
495.2728970368202
 20
-52.21051359242682
 10
495.3349314515157
 20
-52.1665056576382
 10
495.3955638498168
 20
-52.1487228100188
 10
495.447229933979
 20
-52.15938357889962
 10
495.448683288011
 20
-52.16020329689007
  0
ARC
  5
D02D
330
A
100
AcDbEntity
  8
0
100
AcDbCircle
 10
607.6260061681741
 20
-129.0221395892551
 30
0.0
 40
0.0873418394856138
100
AcDbArc
 50
170.785963009391
 51
309.2032852354251
  0
LINE
  5
D02E
330
A
100
AcDbEntity
  8
0
100
AcDbLine
 10
607.539791294689
 20
-124.0272551973716
 30
0.0
 11
607.539791294689
 21
-129.0081541498748
 31
0.0
  0
ARC
  5
D02F
330
A
100
AcDbEntity
  8
0
100
AcDbCircle
 10
607.8468345149603
 20
-124.0412273678225
 30
0.0
 40
0.3073609615122703
100
AcDbArc
 50
122.6054783399358
 51
177.3945215145605
  0
LINE
  5
D030
330
A
100
AcDbEntity
  8
0
100
AcDbLine
 10
608.1054767196382
 20
-123.5373837902654
 30
0.0
 11
607.6812126509257
 21
-123.7823062238123
 31
0.0
  0
ARC
  5
D031
330
A
100
AcDbEntity
  8
0
100
AcDbCircle
 10
608.1606832023898
 20
-123.6050657020803
 30
0.0
 40
0.0873418394857021
100
AcDbArc
 50
350.7859630096238
 51
129.203285235378
  0
LINE
  5
D032
330
A
100
AcDbEntity
  8
0
100
AcDbLine
 10
608.2468980758757
 20
-128.5999500939635
 30
0.0
 11
608.2468980758757
 21
-123.6190511414604
 31
0.0
  0
ARC
  5
D033
330
A
100
AcDbEntity
  8
0
100
AcDbCircle
 10
607.9398548556
 20
-128.5859779235106
 30
0.0
 40
0.3073609615159545
100
AcDbArc
 50
302.6054783402986
 51
357.3945215142093
  0
LINE
  5
D034
330
A
100
AcDbEntity
  8
0
100
AcDbLine
 10
607.6812126509257
 20
-129.0898215010697
 30
0.0
 11
608.1054767196382
 21
-128.844899067523
 31
0.0
  0
ARC
  5
D035
330
A
100
AcDbEntity
  8
0
100
AcDbCircle
 10
491.3527406405323
 20
-56.79061844357756
 30
0.0
 40
0.3073609615216188
100
AcDbArc
 50
122.6054783406302
 51
177.3945215135362
  0
LINE
  5
D036
330
A
100
AcDbEntity
  8
0
100
AcDbLine
 10
491.0456974202519
 20
-56.77664627312123
 30
0.0
 11
491.0456974202519
 21
-61.75754522562391
 31
0.0
  0
LINE
  5
D037
330
A
100
AcDbEntity
  8
0
100
AcDbLine
 10
491.6113828452015
 20
-56.28677486601481
 30
0.0
 11
491.1871187764895
 21
-56.5316972995617
 31
0.0
  0
ARC
  5
D038
330
A
100
AcDbEntity
  8
0
100
AcDbCircle
 10
491.6699668561708
 20
-56.36855113183645
 30
0.0
 40
0.1005954471790188
100
AcDbArc
 50
65.69288095330154
 51
125.6175774754225
  0
ARC
  5
D039
330
A
100
AcDbEntity
  8
0
100
AcDbCircle
 10
491.1436978007822
 20
-61.76836257306758
 30
0.0
 40
0.0985955860563434
100
AcDbArc
 50
173.7011525007359
 51
234.9866671061963
  0
LINE
  5
D03A
330
A
100
AcDbEntity
  8
0
  6
Continuous
 62
     8
370
     0
100
AcDbLine
 10
517.8135444950984
 20
-39.60973558795848
 30
0.0
 11
634.3076383695351
 21
-106.86034451221
 31
0.0
  0
LINE
  5
D03B
330
A
100
AcDbEntity
  8
0
  6
Continuous
 62
     8
370
     0
100
AcDbLine
 10
518.1339780838192
 20
-38.89827203749036
 30
0.0
 11
634.628071958254
 21
-106.148880961741
 31
0.0
  0
LINE
  5
D03C
330
A
100
AcDbEntity
  8
0
  6
Continuous
 62
     8
370
     0
100
AcDbLine
 10
521.5182841242525
 20
-38.78364631211042
 30
0.0
 11
638.0123779986874
 21
-106.034255236361
 31
0.0
  0
LINE
  5
D03D
330
A
100
AcDbEntity
  8
0
  6
Continuous
 62
     8
370
     0
100
AcDbLine
 10
519.0235957479389
 20
-40.30851039297312
 30
0.0
 11
635.5176896233214
 21
-107.5591193177704
 31
0.0
  0
LINE
  5
D03E
330
A
100
AcDbEntity
  8
0
  6
Continuous
 62
     8
370
     0
100
AcDbLine
 10
514.8440547631393
 20
-45.76367815284965
 30
0.0
 11
631.3381486375732
 21
-113.0142870770998
 31
0.0
  0
LINE
  5
D03F
330
A
100
AcDbEntity
  8
0
  6
Continuous
 62
     8
370
     0
100
AcDbLine
 10
517.8047872131473
 20
-48.93724254038551
 30
0.0
 11
634.2988810875839
 21
-116.1878514646375
 31
0.0
  0
LINE
  5
D040
330
A
100
AcDbEntity
  8
0
  6
Continuous
 62
     8
370
     0
100
AcDbLine
 10
519.8520228736323
 20
-42.13979577484469
 30
0.0
 11
636.3461167480681
 21
-109.3904046990958
 31
0.0
  0
LINE
  5
D041
330
A
100
AcDbEntity
  8
0
  6
Continuous
 62
     8
370
     0
100
AcDbLine
 10
519.8520228736314
 20
-45.13205895101117
 30
0.0
 11
636.3461167480681
 21
-112.3826678752627
 31
0.0
  0
LINE
  5
D042
330
A
100
AcDbEntity
  8
0
  6
Continuous
 62
     8
370
     0
100
AcDbLine
 10
519.2307025300728
 20
-47.22288418621719
 30
0.0
 11
635.7247964045085
 21
-114.4734931104683
 31
0.0
  0
LINE
  5
D043
330
A
100
AcDbEntity
  8
0
  6
Continuous
 62
     8
370
     0
100
AcDbLine
 10
638.1138837010348
 20
-107.9906412734096
 30
0.0
 11
638.7856351431618
 21
-108.3784351265253
 31
0.0
  0
LINE
  5
D044
330
A
100
AcDbEntity
  8
0
  6
Continuous
 62
     8
370
     0
100
AcDbLine
 10
492.672043016982
 20
-54.40883052372482
 30
0.0
 11
609.1661368914178
 21
-121.6594394479759
 31
0.0
  0
LINE
  5
D045
330
A
100
AcDbEntity
  8
0
  6
Continuous
 62
     8
370
     0
100
AcDbLine
 10
492.81346437322
 20
-54.16388155016574
 30
0.0
 11
609.3075582476548
 21
-121.4144904744164
 31
0.0
  0
LINE
  5
D046
330
A
100
AcDbEntity
  8
0
  6
Continuous
 62
     8
370
     0
100
AcDbLine
 10
495.272897036822
 20
-52.21051359242682
 30
0.0
 11
611.7669909112568
 21
-119.4611225166774
 31
0.0
  0
LINE
  5
D047
330
A
100
AcDbEntity
  8
0
  6
Continuous
 62
     8
370
     0
100
AcDbLine
 10
610.3843279580386
 20
-122.51002041598
 30
0.0
 11
610.4726604071828
 21
-122.5610136534494
 31
0.0
  0
LINE
  5
D048
330
A
100
AcDbEntity
  8
0
  6
Continuous
 62
     8
370
     0
100
AcDbLine
 10
610.3686466927128
 20
-121.961492858597
 30
0.0
 11
611.3248648767429
 21
-122.5135058663106
 31
0.0
  0
LINE
  5
D049
330
A
100
AcDbEntity
  8
0
  6
Continuous
 62
     8
370
     0
100
AcDbLine
 10
610.3843279580386
 20
-124.1431020397515
 30
0.0
 11
610.4726604071828
 21
-124.1940952772208
 31
0.0
  0
LINE
  5
D04A
330
A
100
AcDbEntity
  8
0
  6
Continuous
 62
     8
370
     0
100
AcDbLine
 10
610.5725302878672
 20
-123.7122739765475
 30
0.0
 11
611.3248648767429
 21
-124.1465874900823
 31
0.0
  0
LINE
  5
D04B
330
A
100
AcDbEntity
  8
0
  6
Continuous
 62
     8
370
     0
100
AcDbLine
 10
608.0699432327573
 20
-128.8654121128681
 30
0.0
 11
609.1661368914182
 21
-129.4982312420788
 31
0.0
  0
LINE
  5
D04C
330
A
100
AcDbEntity
  8
0
  6
Continuous
 62
     8
370
     0
100
AcDbLine
 10
610.3843279580386
 20
-125.7761836635229
 30
0.0
 11
610.4726604071828
 21
-125.8271769009925
 31
0.0
  0
LINE
  5
D04D
330
A
100
AcDbEntity
  8
0
  6
Continuous
 62
     8
370
     0
100
AcDbLine
 10
610.5725302878672
 20
-125.3453556003189
 30
0.0
 11
611.3248648767429
 21
-125.7796691138537
 31
0.0
  0
LINE
  5
D04E
330
A
100
AcDbEntity
  8
0
  6
Continuous
 62
     8
370
     0
100
AcDbLine
 10
610.3987926388044
 20
-127.9208055989306
 30
0.0
 11
610.4467080524745
 21
-127.948466578462
 31
0.0
  0
LINE
  5
D04F
330
A
100
AcDbEntity
  8
0
  6
Continuous
 62
     8
370
     0
100
AcDbLine
 10
610.368646692711
 20
-127.3489281494932
 30
0.0
 11
611.9165026564013
 21
-128.2424863774101
 31
0.0
  0
LINE
  5
D050
330
A
100
AcDbEntity
  8
0
  6
Continuous
 62
     8
370
     0
100
AcDbLine
 10
491.0456974202519
 20
-56.77664627311987
 30
0.0
 11
607.5397912946886
 21
-124.0272551973714
 31
0.0
  0
LINE
  5
D051
330
A
100
AcDbEntity
  8
0
  6
Continuous
 62
     8
370
     0
100
AcDbLine
 10
491.1871187764904
 20
-56.53169729956124
 30
0.0
 11
607.6812126509261
 21
-123.7823062238123
 31
0.0
  0
LINE
  5
D052
330
A
100
AcDbEntity
  8
0
  6
Continuous
 62
     8
370
     0
100
AcDbLine
 10
491.0456974202528
 20
-61.75754522562391
 30
0.0
 11
607.5397912946886
 21
-129.008154149875
 31
0.0
  0
LINE
  5
D053
330
A
100
AcDbEntity
  8
0
  6
Continuous
 62
     8
370
     0
100
AcDbLine
 10
491.6113828452034
 20
-56.28677486601481
 30
0.0
 11
608.1054767196382
 21
-123.5373837902654
 31
0.0
  0
ARC
  5
D054
330
A
100
AcDbEntity
  8
0
100
AcDbCircle
 10
68.88704686937106
 20
-239.4126748585874
 30
0.0
 40
0.5
100
AcDbArc
 50
90.0
 51
180.0
  0
ARC
  5
D055
330
A
100
AcDbEntity
  8
0
100
AcDbCircle
 10
94.88704686937061
 20
-239.4126748585874
 30
0.0
 40
0.5
100
AcDbArc
 50
0.0
 51
90.0
  0
LINE
  5
D056
330
A
100
AcDbEntity
  8
0
100
AcDbLine
 10
94.38704686937061
 20
-263.9126748585874
 30
0.0
 11
95.38704686937061
 21
-262.9126748585874
 31
0.0
  0
LINE
  5
D057
330
A
100
AcDbEntity
  8
0
100
AcDbLine
 10
68.38704686937106
 20
-262.9126748585874
 30
0.0
 11
69.38704686937106
 21
-263.9126748585874
 31
0.0
  0
LINE
  5
D058
330
A
100
AcDbEntity
  8
0
100
AcDbLine
 10
69.38704686937106
 20
-263.9126748585874
 30
0.0
 11
94.38704686937061
 21
-263.9126748585874
 31
0.0
  0
LINE
  5
D059
330
A
100
AcDbEntity
  8
0
100
AcDbLine
 10
68.38704686937106
 20
-239.4126748585874
 30
0.0
 11
68.38704686937106
 21
-262.9126748585874
 31
0.0
  0
LINE
  5
D05A
330
A
100
AcDbEntity
  8
0
100
AcDbLine
 10
94.88704686937061
 20
-238.9126748585874
 30
0.0
 11
68.88704686937106
 21
-238.9126748585874
 31
0.0
  0
LINE
  5
D05B
330
A
100
AcDbEntity
  8
0
100
AcDbLine
 10
95.38704686937061
 20
-262.9126748585874
 30
0.0
 11
95.38704686937061
 21
-239.4126748585874
 31
0.0
  0
LINE
  5
D05C
330
A
100
AcDbEntity
  8
0
100
AcDbLine
 10
53.22403235736263
 20
-262.9126748585874
 30
0.0
 11
53.22403235736263
 21
-239.4126748585874
 31
0.0
  0
LINE
  5
D05D
330
A
100
AcDbEntity
  8
0
100
AcDbLine
 10
52.72403235736263
 20
-262.9126748585874
 30
0.0
 11
53.22403235736263
 21
-262.9126748585874
 31
0.0
  0
LINE
  5
D05E
330
A
100
AcDbEntity
  8
0
100
AcDbLine
 10
52.72403235736263
 20
-262.9126748585874
 30
0.0
 11
52.72403235736263
 21
-239.4126748585874
 31
0.0
  0
LINE
  5
D05F
330
A
100
AcDbEntity
  8
0
100
AcDbLine
 10
52.72403235736263
 20
-238.9126748585874
 30
0.0
 11
53.22403235736263
 21
-238.9126748585874
 31
0.0
  0
LINE
  5
D060
330
A
100
AcDbEntity
  8
0
100
AcDbLine
 10
53.22403235736263
 20
-238.9126748585874
 30
0.0
 11
53.22403235736263
 21
-239.4126748585874
 31
0.0
  0
LINE
  5
D061
330
A
100
AcDbEntity
  8
0
100
AcDbLine
 10
52.72403235736263
 20
-239.4126748585874
 30
0.0
 11
52.72403235736263
 21
-238.9126748585874
 31
0.0
  0
LINE
  5
D062
330
A
100
AcDbEntity
  8
0
100
AcDbLine
 10
53.22403235736263
 20
-262.9126748585874
 30
0.0
 11
53.22403235736263
 21
-263.9126748585874
 31
0.0
  0
LINE
  5
D063
330
A
100
AcDbEntity
  8
0
100
AcDbLine
 10
53.22403235736263
 20
-263.9126748585874
 30
0.0
 11
52.72403235736263
 21
-263.9126748585874
 31
0.0
  0
LINE
  5
D064
330
A
100
AcDbEntity
  8
0
100
AcDbLine
 10
52.72403235736263
 20
-263.9126748585874
 30
0.0
 11
52.72403235736263
 21
-262.9126748585874
 31
0.0
  0
LINE
  5
D065
330
A
100
AcDbEntity
  8
0
  6
Continuous
 62
     8
370
     0
100
AcDbLine
 10
53.22403235736263
 20
-239.4126748585874
 30
0.0
 11
52.72403235736263
 21
-239.4126748585874
 31
0.0
  0
LINE
  5
D066
330
A
100
AcDbEntity
  8
0
100
AcDbLine
 10
95.38704686937061
 20
-221.9711399724325
 30
0.0
 11
95.38704686937061
 21
-222.4711399724325
 31
0.0
  0
LINE
  5
D067
330
A
100
AcDbEntity
  8
0
100
AcDbLine
 10
95.38704686937061
 20
-222.4711399724325
 30
0.0
 11
94.38704686937061
 21
-222.4711399724325
 31
0.0
  0
LINE
  5
D068
330
A
100
AcDbEntity
  8
0
100
AcDbLine
 10
94.38704686937061
 20
-222.4711399724325
 30
0.0
 11
94.38704686937061
 21
-221.9711399724325
 31
0.0
  0
LINE
  5
D069
330
A
100
AcDbEntity
  8
0
100
AcDbLine
 10
94.38704686937061
 20
-221.9711399724325
 30
0.0
 11
95.38704686937061
 21
-221.9711399724325
 31
0.0
  0
LINE
  5
D06A
330
A
100
AcDbEntity
  8
0
100
AcDbLine
 10
69.38704686937106
 20
-222.4711399724325
 30
0.0
 11
94.38704686937061
 21
-222.4711399724325
 31
0.0
  0
LINE
  5
D06B
330
A
100
AcDbEntity
  8
0
100
AcDbLine
 10
69.38704686937106
 20
-221.9711399724325
 30
0.0
 11
69.38704686937106
 21
-222.4711399724325
 31
0.0
  0
LINE
  5
D06C
330
A
100
AcDbEntity
  8
0
100
AcDbLine
 10
69.38704686937106
 20
-221.9711399724325
 30
0.0
 11
94.38704686937061
 21
-221.9711399724325
 31
0.0
  0
LINE
  5
D06D
330
A
100
AcDbEntity
  8
0
100
AcDbLine
 10
68.38704686937106
 20
-222.4711399724325
 30
0.0
 11
68.38704686937106
 21
-221.9711399724325
 31
0.0
  0
LINE
  5
D06E
330
A
100
AcDbEntity
  8
0
100
AcDbLine
 10
68.38704686937106
 20
-221.9711399724325
 30
0.0
 11
69.38704686937106
 21
-221.9711399724325
 31
0.0
  0
LINE
  5
D06F
330
A
100
AcDbEntity
  8
0
100
AcDbLine
 10
69.38704686937106
 20
-222.4711399724325
 30
0.0
 11
68.38704686937106
 21
-222.4711399724325
 31
0.0
  0
LINE
  5
D071
330
A
100
AcDbEntity
  8
0
100
AcDbLine
 10
134.4170384412685
 20
-273.2663428487862
 30
0.0
 11
134.1670384412685
 21
-273.1542709147651
 31
0.0
  0
LINE
  5
D072
330
A
100
AcDbEntity
  8
0
100
AcDbLine
 10
111.2628327778951
 20
-299.8512047542282
 30
0.0
 11
112.1288581816791
 21
-300.687721057966
 31
0.0
  0
LINE
  5
D073
330
A
100
AcDbEntity
  8
0
100
AcDbLine
 10
111.2628327778951
 20
-299.8512047542282
 30
0.0
 11
111.2628327778951
 21
-277.1519478364351
 31
0.0
  0
ARC
  5
D074
330
A
100
AcDbEntity
  8
0
100
AcDbCircle
 10
111.8124787758927
 20
-277.1415104080598
 30
0.0
 40
0.5497450891330146
100
AcDbArc
 50
102.2488975334618
 51
181.0878797104368
  0
LINE
  5
D075
330
A
100
AcDbEntity
  8
0
100
AcDbLine
 10
111.6958454797871
 20
-276.6042801620149
 30
0.0
 11
134.2125059781822
 21
-273.2396325756821
 31
0.0
  0
ARC
  5
D076
330
A
100
AcDbEntity
  8
0
100
AcDbCircle
 10
134.2584938413695
 20
-273.6252953803133
 30
0.0
 40
0.3883950082539037
100
AcDbArc
 50
355.1858931745107
 51
96.80005243427077
  0
LINE
  5
D077
330
A
100
AcDbEntity
  8
0
100
AcDbLine
 10
134.6455186800743
 20
-273.657890727551
 30
0.0
 11
134.6455186800743
 21
-296.3571476453442
 31
0.0
  0
LINE
  5
D078
330
A
100
AcDbEntity
  8
0
100
AcDbLine
 10
133.7794932762902
 20
-297.4524829941845
 30
0.0
 11
134.6455186800743
 21
-296.3571476453442
 31
0.0
  0
LINE
  5
D079
330
A
100
AcDbEntity
  8
0
100
AcDbLine
 10
133.7794932762902
 20
-297.4524829941845
 30
0.0
 11
112.1288581816791
 21
-300.687721057966
 31
0.0
  0
ARC
  5
D07A
330
A
100
AcDbEntity
  8
0
100
AcDbCircle
 10
111.5624787758927
 20
-277.0294384740388
 30
0.0
 40
0.5497450891330206
100
AcDbArc
 50
102.2488975334632
 51
181.0878797104487
  0
LINE
  5
D07B
330
A
100
AcDbEntity
  8
0
100
AcDbLine
 10
111.0128327778951
 20
-299.7391328202071
 30
0.0
 11
111.2628327778951
 21
-299.8512047542282
 31
0.0
  0
LINE
  5
D07C
330
A
100
AcDbEntity
  8
0
100
AcDbLine
 10
111.0128327778951
 20
-299.7391328202071
 30
0.0
 11
111.0128327778951
 21
-277.0398759024141
 31
0.0
  0
LINE
  5
D07D
330
A
100
AcDbEntity
  8
0
100
AcDbLine
 10
111.4458454797871
 20
-276.4922082279938
 30
0.0
 11
133.9625059781822
 21
-273.1275606416611
 31
0.0
  0
LINE
  5
D07E
330
A
100
AcDbEntity
  8
0
100
AcDbLine
 10
112.1288581816791
 20
-300.687721057966
 30
0.0
 11
111.8788581816791
 21
-300.575649123945
 31
0.0
  0
LINE
  5
D07F
330
A
100
AcDbEntity
  8
0
100
AcDbLine
 10
111.8788581816791
 20
-300.575649123945
 30
0.0
 11
111.0128327778951
 21
-299.7391328202071
 31
0.0
  0
ARC
  5
D080
330
A
100
AcDbEntity
  8
0
100
AcDbCircle
 10
134.0195753719575
 20
-273.4870081044287
 30
0.0
 40
0.3639497138285429
100
AcDbArc
 50
66.09795007558806
 51
99.02153663251904
  0
LINE
  5
D081
330
A
100
AcDbEntity
  8
0
  6
Continuous
 62
     8
370
     0
100
AcDbLine
 10
111.4458454797871
 20
-276.4922082279938
 30
0.0
 11
111.6958454797871
 21
-276.6042801620149
 31
0.0
  0
LINE
  5
D082
330
A
100
AcDbEntity
  8
0
  6
Continuous
 62
     8
370
     0
100
AcDbLine
 10
111.2628327778951
 20
-277.1519478364351
 30
0.0
 11
111.0128327778951
 21
-277.0398759024141
 31
0.0
  0
LINE
  5
D083
330
A
100
AcDbEntity
  8
0
  6
Continuous
 62
     8
370
     0
100
AcDbLine
 10
134.2125059781822
 20
-273.2396325756821
 30
0.0
 11
133.9625059781822
 21
-273.1275606416611
 31
0.0
  0
LINE
  5
D084
330
A
100
AcDbEntity
  8
0
100
AcDbLine
 10
288.2989961543181
 20
-271.3185594873868
 30
0.0
 11
285.7989961543181
 21
-271.3185594873868
 31
0.0
  0
LINE
  5
D085
330
A
100
AcDbEntity
  8
0
100
AcDbLine
 10
285.7989961543181
 20
-271.3185594873868
 30
0.0
 11
285.7989961543181
 21
-267.3185594873868
 31
0.0
  0
LINE
  5
D086
330
A
100
AcDbEntity
  8
0
100
AcDbLine
 10
288.2989961543181
 20
-267.3185594873868
 30
0.0
 11
288.2989961543181
 21
-271.3185594873868
 31
0.0
  0
ARC
  5
D087
330
A
100
AcDbEntity
  8
0
100
AcDbCircle
 10
289.2989961543181
 20
-257.8185594873868
 30
0.0
 40
1.0
100
AcDbArc
 50
90.0
 51
180.0
  0
ARC
  5
D088
330
A
100
AcDbEntity
  8
0
100
AcDbCircle
 10
287.7989961543181
 20
-256.3185594873868
 30
0.0
 40
2.0
100
AcDbArc
 50
90.0
 51
180.0
  0
LINE
  5
D089
330
A
100
AcDbEntity
  8
0
100
AcDbLine
 10
287.7989961543181
 20
-254.3185594873868
 30
0.0
 11
306.7989961543181
 21
-254.3185594873868
 31
0.0
  0
LINE
  5
D08A
330
A
100
AcDbEntity
  8
0
100
AcDbLine
 10
306.7989961543181
 20
-256.8185594873868
 30
0.0
 11
289.2989961543181
 21
-256.8185594873868
 31
0.0
  0
LINE
  5
D08B
330
A
100
AcDbEntity
  8
0
100
AcDbLine
 10
288.2989961543181
 20
-257.8185594873868
 30
0.0
 11
288.2989961543181
 21
-267.3185594873868
 31
0.0
  0
LINE
  5
D08C
330
A
100
AcDbEntity
  8
0
100
AcDbLine
 10
285.7989961543181
 20
-267.3185594873868
 30
0.0
 11
285.7989961543181
 21
-256.3185594873868
 31
0.0
  0
LINE
  5
D08D
330
A
100
AcDbEntity
  8
0
100
AcDbLine
 10
310.7989961543181
 20
-254.3185594873868
 30
0.0
 11
310.7989961543181
 21
-256.8185594873868
 31
0.0
  0
LINE
  5
D08E
330
A
100
AcDbEntity
  8
0
100
AcDbLine
 10
310.7989961543181
 20
-256.8185594873868
 30
0.0
 11
306.7989961543181
 21
-256.8185594873868
 31
0.0
  0
LINE
  5
D08F
330
A
100
AcDbEntity
  8
0
100
AcDbLine
 10
306.7989961543181
 20
-254.3185594873868
 30
0.0
 11
310.7989961543181
 21
-254.3185594873868
 31
0.0
  0
LINE
  5
D090
330
A
100
AcDbEntity
  8
0
  6
Continuous
 62
     8
370
     0
100
AcDbLine
 10
285.7989961543181
 20
-267.3185594873868
 30
0.0
 11
288.2989961543181
 21
-267.3185594873868
 31
0.0
  0
LINE
  5
D091
330
A
100
AcDbEntity
  8
0
  6
Continuous
 62
     8
370
     0
100
AcDbLine
 10
306.7989961543181
 20
-256.8185594873868
 30
0.0
 11
306.7989961543181
 21
-254.3185594873868
 31
0.0
  0
LINE
  5
D092
330
A
100
AcDbEntity
  8
0
100
AcDbLine
 10
268.6326307594118
 20
-254.3185594873868
 30
0.0
 11
268.6326307594118
 21
-256.8185594873868
 31
0.0
  0
LINE
  5
D093
330
A
100
AcDbEntity
  8
0
100
AcDbLine
 10
268.6326307594118
 20
-256.8185594873868
 30
0.0
 11
264.6326307594118
 21
-256.8185594873868
 31
0.0
  0
LINE
  5
D094
330
A
100
AcDbEntity
  8
0
100
AcDbLine
 10
264.6326307594118
 20
-254.3185594873868
 30
0.0
 11
268.6326307594118
 21
-254.3185594873868
 31
0.0
  0
LINE
  5
D095
330
A
100
AcDbEntity
  8
0
100
AcDbLine
 10
264.6326307594118
 20
-256.8185594873868
 30
0.0
 11
258.6326307594118
 21
-256.8185594873868
 31
0.0
  0
LINE
  5
D096
330
A
100
AcDbEntity
  8
0
100
AcDbLine
 10
264.6326307594118
 20
-254.3185594873868
 30
0.0
 11
258.6326307594118
 21
-254.3185594873868
 31
0.0
  0
LINE
  5
D097
330
A
100
AcDbEntity
  8
0
100
AcDbLine
 10
254.6326307594118
 20
-256.8185594873868
 30
0.0
 11
254.6326307594118
 21
-254.3185594873868
 31
0.0
  0
LINE
  5
D098
330
A
100
AcDbEntity
  8
0
100
AcDbLine
 10
258.6326307594118
 20
-256.8185594873868
 30
0.0
 11
254.6326307594118
 21
-256.8185594873868
 31
0.0
  0
LINE
  5
D099
330
A
100
AcDbEntity
  8
0
100
AcDbLine
 10
254.6326307594118
 20
-254.3185594873868
 30
0.0
 11
258.6326307594118
 21
-254.3185594873868
 31
0.0
  0
LINE
  5
D09A
330
A
100
AcDbEntity
  8
0
100
AcDbLine
 10
254.6326307594118
 20
-257.8185594873868
 30
0.0
 11
254.6326307594118
 21
-256.8185594873868
 31
0.0
  0
LINE
  5
D09B
330
A
100
AcDbEntity
  8
0
100
AcDbLine
 10
268.6326307594118
 20
-256.8185594873868
 30
0.0
 11
268.6326307594118
 21
-257.8185594873868
 31
0.0
  0
ARC
  5
D09C
330
A
100
AcDbEntity
  8
0
100
AcDbCircle
 10
264.6326307594118
 20
-267.3185594873868
 30
0.0
 40
4.0
100
AcDbArc
 50
270.0
 51
0.0
  0
LINE
  5
D09D
330
A
100
AcDbEntity
  8
0
100
AcDbLine
 10
264.6326307594118
 20
-271.3185594873868
 30
0.0
 11
258.6326307594118
 21
-271.3185594873868
 31
0.0
  0
ARC
  5
D09E
330
A
100
AcDbEntity
  8
0
100
AcDbCircle
 10
258.6326307594118
 20
-267.3185594873868
 30
0.0
 40
4.0
100
AcDbArc
 50
180.0
 51
270.0
  0
LINE
  5
D09F
330
A
100
AcDbEntity
  8
0
100
AcDbLine
 10
254.6326307594118
 20
-257.8185594873868
 30
0.0
 11
254.6326307594118
 21
-267.3185594873868
 31
0.0
  0
LINE
  5
D0A0
330
A
100
AcDbEntity
  8
0
100
AcDbLine
 10
268.6326307594118
 20
-257.8185594873868
 30
0.0
 11
268.6326307594118
 21
-267.3185594873868
 31
0.0
  0
LINE
  5
D0A1
330
A
100
AcDbEntity
  8
0
  6
Continuous
 62
     8
370
     0
100
AcDbLine
 10
264.6326307594118
 20
-256.8185594873868
 30
0.0
 11
264.6326307594118
 21
-254.3185594873868
 31
0.0
  0
LINE
  5
D0A2
330
A
100
AcDbEntity
  8
0
  6
Continuous
 62
     8
370
     0
100
AcDbLine
 10
258.6326307594118
 20
-254.3185594873868
 30
0.0
 11
258.6326307594118
 21
-256.8185594873868
 31
0.0
  0
LINE
  5
D0A3
330
A
100
AcDbEntity
  8
0
  6
Continuous
 62
     8
370
     0
100
AcDbLine
 10
268.6326307594118
 20
-257.8185594873868
 30
0.0
 11
254.6326307594118
 21
-257.8185594873868
 31
0.0
  0
LINE
  5
D0A4
330
A
100
AcDbEntity
  8
0
100
AcDbLine
 10
288.2989961543181
 20
-241.0717722009844
 30
0.0
 11
285.7989961543181
 21
-241.0717722009844
 31
0.0
  0
LINE
  5
D0A5
330
A
100
AcDbEntity
  8
0
100
AcDbLine
 10
285.7989961543181
 20
-241.0717722009844
 30
0.0
 11
285.7989961543181
 21
-237.0717722009844
 31
0.0
  0
LINE
  5
D0A6
330
A
100
AcDbEntity
  8
0
100
AcDbLine
 10
288.2989961543181
 20
-237.0717722009844
 30
0.0
 11
288.2989961543181
 21
-241.0717722009844
 31
0.0
  0
LINE
  5
D0A7
330
A
100
AcDbEntity
  8
0
100
AcDbLine
 10
288.2989961543181
 20
-237.0717722009844
 30
0.0
 11
288.2989961543181
 21
-231.0717722009844
 31
0.0
  0
LINE
  5
D0A8
330
A
100
AcDbEntity
  8
0
100
AcDbLine
 10
285.7989961543181
 20
-237.0717722009844
 30
0.0
 11
285.7989961543181
 21
-231.0717722009844
 31
0.0
  0
LINE
  5
D0A9
330
A
100
AcDbEntity
  8
0
100
AcDbLine
 10
285.7989961543181
 20
-227.0717722009844
 30
0.0
 11
288.2989961543181
 21
-227.0717722009844
 31
0.0
  0
LINE
  5
D0AA
330
A
100
AcDbEntity
  8
0
100
AcDbLine
 10
288.2989961543181
 20
-227.0717722009844
 30
0.0
 11
288.2989961543181
 21
-231.0717722009844
 31
0.0
  0
LINE
  5
D0AB
330
A
100
AcDbEntity
  8
0
100
AcDbLine
 10
285.7989961543181
 20
-231.0717722009844
 30
0.0
 11
285.7989961543181
 21
-227.0717722009844
 31
0.0
  0
LINE
  5
D0AC
330
A
100
AcDbEntity
  8
0
100
AcDbLine
 10
288.2989961543181
 20
-227.0717722009846
 30
0.0
 11
289.2989961543181
 21
-227.0717722009846
 31
0.0
  0
LINE
  5
D0AD
330
A
100
AcDbEntity
  8
0
100
AcDbLine
 10
289.2989961543181
 20
-241.0717722009846
 30
0.0
 11
288.2989961543181
 21
-241.0717722009846
 31
0.0
  0
ARC
  5
D0AE
330
A
100
AcDbEntity
  8
0
100
AcDbCircle
 10
306.7989961543181
 20
-237.0717722009846
 30
0.0
 40
4.0
100
AcDbArc
 50
270.0
 51
0.0
  0
ARC
  5
D0AF
330
A
100
AcDbEntity
  8
0
100
AcDbCircle
 10
306.7989961543181
 20
-231.0717722009846
 30
0.0
 40
4.0
100
AcDbArc
 50
0.0
 51
90.0
  0
LINE
  5
D0B0
330
A
100
AcDbEntity
  8
0
100
AcDbLine
 10
310.7989961543181
 20
-237.0717722009846
 30
0.0
 11
310.7989961543181
 21
-231.0717722009846
 31
0.0
  0
CIRCLE
  5
D0B1
330
A
100
AcDbEntity
  8
0
100
AcDbCircle
 10
300.7989961543181
 20
-234.0717722009846
 30
0.0
 40
5.19999999999996
  0
LINE
  5
D0B2
330
A
100
AcDbEntity
  8
0
100
AcDbLine
 10
306.7989961543181
 20
-227.0717722009846
 30
0.0
 11
289.2989961543181
 21
-227.0717722009846
 31
0.0
  0
LINE
  5
D0B3
330
A
100
AcDbEntity
  8
0
100
AcDbLine
 10
306.7989961543181
 20
-241.0717722009846
 30
0.0
 11
289.2989961543181
 21
-241.0717722009846
 31
0.0
  0
CIRCLE
  5
D0B4
330
A
100
AcDbEntity
  8
0
100
AcDbCircle
 10
300.7989961543181
 20
-234.0717722009846
 30
0.0
 40
2.699999999999989
  0
LINE
  5
D0B5
330
A
100
AcDbEntity
  8
0
  6
Continuous
 62
     8
370
     0
100
AcDbLine
 10
285.7989961543181
 20
-237.0717722009844
 30
0.0
 11
288.2989961543181
 21
-237.0717722009844
 31
0.0
  0
LINE
  5
D0B6
330
A
100
AcDbEntity
  8
0
  6
Continuous
 62
     8
370
     0
100
AcDbLine
 10
288.2989961543181
 20
-231.0717722009844
 30
0.0
 11
285.7989961543181
 21
-231.0717722009844
 31
0.0
  0
LINE
  5
D0B7
330
A
100
AcDbEntity
  8
0
  6
Continuous
 62
     8
370
     0
100
AcDbLine
 10
289.2989961543181
 20
-227.0717722009846
 30
0.0
 11
289.2989961543181
 21
-241.0717722009846
 31
0.0
  0
INSERT
  5
D0B8
330
A
100
AcDbEntity
  8
ASSI
100
AcDbBlockReference
  2
SW_CENTERMARKSYMBOL_0
 10
300.7989961543181
 20
-234.0717722009846
 30
0.0
  0
LINE
  5
D0B9
330
A
100
AcDbEntity
  8
0
100
AcDbLine
 10
340.5303346483807
 20
-278.6963882441833
 30
0.0
 11
340.5303346483807
 21
-276.2815736784606
 31
0.0
  0
LINE
  5
D0BA
330
A
100
AcDbEntity
  8
0
100
AcDbLine
 10
321.2577221241318
 20
-273.0330583702347
 30
0.0
 11
314.2577221241318
 21
-276.1710725228229
 31
0.0
  0
LINE
  5
D0BB
330
A
100
AcDbEntity
  8
0
100
AcDbLine
 10
314.7526477124757
 20
-291.4219486894199
 30
0.0
 11
316.9177112219368
 21
-291.745472495798
 31
0.0
  0
LINE
  5
D0BC
330
A
100
AcDbEntity
  8
0
100
AcDbLine
 10
322.0758519764759
 20
-272.9262172778186
 30
0.0
 11
338.5303346483807
 21
-275.3849982062925
 31
0.0
  0
LWPOLYLINE
  5
D0BD
330
A
100
AcDbEntity
  8
0
100
AcDbPolyline
 90
       18
 70
   128
 43
0.0
 10
339.9944362635188
 20
-276.7992117686657
 10
340.1641957356588
 20
-276.7142780678779
 10
340.3029523862661
 20
-276.6256526858068
 10
340.4095223925206
 20
-276.5340917429641
 10
340.4829965367053
 20
-276.4403764050302
 10
340.5227479633286
 20
-276.3453062182256
 10
340.5284375272341
 20
-276.249692287863
 10
340.5000166870687
 20
-276.1543503582841
 10
340.4377279194187
 20
-276.0600938532152
 10
340.3421026500892
 20
-275.9677269359238
 10
340.2139567201603
 20
-275.8780376483803
 10
340.0543834255241
 20
-275.7917911879628
 10
339.8647441892654
 20
-275.7097233790618
 10
339.6466569464838
 20
-275.6325343952864
 10
339.4019823406389
 20
-275.5608827858304
 10
339.1328078491979
 20
-275.4953798569617
 10
338.8414299740135
 20
-275.4365844565739
 10
338.5303346483807
 20
-275.3849982062925
  0
LINE
  5
D0BE
330
A
100
AcDbEntity
  8
0
100
AcDbLine
 10
339.9944362635188
 20
-276.7992117686657
 30
0.0
 11
336.9944362635188
 21
-278.1440749769178
 31
0.0
  0
ARC
  5
D0BF
330
A
100
AcDbEntity
  8
0
100
AcDbCircle
 10
333.4812078671376
 20
-267.0693244910368
 30
0.0
 40
11.61864329815048
100
AcDbArc
 50
260.3337417038048
 51
287.6005198978708
  0
LINE
  5
D0C0
330
A
100
AcDbEntity
  8
0
100
AcDbLine
 10
315.0758519764759
 20
-276.0642314304068
 30
0.0
 11
331.5303346483807
 21
-278.5230123588808
 31
0.0
  0
LWPOLYLINE
  5
D0C1
330
A
100
AcDbEntity
  8
0
100
AcDbPolyline
 90
       59
 70
   128
 43
0.0
 10
331.1841822256739
 20
-275.5723597035657
 10
331.4290797726181
 20
-275.6136847466454
 10
331.655278604053
 20
-275.6616205725522
 10
331.8601267454961
 20
-275.7156051775557
 10
332.0412225397832
 20
-275.7750056415208
 10
332.196442804303
 20
-275.8391255483177
 10
332.3239677233742
 20
-275.9072131506647
 10
332.4223021839171
 20
-275.9784701836774
 10
332.4902933042904
 20
-276.0520612237946
 10
332.5271439507724
 20
-276.1271234833558
 10
332.5324220832263
 20
-276.2027769259979
 10
332.5060658203739
 20
-276.2781345842764
 10
332.448384165301
 20
-276.3523129585481
 10
332.360053382673
 20
-276.4244423751966
 10
332.2421090701555
 20
-276.4936771827604
 10
332.0959340169748
 20
-276.5592056664227
 10
331.9232419919809
 20
-276.6202595646258
 10
331.7260576512718
 20
-276.6761230762355
 10
331.5066928009565
 20
-276.7261412526545
 10
331.2677192933371
 20
-276.7697276764966
 10
331.0119388742942
 20
-276.8063713367934
 10
330.7423503353794
 20
-276.8356426201317
 10
330.4621143557243
 20
-276.8571983474773
 10
330.174516445969
 20
-276.8707857976357
 10
329.8829284286504
 20
-276.8762456701768
 10
329.5907689066717
 20
-276.8735139530872
 10
329.301463183303
 20
-276.8626226732522
 10
329.0184031036361
 20
-276.8436995209697
 10
328.7449072883019
 20
-276.8169663528987
 10
328.484182225674
 20
-276.7827365909925
 10
328.2392846787298
 20
-276.7414115479128
 10
328.0130858472949
 20
-276.6934757220059
 10
327.8082377058518
 20
-276.6394911170024
 10
327.6271419115647
 20
-276.5800906530374
 10
327.4719216470449
 20
-276.5159707462404
 10
327.3443967279737
 20
-276.4478831438934
 10
327.2460622674308
 20
-276.3766261108807
 10
327.1780711470574
 20
-276.3030350707636
 10
327.1412205005755
 20
-276.2279728112023
 10
327.1359423681216
 20
-276.1523193685603
 10
327.162298630974
 20
-276.0769617102818
 10
327.2199802860469
 20
-276.0027833360101
 10
327.3083110686749
 20
-275.9306539193616
 10
327.4262553811923
 20
-275.8614191117978
 10
327.5724304343731
 20
-275.7958906281355
 10
327.745122459367
 20
-275.7348367299323
 10
327.9423068000761
 20
-275.6789732183227
 10
328.1616716503914
 20
-275.6289550419036
 10
328.4006451580117
 20
-275.5853686180616
 10
328.6564255770537
 20
-275.5487249577648
 10
328.9260141159685
 20
-275.5194536744265
 10
329.2062500956236
 20
-275.4978979470809
 10
329.4938480053789
 20
-275.4843104969225
 10
329.7854360226975
 20
-275.4788506243814
 10
330.0775955446762
 20
-275.4815823414709
 10
330.3669012680448
 20
-275.492473621306
 10
330.6499613477118
 20
-275.5113967735884
 10
330.9234571630469
 20
-275.5381299416595
 10
331.1841822256739
 20
-275.5723597035657
  0
ARC
  5
D0C2
330
A
100
AcDbEntity
  8
0
100
AcDbCircle
 10
333.4737729012286
 20
-269.376930290444
 30
0.0
 40
11.7231089403943
100
AcDbArc
 50
260.4575436697127
 51
287.4767179319636
  0
ARC
  5
D0C3
330
A
100
AcDbEntity
  8
0
100
AcDbCircle
 10
316.2829143557793
 20
-279.444485889219
 30
0.0
 40
0.7767900165078594
100
AcDbArc
 50
83.19994756579682
 51
184.8141068254638
  0
LINE
  5
D0C4
330
A
100
AcDbEntity
  8
0
100
AcDbLine
 10
315.5088646783689
 20
-279.5096765836942
 30
0.0
 11
315.5088646783689
 21
-288.6859719334403
 31
0.0
  0
LINE
  5
D0C5
330
A
100
AcDbEntity
  8
0
100
AcDbLine
 10
313.3438011689078
 20
-288.3624481270622
 30
0.0
 11
313.3438011689078
 21
-277.7372640378824
 31
0.0
  0
ARC
  5
D0C6
330
A
100
AcDbEntity
  8
0
100
AcDbCircle
 10
314.8919005237295
 20
-277.6068826489321
 30
0.0
 40
1.55358003301578
100
AcDbArc
 50
83.19994756583066
 51
184.8141068254595
  0
LINE
  5
D0C7
330
A
100
AcDbEntity
  8
0
100
AcDbLine
 10
331.5303346483807
 20
-280.9378269246034
 30
0.0
 11
316.3748900821529
 21
-278.6731602799564
 31
0.0
  0
LINE
  5
D0C8
330
A
100
AcDbEntity
  8
0
100
AcDbLine
 10
339.9944362635188
 20
-279.2140263343883
 30
0.0
 11
336.9944362635188
 21
-280.5588895426404
 31
0.0
  0
ARC
  5
D0C9
330
A
100
AcDbEntity
  8
0
100
AcDbCircle
 10
339.8281395392478
 20
-278.505642835284
 30
0.0
 40
0.7276412456056032
100
AcDbArc
 50
283.2112596026469
 51
344.802794788634
  0
ARC
  5
D0CA
330
A
100
AcDbEntity
  8
0
100
AcDbCircle
 10
321.8481744091824
 20
-274.3686016560183
 30
0.0
 40
1.460243051386813
100
AcDbArc
 50
81.02998306980705
 51
113.8505302221839
  0
LINE
  5
D0CB
330
A
100
AcDbEntity
  8
0
100
AcDbLine
 10
322.5088646783689
 20
-279.5897554749345
 30
0.0
 11
322.5088646783689
 21
-285.5479577808521
 31
0.0
  0
ARC
  5
D0CC
330
A
100
AcDbEntity
  8
0
100
AcDbCircle
 10
317.0133609198775
 20
-286.0393406622671
 30
0.0
 40
5.517428630778523
100
AcDbArc
 50
309.3116758613164
 51
5.109539065322813
  0
LINE
  5
D0CD
330
A
100
AcDbEntity
  8
0
100
AcDbLine
 10
320.5088646783689
 20
-290.3082365581764
 30
0.0
 11
317.5088646783689
 21
-291.6530997664286
 31
0.0
  0
LWPOLYLINE
  5
D0CE
330
A
100
AcDbEntity
  8
0
100
AcDbPolyline
 90
       18
 70
   128
 43
0.0
 10
315.5088646783689
 20
-288.6859719334403
 10
315.5173963257785
 20
-289.0386448659575
 10
315.542918479001
 20
-289.3806596515586
 10
315.5852133920226
 20
-289.7090983406837
 10
315.6439202195598
 20
-290.0211588102416
 10
315.7185380956581
 20
-290.3141786703352
 10
315.8084304069089
 20
-290.5856579788342
 10
315.9128302238078
 20
-290.8332805699995
 10
316.0308468439271
 20
-291.0549338151924
 10
316.1614733910756
 20
-291.2487266470777
 10
316.3035954056095
 20
-291.4130056935431
 10
316.456000352614
 20
-291.5463693836875
 10
316.6173879668159
 20
-291.6476799055291
 10
316.7863813459945
 20
-291.7160729134168
 10
316.9615386982242
 20
-291.7509649023219
 10
317.1413656427349
 20
-291.7520581860977
 10
317.3243279594417
 20
-291.7193434372324
 10
317.5088646783689
 20
-291.6530997664286
  0
LWPOLYLINE
  5
D0CF
330
A
100
AcDbEntity
  8
0
100
AcDbPolyline
 90
       15
 70
   128
 43
0.0
 10
314.7526477124757
 20
-291.4219486894199
 10
314.6213178365334
 20
-291.3925491070387
 10
314.4523244573548
 20
-291.324156099151
 10
314.2909368431529
 20
-291.2228455773093
 10
314.1385318961493
 20
-291.089481887165
 10
313.9964098816145
 20
-290.9252028406995
 10
313.865783334466
 20
-290.7314100088142
 10
313.7477667143467
 20
-290.5097567636213
 10
313.6433668974478
 20
-290.2621341724561
 10
313.553474586197
 20
-289.990654863957
 10
313.4788567100987
 20
-289.6976350038634
 10
313.4201498825615
 20
-289.3855745343055
 10
313.3778549695399
 20
-289.0571358451805
 10
313.3523328163174
 20
-288.7151210595794
 10
313.3438011689078
 20
-288.3624481270622
  0
LINE
  5
D0D0
330
A
100
AcDbEntity
  8
0
  6
Continuous
 62
     8
370
     0
100
AcDbLine
 10
322.0758519764759
 20
-272.9262172778186
 30
0.0
 11
315.0758519764759
 21
-276.0642314304068
 31
0.0
  0
LINE
  5
D0D1
330
A
100
AcDbEntity
  8
0
  6
Continuous
 62
     8
370
     0
100
AcDbLine
 10
336.9944362635188
 20
-278.1440749769178
 30
0.0
 11
336.9944362635188
 21
-280.5588895426404
 31
0.0
  0
LINE
  5
D0D2
330
A
100
AcDbEntity
  8
0
  6
Continuous
 62
     8
370
     0
100
AcDbLine
 10
331.5303346483807
 20
-280.9378269246034
 30
0.0
 11
331.5303346483807
 21
-278.5230123588808
 31
0.0
  0
LINE
  5
D0D3
330
A
100
AcDbEntity
  8
0
  6
Continuous
 62
     8
370
     0
100
AcDbLine
 10
313.3438011689078
 20
-288.3624481270622
 30
0.0
 11
315.5088646783689
 21
-288.6859719334403
 31
0.0
  0
LINE
  5
D0D4
330
A
100
AcDbEntity
  8
0
  6
Continuous
 62
     8
370
     0
100
AcDbLine
 10
339.9944362635188
 20
-279.2140263343883
 30
0.0
 11
339.9944362635188
 21
-276.7992117686657
 31
0.0
  0
LINE
  5
D0D5
330
A
100
AcDbEntity
  8
0
  6
Continuous
 62
     8
370
     0
100
AcDbLine
 10
317.1248900821529
 20
-278.7852322139773
 30
0.0
 11
315.5088646783689
 21
-279.5096765836942
 31
0.0
  0
LINE
  5
DBC6
330
A
100
AcDbEntity
  8
0
100
AcDbLine
 10
258.0740672319201
 20
13.82886558893902
 30
0.0
 11
257.2139696891235
 21
12.80384125232909
 31
0.0
  0
ARC
  5
DBC7
330
A
100
AcDbEntity
  8
0
100
AcDbCircle
 10
257.8825561211405
 20
13.9895624913605
 30
0.0
 40
0.25
100
AcDbArc
 50
320.0000000001194
 51
90.0
  0
LINE
  5
DBC8
330
A
100
AcDbEntity
  8
0
100
AcDbLine
 10
256.9325561211407
 20
14.2395624913605
 30
0.0
 11
257.8825561211405
 21
14.2395624913605
 31
0.0
  0
LINE
  5
DBC9
330
A
100
AcDbEntity
  8
0
100
AcDbLine
 10
256.9325561211407
 20
17.43091110565352
 30
0.0
 11
256.9325561211407
 21
14.2395624913605
 31
0.0
  0
ARC
  5
DBCA
330
A
100
AcDbEntity
  8
0
100
AcDbCircle
 10
256.6825561211407
 20
17.43091110565352
 30
0.0
 40
0.2500000000000126
100
AcDbArc
 50
0.0
 51
64.79887635459912
  0
LINE
  5
DBCB
330
A
100
AcDbEntity
  8
0
100
AcDbLine
 10
250.2028738786215
 20
19.90941295842809
 30
0.0
 11
256.7890053802229
 21
17.65711578120396
 31
0.0
  0
ARC
  5
DBCC
330
A
100
AcDbEntity
  8
0
100
AcDbCircle
 10
250.0325550640895
 20
19.5474854775474
 30
0.0
 40
0.4000000000000244
100
AcDbArc
 50
64.79887635458495
 51
224.9999999999201
  0
LINE
  5
DBCD
330
A
100
AcDbEntity
  8
0
100
AcDbLine
 10
251.5109832458869
 20
17.50337187080082
 30
0.0
 11
249.7497123516149
 21
19.26464276507328
 31
0.0
  0
ARC
  5
DBCE
330
A
100
AcDbEntity
  8
0
100
AcDbCircle
 10
248.6825561211407
 20
14.67494474605506
 30
0.0
 40
3.999999999999992
100
AcDbArc
 50
0.0
 51
44.99999999999935
  0
LINE
  5
DBCF
330
A
100
AcDbEntity
  8
0
100
AcDbLine
 10
252.6825561211407
 20
11.31038428243743
 30
0.0
 11
252.6825561211407
 21
14.67494474605506
 31
0.0
  0
ARC
  5
DBD0
330
A
100
AcDbEntity
  8
0
100
AcDbCircle
 10
249.6825561211407
 20
11.31038428243743
 30
0.0
 40
3.000000000000024
100
AcDbArc
 50
314.9999999999968
 51
0.0
  0
LINE
  5
DBD1
330
A
100
AcDbEntity
  8
0
100
AcDbLine
 10
250.3850362491002
 20
7.770223723277795
 30
0.0
 11
251.8038764647002
 21
9.189063938877425
 31
0.0
  0
LINE
  5
DBD2
330
A
100
AcDbEntity
  8
0
100
AcDbLine
 10
250.2131706225867
 20
8.01567327521012
 30
0.0
 11
250.3850362491002
 21
7.770223723277795
 31
0.0
  0
ARC
  5
DBD3
330
A
100
AcDbEntity
  8
0
100
AcDbCircle
 10
250.0697765134991
 20
8.220461286282315
 30
0.0
 40
0.2500000000000308
100
AcDbArc
 50
304.9999999999761
 51
34.99999999984902
  0
LINE
  5
DBD4
330
A
100
AcDbEntity
  8
0
100
AcDbLine
 10
246.0874565392086
 20
14.34366531867896
 30
0.0
 11
250.2745645245712
 21
8.363855395369555
 31
0.0
  0
ARC
  5
DBD5
330
A
100
AcDbEntity
  8
0
100
AcDbCircle
 10
245.7188381192785
 20
14.08555592232175
 30
0.0
 40
0.4500000000000666
100
AcDbArc
 50
34.99999999990996
 51
215.0000000000136
  0
LINE
  5
DBD6
330
A
100
AcDbEntity
  8
0
100
AcDbLine
 10
249.5373276847112
 20
7.847636602654219
 30
0.0
 11
245.3502196993485
 21
13.82744652596362
 31
0.0
  0
ARC
  5
DBD7
330
A
100
AcDbEntity
  8
0
100
AcDbCircle
 10
249.7421156957834
 20
7.991030711741459
 30
0.0
 40
0.2499999999999982
100
AcDbArc
 50
214.9999999998826
 51
304.9999999999815
  0
LINE
  5
DBD8
330
A
100
AcDbEntity
  8
0
100
AcDbLine
 10
250.1109820206656
 20
7.464235005107057
 30
0.0
 11
249.885509804871
 21
7.786242700669263
 31
0.0
  0
ARC
  5
DBD9
330
A
100
AcDbEntity
  8
0
100
AcDbCircle
 10
250.6320821025473
 20
6.996843622364267
 30
0.0
 40
0.700000000000017
100
AcDbArc
 50
138.1100510348248
 51
273.5448316290647
  0
ARC
  5
DBDA
330
A
100
AcDbEntity
  8
0
100
AcDbCircle
 10
250.2425561211406
 20
13.28478998900924
 30
0.0
 40
6.999999999999995
100
AcDbArc
 50
273.544831629061
 51
343.0117635657764
  0
LINE
  5
DBDB
330
A
100
AcDbEntity
  8
0
100
AcDbLine
 10
257.8825561211405
 20
11.2395624913605
 30
0.0
 11
256.937109465678
 21
11.2395624913605
 31
0.0
  0
ARC
  5
DBDC
330
A
100
AcDbEntity
  8
0
100
AcDbCircle
 10
257.8825561211405
 20
11.4895624913605
 30
0.0
 40
0.2500000000000074
100
AcDbArc
 50
270.0
 51
40.00000000004148
  0
LINE
  5
DBDD
330
A
100
AcDbEntity
  8
0
100
AcDbLine
 10
257.2139696891235
 20
12.67528373039191
 30
0.0
 11
258.0740672319201
 21
11.65025939378198
 31
0.0
  0
ARC
  5
DBDE
330
A
100
AcDbEntity
  8
0
100
AcDbCircle
 10
257.2905741334351
 20
12.7395624913605
 30
0.0
 40
0.0999999999999957
100
AcDbArc
 50
139.9999999998554
 51
220.0000000001446
  0
ARC
  5
DBDF
330
A
100
AcDbEntity
  8
0
100
AcDbCircle
 10
215.7564211986281
 20
12.11534599396678
 30
0.0
 40
0.2500000000000326
100
AcDbArc
 50
294.3059861089643
 51
65.69401389115015
  0
LINE
  5
DBE0
330
A
100
AcDbEntity
  8
0
100
AcDbLine
 10
214.6541244742979
 20
11.34318606340445
 30
0.0
 11
215.8593235929583
 21
11.88750592453003
 31
0.0
  0
ARC
  5
DBE1
330
A
100
AcDbEntity
  8
0
100
AcDbCircle
 10
214.757026868628
 20
11.11534599396678
 30
0.0
 40
0.2500000000000042
100
AcDbArc
 50
114.3059861087386
 51
180.0
  0
LINE
  5
DBE2
330
A
100
AcDbEntity
  8
0
100
AcDbLine
 10
214.507026868628
 20
10.51534599396733
 30
0.0
 11
214.507026868628
 21
11.11534599396678
 31
0.0
  0
ARC
  5
DBE3
330
A
100
AcDbEntity
  8
0
100
AcDbCircle
 10
214.7570268686285
 20
10.51534599396733
 30
0.0
 40
0.2500000000000568
100
AcDbArc
 50
180.0
 51
236.0535193174138
  0
LINE
  5
DBE4
330
A
100
AcDbEntity
  8
0
100
AcDbLine
 10
216.6960257649606
 20
8.908743543278305
 30
0.0
 11
214.6174223022962
 21
10.30795610737901
 31
0.0
  0
ARC
  5
DBE5
330
A
100
AcDbEntity
  8
0
100
AcDbCircle
 10
216.5564211986283
 20
8.701353656689989
 30
0.0
 40
0.2500000000000357
100
AcDbArc
 50
253.3007557660656
 51
56.0535193175362
  0
LINE
  5
DBE6
330
A
100
AcDbEntity
  8
0
100
AcDbLine
 10
214.3064211986283
 20
9.115345993966784
 30
0.0
 11
216.4845842272365
 21
8.46189708538428
 31
0.0
  0
LINE
  5
DBE7
330
A
100
AcDbEntity
  8
0
100
AcDbLine
 10
211.0064211986281
 20
9.115345993966784
 30
0.0
 11
214.3064211986283
 21
9.115345993966784
 31
0.0
  0
ARC
  5
DBE8
330
A
100
AcDbEntity
  8
0
100
AcDbCircle
 10
211.0064211986281
 20
9.315345993967512
 30
0.0
 40
0.2000000000000455
100
AcDbArc
 50
180.0
 51
270.0
  0
LINE
  5
DBE9
330
A
100
AcDbEntity
  8
0
100
AcDbLine
 10
210.8064211986283
 20
12.61534599396678
 30
0.0
 11
210.8064211986283
 21
9.315345993967512
 31
0.0
  0
LINE
  5
DBEA
330
A
100
AcDbEntity
  8
0
100
AcDbLine
 10
209.5064211986281
 20
12.61534599396678
 30
0.0
 11
210.8064211986283
 21
12.61534599396678
 31
0.0
  0
LINE
  5
DBEB
330
A
100
AcDbEntity
  8
0
100
AcDbLine
 10
209.5064211986281
 20
12.61534599396678
 30
0.0
 11
209.5064211986281
 21
15.61534599396678
 31
0.0
  0
LINE
  5
DBEC
330
A
100
AcDbEntity
  8
0
100
AcDbLine
 10
210.8064211986283
 20
15.61534599396678
 30
0.0
 11
209.5064211986281
 21
15.61534599396678
 31
0.0
  0
LINE
  5
DBED
330
A
100
AcDbEntity
  8
0
100
AcDbLine
 10
210.8064211986283
 20
18.91534599396697
 30
0.0
 11
210.8064211986283
 21
15.61534599396678
 31
0.0
  0
ARC
  5
DBEE
330
A
100
AcDbEntity
  8
0
100
AcDbCircle
 10
211.0064211986281
 20
18.91534599396697
 30
0.0
 40
0.2000000000000455
100
AcDbArc
 50
90.0
 51
180.0
  0
LINE
  5
DBEF
330
A
100
AcDbEntity
  8
0
100
AcDbLine
 10
214.3064211986283
 20
19.11534599396678
 30
0.0
 11
211.0064211986281
 21
19.11534599396678
 31
0.0
  0
LINE
  5
DBF0
330
A
100
AcDbEntity
  8
0
100
AcDbLine
 10
216.4845842272365
 20
19.76879490254929
 30
0.0
 11
214.3064211986283
 21
19.11534599396678
 31
0.0
  0
ARC
  5
DBF1
330
A
100
AcDbEntity
  8
0
100
AcDbCircle
 10
216.5564211986283
 20
19.52933833124449
 30
0.0
 40
0.2500000000000357
100
AcDbArc
 50
303.9464806824638
 51
106.6992442340431
  0
LINE
  5
DBF2
330
A
100
AcDbEntity
  8
0
100
AcDbLine
 10
214.6174223022962
 20
17.92273588055546
 30
0.0
 11
216.6960257649606
 21
19.32194844465617
 31
0.0
  0
ARC
  5
DBF3
330
A
100
AcDbEntity
  8
0
100
AcDbCircle
 10
214.7570268686285
 20
17.71534599396715
 30
0.0
 40
0.2500000000000568
100
AcDbArc
 50
123.9464806825862
 51
180.0
  0
LINE
  5
DBF4
330
A
100
AcDbEntity
  8
0
100
AcDbLine
 10
214.507026868628
 20
17.11534599396678
 30
0.0
 11
214.507026868628
 21
17.71534599396715
 31
0.0
  0
ARC
  5
DBF5
330
A
100
AcDbEntity
  8
0
100
AcDbCircle
 10
214.757026868628
 20
17.11534599396678
 30
0.0
 40
0.2500000000000042
100
AcDbArc
 50
180.0
 51
245.6940138911469
  0
LINE
  5
DBF6
330
A
100
AcDbEntity
  8
0
100
AcDbLine
 10
215.8593235929583
 20
16.34318606340445
 30
0.0
 11
214.6541244742979
 21
16.88750592453003
 31
0.0
  0
ARC
  5
DBF7
330
A
100
AcDbEntity
  8
0
100
AcDbCircle
 10
215.7564211986281
 20
16.11534599396678
 30
0.0
 40
0.2500000000000326
100
AcDbArc
 50
294.3059861089643
 51
65.69401389115
  0
LINE
  5
DBF8
330
A
100
AcDbEntity
  8
0
100
AcDbLine
 10
214.6541244742979
 20
15.34318606340445
 30
0.0
 11
215.8593235929583
 21
15.88750592453003
 31
0.0
  0
ARC
  5
DBF9
330
A
100
AcDbEntity
  8
0
100
AcDbCircle
 10
214.757026868628
 20
15.11534599396678
 30
0.0
 40
0.250000000000056
100
AcDbArc
 50
114.3059861087333
 51
245.6940138911525
  0
LINE
  5
DBFA
330
A
100
AcDbEntity
  8
0
100
AcDbLine
 10
215.8593235929583
 20
14.34318606340445
 30
0.0
 11
214.6541244742979
 21
14.88750592453003
 31
0.0
  0
ARC
  5
DBFB
330
A
100
AcDbEntity
  8
0
100
AcDbCircle
 10
215.7564211986281
 20
14.11534599396678
 30
0.0
 40
0.2500000000000844
100
AcDbArc
 50
294.3059861089589
 51
65.69401389115552
  0
LINE
  5
DBFC
330
A
100
AcDbEntity
  8
0
100
AcDbLine
 10
214.6541244742979
 20
13.34318606340445
 30
0.0
 11
215.8593235929583
 21
13.88750592453003
 31
0.0
  0
ARC
  5
DBFD
330
A
100
AcDbEntity
  8
0
100
AcDbCircle
 10
214.757026868628
 20
13.11534599396678
 30
0.0
 40
0.2500000000000326
100
AcDbArc
 50
114.3059861087356
 51
245.6940138911501
  0
LINE
  5
DBFE
330
A
100
AcDbEntity
  8
0
100
AcDbLine
 10
215.8593235929583
 20
12.34318606340445
 30
0.0
 11
214.6541244742979
 21
12.88750592453003
 31
0.0
  0
ARC
  5
DBFF
330
A
100
AcDbEntity
  8
0
100
AcDbCircle
 10
208.7064211986284
 20
11.06534599396751
 30
0.0
 40
0.2000000000000455
100
AcDbArc
 50
180.0
 51
270.0
  0
LINE
  5
DC00
330
A
100
AcDbEntity
  8
0
100
AcDbLine
 10
209.3064211986283
 20
10.86534599396678
 30
0.0
 11
208.7064211986284
 21
10.86534599396678
 31
0.0
  0
ARC
  5
DC01
330
A
100
AcDbEntity
  8
0
100
AcDbCircle
 10
209.3064211986283
 20
11.06534599396751
 30
0.0
 40
0.2000000000000455
100
AcDbArc
 50
270.0
 51
0.0
  0
LINE
  5
DC02
330
A
100
AcDbEntity
  8
0
100
AcDbLine
 10
209.5064211986281
 20
17.16534599396697
 30
0.0
 11
209.5064211986281
 21
11.06534599396751
 31
0.0
  0
ARC
  5
DC03
330
A
100
AcDbEntity
  8
0
100
AcDbCircle
 10
209.3064211986283
 20
17.16534599396697
 30
0.0
 40
0.2000000000000455
100
AcDbArc
 50
0.0
 51
90.0
  0
LINE
  5
DC04
330
A
100
AcDbEntity
  8
0
100
AcDbLine
 10
208.7064211986284
 20
17.36534599396678
 30
0.0
 11
209.3064211986283
 21
17.36534599396678
 31
0.0
  0
ARC
  5
DC05
330
A
100
AcDbEntity
  8
0
100
AcDbCircle
 10
208.7064211986284
 20
17.16534599396697
 30
0.0
 40
0.2000000000000455
100
AcDbArc
 50
90.0
 51
180.0
  0
LINE
  5
DC06
330
A
100
AcDbEntity
  8
0
100
AcDbLine
 10
208.5064211986281
 20
11.06534599396751
 30
0.0
 11
208.5064211986281
 21
17.16534599396697
 31
0.0
  0
LINE
  5
DC08
330
A
100
AcDbEntity
  8
0
100
AcDbLine
 10
478.8912752150221
 20
7.77022372327734
 30
0.0
 11
480.0601154306222
 21
8.93906393887788
 31
0.0
  0
LINE
  5
DC09
330
A
100
AcDbEntity
  8
0
100
AcDbLine
 10
478.7194095885092
 20
8.015673275209664
 30
0.0
 11
478.8912752150221
 21
7.77022372327734
 31
0.0
  0
ARC
  5
DC0A
330
A
100
AcDbEntity
  8
0
100
AcDbCircle
 10
478.576015479421
 20
8.22046128628186
 30
0.0
 40
0.2500000000000774
100
AcDbArc
 50
305.0000000000959
 51
35.00000000004718
  0
LINE
  5
DC0B
330
A
100
AcDbEntity
  8
0
100
AcDbLine
 10
474.5936955051305
 20
14.34366531867941
 30
0.0
 11
478.7808034904932
 21
8.36385539537001
 31
0.0
  0
ARC
  5
DC0C
330
A
100
AcDbEntity
  8
0
100
AcDbCircle
 10
474.225077085201
 20
14.08555592232129
 30
0.0
 40
0.4500000000000806
100
AcDbArc
 50
35.00000000001968
 51
214.9999999999137
  0
LINE
  5
DC0D
330
A
100
AcDbEntity
  8
0
100
AcDbLine
 10
478.0435666506331
 20
7.847636602653765
 30
0.0
 11
473.8564586652705
 21
13.82744652596408
 31
0.0
  0
ARC
  5
DC0E
330
A
100
AcDbEntity
  8
0
100
AcDbCircle
 10
478.2483546617053
 20
7.991030711741914
 30
0.0
 40
0.2499999999999516
100
AcDbArc
 50
215.0000000001857
 51
305.0000000001161
  0
LINE
  5
DC0F
330
A
100
AcDbEntity
  8
0
100
AcDbLine
 10
478.6172209865875
 20
7.464235005107511
 30
0.0
 11
478.3917487707935
 21
7.786242700669717
 31
0.0
  0
ARC
  5
DC10
330
A
100
AcDbEntity
  8
0
100
AcDbCircle
 10
479.1383210684693
 20
6.996843622364722
 30
0.0
 40
0.7000000000000407
100
AcDbArc
 50
138.1100510348224
 51
279.3625141373649
  0
ARC
  5
DC11
330
A
100
AcDbEntity
  8
0
100
AcDbCircle
 10
478.4387950870627
 20
11.23956249136096
 30
0.0
 40
5.000000000000114
100
AcDbArc
 50
279.3625141373404
 51
0.0
  0
LINE
  5
DC12
330
A
100
AcDbEntity
  8
0
100
AcDbLine
 10
484.3887950870625
 20
11.23956249136096
 30
0.0
 11
483.4387950870627
 21
11.23956249136096
 31
0.0
  0
ARC
  5
DC13
330
A
100
AcDbEntity
  8
0
100
AcDbCircle
 10
484.3887950870625
 20
11.48956249136096
 30
0.0
 40
0.2500000000000074
100
AcDbArc
 50
270.0
 51
39.99999999988156
  0
LINE
  5
DC14
330
A
100
AcDbEntity
  8
0
100
AcDbLine
 10
483.7202086550454
 20
12.67528373039237
 30
0.0
 11
484.5803061978426
 21
11.65025939378243
 31
0.0
  0
ARC
  5
DC15
330
A
100
AcDbEntity
  8
0
100
AcDbCircle
 10
483.7968130993576
 20
12.73956249136096
 30
0.0
 40
0.0999999999999957
100
AcDbArc
 50
140.0000000002039
 51
219.9999999997961
  0
LINE
  5
DC16
330
A
100
AcDbEntity
  8
0
100
AcDbLine
 10
484.5803061978426
 20
13.82886558893857
 30
0.0
 11
483.7202086550454
 21
12.80384125232955
 31
0.0
  0
ARC
  5
DC17
330
A
100
AcDbEntity
  8
0
100
AcDbCircle
 10
484.3887950870625
 20
13.98956249136096
 30
0.0
 40
0.2500000000000568
100
AcDbArc
 50
319.9999999997822
 51
90.0
  0
LINE
  5
DC18
330
A
100
AcDbEntity
  8
0
100
AcDbLine
 10
483.4387950870627
 20
14.23956249136096
 30
0.0
 11
484.3887950870625
 21
14.23956249136096
 31
0.0
  0
LINE
  5
DC19
330
A
100
AcDbEntity
  8
0
100
AcDbLine
 10
483.4387950870627
 20
17.43091110565398
 30
0.0
 11
483.4387950870627
 21
14.23956249136096
 31
0.0
  0
ARC
  5
DC1A
330
A
100
AcDbEntity
  8
0
100
AcDbCircle
 10
483.1887950870627
 20
17.43091110565398
 30
0.0
 40
0.2500000000000883
100
AcDbArc
 50
0.0
 51
64.798876354492
  0
LINE
  5
DC1B
330
A
100
AcDbEntity
  8
0
100
AcDbLine
 10
478.5091128445432
 20
19.90941295842855
 30
0.0
 11
483.2952443461453
 21
17.65711578120441
 31
0.0
  0
ARC
  5
DC1C
330
A
100
AcDbEntity
  8
0
100
AcDbCircle
 10
478.3387940300116
 20
19.54748547754785
 30
0.0
 40
0.4000000000000595
100
AcDbArc
 50
64.79887635458735
 51
224.9999999999248
  0
LINE
  5
DC1D
330
A
100
AcDbEntity
  8
0
100
AcDbLine
 10
479.7672222118089
 20
17.55337187080146
 30
0.0
 11
478.0559513175371
 21
19.26464276507373
 31
0.0
  0
ARC
  5
DC1E
330
A
100
AcDbEntity
  8
0
100
AcDbCircle
 10
476.9387950870627
 20
14.72494474605479
 30
0.0
 40
4.0
100
AcDbArc
 50
0.0
 51
45.00000000000878
  0
LINE
  5
DC1F
330
A
100
AcDbEntity
  8
0
100
AcDbLine
 10
480.9387950870627
 20
11.06038428243788
 30
0.0
 11
480.9387950870627
 21
14.72494474605479
 31
0.0
  0
ARC
  5
DC20
330
A
100
AcDbEntity
  8
0
100
AcDbCircle
 10
477.9387950870627
 20
11.06038428243788
 30
0.0
 40
3.000000000000024
100
AcDbArc
 50
314.9999999999968
 51
0.0
  0
LINE
  5
DC21
330
A
100
AcDbEntity
  8
0
100
AcDbLine
 10
446.1786619773687
 20
8.461897085384734
 30
0.0
 11
444.0004989487605
 21
9.115345993967239
 31
0.0
  0
LINE
  5
DC22
330
A
100
AcDbEntity
  8
0
100
AcDbLine
 10
444.0004989487605
 20
9.115345993967239
 30
0.0
 11
442.7004989487604
 21
9.115345993967239
 31
0.0
  0
ARC
  5
DC23
330
A
100
AcDbEntity
  8
0
100
AcDbCircle
 10
442.7004989487604
 20
9.315345993967057
 30
0.0
 40
0.2000000000001592
100
AcDbArc
 50
180.0
 51
270.0
  0
LINE
  5
DC24
330
A
100
AcDbEntity
  8
0
100
AcDbLine
 10
442.5004989487601
 20
9.315345993967057
 30
0.0
 11
442.5004989487601
 21
12.61534599396724
 31
0.0
  0
LINE
  5
DC25
330
A
100
AcDbEntity
  8
0
100
AcDbLine
 10
442.5004989487601
 20
12.61534599396724
 30
0.0
 11
441.2004989487604
 21
12.61534599396724
 31
0.0
  0
LINE
  5
DC26
330
A
100
AcDbEntity
  8
0
100
AcDbLine
 10
441.2004989487604
 20
12.61534599396724
 30
0.0
 11
441.2004989487604
 21
15.61534599396724
 31
0.0
  0
LINE
  5
DC27
330
A
100
AcDbEntity
  8
0
100
AcDbLine
 10
441.2004989487604
 20
15.61534599396724
 30
0.0
 11
442.5004989487601
 21
15.61534599396724
 31
0.0
  0
LINE
  5
DC28
330
A
100
AcDbEntity
  8
0
100
AcDbLine
 10
442.5004989487601
 20
15.61534599396724
 30
0.0
 11
442.5004989487601
 21
18.91534599396742
 31
0.0
  0
ARC
  5
DC29
330
A
100
AcDbEntity
  8
0
100
AcDbCircle
 10
442.7004989487604
 20
18.91534599396742
 30
0.0
 40
0.2000000000001592
100
AcDbArc
 50
90.0
 51
180.0
  0
LINE
  5
DC2A
330
A
100
AcDbEntity
  8
0
100
AcDbLine
 10
442.7004989487604
 20
19.11534599396724
 30
0.0
 11
444.0004989487605
 21
19.11534599396724
 31
0.0
  0
LINE
  5
DC2B
330
A
100
AcDbEntity
  8
0
100
AcDbLine
 10
444.0004989487605
 20
19.11534599396724
 30
0.0
 11
446.1786619773687
 21
19.76879490254974
 31
0.0
  0
ARC
  5
DC2C
330
A
100
AcDbEntity
  8
0
100
AcDbCircle
 10
446.2504989487601
 20
19.52933833124494
 30
0.0
 40
0.2500000000000205
100
AcDbArc
 50
303.9464806808329
 51
106.6992442339353
  0
LINE
  5
DC2D
330
A
100
AcDbEntity
  8
0
100
AcDbLine
 10
446.3901035150869
 20
19.32194844465208
 30
0.0
 11
444.3115000523102
 21
17.92273588055956
 31
0.0
  0
ARC
  5
DC2E
330
A
100
AcDbEntity
  8
0
100
AcDbCircle
 10
444.4511046186366
 20
17.7153459939676
 30
0.0
 40
0.2500000000000042
100
AcDbArc
 50
123.9464806809607
 51
180.0
  0
LINE
  5
DC2F
330
A
100
AcDbEntity
  8
0
100
AcDbLine
 10
444.2011046186366
 20
17.7153459939676
 30
0.0
 11
444.2011046186366
 21
17.11534599396724
 31
0.0
  0
ARC
  5
DC30
330
A
100
AcDbEntity
  8
0
100
AcDbCircle
 10
444.4511046186366
 20
17.11534599396724
 30
0.0
 40
0.25
100
AcDbArc
 50
180.0
 51
245.6940138933196
  0
LINE
  5
DC31
330
A
100
AcDbEntity
  8
0
100
AcDbLine
 10
444.3482022243151
 20
16.88750592452594
 30
0.0
 11
445.5534013430819
 21
16.34318606340854
 31
0.0
  0
ARC
  5
DC32
330
A
100
AcDbEntity
  8
0
100
AcDbCircle
 10
445.4504989487604
 20
16.11534599396724
 30
0.0
 40
0.2499999999999756
100
AcDbArc
 50
294.3059861066831
 51
65.69401389331694
  0
LINE
  5
DC33
330
A
100
AcDbEntity
  8
0
100
AcDbLine
 10
445.5534013430819
 20
15.88750592452594
 30
0.0
 11
444.3482022243151
 21
15.34318606340854
 31
0.0
  0
ARC
  5
DC34
330
A
100
AcDbEntity
  8
0
100
AcDbCircle
 10
444.4511046186366
 20
15.11534599396724
 30
0.0
 40
0.2499999999999806
100
AcDbArc
 50
114.3059861065681
 51
245.6940138933174
  0
LINE
  5
DC35
330
A
100
AcDbEntity
  8
0
100
AcDbLine
 10
444.3482022243151
 20
14.88750592452594
 30
0.0
 11
445.5534013430819
 21
14.34318606340854
 31
0.0
  0
ARC
  5
DC36
330
A
100
AcDbEntity
  8
0
100
AcDbCircle
 10
445.4504989487604
 20
14.11534599396724
 30
0.0
 40
0.2499999999999756
100
AcDbArc
 50
294.3059861066831
 51
65.69401389331694
  0
LINE
  5
DC37
330
A
100
AcDbEntity
  8
0
100
AcDbLine
 10
445.5534013430819
 20
13.88750592452594
 30
0.0
 11
444.3482022243151
 21
13.34318606340854
 31
0.0
  0
ARC
  5
DC38
330
A
100
AcDbEntity
  8
0
100
AcDbCircle
 10
444.4511046186366
 20
13.11534599396724
 30
0.0
 40
0.2499999999999806
100
AcDbArc
 50
114.3059861065681
 51
245.6940138933174
  0
LINE
  5
DC39
330
A
100
AcDbEntity
  8
0
100
AcDbLine
 10
444.3482022243151
 20
12.88750592452594
 30
0.0
 11
445.5534013430819
 21
12.34318606340854
 31
0.0
  0
ARC
  5
DC3A
330
A
100
AcDbEntity
  8
0
100
AcDbCircle
 10
445.4504989487604
 20
12.11534599396724
 30
0.0
 40
0.2499999999999756
100
AcDbArc
 50
294.3059861066831
 51
65.69401389331694
  0
LINE
  5
DC3B
330
A
100
AcDbEntity
  8
0
100
AcDbLine
 10
445.5534013430819
 20
11.88750592452594
 30
0.0
 11
444.3482022243151
 21
11.34318606340854
 31
0.0
  0
ARC
  5
DC3C
330
A
100
AcDbEntity
  8
0
100
AcDbCircle
 10
444.4511046186366
 20
11.11534599396724
 30
0.0
 40
0.25
100
AcDbArc
 50
114.3059861065661
 51
180.0
  0
LINE
  5
DC3D
330
A
100
AcDbEntity
  8
0
100
AcDbLine
 10
444.2011046186366
 20
11.11534599396724
 30
0.0
 11
444.2011046186366
 21
10.51534599396687
 31
0.0
  0
ARC
  5
DC3E
330
A
100
AcDbEntity
  8
0
100
AcDbCircle
 10
444.4511046186366
 20
10.51534599396687
 30
0.0
 40
0.2500000000000042
100
AcDbArc
 50
180.0
 51
236.0535193190391
  0
LINE
  5
DC3F
330
A
100
AcDbEntity
  8
0
100
AcDbLine
 10
444.3115000523102
 20
10.30795610737492
 30
0.0
 11
446.3901035150869
 21
8.908743543282398
 31
0.0
  0
ARC
  5
DC40
330
A
100
AcDbEntity
  8
0
100
AcDbCircle
 10
446.2504989487601
 20
8.701353656690443
 30
0.0
 40
0.2500000000000677
100
AcDbArc
 50
253.3007557660679
 51
56.05351931904883
  0
ARC
  5
DC41
330
A
100
AcDbEntity
  8
0
100
AcDbCircle
 10
441.0004989487605
 20
17.16534599396742
 30
0.0
 40
0.2000000000000455
100
AcDbArc
 50
0.0
 51
90.0
  0
LINE
  5
DC42
330
A
100
AcDbEntity
  8
0
100
AcDbLine
 10
441.0004989487605
 20
17.36534599396724
 30
0.0
 11
440.4004989487602
 21
17.36534599396724
 31
0.0
  0
ARC
  5
DC43
330
A
100
AcDbEntity
  8
0
100
AcDbCircle
 10
440.4004989487602
 20
17.16534599396742
 30
0.0
 40
0.1999999999999886
100
AcDbArc
 50
90.0
 51
180.0
  0
LINE
  5
DC44
330
A
100
AcDbEntity
  8
0
100
AcDbLine
 10
440.2004989487604
 20
17.16534599396742
 30
0.0
 11
440.2004989487604
 21
11.06534599396706
 31
0.0
  0
ARC
  5
DC45
330
A
100
AcDbEntity
  8
0
100
AcDbCircle
 10
440.4004989487602
 20
11.06534599396706
 30
0.0
 40
0.1999999999999886
100
AcDbArc
 50
180.0
 51
270.0
  0
LINE
  5
DC46
330
A
100
AcDbEntity
  8
0
100
AcDbLine
 10
440.4004989487602
 20
10.86534599396724
 30
0.0
 11
441.0004989487605
 21
10.86534599396724
 31
0.0
  0
ARC
  5
DC47
330
A
100
AcDbEntity
  8
0
100
AcDbCircle
 10
441.0004989487605
 20
11.06534599396706
 30
0.0
 40
0.1999999999999318
100
AcDbArc
 50
270.0
 51
0.0
  0
LINE
  5
DC48
330
A
100
AcDbEntity
  8
0
100
AcDbLine
 10
441.2004989487604
 20
11.06534599396706
 30
0.0
 11
441.2004989487604
 21
17.16534599396742
 31
0.0
  0
LINE
  5
DCC8
330
A
100
AcDbEntity
  8
0
100
AcDbLine
 10
249.6325550640894
 20
-9.012928351511164
 30
0.0
 11
249.6325550640894
 21
-133.6948765665637
 31
0.0
  0
LINE
  5
DCC9
330
A
100
AcDbEntity
  8
0
100
AcDbLine
 10
245.2688381192787
 20
-9.012928351511164
 30
0.0
 11
245.2688381192787
 21
-133.6948765665637
 31
0.0
  0
LINE
  5
DCCA
330
A
100
AcDbEntity
  8
0
100
AcDbLine
 10
258.1325561211405
 20
-133.6948765665637
 30
0.0
 11
258.1325561211405
 21
-9.012928351511164
 31
0.0
  0
LINE
  5
DCCB
330
A
100
AcDbEntity
  8
0
100
AcDbLine
 10
216.8064211986283
 20
-133.6948765665637
 30
0.0
 11
216.8064211986283
 21
-9.012928351511164
 31
0.0
  0
LINE
  5
DCCC
330
A
100
AcDbEntity
  8
0
100
AcDbLine
 10
250.2028738786215
 20
-9.012928351511164
 30
0.0
 11
250.2028738786215
 21
-133.6948765665637
 31
0.0
  0
LINE
  5
DCCD
330
A
100
AcDbEntity
  8
0
100
AcDbLine
 10
249.6325550640894
 20
-133.6948765665637
 30
0.0
 11
250.2028738786215
 21
-133.6948765665637
 31
0.0
  0
LINE
  5
DCCE
330
A
100
AcDbEntity
  8
0
100
AcDbLine
 10
249.6325550640894
 20
-9.012928351511164
 30
0.0
 11
250.2028738786215
 21
-9.012928351511164
 31
0.0
  0
LINE
  5
DCCF
330
A
100
AcDbEntity
  8
0
100
AcDbLine
 10
256.7890053802229
 20
-9.012928351511164
 30
0.0
 11
256.7890053802229
 21
-133.6948765665637
 31
0.0
  0
LINE
  5
DCD0
330
A
100
AcDbEntity
  8
0
100
AcDbLine
 10
250.2028738786215
 20
-133.6948765665637
 30
0.0
 11
256.7890053802229
 21
-133.6948765665637
 31
0.0
  0
LINE
  5
DCD1
330
A
100
AcDbEntity
  8
0
100
AcDbLine
 10
250.2028738786215
 20
-9.012928351511164
 30
0.0
 11
256.7890053802229
 21
-9.012928351511164
 31
0.0
  0
LINE
  5
DCD2
330
A
100
AcDbEntity
  8
0
100
AcDbLine
 10
256.9325561211407
 20
-9.012928351511164
 30
0.0
 11
256.9325561211407
 21
-133.6948765665637
 31
0.0
  0
LINE
  5
DCD3
330
A
100
AcDbEntity
  8
0
100
AcDbLine
 10
256.7890053802229
 20
-133.6948765665637
 30
0.0
 11
256.9325561211407
 21
-133.6948765665637
 31
0.0
  0
LINE
  5
DCD4
330
A
100
AcDbEntity
  8
0
100
AcDbLine
 10
256.7890053802229
 20
-9.012928351511164
 30
0.0
 11
256.9325561211407
 21
-9.012928351511164
 31
0.0
  0
LINE
  5
DCD5
330
A
100
AcDbEntity
  8
0
100
AcDbLine
 10
245.2688381192787
 20
-133.6948765665637
 30
0.0
 11
246.0874565392086
 21
-133.6948765665637
 31
0.0
  0
LINE
  5
DCD6
330
A
100
AcDbEntity
  8
0
100
AcDbLine
 10
245.2688381192787
 20
-9.012928351511164
 30
0.0
 11
246.0874565392086
 21
-9.012928351511164
 31
0.0
  0
LINE
  5
DCD7
330
A
100
AcDbEntity
  8
0
100
AcDbLine
 10
246.0874565392086
 20
-133.6948765665637
 30
0.0
 11
249.6325550640894
 21
-133.6948765665637
 31
0.0
  0
LINE
  5
DCD8
330
A
100
AcDbEntity
  8
0
100
AcDbLine
 10
246.0874565392086
 20
-9.012928351511164
 30
0.0
 11
249.6325550640894
 21
-9.012928351511164
 31
0.0
  0
LINE
  5
DCD9
330
A
100
AcDbEntity
  8
0
100
AcDbLine
 10
256.9325561211407
 20
-133.6948765665637
 30
0.0
 11
257.8825561211405
 21
-133.6948765665637
 31
0.0
  0
LINE
  5
DCDA
330
A
100
AcDbEntity
  8
0
100
AcDbLine
 10
256.9325561211407
 20
-9.012928351511164
 30
0.0
 11
257.8825561211405
 21
-9.012928351511164
 31
0.0
  0
LINE
  5
DCDB
330
A
100
AcDbEntity
  8
0
100
AcDbLine
 10
257.8825561211405
 20
-133.6948765665637
 30
0.0
 11
258.1325561211405
 21
-133.6948765665637
 31
0.0
  0
LINE
  5
DCDC
330
A
100
AcDbEntity
  8
0
100
AcDbLine
 10
257.8825561211405
 20
-9.012928351511164
 30
0.0
 11
258.1325561211405
 21
-9.012928351511164
 31
0.0
  0
LINE
  5
DCDD
330
A
100
AcDbEntity
  8
0
100
AcDbLine
 10
216.4845842272365
 20
-133.6948765665637
 30
0.0
 11
216.8064211986283
 21
-133.6948765665637
 31
0.0
  0
LINE
  5
DCDE
330
A
100
AcDbEntity
  8
0
100
AcDbLine
 10
216.4845842272365
 20
-9.012928351511164
 30
0.0
 11
216.8064211986283
 21
-9.012928351511164
 31
0.0
  0
LINE
  5
DCDF
330
A
100
AcDbEntity
  8
0
100
AcDbLine
 10
214.3064211986283
 20
-9.012928351511164
 30
0.0
 11
214.3064211986283
 21
-133.6948765665637
 31
0.0
  0
LINE
  5
DCE0
330
A
100
AcDbEntity
  8
0
100
AcDbLine
 10
216.4845842272365
 20
-133.6948765665637
 30
0.0
 11
214.3064211986283
 21
-133.6948765665637
 31
0.0
  0
LINE
  5
DCE1
330
A
100
AcDbEntity
  8
0
100
AcDbLine
 10
216.4845842272365
 20
-9.012928351511164
 30
0.0
 11
214.3064211986283
 21
-9.012928351511164
 31
0.0
  0
LINE
  5
DCE2
330
A
100
AcDbEntity
  8
0
100
AcDbLine
 10
214.3064211986283
 20
-133.6948765665637
 30
0.0
 11
211.0064211986281
 21
-133.6948765665637
 31
0.0
  0
LINE
  5
DCE3
330
A
100
AcDbEntity
  8
0
100
AcDbLine
 10
214.3064211986283
 20
-9.012928351511164
 30
0.0
 11
211.0064211986281
 21
-9.012928351511164
 31
0.0
  0
LINE
  5
DCE4
330
A
100
AcDbEntity
  8
0
100
AcDbLine
 10
210.8064211986283
 20
-9.012928351511164
 30
0.0
 11
210.8064211986283
 21
-133.6948765665637
 31
0.0
  0
LINE
  5
DCE5
330
A
100
AcDbEntity
  8
0
100
AcDbLine
 10
210.8064211986283
 20
-133.6948765665637
 30
0.0
 11
211.0064211986281
 21
-133.6948765665637
 31
0.0
  0
LINE
  5
DCE6
330
A
100
AcDbEntity
  8
0
100
AcDbLine
 10
210.8064211986283
 20
-9.012928351511164
 30
0.0
 11
211.0064211986281
 21
-9.012928351511164
 31
0.0
  0
LINE
  5
DCE7
330
A
100
AcDbEntity
  8
0
100
AcDbLine
 10
210.8064211986283
 20
-133.6948765665637
 30
0.0
 11
209.5064211986281
 21
-133.6948765665637
 31
0.0
  0
LINE
  5
DCE8
330
A
100
AcDbEntity
  8
0
100
AcDbLine
 10
210.8064211986283
 20
-9.012928351511164
 30
0.0
 11
209.5064211986281
 21
-9.012928351511164
 31
0.0
  0
LINE
  5
DCE9
330
A
100
AcDbEntity
  8
0
100
AcDbLine
 10
208.7064211986284
 20
-133.6948765665637
 30
0.0
 11
209.3064211986283
 21
-133.6948765665637
 31
0.0
  0
LINE
  5
DCEA
330
A
100
AcDbEntity
  8
0
100
AcDbLine
 10
208.7064211986284
 20
-9.012928351511164
 30
0.0
 11
209.3064211986283
 21
-9.012928351511164
 31
0.0
  0
LINE
  5
DCEB
330
A
100
AcDbEntity
  8
0
100
AcDbLine
 10
209.5064211986281
 20
-9.012928351511164
 30
0.0
 11
209.5064211986281
 21
-133.6948765665637
 31
0.0
  0
LINE
  5
DCEC
330
A
100
AcDbEntity
  8
0
100
AcDbLine
 10
209.3064211986283
 20
-133.6948765665637
 30
0.0
 11
209.5064211986281
 21
-133.6948765665637
 31
0.0
  0
LINE
  5
DCED
330
A
100
AcDbEntity
  8
0
100
AcDbLine
 10
209.3064211986283
 20
-9.012928351511164
 30
0.0
 11
209.5064211986281
 21
-9.012928351511164
 31
0.0
  0
LINE
  5
DCEE
330
A
100
AcDbEntity
  8
0
100
AcDbLine
 10
208.5064211986281
 20
-9.012928351511164
 30
0.0
 11
208.5064211986281
 21
-133.6948765665637
 31
0.0
  0
LINE
  5
DCEF
330
A
100
AcDbEntity
  8
0
100
AcDbLine
 10
208.5064211986281
 20
-133.6948765665637
 30
0.0
 11
208.7064211986284
 21
-133.6948765665637
 31
0.0
  0
LINE
  5
DCF0
330
A
100
AcDbEntity
  8
0
100
AcDbLine
 10
208.5064211986281
 20
-9.012928351511164
 30
0.0
 11
208.7064211986284
 21
-9.012928351511164
 31
0.0
  0
LINE
  5
DCF1
330
A
100
AcDbEntity
  8
0
  6
Continuous
 62
     8
370
     0
100
AcDbLine
 10
246.0874565392086
 20
-9.012928351511164
 30
0.0
 11
246.0874565392086
 21
-133.6948765665637
 31
0.0
  0
LINE
  5
DCF2
330
A
100
AcDbEntity
  8
0
  6
Continuous
 62
     8
370
     0
100
AcDbLine
 10
257.8825561211405
 20
-9.012928351511164
 30
0.0
 11
257.8825561211405
 21
-133.6948765665637
 31
0.0
  0
LINE
  5
DCF3
330
A
100
AcDbEntity
  8
0
  6
Continuous
 62
     8
370
     0
100
AcDbLine
 10
216.4845842272365
 20
-9.012928351511164
 30
0.0
 11
216.4845842272365
 21
-133.6948765665637
 31
0.0
  0
LINE
  5
DCF4
330
A
100
AcDbEntity
  8
0
  6
Continuous
 62
     8
370
     0
100
AcDbLine
 10
211.0064211986281
 20
-9.012928351511164
 30
0.0
 11
211.0064211986281
 21
-133.6948765665637
 31
0.0
  0
LINE
  5
DCF5
330
A
100
AcDbEntity
  8
0
  6
Continuous
 62
     8
370
     0
100
AcDbLine
 10
208.7064211986284
 20
-9.012928351511164
 30
0.0
 11
208.7064211986284
 21
-133.6948765665637
 31
0.0
  0
LINE
  5
DCF6
330
A
100
AcDbEntity
  8
0
  6
Continuous
 62
     8
370
     0
100
AcDbLine
 10
209.3064211986283
 20
-9.012928351511164
 30
0.0
 11
209.3064211986283
 21
-133.6948765665637
 31
0.0
  0
LINE
  5
DCF7
330
A
100
AcDbEntity
  8
0
100
AcDbLine
 10
477.9387940300115
 20
-9.012928351511164
 30
0.0
 11
477.9387940300115
 21
-133.6948765665637
 31
0.0
  0
LINE
  5
DCF8
330
A
100
AcDbEntity
  8
0
100
AcDbLine
 10
473.7750770852007
 20
-9.012928351511164
 30
0.0
 11
473.7750770852007
 21
-133.6948765665637
 31
0.0
  0
LINE
  5
DCF9
330
A
100
AcDbEntity
  8
0
100
AcDbLine
 10
484.6387950870625
 20
-133.6948765665637
 30
0.0
 11
484.6387950870625
 21
-9.012928351511164
 31
0.0
  0
LINE
  5
DCFA
330
A
100
AcDbEntity
  8
0
100
AcDbLine
 10
446.5004989487601
 20
-133.6948765665637
 30
0.0
 11
446.5004989487601
 21
-9.012928351511164
 31
0.0
  0
LINE
  5
DCFB
330
A
100
AcDbEntity
  8
0
100
AcDbLine
 10
477.9387940300115
 20
-133.6948765665637
 30
0.0
 11
478.5091128445432
 21
-133.6948765665637
 31
0.0
  0
LINE
  5
DCFC
330
A
100
AcDbEntity
  8
0
100
AcDbLine
 10
477.9387940300115
 20
-9.012928351511164
 30
0.0
 11
478.5091128445432
 21
-9.012928351511164
 31
0.0
  0
LINE
  5
DCFD
330
A
100
AcDbEntity
  8
0
100
AcDbLine
 10
478.5091128445432
 20
-133.6948765665637
 30
0.0
 11
483.2952443461453
 21
-133.6948765665637
 31
0.0
  0
LINE
  5
DCFE
330
A
100
AcDbEntity
  8
0
100
AcDbLine
 10
478.5091128445432
 20
-9.012928351511164
 30
0.0
 11
483.2952443461453
 21
-9.012928351511164
 31
0.0
  0
LINE
  5
DCFF
330
A
100
AcDbEntity
  8
0
100
AcDbLine
 10
483.4387950870627
 20
-9.012928351511164
 30
0.0
 11
483.4387950870627
 21
-133.6948765665637
 31
0.0
  0
LINE
  5
DD00
330
A
100
AcDbEntity
  8
0
100
AcDbLine
 10
483.2952443461453
 20
-133.6948765665637
 30
0.0
 11
483.4387950870627
 21
-133.6948765665637
 31
0.0
  0
LINE
  5
DD01
330
A
100
AcDbEntity
  8
0
100
AcDbLine
 10
483.2952443461453
 20
-9.012928351511164
 30
0.0
 11
483.4387950870627
 21
-9.012928351511164
 31
0.0
  0
LINE
  5
DD02
330
A
100
AcDbEntity
  8
0
100
AcDbLine
 10
473.7750770852007
 20
-133.6948765665637
 30
0.0
 11
474.5936955051305
 21
-133.6948765665637
 31
0.0
  0
LINE
  5
DD03
330
A
100
AcDbEntity
  8
0
100
AcDbLine
 10
473.7750770852007
 20
-9.012928351511164
 30
0.0
 11
474.5936955051305
 21
-9.012928351511164
 31
0.0
  0
LINE
  5
DD04
330
A
100
AcDbEntity
  8
0
100
AcDbLine
 10
474.5936955051305
 20
-133.6948765665637
 30
0.0
 11
477.9387940300115
 21
-133.6948765665637
 31
0.0
  0
LINE
  5
DD05
330
A
100
AcDbEntity
  8
0
100
AcDbLine
 10
474.5936955051305
 20
-9.012928351511164
 30
0.0
 11
477.9387940300115
 21
-9.012928351511164
 31
0.0
  0
LINE
  5
DD06
330
A
100
AcDbEntity
  8
0
100
AcDbLine
 10
483.4387950870627
 20
-133.6948765665637
 30
0.0
 11
484.3887950870625
 21
-133.6948765665637
 31
0.0
  0
LINE
  5
DD07
330
A
100
AcDbEntity
  8
0
100
AcDbLine
 10
483.4387950870627
 20
-9.012928351511164
 30
0.0
 11
484.3887950870625
 21
-9.012928351511164
 31
0.0
  0
LINE
  5
DD08
330
A
100
AcDbEntity
  8
0
100
AcDbLine
 10
484.3887950870625
 20
-133.6948765665637
 30
0.0
 11
484.6387950870625
 21
-133.6948765665637
 31
0.0
  0
LINE
  5
DD09
330
A
100
AcDbEntity
  8
0
100
AcDbLine
 10
484.3887950870625
 20
-9.012928351511164
 30
0.0
 11
484.6387950870625
 21
-9.012928351511164
 31
0.0
  0
LINE
  5
DD0A
330
A
100
AcDbEntity
  8
0
100
AcDbLine
 10
446.1786619773687
 20
-133.6948765665637
 30
0.0
 11
446.5004989487601
 21
-133.6948765665637
 31
0.0
  0
LINE
  5
DD0B
330
A
100
AcDbEntity
  8
0
100
AcDbLine
 10
446.1786619773687
 20
-9.012928351511164
 30
0.0
 11
446.5004989487601
 21
-9.012928351511164
 31
0.0
  0
LINE
  5
DD0C
330
A
100
AcDbEntity
  8
0
100
AcDbLine
 10
444.0004989487605
 20
-9.012928351511164
 30
0.0
 11
444.0004989487605
 21
-133.6948765665637
 31
0.0
  0
LINE
  5
DD0D
330
A
100
AcDbEntity
  8
0
100
AcDbLine
 10
444.0004989487605
 20
-133.6948765665637
 30
0.0
 11
446.1786619773687
 21
-133.6948765665637
 31
0.0
  0
LINE
  5
DD0E
330
A
100
AcDbEntity
  8
0
100
AcDbLine
 10
444.0004989487605
 20
-9.012928351511164
 30
0.0
 11
446.1786619773687
 21
-9.012928351511164
 31
0.0
  0
LINE
  5
DD0F
330
A
100
AcDbEntity
  8
0
100
AcDbLine
 10
442.5004989487601
 20
-9.012928351511164
 30
0.0
 11
442.5004989487601
 21
-133.6948765665637
 31
0.0
  0
LINE
  5
DD10
330
A
100
AcDbEntity
  8
0
100
AcDbLine
 10
442.5004989487601
 20
-133.6948765665637
 30
0.0
 11
442.7004989487604
 21
-133.6948765665637
 31
0.0
  0
LINE
  5
DD11
330
A
100
AcDbEntity
  8
0
100
AcDbLine
 10
442.5004989487601
 20
-9.012928351511164
 30
0.0
 11
442.7004989487604
 21
-9.012928351511164
 31
0.0
  0
LINE
  5
DD12
330
A
100
AcDbEntity
  8
0
100
AcDbLine
 10
442.7004989487604
 20
-133.6948765665637
 30
0.0
 11
444.0004989487605
 21
-133.6948765665637
 31
0.0
  0
LINE
  5
DD13
330
A
100
AcDbEntity
  8
0
100
AcDbLine
 10
442.7004989487604
 20
-9.012928351511164
 30
0.0
 11
444.0004989487605
 21
-9.012928351511164
 31
0.0
  0
LINE
  5
DD14
330
A
100
AcDbEntity
  8
0
100
AcDbLine
 10
441.2004989487604
 20
-133.6948765665637
 30
0.0
 11
442.5004989487601
 21
-133.6948765665637
 31
0.0
  0
LINE
  5
DD15
330
A
100
AcDbEntity
  8
0
100
AcDbLine
 10
441.2004989487604
 20
-9.012928351511164
 30
0.0
 11
442.5004989487601
 21
-9.012928351511164
 31
0.0
  0
LINE
  5
DD16
330
A
100
AcDbEntity
  8
0
100
AcDbLine
 10
441.0004989487605
 20
-133.6948765665637
 30
0.0
 11
440.4004989487602
 21
-133.6948765665637
 31
0.0
  0
LINE
  5
DD17
330
A
100
AcDbEntity
  8
0
100
AcDbLine
 10
441.0004989487605
 20
-9.012928351511164
 30
0.0
 11
440.4004989487602
 21
-9.012928351511164
 31
0.0
  0
LINE
  5
DD18
330
A
100
AcDbEntity
  8
0
100
AcDbLine
 10
441.2004989487604
 20
-9.012928351511164
 30
0.0
 11
441.2004989487604
 21
-133.6948765665637
 31
0.0
  0
LINE
  5
DD19
330
A
100
AcDbEntity
  8
0
100
AcDbLine
 10
441.0004989487605
 20
-133.6948765665637
 30
0.0
 11
441.2004989487604
 21
-133.6948765665637
 31
0.0
  0
LINE
  5
DD1A
330
A
100
AcDbEntity
  8
0
100
AcDbLine
 10
441.0004989487605
 20
-9.012928351511164
 30
0.0
 11
441.2004989487604
 21
-9.012928351511164
 31
0.0
  0
LINE
  5
DD1B
330
A
100
AcDbEntity
  8
0
100
AcDbLine
 10
440.2004989487604
 20
-9.012928351511164
 30
0.0
 11
440.2004989487604
 21
-133.6948765665637
 31
0.0
  0
LINE
  5
DD1C
330
A
100
AcDbEntity
  8
0
100
AcDbLine
 10
440.2004989487604
 20
-133.6948765665637
 30
0.0
 11
440.4004989487602
 21
-133.6948765665637
 31
0.0
  0
LINE
  5
DD1D
330
A
100
AcDbEntity
  8
0
100
AcDbLine
 10
440.2004989487604
 20
-9.012928351511164
 30
0.0
 11
440.4004989487602
 21
-9.012928351511164
 31
0.0
  0
LINE
  5
DD1E
330
A
100
AcDbEntity
  8
0
  6
Continuous
 62
     8
370
     0
100
AcDbLine
 10
478.5091128445432
 20
-9.012928351511164
 30
0.0
 11
478.5091128445432
 21
-133.6948765665637
 31
0.0
  0
LINE
  5
DD1F
330
A
100
AcDbEntity
  8
0
  6
Continuous
 62
     8
370
     0
100
AcDbLine
 10
483.2952443461453
 20
-9.012928351511164
 30
0.0
 11
483.2952443461453
 21
-133.6948765665637
 31
0.0
  0
LINE
  5
DD20
330
A
100
AcDbEntity
  8
0
  6
Continuous
 62
     8
370
     0
100
AcDbLine
 10
474.5936955051305
 20
-9.012928351511164
 30
0.0
 11
474.5936955051305
 21
-133.6948765665637
 31
0.0
  0
LINE
  5
DD21
330
A
100
AcDbEntity
  8
0
  6
Continuous
 62
     8
370
     0
100
AcDbLine
 10
484.3887950870625
 20
-9.012928351511164
 30
0.0
 11
484.3887950870625
 21
-133.6948765665637
 31
0.0
  0
LINE
  5
DD22
330
A
100
AcDbEntity
  8
0
  6
Continuous
 62
     8
370
     0
100
AcDbLine
 10
446.1786619773687
 20
-9.012928351511164
 30
0.0
 11
446.1786619773687
 21
-133.6948765665637
 31
0.0
  0
LINE
  5
DD23
330
A
100
AcDbEntity
  8
0
  6
Continuous
 62
     8
370
     0
100
AcDbLine
 10
442.7004989487604
 20
-9.012928351511164
 30
0.0
 11
442.7004989487604
 21
-133.6948765665637
 31
0.0
  0
LINE
  5
DD24
330
A
100
AcDbEntity
  8
0
  6
Continuous
 62
     8
370
     0
100
AcDbLine
 10
440.4004989487602
 20
-9.012928351511164
 30
0.0
 11
440.4004989487602
 21
-133.6948765665637
 31
0.0
  0
LINE
  5
DD25
330
A
100
AcDbEntity
  8
0
  6
Continuous
 62
     8
370
     0
100
AcDbLine
 10
441.0004989487605
 20
-9.012928351511164
 30
0.0
 11
441.0004989487605
 21
-133.6948765665637
 31
0.0
  0
LWPOLYLINE
  5
DD2C
330
A
100
AcDbEntity
  8
0
  6
Continuous
370
     0
100
AcDbPolyline
 90
        4
 70
     1
 43
0.0
 10
422.4524487361416
 20
61.58091282650281
 10
422.4524487361416
 20
-149.0525946164497
 10
644.3497801065246
 20
-149.0525946164497
 10
644.3497801065246
 20
61.58091282650281
  0
TEXT
  5
DD70
330
A
100
AcDbEntity
  8
0
  6
Continuous
 62
     7
370
     0
100
AcDbText
 10
312.5061995162933
 20
49.12577783212321
 30
0.0
 40
10.0
  1
P20EJ0810/6
100
AcDbText
  0
TEXT
  5
DD72
330
A
100
AcDbEntity
  8
0
  6
Continuous
 62
     7
370
     0
100
AcDbText
 10
539.4035308866763
 20
49.12577783212321
 30
0.0
 40
10.0
  1
P20EJ1113/6
100
AcDbText
  0
LINE
  5
DEE4
330
A
100
AcDbEntity
  8
0
  6
Continuous
370
     0
100
AcDbLine
 10
190.5551173657586
 20
61.58091282650281
 30
0.0
 11
190.5551173657586
 21
61.58091282650281
 31
0.0
  0
TEXT
  5
E040
330
A
100
AcDbEntity
  8
0
  6
Continuous
 62
     7
370
     0
100
AcDbText
 10
74.66471036837459
 20
49.12577783212319
 30
0.0
 40
10.0
  1
P20EC29 2,9m
100
AcDbText
  0
TEXT
  5
E041
330
A
100
AcDbEntity
  8
0
  6
Continuous
 62
     7
370
     0
100
AcDbText
 10
74.66471036837459
 20
31.07477813323163
 30
0.0
 40
10.0
  1
P20EC58 5,8m
100
AcDbText
  0
LINE
  5
E042
330
A
100
AcDbEntity
  8
0
  6
Continuous
 62
     7
370
    25
100
AcDbLine
 10
1.519627980991459
 20
24.76371373675883
 30
0.0
 11
1.519627980991459
 21
22.76371373675792
 31
0.0
  0
LINE
  5
E043
330
A
100
AcDbEntity
  8
0
  6
Continuous
 62
     7
370
    25
100
AcDbLine
 10
16.519627980991
 20
24.76371373675883
 30
0.0
 11
1.519627980991459
 21
24.76371373675883
 31
0.0
  0
LINE
  5
E044
330
A
100
AcDbEntity
  8
0
  6
Continuous
 62
     7
370
    25
100
AcDbLine
 10
16.519627980991
 20
22.76371373675792
 30
0.0
 11
16.519627980991
 21
24.76371373675883
 31
0.0
  0
LINE
  5
E045
330
A
100
AcDbEntity
  8
0
  6
Continuous
 62
     7
370
    25
100
AcDbLine
 10
16.519627980991
 20
22.76371373675792
 30
0.0
 11
1.519627980991459
 21
22.76371373675792
 31
0.0
  0
LINE
  5
E046
330
A
100
AcDbEntity
  8
0
  6
Continuous
 62
     7
370
    25
100
AcDbLine
 10
18.51962798099146
 20
24.76371373675883
 30
0.0
 11
18.51962798099146
 21
22.76371373675792
 31
0.0
  0
LINE
  5
E047
330
A
100
AcDbEntity
  8
0
  6
Continuous
 62
     7
370
    25
100
AcDbLine
 10
16.519627980991
 20
24.76371373675883
 30
0.0
 11
18.51962798099146
 21
24.76371373675883
 31
0.0
  0
LINE
  5
E048
330
A
100
AcDbEntity
  8
0
  6
Continuous
 62
     7
370
    25
100
AcDbLine
 10
18.51962798099146
 20
22.76371373675792
 30
0.0
 11
16.519627980991
 21
22.76371373675792
 31
0.0
  0
LINE
  5
E049
330
A
100
AcDbEntity
  8
0
  6
Continuous
 62
     7
370
    25
100
AcDbLine
 10
-0.4803720190085414
 20
22.76371373675792
 30
0.0
 11
-0.4803720190085414
 21
24.76371373675883
 31
0.0
  0
LINE
  5
E04A
330
A
100
AcDbEntity
  8
0
  6
Continuous
 62
     7
370
    25
100
AcDbLine
 10
-0.4803720190085414
 20
24.76371373675883
 30
0.0
 11
1.519627980991459
 21
24.76371373675883
 31
0.0
  0
LINE
  5
E04B
330
A
100
AcDbEntity
  8
0
  6
Continuous
 62
     7
370
    25
100
AcDbLine
 10
1.519627980991459
 20
22.76371373675792
 30
0.0
 11
-0.4803720190085414
 21
22.76371373675792
 31
0.0
  0
LINE
  5
E04C
330
A
100
AcDbEntity
  8
0
  6
Continuous
 62
     7
370
    25
100
AcDbLine
 10
1.519627980991459
 20
22.76371373675792
 30
0.0
 11
1.519627980991459
 21
20.76371373675792
 31
0.0
  0
LINE
  5
E04D
330
A
100
AcDbEntity
  8
0
  6
Continuous
 62
     7
370
    25
100
AcDbLine
 10
16.519627980991
 20
20.76371373675792
 30
0.0
 11
16.519627980991
 21
22.76371373675792
 31
0.0
  0
LINE
  5
E04E
330
A
100
AcDbEntity
  8
0
  6
Continuous
 62
     7
370
    25
100
AcDbLine
 10
16.519627980991
 20
20.76371373675792
 30
0.0
 11
1.519627980991459
 21
20.76371373675792
 31
0.0
  0
LINE
  5
E04F
330
A
100
AcDbEntity
  8
0
  6
Continuous
 62
     7
370
    25
100
AcDbLine
 10
18.51962798099146
 20
22.76371373675792
 30
0.0
 11
18.51962798099146
 21
20.76371373675792
 31
0.0
  0
LINE
  5
E050
330
A
100
AcDbEntity
  8
0
  6
Continuous
 62
     7
370
    25
100
AcDbLine
 10
-0.4803720190085414
 20
20.76371373675792
 30
0.0
 11
-0.4803720190085414
 21
22.76371373675792
 31
0.0
  0
LINE
  5
E051
330
A
100
AcDbEntity
  8
0
  6
Continuous
 62
     7
370
    25
100
AcDbLine
 10
-1.480372019008541
 20
13.26371373675883
 30
0.0
 11
-1.480372019008541
 21
15.0637137367581
 31
0.0
  0
LINE
  5
E052
330
A
100
AcDbEntity
  8
0
  6
Continuous
 62
     7
370
    25
100
AcDbLine
 10
-4.480372019008996
 20
37.96371373675865
 30
0.0
 11
-4.480372019008996
 21
13.5637137367581
 31
0.0
  0
ARC
  5
E053
330
A
100
AcDbEntity
  8
0
  6
Continuous
 62
     7
370
    25
100
AcDbCircle
 10
-1.280372019008269
 20
37.96371373675865
 30
0.0
 40
0.2999999999997272
100
AcDbArc
 50
0.0
 51
90.0
  0
LINE
  5
E054
330
A
100
AcDbEntity
  8
0
  6
Continuous
 62
     7
370
    25
100
AcDbLine
 10
-2.730372019008541
 20
15.36371373675829
 30
0.0
 11
-2.730372019008541
 21
17.96371373675865
 31
0.0
  0
ARC
  5
E055
330
A
100
AcDbEntity
  8
0
  6
Continuous
 62
     7
370
    25
100
AcDbCircle
 10
-2.430372019008814
 20
15.36371373675829
 30
0.0
 40
0.3000000000001819
100
AcDbArc
 50
180.0
 51
270.0
  0
LINE
  5
E056
330
A
100
AcDbEntity
  8
0
  6
Continuous
 62
     7
370
    25
100
AcDbLine
 10
-1.480372019008541
 20
15.0637137367581
 30
0.0
 11
-2.430372019008814
 21
15.0637137367581
 31
0.0
  0
LINE
  5
E057
330
A
100
AcDbEntity
  8
0
  6
Continuous
 62
     7
370
    25
100
AcDbLine
 10
-3.180372019008814
 20
36.76371373675792
 30
0.0
 11
-2.280372019008723
 21
36.76371373675792
 31
0.0
  0
LINE
  5
E058
330
A
100
AcDbEntity
  8
0
  6
Continuous
 62
     7
370
    25
100
AcDbLine
 10
-4.18037201900836
 20
13.26371373675883
 30
0.0
 11
-1.480372019008541
 21
13.26371373675883
 31
0.0
  0
ARC
  5
E059
330
A
100
AcDbEntity
  8
0
  6
Continuous
 62
     7
370
    25
100
AcDbCircle
 10
-4.18037201900836
 20
13.5637137367581
 30
0.0
 40
0.3000000000006366
100
AcDbArc
 50
180.0
 51
270.0
  0
ARC
  5
E05A
330
A
100
AcDbEntity
  8
0
  6
Continuous
 62
     7
370
    25
100
AcDbCircle
 10
-3.180372019008814
 20
30.0637137367581
 30
0.0
 40
0.2999999999997272
100
AcDbArc
 50
180.0
 51
270.0
  0
LINE
  5
E05B
330
A
100
AcDbEntity
  8
0
  6
Continuous
 62
     7
370
    25
100
AcDbLine
 10
-2.280372019008723
 20
29.76371373675883
 30
0.0
 11
-3.180372019008814
 21
29.76371373675883
 31
0.0
  0
ARC
  5
E05C
330
A
100
AcDbEntity
  8
0
  6
Continuous
 62
     7
370
    25
100
AcDbCircle
 10
-2.280372019008723
 20
30.0637137367581
 30
0.0
 40
0.3000000000001819
100
AcDbArc
 50
270.0
 51
0.0
  0
LINE
  5
E05D
330
A
100
AcDbEntity
  8
0
  6
Continuous
 62
     7
370
    25
100
AcDbLine
 10
-1.980372019008541
 20
31.21371373675865
 30
0.0
 11
-1.980372019008541
 21
30.0637137367581
 31
0.0
  0
LINE
  5
E05E
330
A
100
AcDbEntity
  8
0
  6
Continuous
 62
     7
370
    25
100
AcDbLine
 10
-0.9803720190085414
 20
35.3137137367581
 30
0.0
 11
-0.9803720190085414
 21
37.96371373675865
 31
0.0
  0
ARC
  5
E05F
330
A
100
AcDbEntity
  8
0
  6
Continuous
 62
     7
370
    25
100
AcDbCircle
 10
-1.280372019008269
 20
35.3137137367581
 30
0.0
 40
0.2999999999997272
100
AcDbArc
 50
270.0
 51
0.0
  0
LINE
  5
E060
330
A
100
AcDbEntity
  8
0
  6
Continuous
 62
     7
370
    25
100
AcDbLine
 10
-1.680372019008814
 20
35.01371373675883
 30
0.0
 11
-1.280372019008269
 21
35.01371373675883
 31
0.0
  0
LINE
  5
E061
330
A
100
AcDbEntity
  8
0
  6
Continuous
 62
     7
370
    25
100
AcDbLine
 10
-0.9803720190085414
 20
28.5637137367581
 30
0.0
 11
-0.9803720190085414
 21
31.21371373675865
 31
0.0
  0
ARC
  5
E062
330
A
100
AcDbEntity
  8
0
  6
Continuous
 62
     7
370
    25
100
AcDbCircle
 10
-1.280372019008269
 20
28.5637137367581
 30
0.0
 40
0.3000000000001819
100
AcDbArc
 50
270.0
 51
0.0
  0
LINE
  5
E063
330
A
100
AcDbEntity
  8
0
  6
Continuous
 62
     7
370
    25
100
AcDbLine
 10
-2.180372019008814
 20
28.26371373675792
 30
0.0
 11
-1.280372019008269
 21
28.26371373675792
 31
0.0
  0
ARC
  5
E064
330
A
100
AcDbEntity
  8
0
  6
Continuous
 62
     7
370
    25
100
AcDbCircle
 10
-2.180372019008814
 20
27.96371373675865
 30
0.0
 40
0.2999999999997272
100
AcDbArc
 50
90.0
 51
180.0
  0
LINE
  5
E065
330
A
100
AcDbEntity
  8
0
  6
Continuous
 62
     7
370
    25
100
AcDbLine
 10
-2.480372019008541
 20
22.26371373675792
 30
0.0
 11
-2.480372019008541
 21
27.96371373675865
 31
0.0
  0
ARC
  5
E066
330
A
100
AcDbEntity
  8
0
  6
Continuous
 62
     7
370
    25
100
AcDbCircle
 10
-0.9803720190085414
 20
22.26371373675792
 30
0.0
 40
1.5
100
AcDbArc
 50
180.0
 51
270.0
  0
LINE
  5
E067
330
A
100
AcDbEntity
  8
0
  6
Continuous
 62
     7
370
    25
100
AcDbLine
 10
5.019627980991459
 20
20.76371373675792
 30
0.0
 11
-0.9803720190085414
 21
20.76371373675792
 31
0.0
  0
LINE
  5
E068
330
A
100
AcDbEntity
  8
0
  6
Continuous
 62
     7
370
    25
100
AcDbLine
 10
7.519627980991459
 20
18.26371373675883
 30
0.0
 11
5.019627980991459
 21
20.76371373675792
 31
0.0
  0
ARC
  5
E069
330
A
100
AcDbEntity
  8
0
  6
Continuous
 62
     7
370
    25
100
AcDbCircle
 10
-4.18037201900836
 20
37.96371373675865
 30
0.0
 40
0.3000000000006366
100
AcDbArc
 50
90.0
 51
180.0
  0
LINE
  5
E06A
330
A
100
AcDbEntity
  8
0
  6
Continuous
 62
     7
370
    25
100
AcDbLine
 10
-1.280372019008269
 20
38.26371373675792
 30
0.0
 11
-4.18037201900836
 21
38.26371373675792
 31
0.0
  0
LINE
  5
E06B
330
A
100
AcDbEntity
  8
0
  6
Continuous
 62
     7
370
    25
100
AcDbLine
 10
9.519627980991459
 20
18.26371373675883
 30
0.0
 11
9.019627980991459
 21
17.76371373675792
 31
0.0
  0
LINE
  5
E06C
330
A
100
AcDbEntity
  8
0
  6
Continuous
 62
     7
370
    25
100
AcDbLine
 10
10.519627980991
 20
18.26371373675883
 30
0.0
 11
9.519627980991459
 21
18.26371373675883
 31
0.0
  0
LINE
  5
E06D
330
A
100
AcDbEntity
  8
0
  6
Continuous
 62
     7
370
    25
100
AcDbLine
 10
13.01962798099146
 20
20.76371373675792
 30
0.0
 11
10.519627980991
 21
18.26371373675883
 31
0.0
  0
LINE
  5
E06E
330
A
100
AcDbEntity
  8
0
  6
Continuous
 62
     7
370
    25
100
AcDbLine
 10
19.01962798099146
 20
20.76371373675792
 30
0.0
 11
13.01962798099146
 21
20.76371373675792
 31
0.0
  0
ARC
  5
E06F
330
A
100
AcDbEntity
  8
0
  6
Continuous
 62
     7
370
    25
100
AcDbCircle
 10
-1.680372019008814
 20
35.3137137367581
 30
0.0
 40
0.2999999999997272
100
AcDbArc
 50
180.0
 51
270.0
  0
LINE
  5
E070
330
A
100
AcDbEntity
  8
0
  6
Continuous
 62
     7
370
    25
100
AcDbLine
 10
-1.980372019008541
 20
36.46371373675865
 30
0.0
 11
-1.980372019008541
 21
35.3137137367581
 31
0.0
  0
ARC
  5
E071
330
A
100
AcDbEntity
  8
0
  6
Continuous
 62
     7
370
    25
100
AcDbCircle
 10
-2.280372019008723
 20
36.46371373675865
 30
0.0
 40
0.3000000000001819
100
AcDbArc
 50
0.0
 51
90.0
  0
LINE
  5
E072
330
A
100
AcDbEntity
  8
0
  6
Continuous
 62
     7
370
    25
100
AcDbLine
 10
19.31962798099119
 20
28.26371373675792
 30
0.0
 11
20.21962798099128
 21
28.26371373675792
 31
0.0
  0
ARC
  5
E073
330
A
100
AcDbEntity
  8
0
  6
Continuous
 62
     7
370
    25
100
AcDbCircle
 10
-3.180372019008814
 20
36.46371373675865
 30
0.0
 40
0.2999999999997272
100
AcDbArc
 50
90.0
 51
180.0
  0
LINE
  5
E074
330
A
100
AcDbEntity
  8
0
  6
Continuous
 62
     7
370
    25
100
AcDbLine
 10
-3.480372019008541
 20
30.0637137367581
 30
0.0
 11
-3.480372019008541
 21
36.46371373675865
 31
0.0
  0
ARC
  5
E075
330
A
100
AcDbEntity
  8
0
  6
Continuous
 62
     7
370
    25
100
AcDbCircle
 10
19.31962798099119
 20
31.21371373675865
 30
0.0
 40
0.2999999999997272
100
AcDbArc
 50
90.0
 51
180.0
  0
LINE
  5
E076
330
A
100
AcDbEntity
  8
0
  6
Continuous
 62
     7
370
    25
100
AcDbLine
 10
19.71962798099173
 20
31.51371373675792
 30
0.0
 11
19.31962798099119
 21
31.51371373675792
 31
0.0
  0
ARC
  5
E077
330
A
100
AcDbEntity
  8
0
  6
Continuous
 62
     7
370
    25
100
AcDbCircle
 10
19.71962798099173
 20
31.21371373675865
 30
0.0
 40
0.2999999999997272
100
AcDbArc
 50
0.0
 51
90.0
  0
LINE
  5
E078
330
A
100
AcDbEntity
  8
0
  6
Continuous
 62
     7
370
    25
100
AcDbLine
 10
20.01962798099146
 20
30.0637137367581
 30
0.0
 11
20.01962798099146
 21
31.21371373675865
 31
0.0
  0
ARC
  5
E079
330
A
100
AcDbEntity
  8
0
  6
Continuous
 62
     7
370
    25
100
AcDbCircle
 10
-1.680372019008814
 20
31.21371373675865
 30
0.0
 40
0.2999999999997272
100
AcDbArc
 50
90.0
 51
180.0
  0
LINE
  5
E07A
330
A
100
AcDbEntity
  8
0
  6
Continuous
 62
     7
370
    25
100
AcDbLine
 10
-1.280372019008269
 20
31.51371373675792
 30
0.0
 11
-1.680372019008814
 21
31.51371373675792
 31
0.0
  0
ARC
  5
E07B
330
A
100
AcDbEntity
  8
0
  6
Continuous
 62
     7
370
    25
100
AcDbCircle
 10
-1.280372019008269
 20
31.21371373675865
 30
0.0
 40
0.2999999999997272
100
AcDbArc
 50
0.0
 51
90.0
  0
LINE
  5
E07C
330
A
100
AcDbEntity
  8
0
  6
Continuous
 62
     7
370
    25
100
AcDbLine
 10
21.519627980991
 20
36.46371373675865
 30
0.0
 11
21.519627980991
 21
30.0637137367581
 31
0.0
  0
ARC
  5
E07D
330
A
100
AcDbEntity
  8
0
  6
Continuous
 62
     7
370
    25
100
AcDbCircle
 10
21.21962798099128
 20
36.46371373675865
 30
0.0
 40
0.2999999999997272
100
AcDbArc
 50
0.0
 51
90.0
  0
LINE
  5
E07E
330
A
100
AcDbEntity
  8
0
  6
Continuous
 62
     7
370
    25
100
AcDbLine
 10
20.31962798099164
 20
36.76371373675792
 30
0.0
 11
21.21962798099128
 21
36.76371373675792
 31
0.0
  0
ARC
  5
E07F
330
A
100
AcDbEntity
  8
0
  6
Continuous
 62
     7
370
    25
100
AcDbCircle
 10
20.31962798099164
 20
36.46371373675865
 30
0.0
 40
0.3000000000001819
100
AcDbArc
 50
90.0
 51
180.0
  0
LINE
  5
E080
330
A
100
AcDbEntity
  8
0
  6
Continuous
 62
     7
370
    25
100
AcDbLine
 10
20.01962798099146
 20
35.3137137367581
 30
0.0
 11
20.01962798099146
 21
36.46371373675865
 31
0.0
  0
ARC
  5
E081
330
A
100
AcDbEntity
  8
0
  6
Continuous
 62
     7
370
    25
100
AcDbCircle
 10
19.71962798099173
 20
35.3137137367581
 30
0.0
 40
0.2999999999997272
100
AcDbArc
 50
270.0
 51
0.0
  0
LINE
  5
E082
330
A
100
AcDbEntity
  8
0
  6
Continuous
 62
     7
370
    25
100
AcDbLine
 10
19.31962798099119
 20
35.01371373675883
 30
0.0
 11
19.71962798099173
 21
35.01371373675883
 31
0.0
  0
ARC
  5
E083
330
A
100
AcDbEntity
  8
0
  6
Continuous
 62
     7
370
    25
100
AcDbCircle
 10
19.31962798099119
 20
35.3137137367581
 30
0.0
 40
0.2999999999997272
100
AcDbArc
 50
180.0
 51
270.0
  0
LINE
  5
E084
330
A
100
AcDbEntity
  8
0
  6
Continuous
 62
     7
370
    25
100
AcDbLine
 10
19.01962798099146
 20
37.96371373675865
 30
0.0
 11
19.01962798099146
 21
35.3137137367581
 31
0.0
  0
ARC
  5
E085
330
A
100
AcDbEntity
  8
0
  6
Continuous
 62
     7
370
    25
100
AcDbCircle
 10
19.31962798099119
 20
37.96371373675865
 30
0.0
 40
0.2999999999997272
100
AcDbArc
 50
90.0
 51
180.0
  0
LINE
  5
E086
330
A
100
AcDbEntity
  8
0
  6
Continuous
 62
     7
370
    25
100
AcDbLine
 10
22.21962798099128
 20
38.26371373675792
 30
0.0
 11
19.31962798099119
 21
38.26371373675792
 31
0.0
  0
ARC
  5
E087
330
A
100
AcDbEntity
  8
0
  6
Continuous
 62
     7
370
    25
100
AcDbCircle
 10
22.21962798099128
 20
37.96371373675865
 30
0.0
 40
0.3000000000001819
100
AcDbArc
 50
0.0
 51
90.0
  0
LINE
  5
E088
330
A
100
AcDbEntity
  8
0
  6
Continuous
 62
     7
370
    25
100
AcDbLine
 10
22.51962798099146
 20
13.5637137367581
 30
0.0
 11
22.51962798099146
 21
37.96371373675865
 31
0.0
  0
ARC
  5
E089
330
A
100
AcDbEntity
  8
0
  6
Continuous
 62
     7
370
    25
100
AcDbCircle
 10
22.21962798099128
 20
13.5637137367581
 30
0.0
 40
0.3000000000001819
100
AcDbArc
 50
270.0
 51
0.0
  0
LINE
  5
E08A
330
A
100
AcDbEntity
  8
0
  6
Continuous
 62
     7
370
    25
100
AcDbLine
 10
19.51962798099146
 20
13.26371373675883
 30
0.0
 11
22.21962798099128
 21
13.26371373675883
 31
0.0
  0
LINE
  5
E08B
330
A
100
AcDbEntity
  8
0
  6
Continuous
 62
     7
370
    25
100
AcDbLine
 10
19.51962798099146
 20
15.0637137367581
 30
0.0
 11
19.51962798099146
 21
13.26371373675883
 31
0.0
  0
LINE
  5
E08C
330
A
100
AcDbEntity
  8
0
  6
Continuous
 62
     7
370
    25
100
AcDbLine
 10
20.46962798099128
 20
15.0637137367581
 30
0.0
 11
19.51962798099146
 21
15.0637137367581
 31
0.0
  0
ARC
  5
E08D
330
A
100
AcDbEntity
  8
0
  6
Continuous
 62
     7
370
    25
100
AcDbCircle
 10
20.46962798099128
 20
15.36371373675829
 30
0.0
 40
0.3000000000001819
100
AcDbArc
 50
270.0
 51
0.0
  0
LINE
  5
E08E
330
A
100
AcDbEntity
  8
0
  6
Continuous
 62
     7
370
    25
100
AcDbLine
 10
20.769627980991
 20
17.96371373675865
 30
0.0
 11
20.769627980991
 21
15.36371373675829
 31
0.0
  0
ARC
  5
E08F
330
A
100
AcDbEntity
  8
0
  6
Continuous
 62
     7
370
    25
100
AcDbCircle
 10
20.46962798099128
 20
17.96371373675865
 30
0.0
 40
0.3000000000001819
100
AcDbArc
 50
0.0
 51
90.0
  0
LINE
  5
E090
330
A
100
AcDbEntity
  8
0
  6
Continuous
 62
     7
370
    25
100
AcDbLine
 10
14.06962798099119
 20
18.26371373675883
 30
0.0
 11
20.46962798099128
 21
18.26371373675883
 31
0.0
  0
ARC
  5
E091
330
A
100
AcDbEntity
  8
0
  6
Continuous
 62
     7
370
    25
100
AcDbCircle
 10
14.06962798099119
 20
17.96371373675865
 30
0.0
 40
0.3000000000001819
100
AcDbArc
 50
90.0
 51
180.0
  0
LINE
  5
E092
330
A
100
AcDbEntity
  8
0
  6
Continuous
 62
     7
370
    25
100
AcDbLine
 10
13.76962798099146
 20
15.36371373675829
 30
0.0
 11
13.76962798099146
 21
17.96371373675865
 31
0.0
  0
ARC
  5
E093
330
A
100
AcDbEntity
  8
0
  6
Continuous
 62
     7
370
    25
100
AcDbCircle
 10
14.06962798099119
 20
15.36371373675829
 30
0.0
 40
0.3000000000001819
100
AcDbArc
 50
180.0
 51
270.0
  0
LINE
  5
E094
330
A
100
AcDbEntity
  8
0
  6
Continuous
 62
     7
370
    25
100
AcDbLine
 10
15.01962798099146
 20
15.0637137367581
 30
0.0
 11
14.06962798099119
 21
15.0637137367581
 31
0.0
  0
LINE
  5
E095
330
A
100
AcDbEntity
  8
0
  6
Continuous
 62
     7
370
    25
100
AcDbLine
 10
15.01962798099146
 20
13.26371373675883
 30
0.0
 11
15.01962798099146
 21
15.0637137367581
 31
0.0
  0
LINE
  5
E096
330
A
100
AcDbEntity
  8
0
  6
Continuous
 62
     7
370
    25
100
AcDbLine
 10
12.26962798099146
 20
13.26371373675883
 30
0.0
 11
15.01962798099146
 21
13.26371373675883
 31
0.0
  0
ARC
  5
E097
330
A
100
AcDbEntity
  8
0
  6
Continuous
 62
     7
370
    25
100
AcDbCircle
 10
9.019627980991459
 20
13.26371373675883
 30
0.0
 40
3.250000000000455
100
AcDbArc
 50
0.0
 51
180.0
  0
LINE
  5
E098
330
A
100
AcDbEntity
  8
0
  6
Continuous
 62
     7
370
    25
100
AcDbLine
 10
3.019627980991459
 20
13.26371373675883
 30
0.0
 11
5.769627980991004
 21
13.26371373675883
 31
0.0
  0
LINE
  5
E099
330
A
100
AcDbEntity
  8
0
  6
Continuous
 62
     7
370
    25
100
AcDbLine
 10
3.019627980991459
 20
15.0637137367581
 30
0.0
 11
3.019627980991459
 21
13.26371373675883
 31
0.0
  0
LINE
  5
E09A
330
A
100
AcDbEntity
  8
0
  6
Continuous
 62
     7
370
    25
100
AcDbLine
 10
3.969627980991731
 20
15.0637137367581
 30
0.0
 11
3.019627980991459
 21
15.0637137367581
 31
0.0
  0
ARC
  5
E09B
330
A
100
AcDbEntity
  8
0
  6
Continuous
 62
     7
370
    25
100
AcDbCircle
 10
3.969627980991731
 20
15.36371373675829
 30
0.0
 40
0.3000000000001819
100
AcDbArc
 50
270.0
 51
0.0
  0
LINE
  5
E09C
330
A
100
AcDbEntity
  8
0
  6
Continuous
 62
     7
370
    25
100
AcDbLine
 10
4.269627980991459
 20
17.96371373675865
 30
0.0
 11
4.269627980991459
 21
15.36371373675829
 31
0.0
  0
ARC
  5
E09D
330
A
100
AcDbEntity
  8
0
  6
Continuous
 62
     7
370
    25
100
AcDbCircle
 10
3.969627980991731
 20
17.96371373675865
 30
0.0
 40
0.3000000000001819
100
AcDbArc
 50
0.0
 51
90.0
  0
LINE
  5
E09E
330
A
100
AcDbEntity
  8
0
  6
Continuous
 62
     7
370
    25
100
AcDbLine
 10
-2.430372019008814
 20
18.26371373675883
 30
0.0
 11
3.969627980991731
 21
18.26371373675883
 31
0.0
  0
ARC
  5
E09F
330
A
100
AcDbEntity
  8
0
  6
Continuous
 62
     7
370
    25
100
AcDbCircle
 10
-2.430372019008814
 20
17.96371373675865
 30
0.0
 40
0.3000000000001819
100
AcDbArc
 50
90.0
 51
180.0
  0
LINE
  5
E0A0
330
A
100
AcDbEntity
  8
0
  6
Continuous
 62
     7
370
    25
100
AcDbLine
 10
8.519627980991459
 20
18.26371373675883
 30
0.0
 11
7.519627980991459
 21
18.26371373675883
 31
0.0
  0
LINE
  5
E0A1
330
A
100
AcDbEntity
  8
0
  6
Continuous
 62
     7
370
    25
100
AcDbLine
 10
9.019627980991459
 20
17.76371373675792
 30
0.0
 11
8.519627980991459
 21
18.26371373675883
 31
0.0
  0
ARC
  5
E0A2
330
A
100
AcDbEntity
  8
0
  6
Continuous
 62
     7
370
    25
100
AcDbCircle
 10
19.01962798099146
 20
22.26371373675792
 30
0.0
 40
1.5
100
AcDbArc
 50
270.0
 51
0.0
  0
LINE
  5
E0A3
330
A
100
AcDbEntity
  8
0
  6
Continuous
 62
     7
370
    25
100
AcDbLine
 10
20.519627980991
 20
27.96371373675865
 30
0.0
 11
20.519627980991
 21
22.26371373675792
 31
0.0
  0
ARC
  5
E0A4
330
A
100
AcDbEntity
  8
0
  6
Continuous
 62
     7
370
    25
100
AcDbCircle
 10
20.21962798099128
 20
27.96371373675865
 30
0.0
 40
0.2999999999997272
100
AcDbArc
 50
0.0
 51
90.0
  0
ARC
  5
E0A5
330
A
100
AcDbEntity
  8
0
  6
Continuous
 62
     7
370
    25
100
AcDbCircle
 10
19.31962798099119
 20
28.5637137367581
 30
0.0
 40
0.3000000000001819
100
AcDbArc
 50
180.0
 51
270.0
  0
LINE
  5
E0A6
330
A
100
AcDbEntity
  8
0
  6
Continuous
 62
     7
370
    25
100
AcDbLine
 10
19.01962798099146
 20
31.21371373675865
 30
0.0
 11
19.01962798099146
 21
28.5637137367581
 31
0.0
  0
ARC
  5
E0A7
330
A
100
AcDbEntity
  8
0
  6
Continuous
 62
     7
370
    25
100
AcDbCircle
 10
20.31962798099164
 20
30.0637137367581
 30
0.0
 40
0.3000000000001819
100
AcDbArc
 50
180.0
 51
270.0
  0
LINE
  5
E0A8
330
A
100
AcDbEntity
  8
0
  6
Continuous
 62
     7
370
    25
100
AcDbLine
 10
21.21962798099128
 20
29.76371373675883
 30
0.0
 11
20.31962798099164
 21
29.76371373675883
 31
0.0
  0
ARC
  5
E0A9
330
A
100
AcDbEntity
  8
0
  6
Continuous
 62
     7
370
    25
100
AcDbCircle
 10
21.21962798099128
 20
30.0637137367581
 30
0.0
 40
0.2999999999997272
100
AcDbArc
 50
270.0
 51
0.0
  0
LINE
  5
E0AA
330
A
100
AcDbEntity
  8
0
  6
Continuous
 62
     7
370
    25
100
AcDbLine
 10
-4.18037201900836
 20
-124.837485799118
 30
0.0
 11
-4.18037201900836
 21
-1.062786917135327
 31
0.0
  0
LINE
  5
E0AB
330
A
100
AcDbEntity
  8
0
  6
Continuous
 62
     7
370
    25
100
AcDbLine
 10
-4.480372019008996
 20
-124.837485799118
 30
0.0
 11
-4.480372019008996
 21
-1.062786917135327
 31
0.0
  0
LINE
  5
E0AC
330
A
100
AcDbEntity
  8
0
  6
Continuous
 62
     7
370
    25
100
AcDbLine
 10
-4.18037201900836
 20
-1.062786917135327
 30
0.0
 11
-4.480372019008996
 21
-1.062786917135327
 31
0.0
  0
LINE
  5
E0AD
330
A
100
AcDbEntity
  8
0
  6
Continuous
 62
     7
370
    25
100
AcDbLine
 10
-0.9803720190085414
 20
-124.837485799118
 30
0.0
 11
-0.9803720190085414
 21
-1.062786917135327
 31
0.0
  0
LINE
  5
E0AE
330
A
100
AcDbEntity
  8
0
  6
Continuous
 62
     7
370
    25
100
AcDbLine
 10
-1.280372019008269
 20
-124.837485799118
 30
0.0
 11
-1.280372019008269
 21
-1.062786917135327
 31
0.0
  0
LINE
  5
E0AF
330
A
100
AcDbEntity
  8
0
  6
Continuous
 62
     7
370
    25
100
AcDbLine
 10
-0.9803720190085414
 20
-1.062786917135327
 30
0.0
 11
-1.280372019008269
 21
-1.062786917135327
 31
0.0
  0
LINE
  5
E0B0
330
A
100
AcDbEntity
  8
0
  6
Continuous
 62
     7
370
    25
100
AcDbLine
 10
-1.280372019008269
 20
-1.062786917135327
 30
0.0
 11
-4.18037201900836
 21
-1.062786917135327
 31
0.0
  0
LINE
  5
E0B1
330
A
100
AcDbEntity
  8
0
  6
Continuous
 62
     7
370
    25
100
AcDbLine
 10
22.21962798099128
 20
-124.837485799118
 30
0.0
 11
22.21962798099128
 21
-1.062786917135327
 31
0.0
  0
LINE
  5
E0B2
330
A
100
AcDbEntity
  8
0
  6
Continuous
 62
     7
370
    25
100
AcDbLine
 10
19.31962798099119
 20
-124.837485799118
 30
0.0
 11
19.31962798099119
 21
-1.062786917135327
 31
0.0
  0
LINE
  5
E0B3
330
A
100
AcDbEntity
  8
0
  6
Continuous
 62
     7
370
    25
100
AcDbLine
 10
22.21962798099128
 20
-1.062786917135327
 30
0.0
 11
19.31962798099119
 21
-1.062786917135327
 31
0.0
  0
LINE
  5
E0B4
330
A
100
AcDbEntity
  8
0
  6
Continuous
 62
     7
370
    25
100
AcDbLine
 10
19.01962798099146
 20
-124.837485799118
 30
0.0
 11
19.01962798099146
 21
-1.062786917135327
 31
0.0
  0
LINE
  5
E0B5
330
A
100
AcDbEntity
  8
0
  6
Continuous
 62
     7
370
    25
100
AcDbLine
 10
19.31962798099119
 20
-1.062786917135327
 30
0.0
 11
19.01962798099146
 21
-1.062786917135327
 31
0.0
  0
LINE
  5
E0B6
330
A
100
AcDbEntity
  8
0
  6
Continuous
 62
     7
370
    25
100
AcDbLine
 10
22.51962798099146
 20
-124.837485799118
 30
0.0
 11
22.51962798099146
 21
-1.062786917135327
 31
0.0
  0
LINE
  5
E0B7
330
A
100
AcDbEntity
  8
0
  6
Continuous
 62
     7
370
    25
100
AcDbLine
 10
22.51962798099146
 20
-1.062786917135327
 30
0.0
 11
22.21962798099128
 21
-1.062786917135327
 31
0.0
  0
LINE
  5
E0B8
330
A
100
AcDbEntity
  8
0
  6
Continuous
 62
     7
370
    25
100
AcDbLine
 10
13.01962798099146
 20
-124.837485799118
 30
0.0
 11
13.01962798099146
 21
-1.062786917135327
 31
0.0
  0
LINE
  5
E0B9
330
A
100
AcDbEntity
  8
0
  6
Continuous
 62
     7
370
    25
100
AcDbLine
 10
10.519627980991
 20
-124.837485799118
 30
0.0
 11
10.519627980991
 21
-1.062786917135327
 31
0.0
  0
LINE
  5
E0BA
330
A
100
AcDbEntity
  8
0
  6
Continuous
 62
     7
370
    25
100
AcDbLine
 10
13.01962798099146
 20
-1.062786917135327
 30
0.0
 11
10.519627980991
 21
-1.062786917135327
 31
0.0
  0
LINE
  5
E0BB
330
A
100
AcDbEntity
  8
0
  6
Continuous
 62
     7
370
    25
100
AcDbLine
 10
5.019627980991459
 20
-124.837485799118
 30
0.0
 11
5.019627980991459
 21
-1.062786917135327
 31
0.0
  0
LINE
  5
E0BC
330
A
100
AcDbEntity
  8
0
  6
Continuous
 62
     7
370
    25
100
AcDbLine
 10
5.019627980991459
 20
-1.062786917135327
 30
0.0
 11
-0.9803720190085414
 21
-1.062786917135327
 31
0.0
  0
LINE
  5
E0BD
330
A
100
AcDbEntity
  8
0
  6
Continuous
 62
     7
370
    25
100
AcDbLine
 10
7.519627980991459
 20
-124.837485799118
 30
0.0
 11
7.519627980991459
 21
-1.062786917135327
 31
0.0
  0
LINE
  5
E0BE
330
A
100
AcDbEntity
  8
0
  6
Continuous
 62
     7
370
    25
100
AcDbLine
 10
7.519627980991459
 20
-1.062786917135327
 30
0.0
 11
5.019627980991459
 21
-1.062786917135327
 31
0.0
  0
LINE
  5
E0BF
330
A
100
AcDbEntity
  8
0
  6
Continuous
 62
     7
370
    25
100
AcDbLine
 10
19.01962798099146
 20
-1.062786917135327
 30
0.0
 11
13.01962798099146
 21
-1.062786917135327
 31
0.0
  0
LINE
  5
E0C0
330
A
100
AcDbEntity
  8
0
  6
Continuous
 62
     7
370
    25
100
AcDbLine
 10
8.519627980991459
 20
-124.837485799118
 30
0.0
 11
8.519627980991459
 21
-1.062786917135327
 31
0.0
  0
LINE
  5
E0C1
330
A
100
AcDbEntity
  8
0
  6
Continuous
 62
     7
370
    25
100
AcDbLine
 10
8.519627980991459
 20
-1.062786917135327
 30
0.0
 11
7.519627980991459
 21
-1.062786917135327
 31
0.0
  0
LINE
  5
E0C2
330
A
100
AcDbEntity
  8
0
  6
Continuous
 62
     7
370
    25
100
AcDbLine
 10
9.519627980991459
 20
-124.837485799118
 30
0.0
 11
9.519627980991459
 21
-1.062786917135327
 31
0.0
  0
LINE
  5
E0C3
330
A
100
AcDbEntity
  8
0
  6
Continuous
 62
     7
370
    25
100
AcDbLine
 10
10.519627980991
 20
-1.062786917135327
 30
0.0
 11
9.519627980991459
 21
-1.062786917135327
 31
0.0
  0
LINE
  5
E0C4
330
A
100
AcDbEntity
  8
0
  6
Continuous
 62
     7
370
    25
100
AcDbLine
 10
9.019627980991459
 20
-124.837485799118
 30
0.0
 11
9.019627980991459
 21
-1.062786917135327
 31
0.0
  0
LINE
  5
E0C5
330
A
100
AcDbEntity
  8
0
  6
Continuous
 62
     7
370
    25
100
AcDbLine
 10
9.519627980991459
 20
-1.062786917135327
 30
0.0
 11
9.019627980991459
 21
-1.062786917135327
 31
0.0
  0
LINE
  5
E0C6
330
A
100
AcDbEntity
  8
0
  6
Continuous
 62
     7
370
    25
100
AcDbLine
 10
9.019627980991459
 20
-1.062786917135327
 30
0.0
 11
8.519627980991459
 21
-1.062786917135327
 31
0.0
  0
LINE
  5
E0C7
330
A
100
AcDbEntity
  8
0
  6
Continuous
370
     0
100
AcDbLine
 10
-4.480372019008996
 20
-124.837485799118
 30
0.0
 11
22.51962798099146
 21
-124.837485799118
 31
0.0
  0
LINE
  5
E0C8
330
A
100
AcDbEntity
  8
0
  6
Continuous
 62
     7
370
    25
100
AcDbLine
 10
155.6522055052328
 20
-81.8744573230932
 30
0.0
 11
48.39359332331469
 21
-19.95537849512493
 31
0.0
  0
LINE
  5
E0C9
330
A
100
AcDbEntity
  8
0
  6
Continuous
 62
     7
370
    25
100
AcDbLine
 10
153.9847019137624
 20
-84.09502594276395
 30
0.0
 11
155.0693871729663
 21
-84.72120141438322
 31
0.0
  0
LINE
  5
E0CA
330
A
100
AcDbEntity
  8
0
  6
Continuous
 62
     7
370
    25
100
AcDbLine
 10
155.6522055052328
 20
-87.38610780332223
 30
0.0
 11
153.9465827767262
 21
-86.4014727607017
 31
0.0
  0
LINE
  5
E0CB
330
A
100
AcDbEntity
  8
0
  6
Continuous
 62
     7
370
    25
100
AcDbLine
 10
46.04300803808337
 20
-41.58239538470752
 30
0.0
 11
153.3016202199997
 21
-103.5014742126767
 31
0.0
  0
LINE
  5
E0CC
330
A
100
AcDbEntity
  8
0
  6
Continuous
 62
     7
370
    25
100
AcDbLine
 10
62.66001739596641
 20
-14.22983741227654
 30
0.0
 11
169.9186295778836
 21
-76.14891624024526
 31
0.0
  0
LINE
  5
E0CD
330
A
100
AcDbEntity
  8
0
  6
Continuous
 62
     7
370
    25
100
AcDbLine
 10
172.2692148631158
 20
-72.28166200917607
 30
0.0
 11
65.01060268119909
 21
-10.36258318120781
 31
0.0
  0
LINE
  5
E0CE
330
A
100
AcDbEntity
  8
0
  6
Continuous
 62
     7
370
    25
100
AcDbLine
 10
170.5014479101501
 20
-78.81382262918336
 30
0.0
 11
63.24283572823242
 21
-16.89474380121464
 31
0.0
  0
LINE
  5
E0CF
330
A
100
AcDbEntity
  8
0
  6
Continuous
 62
     7
370
    25
100
AcDbLine
 10
62.66001739596641
 20
-19.74148789250467
 30
0.0
 11
169.9186295778836
 21
-81.66056672047384
 31
0.0
  0
LINE
  5
E0D0
330
A
100
AcDbEntity
  8
0
  6
Continuous
 62
     7
370
    25
100
AcDbLine
 10
154.4769128626158
 20
-101.1799902114966
 30
0.0
 11
154.4769128626158
 21
-99.0569841005939
 31
0.0
  0
ARC
  5
E0D1
330
A
100
AcDbEntity
  8
0
  6
Continuous
 62
     7
370
    25
100
AcDbCircle
 10
154.6062351728442
 20
-101.2009683705658
 30
0.0
 40
0.1310127592289003
100
AcDbArc
 50
170.7859630097744
 51
309.2032852352698
  0
LINE
  5
E0D2
330
A
100
AcDbEntity
  8
0
  6
Continuous
 62
     7
370
    25
100
AcDbLine
 10
155.3607963390996
 20
-100.9146973851733
 30
0.0
 11
154.6890448969716
 21
-101.3024912382888
 31
0.0
  0
LINE
  5
E0D3
330
A
100
AcDbEntity
  8
0
  6
Continuous
 62
     7
370
    25
100
AcDbLine
 10
155.3607963390996
 20
-102.3844708465675
 30
0.0
 11
155.3607963390996
 21
-100.9146973851733
 31
0.0
  0
LINE
  5
E0D4
330
A
100
AcDbEntity
  8
0
  6
Continuous
 62
     7
370
    25
100
AcDbLine
 10
153.4516080298954
 20
-103.486621797528
 30
0.0
 11
155.3607963390996
 21
-102.3844708465675
 31
0.0
  0
ARC
  5
E0D5
330
A
100
AcDbEntity
  8
0
  6
Continuous
 62
     7
370
    25
100
AcDbCircle
 10
153.3687983057689
 20
-103.3850989298056
 30
0.0
 40
0.1310127592289003
100
AcDbArc
 50
170.7859630097744
 51
309.2032852352698
  0
LINE
  5
E0D6
330
A
100
AcDbEntity
  8
0
  6
Continuous
 62
     7
370
    25
100
AcDbLine
 10
153.2394759955396
 20
-83.44052496072376
 30
0.0
 11
153.2394759955396
 21
-103.3641207707359
 31
0.0
  0
ARC
  5
E0D7
330
A
100
AcDbEntity
  8
0
  6
Continuous
 62
     7
370
    25
100
AcDbCircle
 10
153.7000408259537
 20
-83.4614832164037
 30
0.0
 40
0.4610414422756034
100
AcDbArc
 50
122.6054783403006
 51
177.3945215140917
  0
LINE
  5
E0D8
330
A
100
AcDbEntity
  8
0
  6
Continuous
 62
     7
370
    25
100
AcDbLine
 10
155.5022176953362
 20
-81.88930973824185
 30
0.0
 11
153.4516080298954
 21
-83.07310150038424
 31
0.0
  0
ARC
  5
E0D9
330
A
100
AcDbEntity
  8
0
  6
Continuous
 62
     7
370
    25
100
AcDbCircle
 10
155.5850274194645
 20
-81.99083260596248
 30
0.0
 40
0.131012759228221
100
AcDbArc
 50
350.7859630091218
 51
129.2032852359948
  0
LINE
  5
E0DA
330
A
100
AcDbEntity
  8
0
  6
Continuous
 62
     7
370
    25
100
AcDbLine
 10
155.714349729692
 20
-84.1756439165309
 30
0.0
 11
155.714349729692
 21
-82.01181076503357
 31
0.0
  0
ARC
  5
E0DB
330
A
100
AcDbEntity
  8
0
  6
Continuous
 62
     7
370
    25
100
AcDbCircle
 10
155.2537848992852
 20
-84.15468566085414
 30
0.0
 40
0.4610414422694912
100
AcDbArc
 50
302.6054783398473
 51
357.3945215145062
  0
LINE
  5
E0DC
330
A
100
AcDbEntity
  8
0
  6
Continuous
 62
     7
370
    25
100
AcDbLine
 10
155.2193749828621
 20
-84.70634899923502
 30
0.0
 11
155.5022176953362
 21
-84.54306737687043
 31
0.0
  0
ARC
  5
E0DD
330
A
100
AcDbEntity
  8
0
  6
Continuous
 62
     7
370
    25
100
AcDbCircle
 10
155.1365652587347
 20
-84.60482613151302
 30
0.0
 40
0.131012759229046
100
AcDbArc
 50
170.7859630093817
 51
309.2032852356691
  0
LINE
  5
E0DE
330
A
100
AcDbEntity
  8
0
  6
Continuous
 62
     7
370
    25
100
AcDbLine
 10
155.0072429485062
 20
-83.64482603877408
 30
0.0
 11
155.0072429485062
 21
-84.58384797244238
 31
0.0
  0
ARC
  5
E0DF
330
A
100
AcDbEntity
  8
0
  6
Continuous
 62
     7
370
    25
100
AcDbCircle
 10
154.8779206382778
 20
-83.62384787970345
 30
0.0
 40
0.131012759229046
100
AcDbArc
 50
350.7859630093818
 51
129.2032852351877
  0
LINE
  5
E0E0
330
A
100
AcDbEntity
  8
0
  6
Continuous
 62
     7
370
    25
100
AcDbLine
 10
154.1587148110821
 20
-83.88970866230179
 30
0.0
 11
154.7951109141504
 21
-83.52232501198145
 31
0.0
  0
ARC
  5
E0E1
330
A
100
AcDbEntity
  8
0
  6
Continuous
 62
     7
370
    25
100
AcDbCircle
 10
154.407147607134
 20
-84.27809037831807
 30
0.0
 40
0.4610414422694912
100
AcDbArc
 50
122.6054783398473
 51
177.3945215144515
  0
LINE
  5
E0E2
330
A
100
AcDbEntity
  8
0
  6
Continuous
 62
     7
370
    25
100
AcDbLine
 10
153.9465827767262
 20
-89.48299331870962
 30
0.0
 11
153.9465827767262
 21
-84.25713212264085
 31
0.0
  0
ARC
  5
E0E3
330
A
100
AcDbEntity
  8
0
  6
Continuous
 62
     7
370
    25
100
AcDbCircle
 10
154.0759050869547
 20
-89.50397147777889
 30
0.0
 40
0.1310127592291348
100
AcDbArc
 50
170.7859630099803
 51
309.2032852351698
  0
LINE
  5
E0E4
330
A
100
AcDbEntity
  8
0
  6
Continuous
 62
     7
370
    25
100
AcDbLine
 10
154.7951109141504
 20
-89.23811069518146
 30
0.0
 11
154.1587148110821
 21
-89.60549434550225
 31
0.0
  0
ARC
  5
E0E5
330
A
100
AcDbEntity
  8
0
  6
Continuous
 62
     7
370
    25
100
AcDbCircle
 10
154.5466781180885
 20
-88.84972897915881
 30
0.0
 40
0.4610414422803523
100
AcDbArc
 50
302.605478340594
 51
357.394521513666
  0
LINE
  5
E0E6
330
A
100
AcDbEntity
  8
0
  6
Continuous
 62
     7
370
    25
100
AcDbLine
 10
155.0072429485062
 20
-87.93166530117409
 30
0.0
 11
155.0072429485062
 21
-88.87068723484285
 31
0.0
  0
ARC
  5
E0E7
330
A
100
AcDbEntity
  8
0
  6
Continuous
 62
     7
370
    25
100
AcDbCircle
 10
155.4678077789104
 20
-87.95262355684767
 30
0.0
 40
0.4610414422652754
100
AcDbArc
 50
122.6054783397041
 51
177.3945215148819
  0
LINE
  5
E0E8
330
A
100
AcDbEntity
  8
0
  6
Continuous
 62
     7
370
    25
100
AcDbLine
 10
155.5022176953362
 20
-87.40096021847043
 30
0.0
 11
155.2193749828621
 21
-87.56424184083502
 31
0.0
  0
ARC
  5
E0E9
330
A
100
AcDbEntity
  8
0
  6
Continuous
 62
     7
370
    25
100
AcDbCircle
 10
155.5850274194645
 20
-87.50248308619106
 30
0.0
 40
0.1310127592281482
100
AcDbArc
 50
350.785963009318
 51
129.2032852360183
  0
LINE
  5
E0EA
330
A
100
AcDbEntity
  8
0
  6
Continuous
 62
     7
370
    25
100
AcDbLine
 10
155.714349729692
 20
-89.68729439675948
 30
0.0
 11
155.714349729692
 21
-87.52346124526215
 31
0.0
  0
ARC
  5
E0EB
330
A
100
AcDbEntity
  8
0
  6
Continuous
 62
     7
370
    25
100
AcDbCircle
 10
155.2537848992852
 20
-89.66633614108363
 30
0.0
 40
0.461041442268342
100
AcDbArc
 50
302.6054783399387
 51
357.3945215146729
  0
LINE
  5
E0EC
330
A
100
AcDbEntity
  8
0
  6
Continuous
 62
     7
370
    25
100
AcDbLine
 10
154.8658215922687
 20
-90.42210150741889
 30
0.0
 11
155.5022176953362
 21
-90.054717857099
 31
0.0
  0
ARC
  5
E0ED
330
A
100
AcDbEntity
  8
0
  6
Continuous
 62
     7
370
    25
100
AcDbCircle
 10
155.114254388327
 20
-90.8104832234379
 30
0.0
 40
0.4610414422755796
100
AcDbArc
 50
122.6054783401683
 51
177.3945215140916
  0
LINE
  5
E0EE
330
A
100
AcDbEntity
  8
0
  6
Continuous
 62
     7
370
    25
100
AcDbLine
 10
154.6536895579129
 20
-95.44380759550708
 30
0.0
 11
154.6536895579129
 21
-90.78952496775796
 31
0.0
  0
ARC
  5
E0EF
330
A
100
AcDbEntity
  8
0
  6
Continuous
 62
     7
370
    25
100
AcDbCircle
 10
155.3003011090523
 20
-95.548698390858
 30
0.0
 40
0.6550637961428177
100
AcDbArc
 50
170.7859630095502
 51
309.2032852356816
  0
LINE
  5
E0F0
330
A
100
AcDbEntity
  8
0
  6
Continuous
 62
     7
370
    25
100
AcDbLine
 10
159.956990416812
 20
-93.60708839400044
 30
0.0
 11
155.714349729692
 21
-96.05631272946889
 31
0.0
  0
LINE
  5
E0F1
330
A
100
AcDbEntity
  8
0
  6
Continuous
 62
     7
370
    25
100
AcDbLine
 10
161.7247573697778
 20
-94.62793028393648
 30
0.0
 11
159.956990416812
 21
-93.60708839400044
 31
0.0
  0
LINE
  5
E0F2
330
A
100
AcDbEntity
  8
0
  6
Continuous
 62
     7
370
    25
100
AcDbLine
 10
162.4318641509644
 20
-94.21972622802545
 30
0.0
 11
161.7247573697778
 21
-94.62793028393648
 31
0.0
  0
LINE
  5
E0F3
330
A
100
AcDbEntity
  8
0
  6
Continuous
 62
     7
370
    25
100
AcDbLine
 10
162.7854175415578
 20
-94.42389460601257
 30
0.0
 11
162.4318641509644
 21
-94.21972622802545
 31
0.0
  0
LINE
  5
E0F4
330
A
100
AcDbEntity
  8
0
  6
Continuous
 62
     7
370
    25
100
AcDbLine
 10
163.1389709321511
 20
-93.81152217211351
 30
0.0
 11
162.7854175415578
 21
-94.42389460601257
 31
0.0
  0
LINE
  5
E0F5
330
A
100
AcDbEntity
  8
0
  6
Continuous
 62
     7
370
    25
100
AcDbLine
 10
163.8460777133378
 20
-93.40331811620248
 30
0.0
 11
163.1389709321511
 21
-93.81152217211351
 31
0.0
  0
LINE
  5
E0F6
330
A
100
AcDbEntity
  8
0
  6
Continuous
 62
     7
370
    25
100
AcDbLine
 10
165.6138446663035
 20
-90.34145594670949
 30
0.0
 11
163.8460777133378
 21
-93.40331811620248
 31
0.0
  0
LINE
  5
E0F7
330
A
100
AcDbEntity
  8
0
  6
Continuous
 62
     7
370
    25
100
AcDbLine
 10
169.8564853534235
 20
-87.89223161124195
 30
0.0
 11
165.6138446663035
 21
-90.34145594670949
 31
0.0
  0
ARC
  5
E0F8
330
A
100
AcDbEntity
  8
0
  6
Continuous
 62
     7
370
    25
100
AcDbCircle
 10
168.6143213731521
 20
-85.95032303115462
 30
0.0
 40
2.305207211358807
100
AcDbArc
 50
302.6054783400157
 51
357.394521514331
  0
LINE
  5
E0F9
330
A
100
AcDbEntity
  8
0
  6
Continuous
 62
     7
370
    25
100
AcDbLine
 10
170.9171455252035
 20
-81.40083168179703
 30
0.0
 11
170.9171455252035
 21
-86.05511430954616
 31
0.0
  0
ARC
  5
E0FA
330
A
100
AcDbEntity
  8
0
  6
Continuous
 62
     7
370
    25
100
AcDbCircle
 10
170.787823214976
 20
-81.37985352272594
 30
0.0
 40
0.131012759228221
100
AcDbArc
 50
350.7859630091218
 51
129.2032852355133
  0
LINE
  5
E0FB
330
A
100
AcDbEntity
  8
0
  6
Continuous
 62
     7
370
    25
100
AcDbLine
 10
170.0686173877793
 20
-81.64571430532519
 30
0.0
 11
170.7050134908477
 21
-81.2783306550044
 31
0.0
  0
ARC
  5
E0FC
330
A
100
AcDbEntity
  8
0
  6
Continuous
 62
     7
370
    25
100
AcDbCircle
 10
169.9858076636519
 20
-81.54419143760182
 30
0.0
 40
0.1310127592291348
100
AcDbArc
 50
170.7859630099803
 51
309.2032852351698
  0
LINE
  5
E0FD
330
A
100
AcDbEntity
  8
0
  6
Continuous
 62
     7
370
    25
100
AcDbLine
 10
169.8564853534235
 20
-79.35938012703522
 30
0.0
 11
169.8564853534235
 21
-81.52321327853255
 31
0.0
  0
ARC
  5
E0FE
330
A
100
AcDbEntity
  8
0
  6
Continuous
 62
     7
370
    25
100
AcDbCircle
 10
170.3170501838322
 20
-79.38033838271335
 30
0.0
 40
0.4610414422707474
100
AcDbArc
 50
122.6054783398816
 51
177.3945215143488
  0
LINE
  5
E0FF
330
A
100
AcDbEntity
  8
0
  6
Continuous
 62
     7
370
    25
100
AcDbLine
 10
170.3514601002544
 20
-78.82867504433156
 30
0.0
 11
170.0686173877793
 21
-78.99195666669615
 31
0.0
  0
ARC
  5
E100
330
A
100
AcDbEntity
  8
0
  6
Continuous
 62
     7
370
    25
100
AcDbCircle
 10
170.4342698243827
 20
-78.9301979120531
 30
0.0
 40
0.1310127592286525
100
AcDbArc
 50
350.7859630091209
 51
129.2032852358551
  0
LINE
  5
E101
330
A
100
AcDbEntity
  8
0
  6
Continuous
 62
     7
370
    25
100
AcDbLine
 10
170.5635921346093
 20
-79.89019800479295
 30
0.0
 11
170.5635921346093
 21
-78.9511760711242
 31
0.0
  0
ARC
  5
E102
330
A
100
AcDbEntity
  8
0
  6
Continuous
 62
     7
370
    25
100
AcDbCircle
 10
170.6929144448377
 20
-79.91117616386222
 30
0.0
 40
0.1310127592299322
100
AcDbArc
 50
170.7859630100237
 51
309.2032852359119
  0
LINE
  5
E103
330
A
100
AcDbEntity
  8
0
  6
Continuous
 62
     7
370
    25
100
AcDbLine
 10
171.4121202720344
 20
-79.6453153812648
 30
0.0
 11
170.775724168966
 21
-80.01269903158513
 31
0.0
  0
ARC
  5
E104
330
A
100
AcDbEntity
  8
0
  6
Continuous
 62
     7
370
    25
100
AcDbCircle
 10
171.1636874759824
 20
-79.25693366524987
 30
0.0
 40
0.461041442268342
100
AcDbArc
 50
302.6054783399387
 51
357.3945215146163
  0
LINE
  5
E105
330
A
100
AcDbEntity
  8
0
  6
Continuous
 62
     7
370
    25
100
AcDbLine
 10
171.6242523063893
 20
-74.05203072485696
 30
0.0
 11
171.6242523063893
 21
-79.27789192092573
 31
0.0
  0
ARC
  5
E106
330
A
100
AcDbEntity
  8
0
  6
Continuous
 62
     7
370
    25
100
AcDbCircle
 10
171.4949299961636
 20
-74.03105256578542
 30
0.0
 40
0.1310127592281702
100
AcDbArc
 50
350.7859630087397
 51
129.2032852365405
  0
LINE
  5
E107
330
A
100
AcDbEntity
  8
0
  6
Continuous
 62
     7
370
    25
100
AcDbLine
 10
170.775724168966
 20
-74.29691334838512
 30
0.0
 11
171.4121202720344
 21
-73.92952969806478
 31
0.0
  0
ARC
  5
E108
330
A
100
AcDbEntity
  8
0
  6
Continuous
 62
     7
370
    25
100
AcDbCircle
 10
171.0241569650243
 20
-74.6852950644055
 30
0.0
 40
0.4610414422765295
100
AcDbArc
 50
122.6054783400971
 51
177.3945215139838
  0
LINE
  5
E109
330
A
100
AcDbEntity
  8
0
  6
Continuous
 62
     7
370
    25
100
AcDbLine
 10
170.5635921346093
 20
-75.60335874239249
 30
0.0
 11
170.5635921346093
 21
-74.66433680872419
 31
0.0
  0
ARC
  5
E10A
330
A
100
AcDbEntity
  8
0
  6
Continuous
 62
     7
370
    25
100
AcDbCircle
 10
170.1030273042015
 20
-75.58240048671664
 30
0.0
 40
0.461041442269013
100
AcDbArc
 50
302.6054783400235
 51
357.3945215146202
  0
LINE
  5
E10B
330
A
100
AcDbEntity
  8
0
  6
Continuous
 62
     7
370
    25
100
AcDbLine
 10
170.0686173877793
 20
-76.13406382509615
 30
0.0
 11
170.3514601002544
 21
-75.97078220273156
 31
0.0
  0
ARC
  5
E10C
330
A
100
AcDbEntity
  8
0
  6
Continuous
 62
     7
370
    25
100
AcDbCircle
 10
169.9858076636519
 20
-76.03254095737415
 30
0.0
 40
0.1310127592291188
100
AcDbArc
 50
170.7859630091854
 51
309.2032852356552
  0
LINE
  5
E10D
330
A
100
AcDbEntity
  8
0
  6
Continuous
 62
     7
370
    25
100
AcDbLine
 10
169.8564853534235
 20
-73.84772964680664
 30
0.0
 11
169.8564853534235
 21
-76.01156279830352
 31
0.0
  0
ARC
  5
E10E
330
A
100
AcDbEntity
  8
0
  6
Continuous
 62
     7
370
    25
100
AcDbCircle
 10
170.3170501838322
 20
-73.8686879024834
 30
0.0
 40
0.461041442269963
100
AcDbArc
 50
122.6054783399435
 51
177.3945215145124
  0
LINE
  5
E10F
330
A
100
AcDbEntity
  8
0
  6
Continuous
 62
     7
370
    25
100
AcDbLine
 10
172.1192270532201
 20
-72.29651442432473
 30
0.0
 11
170.0686173877793
 21
-73.48030618646757
 31
0.0
  0
ARC
  5
E110
330
A
100
AcDbEntity
  8
0
  6
Continuous
 62
     7
370
    25
100
AcDbCircle
 10
172.2020367773493
 20
-72.39803729204718
 30
0.0
 40
0.1310127592295798
100
AcDbArc
 50
350.785963009628
 51
129.2032852360377
  0
LINE
  5
E111
330
A
100
AcDbEntity
  8
0
  6
Continuous
 62
     7
370
    25
100
AcDbLine
 10
172.3313590875769
 20
-92.34261126112901
 30
0.0
 11
172.3313590875769
 21
-72.41901545111736
 31
0.0
  0
ARC
  5
E112
330
A
100
AcDbEntity
  8
0
  6
Continuous
 62
     7
370
    25
100
AcDbCircle
 10
171.8707942571655
 20
-92.32165300544997
 30
0.0
 40
0.4610414422737005
100
AcDbArc
 50
302.6054783400492
 51
357.3945215142507
  0
LINE
  5
E113
330
A
100
AcDbEntity
  8
0
  6
Continuous
 62
     7
370
    25
100
AcDbLine
 10
170.2100387440169
 20
-93.81218567242954
 30
0.0
 11
172.1192270532201
 21
-92.71003472146808
 31
0.0
  0
LINE
  5
E114
330
A
100
AcDbEntity
  8
0
  6
Continuous
 62
     7
370
    25
100
AcDbLine
 10
170.2100387440169
 20
-92.34241221103488
 30
0.0
 11
170.2100387440169
 21
-93.81218567242954
 31
0.0
  0
LINE
  5
E115
330
A
100
AcDbEntity
  8
0
  6
Continuous
 62
     7
370
    25
100
AcDbLine
 10
170.8817901861439
 20
-91.95461835791897
 30
0.0
 11
170.2100387440169
 21
-92.34241221103488
 31
0.0
  0
ARC
  5
E116
330
A
100
AcDbEntity
  8
0
  6
Continuous
 62
     7
370
    25
100
AcDbCircle
 10
170.6333573900929
 20
-91.5662366419036
 30
0.0
 40
0.461041442268235
100
AcDbArc
 50
302.605478339813
 51
357.3945215145592
  0
LINE
  5
E117
330
A
100
AcDbEntity
  8
0
  6
Continuous
 62
     7
370
    25
100
AcDbLine
 10
171.0939222204997
 20
-89.46418878667677
 30
0.0
 11
171.0939222204997
 21
-91.5871948975799
 31
0.0
  0
ARC
  5
E118
330
A
100
AcDbEntity
  8
0
  6
Continuous
 62
     7
370
    25
100
AcDbCircle
 10
170.9645999102731
 20
-89.44321062760613
 30
0.0
 40
0.131012759228875
100
AcDbArc
 50
350.7859630093943
 51
129.2032852362891
  0
LINE
  5
E119
330
A
100
AcDbEntity
  8
0
  6
Continuous
 62
     7
370
    25
100
AcDbLine
 10
166.3563067865507
 20
-91.95419371771717
 30
0.0
 11
170.8817901861439
 21
-89.34168775988459
 31
0.0
  0
ARC
  5
E11A
330
A
100
AcDbEntity
  8
0
  6
Continuous
 62
     7
370
    25
100
AcDbCircle
 10
166.6047395826035
 20
-92.34257543373346
 30
0.0
 40
0.4610414422708921
100
AcDbArc
 50
122.6054783399956
 51
177.3945215144611
  0
LINE
  5
E11B
330
A
100
AcDbEntity
  8
0
  6
Continuous
 62
     7
370
    25
100
AcDbLine
 10
166.144174752194
 20
-94.44462328895938
 30
0.0
 11
166.144174752194
 21
-92.32161717805624
 31
0.0
  0
ARC
  5
E11C
330
A
100
AcDbEntity
  8
0
  6
Continuous
 62
     7
370
    25
100
AcDbCircle
 10
166.2734970624224
 20
-94.46560144802865
 30
0.0
 40
0.1310127592297097
100
AcDbArc
 50
170.7859630100324
 51
309.203285235478
  0
LINE
  5
E11D
330
A
100
AcDbEntity
  8
0
  6
Continuous
 62
     7
370
    25
100
AcDbLine
 10
167.0280582286778
 20
-94.17933046263565
 30
0.0
 11
166.3563067865507
 21
-94.56712431575201
 31
0.0
  0
LINE
  5
E11E
330
A
100
AcDbEntity
  8
0
  6
Continuous
 62
     7
370
    25
100
AcDbLine
 10
167.0280582286778
 20
-95.6491039240303
 30
0.0
 11
167.0280582286778
 21
-94.17933046263565
 31
0.0
  0
LINE
  5
E11F
330
A
100
AcDbEntity
  8
0
  6
Continuous
 62
     7
370
    25
100
AcDbLine
 10
165.083514580414
 20
-96.77166507778642
 30
0.0
 11
167.0280582286778
 21
-95.6491039240303
 31
0.0
  0
LWPOLYLINE
  5
E120
330
A
100
AcDbEntity
  8
0
  6
Continuous
 62
     7
370
    25
100
AcDbPolyline
 90
       10
 70
   128
 43
0.0
 10
160.4873205027016
 20
-99.42499144121015
 10
160.6259127122948
 20
-98.43734529370599
 10
161.0249730751939
 20
-97.4088086885175
 10
161.6363690221306
 20
-96.4634383198148
 10
162.3863571786587
 20
-95.71525980624378
 10
163.1844779044568
 20
-95.25451451847889
 10
163.9344660609868
 20
-95.13677513810248
 10
164.5458620079226
 20
-95.37624277203608
 10
164.9449223708207
 20
-95.94403408946013
 10
165.083514580414
 20
-96.77166507778642
  0
LINE
  5
E121
330
A
100
AcDbEntity
  8
0
  6
Continuous
 62
     7
370
    25
100
AcDbLine
 10
158.5427768544387
 20
-100.5475525949663
 30
0.0
 11
160.4873205027016
 21
-99.42499144121015
 31
0.0
  0
LINE
  5
E122
330
A
100
AcDbEntity
  8
0
  6
Continuous
 62
     7
370
    25
100
AcDbLine
 10
158.5427768544387
 20
-99.07777913357208
 30
0.0
 11
158.5427768544387
 21
-100.5475525949663
 31
0.0
  0
LINE
  5
E123
330
A
100
AcDbEntity
  8
0
  6
Continuous
 62
     7
370
    25
100
AcDbLine
 10
159.2145282965648
 20
-98.68998528045617
 30
0.0
 11
158.5427768544387
 21
-99.07777913357208
 31
0.0
  0
ARC
  5
E124
330
A
100
AcDbEntity
  8
0
  6
Continuous
 62
     7
370
    25
100
AcDbCircle
 10
158.9660955005165
 20
-98.30160356444125
 30
0.0
 40
0.4610414422663817
100
AcDbArc
 50
302.6054783395577
 51
357.3945215146052
  0
LINE
  5
E125
330
A
100
AcDbEntity
  8
0
  6
Continuous
 62
     7
370
    25
100
AcDbLine
 10
159.4266603309215
 20
-96.19955570921442
 30
0.0
 11
159.4266603309215
 21
-98.3225618201171
 31
0.0
  0
ARC
  5
E126
330
A
100
AcDbEntity
  8
0
  6
Continuous
 62
     7
370
    25
100
AcDbCircle
 10
159.2973380206931
 20
-96.17857755014424
 30
0.0
 40
0.1310127592290049
100
AcDbArc
 50
350.78596300958
 51
129.2032852357295
  0
LINE
  5
E127
330
A
100
AcDbEntity
  8
0
  6
Continuous
 62
     7
370
    25
100
AcDbLine
 10
154.6890448969716
 20
-98.68956064025483
 30
0.0
 11
159.2145282965648
 21
-96.07705468242179
 31
0.0
  0
ARC
  5
E128
330
A
100
AcDbEntity
  8
0
  6
Continuous
 62
     7
370
    25
100
AcDbCircle
 10
154.9374776930317
 20
-99.07794235627429
 30
0.0
 40
0.4610414422773967
100
AcDbArc
 50
122.6054783404263
 51
177.3945215141019
  0
LINE
  5
E129
330
A
100
AcDbEntity
  8
0
  6
Continuous
 62
     7
370
    25
100
AcDbLine
 10
153.4516080298954
 20
-83.07310150038424
 30
0.0
 11
46.19299584797864
 21
-21.15402267241643
 31
0.0
  0
LINE
  5
E12A
330
A
100
AcDbEntity
  8
0
  6
Continuous
 62
     7
370
    25
100
AcDbLine
 10
153.2394759955396
 20
-83.44052496072376
 30
0.0
 11
45.98086381362236
 21
-21.52144613275505
 31
0.0
  0
ARC
  5
E12B
330
A
100
AcDbEntity
  8
0
  6
Continuous
 62
     7
370
    25
100
AcDbCircle
 10
46.44142864403057
 20
-21.54240438843226
 30
0.0
 40
0.4610414422695293
100
AcDbArc
 50
122.6054783398778
 51
177.3945215144534
  0
LINE
  5
E12C
330
A
100
AcDbEntity
  8
0
  6
Continuous
 62
     7
370
    25
100
AcDbLine
 10
153.2394759955396
 20
-103.3641207707359
 30
0.0
 11
45.98086381362236
 21
-41.44504194276669
 31
0.0
  0
LINE
  5
E12D
330
A
100
AcDbEntity
  8
0
  6
Continuous
 62
     7
370
    25
100
AcDbLine
 10
45.98086381362236
 20
-21.52144613275505
 30
0.0
 11
45.98086381362236
 21
-41.44504194276669
 31
0.0
  0
LINE
  5
E12E
330
A
100
AcDbEntity
  8
0
  6
Continuous
 62
     7
370
    25
100
AcDbLine
 10
155.5022176953362
 20
-81.88930973824185
 30
0.0
 11
48.24360551341942
 21
-19.97023091027313
 31
0.0
  0
LINE
  5
E12F
330
A
100
AcDbEntity
  8
0
  6
Continuous
 62
     7
370
    25
100
AcDbLine
 10
48.24360551341942
 20
-19.97023091027313
 30
0.0
 11
46.19299584797864
 21
-21.15402267241643
 31
0.0
  0
ARC
  5
E130
330
A
100
AcDbEntity
  8
0
  6
Continuous
 62
     7
370
    25
100
AcDbCircle
 10
48.33148152987451
 20
-20.09289530900332
 30
0.0
 40
0.1508931707658578
100
AcDbArc
 50
65.69288095322202
 51
125.617577476223
  0
LINE
  5
E131
330
A
100
AcDbEntity
  8
0
  6
Continuous
 62
     7
370
    25
100
AcDbLine
 10
159.956990416812
 20
-93.60708839400044
 30
0.0
 11
154.7153962783377
 21
-90.58118050612015
 31
0.0
  0
LINE
  5
E132
330
A
100
AcDbEntity
  8
0
  6
Continuous
 62
     7
370
    25
100
AcDbLine
 10
170.0686173877793
 20
-73.48030618646757
 30
0.0
 11
62.81000520586258
 21
-11.5612273584984
 31
0.0
  0
LINE
  5
E133
330
A
100
AcDbEntity
  8
0
  6
Continuous
 62
     7
370
    25
100
AcDbLine
 10
169.8564853534235
 20
-73.84772964680664
 30
0.0
 11
62.59787317150631
 21
-11.92865081883792
 31
0.0
  0
ARC
  5
E134
330
A
100
AcDbEntity
  8
0
  6
Continuous
 62
     7
370
    25
100
AcDbCircle
 10
63.0584380019186
 20
-11.94960907451787
 30
0.0
 40
0.4610414422743782
100
AcDbArc
 50
122.6054783400626
 51
177.3945215141413
  0
LINE
  5
E135
330
A
100
AcDbEntity
  8
0
  6
Continuous
 62
     7
370
    25
100
AcDbLine
 10
169.8564853534235
 20
-76.01156279830352
 30
0.0
 11
62.59787317150631
 21
-14.09248397033571
 31
0.0
  0
LINE
  5
E136
330
A
100
AcDbEntity
  8
0
  6
Continuous
 62
     7
370
    25
100
AcDbLine
 10
62.59787317150631
 20
-11.92865081883792
 30
0.0
 11
62.59787317150631
 21
-14.09248397033571
 31
0.0
  0
LINE
  5
E137
330
A
100
AcDbEntity
  8
0
  6
Continuous
 62
     7
370
    25
100
AcDbLine
 10
172.1192270532201
 20
-72.29651442432473
 30
0.0
 11
64.86061487130337
 21
-10.37743559635601
 31
0.0
  0
LINE
  5
E138
330
A
100
AcDbEntity
  8
0
  6
Continuous
 62
     7
370
    25
100
AcDbLine
 10
64.86061487130337
 20
-10.37743559635601
 30
0.0
 11
62.81000520586258
 21
-11.5612273584984
 31
0.0
  0
ARC
  5
E139
330
A
100
AcDbEntity
  8
0
  6
Continuous
 62
     7
370
    25
100
AcDbCircle
 10
46.12356947913986
 20
-41.46321115191313
 30
0.0
 40
0.1438576627499795
100
AcDbArc
 50
172.7441701505663
 51
235.9436494565635
  0
LINE
  5
E13A
330
A
100
AcDbEntity
  8
0
  6
Continuous
 62
     7
370
    25
100
AcDbLine
 10
155.3607963390996
 20
-100.9146973851733
 30
0.0
 11
154.4769128626158
 21
-100.4044423152839
 31
0.0
  0
ARC
  5
E13B
330
A
100
AcDbEntity
  8
0
  6
Continuous
 62
     7
370
    25
100
AcDbCircle
 10
62.74057884188687
 20
-14.11065317728298
 30
0.0
 40
0.1438576672960443
100
AcDbArc
 50
172.7441712640585
 51
235.9436483420454
  0
ARC
  5
E13C
330
A
100
AcDbEntity
  8
0
  6
Continuous
 62
     7
370
    25
100
AcDbCircle
 10
64.94849088775891
 20
-10.50009999508984
 30
0.0
 40
0.1508931707693448
100
AcDbArc
 50
65.69288095344204
 51
125.6175774756993
  0
LINE
  5
E13D
330
A
100
AcDbEntity
  8
0
  6
Continuous
 62
     7
370
    25
100
AcDbLine
 10
171.6242523063893
 20
-79.27789192092573
 30
0.0
 11
64.36564012447298
 21
-17.35881309295655
 31
0.0
  0
LINE
  5
E13E
330
A
100
AcDbEntity
  8
0
  6
Continuous
 62
     7
370
    25
100
AcDbLine
 10
64.36564012447298
 20
-15.21447245489617
 30
0.0
 11
64.36564012447298
 21
-17.35881309295655
 31
0.0
  0
LINE
  5
E13F
330
A
100
AcDbEntity
  8
0
  6
Continuous
 62
     7
370
    25
100
AcDbLine
 10
170.0686173877793
 20
-78.99195666669615
 30
0.0
 11
62.81000520586258
 21
-17.07287783872744
 31
0.0
  0
LINE
  5
E140
330
A
100
AcDbEntity
  8
0
  6
Continuous
 62
     7
370
    25
100
AcDbLine
 10
169.8564853534235
 20
-79.35938012703522
 30
0.0
 11
62.59787317150631
 21
-17.44030129906696
 31
0.0
  0
ARC
  5
E141
330
A
100
AcDbEntity
  8
0
  6
Continuous
 62
     7
370
    25
100
AcDbCircle
 10
63.05843800191815
 20
-17.46125955474599
 30
0.0
 40
0.461041442273367
100
AcDbArc
 50
122.6054783400759
 51
177.3945215142488
  0
LINE
  5
E142
330
A
100
AcDbEntity
  8
0
  6
Continuous
 62
     7
370
    25
100
AcDbLine
 10
169.8564853534235
 20
-81.52321327853255
 30
0.0
 11
62.59787317150631
 21
-19.60413445056383
 31
0.0
  0
LINE
  5
E143
330
A
100
AcDbEntity
  8
0
  6
Continuous
 62
     7
370
    25
100
AcDbLine
 10
62.59787317150631
 20
-17.44030129906696
 30
0.0
 11
62.59787317150631
 21
-19.60413445056383
 31
0.0
  0
LINE
  5
E144
330
A
100
AcDbEntity
  8
0
  6
Continuous
 62
     7
370
    25
100
AcDbLine
 10
170.3514601002544
 20
-78.82867504433156
 30
0.0
 11
63.09284791833716
 21
-16.90959621636375
 31
0.0
  0
LINE
  5
E145
330
A
100
AcDbEntity
  8
0
  6
Continuous
 62
     7
370
    25
100
AcDbLine
 10
63.09284791833716
 20
-16.90959621636375
 30
0.0
 11
62.81000520586258
 21
-17.07287783872744
 31
0.0
  0
LINE
  5
E146
330
A
100
AcDbEntity
  8
0
  6
Continuous
 62
     7
370
    25
100
AcDbLine
 10
158.5427768544387
 20
-99.07777913357208
 30
0.0
 11
156.2796673655885
 21
-97.77131383455466
 31
0.0
  0
LINE
  5
E147
330
A
100
AcDbEntity
  8
0
  6
Continuous
 62
     7
370
    25
100
AcDbLine
 10
158.5427768544387
 20
-100.5475525949663
 30
0.0
 11
155.0066682781107
 21
-98.50620056525199
 31
0.0
  0
ARC
  5
E148
330
A
100
AcDbEntity
  8
0
  6
Continuous
 62
     7
370
    25
100
AcDbCircle
 10
63.1807239347927
 20
-17.03226061509395
 30
0.0
 40
0.1508931707663874
100
AcDbArc
 50
65.69288095331308
 51
125.6175774765037
  0
LINE
  5
E149
330
A
100
AcDbEntity
  8
0
  6
Continuous
 62
     7
370
    25
100
AcDbLine
 10
165.083514580414
 20
-96.77166507778642
 30
0.0
 11
162.785044036159
 21
-95.44478627599696
 31
0.0
  0
LINE
  5
E14A
330
A
100
AcDbEntity
  8
0
  6
Continuous
 62
     7
370
    25
100
AcDbLine
 10
162.4318641509644
 20
-94.21972622802545
 30
0.0
 11
155.3596469983086
 21
-90.13702216859642
 31
0.0
  0
LINE
  5
E14B
330
A
100
AcDbEntity
  8
0
  6
Continuous
 62
     7
370
    25
100
AcDbLine
 10
165.6138446663035
 20
-90.34145594670949
 30
0.0
 11
155.5336006012585
 21
-84.5222549131357
 31
0.0
  0
LINE
  5
E14C
330
A
100
AcDbEntity
  8
0
  6
Continuous
 62
     7
370
    25
100
AcDbLine
 10
163.8460777133378
 20
-93.40331811620248
 30
0.0
 11
155.714349729692
 21
-88.7089714732218
 31
0.0
  0
ARC
  5
E14D
330
A
100
AcDbEntity
  8
0
  6
Continuous
 62
     7
370
    25
100
AcDbCircle
 10
62.74057883811429
 20
-19.62230365921823
 30
0.0
 40
0.14385766376928
100
AcDbArc
 50
172.7441703998173
 51
235.9436492059776
  0
LINE
  5
E14E
330
A
100
AcDbEntity
  8
0
  6
Continuous
 62
     7
370
    25
100
AcDbLine
 10
163.1389709321511
 20
-93.81152217211351
 30
0.0
 11
155.714349729692
 21
-89.52537958504476
 31
0.0
  0
ARC
  5
E14F
330
A
100
AcDbEntity
  8
0
  6
Continuous
 62
     7
370
    25
100
AcDbCircle
 10
63.94975231125181
 20
-17.34655234223101
 30
0.0
 40
0.4160685030071511
100
AcDbArc
 50
335.223339409228
 51
358.3113574449328
  0
LINE
  5
E150
330
A
100
AcDbEntity
  8
0
  6
Continuous
 62
     7
370
    25
100
AcDbLine
 10
169.8564853534235
 20
-87.89223161124195
 30
0.0
 11
62.59787317150631
 21
-25.97315278327278
 31
0.0
  0
LINE
  5
E151
330
A
100
AcDbEntity
  8
0
  6
Continuous
 62
     7
370
    25
100
AcDbLine
 10
62.59787317150631
 20
-25.97315278327278
 30
0.0
 11
60.70784339817737
 21
-27.06424374689141
 31
0.0
  0
LINE
  5
E152
330
A
100
AcDbEntity
  8
0
  6
Continuous
 62
     7
370
    25
100
AcDbLine
 10
170.9171455252035
 20
-86.05511430954616
 30
0.0
 11
63.65853334328631
 21
-24.13603548157698
 31
0.0
  0
LINE
  5
E153
330
A
100
AcDbEntity
  8
0
  6
Continuous
 62
     7
370
    25
100
AcDbLine
 10
63.65853334328631
 20
-20.31791887921372
 30
0.0
 11
63.65853334328631
 21
-24.13603548157698
 31
0.0
  0
ARC
  5
E154
330
A
100
AcDbEntity
  8
0
  6
Continuous
 62
     7
370
    25
100
AcDbCircle
 10
61.35570919123575
 20
-24.03124420318545
 30
0.0
 40
2.305207211358317
100
AcDbArc
 50
302.6054783399967
 51
357.3945215143297
  0
LINE
  5
E155
330
A
100
AcDbEntity
  8
0
  6
Continuous
 62
     7
370
    25
100
AcDbLine
 10
167.0280582286778
 20
-94.17933046263565
 30
0.0
 11
166.144174752194
 21
-93.66907539274675
 31
0.0
  0
LINE
  5
E156
330
A
100
AcDbEntity
  8
0
  6
Continuous
 62
     7
370
    25
100
AcDbLine
 10
170.2100387440169
 20
-92.34241221103488
 30
0.0
 11
167.9469292551676
 21
-91.03594691201747
 31
0.0
  0
LINE
  5
E157
330
A
100
AcDbEntity
  8
0
  6
Continuous
 62
     7
370
    25
100
AcDbLine
 10
170.2100387440169
 20
-93.81218567242954
 30
0.0
 11
166.6739301676889
 21
-91.77083364271479
 31
0.0
  0
LINE
  5
E158
330
A
100
AcDbEntity
  8
0
  6
Continuous
 62
     8
370
    25
100
AcDbLine
 10
155.0072429485062
 20
-83.64482603877408
 30
0.0
 11
154.7950764339257
 21
-83.52234491699059
 31
0.0
  0
LINE
  5
E159
330
A
100
AcDbEntity
  8
0
  6
Continuous
 62
     8
370
    25
100
AcDbLine
 10
155.0072429485062
 20
-84.58384797244238
 30
0.0
 11
154.0273487377845
 21
-84.01816708544888
 31
0.0
  0
LINE
  5
E15A
330
A
100
AcDbEntity
  8
0
  6
Continuous
 62
     8
370
    25
100
AcDbLine
 10
154.1587148110821
 20
-89.60549434550225
 30
0.0
 11
153.9465827795275
 21
-89.48303313034589
 31
0.0
  0
LINE
  5
E15B
330
A
100
AcDbEntity
  8
0
  6
Continuous
 62
     8
370
    25
100
AcDbLine
 10
155.2193749828621
 20
-87.56424184083502
 30
0.0
 11
153.9465827767262
 21
-86.82947454019435
 31
0.0
  0
LINE
  5
E15C
330
A
100
AcDbEntity
  8
0
  6
Continuous
 62
     8
370
    25
100
AcDbLine
 10
155.0072429485062
 20
-87.93166530117409
 30
0.0
 11
153.9465827767262
 21
-87.31935921730687
 31
0.0
  0
LINE
  5
E15D
330
A
100
AcDbEntity
  8
0
  6
Continuous
 62
     8
370
    25
100
AcDbLine
 10
155.0072429485062
 20
-88.87068723484285
 30
0.0
 11
153.9465827767262
 21
-88.25838115097562
 31
0.0
  0
LINE
  5
E15E
330
A
100
AcDbEntity
  8
0
  6
Continuous
 62
     8
370
    25
100
AcDbLine
 10
155.5022176953362
 20
-87.40096021847043
 30
0.0
 11
153.9465827767262
 21
-86.50291129546562
 31
0.0
  0
LINE
  5
E15F
330
A
100
AcDbEntity
  8
0
  6
Continuous
 62
     8
370
    25
100
AcDbLine
 10
154.7951109141504
 20
-89.23811069518146
 30
0.0
 11
153.9465827767262
 21
-88.74826582808814
 31
0.0
  0
LINE
  5
E160
330
A
100
AcDbEntity
  8
0
  6
Continuous
 62
     8
370
    25
100
AcDbLine
 10
155.714349729692
 20
-96.05631272946889
 30
0.0
 11
154.6536895719219
 21
-95.44400665368889
 31
0.0
  0
LINE
  5
E161
330
A
100
AcDbEntity
  8
0
  6
Continuous
 62
     8
370
    25
100
AcDbLine
 10
154.6890448969716
 20
-101.3024912382888
 30
0.0
 11
154.4769128654179
 21
-101.1800300231328
 31
0.0
  0
LINE
  5
E162
330
A
100
AcDbEntity
  8
0
  6
Continuous
 62
     8
370
    25
100
AcDbLine
 10
171.6242523063893
 20
-74.05203072485696
 30
0.0
 11
171.4120857918097
 21
-73.92954960307392
 31
0.0
  0
LINE
  5
E163
330
A
100
AcDbEntity
  8
0
  6
Continuous
 62
     8
370
    25
100
AcDbLine
 10
159.4266603309215
 20
-96.19955570921442
 30
0.0
 11
159.2144938163419
 21
-96.07707458743093
 31
0.0
  0
LINE
  5
E164
330
A
100
AcDbEntity
  8
0
  6
Continuous
 62
     8
370
    25
100
AcDbLine
 10
159.4266603309215
 20
-98.3225618201171
 30
0.0
 11
157.3757173566519
 21
-97.13857764288272
 31
0.0
  0
LINE
  5
E165
330
A
100
AcDbEntity
  8
0
  6
Continuous
 62
     8
370
    25
100
AcDbLine
 10
159.2145282965648
 20
-98.68998528045617
 30
0.0
 11
156.9514188077164
 21
-97.38351998143875
 31
0.0
  0
LINE
  5
E166
330
A
100
AcDbEntity
  8
0
  6
Continuous
 62
     8
370
    25
100
AcDbLine
 10
170.775724168966
 20
-80.01269903158513
 30
0.0
 11
170.5635921374114
 21
-79.89023781642877
 31
0.0
  0
LINE
  5
E167
330
A
100
AcDbEntity
  8
0
  6
Continuous
 62
     8
370
    25
100
AcDbLine
 10
171.4121202720344
 20
-79.6453153812648
 30
0.0
 11
170.5635921346093
 21
-79.15547051417147
 31
0.0
  0
LINE
  5
E168
330
A
100
AcDbEntity
  8
0
  6
Continuous
 62
     8
370
    25
100
AcDbLine
 10
170.9171455252035
 20
-81.40083168179703
 30
0.0
 11
170.704979010623
 21
-81.27835056001445
 31
0.0
  0
LINE
  5
E169
330
A
100
AcDbEntity
  8
0
  6
Continuous
 62
     8
370
    25
100
AcDbLine
 10
166.3563067865507
 20
-94.56712431575201
 30
0.0
 11
166.1441747549961
 21
-94.44466310059565
 31
0.0
  0
LINE
  5
E16A
330
A
100
AcDbEntity
  8
0
  6
Continuous
 62
     8
370
    25
100
AcDbLine
 10
171.0939222204997
 20
-89.46418878667677
 30
0.0
 11
170.881755705921
 21
-89.34170766489373
 31
0.0
  0
LINE
  5
E16B
330
A
100
AcDbEntity
  8
0
  6
Continuous
 62
     8
370
    25
100
AcDbLine
 10
171.0939222204997
 20
-91.5871948975799
 30
0.0
 11
169.0429792462301
 21
-90.40321072034553
 31
0.0
  0
LINE
  5
E16C
330
A
100
AcDbEntity
  8
0
  6
Continuous
 62
     8
370
    25
100
AcDbLine
 10
170.8817901861439
 20
-91.95461835791897
 30
0.0
 11
168.6186806972946
 21
-90.64815305890201
 31
0.0
  0
ENDSEC
  0
SECTION
  2
OBJECTS
  0
DICTIONARY
  5
19
330
0
100
AcDbDictionary
281
     1
  3
ACAD_DETAILVIEWSTYLE
350
D18E
  3
ACAD_GROUP
350
1A
  3
ACAD_IMAGE_VARS
350
B65E
  3
ACAD_LAYOUT
350
1E
  3
ACAD_MLINESTYLE
350
1B
  3
ACAD_PLOTSETTINGS
350
22
  3
ACAD_PLOTSTYLENAME
350
1F
  3
ACAD_SCALELIST
350
582C
  3
ACAD_SECTIONVIEWSTYLE
350
D18F
  3
ACAD_WIPEOUT_VARS
350
23
  3
AcDbVariableDictionary
350
AB91
  3
APPDATA
350
B65D
  3
ASE_INDEX_DICTIONARY
350
B60C
  3
DWGPROPS
350
E16D
  0
DICTIONARY
  5
5858
330
14
100
AcDbDictionary
280
     1
281
     1
  3
ADSK_XREC_LAYER_RECONCILED
360
5859
  0
DICTIONARY
  5
5864
330
A
100
AcDbDictionary
280
     1
281
     1
  3
ACAD_SORTENTS
360
5865
  0
DICTIONARY
  5
D18E
102
{ACAD_REACTORS
330
19
102
}
330
19
100
AcDbDictionary
281
     1
  0
DICTIONARY
  5
1A
102
{ACAD_REACTORS
330
19
102
}
330
19
100
AcDbDictionary
281
     1
  0
RASTERVARIABLES
  5
B65E
102
{ACAD_REACTORS
330
19
102
}
330
19
100
AcDbRasterVariables
 90
        0
 70
     1
 71
     1
 72
     0
  0
DICTIONARY
  5
1E
102
{ACAD_REACTORS
330
19
102
}
330
19
100
AcDbDictionary
281
     1
  3
Layout1
350
21
  3
Model
350
20
  0
DICTIONARY
  5
1B
102
{ACAD_REACTORS
330
19
102
}
330
19
100
AcDbDictionary
281
     1
  3
Standard
350
1C
  0
DICTIONARY
  5
22
102
{ACAD_REACTORS
330
19
102
}
330
19
100
AcDbDictionary
281
     1
  0
ACDBDICTIONARYWDFLT
  5
1F
102
{ACAD_REACTORS
330
19
102
}
330
19
100
AcDbDictionary
281
     1
  3
Normal
350
1D
100
AcDbDictionaryWithDefault
340
1D
  0
DICTIONARY
  5
582C
102
{ACAD_REACTORS
330
19
102
}
330
19
100
AcDbDictionary
281
     1
  3
A0
350
582D
  3
A1
350
582E
  3
A2
350
582F
  3
A3
350
5830
  3
A4
350
5831
  3
A5
350
5832
  3
A6
350
5833
  3
A7
350
5834
  3
A8
350
5835
  3
A9
350
5836
  3
B0
350
5837
  3
B1
350
5838
  3
B2
350
5839
  3
B3
350
583A
  3
B4
350
583B
  3
B5
350
583C
  3
B6
350
583D
  3
B7
350
583E
  3
B8
350
583F
  3
B9
350
5840
  3
C0
350
5841
  3
C1
350
5842
  3
C2
350
5843
  3
C3
350
5844
  3
C4
350
5845
  3
C5
350
5846
  3
C6
350
5847
  3
C7
350
5848
  3
C8
350
5849
  3
C9
350
584A
  3
D0
350
584B
  3
D1
350
584C
  3
D2
350
584D
  0
DICTIONARY
  5
D18F
102
{ACAD_REACTORS
330
19
102
}
330
19
100
AcDbDictionary
281
     1
  0
WIPEOUTVARIABLES
  5
23
330
19
100
AcDbWipeoutVariables
 70
     1
  0
DICTIONARY
  5
AB91
102
{ACAD_REACTORS
330
19
102
}
330
19
100
AcDbDictionary
281
     1
  3
DIMASSOC
350
B616
  3
INDEXCTL
350
B615
  3
SORTENTS
350
B614
  0
DICTIONARY
  5
B65D
102
{ACAD_REACTORS
330
19
102
}
330
19
100
AcDbDictionary
281
     1
  0
DICTIONARY
  5
B60C
102
{ACAD_REACTORS
330
19
102
}
330
19
100
AcDbDictionary
281
     1
  3
ASEBlockHierarchyIndexRecord
350
B60D
1001
DCO15
1040
1684839347.122
  0
XRECORD
  5
E16D
102
{ACAD_REACTORS
330
19
102
}
330
19
100
AcDbXrecord
280
     1
  1
DWGPROPS COOKIE
  2

  3

  4

  6

  7

  8
simone.danesi
  9

300
=
301
=
302
=
303
=
304
=
305
=
306
=
307
=
308
=
309
=
 40
0.0
 41
2455301.719027755
 42
2458788.317566204
  1

 90
        0
  0
XRECORD
  5
5859
102
{ACAD_REACTORS
330
5858
102
}
330
5858
100
AcDbXrecord
280
     1
290
     1
  0
SORTENTSTABLE
  5
5865
102
{ACAD_REACTORS
330
5864
102
}
330
5864
100
AcDbSortentsTable
330
A
331
0
  5
5EEA
  0
LAYOUT
  5
21
102
{ACAD_REACTORS
330
1E
102
}
330
1E
100
AcDbPlotSettings
  1

  2

  4

  6

 40
0.0
 41
0.0
 42
0.0
 43
0.0
 44
0.0
 45
0.0
 46
0.0
 47
0.0
 48
0.0
 49
0.0
140
0.0
141
0.0
142
1.0
143
1.0
 70
     0
 72
     0
 73
     0
 74
     0
  7

 75
     0
147
1.0
148
0.0
149
0.0
100
AcDbLayout
  1
Layout1
 70
     0
 71
     1
 10
0.0
 20
0.0
 11
12.0
 21
9.0
 12
0.0
 22
0.0
 32
0.0
 14
1.000000000000000E+20
 24
1.000000000000000E+20
 34
1.000000000000000E+20
 15
-1.000000000000000E+20
 25
-1.000000000000000E+20
 35
-1.000000000000000E+20
146
0.0
 13
0.0
 23
0.0
 33
0.0
 16
1.0
 26
0.0
 36
0.0
 17
0.0
 27
1.0
 37
0.0
 76
     0
330
B
  0
LAYOUT
  5
20
102
{ACAD_REACTORS
330
1E
102
}
330
1E
100
AcDbPlotSettings
  1

  2

  4

  6

 40
0.0
 41
0.0
 42
0.0
 43
0.0
 44
0.0
 45
0.0
 46
0.0
 47
0.0
 48
0.0
 49
0.0
140
0.0
141
0.0
142
1.0
143
1.0
 70
  1024
 72
     0
 73
     0
 74
     0
  7

 75
     0
147
1.0
148
0.0
149
0.0
100
AcDbLayout
  1
Model
 70
     0
 71
     0
 10
0.0
 20
0.0
 11
0.0
 21
0.0
 12
0.0
 22
0.0
 32
0.0
 14
-31.3422140046244
 24
-364.6861020594021
 34
0.0
 15
644.3497801065246
 25
61.58091282650281
 35
0.0
146
0.0
 13
0.0
 23
0.0
 33
0.0
 16
0.0
 26
0.0
 36
0.0
 17
0.0
 27
0.0
 37
0.0
 76
     0
330
A
331
15
  0
MLINESTYLE
  5
1C
102
{ACAD_REACTORS
330
1B
102
}
330
1B
100
AcDbMlineStyle
  2
STANDARD
 70
     0
  3

 62
     0
 51
90.0
 52
90.0
 71
     2
 49
0.5
 62
   256
  6
BYLAYER
 49
-0.5
 62
   256
  6
BYLAYER
  0
ACDBPLACEHOLDER
  5
1D
102
{ACAD_REACTORS
330
1F
102
}
330
1F
  0
SCALE
  5
582D
102
{ACAD_REACTORS
330
582C
102
}
330
582C
100
AcDbScale
 70
     0
300
1:1
140
1.0
141
1.0
290
     1
  0
SCALE
  5
582E
102
{ACAD_REACTORS
330
582C
102
}
330
582C
100
AcDbScale
 70
     0
300
1:2
140
1.0
141
2.0
290
     0
  0
SCALE
  5
582F
102
{ACAD_REACTORS
330
582C
102
}
330
582C
100
AcDbScale
 70
     0
300
1:4
140
1.0
141
4.0
290
     0
  0
SCALE
  5
5830
102
{ACAD_REACTORS
330
582C
102
}
330
582C
100
AcDbScale
 70
     0
300
1:5
140
1.0
141
5.0
290
     0
  0
SCALE
  5
5831
102
{ACAD_REACTORS
330
582C
102
}
330
582C
100
AcDbScale
 70
     0
300
1:8
140
1.0
141
8.0
290
     0
  0
SCALE
  5
5832
102
{ACAD_REACTORS
330
582C
102
}
330
582C
100
AcDbScale
 70
     0
300
1:10
140
1.0
141
10.0
290
     0
  0
SCALE
  5
5833
102
{ACAD_REACTORS
330
582C
102
}
330
582C
100
AcDbScale
 70
     0
300
1:16
140
1.0
141
16.0
290
     0
  0
SCALE
  5
5834
102
{ACAD_REACTORS
330
582C
102
}
330
582C
100
AcDbScale
 70
     0
300
1:20
140
1.0
141
20.0
290
     0
  0
SCALE
  5
5835
102
{ACAD_REACTORS
330
582C
102
}
330
582C
100
AcDbScale
 70
     0
300
1:30
140
1.0
141
30.0
290
     0
  0
SCALE
  5
5836
102
{ACAD_REACTORS
330
582C
102
}
330
582C
100
AcDbScale
 70
     0
300
1:40
140
1.0
141
40.0
290
     0
  0
SCALE
  5
5837
102
{ACAD_REACTORS
330
582C
102
}
330
582C
100
AcDbScale
 70
     0
300
1:50
140
1.0
141
50.0
290
     0
  0
SCALE
  5
5838
102
{ACAD_REACTORS
330
582C
102
}
330
582C
100
AcDbScale
 70
     0
300
1:100
140
1.0
141
100.0
290
     0
  0
SCALE
  5
5839
102
{ACAD_REACTORS
330
582C
102
}
330
582C
100
AcDbScale
 70
     0
300
2:1
140
2.0
141
1.0
290
     0
  0
SCALE
  5
583A
102
{ACAD_REACTORS
330
582C
102
}
330
582C
100
AcDbScale
 70
     0
300
4:1
140
4.0
141
1.0
290
     0
  0
SCALE
  5
583B
102
{ACAD_REACTORS
330
582C
102
}
330
582C
100
AcDbScale
 70
     0
300
8:1
140
8.0
141
1.0
290
     0
  0
SCALE
  5
583C
102
{ACAD_REACTORS
330
582C
102
}
330
582C
100
AcDbScale
 70
     0
300
10:1
140
10.0
141
1.0
290
     0
  0
SCALE
  5
583D
102
{ACAD_REACTORS
330
582C
102
}
330
582C
100
AcDbScale
 70
     0
300
100:1
140
100.0
141
1.0
290
     0
  0
SCALE
  5
583E
102
{ACAD_REACTORS
330
582C
102
}
330
582C
100
AcDbScale
 70
     0
300
1/128" = 1'-0"
140
0.0078125
141
12.0
290
     0
  0
SCALE
  5
583F
102
{ACAD_REACTORS
330
582C
102
}
330
582C
100
AcDbScale
 70
     0
300
1/64" = 1'-0"
140
0.015625
141
12.0
290
     0
  0
SCALE
  5
5840
102
{ACAD_REACTORS
330
582C
102
}
330
582C
100
AcDbScale
 70
     0
300
1/32" = 1'-0"
140
0.03125
141
12.0
290
     0
  0
SCALE
  5
5841
102
{ACAD_REACTORS
330
582C
102
}
330
582C
100
AcDbScale
 70
     0
300
1/16" = 1'-0"
140
0.0625
141
12.0
290
     0
  0
SCALE
  5
5842
102
{ACAD_REACTORS
330
582C
102
}
330
582C
100
AcDbScale
 70
     0
300
3/32" = 1'-0"
140
0.09375
141
12.0
290
     0
  0
SCALE
  5
5843
102
{ACAD_REACTORS
330
582C
102
}
330
582C
100
AcDbScale
 70
     0
300
1/8" = 1'-0"
140
0.125
141
12.0
290
     0
  0
SCALE
  5
5844
102
{ACAD_REACTORS
330
582C
102
}
330
582C
100
AcDbScale
 70
     0
300
3/16" = 1'-0"
140
0.1875
141
12.0
290
     0
  0
SCALE
  5
5845
102
{ACAD_REACTORS
330
582C
102
}
330
582C
100
AcDbScale
 70
     0
300
1/4" = 1'-0"
140
0.25
141
12.0
290
     0
  0
SCALE
  5
5846
102
{ACAD_REACTORS
330
582C
102
}
330
582C
100
AcDbScale
 70
     0
300
3/8" = 1'-0"
140
0.375
141
12.0
290
     0
  0
SCALE
  5
5847
102
{ACAD_REACTORS
330
582C
102
}
330
582C
100
AcDbScale
 70
     0
300
1/2" = 1'-0"
140
0.5
141
12.0
290
     0
  0
SCALE
  5
5848
102
{ACAD_REACTORS
330
582C
102
}
330
582C
100
AcDbScale
 70
     0
300
3/4" = 1'-0"
140
0.75
141
12.0
290
     0
  0
SCALE
  5
5849
102
{ACAD_REACTORS
330
582C
102
}
330
582C
100
AcDbScale
 70
     0
300
1" = 1'-0"
140
1.0
141
12.0
290
     0
  0
SCALE
  5
584A
102
{ACAD_REACTORS
330
582C
102
}
330
582C
100
AcDbScale
 70
     0
300
1-1/2" = 1'-0"
140
1.5
141
12.0
290
     0
  0
SCALE
  5
584B
102
{ACAD_REACTORS
330
582C
102
}
330
582C
100
AcDbScale
 70
     0
300
3" = 1'-0"
140
3.0
141
12.0
290
     0
  0
SCALE
  5
584C
102
{ACAD_REACTORS
330
582C
102
}
330
582C
100
AcDbScale
 70
     0
300
6" = 1'-0"
140
6.0
141
12.0
290
     0
  0
SCALE
  5
584D
102
{ACAD_REACTORS
330
582C
102
}
330
582C
100
AcDbScale
 70
     0
300
1'-0" = 1'-0"
140
12.0
141
12.0
290
     0
  0
DICTIONARYVAR
  5
B616
102
{ACAD_REACTORS
330
AB91
102
}
330
AB91
100
DictionaryVariables
280
     0
  1
1
  0
DICTIONARYVAR
  5
B615
102
{ACAD_REACTORS
330
AB91
102
}
330
AB91
100
DictionaryVariables
280
     0
  1
0
  0
DICTIONARYVAR
  5
B614
102
{ACAD_REACTORS
330
AB91
102
}
330
AB91
100
DictionaryVariables
280
     0
  1
127
  0
XRECORD
  5
B60D
102
{ACAD_REACTORS
330
B60C
102
}
330
B60C
100
AcDbXrecord
280
     1
  0
ENDSEC
  0
EOF
