  0
SECTION
  2
HEADER
  9
$ACADVER
  1
AC1015
  9
$ACADMAINTVER
 70
     6
  9
$DWGCODEPAGE
  3
ANSI_1252
  9
$INSBASE
 10
0.0
 20
0.0
 30
0.0
  9
$EXTMIN
 10
-110.1584238953064
 20
-164.9113203781439
 30
-0.0000000000000098
  9
$EXTMAX
 10
94.48232200800976
 20
83.11908170239666
 30
0.0000000000000055
  9
$LIMMIN
 10
-20.0
 20
-575.8499999999997
  9
$LIMMAX
 10
1785.35
 20
579.8499999999997
  9
$ORTHOMODE
 70
     1
  9
$REGENMODE
 70
     1
  9
$FILLMODE
 70
     1
  9
$QTEXTMODE
 70
     0
  9
$MIRRTEXT
 70
     1
  9
$LTSCALE
 40
10.0
  9
$ATTMODE
 70
     1
  9
$TEXTSIZE
 40
0.0
  9
$TRACEWID
 40
0.05
  9
$TEXTSTYLE
  7
Standard
  9
$CLAYER
  8
0
  9
$CELTYPE
  6
Continuous
  9
$CECOLOR
 62
   256
  9
$CELTSCALE
 40
1.0
  9
$DISPSILH
 70
     0
  9
$DIMSCALE
 40
1.0
  9
$DIMASZ
 40
1.25
  9
$DIMEXO
 40
0.0
  9
$DIMDLI
 40
0.38
  9
$DIMRND
 40
0.0
  9
$DIMDLE
 40
0.0
  9
$DIMEXE
 40
0.75
  9
$DIMTP
 40
0.0
  9
$DIMTM
 40
0.0
  9
$DIMTXT
 40
2.5
  9
$DIMCEN
 40
0.09
  9
$DIMTSZ
 40
0.0
  9
$DIMTOL
 70
     0
  9
$DIMLIM
 70
     0
  9
$DIMTIH
 70
     0
  9
$DIMTOH
 70
     0
  9
$DIMSE1
 70
     0
  9
$DIMSE2
 70
     0
  9
$DIMTAD
 70
     1
  9
$DIMZIN
 70
     0
  9
$DIMBLK
  1

  9
$DIMASO
 70
     1
  9
$DIMSHO
 70
     1
  9
$DIMPOST
  1

  9
$DIMAPOST
  1

  9
$DIMALT
 70
     0
  9
$DIMALTD
 70
     2
  9
$DIMALTF
 40
25.4
  9
$DIMLFAC
 40
1.0
  9
$DIMTOFL
 70
     0
  9
$DIMTVP
 40
0.0
  9
$DIMTIX
 70
     0
  9
$DIMSOXD
 70
     0
  9
$DIMSAH
 70
     0
  9
$DIMBLK1
  1

  9
$DIMBLK2
  1

  9
$DIMSTYLE
  2
Standard
  9
$DIMCLRD
 70
     7
  9
$DIMCLRE
 70
     7
  9
$DIMCLRT
 70
     7
  9
$DIMTFAC
 40
0.8
  9
$DIMGAP
 40
1.25
  9
$DIMJUST
 70
     0
  9
$DIMSD1
 70
     0
  9
$DIMSD2
 70
     0
  9
$DIMTOLJ
 70
     1
  9
$DIMTZIN
 70
     0
  9
$DIMALTZ
 70
     0
  9
$DIMALTTZ
 70
     0
  9
$DIMUPT
 70
     0
  9
$DIMDEC
 70
     2
  9
$DIMTDEC
 70
     4
  9
$DIMALTU
 70
     2
  9
$DIMALTTD
 70
     2
  9
$DIMTXSTY
  7
Standard
  9
$DIMAUNIT
 70
     0
  9
$DIMADEC
 70
     0
  9
$DIMALTRND
 40
0.0
  9
$DIMAZIN
 70
     0
  9
$DIMDSEP
 70
     0
  9
$DIMATFIT
 70
     3
  9
$DIMFRAC
 70
     0
  9
$DIMLDRBLK
  1

  9
$DIMLUNIT
 70
     2
  9
$DIMLWD
 70
     0
  9
$DIMLWE
 70
     0
  9
$DIMTMOVE
 70
     0
  9
$LUNITS
 70
     2
  9
$LUPREC
 70
     4
  9
$SKETCHINC
 40
0.1
  9
$FILLETRAD
 40
5.0
  9
$AUNITS
 70
     0
  9
$AUPREC
 70
     0
  9
$MENU
  1
acad
  9
$ELEVATION
 40
0.0
  9
$PELEVATION
 40
0.0
  9
$THICKNESS
 40
0.0
  9
$LIMCHECK
 70
     0
  9
$CHAMFERA
 40
0.0
  9
$CHAMFERB
 40
0.0
  9
$CHAMFERC
 40
0.0
  9
$CHAMFERD
 40
0.0
  9
$SKPOLY
 70
     0
  9
$TDCREATE
 40
2455301.802361111
  9
$TDUCREATE
 40
2455301.719027778
  9
$TDUPDATE
 40
2456051.415957327
  9
$TDUUPDATE
 40
2456051.332623993
  9
$TDINDWG
 40
0.1878967014
  9
$TDUSRTIMER
 40
2456051.332479653
  9
$USRTIMER
 70
     1
  9
$ANGBASE
 50
0.0
  9
$ANGDIR
 70
     0
  9
$PDMODE
 70
     0
  9
$PDSIZE
 40
0.0
  9
$PLINEWID
 40
0.0
  9
$SPLFRAME
 70
     0
  9
$SPLINETYPE
 70
     6
  9
$SPLINESEGS
 70
     8
  9
$HANDSEED
  5
CDC3
  9
$SURFTAB1
 70
     6
  9
$SURFTAB2
 70
     6
  9
$SURFTYPE
 70
     6
  9
$SURFU
 70
     6
  9
$SURFV
 70
     6
  9
$UCSBASE
  2

  9
$UCSNAME
  2

  9
$UCSORG
 10
0.0
 20
0.0
 30
0.0
  9
$UCSXDIR
 10
1.0
 20
0.0
 30
0.0
  9
$UCSYDIR
 10
0.0
 20
1.0
 30
0.0
  9
$UCSORTHOREF
  2

  9
$UCSORTHOVIEW
 70
     0
  9
$UCSORGTOP
 10
0.0
 20
0.0
 30
0.0
  9
$UCSORGBOTTOM
 10
0.0
 20
0.0
 30
0.0
  9
$UCSORGLEFT
 10
0.0
 20
0.0
 30
0.0
  9
$UCSORGRIGHT
 10
0.0
 20
0.0
 30
0.0
  9
$UCSORGFRONT
 10
0.0
 20
0.0
 30
0.0
  9
$UCSORGBACK
 10
0.0
 20
0.0
 30
0.0
  9
$PUCSBASE
  2

  9
$PUCSNAME
  2

  9
$PUCSORG
 10
0.0
 20
0.0
 30
0.0
  9
$PUCSXDIR
 10
1.0
 20
0.0
 30
0.0
  9
$PUCSYDIR
 10
0.0
 20
1.0
 30
0.0
  9
$PUCSORTHOREF
  2

  9
$PUCSORTHOVIEW
 70
     0
  9
$PUCSORGTOP
 10
0.0
 20
0.0
 30
0.0
  9
$PUCSORGBOTTOM
 10
0.0
 20
0.0
 30
0.0
  9
$PUCSORGLEFT
 10
0.0
 20
0.0
 30
0.0
  9
$PUCSORGRIGHT
 10
0.0
 20
0.0
 30
0.0
  9
$PUCSORGFRONT
 10
0.0
 20
0.0
 30
0.0
  9
$PUCSORGBACK
 10
0.0
 20
0.0
 30
0.0
  9
$USERI1
 70
     0
  9
$USERI2
 70
     0
  9
$USERI3
 70
     0
  9
$USERI4
 70
     0
  9
$USERI5
 70
     0
  9
$USERR1
 40
0.0
  9
$USERR2
 40
0.0
  9
$USERR3
 40
0.0
  9
$USERR4
 40
0.0
  9
$USERR5
 40
0.0
  9
$WORLDVIEW
 70
     1
  9
$SHADEDGE
 70
     3
  9
$SHADEDIF
 70
    70
  9
$TILEMODE
 70
     1
  9
$MAXACTVP
 70
    16
  9
$PINSBASE
 10
0.0
 20
0.0
 30
0.0
  9
$PLIMCHECK
 70
     0
  9
$PEXTMIN
 10
1.000000000000000E+20
 20
1.000000000000000E+20
 30
1.000000000000000E+20
  9
$PEXTMAX
 10
-1.000000000000000E+20
 20
-1.000000000000000E+20
 30
-1.000000000000000E+20
  9
$PLIMMIN
 10
0.0
 20
0.0
  9
$PLIMMAX
 10
12.0
 20
9.0
  9
$UNITMODE
 70
     0
  9
$VISRETAIN
 70
     0
  9
$PLINEGEN
 70
     1
  9
$PSLTSCALE
 70
     0
  9
$TREEDEPTH
 70
  3020
  9
$CMLSTYLE
  2
Standard
  9
$CMLJUST
 70
     0
  9
$CMLSCALE
 40
1.0
  9
$PROXYGRAPHICS
 70
     0
  9
$MEASUREMENT
 70
     1
  9
$CELWEIGHT
370
     0
  9
$ENDCAPS
280
     0
  9
$JOINSTYLE
280
     0
  9
$LWDISPLAY
290
     0
  9
$INSUNITS
 70
     0
  9
$HYPERLINKBASE
  1

  9
$STYLESHEET
  1

  9
$XEDIT
290
     1
  9
$CEPSNTYPE
380
     0
  9
$PSTYLEMODE
290
     1
  9
$FINGERPRINTGUID
  2

  9
$VERSIONGUID
  2
{8FBE37C9-D84A-4822-A492-321741B7DD91}
  9
$EXTNAMES
290
     1
  9
$PSVPSCALE
 40
0.0
  9
$OLESTARTUP
290
     0
  0
ENDSEC
  0
SECTION
  2
CLASSES
  0
CLASS
  1
IMAGE
  2
AcDbRasterImage
  3
ISM
 90
      127
280
     0
281
     1
  0
CLASS
  1
DICTIONARYVAR
  2
AcDbDictionaryVar
  3
ObjectDBX Classes
 90
        0
280
     0
281
     0
  0
CLASS
  1
RASTERVARIABLES
  2
AcDbRasterVariables
  3
ISM
 90
        0
280
     0
281
     0
  0
CLASS
  1
IMAGEDEF
  2
AcDbRasterImageDef
  3
ISM
 90
        0
280
     0
281
     0
  0
CLASS
  1
IMAGEDEF_REACTOR
  2
AcDbRasterImageDefReactor
  3
ISM
 90
        1
280
     0
281
     0
  0
CLASS
  1
IDBUFFER
  2
AcDbIdBuffer
  3
ObjectDBX Classes
 90
        0
280
     0
281
     0
  0
CLASS
  1
SPATIAL_FILTER
  2
AcDbSpatialFilter
  3
ObjectDBX Classes
 90
        0
280
     0
281
     0
  0
CLASS
  1
SORTENTSTABLE
  2
AcDbSortentsTable
  3
ObjectDBX Classes
 90
        0
280
     0
281
     0
  0
CLASS
  1
LAYER_INDEX
  2
AcDbLayerIndex
  3
ObjectDBX Classes
 90
        0
280
     0
281
     0
  0
CLASS
  1
SPATIAL_INDEX
  2
AcDbSpatialIndex
  3
AutoCAD 2000
 90
        0
280
     0
281
     0
  0
CLASS
  1
OBJECT_PTR
  2
CAseDLPNTableRecord
  3
ASE-LPNTableRecord
 90
        1
280
     0
281
     0
  0
CLASS
  1
LAYOUT
  2
AcDbLayout
  3
ObjectDBX Classes
 90
        0
280
     0
281
     0
  0
CLASS
  1
PLOTSETTINGS
  2
AcDbPlotSettings
  3
ObjectDBX Classes
 90
        0
280
     0
281
     0
  0
CLASS
  1
ACDBDICTIONARYWDFLT
  2
AcDbDictionaryWithDefault
  3
ObjectDBX Classes
 90
        0
280
     0
281
     0
  0
CLASS
  1
ACDBPLACEHOLDER
  2
AcDbPlaceHolder
  3
ObjectDBX Classes
 90
        0
280
     0
281
     0
  0
CLASS
  1
VBA_PROJECT
  2
AcDbVbaProject
  3
ObjectDBX Classes
 90
        0
280
     0
281
     0
  0
CLASS
  1
WIPEOUT
  2
AcDbWipeout
  3
WipeOut|AutoCAD Express Tool|expresstools@autodesk.com
 90
      127
280
     0
281
     1
  0
CLASS
  1
WIPEOUTVARIABLES
  2
AcDbWipeoutVariables
  3
WipeOut|AutoCAD Express Tool|expresstools@autodesk.com
 90
        0
280
     0
281
     0
  0
CLASS
  1
RTEXT
  2
RText
  3
RText|AutoCAD Express Tool|expresstools@autodesk.com
 90
        0
280
     0
281
     1
  0
CLASS
  1
ARCALIGNEDTEXT
  2
AcDbArcAlignedText
  3
ATEXT|AutoCAD Express Tool|expresstools@autodesk.com
 90
        0
280
     0
281
     1
  0
CLASS
  1
MATERIAL
  2
AcDbMaterial
  3
ObjectDBX Classes
 90
     1153
280
     0
281
     0
  0
CLASS
  1
VISUALSTYLE
  2
AcDbVisualStyle
  3
ObjectDBX Classes
 90
     4095
280
     0
281
     0
  0
CLASS
  1
TABLESTYLE
  2
AcDbTableStyle
  3
ObjectDBX Classes
 90
     4095
280
     0
281
     0
  0
CLASS
  1
SCALE
  2
AcDbScale
  3
ObjectDBX Classes
 90
     1153
280
     0
281
     0
  0
CLASS
  1
MLEADERSTYLE
  2
AcDbMLeaderStyle
  3
ACDB_MLEADERSTYLE_CLASS
 90
     4095
280
     0
281
     0
  0
CLASS
  1
CELLSTYLEMAP
  2
AcDbCellStyleMap
  3
ObjectDBX Classes
 90
     1152
280
     0
281
     0
  0
ENDSEC
  0
SECTION
  2
TABLES
  0
TABLE
  2
VPORT
  5
7
330
0
100
AcDbSymbolTable
 70
     1
  0
VPORT
  5
15
330
7
100
AcDbSymbolTableRecord
100
AcDbViewportTableRecord
  2
*ACTIVE
 70
     0
 10
0.0
 20
0.0
 11
1.0
 21
1.0
 12
-34.8264419360044
 22
18.48160422842404
 13
0.0
 23
0.0
 14
1.0
 24
1.0
 15
0.0
 25
0.0
 16
0.0
 26
0.0
 36
1.0
 17
0.0
 27
0.0
 37
0.0
 40
156.7634017343791
 41
2.274173806609547
 42
50.0
 43
0.0
 44
0.0
 50
0.0
 51
0.0
 71
    16
 72
   100
 73
     1
 74
     1
 75
     0
 76
     0
 77
     0
 78
     0
281
     0
 65
     0
110
0.0
120
0.0
130
0.0
111
1.0
121
0.0
131
0.0
112
0.0
122
1.0
132
0.0
 79
     0
146
0.0
  0
ENDTAB
  0
TABLE
  2
LTYPE
  5
4
330
0
100
AcDbSymbolTable
 70
     5
  0
LTYPE
  5
11
330
4
100
AcDbSymbolTableRecord
100
AcDbLinetypeTableRecord
  2
ByBlock
 70
     0
  3

 72
    65
 73
     0
 40
0.0
  0
LTYPE
  5
12
330
4
100
AcDbSymbolTableRecord
100
AcDbLinetypeTableRecord
  2
ByLayer
 70
     0
  3

 72
    65
 73
     0
 40
0.0
  0
LTYPE
  5
13
330
4
100
AcDbSymbolTableRecord
100
AcDbLinetypeTableRecord
  2
Continuous
 70
     0
  3
Solid line
 72
    65
 73
     0
 40
0.0
  0
LTYPE
  5
108
330
4
100
AcDbSymbolTableRecord
100
AcDbLinetypeTableRecord
  2
CENTER
 70
     0
  3
____ _ ____ _ ____ _ ____ _ ____ _ ____ _ ____
 72
    65
 73
     4
 40
2.0
 49
1.25
 74
     0
 49
-0.25
 74
     0
 49
0.25
 74
     0
 49
-0.25
 74
     0
  0
LTYPE
  5
C2C3
330
4
100
AcDbSymbolTableRecord
100
AcDbLinetypeTableRecord
  2
HIDDEN
 70
     0
  3
Hidden __ __ __ __ __ __ __ __ __ __ __ __ __ __
 72
    65
 73
     2
 40
1.905
 49
1.27
 74
     0
 49
-0.635
 74
     0
  0
LTYPE
  5
C432
330
4
100
AcDbSymbolTableRecord
100
AcDbLinetypeTableRecord
  2
_..__..__..__.._
 70
     0
  3

 72
    65
 73
     2
 40
1.8
 49
0.8999999999999999
 74
     0
 49
-0.8999999999999999
 74
     0
  0
LTYPE
  5
C433
330
4
100
AcDbSymbolTableRecord
100
AcDbLinetypeTableRecord
  2
________________
 70
     0
  3

 72
    65
 73
     0
 40
0.0
  0
ENDTAB
  0
TABLE
  2
LAYER
  5
2
330
0
100
AcDbSymbolTable
 70
     2
  0
LAYER
  5
14
102
{ACAD_XDICTIONARY
360
5858
102
}
330
2
100
AcDbSymbolTableRecord
100
AcDbLayerTableRecord
  2
0
 70
     0
 62
     7
  6
Continuous
370
    -3
390
1D
  0
LAYER
  5
B652
330
2
100
AcDbSymbolTableRecord
100
AcDbLayerTableRecord
  2
Defpoints
 70
     0
 62
     7
  6
Continuous
290
     0
370
    -3
390
1D
  0
ENDTAB
  0
TABLE
  2
STYLE
  5
3
330
0
100
AcDbSymbolTable
 70
     1
  0
STYLE
  5
17
330
3
100
AcDbSymbolTableRecord
100
AcDbTextStyleTableRecord
  2
Standard
 70
     0
 40
0.0
 41
1.0
 50
0.0
 71
     0
 42
0.0
  3
I011000D_0.TTF
  4

1001
ACAD
1000
IsonormD
1071
        0
  0
ENDTAB
  0
TABLE
  2
VIEW
  5
5
330
0
100
AcDbSymbolTable
 70
     0
  0
ENDTAB
  0
TABLE
  2
UCS
  5
6
330
0
100
AcDbSymbolTable
 70
     0
  0
ENDTAB
  0
TABLE
  2
APPID
  5
8
330
0
100
AcDbSymbolTable
 70
     6
  0
APPID
  5
16
330
8
100
AcDbSymbolTableRecord
100
AcDbRegAppTableRecord
  2
ACAD
 70
     0
  0
APPID
  5
26
330
8
100
AcDbSymbolTableRecord
100
AcDbRegAppTableRecord
  2
TopSolid'Draft
 70
     0
  0
APPID
  5
5850
330
8
100
AcDbSymbolTableRecord
100
AcDbRegAppTableRecord
  2
ACAD_MLEADERVER
 70
     0
  0
APPID
  5
5856
330
8
100
AcDbSymbolTableRecord
100
AcDbRegAppTableRecord
  2
DCO15
 70
     0
  0
APPID
  5
B62D
330
8
100
AcDbSymbolTableRecord
100
AcDbRegAppTableRecord
  2
ACAD_EXEMPT_FROM_CAD_STANDARDS
 70
     0
  0
APPID
  5
B915
330
8
100
AcDbSymbolTableRecord
100
AcDbRegAppTableRecord
  2
ACAD_DSTYLE_DIMRADIAL_EXTENSION
 70
     0
  0
ENDTAB
  0
TABLE
  2
DIMSTYLE
  5
9
330
0
100
AcDbSymbolTable
 70
     2
100
AcDbDimStyleTable
  0
DIMSTYLE
105
18
330
9
100
AcDbSymbolTableRecord
100
AcDbDimStyleTableRecord
  2
Standard
 70
     0
 41
1.25
 42
0.0
 44
0.75
 73
     0
 74
     0
 77
     1
140
2.5
146
0.8
147
1.25
176
     7
177
     7
271
     2
178
     7
271
     2
340
17
  0
DIMSTYLE
105
C01C
330
9
100
AcDbSymbolTableRecord
100
AcDbDimStyleTableRecord
  2
ISO-25
 70
     0
 41
2.5
 42
0.625
 43
3.75
 44
1.25
 73
     0
 74
     0
 77
     1
 78
     8
140
2.5
141
2.5
143
0.03937007874016
147
0.625
171
     3
172
     1
178
     0
271
     2
272
     2
274
     3
278
    44
283
     0
284
     8
340
17
  0
ENDTAB
  0
TABLE
  2
BLOCK_RECORD
  5
1
330
0
100
AcDbSymbolTable
 70
     0
  0
BLOCK_RECORD
  5
A
102
{ACAD_XDICTIONARY
360
5864
102
}
330
1
100
AcDbSymbolTableRecord
100
AcDbBlockTableRecord
  2
*MODEL_SPACE
340
20
  0
BLOCK_RECORD
  5
B
330
1
100
AcDbSymbolTableRecord
100
AcDbBlockTableRecord
  2
*PAPER_SPACE
340
21
  0
ENDTAB
  0
ENDSEC
  0
SECTION
  2
BLOCKS
  0
BLOCK
  5
D
330
A
100
AcDbEntity
  8
0
100
AcDbBlockBegin
  2
*MODEL_SPACE
 70
     0
 10
0.0
 20
0.0
 30
0.0
  3
*MODEL_SPACE
  1

  0
ENDBLK
  5
E
330
A
100
AcDbEntity
  8
0
100
AcDbBlockEnd
  0
BLOCK
  5
F
330
B
100
AcDbEntity
 67
     1
  8
0
100
AcDbBlockBegin
  2
*PAPER_SPACE
 70
     0
 10
0.0
 20
0.0
 30
0.0
  3
*PAPER_SPACE
  1

  0
ENDBLK
  5
10
330
B
100
AcDbEntity
 67
     1
  8
0
100
AcDbBlockEnd
  0
ENDSEC
  0
SECTION
  2
ENTITIES
  0
TEXT
  5
ABEF
330
A
100
AcDbEntity
  8
0
  6
Continuous
 62
     7
370
     0
100
AcDbText
 10
-45.25261631727493
 20
72.81641338957576
 30
0.0
 40
10.0
  1
A70
100
AcDbText
  0
LINE
  5
CBDE
330
A
100
AcDbEntity
  8
0
  6
Continuous
 62
     7
370
    15
100
AcDbLine
 10
24.0000009077061
 20
29.82523053781477
 30
0.0
 11
-23.99999950952642
 21
29.82523053781477
 31
0.0
  0
ARC
  5
CBDF
330
A
100
AcDbEntity
  8
0
  6
Continuous
 62
     7
370
    15
100
AcDbCircle
 10
-23.0
 20
59.82523047853191
 30
0.0
 40
2.0
100
AcDbArc
 50
90.0
 51
180.0
  0
LINE
  5
CBE0
330
A
100
AcDbEntity
  8
0
  6
Continuous
 62
     7
370
    15
100
AcDbLine
 10
-22.99999934561365
 20
61.82523112641064
 30
0.0
 11
22.99999981247075
 21
61.82523112641064
 31
0.0
  0
LINE
  5
CBE1
330
A
100
AcDbEntity
  8
0
  6
Continuous
 62
     7
370
    15
100
AcDbLine
 10
24.99999920897372
 20
59.82523079858509
 30
0.0
 11
24.99999920897372
 21
29.82523053781477
 31
0.0
  0
LINE
  5
CBE2
330
A
100
AcDbEntity
  8
0
  6
Continuous
 62
     7
370
    15
100
AcDbLine
 10
24.99999920897372
 20
29.82523053781477
 30
0.0
 11
24.0000009077061
 21
29.82523053781477
 31
0.0
  0
ARC
  5
CBE3
330
A
100
AcDbEntity
  8
0
  6
Continuous
 62
     7
370
    15
100
AcDbCircle
 10
23.00000000000003
 20
59.82523047853191
 30
0.0
 40
2.0
100
AcDbArc
 50
0.0
 51
90.0
  0
LINE
  5
CBE4
330
A
100
AcDbEntity
  8
0
  6
Continuous
 62
     7
370
    15
100
AcDbLine
 10
-25.00000153608434
 20
29.82523053781477
 30
0.0
 11
-25.00000153608434
 21
59.82523079858509
 31
0.0
  0
LINE
  5
CBE5
330
A
100
AcDbEntity
  8
0
  6
Continuous
 62
     7
370
    15
100
AcDbLine
 10
-23.99999950952642
 20
29.82523053781477
 30
0.0
 11
-25.00000153608434
 21
29.82523053781477
 31
0.0
  0
LINE
  5
CC57
330
A
100
AcDbEntity
  8
0
  6
CENTER
 62
     1
100
AcDbLine
 10
-13.50000058241002
 20
29.82523053781477
 30
0.0
 11
-13.50000058241002
 21
37.39104460821834
 31
0.0
  0
LINE
  5
CC58
330
A
100
AcDbEntity
  8
0
  6
CENTER
 62
     1
100
AcDbLine
 10
13.50000011794455
 20
37.75044152410117
 30
0.0
 11
13.50000011794455
 21
29.82523053781477
 31
0.0
  0
ARC
  5
CC59
330
A
100
AcDbEntity
  8
0
  6
CENTER
 62
     1
100
AcDbCircle
 10
12.50000000000003
 20
37.75044168031015
 30
0.0
 40
1.00000000000002
100
AcDbArc
 50
0.0
 51
31.26386231034153
  0
ARC
  5
CC5A
330
A
100
AcDbEntity
  8
0
  6
CENTER
 62
     1
100
AcDbCircle
 10
0.1055981843159941
 20
30.22523047853198
 30
0.0
 40
15.5
100
AcDbArc
 50
31.26386231034202
 51
150.383378324409
  0
ARC
  5
CC5B
330
A
100
AcDbEntity
  8
0
  6
CENTER
 62
     1
100
AcDbCircle
 10
-12.49999999999994
 20
37.39104476691332
 30
0.0
 40
1.000000000000019
100
AcDbArc
 50
150.3833783244103
 51
180.0
  0
LINE
  5
CC5C
330
A
100
AcDbEntity
  8
0
  6
CENTER
 62
     1
100
AcDbLine
 10
-5.149999865664171
 20
44.22523046507848
 30
0.0
 11
5.150000099690629
 21
44.22523046507848
 31
0.0
  0
LINE
  5
CC5D
330
A
100
AcDbEntity
  8
0
  6
CENTER
 62
     1
100
AcDbLine
 10
-2.800000132394956
 20
41.87523055718628
 30
0.0
 11
2.800000133590771
 21
41.87523055718628
 31
0.0
  0
LINE
  5
CC60
330
A
100
AcDbEntity
  8
0
  6
CENTER
 62
     1
100
AcDbLine
 10
-5.149999865664171
 20
44.80855888816875
 30
0.0
 11
-5.149999865664171
 21
44.22523046507848
 31
0.0
  0
LINE
  5
CC61
330
A
100
AcDbEntity
  8
0
  6
CENTER
 62
     1
100
AcDbLine
 10
5.150000099690629
 20
44.22523046507848
 30
0.0
 11
5.150000099690629
 21
44.8814240675594
 31
0.0
  0
LINE
  5
CC62
330
A
100
AcDbEntity
  8
0
  6
CENTER
 62
     1
100
AcDbLine
 10
-5.149999865664171
 20
44.22523046507848
 30
0.0
 11
-2.800000132394956
 21
41.87523055718628
 31
0.0
  0
LINE
  5
CC63
330
A
100
AcDbEntity
  8
0
  6
CENTER
 62
     1
100
AcDbLine
 10
2.800000133590771
 20
41.87523055718628
 30
0.0
 11
5.150000099690629
 21
44.22523046507848
 31
0.0
  0
LINE
  5
CC64
330
A
100
AcDbEntity
  8
0
  6
CENTER
 62
     1
100
AcDbLine
 10
-2.800000132394956
 20
41.87523055718628
 30
0.0
 11
-2.800000132394956
 21
29.82523053781477
 31
0.0
  0
LINE
  5
CC65
330
A
100
AcDbEntity
  8
0
  6
CENTER
 62
     1
100
AcDbLine
 10
2.800000133590771
 20
29.82523053781477
 30
0.0
 11
2.800000133590771
 21
41.87523055718628
 31
0.0
  0
LINE
  5
CC81
330
A
100
AcDbEntity
  8
0
  6
Continuous
 62
     7
370
    15
100
AcDbLine
 10
-70.12600253335427
 20
59.82523079858509
 30
0.0
 11
-70.12600253335427
 21
60.82523096249786
 31
0.0
  0
ARC
  5
CC82
330
A
100
AcDbEntity
  8
0
  6
Continuous
 62
     7
370
    15
100
AcDbCircle
 10
-69.12600249143512
 20
60.82523047853196
 30
0.0
 40
1.000000000000007
100
AcDbArc
 50
90.0
 51
180.0000000000008
  0
LINE
  5
CC83
330
A
100
AcDbEntity
  8
0
  6
Continuous
 62
     7
370
    15
100
AcDbLine
 10
-69.1260023694415
 20
61.82523112641064
 30
0.0
 11
-64.62600256315659
 21
61.82523112641064
 31
0.0
  0
LINE
  5
CC84
330
A
100
AcDbEntity
  8
0
  6
Continuous
 62
     7
370
    15
100
AcDbLine
 10
-63.63299290648888
 20
60.32523088054148
 30
0.0
 11
-63.62600239924382
 21
59.82523079858509
 31
0.0
  0
ARC
  5
CC85
330
A
100
AcDbEntity
  8
0
  6
Continuous
 62
     7
370
    15
100
AcDbCircle
 10
-64.62600249143512
 20
60.82523047853196
 30
0.0
 40
1.000000000000007
100
AcDbArc
 50
0.0000000000008142
 51
90.0
  0
LINE
  5
CC86
330
A
100
AcDbEntity
  8
0
  6
Continuous
 62
     7
370
    15
100
AcDbLine
 10
-63.62600239924382
 20
60.82523096249786
 30
0.0
 11
-63.63299290648888
 21
60.82523096249786
 31
0.0
  0
SPLINE
  5
CC87
330
A
100
AcDbEntity
  8
0
  6
Continuous
 62
     7
370
    15
100
AcDbSpline
210
0.0
220
0.0
230
1.0
 70
     8
 71
     3
 72
    12
 73
     8
 74
     0
 42
0.00000001
 43
0.00000001
 40
0.0
 40
0.0
 40
0.0
 40
0.0
 40
0.2147381448606057
 40
0.4295108937667781
 40
0.6432328649743503
 40
0.8562193281035801
 40
1.0
 40
1.0
 40
1.0
 40
1.0
 10
-63.63299290648888
 20
60.82523096249786
 30
0.0
 10
-63.6361729631011
 20
60.81971283681465
 30
0.0
 10
-63.64253358877676
 20
60.80867569622813
 30
0.0
 10
-63.64851221382281
 20
60.72258300159792
 30
0.0
 10
-63.64723374638353
 20
60.59613642690281
 30
0.0
 10
-63.64026519548199
 20
60.45578946953835
 30
0.0
 10
-63.635081847012
 20
60.36273339556248
 30
0.0
 10
-63.63299290648888
 20
60.32523088054148
 30
0.0
  0
LINE
  5
CC88
330
A
100
AcDbEntity
  8
0
  6
Continuous
 62
     7
370
    15
100
AcDbLine
 10
-64.6260025631566
 20
29.82523053781477
 30
0.0
 11
-69.12600236944151
 21
29.82523053781477
 31
0.0
  0
LINE
  5
CC89
330
A
100
AcDbEntity
  8
0
  6
Continuous
 62
     7
370
    15
100
AcDbLine
 10
-63.62600239924383
 20
29.82523053781477
 30
0.0
 11
-64.6260025631566
 21
29.82523053781477
 31
0.0
  0
LINE
  5
CC8A
330
A
100
AcDbEntity
  8
0
  6
Continuous
 62
     7
370
    15
100
AcDbLine
 10
-63.62600239924382
 20
59.82523079858509
 30
0.0
 11
-63.62600239924382
 21
55.825230142934
 31
0.0
  0
LINE
  5
CC8B
330
A
100
AcDbEntity
  8
0
  6
Continuous
 62
     7
370
    15
100
AcDbLine
 10
-63.62600239924382
 20
55.825230142934
 30
0.0
 11
-63.62600239924383
 21
29.82523053781477
 31
0.0
  0
LINE
  5
CC8C
330
A
100
AcDbEntity
  8
0
  6
Continuous
 62
     7
370
    15
100
AcDbLine
 10
-70.12600253335428
 20
29.82523053781477
 30
0.0
 11
-70.12600253335427
 21
59.82523079858509
 31
0.0
  0
LINE
  5
CC8D
330
A
100
AcDbEntity
  8
0
  6
Continuous
 62
     7
370
    15
100
AcDbLine
 10
-69.12600236944151
 20
29.82523053781477
 30
0.0
 11
-70.12600253335428
 21
29.82523053781477
 31
0.0
  0
LINE
  5
CC8E
330
A
100
AcDbEntity
  8
0
  6
Continuous
 62
     7
370
    15
100
AcDbLine
 10
-45.62600224278157
 20
60.82523096249786
 30
0.0
 11
-45.62600224278157
 21
59.82523079858509
 31
0.0
  0
ARC
  5
CC8F
330
A
100
AcDbEntity
  8
0
  6
Continuous
 62
     7
370
    15
100
AcDbCircle
 10
-46.62600249143514
 20
60.82523047853196
 30
0.0
 40
1.000000000000007
100
AcDbArc
 50
0.0
 51
90.0
  0
LINE
  5
CC90
330
A
100
AcDbEntity
  8
0
  6
Continuous
 62
     7
370
    15
100
AcDbLine
 10
-45.62600224278157
 20
59.82523079858509
 30
0.0
 11
-45.6260022427816
 21
29.82523053781477
 31
0.0
  0
LINE
  5
CC91
330
A
100
AcDbEntity
  8
0
  6
Continuous
 62
     7
370
    15
100
AcDbLine
 10
-45.6260022427816
 20
29.82523053781477
 30
0.0
 11
-46.62600240669437
 21
29.82523053781477
 31
0.0
  0
LINE
  5
CC92
330
A
100
AcDbEntity
  8
0
  6
Continuous
 62
     7
370
    15
100
AcDbLine
 10
-52.11901186964695
 20
60.82523096249786
 30
0.0
 11
-52.12600237689202
 21
60.82523096249786
 31
0.0
  0
ARC
  5
CC93
330
A
100
AcDbEntity
  8
0
  6
Continuous
 62
     7
370
    15
100
AcDbCircle
 10
-51.12600249143514
 20
60.82523047853196
 30
0.0
 40
1.000000000000007
100
AcDbArc
 50
90.0
 51
180.0000000000008
  0
LINE
  5
CC94
330
A
100
AcDbEntity
  8
0
  6
Continuous
 62
     7
370
    15
100
AcDbLine
 10
-52.12600237689202
 20
59.82523079858509
 30
0.0
 11
-52.11901186964695
 21
60.32523088054148
 31
0.0
  0
SPLINE
  5
CC95
330
A
100
AcDbEntity
  8
0
  6
Continuous
 62
     7
370
    15
100
AcDbSpline
210
0.0
220
0.0
230
1.0
 70
     8
 71
     3
 72
    12
 73
     8
 74
     0
 42
0.00000001
 43
0.00000001
 40
0.0
 40
0.0
 40
0.0
 40
0.0
 40
0.2147368045045227
 40
0.4295094351459615
 40
0.6432312697658994
 40
0.8562185063421535
 40
1.0
 40
1.0
 40
1.0
 40
1.0
 10
-52.11901186964695
 20
60.32523088054148
 30
0.0
 10
-52.11583205991025
 20
60.38141066455923
 30
0.0
 10
-52.10947190992539
 20
60.49377960548559
 30
0.0
 10
-52.10349236456324
 20
60.64350540716031
 30
0.0
 10
-52.10477109260904
 20
60.7562939652023
 30
0.0
 10
-52.11173958142189
 20
60.81650510758995
 30
0.0
 10
-52.11692292749211
 20
60.82272448783814
 30
0.0
 10
-52.11901186964695
 20
60.82523096249786
 30
0.0
  0
LINE
  5
CC96
330
A
100
AcDbEntity
  8
0
  6
Continuous
 62
     7
370
    15
100
AcDbLine
 10
-51.12600267864053
 20
61.82523112641064
 30
0.0
 11
-46.62600240669434
 21
61.82523112641064
 31
0.0
  0
LINE
  5
CC97
330
A
100
AcDbEntity
  8
0
  6
Continuous
 62
     7
370
    15
100
AcDbLine
 10
-51.12600267864056
 20
29.82523053781477
 30
0.0
 11
-46.62600240669437
 21
29.82523053781477
 31
0.0
  0
LINE
  5
CC98
330
A
100
AcDbEntity
  8
0
  6
Continuous
 62
     7
370
    15
100
AcDbLine
 10
-52.12600237689205
 20
29.82523053781477
 30
0.0
 11
-52.12600237689202
 21
55.825230142934
 31
0.0
  0
LINE
  5
CC99
330
A
100
AcDbEntity
  8
0
  6
Continuous
 62
     7
370
    15
100
AcDbLine
 10
-52.12600237689202
 20
55.825230142934
 30
0.0
 11
-52.12600237689202
 21
59.82523079858509
 31
0.0
  0
LINE
  5
CC9A
330
A
100
AcDbEntity
  8
0
  6
Continuous
 62
     7
370
    15
100
AcDbLine
 10
-51.12600267864056
 20
29.82523053781477
 30
0.0
 11
-52.12600237689205
 21
29.82523053781477
 31
0.0
  0
LINE
  5
CC9B
330
A
100
AcDbEntity
  8
0
  6
Continuous
 62
     7
370
    15
100
AcDbLine
 10
-52.12600237689205
 20
29.82523053781477
 30
0.0
 11
-52.87600249982663
 21
29.82523053781477
 31
0.0
  0
LINE
  5
CC9C
330
A
100
AcDbEntity
  8
0
  6
Continuous
 62
     7
370
    15
100
AcDbLine
 10
-52.8760024998266
 20
31.82523086564031
 30
0.0
 11
-52.87600249982663
 21
29.82523053781477
 31
0.0
  0
LINE
  5
CC9D
330
A
100
AcDbEntity
  8
0
  6
Continuous
 62
     7
370
    15
100
AcDbLine
 10
-52.12600237689202
 20
56.32523022489038
 30
0.0
 11
-52.8760024998266
 21
56.32523022489038
 31
0.0
  0
LINE
  5
CC9E
330
A
100
AcDbEntity
  8
0
  6
Continuous
 62
     7
370
    15
100
AcDbLine
 10
-52.8760024998266
 20
56.32523022489038
 30
0.0
 11
-52.8760024998266
 21
54.32523082838741
 31
0.0
  0
LINE
  5
CC9F
330
A
100
AcDbEntity
  8
0
  6
Continuous
 62
     7
370
    15
100
AcDbLine
 10
-52.8760024998266
 20
54.32523082838741
 30
0.0
 11
-52.8760024998266
 21
31.82523086564031
 31
0.0
  0
LINE
  5
CCA0
330
A
100
AcDbEntity
  8
0
  6
Continuous
 62
     7
370
    15
100
AcDbLine
 10
-53.87600243090873
 20
54.32523082838741
 30
0.0
 11
-53.87600243090874
 21
31.82523086564031
 31
0.0
  0
LINE
  5
CCA1
330
A
100
AcDbEntity
  8
0
  6
Continuous
 62
     7
370
    15
100
AcDbLine
 10
-52.8760024998266
 20
56.32523022489038
 30
0.0
 11
-53.87600243090873
 21
56.32523022489038
 31
0.0
  0
LINE
  5
CCA2
330
A
100
AcDbEntity
  8
0
  6
Continuous
 62
     7
370
    15
100
AcDbLine
 10
-53.87600243090873
 20
56.32523022489038
 30
0.0
 11
-53.87600243090873
 21
54.32523082838741
 31
0.0
  0
LINE
  5
CCA3
330
A
100
AcDbEntity
  8
0
  6
Continuous
 62
     7
370
    15
100
AcDbLine
 10
-52.87600249982663
 20
29.82523053781477
 30
0.0
 11
-53.87600243090874
 21
29.82523053781477
 31
0.0
  0
LINE
  5
CCA4
330
A
100
AcDbEntity
  8
0
  6
Continuous
 62
     7
370
    15
100
AcDbLine
 10
-53.87600243090874
 20
31.82523086564031
 30
0.0
 11
-53.87600243090874
 21
29.82523053781477
 31
0.0
  0
LINE
  5
CCA5
330
A
100
AcDbEntity
  8
0
  6
Continuous
 62
     7
370
    15
100
AcDbLine
 10
-62.87600227630924
 20
56.32523022489038
 30
0.0
 11
-63.62600239924382
 21
56.32523022489038
 31
0.0
  0
LINE
  5
CCA6
330
A
100
AcDbEntity
  8
0
  6
Continuous
 62
     7
370
    15
100
AcDbLine
 10
-62.87600227630924
 20
56.32523022489038
 30
0.0
 11
-62.87600227630924
 21
54.32523082838741
 31
0.0
  0
LINE
  5
CCA7
330
A
100
AcDbEntity
  8
0
  6
Continuous
 62
     7
370
    15
100
AcDbLine
 10
-62.87600227630924
 20
54.32523082838741
 30
0.0
 11
-62.87600227630925
 21
31.82523086564031
 31
0.0
  0
LINE
  5
CCA8
330
A
100
AcDbEntity
  8
0
  6
Continuous
 62
     7
370
    15
100
AcDbLine
 10
-62.87600227630925
 20
29.82523053781477
 30
0.0
 11
-63.62600239924383
 21
29.82523053781477
 31
0.0
  0
LINE
  5
CCA9
330
A
100
AcDbEntity
  8
0
  6
Continuous
 62
     7
370
    15
100
AcDbLine
 10
-62.87600227630925
 20
31.82523086564031
 30
0.0
 11
-62.87600227630925
 21
29.82523053781477
 31
0.0
  0
LINE
  5
CCAA
330
A
100
AcDbEntity
  8
0
  6
Continuous
 62
     7
370
    15
100
AcDbLine
 10
-61.87600257805772
 20
54.32523082838741
 30
0.0
 11
-61.87600257805774
 21
31.82523086564031
 31
0.0
  0
LINE
  5
CCAB
330
A
100
AcDbEntity
  8
0
  6
Continuous
 62
     7
370
    15
100
AcDbLine
 10
-61.87600257805774
 20
29.82523053781477
 30
0.0
 11
-62.87600227630925
 21
29.82523053781477
 31
0.0
  0
LINE
  5
CCAC
330
A
100
AcDbEntity
  8
0
  6
Continuous
 62
     7
370
    15
100
AcDbLine
 10
-61.87600257805774
 20
31.82523086564031
 30
0.0
 11
-61.87600257805774
 21
29.82523053781477
 31
0.0
  0
LINE
  5
CCAD
330
A
100
AcDbEntity
  8
0
  6
Continuous
 62
     7
370
    15
100
AcDbLine
 10
-61.87600257805772
 20
56.32523022489038
 30
0.0
 11
-62.87600227630924
 21
56.32523022489038
 31
0.0
  0
LINE
  5
CCAE
330
A
100
AcDbEntity
  8
0
  6
Continuous
 62
     7
370
    15
100
AcDbLine
 10
-61.87600257805772
 20
56.32523022489038
 30
0.0
 11
-61.87600257805772
 21
54.32523082838741
 31
0.0
  0
LINE
  5
CCAF
330
A
100
AcDbEntity
  8
0
  6
Continuous
 62
     7
370
    15
100
AcDbLine
 10
-53.87600243090874
 20
29.82523053781477
 30
0.0
 11
-61.87600257805774
 21
29.82523053781477
 31
0.0
  0
SPLINE
  5
CCB0
330
A
100
AcDbEntity
  8
0
  6
Continuous
 62
     7
370
    15
100
AcDbSpline
210
0.0
220
0.0
230
1.0
 70
     8
 71
     3
 72
    13
 73
     9
 74
     0
 42
0.00000001
 43
0.00000001
 40
0.0
 40
0.0
 40
0.0
 40
0.0
 40
0.1790243511510767
 40
0.3634317849618797
 40
0.5424052876986729
 40
0.7262512021436448
 40
0.9112987327789925
 40
1.0
 40
1.0
 40
1.0
 40
1.0
 10
-57.87600250448325
 20
44.8814240675594
 30
0.0
 10
-58.15286063374135
 20
44.8859175172827
 30
0.0
 10
-58.7149017384878
 20
44.89503953025504
 30
0.0
 10
-59.52885333477151
 20
44.96602022478501
 30
0.0
 10
-60.30359275237181
 20
45.0707919491821
 30
0.0
 10
-61.00655295551853
 20
45.20031940643141
 30
0.0
 10
-61.54182252793542
 20
45.31900081435244
 30
0.0
 10
-61.79421974289808
 20
45.38489913838981
 30
0.0
 10
-61.87600257805774
 20
45.40625179781926
 30
0.0
  0
SPLINE
  5
CCB1
330
A
100
AcDbEntity
  8
0
  6
Continuous
 62
     7
370
    15
100
AcDbSpline
210
0.0
220
0.0
230
1.0
 70
     8
 71
     3
 72
    13
 73
     9
 74
     0
 42
0.00000001
 43
0.00000001
 40
0.0
 40
0.0
 40
0.0
 40
0.0
 40
0.0622552317044257
 40
0.2494790883329818
 40
0.4385932281583154
 40
0.6333581304820272
 40
0.8139533638291321
 40
1.0
 40
1.0
 40
1.0
 40
1.0
 10
-53.87600243090874
 20
45.40581072926869
 30
0.0
 10
-53.93229982912233
 20
45.39099615211065
 30
0.0
 10
-54.1579037373772
 20
45.33162881699297
 30
0.0
 10
-54.66361788720737
 20
45.21727114785275
 30
0.0
 10
-55.38551873290966
 20
45.08039541029068
 30
0.0
 10
-56.18151307543191
 20
44.97024566781132
 30
0.0
 10
-57.02187544999357
 20
44.89578904557271
 30
0.0
 10
-57.58848527965462
 20
44.88625962286866
 30
0.0
 10
-57.87600250448325
 20
44.8814240675594
 30
0.0
  0
LINE
  5
CCB2
330
A
100
AcDbEntity
  8
0
  6
Continuous
 62
     8
370
     0
100
AcDbLine
 10
-69.1260023694415
 20
61.82523112641064
 30
0.0
 11
-69.1260023694415
 21
59.82523079858509
 31
0.0
  0
LINE
  5
CCB3
330
A
100
AcDbEntity
  8
0
  6
Continuous
 62
     8
370
     0
100
AcDbLine
 10
-70.12600253335427
 20
59.82523079858509
 30
0.0
 11
-69.1260023694415
 21
59.82523079858509
 31
0.0
  0
LINE
  5
CCB4
330
A
100
AcDbEntity
  8
0
  6
Continuous
 62
     8
370
     0
100
AcDbLine
 10
-64.62600256315659
 20
59.82523079858509
 30
0.0
 11
-64.62600256315659
 21
61.82523112641064
 31
0.0
  0
LINE
  5
CCB5
330
A
100
AcDbEntity
  8
0
  6
Continuous
 62
     8
370
     0
100
AcDbLine
 10
-64.62600256315659
 20
59.82523079858509
 30
0.0
 11
-69.1260023694415
 21
59.82523079858509
 31
0.0
  0
LINE
  5
CCB6
330
A
100
AcDbEntity
  8
0
  6
Continuous
 62
     8
370
     0
100
AcDbLine
 10
-64.62600256315659
 20
59.82523079858509
 30
0.0
 11
-63.62600239924382
 21
59.82523079858509
 31
0.0
  0
LINE
  5
CCB7
330
A
100
AcDbEntity
  8
0
  6
Continuous
 62
     8
370
     0
100
AcDbLine
 10
-64.6260025631566
 20
29.82523053781477
 30
0.0
 11
-64.62600256315659
 21
59.82523079858509
 31
0.0
  0
LINE
  5
CCB8
330
A
100
AcDbEntity
  8
0
  6
Continuous
 62
     8
370
     0
100
AcDbLine
 10
-69.1260023694415
 20
59.82523079858509
 30
0.0
 11
-69.12600236944151
 21
29.82523053781477
 31
0.0
  0
LINE
  5
CCB9
330
A
100
AcDbEntity
  8
0
  6
Continuous
 62
     8
370
     0
100
AcDbLine
 10
-45.62600224278157
 20
59.82523079858509
 30
0.0
 11
-46.62600240669434
 21
59.82523079858509
 31
0.0
  0
LINE
  5
CCBA
330
A
100
AcDbEntity
  8
0
  6
Continuous
 62
     8
370
     0
100
AcDbLine
 10
-46.62600240669434
 20
59.82523079858509
 30
0.0
 11
-46.62600240669434
 21
61.82523112641064
 31
0.0
  0
LINE
  5
CCBB
330
A
100
AcDbEntity
  8
0
  6
Continuous
 62
     8
370
     0
100
AcDbLine
 10
-46.62600240669437
 20
29.82523053781477
 30
0.0
 11
-46.62600240669434
 21
59.82523079858509
 31
0.0
  0
LINE
  5
CCBC
330
A
100
AcDbEntity
  8
0
  6
Continuous
 62
     8
370
     0
100
AcDbLine
 10
-51.12600267864053
 20
61.82523112641064
 30
0.0
 11
-51.12600267864053
 21
59.82523079858509
 31
0.0
  0
LINE
  5
CCBD
330
A
100
AcDbEntity
  8
0
  6
Continuous
 62
     8
370
     0
100
AcDbLine
 10
-51.12600267864053
 20
59.82523079858509
 30
0.0
 11
-52.12600237689202
 21
59.82523079858509
 31
0.0
  0
LINE
  5
CCBE
330
A
100
AcDbEntity
  8
0
  6
Continuous
 62
     8
370
     0
100
AcDbLine
 10
-46.62600240669434
 20
59.82523079858509
 30
0.0
 11
-51.12600267864053
 21
59.82523079858509
 31
0.0
  0
LINE
  5
CCBF
330
A
100
AcDbEntity
  8
0
  6
Continuous
 62
     8
370
     0
100
AcDbLine
 10
-51.12600267864053
 20
59.82523079858509
 30
0.0
 11
-51.12600267864056
 21
29.82523053781477
 31
0.0
  0
LINE
  5
CCC0
330
A
100
AcDbEntity
  8
0
  6
Continuous
 62
     8
370
     0
100
AcDbLine
 10
-52.12600237689202
 20
31.82523086564031
 30
0.0
 11
-52.8760024998266
 21
31.82523086564031
 31
0.0
  0
LINE
  5
CCC1
330
A
100
AcDbEntity
  8
0
  6
Continuous
 62
     8
370
     0
100
AcDbLine
 10
-52.12600237689202
 20
54.32523082838741
 30
0.0
 11
-52.8760024998266
 21
54.32523082838741
 31
0.0
  0
LINE
  5
CCC2
330
A
100
AcDbEntity
  8
0
  6
Continuous
 62
     8
370
     0
100
AcDbLine
 10
-52.8760024998266
 20
54.32523082838741
 30
0.0
 11
-53.87600243090873
 21
54.32523082838741
 31
0.0
  0
LINE
  5
CCC3
330
A
100
AcDbEntity
  8
0
  6
Continuous
 62
     8
370
     0
100
AcDbLine
 10
-52.8760024998266
 20
31.82523086564031
 30
0.0
 11
-53.87600243090874
 21
31.82523086564031
 31
0.0
  0
LINE
  5
CCC4
330
A
100
AcDbEntity
  8
0
  6
Continuous
 62
     8
370
     0
100
AcDbLine
 10
-62.87600227630924
 20
54.32523082838741
 30
0.0
 11
-63.62600239924382
 21
54.32523082838741
 31
0.0
  0
LINE
  5
CCC5
330
A
100
AcDbEntity
  8
0
  6
Continuous
 62
     8
370
     0
100
AcDbLine
 10
-62.87600227630925
 20
31.82523086564031
 30
0.0
 11
-63.62600239924383
 21
31.82523086564031
 31
0.0
  0
LINE
  5
CCC6
330
A
100
AcDbEntity
  8
0
  6
Continuous
 62
     8
370
     0
100
AcDbLine
 10
-61.87600257805772
 20
54.32523082838741
 30
0.0
 11
-62.87600227630924
 21
54.32523082838741
 31
0.0
  0
LINE
  5
CCC7
330
A
100
AcDbEntity
  8
0
  6
Continuous
 62
     8
370
     0
100
AcDbLine
 10
-61.87600257805774
 20
31.82523086564031
 30
0.0
 11
-62.87600227630925
 21
31.82523086564031
 31
0.0
  0
LINE
  5
CCC8
330
A
100
AcDbEntity
  8
0
  6
Continuous
 62
     8
370
     0
100
AcDbLine
 10
-53.87600243090874
 20
37.75044152410117
 30
0.0
 11
-61.87600257805774
 21
37.75044152410117
 31
0.0
  0
LINE
  5
CCC9
330
A
100
AcDbEntity
  8
0
  6
Continuous
 62
     8
370
     0
100
AcDbLine
 10
-61.87600257805774
 20
38.26942196012822
 30
0.0
 11
-53.87600243090874
 21
38.26942196012822
 31
0.0
  0
LINE
  5
CCCA
330
A
100
AcDbEntity
  8
0
  6
Continuous
 62
     7
370
    15
100
AcDbLine
 10
-22.99999934561365
 20
-12.25000004191912
 30
0.0
 11
-23.99999950952642
 21
-12.25000004191912
 31
0.0
  0
ARC
  5
CCCB
330
A
100
AcDbEntity
  8
0
  6
Continuous
 62
     7
370
    15
100
AcDbCircle
 10
-24.0
 20
-11.25
 30
0.0
 40
1.0
100
AcDbArc
 50
180.0
 51
270.0
  0
LINE
  5
CCCC
330
A
100
AcDbEntity
  8
0
  6
Continuous
 62
     7
370
    15
100
AcDbLine
 10
22.99999981247075
 20
-12.25000004191912
 30
0.0
 11
-22.99999934561365
 21
-12.25000004191912
 31
0.0
  0
LINE
  5
CCCD
330
A
100
AcDbEntity
  8
0
  6
Continuous
 62
     7
370
    15
100
AcDbLine
 10
-23.49999849624746
 20
-5.756990415053735
 30
0.0
 11
-22.99999934561365
 21
-5.749999907808672
 31
0.0
  0
ARC
  5
CCCE
330
A
100
AcDbEntity
  8
0
  6
Continuous
 62
     7
370
    15
100
AcDbCircle
 10
-24.0
 20
-6.75
 30
0.0
 40
1.0
100
AcDbArc
 50
90.0
 51
180.0
  0
LINE
  5
CCCF
330
A
100
AcDbEntity
  8
0
  6
Continuous
 62
     7
370
    15
100
AcDbLine
 10
-23.99999950952642
 20
-5.749999907808672
 30
0.0
 11
-23.99999950952642
 21
-5.756990415053735
 31
0.0
  0
SPLINE
  5
CCD0
330
A
100
AcDbEntity
  8
0
  6
Continuous
 62
     7
370
    15
100
AcDbSpline
210
0.0
220
0.0
230
1.0
 70
     8
 71
     3
 72
    12
 73
     8
 74
     0
 42
0.00000001
 43
0.00000001
 40
0.0
 40
0.0
 40
0.0
 40
0.0
 40
0.2147361210764112
 40
0.4295084164055546
 40
0.6432317130343101
 40
0.8562175374162901
 40
1.0
 40
1.0
 40
1.0
 40
1.0
 10
-23.99999950952642
 20
-5.756990415053735
 30
0.0
 10
-23.99448208151676
 20
-5.760170476548495
 30
0.0
 10
-23.98344629603653
 20
-5.766531135248272
 30
0.0
 10
-23.89735339941166
 20
-5.772509719828776
 30
0.0
 10
-23.77090482479167
 20
-5.771231291001584
 30
0.0
 10
-23.6305586914909
 20
-5.764262636018174
 30
0.0
 10
-23.53750171925614
 20
-5.759079349771469
 30
0.0
 10
-23.49999849624746
 20
-5.756990415053735
 30
0.0
  0
LINE
  5
CCD1
330
A
100
AcDbEntity
  8
0
  6
Continuous
 62
     7
370
    15
100
AcDbLine
 10
-22.99999934561365
 20
-5.749999907808672
 30
0.0
 11
22.99999981247075
 21
-5.749999907808672
 31
0.0
  0
LINE
  5
CCD2
330
A
100
AcDbEntity
  8
0
  6
Continuous
 62
     7
370
    15
100
AcDbLine
 10
-25.00000153608434
 20
-11.24999987800635
 30
0.0
 11
-25.00000153608434
 21
-6.750000071721445
 31
0.0
  0
LINE
  5
CCD3
330
A
100
AcDbEntity
  8
0
  6
Continuous
 62
     7
370
    15
100
AcDbLine
 10
24.0000009077061
 20
-5.756990415053735
 30
0.0
 11
24.0000009077061
 21
-5.749999907808672
 31
0.0
  0
ARC
  5
CCD4
330
A
100
AcDbEntity
  8
0
  6
Continuous
 62
     7
370
    15
100
AcDbCircle
 10
24.00000000000003
 20
-6.75
 30
0.0
 40
1.0
100
AcDbArc
 50
0.0
 51
90.0
  0
LINE
  5
CCD5
330
A
100
AcDbEntity
  8
0
  6
Continuous
 62
     7
370
    15
100
AcDbLine
 10
22.99999981247075
 20
-5.749999907808672
 30
0.0
 11
23.49999989442713
 21
-5.756990415053735
 31
0.0
  0
SPLINE
  5
CCD6
330
A
100
AcDbEntity
  8
0
  6
Continuous
 62
     7
370
    15
100
AcDbSpline
210
0.0
220
0.0
230
1.0
 70
     8
 71
     3
 72
    12
 73
     8
 74
     0
 42
0.00000001
 43
0.00000001
 40
0.0
 40
0.0
 40
0.0
 40
0.0
 40
0.2147381448606057
 40
0.4295108937667781
 40
0.6432328649743503
 40
0.8562193281035801
 40
1.0
 40
1.0
 40
1.0
 40
1.0
 10
23.49999989442713
 20
-5.756990415053735
 30
0.0
 10
23.55618001578628
 20
-5.760170471665987
 30
0.0
 10
23.66854931166776
 20
-5.766531097341641
 30
0.0
 10
23.81827512988033
 20
-5.772509722387667
 30
0.0
 10
23.93106461609841
 20
-5.77123125494839
 30
0.0
 10
23.99127200229358
 20
-5.764262704046871
 30
0.0
 10
23.99749355902176
 20
-5.759079355576887
 30
0.0
 10
24.0000009077061
 20
-5.756990415053735
 30
0.0
  0
LINE
  5
CCD7
330
A
100
AcDbEntity
  8
0
  6
Continuous
 62
     7
370
    15
100
AcDbLine
 10
24.0000009077061
 20
-12.25000004191912
 30
0.0
 11
22.99999981247075
 21
-12.25000004191912
 31
0.0
  0
ARC
  5
CCD8
330
A
100
AcDbEntity
  8
0
  6
Continuous
 62
     7
370
    15
100
AcDbCircle
 10
24.00000000000003
 20
-11.25
 30
0.0
 40
1.0
100
AcDbArc
 50
270.0
 51
0.0
  0
LINE
  5
CCD9
330
A
100
AcDbEntity
  8
0
  6
Continuous
 62
     7
370
    15
100
AcDbLine
 10
24.99999920897372
 20
-6.750000071721445
 30
0.0
 11
24.99999920897372
 21
-11.24999987800635
 31
0.0
  0
LINE
  5
CCDA
330
A
100
AcDbEntity
  8
0
  6
Continuous
 62
     7
370
    15
100
AcDbLine
 10
-22.99999934561365
 20
-5.749999907808672
 30
0.0
 11
-23.99999950952642
 21
-5.749999907808672
 31
0.0
  0
LINE
  5
CCDB
330
A
100
AcDbEntity
  8
0
  6
Continuous
 62
     7
370
    15
100
AcDbLine
 10
24.0000009077061
 20
-5.749999907808672
 30
0.0
 11
22.99999981247075
 21
-5.749999907808672
 31
0.0
  0
LINE
  5
CCDC
330
A
100
AcDbEntity
  8
0
  6
Continuous
 62
     7
370
    15
100
AcDbLine
 10
-22.99999934561365
 20
12.25000024865352
 30
0.0
 11
22.99999981247075
 21
12.25000024865352
 31
0.0
  0
LINE
  5
CCDD
330
A
100
AcDbEntity
  8
0
  6
Continuous
 62
     7
370
    15
100
AcDbLine
 10
22.99999981247075
 20
5.75000011454307
 30
0.0
 11
-22.99999934561365
 21
5.75000011454307
 31
0.0
  0
LINE
  5
CCDE
330
A
100
AcDbEntity
  8
0
  6
Continuous
 62
     7
370
    15
100
AcDbLine
 10
-23.99999950952642
 20
12.25000024865352
 30
0.0
 11
-22.99999934561365
 21
12.25000024865352
 31
0.0
  0
ARC
  5
CCDF
330
A
100
AcDbEntity
  8
0
  6
Continuous
 62
     7
370
    15
100
AcDbCircle
 10
-24.0
 20
11.25000000000003
 30
0.0
 40
1.0
100
AcDbArc
 50
90.0
 51
180.0
  0
LINE
  5
CCE0
330
A
100
AcDbEntity
  8
0
  6
Continuous
 62
     7
370
    15
100
AcDbLine
 10
-25.00000153608434
 20
6.749999812794556
 30
0.0
 11
-25.00000153608434
 21
11.25000008474075
 31
0.0
  0
LINE
  5
CCE1
330
A
100
AcDbEntity
  8
0
  6
Continuous
 62
     7
370
    15
100
AcDbLine
 10
-23.99999950952642
 20
5.756990621788134
 30
0.0
 11
-23.99999950952642
 21
5.75000011454307
 31
0.0
  0
ARC
  5
CCE2
330
A
100
AcDbEntity
  8
0
  6
Continuous
 62
     7
370
    15
100
AcDbCircle
 10
-24.0
 20
6.750000000000028
 30
0.0
 40
1.0
100
AcDbArc
 50
180.0
 51
270.0
  0
LINE
  5
CCE3
330
A
100
AcDbEntity
  8
0
  6
Continuous
 62
     7
370
    15
100
AcDbLine
 10
-22.99999934561365
 20
5.75000011454307
 30
0.0
 11
-23.49999849624746
 21
5.756990621788134
 31
0.0
  0
SPLINE
  5
CCE4
330
A
100
AcDbEntity
  8
0
  6
Continuous
 62
     7
370
    15
100
AcDbSpline
210
0.0
220
0.0
230
1.0
 70
     8
 71
     3
 72
    12
 73
     8
 74
     0
 42
0.00000001
 43
0.00000001
 40
0.0
 40
0.0
 40
0.0
 40
0.0
 40
0.2147390144300247
 40
0.4295125524039494
 40
0.6432326713480468
 40
0.8562197760531436
 40
1.0
 40
1.0
 40
1.0
 40
1.0
 10
-23.49999849624746
 20
5.756990621788134
 30
0.0
 10
-23.55617886010185
 20
5.760170427334714
 30
0.0
 10
-23.66854861991536
 20
5.766530549644557
 30
0.0
 10
-23.81827573786248
 20
5.77251012001679
 30
0.0
 10
-23.93106231812558
 20
5.771231376075519
 30
0.0
 10
-23.99127357912587
 20
5.764262945692792
 30
0.0
 10
-23.99749302193973
 20
5.759079566892751
 30
0.0
 10
-23.99999950952642
 20
5.756990621788134
 30
0.0
  0
LINE
  5
CCE5
330
A
100
AcDbEntity
  8
0
  6
Continuous
 62
     7
370
    15
100
AcDbLine
 10
22.99999981247075
 20
12.25000024865352
 30
0.0
 11
24.0000009077061
 21
12.25000024865352
 31
0.0
  0
ARC
  5
CCE6
330
A
100
AcDbEntity
  8
0
  6
Continuous
 62
     7
370
    15
100
AcDbCircle
 10
24.0
 20
11.25
 30
0.0
 40
1.0
100
AcDbArc
 50
0.0
 51
90.0
  0
LINE
  5
CCE7
330
A
100
AcDbEntity
  8
0
  6
Continuous
 62
     7
370
    15
100
AcDbLine
 10
24.99999920897372
 20
11.25000008474075
 30
0.0
 11
24.99999920897372
 21
6.749999812794556
 31
0.0
  0
LINE
  5
CCE8
330
A
100
AcDbEntity
  8
0
  6
Continuous
 62
     7
370
    15
100
AcDbLine
 10
23.49999989442713
 20
5.756990621788134
 30
0.0
 11
22.99999981247075
 21
5.75000011454307
 31
0.0
  0
ARC
  5
CCE9
330
A
100
AcDbEntity
  8
0
  6
Continuous
 62
     7
370
    15
100
AcDbCircle
 10
24.0
 20
6.750000000000028
 30
0.0
 40
1.0
100
AcDbArc
 50
270.0
 51
0.0
  0
LINE
  5
CCEA
330
A
100
AcDbEntity
  8
0
  6
Continuous
 62
     7
370
    15
100
AcDbLine
 10
24.0000009077061
 20
5.75000011454307
 30
0.0
 11
24.0000009077061
 21
5.756990621788134
 31
0.0
  0
SPLINE
  5
CCEB
330
A
100
AcDbEntity
  8
0
  6
Continuous
 62
     7
370
    15
100
AcDbSpline
210
0.0
220
0.0
230
1.0
 70
     8
 71
     3
 72
    12
 73
     8
 74
     0
 42
0.00000001
 43
0.00000001
 40
0.0
 40
0.0
 40
0.0
 40
0.0
 40
0.2147368045045227
 40
0.4295094351459615
 40
0.6432312697658994
 40
0.8562185063421535
 40
1.0
 40
1.0
 40
1.0
 40
1.0
 10
24.0000009077061
 20
5.756990621788134
 30
0.0
 10
23.99448272871322
 20
5.760170431524898
 30
0.0
 10
23.98344545008865
 20
5.766530581509727
 30
0.0
 10
23.897353032133
 20
5.772510126871879
 30
0.0
 10
23.77090590318699
 20
5.771231398826046
 30
0.0
 10
23.63055965355085
 20
5.764262910013258
 30
0.0
 10
23.53750277881795
 20
5.759079563942976
 30
0.0
 10
23.49999989442713
 20
5.756990621788134
 30
0.0
  0
LINE
  5
CCEC
330
A
100
AcDbEntity
  8
0
  6
Continuous
 62
     7
370
    15
100
AcDbLine
 10
-23.99999950952642
 20
5.75000011454307
 30
0.0
 11
-22.99999934561365
 21
5.75000011454307
 31
0.0
  0
LINE
  5
CCED
330
A
100
AcDbEntity
  8
0
  6
Continuous
 62
     7
370
    15
100
AcDbLine
 10
22.99999981247075
 20
5.75000011454307
 30
0.0
 11
24.0000009077061
 21
5.75000011454307
 31
0.0
  0
LINE
  5
CCEE
330
A
100
AcDbEntity
  8
0
  6
Continuous
 62
     7
370
    15
100
AcDbLine
 10
-20.00000071652047
 20
5.75000011454307
 30
0.0
 11
-20.00000071652047
 21
4.99999999160849
 31
0.0
  0
LINE
  5
CCEF
330
A
100
AcDbEntity
  8
0
  6
Continuous
 62
     7
370
    15
100
AcDbLine
 10
-20.00000071652047
 20
4.99999999160849
 30
0.0
 11
-18.00000038869493
 21
4.99999999160849
 31
0.0
  0
LINE
  5
CCF0
330
A
100
AcDbEntity
  8
0
  6
Continuous
 62
     7
370
    15
100
AcDbLine
 10
-18.00000038869493
 20
4.99999999160849
 30
0.0
 11
17.99999992422946
 21
4.99999999160849
 31
0.0
  0
LINE
  5
CCF1
330
A
100
AcDbEntity
  8
0
  6
Continuous
 62
     7
370
    15
100
AcDbLine
 10
20.000000252055
 20
5.75000011454307
 30
0.0
 11
20.000000252055
 21
4.99999999160849
 31
0.0
  0
LINE
  5
CCF2
330
A
100
AcDbEntity
  8
0
  6
Continuous
 62
     7
370
    15
100
AcDbLine
 10
17.99999992422946
 20
4.99999999160849
 30
0.0
 11
20.000000252055
 21
4.99999999160849
 31
0.0
  0
LINE
  5
CCF3
330
A
100
AcDbEntity
  8
0
  6
Continuous
 62
     7
370
    15
100
AcDbLine
 10
-20.00000071652047
 20
4.99999999160849
 30
0.0
 11
-20.00000071652047
 21
4.000000060526361
 31
0.0
  0
LINE
  5
CCF4
330
A
100
AcDbEntity
  8
0
  6
Continuous
 62
     7
370
    15
100
AcDbLine
 10
-20.00000071652047
 20
4.000000060526361
 30
0.0
 11
-18.00000038869493
 21
4.000000060526361
 31
0.0
  0
LINE
  5
CCF5
330
A
100
AcDbEntity
  8
0
  6
Continuous
 62
     7
370
    15
100
AcDbLine
 10
-18.00000038869493
 20
4.000000060526361
 30
0.0
 11
17.99999992422946
 21
4.000000060526361
 31
0.0
  0
LINE
  5
CCF6
330
A
100
AcDbEntity
  8
0
  6
Continuous
 62
     7
370
    15
100
AcDbLine
 10
20.000000252055
 20
4.99999999160849
 30
0.0
 11
20.000000252055
 21
4.000000060526361
 31
0.0
  0
LINE
  5
CCF7
330
A
100
AcDbEntity
  8
0
  6
Continuous
 62
     7
370
    15
100
AcDbLine
 10
17.99999992422946
 20
4.000000060526361
 30
0.0
 11
20.000000252055
 21
4.000000060526361
 31
0.0
  0
LINE
  5
CCF8
330
A
100
AcDbEntity
  8
0
  6
Continuous
 62
     7
370
    15
100
AcDbLine
 10
-20.00000071652047
 20
-4.999999784874092
 30
0.0
 11
-20.00000071652047
 21
-5.749999907808672
 31
0.0
  0
LINE
  5
CCF9
330
A
100
AcDbEntity
  8
0
  6
Continuous
 62
     7
370
    15
100
AcDbLine
 10
-20.00000071652047
 20
-4.999999784874092
 30
0.0
 11
-18.00000038869493
 21
-4.999999784874092
 31
0.0
  0
LINE
  5
CCFA
330
A
100
AcDbEntity
  8
0
  6
Continuous
 62
     7
370
    15
100
AcDbLine
 10
17.99999992422946
 20
-4.999999784874092
 30
0.0
 11
20.000000252055
 21
-4.999999784874092
 31
0.0
  0
LINE
  5
CCFB
330
A
100
AcDbEntity
  8
0
  6
Continuous
 62
     7
370
    15
100
AcDbLine
 10
20.000000252055
 20
-4.999999784874092
 30
0.0
 11
20.000000252055
 21
-5.749999907808672
 31
0.0
  0
LINE
  5
CCFC
330
A
100
AcDbEntity
  8
0
  6
Continuous
 62
     7
370
    15
100
AcDbLine
 10
-18.00000038869493
 20
-4.999999784874092
 30
0.0
 11
17.99999992422946
 21
-4.999999784874092
 31
0.0
  0
LINE
  5
CCFD
330
A
100
AcDbEntity
  8
0
  6
Continuous
 62
     7
370
    15
100
AcDbLine
 10
20.000000252055
 20
-4.000000086622606
 30
0.0
 11
20.000000252055
 21
-4.999999784874092
 31
0.0
  0
LINE
  5
CCFE
330
A
100
AcDbEntity
  8
0
  6
Continuous
 62
     7
370
    15
100
AcDbLine
 10
17.99999992422946
 20
-4.000000086622606
 30
0.0
 11
20.000000252055
 21
-4.000000086622606
 31
0.0
  0
LINE
  5
CCFF
330
A
100
AcDbEntity
  8
0
  6
Continuous
 62
     7
370
    15
100
AcDbLine
 10
-20.00000071652047
 20
-4.000000086622606
 30
0.0
 11
-20.00000071652047
 21
-4.999999784874092
 31
0.0
  0
LINE
  5
CD00
330
A
100
AcDbEntity
  8
0
  6
Continuous
 62
     7
370
    15
100
AcDbLine
 10
-20.00000071652047
 20
-4.000000086622606
 30
0.0
 11
-18.00000038869493
 21
-4.000000086622606
 31
0.0
  0
LINE
  5
CD01
330
A
100
AcDbEntity
  8
0
  6
Continuous
 62
     7
370
    15
100
AcDbLine
 10
-18.00000038869493
 20
-4.000000086622606
 30
0.0
 11
17.99999992422946
 21
-4.000000086622606
 31
0.0
  0
SPLINE
  5
CD02
330
A
100
AcDbEntity
  8
0
  6
Continuous
 62
     7
370
    15
100
AcDbSpline
210
0.0
220
0.0
230
1.0
 70
     8
 71
     3
 72
    13
 73
     9
 74
     0
 42
0.00000001
 43
0.00000001
 40
0.0
 40
0.0
 40
0.0
 40
0.0
 40
0.1817143174281208
 40
0.3634584080534285
 40
0.5448661001948304
 40
0.7263117601765854
 40
0.913937023223923
 40
1.0
 40
1.0
 40
1.0
 40
1.0
 10
5.150000099690629
 20
-0.0000000130481226
 30
0.0
 10
5.136398226459875
 20
-0.2809479742636256
 30
0.0
 10
5.109192251383348
 20
-0.8428899289455387
 30
0.0
 10
4.897533775371215
 20
-1.660403390405691
 30
0.0
 10
4.566736642708292
 20
-2.430535824541096
 30
0.0
 10
4.108031155176405
 20
-3.136859053226232
 30
0.0
 10
3.65323737347336
 20
-3.668262457016652
 30
0.0
 10
3.319952365566081
 20
-3.920638776374943
 30
0.0
 10
3.215148812757803
 20
-4.000000086622606
 30
0.0
  0
SPLINE
  5
CD03
330
A
100
AcDbEntity
  8
0
  6
Continuous
 62
     7
370
    15
100
AcDbSpline
210
0.0
220
0.0
230
1.0
 70
     8
 71
     3
 72
    19
 73
    15
 74
     0
 42
0.00000001
 43
0.00000001
 40
0.0
 40
0.0
 40
0.0
 40
0.0
 40
0.031009915040795
 40
0.1258351575300248
 40
0.2206498290510829
 40
0.3167029855413546
 40
0.4127262853471182
 40
0.5041968007717947
 40
0.5956682234586967
 40
0.6839126791849662
 40
0.7721786406467485
 40
0.8633499915034506
 40
0.9545320170619214
 40
1.0
 40
1.0
 40
1.0
 40
1.0
 10
-3.219774225128816
 20
-4.000000086622606
 30
0.0
 10
-3.29599686634927
 20
-3.943943975618822
 30
0.0
 10
-3.60530077939481
 20
-3.71647384068288
 30
0.0
 10
-4.052269698355303
 20
-3.206734380944283
 30
0.0
 10
-4.54197938500468
 20
-2.484126042735852
 30
0.0
 10
-4.895782380624837
 20
-1.673621176187567
 30
0.0
 10
-5.109419012767233
 20
-0.8224428827988675
 30
0.0
 10
-5.172075404772443
 20
0.0416331288854792
 30
0.0
 10
-5.09760459249469
 20
0.8803895575532863
 30
0.0
 10
-4.889044918948969
 20
1.682248548290772
 30
0.0
 10
-4.562425235932665
 20
2.439231609703569
 30
0.0
 10
-4.109920078847949
 20
3.131762434197668
 30
0.0
 10
-3.657113938404876
 20
3.664625099872012
 30
0.0
 10
-3.324548467886359
 20
3.916269601669626
 30
0.0
 10
-3.213892923070119
 20
4.000000060526361
 30
0.0
  0
SPLINE
  5
CD04
330
A
100
AcDbEntity
  8
0
  6
Continuous
 62
     7
370
    15
100
AcDbSpline
210
0.0
220
0.0
230
1.0
 70
     8
 71
     3
 72
    13
 73
     9
 74
     0
 42
0.00000001
 43
0.00000001
 40
0.0
 40
0.0
 40
0.0
 40
0.0
 40
0.0649219407872915
 40
0.2496600144819605
 40
0.4415774520566802
 40
0.6334489692468059
 40
0.8167399430654476
 40
1.0
 40
1.0
 40
1.0
 40
1.0
 10
3.218246857302262
 20
4.000000060526361
 30
0.0
 10
3.298032683619624
 20
3.941202497115
 30
0.0
 10
3.604852386054375
 20
3.715094029703749
 30
0.0
 10
4.053691931581966
 20
3.206374773664095
 30
0.0
 10
4.540021019254738
 20
2.486014566148356
 30
0.0
 10
4.890058388704404
 20
1.686573787268287
 30
0.0
 10
5.108515451791874
 20
0.8496319002553321
 30
0.0
 10
5.136172661310269
 20
0.2831946992669998
 30
0.0
 10
5.150000099690629
 20
-0.0000000130481226
 30
0.0
  0
CIRCLE
  5
CD05
330
A
100
AcDbEntity
  8
0
  6
Continuous
 62
     7
370
    15
100
AcDbCircle
 10
0.0000000000000284
 20
0.0
 30
0.0
 40
2.800000000000011
  0
LINE
  5
CD06
330
A
100
AcDbEntity
  8
0
  6
Continuous
 62
     7
370
    15
100
AcDbLine
 10
13.50000011794455
 20
4.000000060526361
 30
0.0
 11
13.50000011794455
 21
-4.000000086622606
 31
0.0
  0
LINE
  5
CD07
330
A
100
AcDbEntity
  8
0
  6
Continuous
 62
     7
370
    15
100
AcDbLine
 10
-13.50000058241002
 20
-4.000000086622606
 30
0.0
 11
-13.50000058241002
 21
4.000000060526361
 31
0.0
  0
LINE
  5
CD08
330
A
100
AcDbEntity
  8
0
  6
Continuous
 62
     8
370
     0
100
AcDbLine
 10
-25.00000153608434
 20
-11.24999987800635
 30
0.0
 11
-22.99999934561365
 21
-11.24999987800635
 31
0.0
  0
LINE
  5
CD09
330
A
100
AcDbEntity
  8
0
  6
Continuous
 62
     8
370
     0
100
AcDbLine
 10
-22.99999934561365
 20
-12.25000004191912
 30
0.0
 11
-22.99999934561365
 21
-11.24999987800635
 31
0.0
  0
LINE
  5
CD0A
330
A
100
AcDbEntity
  8
0
  6
Continuous
 62
     8
370
     0
100
AcDbLine
 10
-22.99999934561365
 20
-11.24999987800635
 30
0.0
 11
22.99999981247075
 21
-11.24999987800635
 31
0.0
  0
LINE
  5
CD0B
330
A
100
AcDbEntity
  8
0
  6
Continuous
 62
     8
370
     0
100
AcDbLine
 10
22.99999981247075
 20
-12.25000004191912
 30
0.0
 11
22.99999981247075
 21
-11.24999987800635
 31
0.0
  0
LINE
  5
CD0C
330
A
100
AcDbEntity
  8
0
  6
Continuous
 62
     8
370
     0
100
AcDbLine
 10
-22.99999934561365
 20
-6.750000071721445
 30
0.0
 11
-22.99999934561365
 21
-5.749999907808672
 31
0.0
  0
LINE
  5
CD0D
330
A
100
AcDbEntity
  8
0
  6
Continuous
 62
     8
370
     0
100
AcDbLine
 10
-22.99999934561365
 20
-6.750000071721445
 30
0.0
 11
-25.00000153608434
 21
-6.750000071721445
 31
0.0
  0
LINE
  5
CD0E
330
A
100
AcDbEntity
  8
0
  6
Continuous
 62
     8
370
     0
100
AcDbLine
 10
22.99999981247075
 20
-6.750000071721445
 30
0.0
 11
-22.99999934561365
 21
-6.750000071721445
 31
0.0
  0
LINE
  5
CD0F
330
A
100
AcDbEntity
  8
0
  6
Continuous
 62
     8
370
     0
100
AcDbLine
 10
22.99999981247075
 20
-6.750000071721445
 30
0.0
 11
22.99999981247075
 21
-5.749999907808672
 31
0.0
  0
LINE
  5
CD10
330
A
100
AcDbEntity
  8
0
  6
Continuous
 62
     8
370
     0
100
AcDbLine
 10
22.99999981247075
 20
-11.24999987800635
 30
0.0
 11
22.99999981247075
 21
-6.750000071721445
 31
0.0
  0
LINE
  5
CD11
330
A
100
AcDbEntity
  8
0
  6
Continuous
 62
     8
370
     0
100
AcDbLine
 10
-22.99999934561365
 20
-6.750000071721445
 30
0.0
 11
-22.99999934561365
 21
-11.24999987800635
 31
0.0
  0
LINE
  5
CD12
330
A
100
AcDbEntity
  8
0
  6
Continuous
 62
     8
370
     0
100
AcDbLine
 10
24.99999920897372
 20
-6.750000071721445
 30
0.0
 11
22.99999981247075
 21
-6.750000071721445
 31
0.0
  0
LINE
  5
CD13
330
A
100
AcDbEntity
  8
0
  6
Continuous
 62
     8
370
     0
100
AcDbLine
 10
22.99999981247075
 20
-11.24999987800635
 30
0.0
 11
24.99999920897372
 21
-11.24999987800635
 31
0.0
  0
LINE
  5
CD14
330
A
100
AcDbEntity
  8
0
  6
Continuous
 62
     8
370
     0
100
AcDbLine
 10
-22.99999934561365
 20
6.749999812794556
 30
0.0
 11
22.99999981247075
 21
6.749999812794556
 31
0.0
  0
LINE
  5
CD15
330
A
100
AcDbEntity
  8
0
  6
Continuous
 62
     8
370
     0
100
AcDbLine
 10
-22.99999934561365
 20
11.25000008474075
 30
0.0
 11
-22.99999934561365
 21
6.749999812794556
 31
0.0
  0
LINE
  5
CD16
330
A
100
AcDbEntity
  8
0
  6
Continuous
 62
     8
370
     0
100
AcDbLine
 10
22.99999981247075
 20
11.25000008474075
 30
0.0
 11
-22.99999934561365
 21
11.25000008474075
 31
0.0
  0
LINE
  5
CD17
330
A
100
AcDbEntity
  8
0
  6
Continuous
 62
     8
370
     0
100
AcDbLine
 10
22.99999981247075
 20
6.749999812794556
 30
0.0
 11
22.99999981247075
 21
11.25000008474075
 31
0.0
  0
LINE
  5
CD18
330
A
100
AcDbEntity
  8
0
  6
Continuous
 62
     8
370
     0
100
AcDbLine
 10
22.99999981247075
 20
12.25000024865352
 30
0.0
 11
22.99999981247075
 21
11.25000008474075
 31
0.0
  0
LINE
  5
CD19
330
A
100
AcDbEntity
  8
0
  6
Continuous
 62
     8
370
     0
100
AcDbLine
 10
-22.99999934561365
 20
12.25000024865352
 30
0.0
 11
-22.99999934561365
 21
11.25000008474075
 31
0.0
  0
LINE
  5
CD1A
330
A
100
AcDbEntity
  8
0
  6
Continuous
 62
     8
370
     0
100
AcDbLine
 10
22.99999981247075
 20
6.749999812794556
 30
0.0
 11
22.99999981247075
 21
5.75000011454307
 31
0.0
  0
LINE
  5
CD1B
330
A
100
AcDbEntity
  8
0
  6
Continuous
 62
     8
370
     0
100
AcDbLine
 10
-22.99999934561365
 20
6.749999812794556
 30
0.0
 11
-22.99999934561365
 21
5.75000011454307
 31
0.0
  0
LINE
  5
CD1C
330
A
100
AcDbEntity
  8
0
  6
Continuous
 62
     8
370
     0
100
AcDbLine
 10
-22.99999934561365
 20
11.25000008474075
 30
0.0
 11
-25.00000153608434
 21
11.25000008474075
 31
0.0
  0
LINE
  5
CD1D
330
A
100
AcDbEntity
  8
0
  6
Continuous
 62
     8
370
     0
100
AcDbLine
 10
-25.00000153608434
 20
6.749999812794556
 30
0.0
 11
-22.99999934561365
 21
6.749999812794556
 31
0.0
  0
LINE
  5
CD1E
330
A
100
AcDbEntity
  8
0
  6
Continuous
 62
     8
370
     0
100
AcDbLine
 10
24.99999920897372
 20
11.25000008474075
 30
0.0
 11
22.99999981247075
 21
11.25000008474075
 31
0.0
  0
LINE
  5
CD1F
330
A
100
AcDbEntity
  8
0
  6
Continuous
 62
     8
370
     0
100
AcDbLine
 10
22.99999981247075
 20
6.749999812794556
 30
0.0
 11
24.99999920897372
 21
6.749999812794556
 31
0.0
  0
LINE
  5
CD20
330
A
100
AcDbEntity
  8
0
  6
Continuous
 62
     8
370
     0
100
AcDbLine
 10
-18.00000038869493
 20
5.75000011454307
 30
0.0
 11
-18.00000038869493
 21
4.99999999160849
 31
0.0
  0
LINE
  5
CD21
330
A
100
AcDbEntity
  8
0
  6
Continuous
 62
     8
370
     0
100
AcDbLine
 10
17.99999992422946
 20
5.75000011454307
 30
0.0
 11
17.99999992422946
 21
4.99999999160849
 31
0.0
  0
LINE
  5
CD22
330
A
100
AcDbEntity
  8
0
  6
Continuous
 62
     8
370
     0
100
AcDbLine
 10
-18.00000038869493
 20
4.99999999160849
 30
0.0
 11
-18.00000038869493
 21
4.000000060526361
 31
0.0
  0
LINE
  5
CD23
330
A
100
AcDbEntity
  8
0
  6
Continuous
 62
     8
370
     0
100
AcDbLine
 10
17.99999992422946
 20
4.99999999160849
 30
0.0
 11
17.99999992422946
 21
4.000000060526361
 31
0.0
  0
LINE
  5
CD24
330
A
100
AcDbEntity
  8
0
  6
Continuous
 62
     8
370
     0
100
AcDbLine
 10
-18.00000038869493
 20
-4.999999784874092
 30
0.0
 11
-18.00000038869493
 21
-5.749999907808672
 31
0.0
  0
LINE
  5
CD25
330
A
100
AcDbEntity
  8
0
  6
Continuous
 62
     8
370
     0
100
AcDbLine
 10
17.99999992422946
 20
-4.999999784874092
 30
0.0
 11
17.99999992422946
 21
-5.749999907808672
 31
0.0
  0
LINE
  5
CD26
330
A
100
AcDbEntity
  8
0
  6
Continuous
 62
     8
370
     0
100
AcDbLine
 10
17.99999992422946
 20
-4.000000086622606
 30
0.0
 11
17.99999992422946
 21
-4.999999784874092
 31
0.0
  0
LINE
  5
CD27
330
A
100
AcDbEntity
  8
0
  6
Continuous
 62
     8
370
     0
100
AcDbLine
 10
-18.00000038869493
 20
-4.000000086622606
 30
0.0
 11
-18.00000038869493
 21
-4.999999784874092
 31
0.0
  0
LINE
  5
CD28
330
A
100
AcDbEntity
  8
0
  6
Continuous
 62
     8
370
     0
100
AcDbLine
 10
-13.36935092635267
 20
4.000000060526361
 30
0.0
 11
-13.36935092635267
 21
-4.000000086622606
 31
0.0
  0
LINE
  5
CD29
330
A
100
AcDbEntity
  8
0
  6
Continuous
 62
     8
370
     0
100
AcDbLine
 10
13.35478643946536
 20
-4.000000086622606
 30
0.0
 11
13.35478643946536
 21
4.000000060526361
 31
0.0
  0
SPLINE
  5
CD2A
330
A
100
AcDbEntity
  8
0
  6
Continuous
 62
     7
370
    15
100
AcDbSpline
210
0.0
220
0.0
230
1.0
 70
     8
 71
     3
 72
    15
 73
    11
 74
     0
 42
0.00000001
 43
0.00000001
 40
0.0
 40
0.0
 40
0.0
 40
0.0
 40
0.0871581011587979
 40
0.220662171548925
 40
0.3558448934963361
 40
0.4917142852843441
 40
0.6285302129928207
 40
0.7676462592329678
 40
0.9107875839364226
 40
1.0
 40
1.0
 40
1.0
 40
1.0
 10
-57.29504324740032
 20
-13.2216166980537
 30
0.0
 10
-57.29733797022072
 20
-13.15071475570598
 30
0.0
 10
-57.30314762547852
 20
-12.97120904874966
 30
0.0
 10
-57.35862653207369
 20
-12.67998629100554
 30
0.0
 10
-57.46611839125904
 20
-12.35433171403454
 30
0.0
 10
-57.6193990482443
 20
-12.03887531943771
 30
0.0
 10
-57.81352424607255
 20
-11.74234602660356
 30
0.0
 10
-58.04683286018218
 20
-11.47353379620761
 30
0.0
 10
-58.27997578587855
 20
-11.26913841713985
 30
0.0
 10
-58.44054177380448
 20
-11.16919542073332
 30
0.0
 10
-58.50219122120834
 20
-11.13082222239947
 30
0.0
  0
LINE
  5
CD2B
330
A
100
AcDbEntity
  8
0
  6
Continuous
 62
     7
370
    15
100
AcDbLine
 10
-57.29504324740032
 20
-37.71784126755582
 30
0.0
 11
-57.29504324740032
 21
-13.2216166980537
 31
0.0
  0
LINE
  5
CD2C
330
A
100
AcDbEntity
  8
0
  6
Continuous
 62
     7
370
    15
100
AcDbLine
 10
-58.50219122120834
 20
-11.13082222239947
 30
0.0
 11
-91.02910256046522
 21
7.646564005849491
 31
0.0
  0
SPLINE
  5
CD2D
330
A
100
AcDbEntity
  8
0
  6
Continuous
 62
     7
370
    15
100
AcDbSpline
210
0.0
220
0.0
230
1.0
 70
     8
 71
     3
 72
    14
 73
    10
 74
     0
 42
0.00000001
 43
0.00000001
 40
0.0
 40
0.0
 40
0.0
 40
0.0
 40
0.0412991270346475
 40
0.2206170587399009
 40
0.394676932337147
 40
0.5673313488665749
 40
0.7426884375651756
 40
0.9247942016824585
 40
1.0
 40
1.0
 40
1.0
 40
1.0
 10
-95.70935236619036
 20
5.853598625451106
 30
0.0
 10
-95.72897169796173
 20
5.844252134263776
 30
0.0
 10
-95.83377680113531
 20
5.7943238296399
 30
0.0
 10
-95.99094952794172
 20
5.652917390153029
 30
0.0
 10
-96.16833481752886
 20
5.441614495093269
 30
0.0
 10
-96.2973685940299
 20
5.199065344340262
 30
0.0
 10
-96.3819187322855
 20
4.935094410593855
 30
0.0
 10
-96.41486013472081
 20
4.710349876845676
 30
0.0
 10
-96.41740624158567
 20
4.574860835665881
 30
0.0
 10
-96.41815040557722
 20
4.535260743820835
 30
0.0
  0
LINE
  5
CD2E
330
A
100
AcDbEntity
  8
0
  6
Continuous
 62
     7
370
    15
100
AcDbLine
 10
-92.52898147060564
 20
7.696072467228085
 30
0.0
 11
-95.71096184896786
 21
5.859154294702286
 31
0.0
  0
LINE
  5
CD2F
330
A
100
AcDbEntity
  8
0
  6
Continuous
 62
     7
370
    15
100
AcDbLine
 10
-96.41815040557722
 20
4.535260743820835
 30
0.0
 11
-96.41815040557722
 21
-19.96096382568125
 31
0.0
  0
SPLINE
  5
CD30
330
A
100
AcDbEntity
  8
0
  6
Continuous
 62
     7
370
    15
100
AcDbSpline
210
0.0
220
0.0
230
1.0
 70
     8
 71
     3
 72
    13
 73
     9
 74
     0
 42
0.00000001
 43
0.00000001
 40
0.0
 40
0.0
 40
0.0
 40
0.0
 40
0.1405159542733762
 40
0.329431862177061
 40
0.5099450122923089
 40
0.6852096948648451
 40
0.857691709353541
 40
0.9999999999999999
 40
0.9999999999999999
 40
0.9999999999999999
 40
0.9999999999999999
 10
-91.02910256046522
 20
7.646564005849491
 30
0.0
 10
-91.09420980976829
 20
7.681281730022597
 30
0.0
 10
-91.24685014509564
 20
7.762675508999742
 30
0.0
 10
-91.50061655920211
 20
7.844686784764725
 30
0.0
 10
-91.78261291788749
 20
7.884797117352555
 30
0.0
 10
-92.05881034671079
 20
7.868656076204537
 30
0.0
 10
-92.31142189191614
 20
7.809239172741862
 30
0.0
 10
-92.45649109618807
 20
7.729298608743001
 30
0.0
 10
-92.52207300944465
 20
7.693159614528732
 30
0.0
  0
SPLINE
  5
CD31
330
A
100
AcDbEntity
  8
0
  6
Continuous
 62
     7
370
    15
100
AcDbSpline
210
0.0
220
0.0
230
1.0
 70
     8
 71
     3
 72
    15
 73
    11
 74
     0
 42
0.00000001
 43
0.00000001
 40
0.0
 40
0.0
 40
0.0
 40
0.0
 40
0.0871580702511415
 40
0.2206621413620271
 40
0.3558448757287803
 40
0.4917142642938837
 40
0.6285301896270528
 40
0.7676462474701798
 40
0.9107875521667671
 40
1.0
 40
1.0
 40
1.0
 40
1.0
 10
-44.56712107540696
 20
-5.873943627780839
 30
0.0
 10
-44.56941592554179
 20
-5.803041753309564
 30
0.0
 10
-44.57522590439277
 20
-5.623536179100164
 30
0.0
 10
-44.63070481329532
 20
-5.332313469364628
 30
0.0
 10
-44.7381959379627
 20
-5.006658508179747
 30
0.0
 10
-44.89147751666701
 20
-4.691202619603068
 30
0.0
 10
-45.08560176868011
 20
-4.39467274543221
 30
0.0
 10
-45.3189113084305
 20
-4.125861157747629
 30
0.0
 10
-45.55205344618614
 20
-3.921465156064237
 30
0.0
 10
-45.71261977959983
 20
-3.821522443345593
 30
0.0
 10
-45.77426937848722
 20
-3.783149342211424
 30
0.0
  0
LINE
  5
CD32
330
A
100
AcDbEntity
  8
0
  6
Continuous
 62
     7
370
    15
100
AcDbLine
 10
-44.56712107540696
 20
-30.37016819728296
 30
0.0
 11
-44.56712107540696
 21
-5.873943627780839
 31
0.0
  0
LINE
  5
CD33
330
A
100
AcDbEntity
  8
0
  6
Continuous
 62
     7
370
    15
100
AcDbLine
 10
-45.77426937848722
 20
-3.783149342211424
 30
0.0
 11
-78.30118071774413
 21
14.99423688603756
 31
0.0
  0
SPLINE
  5
CD34
330
A
100
AcDbEntity
  8
0
  6
Continuous
 62
     7
370
    15
100
AcDbSpline
210
0.0
220
0.0
230
1.0
 70
     8
 71
     3
 72
    14
 73
    10
 74
     0
 42
0.00000001
 43
0.00000001
 40
0.0
 40
0.0
 40
0.0
 40
0.0
 40
0.0412989698204127
 40
0.220616913699088
 40
0.3946767991128002
 40
0.5673313519845989
 40
0.7426884525877304
 40
0.9247940772571943
 40
1.0
 40
1.0
 40
1.0
 40
1.0
 10
-82.98143052346924
 20
13.20127150563915
 30
0.0
 10
-83.00104974034781
 20
13.19192507816752
 30
0.0
 10
-83.10585455983284
 20
13.1419969566704
 30
0.0
 10
-83.26302742492562
 20
13.00059041725556
 30
0.0
 10
-83.44041261146309
 20
12.78928752421795
 30
0.0
 10
-83.56944671484158
 20
12.54673830138206
 30
0.0
 10
-83.65399724439771
 20
12.28276726819644
 30
0.0
 10
-83.68693710144117
 20
12.05802314963911
 30
0.0
 10
-83.689484128608
 20
11.92253385713793
 30
0.0
 10
-83.69022856285613
 20
11.88293362400891
 30
0.0
  0
LINE
  5
CD35
330
A
100
AcDbEntity
  8
0
  6
Continuous
 62
     7
370
    15
100
AcDbLine
 10
-79.8010592986123
 20
15.04374553750095
 30
0.0
 11
-82.98304000624677
 21
13.2068271748903
 31
0.0
  0
LINE
  5
CD36
330
A
100
AcDbEntity
  8
0
  6
Continuous
 62
     7
370
    15
100
AcDbLine
 10
-83.69022856285613
 20
11.88293362400891
 30
0.0
 11
-83.69022856285613
 21
3.409921490022022
 31
0.0
  0
SPLINE
  5
CD37
330
A
100
AcDbEntity
  8
0
  6
Continuous
 62
     7
370
    15
100
AcDbSpline
210
0.0
220
0.0
230
1.0
 70
     8
 71
     3
 72
    13
 73
     9
 74
     0
 42
0.00000001
 43
0.00000001
 40
0.0
 40
0.0
 40
0.0
 40
0.0
 40
0.1405159920869396
 40
0.3294318654791271
 40
0.50994517546443
 40
0.685209770577796
 40
0.8576918314822859
 40
1.0
 40
1.0
 40
1.0
 40
1.0
 10
-78.30118071774413
 20
14.99423688603756
 30
0.0
 10
-78.3662879856683
 20
15.0289545885041
 30
0.0
 10
-78.51892832510552
 20
15.11034829550386
 30
0.0
 10
-78.77269433987325
 20
15.19236006211174
 30
0.0
 10
-79.05469106953552
 20
15.23246982583832
 30
0.0
 10
-79.33088817140279
 20
15.21632923000929
 30
0.0
 10
-79.58349968645467
 20
15.15691222447172
 30
0.0
 10
-79.72856871491209
 20
15.07697178877599
 30
0.0
 10
-79.79415050817906
 20
15.04083287488644
 30
0.0
  0
LINE
  5
CD38
330
A
100
AcDbEntity
  8
0
  6
Continuous
 62
     7
370
    15
100
AcDbLine
 10
-53.22926090719412
 20
-30.57123501023647
 30
0.0
 11
-52.52215401010375
 21
-30.16303088741525
 31
0.0
  0
LINE
  5
CD39
330
A
100
AcDbEntity
  8
0
  6
Continuous
 62
     7
370
    15
100
AcDbLine
 10
-79.9778353643404
 20
6.368678457253459
 30
0.0
 11
-80.68494226143076
 21
5.96047433443227
 31
0.0
  0
LINE
  5
CD3A
330
A
100
AcDbEntity
  8
0
  6
Continuous
 62
     7
370
    15
100
AcDbLine
 10
-53.93636763964838
 20
-30.97943903801524
 30
0.0
 11
-53.22926090719412
 21
-30.57123501023647
 31
0.0
  0
LINE
  5
CD3B
330
A
100
AcDbEntity
  8
0
  6
Continuous
 62
     7
370
    15
100
AcDbLine
 10
-80.68494226143076
 20
5.96047433443227
 30
0.0
 11
-81.39204899388503
 21
5.552270306653448
 31
0.0
  0
LINE
  5
CD3C
330
A
100
AcDbEntity
  8
0
  6
Continuous
 62
     7
370
    15
100
AcDbLine
 10
-52.27217446614054
 20
-30.18778483297731
 30
0.0
 11
-51.9310826553199
 21
-29.99087672189753
 31
0.0
  0
LINE
  5
CD3D
330
A
100
AcDbEntity
  8
0
  6
Continuous
 62
     7
370
    15
100
AcDbLine
 10
-79.52070834048544
 20
7.209906808415532
 30
0.0
 11
-80.22781490830357
 21
6.801702875679133
 31
0.0
  0
ARC
  5
CD3E
330
A
100
AcDbEntity
  8
0
  6
Continuous
 62
     7
370
    15
100
AcDbCircle
 10
-61.47702485340176
 20
-38.59825646131687
 30
0.0
 40
1.537017783914694
100
AcDbArc
 50
242.6096461695816
 51
297.3904154395962
  0
LINE
  5
CD3F
330
A
100
AcDbEntity
  8
0
  6
Continuous
 62
     7
370
    15
100
AcDbLine
 10
-62.18413035822468
 20
-39.96296356290284
 30
0.0
 11
-96.12525615020684
 21
-20.36916870884178
 31
0.0
  0
LINE
  5
CD40
330
A
100
AcDbEntity
  8
0
  6
Continuous
 62
     7
370
    15
100
AcDbLine
 10
-57.58793750277073
 20
-38.12604463003773
 30
0.0
 11
-60.76991788113293
 21
-39.96296280256353
 31
0.0
  0
ARC
  5
CD41
330
A
100
AcDbEntity
  8
0
  6
Continuous
 62
     7
370
    15
100
AcDbCircle
 10
-57.79549840319254
 20
-37.66793495347527
 30
0.0
 40
0.502937374972394
100
AcDbArc
 50
294.3743884336327
 51
354.3051863157634
  0
ARC
  5
CD42
330
A
100
AcDbEntity
  8
0
  6
Continuous
 62
     7
370
    15
100
AcDbCircle
 10
-95.91768963760106
 20
-19.91105519134987
 30
0.0
 40
0.5029431896985341
100
AcDbArc
 50
185.6950132628738
 51
245.6252097877209
  0
LINE
  5
CD43
330
A
100
AcDbEntity
  8
0
  6
Continuous
 62
     7
370
    15
100
AcDbLine
 10
-49.80481925824409
 20
-7.095568982410065
 30
0.0
 11
-50.1633157418662
 21
-6.89432047440976
 31
0.0
  0
LINE
  5
CD44
330
A
100
AcDbEntity
  8
0
  6
Continuous
 62
     7
370
    15
100
AcDbLine
 10
-49.45620818623132
 20
-8.119065923127856
 30
0.0
 11
-49.45126515115439
 21
-7.707941896853946
 31
0.0
  0
SPLINE
  5
CD45
330
A
100
AcDbEntity
  8
0
  6
Continuous
 62
     7
370
    15
100
AcDbSpline
210
0.0
220
0.0
230
1.0
 70
     8
 71
     3
 72
    12
 73
     8
 74
     0
 42
0.00000001
 43
0.00000001
 40
0.0
 40
0.0
 40
0.0
 40
0.0
 40
0.2147368045045227
 40
0.4295094351459615
 40
0.6432312697658994
 40
0.8562185063421535
 40
1.0
 40
1.0
 40
1.0
 40
1.0
 10
-49.45126515115439
 20
-7.707941896853946
 30
0.0
 10
-49.45291862791231
 20
-7.658518256122811
 30
0.0
 10
-49.45622585728995
 20
-7.559662728947266
 30
0.0
 10
-49.51287421276115
 20
-7.399821352425498
 30
0.0
 10
-49.60319003237294
 20
-7.25663064275107
 30
0.0
 10
-49.7073572828989
 20
-7.153020444724852
 30
0.0
 10
-49.77682360921409
 20
-7.112071736120207
 30
0.0
 10
-49.80481925824409
 20
-7.095568982410065
 30
0.0
  0
LINE
  5
CD46
330
A
100
AcDbEntity
  8
0
  6
Continuous
 62
     7
370
    15
100
AcDbLine
 10
-49.45620818623132
 20
-11.38522970603673
 30
0.0
 11
-49.45620818623132
 21
-8.119065923127856
 31
0.0
  0
ARC
  5
CD47
330
A
100
AcDbEntity
  8
0
  6
Continuous
 62
     7
370
    15
100
AcDbCircle
 10
-48.74910266261318
 20
-31.25058537557481
 30
0.0
 40
1.537016030511027
100
AcDbArc
 50
242.6096115139314
 51
297.3904346929659
  0
LINE
  5
CD48
330
A
100
AcDbEntity
  8
0
  6
Continuous
 62
     7
370
    15
100
AcDbLine
 10
-50.1633157418662
 20
-6.89432047440976
 30
0.0
 11
-82.6902270811231
 21
11.8830657538392
 31
0.0
  0
LINE
  5
CD49
330
A
100
AcDbEntity
  8
0
  6
Continuous
 62
     7
370
    15
100
AcDbLine
 10
-48.04199603841184
 20
-32.61528992237549
 30
0.0
 11
-44.86001533077737
 21
-30.77837155976487
 31
0.0
  0
LINE
  5
CD4A
330
A
100
AcDbEntity
  8
0
  6
Continuous
 62
     7
370
    15
100
AcDbLine
 10
-51.93108232604766
 20
-9.956515276162484
 30
0.0
 11
-51.93108232604766
 21
-31.18657606275573
 31
0.0
  0
LINE
  5
CD4B
330
A
100
AcDbEntity
  8
0
  6
Continuous
 62
     7
370
    15
100
AcDbLine
 10
-51.93108232604766
 20
-9.956515276162484
 30
0.0
 11
-49.45620818623132
 21
-11.38522970603673
 31
0.0
  0
LINE
  5
CD4C
330
A
100
AcDbEntity
  8
0
  6
Continuous
 62
     7
370
    15
100
AcDbLine
 10
-51.93108232604766
 20
-31.18657606275573
 30
0.0
 11
-49.45620818623132
 21
-32.61529049262997
 31
0.0
  0
LINE
  5
CD4D
330
A
100
AcDbEntity
  8
0
  6
Continuous
 62
     7
370
    15
100
AcDbLine
 10
-51.93108232604766
 20
-9.956515276162484
 30
0.0
 11
-51.22397575822953
 21
-9.548311343426086
 31
0.0
  0
LINE
  5
CD4E
330
A
100
AcDbEntity
  8
0
  6
Continuous
 62
     7
370
    15
100
AcDbLine
 10
-51.22397575822953
 20
-9.548311343426086
 30
0.0
 11
-49.45620917404807
 21
-10.56882127030951
 31
0.0
  0
ARC
  5
CD4F
330
A
100
AcDbEntity
  8
0
  6
Continuous
 62
     7
370
    15
100
AcDbCircle
 10
-45.06757633001578
 20
-30.32026181229943
 30
0.0
 40
0.5029374803369765
100
AcDbArc
 50
294.3743953541166
 51
354.3051793952661
  0
LINE
  5
CD50
330
A
100
AcDbEntity
  8
0
  6
Continuous
 62
     7
370
    15
100
AcDbLine
 10
-83.39239094313656
 20
11.88585295720711
 30
0.0
 11
-83.39733397821348
 21
11.4747289309332
 31
0.0
  0
SPLINE
  5
CD51
330
A
100
AcDbEntity
  8
0
  6
Continuous
 62
     7
370
    15
100
AcDbSpline
210
0.0
220
0.0
230
1.0
 70
     8
 71
     3
 72
    12
 73
     8
 74
     0
 42
0.00000001
 43
0.00000001
 40
0.0
 40
0.0
 40
0.0
 40
0.0
 40
0.2147390144300247
 40
0.4295125524039494
 40
0.6432326713480468
 40
0.8562197760531436
 40
1.0
 40
1.0
 40
1.0
 40
1.0
 10
-83.03883683604687
 20
12.09002098849047
 30
0.0
 10
-83.076313890233
 20
12.10974623501944
 30
0.0
 10
-83.15127402378295
 20
12.14919989930087
 30
0.0
 10
-83.2529188894521
 20
12.14246272617641
 30
0.0
 10
-83.33357525369524
 20
12.08473010300066
 30
0.0
 10
-83.38107846903019
 20
11.99186648166117
 30
0.0
 10
-83.38914148151807
 20
11.91630490569487
 30
0.0
 10
-83.39239094313656
 20
11.88585295720711
 30
0.0
  0
LINE
  5
CD52
330
A
100
AcDbEntity
  8
0
  6
Continuous
 62
     7
370
    15
100
AcDbLine
 10
-82.6902270811231
 20
11.8830657538392
 30
0.0
 11
-83.03883683604687
 21
12.09002098849047
 31
0.0
  0
LINE
  5
CD53
330
A
100
AcDbEntity
  8
0
  6
Continuous
 62
     7
370
    15
100
AcDbLine
 10
-82.4073845198503
 20
8.780050805923118
 30
0.0
 11
-83.39733397821348
 21
8.208565148024327
 31
0.0
  0
LINE
  5
CD54
330
A
100
AcDbEntity
  8
0
  6
Continuous
 62
     7
370
    15
100
AcDbLine
 10
-83.39733397821348
 20
11.4747289309332
 30
0.0
 11
-83.39733397821348
 21
8.208565148024327
 31
0.0
  0
LINE
  5
CD55
330
A
100
AcDbEntity
  8
0
  6
Continuous
 62
     7
370
    15
100
AcDbLine
 10
-80.92246049694165
 20
6.779851098319718
 30
0.0
 11
-80.92246049694165
 21
5.823358364409764
 31
0.0
  0
LINE
  5
CD56
330
A
100
AcDbEntity
  8
0
  6
Continuous
 62
     7
370
    15
100
AcDbLine
 10
-80.21535392912352
 20
7.188055031056116
 30
0.0
 11
-80.92246049694165
 21
6.779851098319718
 31
0.0
  0
LINE
  5
CD57
330
A
100
AcDbEntity
  8
0
  6
Continuous
 62
     7
370
    15
100
AcDbLine
 10
-80.21535392912352
 20
7.188055031056116
 30
0.0
 11
-80.21535392912352
 21
6.808896598593584
 31
0.0
  0
LINE
  5
CD58
330
A
100
AcDbEntity
  8
0
  6
Continuous
 62
     7
370
    15
100
AcDbLine
 10
-83.39733397821348
 20
8.208565148024327
 30
0.0
 11
-80.92246049694165
 21
6.779851098319718
 31
0.0
  0
LWPOLYLINE
  5
CD59
330
A
100
AcDbEntity
  8
0
  6
Continuous
 62
     7
370
    15
100
AcDbPolyline
 90
        8
 70
   128
 43
0.0
 10
-82.33667330330564
 20
8.412666639180465
 10
-82.3988557099274
 20
8.456407438697745
 10
-82.445059851152
 20
8.50630964777023
 10
-82.47351391298065
 20
8.560458161774257
 10
-82.48312174807987
 20
8.616769841100002
 10
-82.47351259589163
 20
8.673080379916804
 10
-82.44505952187973
 20
8.727227943496707
 10
-82.40738550766706
 20
8.769505850191912
  0
LINE
  5
CD5A
330
A
100
AcDbEntity
  8
0
  6
Continuous
 62
     7
370
    15
100
AcDbLine
 10
-82.33667330330564
 20
8.412666639180465
 30
0.0
 11
-80.21535392912352
 21
7.188055031056116
 31
0.0
  0
ARC
  5
CD5B
330
A
100
AcDbEntity
  8
0
  6
Continuous
 62
     7
370
    15
100
AcDbCircle
 10
-80.27086331904951
 20
5.043699462977806
 30
0.0
 40
1.0059510601684
100
AcDbArc
 50
54.38234471046326
 51
114.3072267766606
  0
LINE
  5
CD5C
330
A
100
AcDbEntity
  8
0
  6
Continuous
 62
     7
370
    15
100
AcDbLine
 10
-79.685024085578
 20
5.861458552184054
 30
0.0
 11
-54.22917974159139
 21
-8.833887588361755
 31
0.0
  0
ARC
  5
CD5D
330
A
100
AcDbEntity
  8
0
  6
Continuous
 62
     7
370
    15
100
AcDbCircle
 10
-55.88539891784583
 20
-11.42309964892112
 30
0.0
 40
3.073610426573119
100
AcDbArc
 50
2.605496073498069
 51
57.39451947691744
  0
LINE
  5
CD5E
330
A
100
AcDbEntity
  8
0
  6
Continuous
 62
     7
370
    15
100
AcDbLine
 10
-52.81496594741063
 20
-11.28337696499573
 30
0.0
 11
-52.81496594741063
 21
-29.65554520200657
 31
0.0
  0
ARC
  5
CD5F
330
A
100
AcDbEntity
  8
0
  6
Continuous
 62
     7
370
    15
100
AcDbCircle
 10
-53.7663719607325
 20
-29.77665756153637
 30
0.0
 40
0.9590837324321175
100
AcDbArc
 50
304.0575401092319
 51
7.254635953582893
  0
ARC
  5
CD60
330
A
100
AcDbEntity
  8
0
  6
Continuous
 62
     7
370
    15
100
AcDbCircle
 10
-55.17829202075541
 20
-11.01489552609984
 30
0.0
 40
3.073610426573055
100
AcDbArc
 50
2.605496073497065
 51
57.39451947691733
  0
LINE
  5
CD61
330
A
100
AcDbEntity
  8
0
  6
Continuous
 62
     7
370
    15
100
AcDbLine
 10
-52.10785905032026
 20
-10.87517284217451
 30
0.0
 11
-52.10785905032026
 21
-29.24734107918538
 31
0.0
  0
LINE
  5
CD62
330
A
100
AcDbEntity
  8
0
  6
Continuous
 62
     7
370
    15
100
AcDbLine
 10
-78.97791718848762
 20
6.269662675005243
 30
0.0
 11
-53.522072844501
 21
-8.425683465540537
 31
0.0
  0
ARC
  5
CD63
330
A
100
AcDbEntity
  8
0
  6
Continuous
 62
     7
370
    15
100
AcDbCircle
 10
-53.05926506364219
 20
-29.36845343871513
 30
0.0
 40
0.9590837324321667
100
AcDbArc
 50
304.0575401092341
 51
7.254635953578886
  0
ARC
  5
CD64
330
A
100
AcDbEntity
  8
0
  6
Continuous
 62
     7
370
    15
100
AcDbCircle
 10
-79.56375642195911
 20
5.451903585799108
 30
0.0
 40
1.005951060168301
100
AcDbArc
 50
54.38234471046115
 51
114.3072267766649
  0
LINE
  5
CD65
330
A
100
AcDbEntity
  8
0
  6
Continuous
 62
     7
370
    15
100
AcDbLine
 10
-81.80634461221302
 20
2.32237861145709
 30
0.0
 11
-81.80634461221302
 21
4.636581639056125
 31
0.0
  0
ARC
  5
CD66
330
A
100
AcDbEntity
  8
0
  6
Continuous
 62
     7
370
    15
100
AcDbCircle
 10
-80.94419571542542
 20
4.776435389844245
 30
0.0
 40
0.8734184517409926
100
AcDbArc
 50
50.79671189294577
 51
189.2139936524481
  0
LINE
  5
CD67
330
A
100
AcDbEntity
  8
0
  6
Continuous
 62
     7
370
    15
100
AcDbLine
 10
-80.39213081803226
 20
5.453254524405232
 30
0.0
 11
-54.93628647404563
 21
-9.242091616140549
 31
0.0
  0
ARC
  5
CD68
330
A
100
AcDbEntity
  8
0
  6
Continuous
 62
     7
370
    15
100
AcDbCircle
 10
-56.59250565030013
 20
-11.83130367669988
 30
0.0
 40
3.073610426573142
100
AcDbArc
 50
2.605496073497522
 51
57.39451947691615
  0
LINE
  5
CD69
330
A
100
AcDbEntity
  8
0
  6
Continuous
 62
     7
370
    15
100
AcDbLine
 10
-53.52207267986489
 20
-11.69158099277453
 30
0.0
 11
-53.52207267986489
 21
-30.06374922978537
 31
0.0
  0
ARC
  5
CD6A
330
A
100
AcDbEntity
  8
0
  6
Continuous
 62
     7
370
    15
100
AcDbCircle
 10
-54.38422157515825
 20
-30.20360361339583
 30
0.0
 40
0.8734185515951808
100
AcDbArc
 50
230.7967171094415
 51
9.214034645310264
  0
LINE
  5
CD6B
330
A
100
AcDbEntity
  8
0
  6
Continuous
 62
     7
370
    15
100
AcDbLine
 10
-54.93628647404563
 20
-30.88042287559738
 30
0.0
 11
-56.70405338749933
 21
-29.8599127586292
 31
0.0
  0
ARC
  5
CD6C
330
A
100
AcDbEntity
  8
0
  6
Continuous
 62
     7
370
    15
100
AcDbCircle
 10
-55.38441984841853
 20
-27.66900027388763
 30
0.0
 40
2.557641529468794
100
AcDbArc
 50
221.6666145325987
 51
238.9385435523964
  0
ARC
  5
CD6D
330
A
100
AcDbEntity
  8
0
  6
Continuous
 62
     7
370
    15
100
AcDbCircle
 10
-54.94876856426569
 20
-10.89334279203512
 30
0.0
 40
3.916458422194096
100
AcDbArc
 50
19.74027937703994
 51
56.98698341774802
  0
LINE
  5
CD6E
330
A
100
AcDbEntity
  8
0
  6
Continuous
 62
     7
370
    15
100
AcDbLine
 10
-52.81496627668287
 20
-7.609209059940547
 30
0.0
 11
-78.2708106206695
 21
7.086137080605262
 31
0.0
  0
ARC
  5
CD6F
330
A
100
AcDbEntity
  8
0
  6
Continuous
 62
     7
370
    15
100
AcDbCircle
 10
-79.00293043267644
 20
6.065748184772282
 30
0.0
 40
1.255863415293362
100
AcDbArc
 50
54.34090220103601
 51
114.3486692860861
  0
LINE
  5
CD70
330
A
100
AcDbEntity
  8
0
  6
Continuous
 62
     7
370
    15
100
AcDbLine
 10
-82.40738550766706
 20
10.37232582119797
 30
0.0
 11
-82.40738550766706
 21
8.464033930342545
 31
0.0
  0
ARC
  5
CD71
330
A
100
AcDbEntity
  8
0
  6
Continuous
 62
     7
370
    15
100
AcDbCircle
 10
-81.11887211206155
 20
10.48930441641844
 30
0.0
 40
1.293812491203655
100
AcDbArc
 50
130.9920607560613
 51
185.1874172051268
  0
LINE
  5
CD72
330
A
100
AcDbEntity
  8
0
  6
Continuous
 62
     7
370
    15
100
AcDbLine
 10
-52.08281756613195
 20
-30.0784712462813
 30
0.0
 11
-51.93108298459217
 21
-30.16606575570267
 31
0.0
  0
LWPOLYLINE
  5
CD73
330
A
100
AcDbEntity
  8
0
  6
Continuous
 62
     7
370
    15
100
AcDbPolyline
 90
       10
 70
   128
 43
0.0
 10
-78.97791718848762
 20
6.677933147868863
 10
-79.28488585708263
 20
6.824129951077829
 10
-79.58252821835558
 20
6.903859370397562
 10
-79.86179982203384
 20
6.914698659262747
 10
-80.11421598067656
 20
6.856319333386104
 10
-80.33210465076576
 20
6.730492470270157
 10
-80.50884745999619
 20
6.541044579742966
 10
-80.63907463644978
 20
6.29373058836476
 10
-80.71882701054452
 20
5.996064241001797
 10
-80.72789648550847
 20
5.935678073645768
  0
LINE
  5
CD74
330
A
100
AcDbEntity
  8
0
  6
Continuous
 62
     7
370
    15
100
AcDbLine
 10
-53.522072844501
 20
-8.017412992676945
 30
0.0
 11
-78.97791718848762
 21
6.677933147868863
 31
0.0
  0
ARC
  5
CD75
330
A
100
AcDbEntity
  8
0
  6
Continuous
 62
     7
370
    15
100
AcDbCircle
 10
-55.58728517713061
 20
-11.25113303196962
 30
0.0
 40
3.836932012867667
100
AcDbArc
 50
17.65548719305003
 51
57.43570117831862
  0
ARC
  5
CD76
330
A
100
AcDbEntity
  8
0
  6
Continuous
 62
     7
370
    15
100
AcDbCircle
 10
-52.72273653179977
 20
-29.40775753327906
 30
0.0
 40
0.8976570504926314
100
AcDbArc
 50
267.1792255967666
 51
331.8737862192112
  0
ARC
  5
CD77
330
A
100
AcDbEntity
  8
0
  6
Continuous
 62
     8
370
     0
100
AcDbCircle
 10
-63.71935011446922
 20
-15.53660186539116
 30
0.0
 40
1.536808550485829
100
AcDbArc
 50
2.605547513734759
 51
57.39448344144522
  0
ARC
  5
CD78
330
A
100
AcDbEntity
  8
0
  6
Continuous
 62
     8
370
     0
100
AcDbCircle
 10
-61.35601898847474
 20
-14.31185589355618
 30
0.0
 40
1.536807696704393
100
AcDbArc
 50
122.605529293427
 51
177.3944705609436
  0
ARC
  5
CD79
330
A
100
AcDbEntity
  8
0
  6
Continuous
 62
     8
370
     0
100
AcDbCircle
 10
-63.84034728798909
 20
-15.60645801229432
 30
0.0
 40
3.073606734635386
100
AcDbArc
 50
2.605445002266783
 51
57.394539738574
  0
ARC
  5
CD7A
330
A
100
AcDbEntity
  8
0
  6
Continuous
 62
     8
370
     0
100
AcDbCircle
 10
-61.47702485340173
 20
-14.10203189181467
 30
0.0
 40
1.537017783914782
100
AcDbArc
 50
242.6096461695821
 51
297.3904154395934
  0
ARC
  5
CD7B
330
A
100
AcDbEntity
  8
0
  6
Continuous
 62
     8
370
     0
100
AcDbCircle
 10
-60.65836690962703
 20
-13.7695398397686
 30
0.0
 40
3.073606734635566
100
AcDbArc
 50
2.60544500226875
 51
57.39453973857237
  0
LINE
  5
CD7C
330
A
100
AcDbEntity
  8
0
  6
Continuous
 62
     8
370
     0
100
AcDbLine
 10
-57.58793750277073
 20
-13.62982006053561
 30
0.0
 11
-60.76991788113293
 21
-15.46673823306144
 31
0.0
  0
LINE
  5
CD7D
330
A
100
AcDbEntity
  8
0
  6
Continuous
 62
     8
370
     0
100
AcDbLine
 10
-62.18413101676919
 20
-13.01724847613422
 30
0.0
 11
-59.00215063840696
 21
-11.18033030360839
 31
0.0
  0
LINE
  5
CD7E
330
A
100
AcDbEntity
  8
0
  6
Continuous
 62
     8
370
     0
100
AcDbLine
 10
-62.18413035822468
 20
-39.96296356290284
 30
0.0
 11
-62.18413035822468
 21
-15.46673899340072
 31
0.0
  0
LINE
  5
CD7F
330
A
100
AcDbEntity
  8
0
  6
Continuous
 62
     8
370
     0
100
AcDbLine
 10
-60.76991788113293
 20
-15.46673823306144
 30
0.0
 11
-60.76991788113293
 21
-39.96296280256353
 31
0.0
  0
LINE
  5
CD80
330
A
100
AcDbEntity
  8
0
  6
Continuous
 62
     8
370
     0
100
AcDbLine
 10
-62.89123791385956
 20
-14.24199354468262
 30
0.0
 11
-95.41814925311645
 21
4.535392683566336
 31
0.0
  0
LINE
  5
CD81
330
A
100
AcDbEntity
  8
0
  6
Continuous
 62
     8
370
     0
100
AcDbLine
 10
-96.12525615020684
 20
4.127055860660313
 30
0.0
 11
-96.12525615020684
 21
-20.36916870884178
 31
0.0
  0
ARC
  5
CD82
330
A
100
AcDbEntity
  8
0
  6
Continuous
 62
     8
370
     0
100
AcDbCircle
 10
-95.69418181559021
 20
4.196983248196922
 30
0.0
 40
0.4367091955671442
100
AcDbArc
 50
50.7966893865061
 51
189.2140623682475
  0
ARC
  5
CD83
330
A
100
AcDbEntity
  8
0
  6
Continuous
 62
     8
370
     0
100
AcDbCircle
 10
-93.8829303277316
 20
4.465530334692779
 30
0.0
 40
1.53680769670444
100
AcDbArc
 50
122.6055292934277
 51
177.3944705609426
  0
LINE
  5
CD84
330
A
100
AcDbEntity
  8
0
  6
Continuous
 62
     8
370
     0
100
AcDbLine
 10
-94.71104235602607
 20
5.760137752114765
 30
0.0
 11
-62.18413101676919
 21
-13.01724847613422
 31
0.0
  0
LINE
  5
CD85
330
A
100
AcDbEntity
  8
0
  6
Continuous
 62
     8
370
     0
100
AcDbLine
 10
-57.58793750277073
 20
-38.12604463003773
 30
0.0
 11
-57.58793750277073
 21
-13.62982006053561
 31
0.0
  0
LINE
  5
CD86
330
A
100
AcDbEntity
  8
0
  6
Continuous
 62
     8
370
     0
100
AcDbLine
 10
-59.00215063840696
 20
-11.18033030360839
 30
0.0
 11
-91.52906197766386
 21
7.597055924640564
 31
0.0
  0
LINE
  5
CD87
330
A
100
AcDbEntity
  8
0
  6
Continuous
 62
     8
370
     0
100
AcDbLine
 10
-91.52906197766386
 20
7.597055924640564
 30
0.0
 11
-94.71104235602607
 21
5.760137752114765
 31
0.0
  0
ARC
  5
CD88
330
A
100
AcDbEntity
  8
0
  6
Continuous
 62
     8
370
     0
100
AcDbCircle
 10
-57.77285633395576
 20
-13.18797052985709
 30
0.0
 40
0.4789843232170722
100
AcDbArc
 50
292.7098400694788
 51
355.9918043796079
  0
ARC
  5
CD89
330
A
100
AcDbEntity
  8
0
  6
Continuous
 62
     8
370
     0
100
AcDbCircle
 10
-58.71194141648709
 20
-11.56195320986011
 30
0.0
 40
0.4794344950703465
100
AcDbArc
 50
64.03662627929316
 51
127.2515620698938
  0
ARC
  5
CD8A
330
A
100
AcDbEntity
  8
0
  6
Continuous
 62
     8
370
     0
100
AcDbCircle
 10
-91.23614175295981
 20
7.188173377405299
 30
0.0
 40
0.5029783250541427
100
AcDbArc
 50
65.69295186240731
 51
125.617512394429
  0
ARC
  5
CD8B
330
A
100
AcDbEntity
  8
0
  6
Continuous
 62
     8
370
     0
100
AcDbCircle
 10
-95.93904247046851
 20
4.569836550579801
 30
0.0
 40
0.4803439120955833
100
AcDbArc
 50
184.1100212339527
 51
247.190563587095
  0
ARC
  5
CD8C
330
A
100
AcDbEntity
  8
0
  6
Continuous
 62
     8
370
     0
100
AcDbCircle
 10
-95.29440313775766
 20
4.966882863452021
 30
0.0
 40
0.9846639630096253
100
AcDbArc
 50
53.6691832886865
 51
115.0609169310402
  0
ARC
  5
CD8D
330
A
100
AcDbEntity
  8
0
  6
Continuous
 62
     8
370
     0
100
AcDbCircle
 10
-92.1149033659332
 20
6.779287622989763
 30
0.0
 40
1.005959804064854
100
AcDbArc
 50
54.38255051660484
 51
114.3069494826435
  0
ARC
  5
CD8E
330
A
100
AcDbEntity
  8
0
  6
Continuous
 62
     8
370
     0
100
AcDbCircle
 10
-48.62809852544601
 20
-6.964181814902439
 30
0.0
 40
1.536805943666408
100
AcDbArc
 50
122.6055100386577
 51
177.3945052205023
  0
ARC
  5
CD8F
330
A
100
AcDbEntity
  8
0
  6
Continuous
 62
     8
370
     0
100
AcDbCircle
 10
-51.11242544526806
 20
-8.258785132106333
 30
0.0
 40
3.073606734635472
100
AcDbArc
 50
2.605445002268299
 51
57.39453973857314
  0
ARC
  5
CD90
330
A
100
AcDbEntity
  8
0
  6
Continuous
 62
     8
370
     0
100
AcDbCircle
 10
-48.74910266261318
 20
-6.75436080607286
 30
0.0
 40
1.537016030510875
100
AcDbArc
 50
242.6096115139285
 51
297.3904346929687
  0
LINE
  5
CD91
330
A
100
AcDbEntity
  8
0
  6
Continuous
 62
     8
370
     0
100
AcDbLine
 10
-49.45620917404807
 20
-5.669575595946178
 30
0.0
 11
-46.2742284664136
 21
-3.832657233335532
 31
0.0
  0
ARC
  5
CD92
330
A
100
AcDbEntity
  8
0
  6
Continuous
 62
     8
370
     0
100
AcDbCircle
 10
-47.93044473763365
 20
-6.421866769495715
 30
0.0
 40
3.073606734635526
100
AcDbArc
 50
2.605445002268251
 51
57.39453973857253
  0
LINE
  5
CD93
330
A
100
AcDbEntity
  8
0
  6
Continuous
 62
     8
370
     0
100
AcDbLine
 10
-44.86001533077737
 20
-6.282146990262753
 30
0.0
 11
-48.04199603841184
 21
-8.11906535287337
 31
0.0
  0
LINE
  5
CD94
330
A
100
AcDbEntity
  8
0
  6
Continuous
 62
     8
370
     0
100
AcDbLine
 10
-49.45620818623132
 20
-32.61529049262997
 30
0.0
 11
-49.45620818623132
 21
-11.38522970603673
 31
0.0
  0
LINE
  5
CD95
330
A
100
AcDbEntity
  8
0
  6
Continuous
 62
     8
370
     0
100
AcDbLine
 10
-48.04199603841184
 20
-8.11906535287337
 30
0.0
 11
-48.04199603841184
 21
-32.61528992237549
 31
0.0
  0
LINE
  5
CD96
330
A
100
AcDbEntity
  8
0
  6
Continuous
 62
     8
370
     0
100
AcDbLine
 10
-81.98312051330498
 20
13.10781063230281
 30
0.0
 11
-49.45620917404807
 21
-5.669575595946178
 31
0.0
  0
ARC
  5
CD97
330
A
100
AcDbEntity
  8
0
  6
Continuous
 62
     8
370
     0
100
AcDbCircle
 10
-81.15500986470283
 20
11.81320441334649
 30
0.0
 40
1.536805943666484
100
AcDbArc
 50
122.6055100386584
 51
177.3945052205013
  0
LINE
  5
CD98
330
A
100
AcDbEntity
  8
0
  6
Continuous
 62
     8
370
     0
100
AcDbLine
 10
-44.86001533077737
 20
-30.77837155976487
 30
0.0
 11
-44.86001533077737
 21
-6.282146990262753
 31
0.0
  0
LINE
  5
CD99
330
A
100
AcDbEntity
  8
0
  6
Continuous
 62
     8
370
     0
100
AcDbLine
 10
-78.80113980567052
 20
14.94472899491343
 30
0.0
 11
-81.98312051330498
 21
13.10781063230281
 31
0.0
  0
LINE
  5
CD9A
330
A
100
AcDbEntity
  8
0
  6
Continuous
 62
     8
370
     0
100
AcDbLine
 10
-46.2742284664136
 20
-3.832657233335532
 30
0.0
 11
-78.80113980567052
 21
14.94472899491343
 31
0.0
  0
ARC
  5
CD9B
330
A
100
AcDbEntity
  8
0
  6
Continuous
 62
     8
370
     0
100
AcDbCircle
 10
-45.05809859726381
 20
-5.830863155661397
 30
0.0
 40
0.4928428551114842
100
AcDbArc
 50
293.698244949592
 51
355.0134671153565
  0
ARC
  5
CD9C
330
A
100
AcDbEntity
  8
0
  6
Continuous
 62
     8
370
     0
100
AcDbCircle
 10
-45.9825536763621
 20
-4.229211261367617
 30
0.0
 40
0.4922695199787127
100
AcDbArc
 50
64.93801009843352
 51
126.335354003718
  0
ARC
  5
CD9D
330
A
100
AcDbEntity
  8
0
  6
Continuous
 62
     8
370
     0
100
AcDbCircle
 10
-78.50822002641712
 20
14.53584780911434
 30
0.0
 40
0.502976958894065
100
AcDbArc
 50
65.69286705090583
 51
125.6175614619796
  0
ARC
  5
CD9E
330
A
100
AcDbEntity
  8
0
  6
Continuous
 62
     8
370
     0
100
AcDbCircle
 10
-83.1897179868892
 20
11.93290230475319
 30
0.0
 40
0.5030181312151146
100
AcDbArc
 50
185.7256237294344
 51
245.622890073232
  0
ARC
  5
CD9F
330
A
100
AcDbEntity
  8
0
  6
Continuous
 62
     8
370
     0
100
AcDbCircle
 10
-82.56648129503424
 20
12.31455574366326
 30
0.0
 40
0.9846639629895693
100
AcDbArc
 50
53.66918328799647
 51
115.0609169317347
  0
ARC
  5
CDA0
330
A
100
AcDbEntity
  8
0
  6
Continuous
 62
     8
370
     0
100
AcDbCircle
 10
-79.38698119393985
 20
14.12696069326285
 30
0.0
 40
1.005959804064664
100
AcDbArc
 50
54.38255051659807
 51
114.3069494826493
  0
LINE
  5
CDA1
330
A
100
AcDbEntity
  8
0
  6
Continuous
 62
     8
370
     0
100
AcDbLine
 10
-83.04179863997152
 20
12.08824558577607
 30
0.0
 11
-83.39239094313656
 21
11.88585295720711
 31
0.0
  0
LINE
  5
CDA2
330
A
100
AcDbEntity
  8
0
  6
Continuous
 62
     8
370
     0
100
AcDbLine
 10
-83.39733397821348
 20
8.208565148024327
 30
0.0
 11
-83.39733397821348
 21
3.240837508919419
 31
0.0
  0
LINE
  5
CDA3
330
A
100
AcDbEntity
  8
0
  6
Continuous
 62
     8
370
     0
100
AcDbLine
 10
-53.522072844501
 20
-8.425683465540537
 30
0.0
 11
-54.22917974159139
 21
-8.833887588361755
 31
0.0
  0
LINE
  5
CDA4
330
A
100
AcDbEntity
  8
0
  6
Continuous
 62
     8
370
     0
100
AcDbLine
 10
-52.10785905032026
 20
-10.87517284217451
 30
0.0
 11
-52.81496594741063
 21
-11.28337696499573
 31
0.0
  0
LINE
  5
CDA5
330
A
100
AcDbEntity
  8
0
  6
Continuous
 62
     8
370
     0
100
AcDbLine
 10
-52.10785905032026
 20
-29.24734107918538
 30
0.0
 11
-52.81496594741063
 21
-29.65554520200657
 31
0.0
  0
LINE
  5
CDA6
330
A
100
AcDbEntity
  8
0
  6
Continuous
 62
     8
370
     0
100
AcDbLine
 10
-78.97791718848762
 20
6.269662675005243
 30
0.0
 11
-79.685024085578
 21
5.861458552184054
 31
0.0
  0
LINE
  5
CDA7
330
A
100
AcDbEntity
  8
0
  6
Continuous
 62
     8
370
     0
100
AcDbLine
 10
-54.22917974159139
 20
-8.833887588361755
 30
0.0
 11
-54.93628647404563
 21
-9.242091616140549
 31
0.0
  0
LINE
  5
CDA8
330
A
100
AcDbEntity
  8
0
  6
Continuous
 62
     8
370
     0
100
AcDbLine
 10
-52.81496594741063
 20
-11.28337696499573
 30
0.0
 11
-53.52207267986489
 21
-11.69158099277453
 31
0.0
  0
LINE
  5
CDA9
330
A
100
AcDbEntity
  8
0
  6
Continuous
 62
     8
370
     0
100
AcDbLine
 10
-52.81496594741063
 20
-29.65554520200657
 30
0.0
 11
-53.52207267986489
 21
-30.06374922978537
 31
0.0
  0
LINE
  5
CDAA
330
A
100
AcDbEntity
  8
0
  6
Continuous
 62
     8
370
     0
100
AcDbLine
 10
-79.685024085578
 20
5.861458552184054
 30
0.0
 11
-80.39213081803226
 21
5.453254524405232
 31
0.0
  0
LINE
  5
CDAB
330
A
100
AcDbEntity
  8
0
  6
Continuous
 62
     8
370
     0
100
AcDbLine
 10
-53.522072844501
 20
-8.017412992676945
 30
0.0
 11
-52.81496627668287
 21
-7.609209059940547
 31
0.0
  0
LINE
  5
CDAC
330
A
100
AcDbEntity
  8
0
  6
Continuous
 62
     8
370
     0
100
AcDbLine
 10
-78.2708106206695
 20
7.086137080605262
 30
0.0
 11
-78.97791718848762
 21
6.677933147868863
 31
0.0
  0
ARC
  5
CDAD
330
A
100
AcDbEntity
  8
0
  6
CENTER
 62
     1
100
AcDbCircle
 10
0.0000006990898385
 20
29.82523053781477
 30
0.0
 40
16.49999991059303
100
AcDbArc
 50
0.0
 51
180.0
  0
LINE
  5
CDB3
330
A
100
AcDbEntity
  8
0
  6
CENTER
 62
     1
100
AcDbLine
 10
-4.650000000000006
 20
0.0
 30
0.0
 11
4.650000000000006
 21
0.0
 31
0.0
  0
LINE
  5
CDB4
330
A
100
AcDbEntity
  8
0
  6
CENTER
 62
     1
100
AcDbLine
 10
0.0000000000000284
 20
-4.650000000000006
 30
0.0
 11
0.0000000000000284
 21
4.650000000000006
 31
0.0
  0
LINE
  5
CDB8
330
A
100
AcDbEntity
  8
0
  6
CENTER
 62
     1
100
AcDbLine
 10
0.0000000000000284
 20
27.67770073012356
 30
0.0
 11
0.0000000000000284
 21
47.66725190315289
 31
0.0
  0
ENDSEC
  0
SECTION
  2
OBJECTS
  0
DICTIONARY
  5
19
330
0
100
AcDbDictionary
281
     1
  3
ACAD_GROUP
350
1A
  3
ACAD_IMAGE_VARS
350
BFFD
  3
ACAD_LAYOUT
350
1E
  3
ACAD_MLINESTYLE
350
1B
  3
ACAD_PLOTSETTINGS
350
22
  3
ACAD_PLOTSTYLENAME
350
1F
  3
ACAD_SCALELIST
350
582C
  3
ACAD_WIPEOUT_VARS
350
23
  3
AcDbVariableDictionary
350
AB91
  3
APPDATA
350
BFFC
  3
ASE_INDEX_DICTIONARY
350
BB66
  3
DWGPROPS
350
CDC1
  0
DICTIONARY
  5
5858
330
14
100
AcDbDictionary
280
     1
281
     1
  3
ADSK_XREC_LAYER_RECONCILED
360
5859
  0
DICTIONARY
  5
5864
330
A
100
AcDbDictionary
280
     1
281
     1
  3
ACAD_SORTENTS
360
5865
  0
DICTIONARY
  5
1A
102
{ACAD_REACTORS
330
19
102
}
330
19
100
AcDbDictionary
281
     1
  0
RASTERVARIABLES
  5
BFFD
102
{ACAD_REACTORS
330
19
102
}
330
19
100
AcDbRasterVariables
 90
        0
 70
     1
 71
     1
 72
     0
  0
DICTIONARY
  5
1E
102
{ACAD_REACTORS
330
19
102
}
330
19
100
AcDbDictionary
281
     1
  3
Layout1
350
21
  3
Model
350
20
  0
DICTIONARY
  5
1B
102
{ACAD_REACTORS
330
19
102
}
330
19
100
AcDbDictionary
281
     1
  3
Standard
350
1C
  0
DICTIONARY
  5
22
102
{ACAD_REACTORS
330
19
102
}
330
19
100
AcDbDictionary
281
     1
  0
ACDBDICTIONARYWDFLT
  5
1F
102
{ACAD_REACTORS
330
19
102
}
330
19
100
AcDbDictionary
281
     1
  3
Normal
350
1D
100
AcDbDictionaryWithDefault
340
1D
  0
DICTIONARY
  5
582C
102
{ACAD_REACTORS
330
19
102
}
330
19
100
AcDbDictionary
281
     1
  3
A0
350
582D
  3
A1
350
582E
  3
A2
350
582F
  3
A3
350
5830
  3
A4
350
5831
  3
A5
350
5832
  3
A6
350
5833
  3
A7
350
5834
  3
A8
350
5835
  3
A9
350
5836
  3
B0
350
5837
  3
B1
350
5838
  3
B2
350
5839
  3
B3
350
583A
  3
B4
350
583B
  3
B5
350
583C
  3
B6
350
583D
  3
B7
350
583E
  3
B8
350
583F
  3
B9
350
5840
  3
C0
350
5841
  3
C1
350
5842
  3
C2
350
5843
  3
C3
350
5844
  3
C4
350
5845
  3
C5
350
5846
  3
C6
350
5847
  3
C7
350
5848
  3
C8
350
5849
  3
C9
350
584A
  3
D0
350
584B
  3
D1
350
584C
  3
D2
350
584D
  0
WIPEOUTVARIABLES
  5
23
330
19
100
AcDbWipeoutVariables
 70
     1
  0
DICTIONARY
  5
AB91
102
{ACAD_REACTORS
330
19
102
}
330
19
100
AcDbDictionary
281
     1
  3
CANNOSCALE
350
CDC2
  3
DIMASSOC
350
B616
  3
INDEXCTL
350
B615
  3
SORTENTS
350
B614
  0
DICTIONARY
  5
BFFC
102
{ACAD_REACTORS
330
19
102
}
330
19
100
AcDbDictionary
281
     1
  0
DICTIONARY
  5
BB66
102
{ACAD_REACTORS
330
19
102
}
330
19
100
AcDbDictionary
281
     1
  3
ASEBlockHierarchyIndexRecord
350
BB67
1001
DCO15
1040
1685073386.331
  0
XRECORD
  5
CDC1
102
{ACAD_REACTORS
330
19
102
}
330
19
100
AcDbXrecord
280
     1
  1
DWGPROPS COOKIE
  2

  3

  4

  6

  7

  8
renzo.ceresoli
  9

300
=
301
=
302
=
303
=
304
=
305
=
306
=
307
=
308
=
309
=
 40
0.0
 41
2455301.719027778
 42
2456051.332623993
  1

 90
        0
  0
XRECORD
  5
5859
102
{ACAD_REACTORS
330
5858
102
}
330
5858
100
AcDbXrecord
280
     1
290
     1
  0
SORTENTSTABLE
  5
5865
102
{ACAD_REACTORS
330
5864
102
}
330
5864
100
AcDbSortentsTable
330
A
331
0
  5
BAEE
331
ABEF
  5
ABEF
  0
LAYOUT
  5
21
102
{ACAD_REACTORS
330
1E
102
}
330
1E
100
AcDbPlotSettings
  1

  2

  4

  6

 40
0.0
 41
0.0
 42
0.0
 43
0.0
 44
0.0
 45
0.0
 46
0.0
 47
0.0
 48
0.0
 49
0.0
140
0.0
141
0.0
142
1.0
143
1.0
 70
     0
 72
     0
 73
     0
 74
     0
  7

 75
     0
147
1.0
148
0.0
149
0.0
100
AcDbLayout
  1
Layout1
 70
     0
 71
     1
 10
0.0
 20
0.0
 11
12.0
 21
9.0
 12
0.0
 22
0.0
 32
0.0
 14
1.000000000000000E+20
 24
1.000000000000000E+20
 34
1.000000000000000E+20
 15
-1.000000000000000E+20
 25
-1.000000000000000E+20
 35
-1.000000000000000E+20
146
0.0
 13
0.0
 23
0.0
 33
0.0
 16
1.0
 26
0.0
 36
0.0
 17
0.0
 27
1.0
 37
0.0
 76
     0
330
B
  0
LAYOUT
  5
20
102
{ACAD_REACTORS
330
1E
102
}
330
1E
100
AcDbPlotSettings
  1

  2

  4

  6

 40
0.0
 41
0.0
 42
0.0
 43
0.0
 44
0.0
 45
0.0
 46
0.0
 47
0.0
 48
0.0
 49
0.0
140
0.0
141
0.0
142
1.0
143
1.0
 70
  1024
 72
     0
 73
     0
 74
     0
  7

 75
     0
147
1.0
148
0.0
149
0.0
100
AcDbLayout
  1
Model
 70
     0
 71
     0
 10
0.0
 20
0.0
 11
0.0
 21
0.0
 12
0.0
 22
0.0
 32
0.0
 14
0.0
 24
0.0
 34
0.0
 15
0.0
 25
0.0
 35
0.0
146
0.0
 13
0.0
 23
0.0
 33
0.0
 16
0.0
 26
0.0
 36
0.0
 17
0.0
 27
0.0
 37
0.0
 76
     0
330
A
331
15
  0
MLINESTYLE
  5
1C
102
{ACAD_REACTORS
330
1B
102
}
330
1B
100
AcDbMlineStyle
  2
STANDARD
 70
     0
  3

 62
     0
 51
90.0
 52
90.0
 71
     2
 49
0.5
 62
   256
  6
BYLAYER
 49
-0.5
 62
   256
  6
BYLAYER
  0
ACDBPLACEHOLDER
  5
1D
102
{ACAD_REACTORS
330
1F
102
}
330
1F
  0
SCALE
  5
582D
102
{ACAD_REACTORS
330
582C
102
}
330
582C
100
AcDbScale
 70
     0
300
1:1
140
1.0
141
1.0
290
     1
  0
SCALE
  5
582E
102
{ACAD_REACTORS
330
582C
102
}
330
582C
100
AcDbScale
 70
     0
300
1:2
140
1.0
141
2.0
290
     0
  0
SCALE
  5
582F
102
{ACAD_REACTORS
330
582C
102
}
330
582C
100
AcDbScale
 70
     0
300
1:4
140
1.0
141
4.0
290
     0
  0
SCALE
  5
5830
102
{ACAD_REACTORS
330
582C
102
}
330
582C
100
AcDbScale
 70
     0
300
1:5
140
1.0
141
5.0
290
     0
  0
SCALE
  5
5831
102
{ACAD_REACTORS
330
582C
102
}
330
582C
100
AcDbScale
 70
     0
300
1:8
140
1.0
141
8.0
290
     0
  0
SCALE
  5
5832
102
{ACAD_REACTORS
330
582C
102
}
330
582C
100
AcDbScale
 70
     0
300
1:10
140
1.0
141
10.0
290
     0
  0
SCALE
  5
5833
102
{ACAD_REACTORS
330
582C
102
}
330
582C
100
AcDbScale
 70
     0
300
1:16
140
1.0
141
16.0
290
     0
  0
SCALE
  5
5834
102
{ACAD_REACTORS
330
582C
102
}
330
582C
100
AcDbScale
 70
     0
300
1:20
140
1.0
141
20.0
290
     0
  0
SCALE
  5
5835
102
{ACAD_REACTORS
330
582C
102
}
330
582C
100
AcDbScale
 70
     0
300
1:30
140
1.0
141
30.0
290
     0
  0
SCALE
  5
5836
102
{ACAD_REACTORS
330
582C
102
}
330
582C
100
AcDbScale
 70
     0
300
1:40
140
1.0
141
40.0
290
     0
  0
SCALE
  5
5837
102
{ACAD_REACTORS
330
582C
102
}
330
582C
100
AcDbScale
 70
     0
300
1:50
140
1.0
141
50.0
290
     0
  0
SCALE
  5
5838
102
{ACAD_REACTORS
330
582C
102
}
330
582C
100
AcDbScale
 70
     0
300
1:100
140
1.0
141
100.0
290
     0
  0
SCALE
  5
5839
102
{ACAD_REACTORS
330
582C
102
}
330
582C
100
AcDbScale
 70
     0
300
2:1
140
2.0
141
1.0
290
     0
  0
SCALE
  5
583A
102
{ACAD_REACTORS
330
582C
102
}
330
582C
100
AcDbScale
 70
     0
300
4:1
140
4.0
141
1.0
290
     0
  0
SCALE
  5
583B
102
{ACAD_REACTORS
330
582C
102
}
330
582C
100
AcDbScale
 70
     0
300
8:1
140
8.0
141
1.0
290
     0
  0
SCALE
  5
583C
102
{ACAD_REACTORS
330
582C
102
}
330
582C
100
AcDbScale
 70
     0
300
10:1
140
10.0
141
1.0
290
     0
  0
SCALE
  5
583D
102
{ACAD_REACTORS
330
582C
102
}
330
582C
100
AcDbScale
 70
     0
300
100:1
140
100.0
141
1.0
290
     0
  0
SCALE
  5
583E
102
{ACAD_REACTORS
330
582C
102
}
330
582C
100
AcDbScale
 70
     0
300
1/128" = 1'-0"
140
0.0078125
141
12.0
290
     0
  0
SCALE
  5
583F
102
{ACAD_REACTORS
330
582C
102
}
330
582C
100
AcDbScale
 70
     0
300
1/64" = 1'-0"
140
0.015625
141
12.0
290
     0
  0
SCALE
  5
5840
102
{ACAD_REACTORS
330
582C
102
}
330
582C
100
AcDbScale
 70
     0
300
1/32" = 1'-0"
140
0.03125
141
12.0
290
     0
  0
SCALE
  5
5841
102
{ACAD_REACTORS
330
582C
102
}
330
582C
100
AcDbScale
 70
     0
300
1/16" = 1'-0"
140
0.0625
141
12.0
290
     0
  0
SCALE
  5
5842
102
{ACAD_REACTORS
330
582C
102
}
330
582C
100
AcDbScale
 70
     0
300
3/32" = 1'-0"
140
0.09375
141
12.0
290
     0
  0
SCALE
  5
5843
102
{ACAD_REACTORS
330
582C
102
}
330
582C
100
AcDbScale
 70
     0
300
1/8" = 1'-0"
140
0.125
141
12.0
290
     0
  0
SCALE
  5
5844
102
{ACAD_REACTORS
330
582C
102
}
330
582C
100
AcDbScale
 70
     0
300
3/16" = 1'-0"
140
0.1875
141
12.0
290
     0
  0
SCALE
  5
5845
102
{ACAD_REACTORS
330
582C
102
}
330
582C
100
AcDbScale
 70
     0
300
1/4" = 1'-0"
140
0.25
141
12.0
290
     0
  0
SCALE
  5
5846
102
{ACAD_REACTORS
330
582C
102
}
330
582C
100
AcDbScale
 70
     0
300
3/8" = 1'-0"
140
0.375
141
12.0
290
     0
  0
SCALE
  5
5847
102
{ACAD_REACTORS
330
582C
102
}
330
582C
100
AcDbScale
 70
     0
300
1/2" = 1'-0"
140
0.5
141
12.0
290
     0
  0
SCALE
  5
5848
102
{ACAD_REACTORS
330
582C
102
}
330
582C
100
AcDbScale
 70
     0
300
3/4" = 1'-0"
140
0.75
141
12.0
290
     0
  0
SCALE
  5
5849
102
{ACAD_REACTORS
330
582C
102
}
330
582C
100
AcDbScale
 70
     0
300
1" = 1'-0"
140
1.0
141
12.0
290
     0
  0
SCALE
  5
584A
102
{ACAD_REACTORS
330
582C
102
}
330
582C
100
AcDbScale
 70
     0
300
1-1/2" = 1'-0"
140
1.5
141
12.0
290
     0
  0
SCALE
  5
584B
102
{ACAD_REACTORS
330
582C
102
}
330
582C
100
AcDbScale
 70
     0
300
3" = 1'-0"
140
3.0
141
12.0
290
     0
  0
SCALE
  5
584C
102
{ACAD_REACTORS
330
582C
102
}
330
582C
100
AcDbScale
 70
     0
300
6" = 1'-0"
140
6.0
141
12.0
290
     0
  0
SCALE
  5
584D
102
{ACAD_REACTORS
330
582C
102
}
330
582C
100
AcDbScale
 70
     0
300
1'-0" = 1'-0"
140
12.0
141
12.0
290
     0
  0
DICTIONARYVAR
  5
CDC2
102
{ACAD_REACTORS
330
AB91
102
}
330
AB91
100
DictionaryVariables
280
     0
  1
1:1
  0
DICTIONARYVAR
  5
B616
102
{ACAD_REACTORS
330
AB91
102
}
330
AB91
100
DictionaryVariables
280
     0
  1
1
  0
DICTIONARYVAR
  5
B615
102
{ACAD_REACTORS
330
AB91
102
}
330
AB91
100
DictionaryVariables
280
     0
  1
0
  0
DICTIONARYVAR
  5
B614
102
{ACAD_REACTORS
330
AB91
102
}
330
AB91
100
DictionaryVariables
280
     0
  1
127
  0
XRECORD
  5
BB67
102
{ACAD_REACTORS
330
BB66
102
}
330
BB66
100
AcDbXrecord
280
     1
  0
ENDSEC
  0
EOF
